  0
SECTION
  2
HEADER
  9
$ACADVER
  1
AC1027
  9
$ACADMAINTVER
 70
   125
  9
$DWGCODEPAGE
  3
ANSI_1252
  9
$LASTSAVEDBY
  1
ufficio.tecnico
  9
$REQUIREDVERSIONS
160
                 0
  9
$INSBASE
 10
0.0
 20
0.0
 30
0.0
  9
$EXTMIN
 10
7.123475611283367
 20
-20.88702826083727
 30
0.0
  9
$EXTMAX
 10
14.8828124962793
 20
-9.582291935538453
 30
0.0
  9
$LIMMIN
 10
0.0
 20
0.0
  9
$LIMMAX
 10
12.0
 20
9.0
  9
$ORTHOMODE
 70
     0
  9
$REGENMODE
 70
     1
  9
$FILLMODE
 70
     1
  9
$QTEXTMODE
 70
     0
  9
$MIRRTEXT
 70
     1
  9
$LTSCALE
 40
1.0
  9
$ATTMODE
 70
     1
  9
$TEXTSIZE
 40
0.2
  9
$TRACEWID
 40
0.05
  9
$TEXTSTYLE
  7
Standard
  9
$CLAYER
  8
0
  9
$CELTYPE
  6
ByLayer
  9
$CECOLOR
 62
   256
  9
$CELTSCALE
 40
1.0
  9
$DISPSILH
 70
     0
  9
$DIMSCALE
 40
1.0
  9
$DIMASZ
 40
0.18
  9
$DIMEXO
 40
0.0625
  9
$DIMDLI
 40
0.38
  9
$DIMRND
 40
0.0
  9
$DIMDLE
 40
0.0
  9
$DIMEXE
 40
0.18
  9
$DIMTP
 40
0.0
  9
$DIMTM
 40
0.0
  9
$DIMTXT
 40
0.18
  9
$DIMCEN
 40
0.09
  9
$DIMTSZ
 40
0.0
  9
$DIMTOL
 70
     0
  9
$DIMLIM
 70
     0
  9
$DIMTIH
 70
     1
  9
$DIMTOH
 70
     1
  9
$DIMSE1
 70
     0
  9
$DIMSE2
 70
     0
  9
$DIMTAD
 70
     0
  9
$DIMZIN
 70
     0
  9
$DIMBLK
  1

  9
$DIMASO
 70
     1
  9
$DIMSHO
 70
     1
  9
$DIMPOST
  1

  9
$DIMAPOST
  1

  9
$DIMALT
 70
     0
  9
$DIMALTD
 70
     2
  9
$DIMALTF
 40
25.4
  9
$DIMLFAC
 40
1.0
  9
$DIMTOFL
 70
     0
  9
$DIMTVP
 40
0.0
  9
$DIMTIX
 70
     0
  9
$DIMSOXD
 70
     0
  9
$DIMSAH
 70
     0
  9
$DIMBLK1
  1

  9
$DIMBLK2
  1

  9
$DIMSTYLE
  2
Standard
  9
$DIMCLRD
 70
     0
  9
$DIMCLRE
 70
     0
  9
$DIMCLRT
 70
     0
  9
$DIMTFAC
 40
1.0
  9
$DIMGAP
 40
0.09
  9
$DIMJUST
 70
     0
  9
$DIMSD1
 70
     0
  9
$DIMSD2
 70
     0
  9
$DIMTOLJ
 70
     1
  9
$DIMTZIN
 70
     0
  9
$DIMALTZ
 70
     0
  9
$DIMALTTZ
 70
     0
  9
$DIMUPT
 70
     0
  9
$DIMDEC
 70
     4
  9
$DIMTDEC
 70
     4
  9
$DIMALTU
 70
     2
  9
$DIMALTTD
 70
     2
  9
$DIMTXSTY
  7
Standard
  9
$DIMAUNIT
 70
     0
  9
$DIMADEC
 70
     0
  9
$DIMALTRND
 40
0.0
  9
$DIMAZIN
 70
     0
  9
$DIMDSEP
 70
    46
  9
$DIMATFIT
 70
     3
  9
$DIMFRAC
 70
     0
  9
$DIMLDRBLK
  1

  9
$DIMLUNIT
 70
     2
  9
$DIMLWD
 70
    -2
  9
$DIMLWE
 70
    -2
  9
$DIMTMOVE
 70
     0
  9
$DIMFXL
 40
1.0
  9
$DIMFXLON
 70
     0
  9
$DIMJOGANG
 40
0.7853981633974483
  9
$DIMTFILL
 70
     0
  9
$DIMTFILLCLR
 70
     0
  9
$DIMARCSYM
 70
     0
  9
$DIMLTYPE
  6

  9
$DIMLTEX1
  6

  9
$DIMLTEX2
  6

  9
$DIMTXTDIRECTION
 70
     0
  9
$LUNITS
 70
     2
  9
$LUPREC
 70
     4
  9
$SKETCHINC
 40
0.1
  9
$FILLETRAD
 40
0.5
  9
$AUNITS
 70
     0
  9
$AUPREC
 70
     0
  9
$MENU
  1
.
  9
$ELEVATION
 40
0.0
  9
$PELEVATION
 40
0.0
  9
$THICKNESS
 40
0.0
  9
$LIMCHECK
 70
     0
  9
$CHAMFERA
 40
0.5
  9
$CHAMFERB
 40
0.5
  9
$CHAMFERC
 40
1.0
  9
$CHAMFERD
 40
0.0
  9
$SKPOLY
 70
     0
  9
$TDCREATE
 40
2459325.430671296
  9
$TDUCREATE
 40
2459325.347342581
  9
$TDUPDATE
 40
2459325.456041667
  9
$TDUUPDATE
 40
2459325.372708333
  9
$TDINDWG
 40
0.0006365856
  9
$TDUSRTIMER
 40
0.0006365856
  9
$USRTIMER
 70
     1
  9
$ANGBASE
 50
0.0
  9
$ANGDIR
 70
     0
  9
$PDMODE
 70
     0
  9
$PDSIZE
 40
0.0
  9
$PLINEWID
 40
0.0
  9
$SPLFRAME
 70
     0
  9
$SPLINETYPE
 70
     6
  9
$SPLINESEGS
 70
     8
  9
$HANDSEED
  5
1E4
  9
$SURFTAB1
 70
     6
  9
$SURFTAB2
 70
     6
  9
$SURFTYPE
 70
     6
  9
$SURFU
 70
     6
  9
$SURFV
 70
     6
  9
$UCSBASE
  2

  9
$UCSNAME
  2

  9
$UCSORG
 10
0.0
 20
0.0
 30
0.0
  9
$UCSXDIR
 10
1.0
 20
0.0
 30
0.0
  9
$UCSYDIR
 10
0.0
 20
1.0
 30
0.0
  9
$UCSORTHOREF
  2

  9
$UCSORTHOVIEW
 70
     0
  9
$UCSORGTOP
 10
0.0
 20
0.0
 30
0.0
  9
$UCSORGBOTTOM
 10
0.0
 20
0.0
 30
0.0
  9
$UCSORGLEFT
 10
0.0
 20
0.0
 30
0.0
  9
$UCSORGRIGHT
 10
0.0
 20
0.0
 30
0.0
  9
$UCSORGFRONT
 10
0.0
 20
0.0
 30
0.0
  9
$UCSORGBACK
 10
0.0
 20
0.0
 30
0.0
  9
$PUCSBASE
  2

  9
$PUCSNAME
  2

  9
$PUCSORG
 10
0.0
 20
0.0
 30
0.0
  9
$PUCSXDIR
 10
1.0
 20
0.0
 30
0.0
  9
$PUCSYDIR
 10
0.0
 20
1.0
 30
0.0
  9
$PUCSORTHOREF
  2

  9
$PUCSORTHOVIEW
 70
     0
  9
$PUCSORGTOP
 10
0.0
 20
0.0
 30
0.0
  9
$PUCSORGBOTTOM
 10
0.0
 20
0.0
 30
0.0
  9
$PUCSORGLEFT
 10
0.0
 20
0.0
 30
0.0
  9
$PUCSORGRIGHT
 10
0.0
 20
0.0
 30
0.0
  9
$PUCSORGFRONT
 10
0.0
 20
0.0
 30
0.0
  9
$PUCSORGBACK
 10
0.0
 20
0.0
 30
0.0
  9
$USERI1
 70
     0
  9
$USERI2
 70
     0
  9
$USERI3
 70
     0
  9
$USERI4
 70
     0
  9
$USERI5
 70
     0
  9
$USERR1
 40
0.0
  9
$USERR2
 40
0.0
  9
$USERR3
 40
0.0
  9
$USERR4
 40
0.0
  9
$USERR5
 40
0.0
  9
$WORLDVIEW
 70
     1
  9
$SHADEDGE
 70
     3
  9
$SHADEDIF
 70
    70
  9
$TILEMODE
 70
     1
  9
$MAXACTVP
 70
    64
  9
$PINSBASE
 10
0.0
 20
0.0
 30
0.0
  9
$PLIMCHECK
 70
     0
  9
$PEXTMIN
 10
1.000000000000000E+20
 20
1.000000000000000E+20
 30
1.000000000000000E+20
  9
$PEXTMAX
 10
-1.000000000000000E+20
 20
-1.000000000000000E+20
 30
-1.000000000000000E+20
  9
$PLIMMIN
 10
0.0
 20
0.0
  9
$PLIMMAX
 10
12.0
 20
9.0
  9
$UNITMODE
 70
     0
  9
$VISRETAIN
 70
     1
  9
$PLINEGEN
 70
     0
  9
$PSLTSCALE
 70
     1
  9
$TREEDEPTH
 70
  3020
  9
$CMLSTYLE
  2
Standard
  9
$CMLJUST
 70
     0
  9
$CMLSCALE
 40
1.0
  9
$PROXYGRAPHICS
 70
     1
  9
$MEASUREMENT
 70
     0
  9
$CELWEIGHT
370
    -1
  9
$ENDCAPS
280
     0
  9
$JOINSTYLE
280
     0
  9
$LWDISPLAY
290
     1
  9
$INSUNITS
 70
     5
  9
$HYPERLINKBASE
  1

  9
$STYLESHEET
  1

  9
$XEDIT
290
     1
  9
$CEPSNTYPE
380
     0
  9
$PSTYLEMODE
290
     1
  9
$FINGERPRINTGUID
  2
{696ABE37-30F5-4DA7-88AD-143E321C6E9A}
  9
$VERSIONGUID
  2
{4934C79A-7FF0-7B4D-B1AD-53BC24614E94}
  9
$EXTNAMES
290
     1
  9
$PSVPSCALE
 40
0.0
  9
$OLESTARTUP
290
     0
  9
$SORTENTS
280
   127
  9
$INDEXCTL
280
     0
  9
$HIDETEXT
280
     1
  9
$XCLIPFRAME
280
     2
  9
$HALOGAP
280
     0
  9
$OBSCOLOR
 70
   257
  9
$OBSLTYPE
280
     0
  9
$INTERSECTIONDISPLAY
280
     0
  9
$INTERSECTIONCOLOR
 70
   257
  9
$DIMASSOC
280
     2
  9
$PROJECTNAME
  1

  9
$CAMERADISPLAY
290
     0
  9
$LENSLENGTH
 40
50.0
  9
$CAMERAHEIGHT
 40
0.0
  9
$STEPSPERSEC
 40
2.0
  9
$STEPSIZE
 40
6.0
  9
$3DDWFPREC
 40
2.0
  9
$PSOLWIDTH
 40
0.25
  9
$PSOLHEIGHT
 40
4.0
  9
$LOFTANG1
 40
1.570796326794897
  9
$LOFTANG2
 40
1.570796326794897
  9
$LOFTMAG1
 40
0.0
  9
$LOFTMAG2
 40
0.0
  9
$LOFTPARAM
 70
     7
  9
$LOFTNORMALS
280
     1
  9
$LATITUDE
 40
37.795
  9
$LONGITUDE
 40
-122.394
  9
$NORTHDIRECTION
 40
0.0
  9
$TIMEZONE
 70
 -8000
  9
$LIGHTGLYPHDISPLAY
280
     1
  9
$TILEMODELIGHTSYNCH
280
     1
  9
$CMATERIAL
347
3C
  9
$SOLIDHIST
280
     1
  9
$SHOWHIST
280
     1
  9
$DWFFRAME
280
     2
  9
$DGNFRAME
280
     2
  9
$REALWORLDSCALE
290
     1
  9
$INTERFERECOLOR
 62
   256
  9
$INTERFEREOBJVS
345
33
  9
$INTERFEREVPVS
346
F7
  9
$CSHADOW
280
     0
  9
$SHADOWPLANELOCATION
 40
0.0
  0
ENDSEC
  0
SECTION
  2
CLASSES
  0
CLASS
  1
ACDBDICTIONARYWDFLT
  2
AcDbDictionaryWithDefault
  3
ObjectDBX Classes
 90
        0
 91
        1
280
     0
281
     0
  0
CLASS
  1
VISUALSTYLE
  2
AcDbVisualStyle
  3
ObjectDBX Classes
 90
     4095
 91
       26
280
     0
281
     0
  0
CLASS
  1
MATERIAL
  2
AcDbMaterial
  3
ObjectDBX Classes
 90
     1153
 91
        3
280
     0
281
     0
  0
CLASS
  1
SUN
  2
AcDbSun
  3
SCENEOE
 90
     1153
 91
        1
280
     0
281
     0
  0
CLASS
  1
TABLESTYLE
  2
AcDbTableStyle
  3
ObjectDBX Classes
 90
     4095
 91
        1
280
     0
281
     0
  0
CLASS
  1
SCALE
  2
AcDbScale
  3
ObjectDBX Classes
 90
     1153
 91
       21
280
     0
281
     0
  0
CLASS
  1
MLEADERSTYLE
  2
AcDbMLeaderStyle
  3
ACDB_MLEADERSTYLE_CLASS
 90
     4095
 91
        1
280
     0
281
     0
  0
CLASS
  1
ACDBSECTIONVIEWSTYLE
  2
AcDbSectionViewStyle
  3
ObjectDBX Classes
 90
     1025
 91
        1
280
     0
281
     0
  0
CLASS
  1
ACDBDETAILVIEWSTYLE
  2
AcDbDetailViewStyle
  3
ObjectDBX Classes
 90
     1025
 91
        1
280
     0
281
     0
  0
CLASS
  1
SORTENTSTABLE
  2
AcDbSortentsTable
  3
ObjectDBX Classes
 90
        0
 91
        1
280
     0
281
     0
  0
CLASS
  1
DICTIONARYVAR
  2
AcDbDictionaryVar
  3
ObjectDBX Classes
 90
        0
 91
        5
280
     0
281
     0
  0
CLASS
  1
CELLSTYLEMAP
  2
AcDbCellStyleMap
  3
ObjectDBX Classes
 90
     1152
 91
        1
280
     0
281
     0
  0
ENDSEC
  0
SECTION
  2
TABLES
  0
TABLE
  2
VPORT
  5
8
330
0
100
AcDbSymbolTable
 70
     1
1001
ACAD
1000
DbSaveVer
1071
      105
  0
VPORT
  5
29
330
8
100
AcDbSymbolTableRecord
100
AcDbViewportTableRecord
  2
*Active
 70
     0
 10
0.0
 20
0.0
 11
1.0
 21
1.0
 12
5.027405137482723
 22
0.0
 13
0.0
 23
0.0
 14
0.5
 24
0.5
 15
0.5
 25
0.5
 16
0.0
 26
0.0
 36
1.0
 17
10.50008306681941
 27
-14.84999710739862
 37
0.0
 40
28.54388705744272
 41
1.823776223776223
 42
50.0
 43
0.0
 44
0.0
 50
0.0
 51
0.0
 71
     0
 72
   100
 73
     1
 74
     3
 75
     0
 76
     0
 77
     0
 78
     0
281
     0
 65
     1
110
0.0
120
0.0
130
0.0
111
1.0
121
0.0
131
0.0
112
0.0
122
1.0
132
0.0
 79
     0
146
0.0
348
2F
 60
     3
 61
     5
292
     1
282
     1
141
0.0
142
0.0
 63
   250
361
3F
1001
ACAD_NAV_VCDISPLAY
1070
     3
  0
ENDTAB
  0
TABLE
  2
LTYPE
  5
5
330
0
100
AcDbSymbolTable
 70
     1
  0
LTYPE
  5
14
330
5
100
AcDbSymbolTableRecord
100
AcDbLinetypeTableRecord
  2
ByBlock
 70
     0
  3

 72
    65
 73
     0
 40
0.0
  0
LTYPE
  5
15
330
5
100
AcDbSymbolTableRecord
100
AcDbLinetypeTableRecord
  2
ByLayer
 70
     0
  3

 72
    65
 73
     0
 40
0.0
  0
LTYPE
  5
16
330
5
100
AcDbSymbolTableRecord
100
AcDbLinetypeTableRecord
  2
Continuous
 70
     0
  3
Solid line
 72
    65
 73
     0
 40
0.0
  0
ENDTAB
  0
TABLE
  2
LAYER
  5
2
330
0
100
AcDbSymbolTable
 70
     2
  0
LAYER
  5
10
330
2
100
AcDbSymbolTableRecord
100
AcDbLayerTableRecord
  2
0
 70
     0
 62
     7
  6
Continuous
370
    -3
390
F
347
3E
348
0
  0
LAYER
  5
40
330
2
100
AcDbSymbolTableRecord
100
AcDbLayerTableRecord
  2
Livello 3
 70
     0
 62
     7
  6
Continuous
370
    -3
390
F
347
3E
348
0
  0
ENDTAB
  0
TABLE
  2
STYLE
  5
3
330
0
100
AcDbSymbolTable
 70
     1
  0
STYLE
  5
11
330
3
100
AcDbSymbolTableRecord
100
AcDbTextStyleTableRecord
  2
Standard
 70
     0
 40
0.0
 41
1.0
 50
0.0
 71
     0
 42
0.2
  3
txt
  4

  0
ENDTAB
  0
TABLE
  2
VIEW
  5
6
330
0
100
AcDbSymbolTable
 70
     0
  0
ENDTAB
  0
TABLE
  2
UCS
  5
7
330
0
100
AcDbSymbolTable
 70
     0
  0
ENDTAB
  0
TABLE
  2
APPID
  5
9
330
0
100
AcDbSymbolTable
 70
     2
  0
APPID
  5
12
330
9
100
AcDbSymbolTableRecord
100
AcDbRegAppTableRecord
  2
ACAD
 70
     0
  0
APPID
  5
1DC
330
9
100
AcDbSymbolTableRecord
100
AcDbRegAppTableRecord
  2
ACAD_NAV_VCDISPLAY
 70
     0
  0
ENDTAB
  0
TABLE
  2
DIMSTYLE
  5
A
330
0
100
AcDbSymbolTable
 70
     1
100
AcDbDimStyleTable
 71
     0
  0
DIMSTYLE
105
27
330
A
100
AcDbSymbolTableRecord
100
AcDbDimStyleTableRecord
  2
Standard
 70
     0
340
11
  0
ENDTAB
  0
TABLE
  2
BLOCK_RECORD
  5
1
330
0
100
AcDbSymbolTable
 70
     6
  0
BLOCK_RECORD
  5
1F
102
{ACAD_XDICTIONARY
360
121
102
}
330
1
100
AcDbSymbolTableRecord
100
AcDbBlockTableRecord
  2
*Model_Space
340
22
 70
     0
280
     1
281
     0
  0
BLOCK_RECORD
  5
1B
330
1
100
AcDbSymbolTableRecord
100
AcDbBlockTableRecord
  2
*Paper_Space
340
1E
 70
     0
280
     1
281
     0
  0
BLOCK_RECORD
  5
23
330
1
100
AcDbSymbolTableRecord
100
AcDbBlockTableRecord
  2
*Paper_Space0
340
26
 70
     0
280
     1
281
     0
  0
BLOCK_RECORD
  5
AA
330
1
100
AcDbSymbolTableRecord
100
AcDbBlockTableRecord
  2
block 2
340
0
 70
     0
280
     1
281
     0
  0
BLOCK_RECORD
  5
B3
330
1
100
AcDbSymbolTableRecord
100
AcDbBlockTableRecord
  2
block 3
340
0
 70
     0
280
     1
281
     0
  0
BLOCK_RECORD
  5
C6
330
1
100
AcDbSymbolTableRecord
100
AcDbBlockTableRecord
  2
block 4
340
0
102
{BLKREFS
331
C7
102
}
 70
     0
280
     1
281
     0
  0
BLOCK_RECORD
  5
CA
330
1
100
AcDbSymbolTableRecord
100
AcDbBlockTableRecord
  2
block 5
340
0
 70
     0
280
     1
281
     0
  0
BLOCK_RECORD
  5
DC
330
1
100
AcDbSymbolTableRecord
100
AcDbBlockTableRecord
  2
block 6
340
0
 70
     0
280
     1
281
     0
  0
ENDTAB
  0
ENDSEC
  0
SECTION
  2
BLOCKS
  0
BLOCK
  5
20
330
1F
100
AcDbEntity
  8
0
100
AcDbBlockBegin
  2
*Model_Space
 70
     0
 10
0.0
 20
0.0
 30
0.0
  3
*Model_Space
  1

  0
ENDBLK
  5
21
330
1F
100
AcDbEntity
  8
0
100
AcDbBlockEnd
  0
BLOCK
  5
1C
330
1B
100
AcDbEntity
 67
     1
  8
0
100
AcDbBlockBegin
  2
*Paper_Space
 70
     0
 10
0.0
 20
0.0
 30
0.0
  3
*Paper_Space
  1

  0
ENDBLK
  5
1D
330
1B
100
AcDbEntity
 67
     1
  8
0
100
AcDbBlockEnd
  0
BLOCK
  5
24
330
23
100
AcDbEntity
 67
     1
  8
0
100
AcDbBlockBegin
  2
*Paper_Space0
 70
     0
 10
0.0
 20
0.0
 30
0.0
  3
*Paper_Space0
  1

  0
ENDBLK
  5
25
330
23
100
AcDbEntity
 67
     1
  8
0
100
AcDbBlockEnd
  0
BLOCK
  5
AC
330
AA
100
AcDbEntity
  8
0
100
AcDbBlockBegin
  2
block 2
 70
     0
 10
0.0
 20
0.0
 30
0.0
  3
block 2
  1

  0
SPLINE
  5
AE
330
AA
100
AcDbEntity
  8
Livello 3
370
     0
100
AcDbSpline
210
0.0
220
0.0
230
1.0
 70
    11
 71
     3
 72
    47
 73
    43
 74
     0
 42
0.000000001
 43
0.0000000001
 40
0.0
 40
0.0
 40
0.0
 40
0.0
 40
1.0
 40
1.0
 40
1.0
 40
2.0
 40
2.0
 40
2.0
 40
3.0
 40
3.0
 40
3.0
 40
4.0
 40
4.0
 40
4.0
 40
5.0
 40
5.0
 40
5.0
 40
6.0
 40
6.0
 40
6.0
 40
7.0
 40
7.0
 40
7.0
 40
8.0
 40
8.0
 40
8.0
 40
9.0
 40
9.0
 40
9.0
 40
10.0
 40
10.0
 40
10.0
 40
11.0
 40
11.0
 40
11.0
 40
12.0
 40
12.0
 40
12.0
 40
13.0
 40
13.0
 40
13.0
 40
14.0
 40
14.0
 40
14.0
 40
14.0
 10
9.249512937140748
 20
-20.87307562412201
 30
0.0
 10
9.249512937140748
 20
-20.87307562412201
 30
0.0
 10
9.249512937140748
 20
-20.80448377301068
 30
0.0
 10
9.249512937140748
 20
-20.80448377301068
 30
0.0
 10
9.249512937140748
 20
-20.80448377301068
 30
0.0
 10
9.337138940808076
 20
-20.71942436547986
 30
0.0
 10
9.337138940808076
 20
-20.71942436547986
 30
0.0
 10
9.547927108073086
 20
-20.51878200441891
 30
0.0
 10
9.643166772762818
 20
-20.41212184819558
 30
0.0
 10
9.644441458092359
 20
-20.28768499926835
 30
0.0
 10
9.644441458092359
 20
-20.20386582611223
 30
0.0
 10
9.603806556843839
 20
-20.12638562864896
 30
0.0
 10
9.48062716776873
 20
-20.12638562864896
 30
0.0
 10
9.405713566441972
 20
-20.12638562864896
 30
0.0
 10
9.343495141978362
 20
-20.16448838471582
 30
0.0
 10
9.305392385911497
 20
-20.19625216508982
 30
0.0
 10
9.305392385911497
 20
-20.19625216508982
 30
0.0
 10
9.26983900050372
 20
-20.11749728229701
 30
0.0
 10
9.26983900050372
 20
-20.11749728229701
 30
0.0
 10
9.326975909126588
 20
-20.06926594550352
 30
0.0
 10
9.408245711623633
 20
-20.03371256009574
 30
0.0
 10
9.503485376313363
 20
-20.03371256009574
 30
0.0
 10
9.681269528829682
 20
-20.03371256009574
 30
0.0
 10
9.75618313015644
 20
-20.15560003836388
 30
0.0
 10
9.75618313015644
 20
-20.27369791159824
 30
0.0
 10
9.75618313015644
 20
-20.42607448491084
 30
0.0
 10
9.645716143421903
 20
-20.54927109946338
 30
0.0
 10
9.471738821416787
 20
-20.71687499482078
 30
0.0
 10
9.471738821416787
 20
-20.71687499482078
 30
0.0
 10
9.405713566441972
 20
-20.77781873395485
 30
0.0
 10
9.405713566441972
 20
-20.77781873395485
 30
0.0
 10
9.405713566441972
 20
-20.77781873395485
 30
0.0
 10
9.405713566441972
 20
-20.78036810461393
 30
0.0
 10
9.405713566441972
 20
-20.78036810461393
 30
0.0
 10
9.405713566441972
 20
-20.78036810461393
 30
0.0
 10
9.776509193519412
 20
-20.78036810461393
 30
0.0
 10
9.776509193519412
 20
-20.78036810461393
 30
0.0
 10
9.776509193519412
 20
-20.78036810461393
 30
0.0
 10
9.776509193519412
 20
-20.87307562412201
 30
0.0
 10
9.776509193519412
 20
-20.87307562412201
 30
0.0
 10
9.776509193519412
 20
-20.87307562412201
 30
0.0
 10
9.249512937140748
 20
-20.87307562412201
 30
0.0
 10
9.249512937140748
 20
-20.87307562412201
 30
0.0
  0
HATCH
  5
AF
330
AA
100
AcDbEntity
  8
Livello 3
 62
   250
420
  1842203
100
AcDbHatch
 10
0.0
 20
0.0
 30
0.0
210
0.0
220
0.0
230
1.0
  2
SOLID
 70
     1
 71
     0
 91
        1
 92
        1
 93
        1
 72
     4
 94
        3
 73
     0
 74
     0
 95
       47
 96
       43
 40
0.0
 40
0.0
 40
0.0
 40
0.0
 40
1.0
 40
1.0
 40
1.0
 40
2.0
 40
2.0
 40
2.0
 40
3.0
 40
3.0
 40
3.0
 40
4.0
 40
4.0
 40
4.0
 40
5.0
 40
5.0
 40
5.0
 40
6.0
 40
6.0
 40
6.0
 40
7.0
 40
7.0
 40
7.0
 40
8.0
 40
8.0
 40
8.0
 40
9.0
 40
9.0
 40
9.0
 40
10.0
 40
10.0
 40
10.0
 40
11.0
 40
11.0
 40
11.0
 40
12.0
 40
12.0
 40
12.0
 40
13.0
 40
13.0
 40
13.0
 40
14.0
 40
14.0
 40
14.0
 40
14.0
 10
9.249512937140748
 20
-20.87307562412201
 10
9.249512937140748
 20
-20.87307562412201
 10
9.249512937140748
 20
-20.80448377301068
 10
9.249512937140748
 20
-20.80448377301068
 10
9.249512937140748
 20
-20.80448377301068
 10
9.337138940808076
 20
-20.71942436547986
 10
9.337138940808076
 20
-20.71942436547986
 10
9.547927108073086
 20
-20.51878200441891
 10
9.643166772762818
 20
-20.41212184819558
 10
9.644441458092359
 20
-20.28768499926835
 10
9.644441458092359
 20
-20.20386582611223
 10
9.603806556843839
 20
-20.12638562864896
 10
9.48062716776873
 20
-20.12638562864896
 10
9.405713566441972
 20
-20.12638562864896
 10
9.343495141978362
 20
-20.16448838471582
 10
9.305392385911497
 20
-20.19625216508982
 10
9.305392385911497
 20
-20.19625216508982
 10
9.26983900050372
 20
-20.11749728229701
 10
9.26983900050372
 20
-20.11749728229701
 10
9.326975909126588
 20
-20.06926594550352
 10
9.408245711623633
 20
-20.03371256009574
 10
9.503485376313363
 20
-20.03371256009574
 10
9.681269528829682
 20
-20.03371256009574
 10
9.75618313015644
 20
-20.15560003836388
 10
9.75618313015644
 20
-20.27369791159824
 10
9.75618313015644
 20
-20.42607448491084
 10
9.645716143421903
 20
-20.54927109946338
 10
9.471738821416787
 20
-20.71687499482078
 10
9.471738821416787
 20
-20.71687499482078
 10
9.405713566441972
 20
-20.77781873395485
 10
9.405713566441972
 20
-20.77781873395485
 10
9.405713566441972
 20
-20.77781873395485
 10
9.405713566441972
 20
-20.78036810461393
 10
9.405713566441972
 20
-20.78036810461393
 10
9.405713566441972
 20
-20.78036810461393
 10
9.776509193519412
 20
-20.78036810461393
 10
9.776509193519412
 20
-20.78036810461393
 10
9.776509193519412
 20
-20.78036810461393
 10
9.776509193519412
 20
-20.87307562412201
 10
9.776509193519412
 20
-20.87307562412201
 10
9.776509193519412
 20
-20.87307562412201
 10
9.249512937140748
 20
-20.87307562412201
 10
9.249512937140748
 20
-20.87307562412201
 97
        0
 97
        0
 75
     2
 76
     1
 98
        0
450
        0
451
        0
460
0.0
461
0.0
452
        0
462
0.0
453
        0
470

  0
SPLINE
  5
B0
330
AA
100
AcDbEntity
  8
Livello 3
370
     0
100
AcDbSpline
210
0.0
220
0.0
230
1.0
 70
     9
 71
     3
 72
    17
 73
    13
 74
     0
 42
0.000000001
 43
0.0000000001
 40
0.0
 40
0.0
 40
0.0
 40
0.0
 40
1.0
 40
1.0
 40
1.0
 40
2.0
 40
2.0
 40
2.0
 40
3.0
 40
3.0
 40
3.0
 40
4.0
 40
4.0
 40
4.0
 40
4.0
 10
10.44957749847267
 20
-20.45146483863713
 30
0.0
 10
10.44957749847267
 20
-20.73210231686559
 30
0.0
 10
10.345449487431
 20
-20.88702826083727
 30
0.0
 10
10.16258381907394
 20
-20.88702826083727
 30
0.0
 10
10.00131889940939
 20
-20.88702826083727
 30
0.0
 10
9.892109372526972
 20
-20.73592637285421
 30
0.0
 10
9.889577227345313
 20
-20.46290255564816
 30
0.0
 10
9.889577227345313
 20
-20.18608913340834
 30
0.0
 10
10.00893256043179
 20
-20.03371256009574
 30
0.0
 10
10.17655368126663
 20
-20.03371256009574
 30
0.0
 10
10.35053100327174
 20
-20.03371256009574
 30
0.0
 10
10.44957749847267
 20
-20.18863850406742
 30
0.0
 10
10.44957749847267
 20
-20.45146483863713
 30
0.0
  0
SPLINE
  5
B1
330
AA
100
AcDbEntity
  8
Livello 3
370
     0
100
AcDbSpline
210
0.0
220
0.0
230
1.0
 70
     9
 71
     3
 72
    17
 73
    13
 74
     0
 42
0.000000001
 43
0.0000000001
 40
0.0
 40
0.0
 40
0.0
 40
0.0
 40
1.0
 40
1.0
 40
1.0
 40
2.0
 40
2.0
 40
2.0
 40
3.0
 40
3.0
 40
3.0
 40
4.0
 40
4.0
 40
4.0
 40
4.0
 10
10.00131889940939
 20
-20.4641772409777
 30
0.0
 10
10.00131889940939
 20
-20.67877223875391
 30
0.0
 10
10.06736137986163
 20
-20.80069416797691
 30
0.0
 10
10.16894002024422
 20
-20.80069416797691
 30
0.0
 10
10.28323106296739
 20
-20.80069416797691
 30
0.0
 10
10.33783582640859
 20
-20.66736897269774
 30
0.0
 10
10.33783582640859
 20
-20.4565635799553
 30
0.0
 10
10.33783582640859
 20
-20.25337184823527
 30
0.0
 10
10.28576320814904
 20
-20.1200466529561
 30
0.0
 10
10.17021470557376
 20
-20.1200466529561
 30
0.0
 10
10.07242567022495
 20
-20.1200466529561
 30
0.0
 10
10.00131889940939
 20
-20.23941921152
 30
0.0
 10
10.00131889940939
 20
-20.4641772409777
 30
0.0
  0
HATCH
  5
B2
330
AA
100
AcDbEntity
  8
Livello 3
 62
   250
420
  1842203
100
AcDbHatch
 10
0.0
 20
0.0
 30
0.0
210
0.0
220
0.0
230
1.0
  2
SOLID
 70
     1
 71
     0
 91
        2
 92
        1
 93
        1
 72
     4
 94
        3
 73
     0
 74
     0
 95
       17
 96
       13
 40
0.0
 40
0.0
 40
0.0
 40
0.0
 40
1.0
 40
1.0
 40
1.0
 40
2.0
 40
2.0
 40
2.0
 40
3.0
 40
3.0
 40
3.0
 40
4.0
 40
4.0
 40
4.0
 40
4.0
 10
10.44957749847267
 20
-20.45146483863713
 10
10.44957749847267
 20
-20.73210231686559
 10
10.345449487431
 20
-20.88702826083727
 10
10.16258381907394
 20
-20.88702826083727
 10
10.00131889940939
 20
-20.88702826083727
 10
9.892109372526972
 20
-20.73592637285421
 10
9.889577227345313
 20
-20.46290255564816
 10
9.889577227345313
 20
-20.18608913340834
 10
10.00893256043179
 20
-20.03371256009574
 10
10.17655368126663
 20
-20.03371256009574
 10
10.35053100327174
 20
-20.03371256009574
 10
10.44957749847267
 20
-20.18863850406742
 10
10.44957749847267
 20
-20.45146483863713
 97
        0
 97
        0
 92
        1
 93
        1
 72
     4
 94
        3
 73
     0
 74
     0
 95
       17
 96
       13
 40
0.0
 40
0.0
 40
0.0
 40
0.0
 40
1.0
 40
1.0
 40
1.0
 40
2.0
 40
2.0
 40
2.0
 40
3.0
 40
3.0
 40
3.0
 40
4.0
 40
4.0
 40
4.0
 40
4.0
 10
10.00131889940939
 20
-20.4641772409777
 10
10.00131889940939
 20
-20.67877223875391
 10
10.06736137986163
 20
-20.80069416797691
 10
10.16894002024422
 20
-20.80069416797691
 10
10.28323106296739
 20
-20.80069416797691
 10
10.33783582640859
 20
-20.66736897269774
 10
10.33783582640859
 20
-20.4565635799553
 10
10.33783582640859
 20
-20.25337184823527
 10
10.28576320814904
 20
-20.1200466529561
 10
10.17021470557376
 20
-20.1200466529561
 10
10.07242567022495
 20
-20.1200466529561
 10
10.00131889940939
 20
-20.23941921152
 10
10.00131889940939
 20
-20.4641772409777
 97
        0
 97
        0
 75
     2
 76
     1
 98
        0
450
        0
451
        0
460
0.0
461
0.0
452
        0
462
0.0
453
        0
470

  0
ENDBLK
  5
AD
330
AA
100
AcDbEntity
  8
0
100
AcDbBlockEnd
  0
BLOCK
  5
B5
330
B3
100
AcDbEntity
  8
0
100
AcDbBlockBegin
  2
block 3
 70
     0
 10
0.0
 20
0.0
 30
0.0
  3
block 3
  1

  0
POLYLINE
  5
B7
330
B3
100
AcDbEntity
  8
Livello 3
370
     0
100
AcDb2dPolyline
 66
     1
 10
0.0
 20
0.0
 30
0.0
  0
VERTEX
  5
B8
330
B7
100
AcDbEntity
  8
Livello 3
370
     0
100
AcDbVertex
100
AcDb2dVertex
 10
11.84282578913999
 20
-9.699115123443275
 30
0.0
  0
VERTEX
  5
B9
330
B7
100
AcDbEntity
  8
Livello 3
370
     0
100
AcDbVertex
100
AcDb2dVertex
 10
11.8402764184809
 20
-9.699115123443275
 30
0.0
  0
VERTEX
  5
BA
330
B7
100
AcDbEntity
  8
Livello 3
370
     0
100
AcDbVertex
100
AcDb2dVertex
 10
11.69678819152025
 20
-9.776578095429119
 30
0.0
  0
VERTEX
  5
BB
330
B7
100
AcDbEntity
  8
Livello 3
370
     0
100
AcDbVertex
100
AcDb2dVertex
 10
11.67518744282773
 20
-9.691484236943447
 30
0.0
  0
VERTEX
  5
BC
330
B7
100
AcDbEntity
  8
Livello 3
370
     0
100
AcDbVertex
100
AcDb2dVertex
 10
11.85550374052571
 20
-9.5949871124016
 30
0.0
  0
VERTEX
  5
BD
330
B7
100
AcDbEntity
  8
Livello 3
370
     0
100
AcDbVertex
100
AcDb2dVertex
 10
11.95076063069286
 20
-9.5949871124016
 30
0.0
  0
VERTEX
  5
BE
330
B7
100
AcDbEntity
  8
Livello 3
370
     0
100
AcDbVertex
100
AcDb2dVertex
 10
11.95076063069286
 20
-10.42038031423518
 30
0.0
  0
VERTEX
  5
BF
330
B7
100
AcDbEntity
  8
Livello 3
370
     0
100
AcDbVertex
100
AcDb2dVertex
 10
11.84282578913999
 20
-10.42038031423518
 30
0.0
  0
VERTEX
  5
C0
330
B7
100
AcDbEntity
  8
Livello 3
370
     0
100
AcDbVertex
100
AcDb2dVertex
 10
11.84282578913999
 20
-9.699115123443275
 30
0.0
  0
SEQEND
  5
C1
330
B7
100
AcDbEntity
  8
Livello 3
370
     0
  0
HATCH
  5
C2
330
B3
100
AcDbEntity
  8
Livello 3
 62
   250
420
  1842203
100
AcDbHatch
 10
0.0
 20
0.0
 30
0.0
210
0.0
220
0.0
230
1.0
  2
SOLID
 70
     1
 71
     0
 91
        1
 92
        1
 93
        8
 72
     1
 10
11.84282578913999
 20
-9.699115123443275
 11
11.8402764184809
 21
-9.699115123443275
 72
     1
 10
11.8402764184809
 20
-9.699115123443275
 11
11.69678819152025
 21
-9.776578095429119
 72
     1
 10
11.69678819152025
 20
-9.776578095429119
 11
11.67518744282773
 21
-9.691484236943447
 72
     1
 10
11.67518744282773
 20
-9.691484236943447
 11
11.85550374052571
 21
-9.5949871124016
 72
     1
 10
11.85550374052571
 20
-9.5949871124016
 11
11.95076063069286
 21
-9.5949871124016
 72
     1
 10
11.95076063069286
 20
-9.5949871124016
 11
11.95076063069286
 21
-10.42038031423518
 72
     1
 10
11.95076063069286
 20
-10.42038031423518
 11
11.84282578913999
 21
-10.42038031423518
 72
     1
 10
11.84282578913999
 20
-10.42038031423518
 11
11.84282578913999
 21
-9.699115123443275
 97
        0
 75
     2
 76
     1
 98
        0
450
        0
451
        0
460
0.0
461
0.0
452
        0
462
0.0
453
        0
470

  0
SPLINE
  5
C3
330
B3
100
AcDbEntity
  8
Livello 3
370
     0
100
AcDbSpline
210
0.0
220
0.0
230
1.0
 70
     9
 71
     3
 72
    38
 73
    34
 74
     0
 42
0.000000001
 43
0.0000000001
 40
0.0
 40
0.0
 40
0.0
 40
0.0
 40
1.0
 40
1.0
 40
1.0
 40
2.0
 40
2.0
 40
2.0
 40
3.0
 40
3.0
 40
3.0
 40
4.0
 40
4.0
 40
4.0
 40
5.0
 40
5.0
 40
5.0
 40
6.0
 40
6.0
 40
6.0
 40
7.0
 40
7.0
 40
7.0
 40
8.0
 40
8.0
 40
8.0
 40
9.0
 40
9.0
 40
9.0
 40
10.0
 40
10.0
 40
10.0
 40
11.0
 40
11.0
 40
11.0
 40
11.0
 10
12.72287543084706
 20
-9.67370754423956
 30
0.0
 10
12.699999996825
 20
-9.672450084387442
 30
0.0
 10
12.67082003806493
 20
-9.67370754423956
 30
0.0
 10
12.63905625769093
 20
-9.678789060080303
 30
0.0
 10
12.46380425035627
 20
-9.708003469795221
 30
0.0
 10
12.37113118180305
 20
-9.836247149233646
 30
0.0
 10
12.35207980376962
 20
-9.972121715171899
 30
0.0
 10
12.35207980376962
 20
-9.972121715171899
 30
0.0
 10
12.35586940880339
 20
-9.972121715171899
 30
0.0
 10
12.35586940880339
 20
-9.972121715171899
 30
0.0
 10
12.3952468501998
 20
-9.920066322389773
 30
0.0
 10
12.46380425035627
 20
-9.876882050482167
 30
0.0
 10
12.5552370845348
 20
-9.876882050482167
 30
0.0
 10
12.70127468215454
 20
-9.876882050482167
 30
0.0
 10
12.8041452333441
 20
-9.982284746853386
 30
0.0
 10
12.8041452333441
 20
-10.14354966651793
 30
0.0
 10
12.8041452333441
 20
-10.29466877997842
 30
0.0
 10
12.70127468215454
 20
-10.43435017642787
 30
0.0
 10
12.52984673080851
 20
-10.43435017642787
 30
0.0
 10
12.35335448909916
 20
-10.43435017642787
 30
0.0
 10
12.23777153556903
 20
-10.29720092516007
 30
0.0
 10
12.23777153556903
 20
-10.08260592738386
 30
0.0
 10
12.23777153556903
 20
-9.920066322389773
 30
0.0
 10
12.29620035499887
 20
-9.791805417473922
 30
0.0
 10
12.37747015749591
 20
-9.710535614976876
 30
0.0
 10
12.44602755765238
 20
-9.643235674672522
 30
0.0
 10
12.53746039183091
 20
-9.601326088094461
 30
0.0
 10
12.64160562835001
 20
-9.588630911231316
 30
0.0
 10
12.67460964309871
 20
-9.583549395390569
 30
0.0
 10
12.70254936748408
 20
-9.582291935538453
 30
0.0
 10
12.72287543084706
 20
-9.582291935538453
 30
0.0
 10
12.72287543084706
 20
-9.582291935538453
 30
0.0
 10
12.72287543084706
 20
-9.67370754423956
 30
0.0
 10
12.72287543084706
 20
-9.67370754423956
 30
0.0
  0
SPLINE
  5
C4
330
B3
100
AcDbEntity
  8
Livello 3
370
     0
100
AcDbSpline
210
0.0
220
0.0
230
1.0
 70
    11
 71
     3
 72
    20
 73
    16
 74
     0
 42
0.000000001
 43
0.0000000001
 40
0.0
 40
0.0
 40
0.0
 40
0.0
 40
1.0
 40
1.0
 40
1.0
 40
2.0
 40
2.0
 40
2.0
 40
3.0
 40
3.0
 40
3.0
 40
4.0
 40
4.0
 40
4.0
 40
5.0
 40
5.0
 40
5.0
 40
5.0
 10
12.69111165047305
 20
-10.14990586768822
 30
0.0
 10
12.69111165047305
 20
-10.03180799445385
 30
0.0
 10
12.62382893564613
 20
-9.960701223638297
 30
0.0
 10
12.52095838445656
 20
-9.960701223638297
 30
0.0
 10
12.45367566962964
 20
-9.960701223638297
 30
0.0
 10
12.39142279421117
 20
-10.00261081021636
 30
0.0
 10
12.36096815012156
 20
-10.06227986402089
 30
0.0
 10
12.35335448909916
 20
-10.07499226636146
 30
0.0
 10
12.34825574778099
 20
-10.09149427373581
 30
0.0
 10
12.34825574778099
 20
-10.11180311162135
 30
0.0
 10
12.35080511844007
 20
-10.24767767755961
 30
0.0
 10
12.41302354290369
 20
-10.34799885809008
 30
0.0
 10
12.52984673080851
 20
-10.34799885809008
 30
0.0
 10
12.62634385535036
 20
-10.34799885809008
 30
0.0
 10
12.69111165047305
 20
-10.26800374092258
 30
0.0
 10
12.69111165047305
 20
-10.14990586768822
 30
0.0
  0
HATCH
  5
C5
330
B3
100
AcDbEntity
  8
Livello 3
 62
   250
420
  1842203
100
AcDbHatch
 10
0.0
 20
0.0
 30
0.0
210
0.0
220
0.0
230
1.0
  2
SOLID
 70
     1
 71
     0
 91
        2
 92
        1
 93
        1
 72
     4
 94
        3
 73
     0
 74
     0
 95
       38
 96
       34
 40
0.0
 40
0.0
 40
0.0
 40
0.0
 40
1.0
 40
1.0
 40
1.0
 40
2.0
 40
2.0
 40
2.0
 40
3.0
 40
3.0
 40
3.0
 40
4.0
 40
4.0
 40
4.0
 40
5.0
 40
5.0
 40
5.0
 40
6.0
 40
6.0
 40
6.0
 40
7.0
 40
7.0
 40
7.0
 40
8.0
 40
8.0
 40
8.0
 40
9.0
 40
9.0
 40
9.0
 40
10.0
 40
10.0
 40
10.0
 40
11.0
 40
11.0
 40
11.0
 40
11.0
 10
12.72287543084706
 20
-9.67370754423956
 10
12.699999996825
 20
-9.672450084387442
 10
12.67082003806493
 20
-9.67370754423956
 10
12.63905625769093
 20
-9.678789060080303
 10
12.46380425035627
 20
-9.708003469795221
 10
12.37113118180305
 20
-9.836247149233646
 10
12.35207980376962
 20
-9.972121715171899
 10
12.35207980376962
 20
-9.972121715171899
 10
12.35586940880339
 20
-9.972121715171899
 10
12.35586940880339
 20
-9.972121715171899
 10
12.3952468501998
 20
-9.920066322389773
 10
12.46380425035627
 20
-9.876882050482167
 10
12.5552370845348
 20
-9.876882050482167
 10
12.70127468215454
 20
-9.876882050482167
 10
12.8041452333441
 20
-9.982284746853386
 10
12.8041452333441
 20
-10.14354966651793
 10
12.8041452333441
 20
-10.29466877997842
 10
12.70127468215454
 20
-10.43435017642787
 10
12.52984673080851
 20
-10.43435017642787
 10
12.35335448909916
 20
-10.43435017642787
 10
12.23777153556903
 20
-10.29720092516007
 10
12.23777153556903
 20
-10.08260592738386
 10
12.23777153556903
 20
-9.920066322389773
 10
12.29620035499887
 20
-9.791805417473922
 10
12.37747015749591
 20
-9.710535614976876
 10
12.44602755765238
 20
-9.643235674672522
 10
12.53746039183091
 20
-9.601326088094461
 10
12.64160562835001
 20
-9.588630911231316
 10
12.67460964309871
 20
-9.583549395390569
 10
12.70254936748408
 20
-9.582291935538453
 10
12.72287543084706
 20
-9.582291935538453
 10
12.72287543084706
 20
-9.582291935538453
 10
12.72287543084706
 20
-9.67370754423956
 10
12.72287543084706
 20
-9.67370754423956
 97
        0
 97
        0
 92
        1
 93
        1
 72
     4
 94
        3
 73
     0
 74
     0
 95
       20
 96
       16
 40
0.0
 40
0.0
 40
0.0
 40
0.0
 40
1.0
 40
1.0
 40
1.0
 40
2.0
 40
2.0
 40
2.0
 40
3.0
 40
3.0
 40
3.0
 40
4.0
 40
4.0
 40
4.0
 40
5.0
 40
5.0
 40
5.0
 40
5.0
 10
12.69111165047305
 20
-10.14990586768822
 10
12.69111165047305
 20
-10.03180799445385
 10
12.62382893564613
 20
-9.960701223638297
 10
12.52095838445656
 20
-9.960701223638297
 10
12.45367566962964
 20
-9.960701223638297
 10
12.39142279421117
 20
-10.00261081021636
 10
12.36096815012156
 20
-10.06227986402089
 10
12.35335448909916
 20
-10.07499226636146
 10
12.34825574778099
 20
-10.09149427373581
 10
12.34825574778099
 20
-10.11180311162135
 10
12.35080511844007
 20
-10.24767767755961
 10
12.41302354290369
 20
-10.34799885809008
 10
12.52984673080851
 20
-10.34799885809008
 10
12.62634385535036
 20
-10.34799885809008
 10
12.69111165047305
 20
-10.26800374092258
 10
12.69111165047305
 20
-10.14990586768822
 97
        0
 97
        0
 75
     2
 76
     1
 98
        0
450
        0
451
        0
460
0.0
461
0.0
452
        0
462
0.0
453
        0
470

  0
ENDBLK
  5
B6
330
B3
100
AcDbEntity
  8
0
100
AcDbBlockEnd
  0
BLOCK
  5
C8
330
C6
100
AcDbEntity
  8
0
100
AcDbBlockBegin
  2
block 4
 70
     0
 10
0.0
 20
0.0
 30
0.0
  3
block 4
  1

  0
ENDBLK
  5
C9
330
C6
100
AcDbEntity
  8
0
100
AcDbBlockEnd
  0
BLOCK
  5
CC
330
CA
100
AcDbEntity
  8
0
100
AcDbBlockBegin
  2
block 5
 70
     0
 10
0.0
 20
0.0
 30
0.0
  3
block 5
  1

  0
POLYLINE
  5
CE
330
CA
100
AcDbEntity
  8
Livello 3
370
     0
100
AcDb2dPolyline
 66
     1
 10
0.0
 20
0.0
 30
0.0
  0
VERTEX
  5
CF
330
CE
100
AcDbEntity
  8
Livello 3
370
     0
100
AcDbVertex
100
AcDb2dVertex
 10
14.14756021781728
 20
-12.4621161535685
 30
0.0
  0
VERTEX
  5
D0
330
CE
100
AcDbEntity
  8
Livello 3
370
     0
100
AcDbVertex
100
AcDb2dVertex
 10
14.14756021781728
 20
-12.46466552422758
 30
0.0
  0
VERTEX
  5
D1
330
CE
100
AcDbEntity
  8
Livello 3
370
     0
100
AcDbVertex
100
AcDb2dVertex
 10
14.22504041528054
 20
-12.60815375118824
 30
0.0
  0
VERTEX
  5
D2
330
CE
100
AcDbEntity
  8
Livello 3
370
     0
100
AcDbVertex
100
AcDb2dVertex
 10
14.13994655679487
 20
-12.62973727440333
 30
0.0
  0
VERTEX
  5
D3
330
CE
100
AcDbEntity
  8
Livello 3
370
     0
100
AcDbVertex
100
AcDb2dVertex
 10
14.04344943225303
 20
-12.44942097670534
 30
0.0
  0
VERTEX
  5
D4
330
CE
100
AcDbEntity
  8
Livello 3
370
     0
100
AcDbVertex
100
AcDb2dVertex
 10
14.04344943225303
 20
-12.35418131201562
 30
0.0
  0
VERTEX
  5
D5
330
CE
100
AcDbEntity
  8
Livello 3
370
     0
100
AcDbVertex
100
AcDb2dVertex
 10
14.86882540860918
 20
-12.35418131201562
 30
0.0
  0
VERTEX
  5
D6
330
CE
100
AcDbEntity
  8
Livello 3
370
     0
100
AcDbVertex
100
AcDb2dVertex
 10
14.86882540860918
 20
-12.4621161535685
 30
0.0
  0
VERTEX
  5
D7
330
CE
100
AcDbEntity
  8
Livello 3
370
     0
100
AcDbVertex
100
AcDb2dVertex
 10
14.14756021781728
 20
-12.4621161535685
 30
0.0
  0
SEQEND
  5
D8
330
CE
100
AcDbEntity
  8
Livello 3
370
     0
  0
HATCH
  5
D9
330
CA
100
AcDbEntity
  8
Livello 3
 62
   250
420
  1842203
100
AcDbHatch
 10
0.0
 20
0.0
 30
0.0
210
0.0
220
0.0
230
1.0
  2
SOLID
 70
     1
 71
     0
 91
        1
 92
        1
 93
        8
 72
     1
 10
14.14756021781728
 20
-12.4621161535685
 11
14.14756021781728
 21
-12.46466552422758
 72
     1
 10
14.14756021781728
 20
-12.46466552422758
 11
14.22504041528054
 21
-12.60815375118824
 72
     1
 10
14.22504041528054
 20
-12.60815375118824
 11
14.13994655679487
 21
-12.62973727440333
 72
     1
 10
14.13994655679487
 20
-12.62973727440333
 11
14.04344943225303
 21
-12.44942097670534
 72
     1
 10
14.04344943225303
 20
-12.44942097670534
 11
14.04344943225303
 21
-12.35418131201562
 72
     1
 10
14.04344943225303
 20
-12.35418131201562
 11
14.86882540860918
 21
-12.35418131201562
 72
     1
 10
14.86882540860918
 20
-12.35418131201562
 11
14.86882540860918
 21
-12.4621161535685
 72
     1
 10
14.86882540860918
 20
-12.4621161535685
 11
14.14756021781728
 21
-12.4621161535685
 97
        0
 75
     2
 76
     1
 98
        0
450
        0
451
        0
460
0.0
461
0.0
452
        0
462
0.0
453
        0
470

  0
SPLINE
  5
DA
330
CA
100
AcDbEntity
  8
Livello 3
370
     0
100
AcDbSpline
210
0.0
220
0.0
230
1.0
 70
    11
 71
     3
 72
    50
 73
    46
 74
     0
 42
0.000000001
 43
0.0000000001
 40
0.0
 40
0.0
 40
0.0
 40
0.0
 40
1.0
 40
1.0
 40
1.0
 40
2.0
 40
2.0
 40
2.0
 40
3.0
 40
3.0
 40
3.0
 40
4.0
 40
4.0
 40
4.0
 40
5.0
 40
5.0
 40
5.0
 40
6.0
 40
6.0
 40
6.0
 40
7.0
 40
7.0
 40
7.0
 40
8.0
 40
8.0
 40
8.0
 40
9.0
 40
9.0
 40
9.0
 40
10.0
 40
10.0
 40
10.0
 40
11.0
 40
11.0
 40
11.0
 40
12.0
 40
12.0
 40
12.0
 40
13.0
 40
13.0
 40
13.0
 40
14.0
 40
14.0
 40
14.0
 40
15.0
 40
15.0
 40
15.0
 40
15.0
 10
14.13739718613579
 20
-11.56048298864634
 30
0.0
 10
14.13739718613579
 20
-11.56048298864634
 30
0.0
 10
14.13739718613579
 20
-11.87539916695302
 30
0.0
 10
14.13739718613579
 20
-11.87539916695302
 30
0.0
 10
14.13739718613579
 20
-11.87539916695302
 30
0.0
 10
14.34947726420777
 20
-11.9071457218496
 30
0.0
 10
14.34947726420777
 20
-11.9071457218496
 30
0.0
 10
14.34692789354868
 20
-11.88809434381617
 30
0.0
 10
14.3443785228896
 20
-11.87031765111228
 30
0.0
 10
14.3443785228896
 20
-11.83984578154525
 30
0.0
 10
14.3443785228896
 20
-11.77635267175209
 30
0.0
 10
14.35836561055971
 20
-11.71285956195894
 30
0.0
 10
14.38882025464932
 20
-11.66206162902893
 30
0.0
 10
14.42564832538664
 20
-11.59731105938366
 30
0.0
 10
14.4967550962022
 20
-11.54396375579456
 30
0.0
 10
14.6009003327213
 20
-11.54396375579456
 30
0.0
 10
14.76216525238585
 20
-11.54396375579456
 30
0.0
 10
14.8828124962793
 20
-11.67222466071042
 30
0.0
 10
14.8828124962793
 20
-11.85126627307885
 30
0.0
 10
14.8828124962793
 20
-11.94142442192784
 30
0.0
 10
14.857422142553
 20
-12.01762993406156
 30
0.0
 10
14.83199733787186
 20
-12.05699014998053
 30
0.0
 10
14.83199733787186
 20
-12.05699014998053
 30
0.0
 10
14.74693793034104
 20
-12.02905042559517
 30
0.0
 10
14.74693793034104
 20
-12.02905042559517
 30
0.0
 10
14.76726399370402
 20
-11.99477172551693
 30
0.0
 10
14.79265434743031
 20
-11.92747178521258
 30
0.0
 10
14.79265434743031
 20
-11.85254095840839
 30
0.0
 10
14.79265434743031
 20
-11.74713826203717
 30
0.0
 10
14.72406249631898
 20
-11.65698011318818
 30
0.0
 10
14.61361273506187
 20
-11.65698011318818
 30
0.0
 10
14.50691812788369
 20
-11.65825479851773
 30
0.0
 10
14.43074706670481
 20
-11.72936156933328
 30
0.0
 10
14.43074706670481
 20
-11.89445054498646
 30
0.0
 10
14.43074706670481
 20
-11.94142442192784
 30
0.0
 10
14.43581135706813
 20
-11.97825249266516
 30
0.0
 10
14.43963541305676
 20
-12.00874158770962
 30
0.0
 10
14.43963541305676
 20
-12.00874158770962
 30
0.0
 10
14.04344943225303
 20
-11.95539428412053
 30
0.0
 10
14.04344943225303
 20
-11.95539428412053
 30
0.0
 10
14.04344943225303
 20
-11.95539428412053
 30
0.0
 10
14.04344943225303
 20
-11.56048298864634
 30
0.0
 10
14.04344943225303
 20
-11.56048298864634
 30
0.0
 10
14.04344943225303
 20
-11.56048298864634
 30
0.0
 10
14.13739718613579
 20
-11.56048298864634
 30
0.0
 10
14.13739718613579
 20
-11.56048298864634
 30
0.0
  0
HATCH
  5
DB
330
CA
100
AcDbEntity
  8
Livello 3
 62
   250
420
  1842203
100
AcDbHatch
 10
0.0
 20
0.0
 30
0.0
210
0.0
220
0.0
230
1.0
  2
SOLID
 70
     1
 71
     0
 91
        1
 92
        1
 93
        1
 72
     4
 94
        3
 73
     0
 74
     0
 95
       50
 96
       46
 40
0.0
 40
0.0
 40
0.0
 40
0.0
 40
1.0
 40
1.0
 40
1.0
 40
2.0
 40
2.0
 40
2.0
 40
3.0
 40
3.0
 40
3.0
 40
4.0
 40
4.0
 40
4.0
 40
5.0
 40
5.0
 40
5.0
 40
6.0
 40
6.0
 40
6.0
 40
7.0
 40
7.0
 40
7.0
 40
8.0
 40
8.0
 40
8.0
 40
9.0
 40
9.0
 40
9.0
 40
10.0
 40
10.0
 40
10.0
 40
11.0
 40
11.0
 40
11.0
 40
12.0
 40
12.0
 40
12.0
 40
13.0
 40
13.0
 40
13.0
 40
14.0
 40
14.0
 40
14.0
 40
15.0
 40
15.0
 40
15.0
 40
15.0
 10
14.13739718613579
 20
-11.56048298864634
 10
14.13739718613579
 20
-11.56048298864634
 10
14.13739718613579
 20
-11.87539916695302
 10
14.13739718613579
 20
-11.87539916695302
 10
14.13739718613579
 20
-11.87539916695302
 10
14.34947726420777
 20
-11.9071457218496
 10
14.34947726420777
 20
-11.9071457218496
 10
14.34692789354868
 20
-11.88809434381617
 10
14.3443785228896
 20
-11.87031765111228
 10
14.3443785228896
 20
-11.83984578154525
 10
14.3443785228896
 20
-11.77635267175209
 10
14.35836561055971
 20
-11.71285956195894
 10
14.38882025464932
 20
-11.66206162902893
 10
14.42564832538664
 20
-11.59731105938366
 10
14.4967550962022
 20
-11.54396375579456
 10
14.6009003327213
 20
-11.54396375579456
 10
14.76216525238585
 20
-11.54396375579456
 10
14.8828124962793
 20
-11.67222466071042
 10
14.8828124962793
 20
-11.85126627307885
 10
14.8828124962793
 20
-11.94142442192784
 10
14.857422142553
 20
-12.01762993406156
 10
14.83199733787186
 20
-12.05699014998053
 10
14.83199733787186
 20
-12.05699014998053
 10
14.74693793034104
 20
-12.02905042559517
 10
14.74693793034104
 20
-12.02905042559517
 10
14.76726399370402
 20
-11.99477172551693
 10
14.79265434743031
 20
-11.92747178521258
 10
14.79265434743031
 20
-11.85254095840839
 10
14.79265434743031
 20
-11.74713826203717
 10
14.72406249631898
 20
-11.65698011318818
 10
14.61361273506187
 20
-11.65698011318818
 10
14.50691812788369
 20
-11.65825479851773
 10
14.43074706670481
 20
-11.72936156933328
 10
14.43074706670481
 20
-11.89445054498646
 10
14.43074706670481
 20
-11.94142442192784
 10
14.43581135706813
 20
-11.97825249266516
 10
14.43963541305676
 20
-12.00874158770962
 10
14.43963541305676
 20
-12.00874158770962
 10
14.04344943225303
 20
-11.95539428412053
 10
14.04344943225303
 20
-11.95539428412053
 10
14.04344943225303
 20
-11.95539428412053
 10
14.04344943225303
 20
-11.56048298864634
 10
14.04344943225303
 20
-11.56048298864634
 10
14.04344943225303
 20
-11.56048298864634
 10
14.13739718613579
 20
-11.56048298864634
 10
14.13739718613579
 20
-11.56048298864634
 97
        0
 97
        0
 75
     2
 76
     1
 98
        0
450
        0
451
        0
460
0.0
461
0.0
452
        0
462
0.0
453
        0
470

  0
ENDBLK
  5
CD
330
CA
100
AcDbEntity
  8
0
100
AcDbBlockEnd
  0
BLOCK
  5
DE
330
DC
100
AcDbEntity
  8
0
100
AcDbBlockBegin
  2
block 6
 70
     0
 10
0.0
 20
0.0
 30
0.0
  3
block 6
  1

  0
POLYLINE
  5
E0
330
DC
100
AcDbEntity
  8
Livello 3
370
     0
100
AcDb2dPolyline
 66
     1
 10
0.0
 20
0.0
 30
0.0
  0
VERTEX
  5
E1
330
E0
100
AcDbEntity
  8
Livello 3
370
     0
100
AcDbVertex
100
AcDb2dVertex
 10
7.144611272085374
 20
-16.66688964427077
 30
0.0
  0
VERTEX
  5
E2
330
E0
100
AcDbEntity
  8
Livello 3
370
     0
100
AcDbVertex
100
AcDb2dVertex
 10
7.332902965831704
 20
-16.54414089213132
 30
0.0
  0
VERTEX
  5
E3
330
E0
100
AcDbEntity
  8
Livello 3
370
     0
100
AcDbVertex
100
AcDb2dVertex
 10
7.123475611283367
 20
-16.22288573813178
 30
0.0
  0
VERTEX
  5
E4
330
E0
100
AcDbEntity
  8
Livello 3
370
     0
100
AcDbVertex
100
AcDb2dVertex
 10
7.185177271424191
 20
-16.18264702286406
 30
0.0
  0
VERTEX
  5
E5
330
E0
100
AcDbEntity
  8
Livello 3
370
     0
100
AcDbVertex
100
AcDb2dVertex
 10
7.827739255855565
 20
-16.20335204673041
 30
0.0
  0
VERTEX
  5
E6
330
E0
100
AcDbEntity
  8
Livello 3
370
     0
100
AcDbVertex
100
AcDb2dVertex
 10
7.893626707010967
 20
-16.30443114826764
 30
0.0
  0
VERTEX
  5
E7
330
E0
100
AcDbEntity
  8
Livello 3
370
     0
100
AcDbVertex
100
AcDb2dVertex
 10
7.463868270703478
 20
-16.58458631312816
 30
0.0
  0
VERTEX
  5
E8
330
E0
100
AcDbEntity
  8
Livello 3
370
     0
100
AcDbVertex
100
AcDb2dVertex
 10
7.526965194515827
 20
-16.68135904530883
 30
0.0
  0
VERTEX
  5
E9
330
E0
100
AcDbEntity
  8
Livello 3
370
     0
100
AcDbVertex
100
AcDb2dVertex
 10
7.453567435202579
 20
-16.7292458725538
 30
0.0
  0
VERTEX
  5
EA
330
E0
100
AcDbEntity
  8
Livello 3
370
     0
100
AcDbVertex
100
AcDb2dVertex
 10
7.390470511390228
 20
-16.63243868941828
 30
0.0
  0
VERTEX
  5
EB
330
E0
100
AcDbEntity
  8
Livello 3
370
     0
100
AcDbVertex
100
AcDb2dVertex
 10
7.202178817643898
 20
-16.75515299060288
 30
0.0
  0
VERTEX
  5
EC
330
E0
100
AcDbEntity
  8
Livello 3
370
     0
100
AcDbVertex
100
AcDb2dVertex
 10
7.144611272085374
 20
-16.66688964427077
 30
0.0
  0
SEQEND
  5
ED
330
E0
100
AcDbEntity
  8
Livello 3
370
     0
  0
SPLINE
  5
EE
330
DC
100
AcDbEntity
  8
Livello 3
370
     0
100
AcDbSpline
210
0.0
220
0.0
230
1.0
 70
    11
 71
     3
 72
    26
 73
    22
 74
     0
 42
0.000000001
 43
0.0000000001
 40
0.0
 40
0.0
 40
0.0
 40
0.0
 40
1.0
 40
1.0
 40
1.0
 40
2.0
 40
2.0
 40
2.0
 40
3.0
 40
3.0
 40
3.0
 40
4.0
 40
4.0
 40
4.0
 40
5.0
 40
5.0
 40
5.0
 40
6.0
 40
6.0
 40
6.0
 40
7.0
 40
7.0
 40
7.0
 40
7.0
 10
7.406300725144952
 20
-16.4962885158412
 30
0.0
 10
7.406300725144952
 20
-16.4962885158412
 30
0.0
 10
7.637139348134117
 20
-16.34580674504549
 30
0.0
 10
7.637139348134117
 20
-16.34580674504549
 30
0.0
 10
7.673295625251812
 20
-16.32224229192638
 30
0.0
 10
7.710175372421413
 20
-16.29971136745285
 30
0.0
 10
7.747726913210637
 20
-16.27828287353459
 30
0.0
 10
7.747726913210637
 20
-16.27828287353459
 30
0.0
 10
7.745642630442061
 20
-16.27507893473331
 30
0.0
 10
7.745642630442061
 20
-16.27507893473331
 30
0.0
 10
7.691347925594523
 20
-16.28014322509663
 30
0.0
 10
7.650471867662034
 20
-16.28255479193631
 30
0.0
 10
7.606064586857163
 20
-16.28420843776922
 30
0.0
 10
7.606064586857163
 20
-16.28420843776922
 30
0.0
 10
7.260710989938293
 20
-16.26829209662737
 30
0.0
 10
7.260710989938293
 20
-16.26829209662737
 30
0.0
 10
7.260710989938293
 20
-16.26829209662737
 30
0.0
 10
7.258592256214865
 20
-16.26970458577632
 30
0.0
 10
7.258592256214865
 20
-16.26970458577632
 30
0.0
 10
7.258592256214865
 20
-16.26970458577632
 30
0.0
 10
7.406300725144952
 20
-16.4962885158412
 30
0.0
 10
7.406300725144952
 20
-16.4962885158412
 30
0.0
  0
HATCH
  5
EF
330
DC
100
AcDbEntity
  8
Livello 3
 62
   250
420
  1842203
100
AcDbHatch
 10
0.0
 20
0.0
 30
0.0
210
0.0
220
0.0
230
1.0
  2
SOLID
 70
     1
 71
     0
 91
        2
 92
        1
 93
       11
 72
     1
 10
7.144611272085374
 20
-16.66688964427077
 11
7.332902965831704
 21
-16.54414089213132
 72
     1
 10
7.332902965831704
 20
-16.54414089213132
 11
7.123475611283367
 21
-16.22288573813178
 72
     1
 10
7.123475611283367
 20
-16.22288573813178
 11
7.185177271424191
 21
-16.18264702286406
 72
     1
 10
7.185177271424191
 20
-16.18264702286406
 11
7.827739255855565
 21
-16.20335204673041
 72
     1
 10
7.827739255855565
 20
-16.20335204673041
 11
7.893626707010967
 21
-16.30443114826764
 72
     1
 10
7.893626707010967
 20
-16.30443114826764
 11
7.463868270703478
 21
-16.58458631312816
 72
     1
 10
7.463868270703478
 20
-16.58458631312816
 11
7.526965194515827
 21
-16.68135904530883
 72
     1
 10
7.526965194515827
 20
-16.68135904530883
 11
7.453567435202579
 21
-16.7292458725538
 72
     1
 10
7.453567435202579
 20
-16.7292458725538
 11
7.390470511390228
 21
-16.63243868941828
 72
     1
 10
7.390470511390228
 20
-16.63243868941828
 11
7.202178817643898
 21
-16.75515299060288
 72
     1
 10
7.202178817643898
 20
-16.75515299060288
 11
7.144611272085374
 21
-16.66688964427077
 97
        0
 92
        1
 93
        1
 72
     4
 94
        3
 73
     0
 74
     0
 95
       26
 96
       22
 40
0.0
 40
0.0
 40
0.0
 40
0.0
 40
1.0
 40
1.0
 40
1.0
 40
2.0
 40
2.0
 40
2.0
 40
3.0
 40
3.0
 40
3.0
 40
4.0
 40
4.0
 40
4.0
 40
5.0
 40
5.0
 40
5.0
 40
6.0
 40
6.0
 40
6.0
 40
7.0
 40
7.0
 40
7.0
 40
7.0
 10
7.406300725144952
 20
-16.4962885158412
 10
7.406300725144952
 20
-16.4962885158412
 10
7.637139348134117
 20
-16.34580674504549
 10
7.637139348134117
 20
-16.34580674504549
 10
7.673295625251812
 20
-16.32224229192638
 10
7.710175372421413
 20
-16.29971136745285
 10
7.747726913210637
 20
-16.27828287353459
 10
7.747726913210637
 20
-16.27828287353459
 10
7.745642630442061
 20
-16.27507893473331
 10
7.745642630442061
 20
-16.27507893473331
 10
7.691347925594523
 20
-16.28014322509663
 10
7.650471867662034
 20
-16.28255479193631
 10
7.606064586857163
 20
-16.28420843776922
 10
7.606064586857163
 20
-16.28420843776922
 10
7.260710989938293
 20
-16.26829209662737
 10
7.260710989938293
 20
-16.26829209662737
 10
7.260710989938293
 20
-16.26829209662737
 10
7.258592256214865
 20
-16.26970458577632
 10
7.258592256214865
 20
-16.26970458577632
 10
7.258592256214865
 20
-16.26970458577632
 10
7.406300725144952
 20
-16.4962885158412
 10
7.406300725144952
 20
-16.4962885158412
 97
        0
 97
        0
 75
     2
 76
     1
 98
        0
450
        0
451
        0
460
0.0
461
0.0
452
        0
462
0.0
453
        0
470

  0
SPLINE
  5
F0
330
DC
100
AcDbEntity
  8
Livello 3
370
     0
100
AcDbSpline
210
0.0
220
0.0
230
1.0
 70
     9
 71
     3
 72
    17
 73
    13
 74
     0
 42
0.000000001
 43
0.0000000001
 40
0.0
 40
0.0
 40
0.0
 40
0.0
 40
1.0
 40
1.0
 40
1.0
 40
2.0
 40
2.0
 40
2.0
 40
3.0
 40
3.0
 40
3.0
 40
4.0
 40
4.0
 40
4.0
 40
4.0
 10
7.964526772097408
 20
-17.1525792057813
 30
0.0
 10
7.72943345618396
 20
-17.30588595487492
 30
0.0
 10
7.54279540827055
 20
-17.30323323135127
 30
0.0
 10
7.442922090153158
 20
-17.15002983512221
 30
0.0
 10
7.354865449550173
 20
-17.01494764114557
 30
0.0
 10
7.421803654828575
 20
-16.8409358681856
 30
0.0
 10
7.649128280422786
 20
-16.68973062733798
 30
0.0
 10
7.881034883012379
 20
-16.53855983744522
 30
0.0
 10
8.073856877321812
 20
-16.55533745245839
 30
0.0
 10
8.1653930643649
 20
-16.69575954443717
 30
0.0
 10
8.260408797848091
 20
-16.84148708346324
 30
0.0
 10
8.184720050037153
 20
-17.00905652786579
 30
0.0
 10
7.964526772097408
 20
-17.1525792057813
 30
0.0
  0
SPLINE
  5
F1
330
DC
100
AcDbEntity
  8
Livello 3
370
     0
100
AcDbSpline
210
0.0
220
0.0
230
1.0
 70
     9
 71
     3
 72
    17
 73
    13
 74
     0
 42
0.000000001
 43
0.0000000001
 40
0.0
 40
0.0
 40
0.0
 40
0.0
 40
1.0
 40
1.0
 40
1.0
 40
2.0
 40
2.0
 40
2.0
 40
3.0
 40
3.0
 40
3.0
 40
4.0
 40
4.0
 40
4.0
 40
4.0
 10
7.709090167343559
 20
-16.78402289076927
 30
0.0
 10
7.529325084923223
 20
-16.90122503917747
 30
0.0
 10
7.46324815351613
 20
-17.02311251744561
 30
0.0
 10
7.518731416306079
 20
-17.10820637593128
 30
0.0
 10
7.58113932102138
 20
-17.20398003042122
 30
0.0
 10
7.722646618078017
 20
-17.17690157990716
 30
0.0
 10
7.899242212651925
 20
-17.06176648879011
 30
0.0
 10
8.069447155100691
 20
-16.95083441416507
 30
0.0
 10
8.152697887501755
 20
-16.83439018676361
 30
0.0
 10
8.089600963689404
 20
-16.7375830036281
 30
0.0
 10
8.036201983668032
 20
-16.65565863298885
 30
0.0
 10
7.89738186108989
 20
-16.66127413862982
 30
0.0
 10
7.709090167343559
 20
-16.78402289076927
 30
0.0
  0
HATCH
  5
F2
330
DC
100
AcDbEntity
  8
Livello 3
 62
   250
420
  1842203
100
AcDbHatch
 10
0.0
 20
0.0
 30
0.0
210
0.0
220
0.0
230
1.0
  2
SOLID
 70
     1
 71
     0
 91
        2
 92
        1
 93
        1
 72
     4
 94
        3
 73
     0
 74
     0
 95
       17
 96
       13
 40
0.0
 40
0.0
 40
0.0
 40
0.0
 40
1.0
 40
1.0
 40
1.0
 40
2.0
 40
2.0
 40
2.0
 40
3.0
 40
3.0
 40
3.0
 40
4.0
 40
4.0
 40
4.0
 40
4.0
 10
7.964526772097408
 20
-17.1525792057813
 10
7.72943345618396
 20
-17.30588595487492
 10
7.54279540827055
 20
-17.30323323135127
 10
7.442922090153158
 20
-17.15002983512221
 10
7.354865449550173
 20
-17.01494764114557
 10
7.421803654828575
 20
-16.8409358681856
 10
7.649128280422786
 20
-16.68973062733798
 10
7.881034883012379
 20
-16.53855983744522
 10
8.073856877321812
 20
-16.55533745245839
 10
8.1653930643649
 20
-16.69575954443717
 10
8.260408797848091
 20
-16.84148708346324
 10
8.184720050037153
 20
-17.00905652786579
 10
7.964526772097408
 20
-17.1525792057813
 97
        0
 97
        0
 92
        1
 93
        1
 72
     4
 94
        3
 73
     0
 74
     0
 95
       17
 96
       13
 40
0.0
 40
0.0
 40
0.0
 40
0.0
 40
1.0
 40
1.0
 40
1.0
 40
2.0
 40
2.0
 40
2.0
 40
3.0
 40
3.0
 40
3.0
 40
4.0
 40
4.0
 40
4.0
 40
4.0
 10
7.709090167343559
 20
-16.78402289076927
 10
7.529325084923223
 20
-16.90122503917747
 10
7.46324815351613
 20
-17.02311251744561
 10
7.518731416306079
 20
-17.10820637593128
 10
7.58113932102138
 20
-17.20398003042122
 10
7.722646618078017
 20
-17.17690157990716
 10
7.899242212651925
 20
-17.06176648879011
 10
8.069447155100691
 20
-16.95083441416507
 10
8.152697887501755
 20
-16.83439018676361
 10
8.089600963689404
 20
-16.7375830036281
 10
8.036201983668032
 20
-16.65565863298885
 10
7.89738186108989
 20
-16.66127413862982
 10
7.709090167343559
 20
-16.78402289076927
 97
        0
 97
        0
 75
     2
 76
     1
 98
        0
450
        0
451
        0
460
0.0
461
0.0
452
        0
462
0.0
453
        0
470

  0
ENDBLK
  5
DF
330
DC
100
AcDbEntity
  8
0
100
AcDbBlockEnd
  0
ENDSEC
  0
SECTION
  2
ENTITIES
  0
HATCH
  5
44
330
1F
100
AcDbEntity
  8
Livello 3
100
AcDbHatch
 10
0.0
 20
0.0
 30
0.0
210
0.0
220
0.0
230
1.0
  2
SOLID
 70
     1
 71
     0
 91
        1
 92
        1
 93
        1
 72
     4
 94
        3
 73
     0
 74
     0
 95
       41
 96
       37
 40
0.0
 40
0.0
 40
0.0
 40
0.0
 40
1.0
 40
1.0
 40
1.0
 40
2.0
 40
2.0
 40
2.0
 40
3.0
 40
3.0
 40
3.0
 40
4.0
 40
4.0
 40
4.0
 40
5.0
 40
5.0
 40
5.0
 40
6.0
 40
6.0
 40
6.0
 40
7.0
 40
7.0
 40
7.0
 40
8.0
 40
8.0
 40
8.0
 40
9.0
 40
9.0
 40
9.0
 40
10.0
 40
10.0
 40
10.0
 40
11.0
 40
11.0
 40
11.0
 40
12.0
 40
12.0
 40
12.0
 40
12.0
 10
9.686268018703916
 20
-18.55667179106489
 10
9.686268018703916
 20
-18.55667179106489
 10
9.686268018703916
 20
-18.35713362444813
 10
9.686268018703916
 20
-18.35713362444813
 10
9.686268018703916
 20
-18.35713362444813
 10
9.625964186909062
 20
-18.35713362444813
 10
9.625964186909062
 20
-18.35713362444813
 10
9.625964186909062
 20
-18.35713362444813
 10
9.588859021189026
 20
-18.26435659669355
 10
9.649166380761569
 20
-18.20872001337411
 10
9.649166380761569
 20
-18.20872001337411
 10
9.686268018703916
 20
-18.20872001337411
 10
9.686268018703916
 20
-18.20872001337411
 10
9.686268018703916
 20
-18.20872001337411
 10
9.70945610144567
 20
-18.23421173558999
 10
9.70945610144567
 20
-18.23421173558999
 10
9.70945610144567
 20
-18.23421173558999
 10
9.737290267402229
 20
-18.22494426337004
 10
9.737290267402229
 20
-18.22494426337004
 10
9.737290267402229
 20
-18.22494426337004
 10
9.739925517334999
 20
-18.25043951336368
 10
9.804709626793329
 20
-18.25043951336368
 10
9.869514902917787
 20
-18.25043951336368
 10
9.867221847420733
 20
-18.22263709670396
 10
9.87187498619091
 20
-18.22029465226013
 10
9.876489319406523
 20
-18.21798748559398
 10
9.902016318755274
 20
-18.23421173558999
 10
9.902016318755274
 20
-18.23421173558999
 10
9.902016318755274
 20
-18.23421173558999
 10
9.925204401497028
 20
-18.54737256884498
 10
9.925204401497028
 20
-18.54737256884498
 10
9.925204401497028
 20
-18.54737256884498
 10
9.911283790741064
 20
-18.58213176328075
 10
9.8161680217276
 20
-18.58213176328075
 10
9.8161680217276
 20
-18.58213176328075
 10
9.686268018703916
 20
-18.5844742077246
 10
9.686268018703916
 20
-18.55667179106489
 97
        0
 97
        0
 75
     2
 76
     1
 98
        0
450
        0
451
        0
460
0.0
461
0.0
452
        0
462
0.0
453
        0
470

  0
SPLINE
  5
46
330
1F
100
AcDbEntity
  8
Livello 3
100
AcDbSpline
210
0.0
220
0.0
230
1.0
 70
     9
 71
     3
 72
    17
 73
    13
 74
     0
 42
0.000000001
 43
0.0000000001
 40
0.0
 40
0.0
 40
0.0
 40
0.0
 40
1.0
 40
1.0
 40
1.0
 40
2.0
 40
2.0
 40
2.0
 40
3.0
 40
3.0
 40
3.0
 40
4.0
 40
4.0
 40
4.0
 40
4.0
 10
10.25917205964347
 20
-17.47539731911301
 30
0.0
 10
10.25917205964347
 20
-17.50461084688351
 30
0.0
 10
10.23541600469398
 20
-17.52838101354418
 30
0.0
 10
10.206117810997
 20
-17.52838101354418
 30
0.0
 10
10.17681608952232
 20
-17.52838101354418
 30
0.0
 10
10.15304592346209
 20
-17.50461084688351
 30
0.0
 10
10.15304592346209
 20
-17.47539731911301
 30
0.0
 10
10.15304592346209
 20
-17.4460074024537
 30
0.0
 10
10.17681608952232
 20
-17.42227251357073
 30
0.0
 10
10.206117810997
 20
-17.42227251357073
 30
0.0
 10
10.23541600469398
 20
-17.42227251357073
 30
0.0
 10
10.25917205964347
 20
-17.4460074024537
 30
0.0
 10
10.25917205964347
 20
-17.47539731911301
 30
0.0
  0
SPLINE
  5
47
330
1F
100
AcDbEntity
  8
Livello 3
100
AcDbSpline
210
0.0
220
0.0
230
1.0
 70
     9
 71
     3
 72
    17
 73
    13
 74
     0
 42
0.000000001
 43
0.0000000001
 40
0.0
 40
0.0
 40
0.0
 40
0.0
 40
1.0
 40
1.0
 40
1.0
 40
2.0
 40
2.0
 40
2.0
 40
3.0
 40
3.0
 40
3.0
 40
4.0
 40
4.0
 40
4.0
 40
4.0
 10
9.245433391061654
 20
-16.38271401383061
 30
0.0
 10
9.245433391061654
 20
-16.41203337493436
 30
0.0
 10
9.221680863889854
 20
-16.43576826381733
 30
0.0
 10
9.192379142415184
 20
-16.43576826381733
 30
0.0
 10
9.163080948718194
 20
-16.43576826381733
 30
0.0
 10
9.139324893768707
 20
-16.41203337493436
 30
0.0
 10
9.139324893768707
 20
-16.38271401383061
 30
0.0
 10
9.139324893768707
 20
-16.35342993050462
 30
0.0
 10
9.163080948718194
 20
-16.32965976384388
 30
0.0
 10
9.192379142415184
 20
-16.32965976384388
 30
0.0
 10
9.221680863889854
 20
-16.32965976384388
 30
0.0
 10
9.245433391061654
 20
-16.35342993050462
 30
0.0
 10
9.245433391061654
 20
-16.38271401383061
 30
0.0
  0
SPLINE
  5
48
330
1F
100
AcDbEntity
  8
Livello 3
100
AcDbSpline
210
0.0
220
0.0
230
1.0
 70
     9
 71
     3
 72
    17
 73
    13
 74
     0
 42
0.000000001
 43
0.0000000001
 40
0.0
 40
0.0
 40
0.0
 40
0.0
 40
1.0
 40
1.0
 40
1.0
 40
2.0
 40
2.0
 40
2.0
 40
3.0
 40
3.0
 40
3.0
 40
4.0
 40
4.0
 40
4.0
 40
4.0
 10
9.907166874179427
 20
-17.7659556801515
 30
0.0
 10
9.907166874179427
 20
-17.79024443014537
 30
0.0
 10
9.88742913282088
 20
-17.80995059680712
 30
0.0
 10
9.863104930859096
 20
-17.80995059680712
 30
0.0
 10
9.838784431479565
 20
-17.80995059680712
 30
0.0
 10
9.819078265315644
 20
-17.79024443014537
 30
0.0
 10
9.819078265315644
 20
-17.7659556801515
 30
0.0
 10
9.819078265315644
 20
-17.74163165237979
 30
0.0
 10
9.838784431479565
 20
-17.72192548571804
 30
0.0
 10
9.863104930859096
 20
-17.72192548571804
 30
0.0
 10
9.88742913282088
 20
-17.72192548571804
 30
0.0
 10
9.907166874179427
 20
-17.74163165237979
 30
0.0
 10
9.907166874179427
 20
-17.7659556801515
 30
0.0
  0
SPLINE
  5
49
330
1F
100
AcDbEntity
  8
Livello 3
100
AcDbSpline
210
0.0
220
0.0
230
1.0
 70
     9
 71
     3
 72
    17
 73
    13
 74
     0
 42
0.000000001
 43
0.0000000001
 40
0.0
 40
0.0
 40
0.0
 40
0.0
 40
1.0
 40
1.0
 40
1.0
 40
2.0
 40
2.0
 40
2.0
 40
3.0
 40
3.0
 40
3.0
 40
4.0
 40
4.0
 40
4.0
 40
4.0
 10
7.906998064096874
 20
-14.40884826432406
 30
0.0
 10
7.906998064096874
 20
-14.433137014318
 30
0.0
 10
7.887274259044515
 20
-14.45283965320199
 30
0.0
 10
7.862953759664982
 20
-14.45283965320199
 30
0.0
 10
7.838629732507762
 20
-14.45283965320199
 30
0.0
 10
7.818923566343842
 20
-14.433137014318
 30
0.0
 10
7.818923566343842
 20
-14.40884826432406
 30
0.0
 10
7.818923566343842
 20
-14.38448895877464
 30
0.0
 10
7.838629732507762
 20
-14.36475104211286
 30
0.0
 10
7.862953759664982
 20
-14.36475104211286
 30
0.0
 10
7.887274259044515
 20
-14.36475104211286
 30
0.0
 10
7.906998064096874
 20
-14.38448895877464
 30
0.0
 10
7.906998064096874
 20
-14.40884826432406
 30
0.0
  0
SPLINE
  5
4A
330
1F
100
AcDbEntity
  8
Livello 3
100
AcDbSpline
210
0.0
220
0.0
230
1.0
 70
     9
 71
     3
 72
    17
 73
    13
 74
     0
 42
0.000000001
 43
0.0000000001
 40
0.0
 40
0.0
 40
0.0
 40
0.0
 40
1.0
 40
1.0
 40
1.0
 40
2.0
 40
2.0
 40
2.0
 40
3.0
 40
3.0
 40
3.0
 40
4.0
 40
4.0
 40
4.0
 40
4.0
 10
8.220017778333298
 20
-14.6803883753673
 30
0.0
 10
8.220017778333298
 20
-14.70474768091679
 30
0.0
 10
8.200311612169377
 20
-14.72441856980077
 30
0.0
 10
8.175991112789844
 20
-14.72441856980077
 30
0.0
 10
8.151635335633434
 20
-14.72441856980077
 30
0.0
 10
8.131929169469515
 20
-14.70474768091679
 30
0.0
 10
8.131929169469515
 20
-14.6803883753673
 30
0.0
 10
8.131929169469515
 20
-14.65610315315119
 30
0.0
 10
8.151635335633434
 20
-14.63636170871166
 30
0.0
 10
8.175991112789844
 20
-14.63636170871166
 30
0.0
 10
8.200311612169377
 20
-14.63636170871166
 30
0.0
 10
8.220017778333298
 20
-14.65610315315119
 30
0.0
 10
8.220017778333298
 20
-14.6803883753673
 30
0.0
  0
SPLINE
  5
4B
330
1F
100
AcDbEntity
  8
Livello 3
100
AcDbSpline
210
0.0
220
0.0
230
1.0
 70
     9
 71
     3
 72
    17
 73
    13
 74
     0
 42
0.000000001
 43
0.0000000001
 40
0.0
 40
0.0
 40
0.0
 40
0.0
 40
1.0
 40
1.0
 40
1.0
 40
2.0
 40
2.0
 40
2.0
 40
3.0
 40
3.0
 40
3.0
 40
4.0
 40
4.0
 40
4.0
 40
4.0
 10
11.23003411820808
 20
-11.98963232048444
 30
0.0
 10
11.23003411820808
 20
-12.01392107047837
 30
0.0
 10
11.21029267426728
 20
-12.03362723714012
 30
0.0
 10
11.18600413249622
 20
-12.03362723714012
 30
0.0
 10
11.16168342550741
 20
-12.03362723714012
 30
0.0
 10
11.14195962045505
 20
-12.01392107047837
 30
0.0
 10
11.14195962045505
 20
-11.98963232048444
 30
0.0
 10
11.14195962045505
 20
-11.96527654271277
 30
0.0
 10
11.16168342550741
 20
-11.94553509827324
 30
0.0
 10
11.18600413249622
 20
-11.94553509827324
 30
0.0
 10
11.21029267426728
 20
-11.94553509827324
 30
0.0
 10
11.23003411820808
 20
-11.96527654271277
 30
0.0
 10
11.23003411820808
 20
-11.98963232048444
 30
0.0
  0
SPLINE
  5
4C
330
1F
100
AcDbEntity
  8
Livello 3
100
AcDbSpline
210
0.0
220
0.0
230
1.0
 70
     9
 71
     3
 72
    17
 73
    13
 74
     0
 42
0.000000001
 43
0.0000000001
 40
0.0
 40
0.0
 40
0.0
 40
0.0
 40
1.0
 40
1.0
 40
1.0
 40
2.0
 40
2.0
 40
2.0
 40
3.0
 40
3.0
 40
3.0
 40
4.0
 40
4.0
 40
4.0
 40
4.0
 10
11.40533644706908
 20
-11.67495807056314
 30
0.0
 10
11.40533644706908
 20
-11.69927857055704
 30
0.0
 10
11.38563028090516
 20
-11.71898473721879
 30
0.0
 10
11.36130978152563
 20
-11.71898473721879
 30
0.0
 10
11.33698575436841
 20
-11.71898473721879
 30
0.0
 10
11.3172443104276
 20
-11.69927857055704
 30
0.0
 10
11.3172443104276
 20
-11.67495807056314
 30
0.0
 10
11.3172443104276
 20
-11.65056701501363
 30
0.0
 10
11.33698575436841
 20
-11.63086084835194
 30
0.0
 10
11.36130978152563
 20
-11.63086084835194
 30
0.0
 10
11.38563028090516
 20
-11.63086084835194
 30
0.0
 10
11.40533644706908
 20
-11.65056701501363
 30
0.0
 10
11.40533644706908
 20
-11.67495807056314
 30
0.0
  0
SPLINE
  5
4D
330
1F
100
AcDbEntity
  8
Livello 3
100
AcDbSpline
210
0.0
220
0.0
230
1.0
 70
     9
 71
     3
 72
    17
 73
    13
 74
     0
 42
0.000000001
 43
0.0000000001
 40
0.0
 40
0.0
 40
0.0
 40
0.0
 40
1.0
 40
1.0
 40
1.0
 40
2.0
 40
2.0
 40
2.0
 40
3.0
 40
3.0
 40
3.0
 40
4.0
 40
4.0
 40
4.0
 40
4.0
 10
11.58718633131859
 20
-11.98453468159681
 30
0.0
 10
11.58718633131859
 20
-12.00885518159077
 30
0.0
 10
11.56744488737779
 20
-12.02859662603023
 30
0.0
 10
11.5431420268867
 20
-12.02859662603023
 30
0.0
 10
11.51880036084103
 20
-12.02859662603023
 30
0.0
 10
11.49907655578868
 20
-12.00885518159077
 30
0.0
 10
11.49907655578868
 20
-11.98453468159681
 30
0.0
 10
11.49907655578868
 20
-11.96017537604739
 30
0.0
 10
11.51880036084103
 20
-11.94046920938564
 30
0.0
 10
11.5431420268867
 20
-11.94046920938564
 30
0.0
 10
11.56744488737779
 20
-11.94046920938564
 30
0.0
 10
11.58718633131859
 20
-11.96017537604739
 30
0.0
 10
11.58718633131859
 20
-11.98453468159681
 30
0.0
  0
SPLINE
  5
4E
330
1F
100
AcDbEntity
  8
Livello 3
100
AcDbSpline
210
0.0
220
0.0
230
1.0
 70
     9
 71
     3
 72
    17
 73
    13
 74
     0
 42
0.000000001
 43
0.0000000001
 40
0.0
 40
0.0
 40
0.0
 40
0.0
 40
1.0
 40
1.0
 40
1.0
 40
2.0
 40
2.0
 40
2.0
 40
3.0
 40
3.0
 40
3.0
 40
4.0
 40
4.0
 40
4.0
 40
4.0
 10
8.382782385291937
 20
-14.62964481982447
 30
0.0
 10
8.382782385291937
 20
-14.65396531981836
 30
0.0
 10
8.363076355424187
 20
-14.67367148648011
 30
0.0
 10
8.338738080860046
 20
-14.67367148648011
 30
0.0
 10
8.314414053702826
 20
-14.67367148648011
 30
0.0
 10
8.294708022107943
 20
-14.65396531981836
 30
0.0
 10
8.294708022107943
 20
-14.62964481982447
 30
0.0
 10
8.294708022107943
 20
-14.60535606983053
 30
0.0
 10
8.314414053702826
 20
-14.58561462539101
 30
0.0
 10
8.338738080860046
 20
-14.58561462539101
 30
0.0
 10
8.363076355424187
 20
-14.58561462539101
 30
0.0
 10
8.382782385291937
 20
-14.60535606983053
 30
0.0
 10
8.382782385291937
 20
-14.62964481982447
 30
0.0
  0
SPLINE
  5
4F
330
1F
100
AcDbEntity
  8
Livello 3
100
AcDbSpline
210
0.0
220
0.0
230
1.0
 70
     9
 71
     3
 72
    17
 73
    13
 74
     0
 42
0.000000001
 43
0.0000000001
 40
0.0
 40
0.0
 40
0.0
 40
0.0
 40
1.0
 40
1.0
 40
1.0
 40
2.0
 40
2.0
 40
2.0
 40
3.0
 40
3.0
 40
3.0
 40
4.0
 40
4.0
 40
4.0
 40
4.0
 10
10.24113453232587
 20
-18.00621498564696
 30
0.0
 10
10.24113453232587
 20
-18.0305742911964
 30
0.0
 10
10.2214142550512
 20
-18.05028045785815
 30
0.0
 10
10.19709022789398
 20
-18.05028045785815
 30
0.0
 10
10.1727838396252
 20
-18.05028045785815
 30
0.0
 10
10.15304592346209
 20
-18.0305742911964
 30
0.0
 10
10.15304592346209
 20
-18.00621498564696
 30
0.0
 10
10.15304592346209
 20
-17.98192976343079
 30
0.0
 10
10.1727838396252
 20
-17.96218831899133
 30
0.0
 10
10.19709022789398
 20
-17.96218831899133
 30
0.0
 10
10.2214142550512
 20
-17.96218831899133
 30
0.0
 10
10.24113453232587
 20
-17.98192976343079
 30
0.0
 10
10.24113453232587
 20
-18.00621498564696
 30
0.0
  0
SPLINE
  5
5A
330
1F
100
AcDbEntity
  8
Livello 3
100
AcDbSpline
210
0.0
220
0.0
230
1.0
 70
     9
 71
     3
 72
    17
 73
    13
 74
     0
 42
0.000000001
 43
0.0000000001
 40
0.0
 40
0.0
 40
0.0
 40
0.0
 40
1.0
 40
1.0
 40
1.0
 40
2.0
 40
2.0
 40
2.0
 40
3.0
 40
3.0
 40
3.0
 40
4.0
 40
4.0
 40
4.0
 40
4.0
 10
8.470736938603586
 20
-14.23659393103381
 30
0.0
 10
8.470736938603586
 20
-14.2659450421376
 30
0.0
 10
8.446980883654097
 20
-14.28971520879834
 30
0.0
 10
8.417665051068674
 20
-14.28971520879834
 30
0.0
 10
8.38832805181712
 20
-14.28971520879834
 30
0.0
 10
8.364575524645323
 20
-14.2659450421376
 30
0.0
 10
8.364575524645323
 20
-14.23659393103381
 30
0.0
 10
8.364575524645323
 20
-14.20734512548554
 30
0.0
 10
8.38832805181712
 20
-14.18353968104709
 30
0.0
 10
8.417665051068674
 20
-14.18353968104709
 30
0.0
 10
8.446980883654097
 20
-14.18353968104709
 30
0.0
 10
8.470736938603586
 20
-14.20734512548554
 30
0.0
 10
8.470736938603586
 20
-14.23659393103381
 30
0.0
  0
SPLINE
  5
5B
330
1F
100
AcDbEntity
  8
Livello 3
100
AcDbSpline
210
0.0
220
0.0
230
1.0
 70
     9
 71
     3
 72
    17
 73
    13
 74
     0
 42
0.000000001
 43
0.0000000001
 40
0.0
 40
0.0
 40
0.0
 40
0.0
 40
1.0
 40
1.0
 40
1.0
 40
2.0
 40
2.0
 40
2.0
 40
3.0
 40
3.0
 40
3.0
 40
4.0
 40
4.0
 40
4.0
 40
4.0
 10
9.79787279363442
 20
-13.32994798681605
 30
0.0
 10
9.79787279363442
 20
-13.35926382014206
 30
0.0
 10
9.774102627574178
 20
-13.38300223680278
 30
0.0
 10
9.744801077300991
 20
-13.38300223680278
 30
0.0
 10
9.715481545736396
 20
-13.38300223680278
 30
0.0
 10
9.691729018564593
 20
-13.35926382014206
 30
0.0
 10
9.691729018564593
 20
-13.32994798681605
 30
0.0
 10
9.691729018564593
 20
-13.30059334793445
 30
0.0
 10
9.715481545736396
 20
-13.27689373682926
 30
0.0
 10
9.744801077300991
 20
-13.27689373682926
 30
0.0
 10
9.774102627574178
 20
-13.27689373682926
 30
0.0
 10
9.79787279363442
 20
-13.30059334793445
 30
0.0
 10
9.79787279363442
 20
-13.32994798681605
 30
0.0
  0
INSERT
  5
C7
330
1F
100
AcDbEntity
  8
Livello 3
100
AcDbBlockReference
  2
block 4
 10
0.0
 20
0.0
 30
0.0
  0
SPLINE
  5
123
330
1F
100
AcDbEntity
  8
Livello 3
100
AcDbSpline
210
0.0
220
0.0
230
1.0
 70
     8
 71
     3
 72
     8
 73
     4
 74
     0
 42
0.000000001
 43
0.0000000001
 40
0.0
 40
0.0
 40
0.0
 40
0.0
 40
1.0
 40
1.0
 40
1.0
 40
1.0
 10
9.908958985244815
 20
-18.25043951336368
 30
0.0
 10
10.97604470802123
 20
-18.29219429113103
 30
0.0
 10
10.92965443142696
 20
-18.5844742077246
 30
0.0
 10
10.92965443142696
 20
-18.5844742077246
 30
0.0
  0
SPLINE
  5
124
330
1F
100
AcDbEntity
  8
Livello 3
100
AcDbSpline
210
0.0
220
0.0
230
1.0
 70
    24
 71
     3
 72
     8
 73
     4
 74
     0
 42
0.000000001
 43
0.0000000001
 40
1.0
 40
1.0
 40
1.0
 40
1.0
 40
2.0
 40
2.0
 40
2.0
 40
2.0
 10
10.92965443142696
 20
-18.5844742077246
 30
0.0
 10
10.92965443142696
 20
-18.5844742077246
 30
0.0
 10
10.92965443142696
 20
-18.90001276320128
 30
0.0
 10
10.92965443142696
 20
-18.90001276320128
 30
0.0
  0
SPLINE
  5
125
330
1F
100
AcDbEntity
  8
Livello 3
100
AcDbSpline
210
0.0
220
0.0
230
1.0
 70
     8
 71
     3
 72
     8
 73
     4
 74
     0
 42
0.000000001
 43
0.0000000001
 40
2.0
 40
2.0
 40
2.0
 40
2.0
 40
3.0
 40
3.0
 40
3.0
 40
3.0
 10
10.92965443142696
 20
-18.90001276320128
 30
0.0
 10
10.86471509975037
 20
-19.19697756868261
 30
0.0
 10
9.834734542693995
 20
-19.21544548534463
 30
0.0
 10
9.834734542693995
 20
-19.21544548534463
 30
0.0
  0
SPLINE
  5
126
330
1F
100
AcDbEntity
  8
Livello 3
100
AcDbSpline
210
0.0
220
0.0
230
1.0
 70
     8
 71
     3
 72
     8
 73
     4
 74
     0
 42
0.000000001
 43
0.0000000001
 40
3.0
 40
3.0
 40
3.0
 40
3.0
 40
4.0
 40
4.0
 40
4.0
 40
4.0
 10
9.834734542693995
 20
-19.21544548534463
 30
0.0
 10
8.69341026625605
 20
-19.22009509645462
 30
0.0
 10
8.679475544389331
 20
-18.93711440208089
 30
0.0
 10
8.679475544389331
 20
-18.93711440208089
 30
0.0
  0
SPLINE
  5
127
330
1F
100
AcDbEntity
  8
Livello 3
100
AcDbSpline
210
0.0
220
0.0
230
1.0
 70
    24
 71
     3
 72
     8
 73
     4
 74
     0
 42
0.000000001
 43
0.0000000001
 40
4.0
 40
4.0
 40
4.0
 40
4.0
 40
5.0
 40
5.0
 40
5.0
 40
5.0
 10
8.679475544389331
 20
-18.93711440208089
 30
0.0
 10
8.679475544389331
 20
-18.93711440208089
 30
0.0
 10
8.679475544389331
 20
-18.5844742077246
 30
0.0
 10
8.679475544389331
 20
-18.5844742077246
 30
0.0
  0
SPLINE
  5
128
330
1F
100
AcDbEntity
  8
Livello 3
100
AcDbSpline
210
0.0
220
0.0
230
1.0
 70
     8
 71
     3
 72
     8
 73
     4
 74
     0
 42
0.000000001
 43
0.0000000001
 40
5.0
 40
5.0
 40
5.0
 40
5.0
 40
6.0
 40
6.0
 40
6.0
 40
6.0
 10
8.679475544389331
 20
-18.5844742077246
 30
0.0
 10
8.679475544389331
 20
-18.5844742077246
 30
0.0
 10
8.647005878551034
 20
-18.34321654111826
 30
0.0
 10
9.625964186909062
 20
-18.25043951336368
 30
0.0
  0
SPLINE
  5
129
330
1F
100
AcDbEntity
  8
Livello 3
100
AcDbSpline
210
0.0
220
0.0
230
1.0
 70
     8
 71
     3
 72
     8
 73
     4
 74
     0
 42
0.000000001
 43
0.0000000001
 40
0.0
 40
0.0
 40
0.0
 40
0.0
 40
1.0
 40
1.0
 40
1.0
 40
1.0
 10
8.679475544389331
 20
-18.5844742077246
 30
0.0
 10
8.679475544389331
 20
-18.5844742077246
 30
0.0
 10
8.688774766374308
 20
-18.90462709653349
 30
0.0
 10
9.885774430280749
 20
-18.87213979098602
 30
0.0
  0
SPLINE
  5
12A
330
1F
100
AcDbEntity
  8
Livello 3
100
AcDbSpline
210
0.0
220
0.0
230
1.0
 70
     8
 71
     3
 72
     8
 73
     4
 74
     0
 42
0.000000001
 43
0.0000000001
 40
1.0
 40
1.0
 40
1.0
 40
1.0
 40
2.0
 40
2.0
 40
2.0
 40
2.0
 10
9.885774430280749
 20
-18.87213979098602
 30
0.0
 10
9.885774430280749
 20
-18.87213979098602
 30
0.0
 10
10.77715918531744
 20
-18.85357309654623
 30
0.0
 10
10.92996487586349
 20
-18.55667179106489
 30
0.0
  0
SPLINE
  5
12B
330
1F
100
AcDbEntity
  8
Livello 3
100
AcDbSpline
210
0.0
220
0.0
230
1.0
 70
    24
 71
     3
 72
     8
 73
     4
 74
     0
 42
0.000000001
 43
0.0000000001
 40
0.0
 40
0.0
 40
0.0
 40
0.0
 40
1.0
 40
1.0
 40
1.0
 40
1.0
 10
9.686268018703916
 20
-18.55667179106489
 30
0.0
 10
9.686268018703916
 20
-18.55667179106489
 30
0.0
 10
9.686268018703916
 20
-18.35713362444813
 30
0.0
 10
9.686268018703916
 20
-18.35713362444813
 30
0.0
  0
SPLINE
  5
12C
330
1F
100
AcDbEntity
  8
Livello 3
100
AcDbSpline
210
0.0
220
0.0
230
1.0
 70
    24
 71
     3
 72
     8
 73
     4
 74
     0
 42
0.000000001
 43
0.0000000001
 40
1.0
 40
1.0
 40
1.0
 40
1.0
 40
2.0
 40
2.0
 40
2.0
 40
2.0
 10
9.686268018703916
 20
-18.35713362444813
 30
0.0
 10
9.686268018703916
 20
-18.35713362444813
 30
0.0
 10
9.625964186909062
 20
-18.35713362444813
 30
0.0
 10
9.625964186909062
 20
-18.35713362444813
 30
0.0
  0
SPLINE
  5
12D
330
1F
100
AcDbEntity
  8
Livello 3
100
AcDbSpline
210
0.0
220
0.0
230
1.0
 70
     8
 71
     3
 72
     8
 73
     4
 74
     0
 42
0.000000001
 43
0.0000000001
 40
2.0
 40
2.0
 40
2.0
 40
2.0
 40
3.0
 40
3.0
 40
3.0
 40
3.0
 10
9.625964186909062
 20
-18.35713362444813
 30
0.0
 10
9.625964186909062
 20
-18.35713362444813
 30
0.0
 10
9.588859021189026
 20
-18.26435659669355
 30
0.0
 10
9.649166380761569
 20
-18.20872001337411
 30
0.0
  0
SPLINE
  5
12E
330
1F
100
AcDbEntity
  8
Livello 3
100
AcDbSpline
210
0.0
220
0.0
230
1.0
 70
    24
 71
     3
 72
     8
 73
     4
 74
     0
 42
0.000000001
 43
0.0000000001
 40
3.0
 40
3.0
 40
3.0
 40
3.0
 40
4.0
 40
4.0
 40
4.0
 40
4.0
 10
9.649166380761569
 20
-18.20872001337411
 30
0.0
 10
9.649166380761569
 20
-18.20872001337411
 30
0.0
 10
9.686268018703916
 20
-18.20872001337411
 30
0.0
 10
9.686268018703916
 20
-18.20872001337411
 30
0.0
  0
SPLINE
  5
12F
330
1F
100
AcDbEntity
  8
Livello 3
100
AcDbSpline
210
0.0
220
0.0
230
1.0
 70
    24
 71
     3
 72
     8
 73
     4
 74
     0
 42
0.000000001
 43
0.0000000001
 40
4.0
 40
4.0
 40
4.0
 40
4.0
 40
5.0
 40
5.0
 40
5.0
 40
5.0
 10
9.686268018703916
 20
-18.20872001337411
 30
0.0
 10
9.686268018703916
 20
-18.20872001337411
 30
0.0
 10
9.70945610144567
 20
-18.23421173558999
 30
0.0
 10
9.70945610144567
 20
-18.23421173558999
 30
0.0
  0
SPLINE
  5
130
330
1F
100
AcDbEntity
  8
Livello 3
100
AcDbSpline
210
0.0
220
0.0
230
1.0
 70
    24
 71
     3
 72
     8
 73
     4
 74
     0
 42
0.000000001
 43
0.0000000001
 40
5.0
 40
5.0
 40
5.0
 40
5.0
 40
6.0
 40
6.0
 40
6.0
 40
6.0
 10
9.70945610144567
 20
-18.23421173558999
 30
0.0
 10
9.70945610144567
 20
-18.23421173558999
 30
0.0
 10
9.737290267402229
 20
-18.22494426337004
 30
0.0
 10
9.737290267402229
 20
-18.22494426337004
 30
0.0
  0
SPLINE
  5
131
330
1F
100
AcDbEntity
  8
Livello 3
100
AcDbSpline
210
0.0
220
0.0
230
1.0
 70
     8
 71
     3
 72
    11
 73
     7
 74
     0
 42
0.000000001
 43
0.0000000001
 40
6.0
 40
6.0
 40
6.0
 40
6.0
 40
7.0
 40
7.0
 40
7.0
 40
8.0
 40
8.0
 40
8.0
 40
8.0
 10
9.737290267402229
 20
-18.22494426337004
 30
0.0
 10
9.737290267402229
 20
-18.22494426337004
 30
0.0
 10
9.739925517334999
 20
-18.25043951336368
 30
0.0
 10
9.804709626793329
 20
-18.25043951336368
 30
0.0
 10
9.869514902917787
 20
-18.25043951336368
 30
0.0
 10
9.867221847420733
 20
-18.22263709670396
 30
0.0
 10
9.87187498619091
 20
-18.22029465226013
 30
0.0
  0
SPLINE
  5
132
330
1F
100
AcDbEntity
  8
Livello 3
100
AcDbSpline
210
0.0
220
0.0
230
1.0
 70
     8
 71
     3
 72
     8
 73
     4
 74
     0
 42
0.000000001
 43
0.0000000001
 40
8.0
 40
8.0
 40
8.0
 40
8.0
 40
9.0
 40
9.0
 40
9.0
 40
9.0
 10
9.87187498619091
 20
-18.22029465226013
 30
0.0
 10
9.876489319406523
 20
-18.21798748559398
 30
0.0
 10
9.902016318755274
 20
-18.23421173558999
 30
0.0
 10
9.902016318755274
 20
-18.23421173558999
 30
0.0
  0
SPLINE
  5
133
330
1F
100
AcDbEntity
  8
Livello 3
100
AcDbSpline
210
0.0
220
0.0
230
1.0
 70
    24
 71
     3
 72
     8
 73
     4
 74
     0
 42
0.000000001
 43
0.0000000001
 40
9.0
 40
9.0
 40
9.0
 40
9.0
 40
10.0
 40
10.0
 40
10.0
 40
10.0
 10
9.902016318755274
 20
-18.23421173558999
 30
0.0
 10
9.902016318755274
 20
-18.23421173558999
 30
0.0
 10
9.925204401497028
 20
-18.54737256884498
 30
0.0
 10
9.925204401497028
 20
-18.54737256884498
 30
0.0
  0
SPLINE
  5
134
330
1F
100
AcDbEntity
  8
Livello 3
100
AcDbSpline
210
0.0
220
0.0
230
1.0
 70
     8
 71
     3
 72
     8
 73
     4
 74
     0
 42
0.000000001
 43
0.0000000001
 40
10.0
 40
10.0
 40
10.0
 40
10.0
 40
11.0
 40
11.0
 40
11.0
 40
11.0
 10
9.925204401497028
 20
-18.54737256884498
 30
0.0
 10
9.925204401497028
 20
-18.54737256884498
 30
0.0
 10
9.911283790741064
 20
-18.58213176328075
 30
0.0
 10
9.8161680217276
 20
-18.58213176328075
 30
0.0
  0
SPLINE
  5
135
330
1F
100
AcDbEntity
  8
Livello 3
100
AcDbSpline
210
0.0
220
0.0
230
1.0
 70
     8
 71
     3
 72
     8
 73
     4
 74
     0
 42
0.000000001
 43
0.0000000001
 40
11.0
 40
11.0
 40
11.0
 40
11.0
 40
12.0
 40
12.0
 40
12.0
 40
12.0
 10
9.8161680217276
 20
-18.58213176328075
 30
0.0
 10
9.8161680217276
 20
-18.58213176328075
 30
0.0
 10
9.686268018703916
 20
-18.5844742077246
 30
0.0
 10
9.686268018703916
 20
-18.55667179106489
 30
0.0
  0
SPLINE
  5
136
330
1F
100
AcDbEntity
  8
Livello 3
100
AcDbSpline
210
0.0
220
0.0
230
1.0
 70
    24
 71
     3
 72
     8
 73
     4
 74
     0
 42
0.000000001
 43
0.0000000001
 40
0.0
 40
0.0
 40
0.0
 40
0.0
 40
1.0
 40
1.0
 40
1.0
 40
1.0
 10
9.737290267402229
 20
-18.22494426337004
 30
0.0
 10
9.737290267402229
 20
-18.22494426337004
 30
0.0
 10
9.737290267402229
 20
-17.85549420790688
 30
0.0
 10
9.737290267402229
 20
-17.85549420790688
 30
0.0
  0
SPLINE
  5
137
330
1F
100
AcDbEntity
  8
Livello 3
100
AcDbSpline
210
0.0
220
0.0
230
1.0
 70
     8
 71
     3
 72
     8
 73
     4
 74
     0
 42
0.000000001
 43
0.0000000001
 40
1.0
 40
1.0
 40
1.0
 40
1.0
 40
2.0
 40
2.0
 40
2.0
 40
2.0
 10
9.737290267402229
 20
-17.85549420790688
 30
0.0
 10
9.737290267402229
 20
-17.85549420790688
 30
0.0
 10
9.73672246619189
 20
-17.83809520791121
 30
0.0
 10
9.797615265863212
 20
-17.83465209680098
 30
0.0
  0
SPLINE
  5
138
330
1F
100
AcDbEntity
  8
Livello 3
100
AcDbSpline
210
0.0
220
0.0
230
1.0
 70
    24
 71
     3
 72
     8
 73
     4
 74
     0
 42
0.000000001
 43
0.0000000001
 40
2.0
 40
2.0
 40
2.0
 40
2.0
 40
3.0
 40
3.0
 40
3.0
 40
3.0
 10
9.797615265863212
 20
-17.83465209680098
 30
0.0
 10
9.797615265863212
 20
-17.83465209680098
 30
0.0
 10
9.797615265863212
 20
-17.75806756904232
 30
0.0
 10
9.797615265863212
 20
-17.75806756904232
 30
0.0
  0
SPLINE
  5
139
330
1F
100
AcDbEntity
  8
Livello 3
100
AcDbSpline
210
0.0
220
0.0
230
1.0
 70
     8
 71
     3
 72
     8
 73
     4
 74
     0
 42
0.000000001
 43
0.0000000001
 40
3.0
 40
3.0
 40
3.0
 40
3.0
 40
4.0
 40
4.0
 40
4.0
 40
4.0
 10
9.797615265863212
 20
-17.75806756904232
 30
0.0
 10
9.797615265863212
 20
-17.75806756904232
 30
0.0
 10
9.794133349285377
 20
-17.712866152387
 30
0.0
 10
9.868961041820806
 20
-17.68843981905971
 30
0.0
  0
SPLINE
  5
13A
330
1F
100
AcDbEntity
  8
Livello 3
100
AcDbSpline
210
0.0
220
0.0
230
1.0
 70
    24
 71
     3
 72
     8
 73
     4
 74
     0
 42
0.000000001
 43
0.0000000001
 40
4.0
 40
4.0
 40
4.0
 40
4.0
 40
5.0
 40
5.0
 40
5.0
 40
5.0
 10
9.868961041820806
 20
-17.68843981905971
 30
0.0
 10
9.868961041820806
 20
-17.68843981905971
 30
0.0
 10
10.17690075618683
 20
-17.41359065246178
 30
0.0
 10
10.17690075618683
 20
-17.41359065246178
 30
0.0
  0
SPLINE
  5
13B
330
1F
100
AcDbEntity
  8
Livello 3
100
AcDbSpline
210
0.0
220
0.0
230
1.0
 70
     8
 71
     3
 72
     8
 73
     4
 74
     0
 42
0.000000001
 43
0.0000000001
 40
5.0
 40
5.0
 40
5.0
 40
5.0
 40
6.0
 40
6.0
 40
6.0
 40
6.0
 10
10.17690075618683
 20
-17.41359065246178
 30
0.0
 10
10.17690075618683
 20
-17.41359065246178
 30
0.0
 10
10.21865553289936
 20
-17.37180059691665
 30
0.0
 10
10.25693192081173
 20
-17.40143040246483
 30
0.0
  0
SPLINE
  5
13C
330
1F
100
AcDbEntity
  8
Livello 3
100
AcDbSpline
210
0.0
220
0.0
230
1.0
 70
     8
 71
     3
 72
     8
 73
     4
 74
     0
 42
0.000000001
 43
0.0000000001
 40
6.0
 40
6.0
 40
6.0
 40
6.0
 40
7.0
 40
7.0
 40
7.0
 40
7.0
 10
10.25693192081173
 20
-17.40143040246483
 30
0.0
 10
10.25693192081173
 20
-17.40143040246483
 30
0.0
 10
10.30042607716209
 20
-17.40666562468575
 30
0.0
 10
10.25693192081173
 20
-17.54054126354113
 30
0.0
  0
SPLINE
  5
13D
330
1F
100
AcDbEntity
  8
Livello 3
100
AcDbSpline
210
0.0
220
0.0
230
1.0
 70
    24
 71
     3
 72
     8
 73
     4
 74
     0
 42
0.000000001
 43
0.0000000001
 40
7.0
 40
7.0
 40
7.0
 40
7.0
 40
8.0
 40
8.0
 40
8.0
 40
8.0
 10
10.25693192081173
 20
-17.54054126354113
 30
0.0
 10
10.25693192081173
 20
-17.54054126354113
 30
0.0
 10
10.18212186716474
 20
-17.8815715412337
 30
0.0
 10
10.18212186716474
 20
-17.8815715412337
 30
0.0
  0
SPLINE
  5
13E
330
1F
100
AcDbEntity
  8
Livello 3
100
AcDbSpline
210
0.0
220
0.0
230
1.0
 70
    24
 71
     3
 72
     8
 73
     4
 74
     0
 42
0.000000001
 43
0.0000000001
 40
8.0
 40
8.0
 40
8.0
 40
8.0
 40
9.0
 40
9.0
 40
9.0
 40
9.0
 10
10.18212186716474
 20
-17.8815715412337
 30
0.0
 10
10.18212186716474
 20
-17.8815715412337
 30
0.0
 10
10.25867111521181
 20
-17.97207668009992
 30
0.0
 10
10.25867111521181
 20
-17.97207668009992
 30
0.0
  0
SPLINE
  5
13F
330
1F
100
AcDbEntity
  8
Livello 3
100
AcDbSpline
210
0.0
220
0.0
230
1.0
 70
    24
 71
     3
 72
     8
 73
     4
 74
     0
 42
0.000000001
 43
0.0000000001
 40
9.0
 40
9.0
 40
9.0
 40
9.0
 40
10.0
 40
10.0
 40
10.0
 40
10.0
 10
10.25867111521181
 20
-17.97207668009992
 30
0.0
 10
10.25867111521181
 20
-17.97207668009992
 30
0.0
 10
10.26564905947823
 20
-18.03643040230608
 30
0.0
 10
10.26564905947823
 20
-18.03643040230608
 30
0.0
  0
SPLINE
  5
140
330
1F
100
AcDbEntity
  8
Livello 3
100
AcDbSpline
210
0.0
220
0.0
230
1.0
 70
    24
 71
     3
 72
     8
 73
     4
 74
     0
 42
0.000000001
 43
0.0000000001
 40
10.0
 40
10.0
 40
10.0
 40
10.0
 40
11.0
 40
11.0
 40
11.0
 40
11.0
 10
10.26564905947823
 20
-18.03643040230608
 30
0.0
 10
10.26564905947823
 20
-18.03643040230608
 30
0.0
 10
10.18908217254272
 20
-18.06426456896581
 30
0.0
 10
10.18908217254272
 20
-18.06426456896581
 30
0.0
  0
SPLINE
  5
141
330
1F
100
AcDbEntity
  8
Livello 3
100
AcDbSpline
210
0.0
220
0.0
230
1.0
 70
    24
 71
     3
 72
     8
 73
     4
 74
     0
 42
0.000000001
 43
0.0000000001
 40
11.0
 40
11.0
 40
11.0
 40
11.0
 40
12.0
 40
12.0
 40
12.0
 40
12.0
 10
10.18908217254272
 20
-18.06426456896581
 30
0.0
 10
10.18908217254272
 20
-18.06426456896581
 30
0.0
 10
9.870686125110129
 20
-18.08514195784943
 30
0.0
 10
9.870686125110129
 20
-18.08514195784943
 30
0.0
  0
SPLINE
  5
142
330
1F
100
AcDbEntity
  8
Livello 3
100
AcDbSpline
210
0.0
220
0.0
230
1.0
 70
    24
 71
     3
 72
     8
 73
     4
 74
     0
 42
0.000000001
 43
0.0000000001
 40
12.0
 40
12.0
 40
12.0
 40
12.0
 40
13.0
 40
13.0
 40
13.0
 40
13.0
 10
9.870686125110129
 20
-18.08514195784943
 30
0.0
 10
9.870686125110129
 20
-18.08514195784943
 30
0.0
 10
9.87187498619091
 20
-18.22029465226013
 30
0.0
 10
9.87187498619091
 20
-18.22029465226013
 30
0.0
  0
LINE
  5
143
330
1F
100
AcDbEntity
  8
Livello 3
100
AcDbLine
 10
9.192379142415184
 20
-16.38271401383061
 30
0.0
 11
10.206117810997
 21
-17.47539731911301
 31
0.0
  0
LINE
  5
144
330
1F
100
AcDbEntity
  8
Livello 3
100
AcDbLine
 10
9.797615265863212
 20
-17.75806756904232
 30
0.0
 11
7.876853203754822
 21
-14.52019198651849
 31
0.0
  0
SPLINE
  5
145
330
1F
100
AcDbEntity
  8
Livello 3
100
AcDbSpline
210
0.0
220
0.0
230
1.0
 70
     8
 71
     3
 72
     8
 73
     4
 74
     0
 42
0.000000001
 43
0.0000000001
 40
0.0
 40
0.0
 40
0.0
 40
0.0
 40
1.0
 40
1.0
 40
1.0
 40
1.0
 10
8.449859688735827
 20
-14.17578562549344
 30
0.0
 10
8.41852582882449
 20
-14.14446954216796
 30
0.0
 10
8.316446053650984
 20
-14.18970623660106
 30
0.0
 10
8.316446053650984
 20
-14.18970623660106
 30
0.0
  0
SPLINE
  5
146
330
1F
100
AcDbEntity
  8
Livello 3
100
AcDbSpline
210
0.0
220
0.0
230
1.0
 70
    24
 71
     3
 72
     8
 73
     4
 74
     0
 42
0.000000001
 43
0.0000000001
 40
1.0
 40
1.0
 40
1.0
 40
1.0
 40
2.0
 40
2.0
 40
2.0
 40
2.0
 10
8.316446053650984
 20
-14.18970623660106
 30
0.0
 10
8.316446053650984
 20
-14.18970623660106
 30
0.0
 10
7.871064120569181
 20
-14.33467320878704
 30
0.0
 10
7.871064120569181
 20
-14.33467320878704
 30
0.0
  0
SPLINE
  5
147
330
1F
100
AcDbEntity
  8
Livello 3
100
AcDbSpline
210
0.0
220
0.0
230
1.0
 70
     8
 71
     3
 72
     8
 73
     4
 74
     0
 42
0.000000001
 43
0.0000000001
 40
2.0
 40
2.0
 40
2.0
 40
2.0
 40
3.0
 40
3.0
 40
3.0
 40
3.0
 10
7.871064120569181
 20
-14.33467320878704
 30
0.0
 10
7.826984538360411
 20
-14.34859381989472
 30
0.0
 10
7.813085094270572
 20
-14.36020373655845
 30
0.0
 10
7.813085094270572
 20
-14.36020373655845
 30
0.0
  0
SPLINE
  5
148
330
1F
100
AcDbEntity
  8
Livello 3
100
AcDbSpline
210
0.0
220
0.0
230
1.0
 70
     8
 71
     3
 72
     8
 73
     4
 74
     0
 42
0.000000001
 43
0.0000000001
 40
3.0
 40
3.0
 40
3.0
 40
3.0
 40
4.0
 40
4.0
 40
4.0
 40
4.0
 10
7.813085094270572
 20
-14.36020373655845
 30
0.0
 10
7.759738040076012
 20
-14.41584031987789
 30
0.0
 10
7.830480566048997
 20
-14.47382287541893
 30
0.0
 10
7.830480566048997
 20
-14.47382287541893
 30
0.0
  0
SPLINE
  5
149
330
1F
100
AcDbEntity
  8
Livello 3
100
AcDbSpline
210
0.0
220
0.0
230
1.0
 70
    24
 71
     3
 72
     8
 73
     4
 74
     0
 42
0.000000001
 43
0.0000000001
 40
4.0
 40
4.0
 40
4.0
 40
4.0
 40
5.0
 40
5.0
 40
5.0
 40
5.0
 10
7.830480566048997
 20
-14.47382287541893
 30
0.0
 10
7.830480566048997
 20
-14.47382287541893
 30
0.0
 10
8.090276698309933
 20
-14.70474768091679
 30
0.0
 10
8.090276698309933
 20
-14.70474768091679
 30
0.0
  0
SPLINE
  5
14A
330
1F
100
AcDbEntity
  8
Livello 3
100
AcDbSpline
210
0.0
220
0.0
230
1.0
 70
     8
 71
     3
 72
     8
 73
     4
 74
     0
 42
0.000000001
 43
0.0000000001
 40
5.0
 40
5.0
 40
5.0
 40
5.0
 40
6.0
 40
6.0
 40
6.0
 40
6.0
 10
8.090276698309933
 20
-14.70474768091679
 30
0.0
 10
8.090276698309933
 20
-14.70474768091679
 30
0.0
 10
8.147102141304642
 20
-14.76613806979034
 30
0.0
 10
8.249181916478148
 20
-14.72906818091069
 30
0.0
  0
SPLINE
  5
14B
330
1F
100
AcDbEntity
  8
Livello 3
100
AcDbSpline
210
0.0
220
0.0
230
1.0
 70
    24
 71
     3
 72
     8
 73
     4
 74
     0
 42
0.000000001
 43
0.0000000001
 40
6.0
 40
6.0
 40
6.0
 40
6.0
 40
7.0
 40
7.0
 40
7.0
 40
7.0
 10
8.249181916478148
 20
-14.72906818091069
 30
0.0
 10
8.249181916478148
 20
-14.72906818091069
 30
0.0
 10
8.345454969577573
 20
-14.69076004203137
 30
0.0
 10
8.345454969577573
 20
-14.69076004203137
 30
0.0
  0
SPLINE
  5
14C
330
1F
100
AcDbEntity
  8
Livello 3
100
AcDbSpline
210
0.0
220
0.0
230
1.0
 70
     8
 71
     3
 72
     8
 73
     4
 74
     0
 42
0.000000001
 43
0.0000000001
 40
7.0
 40
7.0
 40
7.0
 40
7.0
 40
8.0
 40
8.0
 40
8.0
 40
8.0
 10
8.345454969577573
 20
-14.69076004203137
 30
0.0
 10
8.345454969577573
 20
-14.69076004203137
 30
0.0
 10
8.399973245964474
 20
-14.68145729203372
 30
0.0
 10
8.416201023328246
 20
-14.59446934761102
 30
0.0
  0
SPLINE
  5
14D
330
1F
100
AcDbEntity
  8
Livello 3
100
AcDbSpline
210
0.0
220
0.0
230
1.0
 70
    24
 71
     3
 72
     8
 73
     4
 74
     0
 42
0.000000001
 43
0.0000000001
 40
8.0
 40
8.0
 40
8.0
 40
8.0
 40
9.0
 40
9.0
 40
9.0
 40
9.0
 10
8.416201023328246
 20
-14.59446934761102
 30
0.0
 10
8.416201023328246
 20
-14.59446934761102
 30
0.0
 10
8.470736938603586
 20
-14.25815923658399
 30
0.0
 10
8.470736938603586
 20
-14.25815923658399
 30
0.0
  0
SPLINE
  5
14E
330
1F
100
AcDbEntity
  8
Livello 3
100
AcDbSpline
210
0.0
220
0.0
230
1.0
 70
    24
 71
     3
 72
     8
 73
     4
 74
     0
 42
0.000000001
 43
0.0000000001
 40
9.0
 40
9.0
 40
9.0
 40
9.0
 40
10.0
 40
10.0
 40
10.0
 40
10.0
 10
8.470736938603586
 20
-14.25815923658399
 30
0.0
 10
8.470736938603586
 20
-14.25815923658399
 30
0.0
 10
11.12936898188737
 20
-11.94046920938564
 30
0.0
 10
11.12936898188737
 20
-11.94046920938564
 30
0.0
  0
SPLINE
  5
14F
330
1F
100
AcDbEntity
  8
Livello 3
100
AcDbSpline
210
0.0
220
0.0
230
1.0
 70
    24
 71
     3
 72
     8
 73
     4
 74
     0
 42
0.000000001
 43
0.0000000001
 40
0.0
 40
0.0
 40
0.0
 40
0.0
 40
1.0
 40
1.0
 40
1.0
 40
1.0
 10
8.013727450262869
 20
-14.4842615698608
 30
0.0
 10
8.013727450262869
 20
-14.4842615698608
 30
0.0
 10
8.131929169469515
 20
-14.58627079205749
 30
0.0
 10
8.131929169469515
 20
-14.58627079205749
 30
0.0
  0
SPLINE
  5
150
330
1F
100
AcDbEntity
  8
Livello 3
100
AcDbSpline
210
0.0
220
0.0
230
1.0
 70
     8
 71
     3
 72
     8
 73
     4
 74
     0
 42
0.000000001
 43
0.0000000001
 40
1.0
 40
1.0
 40
1.0
 40
1.0
 40
2.0
 40
2.0
 40
2.0
 40
2.0
 10
8.131929169469515
 20
-14.58627079205749
 30
0.0
 10
8.131929169469515
 20
-14.58627079205749
 30
0.0
 10
8.167997168549343
 20
-14.62227176427073
 30
0.0
 10
8.210905528565771
 20
-14.60831940316309
 30
0.0
  0
SPLINE
  5
151
330
1F
100
AcDbEntity
  8
Livello 3
100
AcDbSpline
210
0.0
220
0.0
230
1.0
 70
    24
 71
     3
 72
     8
 73
     4
 74
     0
 42
0.000000001
 43
0.0000000001
 40
2.0
 40
2.0
 40
2.0
 40
2.0
 40
3.0
 40
3.0
 40
3.0
 40
3.0
 10
8.210905528565771
 20
-14.60831940316309
 30
0.0
 10
8.210905528565771
 20
-14.60831940316309
 30
0.0
 10
8.278190832404735
 20
-14.58051698650338
 30
0.0
 10
8.278190832404735
 20
-14.58051698650338
 30
0.0
  0
SPLINE
  5
152
330
1F
100
AcDbEntity
  8
Livello 3
100
AcDbSpline
210
0.0
220
0.0
230
1.0
 70
     8
 71
     3
 72
     8
 73
     4
 74
     0
 42
0.000000001
 43
0.0000000001
 40
3.0
 40
3.0
 40
3.0
 40
3.0
 40
4.0
 40
4.0
 40
4.0
 40
4.0
 10
8.278190832404735
 20
-14.58051698650338
 30
0.0
 10
8.278190832404735
 20
-14.58051698650338
 30
0.0
 10
8.310660498243031
 20
-14.57007829206157
 30
0.0
 10
8.316446053650984
 20
-14.51213101429825
 30
0.0
  0
SPLINE
  5
153
330
1F
100
AcDbEntity
  8
Livello 3
100
AcDbSpline
210
0.0
220
0.0
230
1.0
 70
    24
 71
     3
 72
     8
 73
     4
 74
     0
 42
0.000000001
 43
0.0000000001
 40
4.0
 40
4.0
 40
4.0
 40
4.0
 40
5.0
 40
5.0
 40
5.0
 40
5.0
 10
8.316446053650984
 20
-14.51213101429825
 30
0.0
 10
8.316446053650984
 20
-14.51213101429825
 30
0.0
 10
8.33849466419959
 20
-14.36595754211256
 30
0.0
 10
8.33849466419959
 20
-14.36595754211256
 30
0.0
  0
SPLINE
  5
154
330
1F
100
AcDbEntity
  8
Livello 3
100
AcDbSpline
210
0.0
220
0.0
230
1.0
 70
     8
 71
     3
 72
     8
 73
     4
 74
     0
 42
0.000000001
 43
0.0000000001
 40
5.0
 40
5.0
 40
5.0
 40
5.0
 40
6.0
 40
6.0
 40
6.0
 40
6.0
 10
8.33849466419959
 20
-14.36595754211256
 30
0.0
 10
8.33849466419959
 20
-14.36595754211256
 30
0.0
 10
8.345454969577573
 20
-14.3068037643496
 30
0.0
 10
8.285147744332565
 20
-14.3253739865672
 30
0.0
  0
SPLINE
  5
155
330
1F
100
AcDbEntity
  8
Livello 3
100
AcDbSpline
210
0.0
220
0.0
230
1.0
 70
    24
 71
     3
 72
     8
 73
     4
 74
     0
 42
0.000000001
 43
0.0000000001
 40
6.0
 40
6.0
 40
6.0
 40
6.0
 40
7.0
 40
7.0
 40
7.0
 40
7.0
 10
8.285147744332565
 20
-14.3253739865672
 30
0.0
 10
8.285147744332565
 20
-14.3253739865672
 30
0.0
 10
8.026473311048807
 20
-14.40653756988024
 30
0.0
 10
8.026473311048807
 20
-14.40653756988024
 30
0.0
  0
SPLINE
  5
156
330
1F
100
AcDbEntity
  8
Livello 3
100
AcDbSpline
210
0.0
220
0.0
230
1.0
 70
     8
 71
     3
 72
     8
 73
     4
 74
     0
 42
0.000000001
 43
0.0000000001
 40
7.0
 40
7.0
 40
7.0
 40
7.0
 40
8.0
 40
8.0
 40
8.0
 40
8.0
 10
8.026473311048807
 20
-14.40653756988024
 30
0.0
 10
8.026473311048807
 20
-14.40653756988024
 30
0.0
 10
7.947080799972649
 20
-14.4266600143196
 30
0.0
 10
8.013727450262869
 20
-14.4842615698608
 30
0.0
  0
LINE
  5
157
330
1F
100
AcDbEntity
  8
Livello 3
100
AcDbLine
 10
8.417665051068674
 20
-14.23659393103381
 30
0.0
 11
9.744801077300991
 21
-13.34644740347857
 31
0.0
  0
LINE
  5
158
330
1F
100
AcDbEntity
  8
Livello 3
100
AcDbLine
 10
8.117786308719217
 20
-14.72441856980077
 30
0.0
 11
9.890286632820169
 21
-17.66945684684223
 31
0.0
  0
LINE
  5
159
330
1F
100
AcDbEntity
  8
Livello 3
100
AcDbLine
 10
8.140300585922606
 20
-14.73389065313174
 30
0.0
 11
9.916815521702408
 21
-17.64578898573708
 31
0.0
  0
LINE
  5
15A
330
1F
100
AcDbEntity
  8
Livello 3
100
AcDbLine
 10
10.01231246612299
 20
-17.5604908468695
 30
0.0
 11
8.272299443666147
 21
-14.71983598646858
 31
0.0
  0
LINE
  5
15B
330
1F
100
AcDbEntity
  8
Livello 3
100
AcDbLine
 10
8.406210356916464
 20
-14.62964481982447
 30
0.0
 11
11.18600413249622
 21
-12.05495265380144
 31
0.0
  0
SPLINE
  5
15C
330
1F
100
AcDbEntity
  8
Livello 3
100
AcDbSpline
210
0.0
220
0.0
230
1.0
 70
    24
 71
     3
 72
     8
 73
     4
 74
     0
 42
0.000000001
 43
0.0000000001
 40
0.0
 40
0.0
 40
0.0
 40
0.0
 40
1.0
 40
1.0
 40
1.0
 40
1.0
 10
11.2938692554684
 20
-11.64781182056992
 30
0.0
 10
11.2938692554684
 20
-11.64781182056992
 30
0.0
 10
11.13555317617405
 20
-11.92965304272168
 30
0.0
 10
11.13555317617405
 20
-11.92965304272168
 30
0.0
  0
SPLINE
  5
15D
330
1F
100
AcDbEntity
  8
Livello 3
100
AcDbSpline
210
0.0
220
0.0
230
1.0
 70
     8
 71
     3
 72
     8
 73
     4
 74
     0
 42
0.000000001
 43
0.0000000001
 40
1.0
 40
1.0
 40
1.0
 40
1.0
 40
2.0
 40
2.0
 40
2.0
 40
2.0
 10
11.13555317617405
 20
-11.92965304272168
 30
0.0
 10
11.13555317617405
 20
-11.92965304272168
 30
0.0
 10
11.09724151048479
 20
-11.98711701492952
 30
0.0
 10
11.12685367639599
 20
-12.02363657047596
 30
0.0
  0
SPLINE
  5
15E
330
1F
100
AcDbEntity
  8
Livello 3
100
AcDbSpline
210
0.0
220
0.0
230
1.0
 70
     8
 71
     3
 72
     8
 73
     4
 74
     0
 42
0.000000001
 43
0.0000000001
 40
2.0
 40
2.0
 40
2.0
 40
2.0
 40
3.0
 40
3.0
 40
3.0
 40
3.0
 10
11.12685367639599
 20
-12.02363657047596
 30
0.0
 10
11.12685367639599
 20
-12.02363657047596
 30
0.0
 10
11.14599187035218
 20
-12.05495265380144
 30
0.0
 10
11.22775870159947
 20
-12.05495265380144
 30
0.0
  0
SPLINE
  5
15F
330
1F
100
AcDbEntity
  8
Livello 3
100
AcDbSpline
210
0.0
220
0.0
230
1.0
 70
    24
 71
     3
 72
     8
 73
     4
 74
     0
 42
0.000000001
 43
0.0000000001
 40
3.0
 40
3.0
 40
3.0
 40
3.0
 40
4.0
 40
4.0
 40
4.0
 40
4.0
 10
11.22775870159947
 20
-12.05495265380144
 30
0.0
 10
11.22775870159947
 20
-12.05495265380144
 30
0.0
 10
11.5287416383652
 20
-12.05495265380144
 30
0.0
 10
11.5287416383652
 20
-12.05495265380144
 30
0.0
  0
SPLINE
  5
160
330
1F
100
AcDbEntity
  8
Livello 3
100
AcDbSpline
210
0.0
220
0.0
230
1.0
 70
     8
 71
     3
 72
     8
 73
     4
 74
     0
 42
0.000000001
 43
0.0000000001
 40
4.0
 40
4.0
 40
4.0
 40
4.0
 40
5.0
 40
5.0
 40
5.0
 40
5.0
 10
11.5287416383652
 20
-12.05495265380144
 30
0.0
 10
11.5287416383652
 20
-12.05495265380144
 30
0.0
 10
11.6053085253007
 20
-12.05495265380144
 30
0.0
 10
11.61922560827898
 20
-12.01319787603409
 30
0.0
  0
SPLINE
  5
161
330
1F
100
AcDbEntity
  8
Livello 3
100
AcDbSpline
210
0.0
220
0.0
230
1.0
 70
     8
 71
     3
 72
     8
 73
     4
 74
     0
 42
0.000000001
 43
0.0000000001
 40
5.0
 40
5.0
 40
5.0
 40
5.0
 40
6.0
 40
6.0
 40
6.0
 40
6.0
 10
11.61922560827898
 20
-12.01319787603409
 30
0.0
 10
11.61922560827898
 20
-12.01319787603409
 30
0.0
 10
11.64182455214688
 20
-11.98536018159661
 30
0.0
 10
11.60703008081234
 20
-11.92444957050072
 30
0.0
  0
SPLINE
  5
162
330
1F
100
AcDbEntity
  8
Livello 3
100
AcDbSpline
210
0.0
220
0.0
230
1.0
 70
    24
 71
     3
 72
     8
 73
     4
 74
     0
 42
0.000000001
 43
0.0000000001
 40
6.0
 40
6.0
 40
6.0
 40
6.0
 40
7.0
 40
7.0
 40
7.0
 40
7.0
 10
11.60703008081234
 20
-11.92444957050072
 30
0.0
 10
11.60703008081234
 20
-11.92444957050072
 30
0.0
 10
11.44175016836231
 20
-11.66520729278778
 30
0.0
 10
11.44175016836231
 20
-11.66520729278778
 30
0.0
  0
SPLINE
  5
163
330
1F
100
AcDbEntity
  8
Livello 3
100
AcDbSpline
210
0.0
220
0.0
230
1.0
 70
     8
 71
     3
 72
     8
 73
     4
 74
     0
 42
0.000000001
 43
0.0000000001
 40
7.0
 40
7.0
 40
7.0
 40
7.0
 40
8.0
 40
8.0
 40
8.0
 40
8.0
 10
11.44175016836231
 20
-11.66520729278778
 30
0.0
 10
11.44175016836231
 20
-11.66520729278778
 30
0.0
 10
11.41689718799412
 20
-11.60433195946967
 30
0.0
 10
11.37102528127777
 20
-11.60605704280257
 30
0.0
  0
SPLINE
  5
164
330
1F
100
AcDbEntity
  8
Livello 3
100
AcDbSpline
210
0.0
220
0.0
230
1.0
 70
     8
 71
     3
 72
     8
 73
     4
 74
     0
 42
0.000000001
 43
0.0000000001
 40
8.0
 40
8.0
 40
8.0
 40
8.0
 40
9.0
 40
9.0
 40
9.0
 40
9.0
 10
11.37102528127777
 20
-11.60605704280257
 30
0.0
 10
11.37102528127777
 20
-11.60605704280257
 30
0.0
 10
11.32802872681914
 20
-11.58703879280732
 30
0.0
 10
11.2938692554684
 20
-11.64781182056992
 30
0.0
  0
LINE
  5
165
330
1F
100
AcDbEntity
  8
Livello 3
100
AcDbLine
 10
11.11694767664871
 20
-11.97605743159895
 30
0.0
 11
8.442091383778841
 21
-14.43472098653985
 31
0.0
  0
LINE
  5
166
330
1F
100
AcDbEntity
  8
Livello 3
100
AcDbLine
 10
11.2859317556709
 20
-11.66200407056636
 30
0.0
 11
8.417665051068674
 21
-14.16476131994064
 31
0.0
  0
LINE
  5
167
330
1F
100
AcDbEntity
  8
Livello 3
100
AcDbLine
 10
11.62642580253973
 20
-11.97605743159895
 30
0.0
 11
11.91093754528123
 21
-11.97605743159895
 31
0.0
  0
LINE
  5
168
330
1F
100
AcDbEntity
  8
Livello 3
100
AcDbLine
 10
11.91093754528123
 20
-11.97605743159895
 30
0.0
 11
11.90399840656938
 21
-12.06135909824428
 31
0.0
  0
LINE
  5
169
330
1F
100
AcDbEntity
  8
Livello 3
100
AcDbLine
 10
11.90399840656938
 20
-12.06135909824428
 30
0.0
 11
11.62642580253973
 21
-12.06135909824428
 31
0.0
  0
LINE
  5
16A
330
1F
100
AcDbEntity
  8
Livello 3
100
AcDbLine
 10
11.62642580253973
 20
-12.06135909824428
 30
0.0
 11
11.62642580253973
 21
-11.97605743159895
 31
0.0
  0
SPLINE
  5
16B
330
1F
100
AcDbEntity
  8
Livello 3
100
AcDbSpline
210
0.0
220
0.0
230
1.0
 70
     8
 71
     3
 72
     8
 73
     4
 74
     0
 42
0.000000001
 43
0.0000000001
 40
0.0
 40
0.0
 40
0.0
 40
0.0
 40
1.0
 40
1.0
 40
1.0
 40
1.0
 10
11.31171628279086
 20
-11.62345251502043
 30
0.0
 10
11.31171628279086
 20
-11.62345251502043
 30
0.0
 10
11.33250900448262
 20
-11.49185229283109
 30
0.0
 10
11.2859317556709
 20
-11.4036578484087
 30
0.0
  0
SPLINE
  5
16C
330
1F
100
AcDbEntity
  8
Livello 3
100
AcDbSpline
210
0.0
220
0.0
230
1.0
 70
     8
 71
     3
 72
     8
 73
     4
 74
     0
 42
0.000000001
 43
0.0000000001
 40
1.0
 40
1.0
 40
1.0
 40
1.0
 40
2.0
 40
2.0
 40
2.0
 40
2.0
 10
11.2859317556709
 20
-11.4036578484087
 30
0.0
 10
11.2859317556709
 20
-11.4036578484087
 30
0.0
 10
11.18481506380616
 20
-11.22623532067527
 30
0.0
 10
11.30777222733593
 20
-11.11258090403702
 30
0.0
  0
SPLINE
  5
16D
330
1F
100
AcDbEntity
  8
Livello 3
100
AcDbSpline
210
0.0
220
0.0
230
1.0
 70
     8
 71
     3
 72
     8
 73
     4
 74
     0
 42
0.000000001
 43
0.0000000001
 40
2.0
 40
2.0
 40
2.0
 40
2.0
 40
3.0
 40
3.0
 40
3.0
 40
3.0
 10
11.30777222733593
 20
-11.11258090403702
 30
0.0
 10
11.30777222733593
 20
-11.11258090403702
 30
0.0
 10
11.39126414187254
 20
-11.01632548739444
 30
0.0
 10
11.50841458332823
 20
-11.02438645961462
 30
0.0
  0
SPLINE
  5
16E
330
1F
100
AcDbEntity
  8
Livello 3
100
AcDbSpline
210
0.0
220
0.0
230
1.0
 70
     8
 71
     3
 72
     8
 73
     4
 74
     0
 42
0.000000001
 43
0.0000000001
 40
3.0
 40
3.0
 40
3.0
 40
3.0
 40
4.0
 40
4.0
 40
4.0
 40
4.0
 10
11.50841458332823
 20
-11.02438645961462
 30
0.0
 10
11.50841458332823
 20
-11.02438645961462
 30
0.0
 10
11.6488024964133
 20
-11.02438645961462
 30
0.0
 10
11.69632871742303
 20
-11.17290237624415
 30
0.0
  0
SPLINE
  5
16F
330
1F
100
AcDbEntity
  8
Livello 3
100
AcDbSpline
210
0.0
220
0.0
230
1.0
 70
     8
 71
     3
 72
     8
 73
     4
 74
     0
 42
0.000000001
 43
0.0000000001
 40
4.0
 40
4.0
 40
4.0
 40
4.0
 40
5.0
 40
5.0
 40
5.0
 40
5.0
 10
11.69632871742303
 20
-11.17290237624415
 30
0.0
 10
11.69632871742303
 20
-11.17290237624415
 30
0.0
 10
11.76126804909962
 20
-11.48954159838727
 30
0.0
 10
11.92368693384486
 20
-11.501151515051
 30
0.0
  0
LINE
  5
170
330
1F
100
AcDbEntity
  8
Livello 3
100
AcDbLine
 10
11.97122726596534
 20
-11.56378368170202
 30
0.0
 11
11.92368693384486
 21
-11.56378368170202
 31
0.0
  0
LINE
  5
171
330
1F
100
AcDbEntity
  8
Livello 3
100
AcDbLine
 10
11.92368693384486
 20
-11.56378368170202
 30
0.0
 11
11.92368693384486
 21
-11.44430843173186
 31
0.0
  0
LINE
  5
172
330
1F
100
AcDbEntity
  8
Livello 3
100
AcDbLine
 10
11.92368693384486
 20
-11.44430843173186
 30
0.0
 11
11.97122726596534
 21
-11.44430843173186
 31
0.0
  0
LINE
  5
173
330
1F
100
AcDbEntity
  8
Livello 3
100
AcDbLine
 10
11.97122726596534
 20
-11.44430843173186
 30
0.0
 11
11.97122726596534
 21
-11.56378368170202
 31
0.0
  0
SPLINE
  5
174
330
1F
100
AcDbEntity
  8
Livello 3
100
AcDbSpline
210
0.0
220
0.0
230
1.0
 70
    24
 71
     3
 72
     8
 73
     4
 74
     0
 42
0.000000001
 43
0.0000000001
 40
0.0
 40
0.0
 40
0.0
 40
0.0
 40
1.0
 40
1.0
 40
1.0
 40
1.0
 10
11.98281954344737
 20
-11.35380682064339
 30
0.0
 10
11.98281954344737
 20
-11.35380682064339
 30
0.0
 10
11.92368693384486
 20
-11.82240859830401
 30
0.0
 10
11.92368693384486
 20
-11.82240859830401
 30
0.0
  0
SPLINE
  5
175
330
1F
100
AcDbEntity
  8
Livello 3
100
AcDbSpline
210
0.0
220
0.0
230
1.0
 70
     8
 71
     3
 72
     8
 73
     4
 74
     0
 42
0.000000001
 43
0.0000000001
 40
1.0
 40
1.0
 40
1.0
 40
1.0
 40
2.0
 40
2.0
 40
2.0
 40
2.0
 10
11.92368693384486
 20
-11.82240859830401
 30
0.0
 10
11.92368693384486
 20
-11.82240859830401
 30
0.0
 10
11.90048496565095
 20
-12.07179779268615
 30
0.0
 10
11.9039631287925
 20
-12.13439468155933
 30
0.0
  0
SPLINE
  5
176
330
1F
100
AcDbEntity
  8
Livello 3
100
AcDbSpline
210
0.0
220
0.0
230
1.0
 70
    24
 71
     3
 72
     8
 73
     4
 74
     0
 42
0.000000001
 43
0.0000000001
 40
2.0
 40
2.0
 40
2.0
 40
2.0
 40
3.0
 40
3.0
 40
3.0
 40
3.0
 10
11.9039631287925
 20
-12.13439468155933
 30
0.0
 10
11.9039631287925
 20
-12.13439468155933
 30
0.0
 10
11.90359976769066
 20
-12.21907545931595
 30
0.0
 10
11.90359976769066
 20
-12.21907545931595
 30
0.0
  0
SPLINE
  5
177
330
1F
100
AcDbEntity
  8
Livello 3
100
AcDbSpline
210
0.0
220
0.0
230
1.0
 70
     8
 71
     3
 72
     8
 73
     4
 74
     0
 42
0.000000001
 43
0.0000000001
 40
3.0
 40
3.0
 40
3.0
 40
3.0
 40
4.0
 40
4.0
 40
4.0
 40
4.0
 10
11.90359976769066
 20
-12.21907545931595
 30
0.0
 10
11.90359976769066
 20
-12.21907545931595
 30
0.0
 10
11.94454691008437
 20
-12.25618062597338
 30
0.0
 10
12.31337936834742
 20
-12.25618062597338
 30
0.0
  0
SPLINE
  5
178
330
1F
100
AcDbEntity
  8
Livello 3
100
AcDbSpline
210
0.0
220
0.0
230
1.0
 70
     8
 71
     3
 72
     8
 73
     4
 74
     0
 42
0.000000001
 43
0.0000000001
 40
4.0
 40
4.0
 40
4.0
 40
4.0
 40
5.0
 40
5.0
 40
5.0
 40
5.0
 10
12.31337936834742
 20
-12.25618062597338
 30
0.0
 10
12.31337936834742
 20
-12.25618062597338
 30
0.0
 10
12.59406700007537
 20
-12.25504115375142
 30
0.0
 10
12.65673468768411
 20
-12.20863676487415
 30
0.0
  0
SPLINE
  5
179
330
1F
100
AcDbEntity
  8
Livello 3
100
AcDbSpline
210
0.0
220
0.0
230
1.0
 70
    24
 71
     3
 72
     8
 73
     4
 74
     0
 42
0.000000001
 43
0.0000000001
 40
5.0
 40
5.0
 40
5.0
 40
5.0
 40
6.0
 40
6.0
 40
6.0
 40
6.0
 10
12.65673468768411
 20
-12.20863676487415
 30
0.0
 10
12.65673468768411
 20
-12.20863676487415
 30
0.0
 10
12.64860291535071
 20
-11.95118659827184
 30
0.0
 10
12.64860291535071
 20
-11.95118659827184
 30
0.0
  0
SPLINE
  5
17A
330
1F
100
AcDbEntity
  8
Livello 3
100
AcDbSpline
210
0.0
220
0.0
230
1.0
 70
    24
 71
     3
 72
     8
 73
     4
 74
     0
 42
0.000000001
 43
0.0000000001
 40
6.0
 40
6.0
 40
6.0
 40
6.0
 40
7.0
 40
7.0
 40
7.0
 40
7.0
 10
12.64860291535071
 20
-11.95118659827184
 30
0.0
 10
12.64860291535071
 20
-11.95118659827184
 30
0.0
 10
12.57318961171911
 20
-11.33527187620357
 30
0.0
 10
12.57318961171911
 20
-11.33527187620357
 30
0.0
  0
SPLINE
  5
17B
330
1F
100
AcDbEntity
  8
Livello 3
100
AcDbSpline
210
0.0
220
0.0
230
1.0
 70
     8
 71
     3
 72
     8
 73
     4
 74
     0
 42
0.000000001
 43
0.0000000001
 40
7.0
 40
7.0
 40
7.0
 40
7.0
 40
8.0
 40
8.0
 40
8.0
 40
8.0
 10
12.57318961171911
 20
-11.33527187620357
 30
0.0
 10
12.57318961171911
 20
-11.33527187620357
 30
0.0
 10
12.60066394435151
 20
-11.27956473732864
 30
0.0
 10
12.28015123030625
 20
-11.27725404288475
 30
0.0
  0
SPLINE
  5
17C
330
1F
100
AcDbEntity
  8
Livello 3
100
AcDbSpline
210
0.0
220
0.0
230
1.0
 70
     8
 71
     3
 72
     8
 73
     4
 74
     0
 42
0.000000001
 43
0.0000000001
 40
8.0
 40
8.0
 40
8.0
 40
8.0
 40
9.0
 40
9.0
 40
9.0
 40
9.0
 10
12.28015123030625
 20
-11.27725404288475
 30
0.0
 10
12.28015123030625
 20
-11.27725404288475
 30
0.0
 10
12.07676802116242
 20
-11.26795482066484
 30
0.0
 10
12.00717884838147
 20
-11.30395579287809
 30
0.0
  0
SPLINE
  5
17D
330
1F
100
AcDbEntity
  8
Livello 3
100
AcDbSpline
210
0.0
220
0.0
230
1.0
 70
     8
 71
     3
 72
     8
 73
     4
 74
     0
 42
0.000000001
 43
0.0000000001
 40
9.0
 40
9.0
 40
9.0
 40
9.0
 40
10.0
 40
10.0
 40
10.0
 40
10.0
 10
12.00717884838147
 20
-11.30395579287809
 30
0.0
 10
12.00717884838147
 20
-11.30395579287809
 30
0.0
 10
11.98805829331372
 20
-11.31225665398713
 30
0.0
 10
11.98281954344737
 20
-11.35380682064339
 30
0.0
  0
SPLINE
  5
17E
330
1F
100
AcDbEntity
  8
Livello 3
100
AcDbSpline
210
0.0
220
0.0
230
1.0
 70
    24
 71
     3
 72
     8
 73
     4
 74
     0
 42
0.000000001
 43
0.0000000001
 40
0.0
 40
0.0
 40
0.0
 40
0.0
 40
1.0
 40
1.0
 40
1.0
 40
1.0
 10
12.11502654007449
 20
-11.59740693169364
 30
0.0
 10
12.11502654007449
 20
-11.59740693169364
 30
0.0
 10
12.11502654007449
 20
-11.96393245937978
 30
0.0
 10
12.11502654007449
 20
-11.96393245937978
 30
0.0
  0
SPLINE
  5
17F
330
1F
100
AcDbEntity
  8
Livello 3
100
AcDbSpline
210
0.0
220
0.0
230
1.0
 70
     8
 71
     3
 72
     8
 73
     4
 74
     0
 42
0.000000001
 43
0.0000000001
 40
1.0
 40
1.0
 40
1.0
 40
1.0
 40
2.0
 40
2.0
 40
2.0
 40
2.0
 10
12.11502654007449
 20
-11.96393245937978
 30
0.0
 10
12.11502654007449
 20
-11.96393245937978
 30
0.0
 10
12.11273701235512
 20
-11.99411259826111
 30
0.0
 10
12.13824637281543
 20
-11.99411259826111
 30
0.0
  0
SPLINE
  5
180
330
1F
100
AcDbEntity
  8
Livello 3
100
AcDbSpline
210
0.0
220
0.0
230
1.0
 70
     8
 71
     3
 72
     8
 73
     4
 74
     0
 42
0.000000001
 43
0.0000000001
 40
2.0
 40
2.0
 40
2.0
 40
2.0
 40
3.0
 40
3.0
 40
3.0
 40
3.0
 10
12.13824637281543
 20
-11.99411259826111
 30
0.0
 10
12.13824637281543
 20
-11.99411259826111
 30
0.0
 10
12.1591237611717
 20
-11.9963844871494
 30
0.0
 10
12.1591237611717
 20
-11.96393245937978
 30
0.0
  0
SPLINE
  5
181
330
1F
100
AcDbEntity
  8
Livello 3
100
AcDbSpline
210
0.0
220
0.0
230
1.0
 70
    24
 71
     3
 72
     8
 73
     4
 74
     0
 42
0.000000001
 43
0.0000000001
 40
3.0
 40
3.0
 40
3.0
 40
3.0
 40
4.0
 40
4.0
 40
4.0
 40
4.0
 10
12.1591237611717
 20
-11.96393245937978
 30
0.0
 10
12.1591237611717
 20
-11.96393245937978
 30
0.0
 10
12.1591237611717
 20
-11.59740693169364
 30
0.0
 10
12.1591237611717
 20
-11.59740693169364
 30
0.0
  0
SPLINE
  5
182
330
1F
100
AcDbEntity
  8
Livello 3
100
AcDbSpline
210
0.0
220
0.0
230
1.0
 70
     8
 71
     3
 72
     8
 73
     4
 74
     0
 42
0.000000001
 43
0.0000000001
 40
4.0
 40
4.0
 40
4.0
 40
4.0
 40
5.0
 40
5.0
 40
5.0
 40
5.0
 10
12.1591237611717
 20
-11.59740693169364
 30
0.0
 10
12.1591237611717
 20
-11.59740693169364
 30
0.0
 10
12.16022795558797
 20
-11.5660908483681
 30
0.0
 10
12.13705774336959
 20
-11.5660908483681
 30
0.0
  0
SPLINE
  5
183
330
1F
100
AcDbEntity
  8
Livello 3
100
AcDbSpline
210
0.0
220
0.0
230
1.0
 70
     8
 71
     3
 72
     8
 73
     4
 74
     0
 42
0.000000001
 43
0.0000000001
 40
5.0
 40
5.0
 40
5.0
 40
5.0
 40
6.0
 40
6.0
 40
6.0
 40
6.0
 10
12.13705774336959
 20
-11.5660908483681
 30
0.0
 10
12.13705774336959
 20
-11.5660908483681
 30
0.0
 10
12.11502654007449
 20
-11.55916934836982
 30
0.0
 10
12.11502654007449
 20
-11.59740693169364
 30
0.0
  0
SPLINE
  5
184
330
1F
100
AcDbEntity
  8
Livello 3
100
AcDbSpline
210
0.0
220
0.0
230
1.0
 70
    24
 71
     3
 72
     8
 73
     4
 74
     0
 42
0.000000001
 43
0.0000000001
 40
0.0
 40
0.0
 40
0.0
 40
0.0
 40
1.0
 40
1.0
 40
1.0
 40
1.0
 10
12.27623892485051
 20
-11.59740693169364
 30
0.0
 10
12.27623892485051
 20
-11.59740693169364
 30
0.0
 10
12.27623892485051
 20
-11.96393245937978
 30
0.0
 10
12.27623892485051
 20
-11.96393245937978
 30
0.0
  0
SPLINE
  5
185
330
1F
100
AcDbEntity
  8
Livello 3
100
AcDbSpline
210
0.0
220
0.0
230
1.0
 70
     8
 71
     3
 72
     8
 73
     4
 74
     0
 42
0.000000001
 43
0.0000000001
 40
1.0
 40
1.0
 40
1.0
 40
1.0
 40
2.0
 40
2.0
 40
2.0
 40
2.0
 10
12.27623892485051
 20
-11.96393245937978
 30
0.0
 10
12.27623892485051
 20
-11.96393245937978
 30
0.0
 10
12.27396703601958
 20
-11.99411259826111
 30
0.0
 10
12.29947663221792
 20
-11.99411259826111
 30
0.0
  0
SPLINE
  5
186
330
1F
100
AcDbEntity
  8
Livello 3
100
AcDbSpline
210
0.0
220
0.0
230
1.0
 70
     8
 71
     3
 72
     8
 73
     4
 74
     0
 42
0.000000001
 43
0.0000000001
 40
2.0
 40
2.0
 40
2.0
 40
2.0
 40
3.0
 40
3.0
 40
3.0
 40
3.0
 10
12.29947663221792
 20
-11.99411259826111
 30
0.0
 10
12.29947663221792
 20
-11.99411259826111
 30
0.0
 10
12.32033614594772
 20
-11.9963844871494
 30
0.0
 10
12.32033614594772
 20
-11.96393245937978
 30
0.0
  0
SPLINE
  5
187
330
1F
100
AcDbEntity
  8
Livello 3
100
AcDbSpline
210
0.0
220
0.0
230
1.0
 70
    24
 71
     3
 72
     8
 73
     4
 74
     0
 42
0.000000001
 43
0.0000000001
 40
3.0
 40
3.0
 40
3.0
 40
3.0
 40
4.0
 40
4.0
 40
4.0
 40
4.0
 10
12.32033614594772
 20
-11.96393245937978
 30
0.0
 10
12.32033614594772
 20
-11.96393245937978
 30
0.0
 10
12.32033614594772
 20
-11.59740693169364
 30
0.0
 10
12.32033614594772
 20
-11.59740693169364
 30
0.0
  0
SPLINE
  5
188
330
1F
100
AcDbEntity
  8
Livello 3
100
AcDbSpline
210
0.0
220
0.0
230
1.0
 70
     8
 71
     3
 72
     8
 73
     4
 74
     0
 42
0.000000001
 43
0.0000000001
 40
4.0
 40
4.0
 40
4.0
 40
4.0
 40
5.0
 40
5.0
 40
5.0
 40
5.0
 10
12.32033614594772
 20
-11.59740693169364
 30
0.0
 10
12.32033614594772
 20
-11.59740693169364
 30
0.0
 10
12.32144034036399
 20
-11.5660908483681
 30
0.0
 10
12.29826989651067
 20
-11.5660908483681
 30
0.0
  0
SPLINE
  5
189
330
1F
100
AcDbEntity
  8
Livello 3
100
AcDbSpline
210
0.0
220
0.0
230
1.0
 70
     8
 71
     3
 72
     8
 73
     4
 74
     0
 42
0.000000001
 43
0.0000000001
 40
5.0
 40
5.0
 40
5.0
 40
5.0
 40
6.0
 40
6.0
 40
6.0
 40
6.0
 10
12.29826989651067
 20
-11.5660908483681
 30
0.0
 10
12.29826989651067
 20
-11.5660908483681
 30
0.0
 10
12.27623892485051
 20
-11.55916934836982
 30
0.0
 10
12.27623892485051
 20
-11.59740693169364
 30
0.0
  0
SPLINE
  5
18A
330
1F
100
AcDbEntity
  8
Livello 3
100
AcDbSpline
210
0.0
220
0.0
230
1.0
 70
    24
 71
     3
 72
     8
 73
     4
 74
     0
 42
0.000000001
 43
0.0000000001
 40
0.0
 40
0.0
 40
0.0
 40
0.0
 40
1.0
 40
1.0
 40
1.0
 40
1.0
 10
12.4177630210772
 20
-11.59740693169364
 30
0.0
 10
12.4177630210772
 20
-11.59740693169364
 30
0.0
 10
12.4177630210772
 20
-11.96393245937978
 30
0.0
 10
12.4177630210772
 20
-11.96393245937978
 30
0.0
  0
SPLINE
  5
18B
330
1F
100
AcDbEntity
  8
Livello 3
100
AcDbSpline
210
0.0
220
0.0
230
1.0
 70
     8
 71
     3
 72
     8
 73
     4
 74
     0
 42
0.000000001
 43
0.0000000001
 40
1.0
 40
1.0
 40
1.0
 40
1.0
 40
2.0
 40
2.0
 40
2.0
 40
2.0
 10
12.4177630210772
 20
-11.96393245937978
 30
0.0
 10
12.4177630210772
 20
-11.96393245937978
 30
0.0
 10
12.41547325463168
 20
-11.99411259826111
 30
0.0
 10
12.44096850398124
 20
-11.99411259826111
 30
0.0
  0
SPLINE
  5
18C
330
1F
100
AcDbEntity
  8
Livello 3
100
AcDbSpline
210
0.0
220
0.0
230
1.0
 70
     8
 71
     3
 72
     8
 73
     4
 74
     0
 42
0.000000001
 43
0.0000000001
 40
2.0
 40
2.0
 40
2.0
 40
2.0
 40
3.0
 40
3.0
 40
3.0
 40
3.0
 10
12.44096850398124
 20
-11.99411259826111
 30
0.0
 10
12.44096850398124
 20
-11.99411259826111
 30
0.0
 10
12.4618602432884
 20
-11.9963844871494
 30
0.0
 10
12.4618602432884
 20
-11.96393245937978
 30
0.0
  0
SPLINE
  5
18D
330
1F
100
AcDbEntity
  8
Livello 3
100
AcDbSpline
210
0.0
220
0.0
230
1.0
 70
    24
 71
     3
 72
     8
 73
     4
 74
     0
 42
0.000000001
 43
0.0000000001
 40
3.0
 40
3.0
 40
3.0
 40
3.0
 40
4.0
 40
4.0
 40
4.0
 40
4.0
 10
12.4618602432884
 20
-11.96393245937978
 30
0.0
 10
12.4618602432884
 20
-11.96393245937978
 30
0.0
 10
12.4618602432884
 20
-11.59740693169364
 30
0.0
 10
12.4618602432884
 20
-11.59740693169364
 30
0.0
  0
SPLINE
  5
18E
330
1F
100
AcDbEntity
  8
Livello 3
100
AcDbSpline
210
0.0
220
0.0
230
1.0
 70
     8
 71
     3
 72
     8
 73
     4
 74
     0
 42
0.000000001
 43
0.0000000001
 40
4.0
 40
4.0
 40
4.0
 40
4.0
 40
5.0
 40
5.0
 40
5.0
 40
5.0
 10
12.4618602432884
 20
-11.59740693169364
 30
0.0
 10
12.4618602432884
 20
-11.59740693169364
 30
0.0
 10
12.46298183675296
 20
-11.5660908483681
 30
0.0
 10
12.43977964290046
 20
-11.5660908483681
 30
0.0
  0
SPLINE
  5
18F
330
1F
100
AcDbEntity
  8
Livello 3
100
AcDbSpline
210
0.0
220
0.0
230
1.0
 70
     8
 71
     3
 72
     8
 73
     4
 74
     0
 42
0.000000001
 43
0.0000000001
 40
5.0
 40
5.0
 40
5.0
 40
5.0
 40
6.0
 40
6.0
 40
6.0
 40
6.0
 10
12.43977964290046
 20
-11.5660908483681
 30
0.0
 10
12.43977964290046
 20
-11.5660908483681
 30
0.0
 10
12.4177630210772
 20
-11.55916934836982
 30
0.0
 10
12.4177630210772
 20
-11.59740693169364
 30
0.0
  0
SPLINE
  5
190
330
1F
100
AcDbEntity
  8
Livello 3
100
AcDbSpline
210
0.0
220
0.0
230
1.0
 70
     8
 71
     3
 72
     8
 73
     4
 74
     0
 42
0.000000001
 43
0.0000000001
 40
0.0
 40
0.0
 40
0.0
 40
0.0
 40
1.0
 40
1.0
 40
1.0
 40
1.0
 10
11.90359976769066
 20
-12.21907545931595
 30
0.0
 10
11.90359976769066
 20
-12.21907545931595
 30
0.0
 10
11.50154247239244
 20
-12.41158629260117
 30
0.0
 10
11.37102528127777
 20
-12.97300037579415
 30
0.0
  0
SPLINE
  5
191
330
1F
100
AcDbEntity
  8
Livello 3
100
AcDbSpline
210
0.0
220
0.0
230
1.0
 70
     8
 71
     3
 72
     8
 73
     4
 74
     0
 42
0.000000001
 43
0.0000000001
 40
1.0
 40
1.0
 40
1.0
 40
1.0
 40
2.0
 40
2.0
 40
2.0
 40
2.0
 10
11.37102528127777
 20
-12.97300037579415
 30
0.0
 10
11.37102528127777
 20
-12.97300037579415
 30
0.0
 10
11.35186944843314
 20
-13.01471987578372
 30
0.0
 10
11.44927844594803
 20
-13.04954962577504
 30
0.0
  0
SPLINE
  5
192
330
1F
100
AcDbEntity
  8
Livello 3
100
AcDbSpline
210
0.0
220
0.0
230
1.0
 70
     8
 71
     3
 72
     8
 73
     4
 74
     0
 42
0.000000001
 43
0.0000000001
 40
2.0
 40
2.0
 40
2.0
 40
2.0
 40
3.0
 40
3.0
 40
3.0
 40
3.0
 10
11.44927844594803
 20
-13.04954962577504
 30
0.0
 10
11.44927844594803
 20
-13.04954962577504
 30
0.0
 10
11.65574516290284
 20
-13.12837429242198
 30
0.0
 10
12.32035378483615
 20
-13.12837429242198
 30
0.0
  0
SPLINE
  5
193
330
1F
100
AcDbEntity
  8
Livello 3
100
AcDbSpline
210
0.0
220
0.0
230
1.0
 70
     8
 71
     3
 72
     8
 73
     4
 74
     0
 42
0.000000001
 43
0.0000000001
 40
3.0
 40
3.0
 40
3.0
 40
3.0
 40
4.0
 40
4.0
 40
4.0
 40
4.0
 10
12.32035378483615
 20
-13.12837429242198
 30
0.0
 10
12.32035378483615
 20
-13.12837429242198
 30
0.0
 10
12.99190507325901
 20
-13.11445720909211
 30
0.0
 10
13.16360906887848
 20
-13.02402262578138
 30
0.0
  0
SPLINE
  5
194
330
1F
100
AcDbEntity
  8
Livello 3
100
AcDbSpline
210
0.0
220
0.0
230
1.0
 70
     8
 71
     3
 72
     8
 73
     4
 74
     0
 42
0.000000001
 43
0.0000000001
 40
4.0
 40
4.0
 40
4.0
 40
4.0
 40
5.0
 40
5.0
 40
5.0
 40
5.0
 10
13.16360906887848
 20
-13.02402262578138
 30
0.0
 10
13.16360906887848
 20
-13.02402262578138
 30
0.0
 10
13.21692437307384
 20
-12.99157059801175
 30
0.0
 10
13.20534620670256
 20
-12.94516268135667
 30
0.0
  0
SPLINE
  5
195
330
1F
100
AcDbEntity
  8
Livello 3
100
AcDbSpline
210
0.0
220
0.0
230
1.0
 70
     8
 71
     3
 72
     8
 73
     4
 74
     0
 42
0.000000001
 43
0.0000000001
 40
5.0
 40
5.0
 40
5.0
 40
5.0
 40
6.0
 40
6.0
 40
6.0
 40
6.0
 10
13.20534620670256
 20
-12.94516268135667
 30
0.0
 10
13.20534620670256
 20
-12.94516268135667
 30
0.0
 10
13.11484459790034
 20
-12.48820609813755
 30
0.0
 10
12.65673468768411
 20
-12.20863676487415
 30
0.0
  0
LINE
  5
196
330
1F
100
AcDbEntity
  8
Livello 3
100
AcDbLine
 10
11.94206665559817
 20
-11.52540498726716
 30
0.0
 11
11.92368693384486
 21
-11.52540498726716
 31
0.0
  0
LINE
  5
197
330
1F
100
AcDbEntity
  8
Livello 3
100
AcDbLine
 10
11.92368693384486
 20
-11.52540498726716
 30
0.0
 11
11.91093754528123
 21
-11.49105854283132
 31
0.0
  0
LINE
  5
198
330
1F
100
AcDbEntity
  8
Livello 3
100
AcDbLine
 10
11.91093754528123
 20
-11.49105854283132
 30
0.0
 11
11.94206665559817
 21
-11.52540498726716
 31
0.0
  0
LINE
  5
199
330
1F
100
AcDbEntity
  8
Livello 3
100
AcDbLine
 10
11.2884435333846
 20
-11.61859476502167
 30
0.0
 11
11.2859317556709
 21
-11.65593982056783
 31
0.0
  0
LINE
  5
19A
330
1F
100
AcDbEntity
  8
Livello 3
100
AcDbLine
 10
11.2859317556709
 20
-11.65593982056783
 30
0.0
 11
11.3172443104276
 21
-11.61814673724396
 31
0.0
  0
LINE
  5
19B
330
1F
100
AcDbEntity
  8
Livello 3
100
AcDbLine
 10
11.3172443104276
 20
-11.61814673724396
 30
0.0
 11
11.29641983873666
 21
-11.60819134835758
 31
0.0
  0
LINE
  5
19C
330
1F
100
AcDbEntity
  8
Livello 3
100
AcDbLine
 10
11.29641983873666
 20
-11.60819134835758
 30
0.0
 11
11.2884435333846
 21
-11.61859476502167
 31
0.0
  0
LINE
  5
19D
330
1F
100
AcDbEntity
  8
Livello 3
100
AcDbLine
 10
8.679475544389331
 20
-19.79997941891818
 30
0.0
 11
10.92996487586349
 21
-19.79997941891818
 31
0.0
  0
LINE
  5
19E
330
1F
100
AcDbEntity
  8
Livello 3
100
AcDbLine
 10
7.16138888709854
 20
-14.43472098653985
 30
0.0
 11
9.35645061494482
 21
-18.05028045785815
 31
0.0
  0
LINE
  5
19F
330
1F
100
AcDbEntity
  8
Livello 3
100
AcDbLine
 10
11.2859317556709
 20
-10.55981481217472
 30
0.0
 11
13.20699173454827
 21
-10.55981481217472
 31
0.0
  0
LINE
  5
1A0
330
1F
100
AcDbEntity
  8
Livello 3
100
AcDbLine
 10
13.87200616937152
 20
-11.27617503687399
 30
0.0
 11
13.87200616937152
 21
-13.12837429242198
 31
0.0
  0
SPLINE
  5
1A1
330
1F
100
AcDbEntity
  8
Livello 3
100
AcDbSpline
210
0.0
220
0.0
230
1.0
 70
    11
 71
     3
 72
    47
 73
    43
 74
     0
 42
0.000000001
 43
0.0000000001
 40
0.0
 40
0.0
 40
0.0
 40
0.0
 40
1.0
 40
1.0
 40
1.0
 40
2.0
 40
2.0
 40
2.0
 40
3.0
 40
3.0
 40
3.0
 40
4.0
 40
4.0
 40
4.0
 40
5.0
 40
5.0
 40
5.0
 40
6.0
 40
6.0
 40
6.0
 40
7.0
 40
7.0
 40
7.0
 40
8.0
 40
8.0
 40
8.0
 40
9.0
 40
9.0
 40
9.0
 40
10.0
 40
10.0
 40
10.0
 40
11.0
 40
11.0
 40
11.0
 40
12.0
 40
12.0
 40
12.0
 40
13.0
 40
13.0
 40
13.0
 40
14.0
 40
14.0
 40
14.0
 40
14.0
 10
9.249512937140748
 20
-20.87307562412201
 30
0.0
 10
9.249512937140748
 20
-20.87307562412201
 30
0.0
 10
9.249512937140748
 20
-20.80448377301068
 30
0.0
 10
9.249512937140748
 20
-20.80448377301068
 30
0.0
 10
9.249512937140748
 20
-20.80448377301068
 30
0.0
 10
9.337138940808076
 20
-20.71942436547986
 30
0.0
 10
9.337138940808076
 20
-20.71942436547986
 30
0.0
 10
9.547927108073086
 20
-20.51878200441891
 30
0.0
 10
9.643166772762818
 20
-20.41212184819558
 30
0.0
 10
9.644441458092359
 20
-20.28768499926835
 30
0.0
 10
9.644441458092359
 20
-20.20386582611223
 30
0.0
 10
9.603806556843839
 20
-20.12638562864896
 30
0.0
 10
9.48062716776873
 20
-20.12638562864896
 30
0.0
 10
9.405713566441972
 20
-20.12638562864896
 30
0.0
 10
9.343495141978362
 20
-20.16448838471582
 30
0.0
 10
9.305392385911497
 20
-20.19625216508982
 30
0.0
 10
9.305392385911497
 20
-20.19625216508982
 30
0.0
 10
9.26983900050372
 20
-20.11749728229701
 30
0.0
 10
9.26983900050372
 20
-20.11749728229701
 30
0.0
 10
9.326975909126588
 20
-20.06926594550352
 30
0.0
 10
9.408245711623633
 20
-20.03371256009574
 30
0.0
 10
9.503485376313363
 20
-20.03371256009574
 30
0.0
 10
9.681269528829682
 20
-20.03371256009574
 30
0.0
 10
9.75618313015644
 20
-20.15560003836388
 30
0.0
 10
9.75618313015644
 20
-20.27369791159824
 30
0.0
 10
9.75618313015644
 20
-20.42607448491084
 30
0.0
 10
9.645716143421903
 20
-20.54927109946338
 30
0.0
 10
9.471738821416787
 20
-20.71687499482078
 30
0.0
 10
9.471738821416787
 20
-20.71687499482078
 30
0.0
 10
9.405713566441972
 20
-20.77781873395485
 30
0.0
 10
9.405713566441972
 20
-20.77781873395485
 30
0.0
 10
9.405713566441972
 20
-20.77781873395485
 30
0.0
 10
9.405713566441972
 20
-20.78036810461393
 30
0.0
 10
9.405713566441972
 20
-20.78036810461393
 30
0.0
 10
9.405713566441972
 20
-20.78036810461393
 30
0.0
 10
9.776509193519412
 20
-20.78036810461393
 30
0.0
 10
9.776509193519412
 20
-20.78036810461393
 30
0.0
 10
9.776509193519412
 20
-20.78036810461393
 30
0.0
 10
9.776509193519412
 20
-20.87307562412201
 30
0.0
 10
9.776509193519412
 20
-20.87307562412201
 30
0.0
 10
9.776509193519412
 20
-20.87307562412201
 30
0.0
 10
9.249512937140748
 20
-20.87307562412201
 30
0.0
 10
9.249512937140748
 20
-20.87307562412201
 30
0.0
  0
HATCH
  5
1A2
330
1F
100
AcDbEntity
  8
Livello 3
100
AcDbHatch
 10
0.0
 20
0.0
 30
0.0
210
0.0
220
0.0
230
1.0
  2
SOLID
 70
     1
 71
     0
 91
        1
 92
        1
 93
        1
 72
     4
 94
        3
 73
     0
 74
     0
 95
       47
 96
       43
 40
0.0
 40
0.0
 40
0.0
 40
0.0
 40
1.0
 40
1.0
 40
1.0
 40
2.0
 40
2.0
 40
2.0
 40
3.0
 40
3.0
 40
3.0
 40
4.0
 40
4.0
 40
4.0
 40
5.0
 40
5.0
 40
5.0
 40
6.0
 40
6.0
 40
6.0
 40
7.0
 40
7.0
 40
7.0
 40
8.0
 40
8.0
 40
8.0
 40
9.0
 40
9.0
 40
9.0
 40
10.0
 40
10.0
 40
10.0
 40
11.0
 40
11.0
 40
11.0
 40
12.0
 40
12.0
 40
12.0
 40
13.0
 40
13.0
 40
13.0
 40
14.0
 40
14.0
 40
14.0
 40
14.0
 10
9.249512937140748
 20
-20.87307562412201
 10
9.249512937140748
 20
-20.87307562412201
 10
9.249512937140748
 20
-20.80448377301068
 10
9.249512937140748
 20
-20.80448377301068
 10
9.249512937140748
 20
-20.80448377301068
 10
9.337138940808076
 20
-20.71942436547986
 10
9.337138940808076
 20
-20.71942436547986
 10
9.547927108073086
 20
-20.51878200441891
 10
9.643166772762818
 20
-20.41212184819558
 10
9.644441458092359
 20
-20.28768499926835
 10
9.644441458092359
 20
-20.20386582611223
 10
9.603806556843839
 20
-20.12638562864896
 10
9.48062716776873
 20
-20.12638562864896
 10
9.405713566441972
 20
-20.12638562864896
 10
9.343495141978362
 20
-20.16448838471582
 10
9.305392385911497
 20
-20.19625216508982
 10
9.305392385911497
 20
-20.19625216508982
 10
9.26983900050372
 20
-20.11749728229701
 10
9.26983900050372
 20
-20.11749728229701
 10
9.326975909126588
 20
-20.06926594550352
 10
9.408245711623633
 20
-20.03371256009574
 10
9.503485376313363
 20
-20.03371256009574
 10
9.681269528829682
 20
-20.03371256009574
 10
9.75618313015644
 20
-20.15560003836388
 10
9.75618313015644
 20
-20.27369791159824
 10
9.75618313015644
 20
-20.42607448491084
 10
9.645716143421903
 20
-20.54927109946338
 10
9.471738821416787
 20
-20.71687499482078
 10
9.471738821416787
 20
-20.71687499482078
 10
9.405713566441972
 20
-20.77781873395485
 10
9.405713566441972
 20
-20.77781873395485
 10
9.405713566441972
 20
-20.77781873395485
 10
9.405713566441972
 20
-20.78036810461393
 10
9.405713566441972
 20
-20.78036810461393
 10
9.405713566441972
 20
-20.78036810461393
 10
9.776509193519412
 20
-20.78036810461393
 10
9.776509193519412
 20
-20.78036810461393
 10
9.776509193519412
 20
-20.78036810461393
 10
9.776509193519412
 20
-20.87307562412201
 10
9.776509193519412
 20
-20.87307562412201
 10
9.776509193519412
 20
-20.87307562412201
 10
9.249512937140748
 20
-20.87307562412201
 10
9.249512937140748
 20
-20.87307562412201
 97
        0
 97
        0
 75
     2
 76
     1
 98
        0
450
        0
451
        0
460
0.0
461
0.0
452
        0
462
0.0
453
        0
470

  0
SPLINE
  5
1A3
330
1F
100
AcDbEntity
  8
Livello 3
100
AcDbSpline
210
0.0
220
0.0
230
1.0
 70
     9
 71
     3
 72
    17
 73
    13
 74
     0
 42
0.000000001
 43
0.0000000001
 40
0.0
 40
0.0
 40
0.0
 40
0.0
 40
1.0
 40
1.0
 40
1.0
 40
2.0
 40
2.0
 40
2.0
 40
3.0
 40
3.0
 40
3.0
 40
4.0
 40
4.0
 40
4.0
 40
4.0
 10
10.44957749847267
 20
-20.45146483863713
 30
0.0
 10
10.44957749847267
 20
-20.73210231686559
 30
0.0
 10
10.345449487431
 20
-20.88702826083727
 30
0.0
 10
10.16258381907394
 20
-20.88702826083727
 30
0.0
 10
10.00131889940939
 20
-20.88702826083727
 30
0.0
 10
9.892109372526972
 20
-20.73592637285421
 30
0.0
 10
9.889577227345313
 20
-20.46290255564816
 30
0.0
 10
9.889577227345313
 20
-20.18608913340834
 30
0.0
 10
10.00893256043179
 20
-20.03371256009574
 30
0.0
 10
10.17655368126663
 20
-20.03371256009574
 30
0.0
 10
10.35053100327174
 20
-20.03371256009574
 30
0.0
 10
10.44957749847267
 20
-20.18863850406742
 30
0.0
 10
10.44957749847267
 20
-20.45146483863713
 30
0.0
  0
SPLINE
  5
1A4
330
1F
100
AcDbEntity
  8
Livello 3
100
AcDbSpline
210
0.0
220
0.0
230
1.0
 70
     9
 71
     3
 72
    17
 73
    13
 74
     0
 42
0.000000001
 43
0.0000000001
 40
0.0
 40
0.0
 40
0.0
 40
0.0
 40
1.0
 40
1.0
 40
1.0
 40
2.0
 40
2.0
 40
2.0
 40
3.0
 40
3.0
 40
3.0
 40
4.0
 40
4.0
 40
4.0
 40
4.0
 10
10.00131889940939
 20
-20.4641772409777
 30
0.0
 10
10.00131889940939
 20
-20.67877223875391
 30
0.0
 10
10.06736137986163
 20
-20.80069416797691
 30
0.0
 10
10.16894002024422
 20
-20.80069416797691
 30
0.0
 10
10.28323106296739
 20
-20.80069416797691
 30
0.0
 10
10.33783582640859
 20
-20.66736897269774
 30
0.0
 10
10.33783582640859
 20
-20.4565635799553
 30
0.0
 10
10.33783582640859
 20
-20.25337184823527
 30
0.0
 10
10.28576320814904
 20
-20.1200466529561
 30
0.0
 10
10.17021470557376
 20
-20.1200466529561
 30
0.0
 10
10.07242567022495
 20
-20.1200466529561
 30
0.0
 10
10.00131889940939
 20
-20.23941921152
 30
0.0
 10
10.00131889940939
 20
-20.4641772409777
 30
0.0
  0
HATCH
  5
1A5
330
1F
100
AcDbEntity
  8
Livello 3
100
AcDbHatch
 10
0.0
 20
0.0
 30
0.0
210
0.0
220
0.0
230
1.0
  2
SOLID
 70
     1
 71
     0
 91
        2
 92
        1
 93
        1
 72
     4
 94
        3
 73
     0
 74
     0
 95
       17
 96
       13
 40
0.0
 40
0.0
 40
0.0
 40
0.0
 40
1.0
 40
1.0
 40
1.0
 40
2.0
 40
2.0
 40
2.0
 40
3.0
 40
3.0
 40
3.0
 40
4.0
 40
4.0
 40
4.0
 40
4.0
 10
10.44957749847267
 20
-20.45146483863713
 10
10.44957749847267
 20
-20.73210231686559
 10
10.345449487431
 20
-20.88702826083727
 10
10.16258381907394
 20
-20.88702826083727
 10
10.00131889940939
 20
-20.88702826083727
 10
9.892109372526972
 20
-20.73592637285421
 10
9.889577227345313
 20
-20.46290255564816
 10
9.889577227345313
 20
-20.18608913340834
 10
10.00893256043179
 20
-20.03371256009574
 10
10.17655368126663
 20
-20.03371256009574
 10
10.35053100327174
 20
-20.03371256009574
 10
10.44957749847267
 20
-20.18863850406742
 10
10.44957749847267
 20
-20.45146483863713
 97
        0
 97
        0
 92
        1
 93
        1
 72
     4
 94
        3
 73
     0
 74
     0
 95
       17
 96
       13
 40
0.0
 40
0.0
 40
0.0
 40
0.0
 40
1.0
 40
1.0
 40
1.0
 40
2.0
 40
2.0
 40
2.0
 40
3.0
 40
3.0
 40
3.0
 40
4.0
 40
4.0
 40
4.0
 40
4.0
 10
10.00131889940939
 20
-20.4641772409777
 10
10.00131889940939
 20
-20.67877223875391
 10
10.06736137986163
 20
-20.80069416797691
 10
10.16894002024422
 20
-20.80069416797691
 10
10.28323106296739
 20
-20.80069416797691
 10
10.33783582640859
 20
-20.66736897269774
 10
10.33783582640859
 20
-20.4565635799553
 10
10.33783582640859
 20
-20.25337184823527
 10
10.28576320814904
 20
-20.1200466529561
 10
10.17021470557376
 20
-20.1200466529561
 10
10.07242567022495
 20
-20.1200466529561
 10
10.00131889940939
 20
-20.23941921152
 10
10.00131889940939
 20
-20.4641772409777
 97
        0
 97
        0
 75
     2
 76
     1
 98
        0
450
        0
451
        0
460
0.0
461
0.0
452
        0
462
0.0
453
        0
470

  0
POLYLINE
  5
1A6
330
1F
100
AcDbEntity
  8
Livello 3
100
AcDb2dPolyline
 66
     1
 10
0.0
 20
0.0
 30
0.0
  0
VERTEX
  5
1A7
330
1A6
100
AcDbEntity
  8
Livello 3
100
AcDbVertex
100
AcDb2dVertex
 10
11.84282578913999
 20
-9.699115123443275
 30
0.0
  0
VERTEX
  5
1A8
330
1A6
100
AcDbEntity
  8
Livello 3
100
AcDbVertex
100
AcDb2dVertex
 10
11.8402764184809
 20
-9.699115123443275
 30
0.0
  0
VERTEX
  5
1A9
330
1A6
100
AcDbEntity
  8
Livello 3
100
AcDbVertex
100
AcDb2dVertex
 10
11.69678819152025
 20
-9.776578095429119
 30
0.0
  0
VERTEX
  5
1AA
330
1A6
100
AcDbEntity
  8
Livello 3
100
AcDbVertex
100
AcDb2dVertex
 10
11.67518744282773
 20
-9.691484236943447
 30
0.0
  0
VERTEX
  5
1AB
330
1A6
100
AcDbEntity
  8
Livello 3
100
AcDbVertex
100
AcDb2dVertex
 10
11.85550374052571
 20
-9.5949871124016
 30
0.0
  0
VERTEX
  5
1AC
330
1A6
100
AcDbEntity
  8
Livello 3
100
AcDbVertex
100
AcDb2dVertex
 10
11.95076063069286
 20
-9.5949871124016
 30
0.0
  0
VERTEX
  5
1AD
330
1A6
100
AcDbEntity
  8
Livello 3
100
AcDbVertex
100
AcDb2dVertex
 10
11.95076063069286
 20
-10.42038031423518
 30
0.0
  0
VERTEX
  5
1AE
330
1A6
100
AcDbEntity
  8
Livello 3
100
AcDbVertex
100
AcDb2dVertex
 10
11.84282578913999
 20
-10.42038031423518
 30
0.0
  0
VERTEX
  5
1AF
330
1A6
100
AcDbEntity
  8
Livello 3
100
AcDbVertex
100
AcDb2dVertex
 10
11.84282578913999
 20
-9.699115123443275
 30
0.0
  0
SEQEND
  5
1B0
330
1A6
100
AcDbEntity
  8
Livello 3
  0
HATCH
  5
1B1
330
1F
100
AcDbEntity
  8
Livello 3
100
AcDbHatch
 10
0.0
 20
0.0
 30
0.0
210
0.0
220
0.0
230
1.0
  2
SOLID
 70
     1
 71
     0
 91
        1
 92
        1
 93
        8
 72
     1
 10
11.84282578913999
 20
-9.699115123443275
 11
11.8402764184809
 21
-9.699115123443275
 72
     1
 10
11.8402764184809
 20
-9.699115123443275
 11
11.69678819152025
 21
-9.776578095429119
 72
     1
 10
11.69678819152025
 20
-9.776578095429119
 11
11.67518744282773
 21
-9.691484236943447
 72
     1
 10
11.67518744282773
 20
-9.691484236943447
 11
11.85550374052571
 21
-9.5949871124016
 72
     1
 10
11.85550374052571
 20
-9.5949871124016
 11
11.95076063069286
 21
-9.5949871124016
 72
     1
 10
11.95076063069286
 20
-9.5949871124016
 11
11.95076063069286
 21
-10.42038031423518
 72
     1
 10
11.95076063069286
 20
-10.42038031423518
 11
11.84282578913999
 21
-10.42038031423518
 72
     1
 10
11.84282578913999
 20
-10.42038031423518
 11
11.84282578913999
 21
-9.699115123443275
 97
        0
 75
     2
 76
     1
 98
        0
450
        0
451
        0
460
0.0
461
0.0
452
        0
462
0.0
453
        0
470

  0
SPLINE
  5
1B2
330
1F
100
AcDbEntity
  8
Livello 3
100
AcDbSpline
210
0.0
220
0.0
230
1.0
 70
     9
 71
     3
 72
    38
 73
    34
 74
     0
 42
0.000000001
 43
0.0000000001
 40
0.0
 40
0.0
 40
0.0
 40
0.0
 40
1.0
 40
1.0
 40
1.0
 40
2.0
 40
2.0
 40
2.0
 40
3.0
 40
3.0
 40
3.0
 40
4.0
 40
4.0
 40
4.0
 40
5.0
 40
5.0
 40
5.0
 40
6.0
 40
6.0
 40
6.0
 40
7.0
 40
7.0
 40
7.0
 40
8.0
 40
8.0
 40
8.0
 40
9.0
 40
9.0
 40
9.0
 40
10.0
 40
10.0
 40
10.0
 40
11.0
 40
11.0
 40
11.0
 40
11.0
 10
12.72287543084706
 20
-9.67370754423956
 30
0.0
 10
12.699999996825
 20
-9.672450084387442
 30
0.0
 10
12.67082003806493
 20
-9.67370754423956
 30
0.0
 10
12.63905625769093
 20
-9.678789060080303
 30
0.0
 10
12.46380425035627
 20
-9.708003469795221
 30
0.0
 10
12.37113118180305
 20
-9.836247149233646
 30
0.0
 10
12.35207980376962
 20
-9.972121715171899
 30
0.0
 10
12.35207980376962
 20
-9.972121715171899
 30
0.0
 10
12.35586940880339
 20
-9.972121715171899
 30
0.0
 10
12.35586940880339
 20
-9.972121715171899
 30
0.0
 10
12.3952468501998
 20
-9.920066322389773
 30
0.0
 10
12.46380425035627
 20
-9.876882050482167
 30
0.0
 10
12.5552370845348
 20
-9.876882050482167
 30
0.0
 10
12.70127468215454
 20
-9.876882050482167
 30
0.0
 10
12.8041452333441
 20
-9.982284746853386
 30
0.0
 10
12.8041452333441
 20
-10.14354966651793
 30
0.0
 10
12.8041452333441
 20
-10.29466877997842
 30
0.0
 10
12.70127468215454
 20
-10.43435017642787
 30
0.0
 10
12.52984673080851
 20
-10.43435017642787
 30
0.0
 10
12.35335448909916
 20
-10.43435017642787
 30
0.0
 10
12.23777153556903
 20
-10.29720092516007
 30
0.0
 10
12.23777153556903
 20
-10.08260592738386
 30
0.0
 10
12.23777153556903
 20
-9.920066322389773
 30
0.0
 10
12.29620035499887
 20
-9.791805417473922
 30
0.0
 10
12.37747015749591
 20
-9.710535614976876
 30
0.0
 10
12.44602755765238
 20
-9.643235674672522
 30
0.0
 10
12.53746039183091
 20
-9.601326088094461
 30
0.0
 10
12.64160562835001
 20
-9.588630911231316
 30
0.0
 10
12.67460964309871
 20
-9.583549395390569
 30
0.0
 10
12.70254936748408
 20
-9.582291935538453
 30
0.0
 10
12.72287543084706
 20
-9.582291935538453
 30
0.0
 10
12.72287543084706
 20
-9.582291935538453
 30
0.0
 10
12.72287543084706
 20
-9.67370754423956
 30
0.0
 10
12.72287543084706
 20
-9.67370754423956
 30
0.0
  0
SPLINE
  5
1B3
330
1F
100
AcDbEntity
  8
Livello 3
100
AcDbSpline
210
0.0
220
0.0
230
1.0
 70
    11
 71
     3
 72
    20
 73
    16
 74
     0
 42
0.000000001
 43
0.0000000001
 40
0.0
 40
0.0
 40
0.0
 40
0.0
 40
1.0
 40
1.0
 40
1.0
 40
2.0
 40
2.0
 40
2.0
 40
3.0
 40
3.0
 40
3.0
 40
4.0
 40
4.0
 40
4.0
 40
5.0
 40
5.0
 40
5.0
 40
5.0
 10
12.69111165047305
 20
-10.14990586768822
 30
0.0
 10
12.69111165047305
 20
-10.03180799445385
 30
0.0
 10
12.62382893564613
 20
-9.960701223638297
 30
0.0
 10
12.52095838445656
 20
-9.960701223638297
 30
0.0
 10
12.45367566962964
 20
-9.960701223638297
 30
0.0
 10
12.39142279421117
 20
-10.00261081021636
 30
0.0
 10
12.36096815012156
 20
-10.06227986402089
 30
0.0
 10
12.35335448909916
 20
-10.07499226636146
 30
0.0
 10
12.34825574778099
 20
-10.09149427373581
 30
0.0
 10
12.34825574778099
 20
-10.11180311162135
 30
0.0
 10
12.35080511844007
 20
-10.24767767755961
 30
0.0
 10
12.41302354290369
 20
-10.34799885809008
 30
0.0
 10
12.52984673080851
 20
-10.34799885809008
 30
0.0
 10
12.62634385535036
 20
-10.34799885809008
 30
0.0
 10
12.69111165047305
 20
-10.26800374092258
 30
0.0
 10
12.69111165047305
 20
-10.14990586768822
 30
0.0
  0
HATCH
  5
1B4
330
1F
100
AcDbEntity
  8
Livello 3
100
AcDbHatch
 10
0.0
 20
0.0
 30
0.0
210
0.0
220
0.0
230
1.0
  2
SOLID
 70
     1
 71
     0
 91
        2
 92
        1
 93
        1
 72
     4
 94
        3
 73
     0
 74
     0
 95
       38
 96
       34
 40
0.0
 40
0.0
 40
0.0
 40
0.0
 40
1.0
 40
1.0
 40
1.0
 40
2.0
 40
2.0
 40
2.0
 40
3.0
 40
3.0
 40
3.0
 40
4.0
 40
4.0
 40
4.0
 40
5.0
 40
5.0
 40
5.0
 40
6.0
 40
6.0
 40
6.0
 40
7.0
 40
7.0
 40
7.0
 40
8.0
 40
8.0
 40
8.0
 40
9.0
 40
9.0
 40
9.0
 40
10.0
 40
10.0
 40
10.0
 40
11.0
 40
11.0
 40
11.0
 40
11.0
 10
12.72287543084706
 20
-9.67370754423956
 10
12.699999996825
 20
-9.672450084387442
 10
12.67082003806493
 20
-9.67370754423956
 10
12.63905625769093
 20
-9.678789060080303
 10
12.46380425035627
 20
-9.708003469795221
 10
12.37113118180305
 20
-9.836247149233646
 10
12.35207980376962
 20
-9.972121715171899
 10
12.35207980376962
 20
-9.972121715171899
 10
12.35586940880339
 20
-9.972121715171899
 10
12.35586940880339
 20
-9.972121715171899
 10
12.3952468501998
 20
-9.920066322389773
 10
12.46380425035627
 20
-9.876882050482167
 10
12.5552370845348
 20
-9.876882050482167
 10
12.70127468215454
 20
-9.876882050482167
 10
12.8041452333441
 20
-9.982284746853386
 10
12.8041452333441
 20
-10.14354966651793
 10
12.8041452333441
 20
-10.29466877997842
 10
12.70127468215454
 20
-10.43435017642787
 10
12.52984673080851
 20
-10.43435017642787
 10
12.35335448909916
 20
-10.43435017642787
 10
12.23777153556903
 20
-10.29720092516007
 10
12.23777153556903
 20
-10.08260592738386
 10
12.23777153556903
 20
-9.920066322389773
 10
12.29620035499887
 20
-9.791805417473922
 10
12.37747015749591
 20
-9.710535614976876
 10
12.44602755765238
 20
-9.643235674672522
 10
12.53746039183091
 20
-9.601326088094461
 10
12.64160562835001
 20
-9.588630911231316
 10
12.67460964309871
 20
-9.583549395390569
 10
12.70254936748408
 20
-9.582291935538453
 10
12.72287543084706
 20
-9.582291935538453
 10
12.72287543084706
 20
-9.582291935538453
 10
12.72287543084706
 20
-9.67370754423956
 10
12.72287543084706
 20
-9.67370754423956
 97
        0
 97
        0
 92
        1
 93
        1
 72
     4
 94
        3
 73
     0
 74
     0
 95
       20
 96
       16
 40
0.0
 40
0.0
 40
0.0
 40
0.0
 40
1.0
 40
1.0
 40
1.0
 40
2.0
 40
2.0
 40
2.0
 40
3.0
 40
3.0
 40
3.0
 40
4.0
 40
4.0
 40
4.0
 40
5.0
 40
5.0
 40
5.0
 40
5.0
 10
12.69111165047305
 20
-10.14990586768822
 10
12.69111165047305
 20
-10.03180799445385
 10
12.62382893564613
 20
-9.960701223638297
 10
12.52095838445656
 20
-9.960701223638297
 10
12.45367566962964
 20
-9.960701223638297
 10
12.39142279421117
 20
-10.00261081021636
 10
12.36096815012156
 20
-10.06227986402089
 10
12.35335448909916
 20
-10.07499226636146
 10
12.34825574778099
 20
-10.09149427373581
 10
12.34825574778099
 20
-10.11180311162135
 10
12.35080511844007
 20
-10.24767767755961
 10
12.41302354290369
 20
-10.34799885809008
 10
12.52984673080851
 20
-10.34799885809008
 10
12.62634385535036
 20
-10.34799885809008
 10
12.69111165047305
 20
-10.26800374092258
 10
12.69111165047305
 20
-10.14990586768822
 97
        0
 97
        0
 75
     2
 76
     1
 98
        0
450
        0
451
        0
460
0.0
461
0.0
452
        0
462
0.0
453
        0
470

  0
POLYLINE
  5
1B5
330
1F
100
AcDbEntity
  8
Livello 3
100
AcDb2dPolyline
 66
     1
 10
0.0
 20
0.0
 30
0.0
  0
VERTEX
  5
1B6
330
1B5
100
AcDbEntity
  8
Livello 3
100
AcDbVertex
100
AcDb2dVertex
 10
14.14756021781728
 20
-12.4621161535685
 30
0.0
  0
VERTEX
  5
1B7
330
1B5
100
AcDbEntity
  8
Livello 3
100
AcDbVertex
100
AcDb2dVertex
 10
14.14756021781728
 20
-12.46466552422758
 30
0.0
  0
VERTEX
  5
1B8
330
1B5
100
AcDbEntity
  8
Livello 3
100
AcDbVertex
100
AcDb2dVertex
 10
14.22504041528054
 20
-12.60815375118824
 30
0.0
  0
VERTEX
  5
1B9
330
1B5
100
AcDbEntity
  8
Livello 3
100
AcDbVertex
100
AcDb2dVertex
 10
14.13994655679487
 20
-12.62973727440333
 30
0.0
  0
VERTEX
  5
1BA
330
1B5
100
AcDbEntity
  8
Livello 3
100
AcDbVertex
100
AcDb2dVertex
 10
14.04344943225303
 20
-12.44942097670534
 30
0.0
  0
VERTEX
  5
1BB
330
1B5
100
AcDbEntity
  8
Livello 3
100
AcDbVertex
100
AcDb2dVertex
 10
14.04344943225303
 20
-12.35418131201562
 30
0.0
  0
VERTEX
  5
1BC
330
1B5
100
AcDbEntity
  8
Livello 3
100
AcDbVertex
100
AcDb2dVertex
 10
14.86882540860918
 20
-12.35418131201562
 30
0.0
  0
VERTEX
  5
1BD
330
1B5
100
AcDbEntity
  8
Livello 3
100
AcDbVertex
100
AcDb2dVertex
 10
14.86882540860918
 20
-12.4621161535685
 30
0.0
  0
VERTEX
  5
1BE
330
1B5
100
AcDbEntity
  8
Livello 3
100
AcDbVertex
100
AcDb2dVertex
 10
14.14756021781728
 20
-12.4621161535685
 30
0.0
  0
SEQEND
  5
1BF
330
1B5
100
AcDbEntity
  8
Livello 3
  0
HATCH
  5
1C0
330
1F
100
AcDbEntity
  8
Livello 3
100
AcDbHatch
 10
0.0
 20
0.0
 30
0.0
210
0.0
220
0.0
230
1.0
  2
SOLID
 70
     1
 71
     0
 91
        1
 92
        1
 93
        8
 72
     1
 10
14.14756021781728
 20
-12.4621161535685
 11
14.14756021781728
 21
-12.46466552422758
 72
     1
 10
14.14756021781728
 20
-12.46466552422758
 11
14.22504041528054
 21
-12.60815375118824
 72
     1
 10
14.22504041528054
 20
-12.60815375118824
 11
14.13994655679487
 21
-12.62973727440333
 72
     1
 10
14.13994655679487
 20
-12.62973727440333
 11
14.04344943225303
 21
-12.44942097670534
 72
     1
 10
14.04344943225303
 20
-12.44942097670534
 11
14.04344943225303
 21
-12.35418131201562
 72
     1
 10
14.04344943225303
 20
-12.35418131201562
 11
14.86882540860918
 21
-12.35418131201562
 72
     1
 10
14.86882540860918
 20
-12.35418131201562
 11
14.86882540860918
 21
-12.4621161535685
 72
     1
 10
14.86882540860918
 20
-12.4621161535685
 11
14.14756021781728
 21
-12.4621161535685
 97
        0
 75
     2
 76
     1
 98
        0
450
        0
451
        0
460
0.0
461
0.0
452
        0
462
0.0
453
        0
470

  0
SPLINE
  5
1C1
330
1F
100
AcDbEntity
  8
Livello 3
100
AcDbSpline
210
0.0
220
0.0
230
1.0
 70
    11
 71
     3
 72
    50
 73
    46
 74
     0
 42
0.000000001
 43
0.0000000001
 40
0.0
 40
0.0
 40
0.0
 40
0.0
 40
1.0
 40
1.0
 40
1.0
 40
2.0
 40
2.0
 40
2.0
 40
3.0
 40
3.0
 40
3.0
 40
4.0
 40
4.0
 40
4.0
 40
5.0
 40
5.0
 40
5.0
 40
6.0
 40
6.0
 40
6.0
 40
7.0
 40
7.0
 40
7.0
 40
8.0
 40
8.0
 40
8.0
 40
9.0
 40
9.0
 40
9.0
 40
10.0
 40
10.0
 40
10.0
 40
11.0
 40
11.0
 40
11.0
 40
12.0
 40
12.0
 40
12.0
 40
13.0
 40
13.0
 40
13.0
 40
14.0
 40
14.0
 40
14.0
 40
15.0
 40
15.0
 40
15.0
 40
15.0
 10
14.13739718613579
 20
-11.56048298864634
 30
0.0
 10
14.13739718613579
 20
-11.56048298864634
 30
0.0
 10
14.13739718613579
 20
-11.87539916695302
 30
0.0
 10
14.13739718613579
 20
-11.87539916695302
 30
0.0
 10
14.13739718613579
 20
-11.87539916695302
 30
0.0
 10
14.34947726420777
 20
-11.9071457218496
 30
0.0
 10
14.34947726420777
 20
-11.9071457218496
 30
0.0
 10
14.34692789354868
 20
-11.88809434381617
 30
0.0
 10
14.3443785228896
 20
-11.87031765111228
 30
0.0
 10
14.3443785228896
 20
-11.83984578154525
 30
0.0
 10
14.3443785228896
 20
-11.77635267175209
 30
0.0
 10
14.35836561055971
 20
-11.71285956195894
 30
0.0
 10
14.38882025464932
 20
-11.66206162902893
 30
0.0
 10
14.42564832538664
 20
-11.59731105938366
 30
0.0
 10
14.4967550962022
 20
-11.54396375579456
 30
0.0
 10
14.6009003327213
 20
-11.54396375579456
 30
0.0
 10
14.76216525238585
 20
-11.54396375579456
 30
0.0
 10
14.8828124962793
 20
-11.67222466071042
 30
0.0
 10
14.8828124962793
 20
-11.85126627307885
 30
0.0
 10
14.8828124962793
 20
-11.94142442192784
 30
0.0
 10
14.857422142553
 20
-12.01762993406156
 30
0.0
 10
14.83199733787186
 20
-12.05699014998053
 30
0.0
 10
14.83199733787186
 20
-12.05699014998053
 30
0.0
 10
14.74693793034104
 20
-12.02905042559517
 30
0.0
 10
14.74693793034104
 20
-12.02905042559517
 30
0.0
 10
14.76726399370402
 20
-11.99477172551693
 30
0.0
 10
14.79265434743031
 20
-11.92747178521258
 30
0.0
 10
14.79265434743031
 20
-11.85254095840839
 30
0.0
 10
14.79265434743031
 20
-11.74713826203717
 30
0.0
 10
14.72406249631898
 20
-11.65698011318818
 30
0.0
 10
14.61361273506187
 20
-11.65698011318818
 30
0.0
 10
14.50691812788369
 20
-11.65825479851773
 30
0.0
 10
14.43074706670481
 20
-11.72936156933328
 30
0.0
 10
14.43074706670481
 20
-11.89445054498646
 30
0.0
 10
14.43074706670481
 20
-11.94142442192784
 30
0.0
 10
14.43581135706813
 20
-11.97825249266516
 30
0.0
 10
14.43963541305676
 20
-12.00874158770962
 30
0.0
 10
14.43963541305676
 20
-12.00874158770962
 30
0.0
 10
14.04344943225303
 20
-11.95539428412053
 30
0.0
 10
14.04344943225303
 20
-11.95539428412053
 30
0.0
 10
14.04344943225303
 20
-11.95539428412053
 30
0.0
 10
14.04344943225303
 20
-11.56048298864634
 30
0.0
 10
14.04344943225303
 20
-11.56048298864634
 30
0.0
 10
14.04344943225303
 20
-11.56048298864634
 30
0.0
 10
14.13739718613579
 20
-11.56048298864634
 30
0.0
 10
14.13739718613579
 20
-11.56048298864634
 30
0.0
  0
HATCH
  5
1C2
330
1F
100
AcDbEntity
  8
Livello 3
100
AcDbHatch
 10
0.0
 20
0.0
 30
0.0
210
0.0
220
0.0
230
1.0
  2
SOLID
 70
     1
 71
     0
 91
        1
 92
        1
 93
        1
 72
     4
 94
        3
 73
     0
 74
     0
 95
       50
 96
       46
 40
0.0
 40
0.0
 40
0.0
 40
0.0
 40
1.0
 40
1.0
 40
1.0
 40
2.0
 40
2.0
 40
2.0
 40
3.0
 40
3.0
 40
3.0
 40
4.0
 40
4.0
 40
4.0
 40
5.0
 40
5.0
 40
5.0
 40
6.0
 40
6.0
 40
6.0
 40
7.0
 40
7.0
 40
7.0
 40
8.0
 40
8.0
 40
8.0
 40
9.0
 40
9.0
 40
9.0
 40
10.0
 40
10.0
 40
10.0
 40
11.0
 40
11.0
 40
11.0
 40
12.0
 40
12.0
 40
12.0
 40
13.0
 40
13.0
 40
13.0
 40
14.0
 40
14.0
 40
14.0
 40
15.0
 40
15.0
 40
15.0
 40
15.0
 10
14.13739718613579
 20
-11.56048298864634
 10
14.13739718613579
 20
-11.56048298864634
 10
14.13739718613579
 20
-11.87539916695302
 10
14.13739718613579
 20
-11.87539916695302
 10
14.13739718613579
 20
-11.87539916695302
 10
14.34947726420777
 20
-11.9071457218496
 10
14.34947726420777
 20
-11.9071457218496
 10
14.34692789354868
 20
-11.88809434381617
 10
14.3443785228896
 20
-11.87031765111228
 10
14.3443785228896
 20
-11.83984578154525
 10
14.3443785228896
 20
-11.77635267175209
 10
14.35836561055971
 20
-11.71285956195894
 10
14.38882025464932
 20
-11.66206162902893
 10
14.42564832538664
 20
-11.59731105938366
 10
14.4967550962022
 20
-11.54396375579456
 10
14.6009003327213
 20
-11.54396375579456
 10
14.76216525238585
 20
-11.54396375579456
 10
14.8828124962793
 20
-11.67222466071042
 10
14.8828124962793
 20
-11.85126627307885
 10
14.8828124962793
 20
-11.94142442192784
 10
14.857422142553
 20
-12.01762993406156
 10
14.83199733787186
 20
-12.05699014998053
 10
14.83199733787186
 20
-12.05699014998053
 10
14.74693793034104
 20
-12.02905042559517
 10
14.74693793034104
 20
-12.02905042559517
 10
14.76726399370402
 20
-11.99477172551693
 10
14.79265434743031
 20
-11.92747178521258
 10
14.79265434743031
 20
-11.85254095840839
 10
14.79265434743031
 20
-11.74713826203717
 10
14.72406249631898
 20
-11.65698011318818
 10
14.61361273506187
 20
-11.65698011318818
 10
14.50691812788369
 20
-11.65825479851773
 10
14.43074706670481
 20
-11.72936156933328
 10
14.43074706670481
 20
-11.89445054498646
 10
14.43074706670481
 20
-11.94142442192784
 10
14.43581135706813
 20
-11.97825249266516
 10
14.43963541305676
 20
-12.00874158770962
 10
14.43963541305676
 20
-12.00874158770962
 10
14.04344943225303
 20
-11.95539428412053
 10
14.04344943225303
 20
-11.95539428412053
 10
14.04344943225303
 20
-11.95539428412053
 10
14.04344943225303
 20
-11.56048298864634
 10
14.04344943225303
 20
-11.56048298864634
 10
14.04344943225303
 20
-11.56048298864634
 10
14.13739718613579
 20
-11.56048298864634
 10
14.13739718613579
 20
-11.56048298864634
 97
        0
 97
        0
 75
     2
 76
     1
 98
        0
450
        0
451
        0
460
0.0
461
0.0
452
        0
462
0.0
453
        0
470

  0
POLYLINE
  5
1C3
330
1F
100
AcDbEntity
  8
Livello 3
100
AcDb2dPolyline
 66
     1
 10
0.0
 20
0.0
 30
0.0
  0
VERTEX
  5
1C4
330
1C3
100
AcDbEntity
  8
Livello 3
100
AcDbVertex
100
AcDb2dVertex
 10
7.144611272085374
 20
-16.66688964427077
 30
0.0
  0
VERTEX
  5
1C5
330
1C3
100
AcDbEntity
  8
Livello 3
100
AcDbVertex
100
AcDb2dVertex
 10
7.332902965831704
 20
-16.54414089213132
 30
0.0
  0
VERTEX
  5
1C6
330
1C3
100
AcDbEntity
  8
Livello 3
100
AcDbVertex
100
AcDb2dVertex
 10
7.123475611283367
 20
-16.22288573813178
 30
0.0
  0
VERTEX
  5
1C7
330
1C3
100
AcDbEntity
  8
Livello 3
100
AcDbVertex
100
AcDb2dVertex
 10
7.185177271424191
 20
-16.18264702286406
 30
0.0
  0
VERTEX
  5
1C8
330
1C3
100
AcDbEntity
  8
Livello 3
100
AcDbVertex
100
AcDb2dVertex
 10
7.827739255855565
 20
-16.20335204673041
 30
0.0
  0
VERTEX
  5
1C9
330
1C3
100
AcDbEntity
  8
Livello 3
100
AcDbVertex
100
AcDb2dVertex
 10
7.893626707010967
 20
-16.30443114826764
 30
0.0
  0
VERTEX
  5
1CA
330
1C3
100
AcDbEntity
  8
Livello 3
100
AcDbVertex
100
AcDb2dVertex
 10
7.463868270703478
 20
-16.58458631312816
 30
0.0
  0
VERTEX
  5
1CB
330
1C3
100
AcDbEntity
  8
Livello 3
100
AcDbVertex
100
AcDb2dVertex
 10
7.526965194515827
 20
-16.68135904530883
 30
0.0
  0
VERTEX
  5
1CC
330
1C3
100
AcDbEntity
  8
Livello 3
100
AcDbVertex
100
AcDb2dVertex
 10
7.453567435202579
 20
-16.7292458725538
 30
0.0
  0
VERTEX
  5
1CD
330
1C3
100
AcDbEntity
  8
Livello 3
100
AcDbVertex
100
AcDb2dVertex
 10
7.390470511390228
 20
-16.63243868941828
 30
0.0
  0
VERTEX
  5
1CE
330
1C3
100
AcDbEntity
  8
Livello 3
100
AcDbVertex
100
AcDb2dVertex
 10
7.202178817643898
 20
-16.75515299060288
 30
0.0
  0
VERTEX
  5
1CF
330
1C3
100
AcDbEntity
  8
Livello 3
100
AcDbVertex
100
AcDb2dVertex
 10
7.144611272085374
 20
-16.66688964427077
 30
0.0
  0
SEQEND
  5
1D0
330
1C3
100
AcDbEntity
  8
Livello 3
  0
SPLINE
  5
1D1
330
1F
100
AcDbEntity
  8
Livello 3
100
AcDbSpline
210
0.0
220
0.0
230
1.0
 70
    11
 71
     3
 72
    26
 73
    22
 74
     0
 42
0.000000001
 43
0.0000000001
 40
0.0
 40
0.0
 40
0.0
 40
0.0
 40
1.0
 40
1.0
 40
1.0
 40
2.0
 40
2.0
 40
2.0
 40
3.0
 40
3.0
 40
3.0
 40
4.0
 40
4.0
 40
4.0
 40
5.0
 40
5.0
 40
5.0
 40
6.0
 40
6.0
 40
6.0
 40
7.0
 40
7.0
 40
7.0
 40
7.0
 10
7.406300725144952
 20
-16.4962885158412
 30
0.0
 10
7.406300725144952
 20
-16.4962885158412
 30
0.0
 10
7.637139348134117
 20
-16.34580674504549
 30
0.0
 10
7.637139348134117
 20
-16.34580674504549
 30
0.0
 10
7.673295625251812
 20
-16.32224229192638
 30
0.0
 10
7.710175372421413
 20
-16.29971136745285
 30
0.0
 10
7.747726913210637
 20
-16.27828287353459
 30
0.0
 10
7.747726913210637
 20
-16.27828287353459
 30
0.0
 10
7.745642630442061
 20
-16.27507893473331
 30
0.0
 10
7.745642630442061
 20
-16.27507893473331
 30
0.0
 10
7.691347925594523
 20
-16.28014322509663
 30
0.0
 10
7.650471867662034
 20
-16.28255479193631
 30
0.0
 10
7.606064586857163
 20
-16.28420843776922
 30
0.0
 10
7.606064586857163
 20
-16.28420843776922
 30
0.0
 10
7.260710989938293
 20
-16.26829209662737
 30
0.0
 10
7.260710989938293
 20
-16.26829209662737
 30
0.0
 10
7.260710989938293
 20
-16.26829209662737
 30
0.0
 10
7.258592256214865
 20
-16.26970458577632
 30
0.0
 10
7.258592256214865
 20
-16.26970458577632
 30
0.0
 10
7.258592256214865
 20
-16.26970458577632
 30
0.0
 10
7.406300725144952
 20
-16.4962885158412
 30
0.0
 10
7.406300725144952
 20
-16.4962885158412
 30
0.0
  0
HATCH
  5
1D2
330
1F
100
AcDbEntity
  8
Livello 3
100
AcDbHatch
 10
0.0
 20
0.0
 30
0.0
210
0.0
220
0.0
230
1.0
  2
SOLID
 70
     1
 71
     0
 91
        2
 92
        1
 93
       11
 72
     1
 10
7.144611272085374
 20
-16.66688964427077
 11
7.332902965831704
 21
-16.54414089213132
 72
     1
 10
7.332902965831704
 20
-16.54414089213132
 11
7.123475611283367
 21
-16.22288573813178
 72
     1
 10
7.123475611283367
 20
-16.22288573813178
 11
7.185177271424191
 21
-16.18264702286406
 72
     1
 10
7.185177271424191
 20
-16.18264702286406
 11
7.827739255855565
 21
-16.20335204673041
 72
     1
 10
7.827739255855565
 20
-16.20335204673041
 11
7.893626707010967
 21
-16.30443114826764
 72
     1
 10
7.893626707010967
 20
-16.30443114826764
 11
7.463868270703478
 21
-16.58458631312816
 72
     1
 10
7.463868270703478
 20
-16.58458631312816
 11
7.526965194515827
 21
-16.68135904530883
 72
     1
 10
7.526965194515827
 20
-16.68135904530883
 11
7.453567435202579
 21
-16.7292458725538
 72
     1
 10
7.453567435202579
 20
-16.7292458725538
 11
7.390470511390228
 21
-16.63243868941828
 72
     1
 10
7.390470511390228
 20
-16.63243868941828
 11
7.202178817643898
 21
-16.75515299060288
 72
     1
 10
7.202178817643898
 20
-16.75515299060288
 11
7.144611272085374
 21
-16.66688964427077
 97
        0
 92
        1
 93
        1
 72
     4
 94
        3
 73
     0
 74
     0
 95
       26
 96
       22
 40
0.0
 40
0.0
 40
0.0
 40
0.0
 40
1.0
 40
1.0
 40
1.0
 40
2.0
 40
2.0
 40
2.0
 40
3.0
 40
3.0
 40
3.0
 40
4.0
 40
4.0
 40
4.0
 40
5.0
 40
5.0
 40
5.0
 40
6.0
 40
6.0
 40
6.0
 40
7.0
 40
7.0
 40
7.0
 40
7.0
 10
7.406300725144952
 20
-16.4962885158412
 10
7.406300725144952
 20
-16.4962885158412
 10
7.637139348134117
 20
-16.34580674504549
 10
7.637139348134117
 20
-16.34580674504549
 10
7.673295625251812
 20
-16.32224229192638
 10
7.710175372421413
 20
-16.29971136745285
 10
7.747726913210637
 20
-16.27828287353459
 10
7.747726913210637
 20
-16.27828287353459
 10
7.745642630442061
 20
-16.27507893473331
 10
7.745642630442061
 20
-16.27507893473331
 10
7.691347925594523
 20
-16.28014322509663
 10
7.650471867662034
 20
-16.28255479193631
 10
7.606064586857163
 20
-16.28420843776922
 10
7.606064586857163
 20
-16.28420843776922
 10
7.260710989938293
 20
-16.26829209662737
 10
7.260710989938293
 20
-16.26829209662737
 10
7.260710989938293
 20
-16.26829209662737
 10
7.258592256214865
 20
-16.26970458577632
 10
7.258592256214865
 20
-16.26970458577632
 10
7.258592256214865
 20
-16.26970458577632
 10
7.406300725144952
 20
-16.4962885158412
 10
7.406300725144952
 20
-16.4962885158412
 97
        0
 97
        0
 75
     2
 76
     1
 98
        0
450
        0
451
        0
460
0.0
461
0.0
452
        0
462
0.0
453
        0
470

  0
SPLINE
  5
1D3
330
1F
100
AcDbEntity
  8
Livello 3
100
AcDbSpline
210
0.0
220
0.0
230
1.0
 70
     9
 71
     3
 72
    17
 73
    13
 74
     0
 42
0.000000001
 43
0.0000000001
 40
0.0
 40
0.0
 40
0.0
 40
0.0
 40
1.0
 40
1.0
 40
1.0
 40
2.0
 40
2.0
 40
2.0
 40
3.0
 40
3.0
 40
3.0
 40
4.0
 40
4.0
 40
4.0
 40
4.0
 10
7.964526772097408
 20
-17.1525792057813
 30
0.0
 10
7.72943345618396
 20
-17.30588595487492
 30
0.0
 10
7.54279540827055
 20
-17.30323323135127
 30
0.0
 10
7.442922090153158
 20
-17.15002983512221
 30
0.0
 10
7.354865449550173
 20
-17.01494764114557
 30
0.0
 10
7.421803654828575
 20
-16.8409358681856
 30
0.0
 10
7.649128280422786
 20
-16.68973062733798
 30
0.0
 10
7.881034883012379
 20
-16.53855983744522
 30
0.0
 10
8.073856877321812
 20
-16.55533745245839
 30
0.0
 10
8.1653930643649
 20
-16.69575954443717
 30
0.0
 10
8.260408797848091
 20
-16.84148708346324
 30
0.0
 10
8.184720050037153
 20
-17.00905652786579
 30
0.0
 10
7.964526772097408
 20
-17.1525792057813
 30
0.0
  0
SPLINE
  5
1D4
330
1F
100
AcDbEntity
  8
Livello 3
100
AcDbSpline
210
0.0
220
0.0
230
1.0
 70
     9
 71
     3
 72
    17
 73
    13
 74
     0
 42
0.000000001
 43
0.0000000001
 40
0.0
 40
0.0
 40
0.0
 40
0.0
 40
1.0
 40
1.0
 40
1.0
 40
2.0
 40
2.0
 40
2.0
 40
3.0
 40
3.0
 40
3.0
 40
4.0
 40
4.0
 40
4.0
 40
4.0
 10
7.709090167343559
 20
-16.78402289076927
 30
0.0
 10
7.529325084923223
 20
-16.90122503917747
 30
0.0
 10
7.46324815351613
 20
-17.02311251744561
 30
0.0
 10
7.518731416306079
 20
-17.10820637593128
 30
0.0
 10
7.58113932102138
 20
-17.20398003042122
 30
0.0
 10
7.722646618078017
 20
-17.17690157990716
 30
0.0
 10
7.899242212651925
 20
-17.06176648879011
 30
0.0
 10
8.069447155100691
 20
-16.95083441416507
 30
0.0
 10
8.152697887501755
 20
-16.83439018676361
 30
0.0
 10
8.089600963689404
 20
-16.7375830036281
 30
0.0
 10
8.036201983668032
 20
-16.65565863298885
 30
0.0
 10
7.89738186108989
 20
-16.66127413862982
 30
0.0
 10
7.709090167343559
 20
-16.78402289076927
 30
0.0
  0
HATCH
  5
1D5
330
1F
100
AcDbEntity
  8
Livello 3
100
AcDbHatch
 10
0.0
 20
0.0
 30
0.0
210
0.0
220
0.0
230
1.0
  2
SOLID
 70
     1
 71
     0
 91
        2
 92
        1
 93
        1
 72
     4
 94
        3
 73
     0
 74
     0
 95
       17
 96
       13
 40
0.0
 40
0.0
 40
0.0
 40
0.0
 40
1.0
 40
1.0
 40
1.0
 40
2.0
 40
2.0
 40
2.0
 40
3.0
 40
3.0
 40
3.0
 40
4.0
 40
4.0
 40
4.0
 40
4.0
 10
7.964526772097408
 20
-17.1525792057813
 10
7.72943345618396
 20
-17.30588595487492
 10
7.54279540827055
 20
-17.30323323135127
 10
7.442922090153158
 20
-17.15002983512221
 10
7.354865449550173
 20
-17.01494764114557
 10
7.421803654828575
 20
-16.8409358681856
 10
7.649128280422786
 20
-16.68973062733798
 10
7.881034883012379
 20
-16.53855983744522
 10
8.073856877321812
 20
-16.55533745245839
 10
8.1653930643649
 20
-16.69575954443717
 10
8.260408797848091
 20
-16.84148708346324
 10
8.184720050037153
 20
-17.00905652786579
 10
7.964526772097408
 20
-17.1525792057813
 97
        0
 97
        0
 92
        1
 93
        1
 72
     4
 94
        3
 73
     0
 74
     0
 95
       17
 96
       13
 40
0.0
 40
0.0
 40
0.0
 40
0.0
 40
1.0
 40
1.0
 40
1.0
 40
2.0
 40
2.0
 40
2.0
 40
3.0
 40
3.0
 40
3.0
 40
4.0
 40
4.0
 40
4.0
 40
4.0
 10
7.709090167343559
 20
-16.78402289076927
 10
7.529325084923223
 20
-16.90122503917747
 10
7.46324815351613
 20
-17.02311251744561
 10
7.518731416306079
 20
-17.10820637593128
 10
7.58113932102138
 20
-17.20398003042122
 10
7.722646618078017
 20
-17.17690157990716
 10
7.899242212651925
 20
-17.06176648879011
 10
8.069447155100691
 20
-16.95083441416507
 10
8.152697887501755
 20
-16.83439018676361
 10
8.089600963689404
 20
-16.7375830036281
 10
8.036201983668032
 20
-16.65565863298885
 10
7.89738186108989
 20
-16.66127413862982
 10
7.709090167343559
 20
-16.78402289076927
 97
        0
 97
        0
 75
     2
 76
     1
 98
        0
450
        0
451
        0
460
0.0
461
0.0
452
        0
462
0.0
453
        0
470

  0
ENDSEC
  0
SECTION
  2
OBJECTS
  0
DICTIONARY
  5
C
330
0
100
AcDbDictionary
281
     1
  3
ACAD_CIP_PREVIOUS_PRODUCT_INFO
350
120
  3
ACAD_COLOR
350
101
  3
ACAD_DETAILVIEWSTYLE
350
11C
  3
ACAD_GROUP
350
D
  3
ACAD_LAYOUT
350
1A
  3
ACAD_MATERIAL
350
3B
  3
ACAD_MLEADERSTYLE
350
F4
  3
ACAD_MLINESTYLE
350
17
  3
ACAD_PLOTSETTINGS
350
19
  3
ACAD_PLOTSTYLENAME
350
E
  3
ACAD_SCALELIST
350
103
  3
ACAD_SECTIONVIEWSTYLE
350
11A
  3
ACAD_TABLESTYLE
350
F3
  3
ACAD_VISUALSTYLE
350
2A
  3
ACDB_RECOMPOSE_DATA
350
1DF
  3
AcDbVariableDictionary
350
1D6
  0
SUN
  5
3F
330
29
100
AcDbSun
 90
        1
290
     1
 63
     7
421
 16777215
 40
1.0
291
     1
 91
  2455826
 92
 54000000
292
     0
 70
     0
 71
   256
280
     1
1001
ACAD
1000
AcDbSavedByObjectVersion
1070
     0
  0
DICTIONARY
  5
121
330
1F
100
AcDbDictionary
280
     1
281
     1
  3
ACAD_SORTENTS
360
122
  0
XRECORD
  5
120
102
{ACAD_REACTORS
330
C
102
}
330
C
100
AcDbXrecord
280
     1
300
ACD
300
2019
300
ACD_F_S
  0
DICTIONARY
  5
101
102
{ACAD_REACTORS
330
C
102
}
330
C
100
AcDbDictionary
281
     1
  0
DICTIONARY
  5
11C
102
{ACAD_REACTORS
330
C
102
}
330
C
100
AcDbDictionary
281
     1
  3
Imperial24
350
11D
  0
DICTIONARY
  5
D
102
{ACAD_REACTORS
330
C
102
}
330
C
100
AcDbDictionary
281
     1
  0
DICTIONARY
  5
1A
102
{ACAD_REACTORS
330
C
102
}
330
C
100
AcDbDictionary
281
     1
  3
Layout1
350
1E
  3
Layout2
350
26
  3
Model
350
22
  0
DICTIONARY
  5
3B
102
{ACAD_REACTORS
330
C
102
}
330
C
100
AcDbDictionary
281
     1
  3
ByBlock
350
3D
  3
ByLayer
350
3C
  3
Global
350
3E
  0
DICTIONARY
  5
F4
102
{ACAD_REACTORS
330
C
102
}
330
C
100
AcDbDictionary
281
     1
  3
Standard
350
119
  0
DICTIONARY
  5
17
102
{ACAD_REACTORS
330
C
102
}
330
C
100
AcDbDictionary
281
     1
  3
Standard
350
18
  0
DICTIONARY
  5
19
102
{ACAD_REACTORS
330
C
102
}
330
C
100
AcDbDictionary
281
     1
  0
ACDBDICTIONARYWDFLT
  5
E
102
{ACAD_REACTORS
330
C
102
}
330
C
100
AcDbDictionary
281
     1
  3
Normal
350
F
100
AcDbDictionaryWithDefault
340
F
  0
DICTIONARY
  5
103
102
{ACAD_REACTORS
330
C
102
}
330
C
100
AcDbDictionary
281
     1
  3
A0
350
104
  3
A1
350
105
  3
A2
350
106
  3
A3
350
107
  3
A4
350
108
  3
A5
350
109
  3
A6
350
10A
  3
A7
350
10B
  3
A8
350
10C
  3
A9
350
10D
  3
B0
350
10E
  3
B1
350
10F
  3
B2
350
110
  3
B3
350
111
  3
B4
350
112
  3
B5
350
113
  3
B6
350
114
  3
B7
350
115
  3
B8
350
116
  3
B9
350
117
  3
C0
350
118
  0
DICTIONARY
  5
11A
102
{ACAD_REACTORS
330
C
102
}
330
C
100
AcDbDictionary
281
     1
  3
Imperial24
350
11B
  0
DICTIONARY
  5
F3
102
{ACAD_REACTORS
330
C
102
}
330
C
100
AcDbDictionary
281
     1
  3
Standard
350
102
  0
DICTIONARY
  5
2A
102
{ACAD_REACTORS
330
C
102
}
330
C
100
AcDbDictionary
281
     1
  3
2dWireframe
350
2F
  3
3D Hidden
350
31
  3
3dWireframe
350
30
  3
Basic
350
32
  3
Brighten
350
36
  3
ColorChange
350
3A
  3
Conceptual
350
34
  3
Dim
350
35
  3
EdgeColorOff
350
100
  3
Facepattern
350
39
  3
Flat
350
2B
  3
FlatWithEdges
350
2C
  3
Gouraud
350
2D
  3
GouraudWithEdges
350
2E
  3
Hidden
350
F8
  3
JitterOff
350
FE
  3
Linepattern
350
38
  3
OverhangOff
350
FF
  3
Realistic
350
33
  3
Shaded
350
FD
  3
Shaded with edges
350
FC
  3
Shades of Gray
350
F9
  3
Sketchy
350
FA
  3
Thicken
350
37
  3
Wireframe
350
F7
  3
X-Ray
350
FB
  0
XRECORD
  5
1DF
102
{ACAD_REACTORS
330
C
102
}
330
C
100
AcDbXrecord
280
     1
 90
        1
330
102
  0
DICTIONARY
  5
1D6
102
{ACAD_REACTORS
330
C
102
}
330
C
100
AcDbDictionary
281
     1
  3
CANNOSCALE
350
1DB
  3
CMLEADERSTYLE
350
1D8
  3
CTABLESTYLE
350
1D7
  3
CVIEWDETAILSTYLE
350
1D9
  3
CVIEWSECTIONSTYLE
350
1DA
  0
SORTENTSTABLE
  5
122
102
{ACAD_REACTORS
330
121
102
}
330
121
100
AcDbSortentsTable
330
1F
331
C7
  5
1B4
331
123
  5
C7
331
124
  5
123
331
125
  5
124
331
126
  5
125
331
127
  5
126
331
128
  5
127
331
129
  5
128
331
12A
  5
129
331
12B
  5
12A
331
12C
  5
12B
331
12D
  5
12C
331
12E
  5
12D
331
12F
  5
12E
331
130
  5
12F
331
131
  5
130
331
132
  5
131
331
133
  5
132
331
134
  5
133
331
135
  5
134
331
136
  5
135
331
137
  5
136
331
138
  5
137
331
139
  5
138
331
13A
  5
139
331
13B
  5
13A
331
13C
  5
13B
331
13D
  5
13C
331
13E
  5
13D
331
13F
  5
13E
331
140
  5
13F
331
141
  5
140
331
142
  5
141
331
143
  5
142
331
144
  5
143
331
145
  5
144
331
146
  5
145
331
147
  5
146
331
148
  5
147
331
149
  5
148
331
14A
  5
149
331
14B
  5
14A
331
14C
  5
14B
331
14D
  5
14C
331
14E
  5
14D
331
14F
  5
14E
331
150
  5
14F
331
151
  5
150
331
152
  5
151
331
153
  5
152
331
154
  5
153
331
155
  5
154
331
156
  5
155
331
157
  5
156
331
158
  5
157
331
159
  5
158
331
15A
  5
159
331
15B
  5
15A
331
15C
  5
15B
331
15D
  5
15C
331
15E
  5
15D
331
15F
  5
15E
331
160
  5
15F
331
161
  5
160
331
162
  5
161
331
163
  5
162
331
164
  5
163
331
165
  5
164
331
166
  5
165
331
167
  5
166
331
168
  5
167
331
169
  5
168
331
16A
  5
169
331
16B
  5
16A
331
16C
  5
16B
331
16D
  5
16C
331
16E
  5
16D
331
16F
  5
16E
331
170
  5
16F
331
171
  5
170
331
172
  5
171
331
173
  5
172
331
174
  5
173
331
175
  5
174
331
176
  5
175
331
177
  5
176
331
178
  5
177
331
179
  5
178
331
17A
  5
179
331
17B
  5
17A
331
17C
  5
17B
331
17D
  5
17C
331
17E
  5
17D
331
17F
  5
17E
331
180
  5
17F
331
181
  5
180
331
182
  5
181
331
183
  5
182
331
184
  5
183
331
185
  5
184
331
186
  5
185
331
187
  5
186
331
188
  5
187
331
189
  5
188
331
18A
  5
189
331
18B
  5
18A
331
18C
  5
18B
331
18D
  5
18C
331
18E
  5
18D
331
18F
  5
18E
331
190
  5
18F
331
191
  5
190
331
192
  5
191
331
193
  5
192
331
194
  5
193
331
195
  5
194
331
196
  5
195
331
197
  5
196
331
198
  5
197
331
199
  5
198
331
19A
  5
199
331
19B
  5
19A
331
19C
  5
19B
331
19D
  5
19C
331
19E
  5
19D
331
19F
  5
19E
331
1A0
  5
19F
331
1A1
  5
1A0
331
1A2
  5
1A1
331
1A3
  5
1A2
331
1A4
  5
1A3
331
1A5
  5
1A4
331
1A6
  5
1A5
331
1B1
  5
1A6
331
1B2
  5
1B1
331
1B3
  5
1B2
331
1B4
  5
1B3
  0
ACDBDETAILVIEWSTYLE
  5
11D
102
{ACAD_XDICTIONARY
360
1E2
102
}
102
{ACAD_REACTORS
330
11C
102
}
330
11C
100
AcDbModelDocViewStyle
 70
     0
  3
Imperial24
290
     0
100
AcDbDetailViewStyle
 70
     0
 71
     0
 90
        3
 71
     1
340
11
 62
   256
 40
0.24
340
0
 62
   256
 40
0.24
300

 40
0.36
280
     3
 71
     2
340
16
 90
       25
 62
   256
 71
     3
340
11
 62
   256
 40
0.24
 90
        1
 40
0.75
 90
        1
300
%<\AcVar ViewType \f "%tc1">% %<\AcVar ViewDetailId>%\PSCALA %<\AcVar ViewScale \f "%sn">%
 71
     4
340
16
 90
       25
 62
   256
340
16
 90
       25
 62
   256
280
     0
  0
LAYOUT
  5
1E
102
{ACAD_REACTORS
330
1A
102
}
330
1A
100
AcDbPlotSettings
  1

  2
none_device
  4

  6

 40
0.0
 41
0.0
 42
0.0
 43
0.0
 44
0.0
 45
0.0
 46
0.0
 47
0.0
 48
0.0
 49
0.0
140
0.0
141
0.0
142
1.0
143
1.0
 70
   688
 72
     0
 73
     0
 74
     5
  7

 75
    16
147
1.0
 76
     0
 77
     2
 78
   300
148
0.0
149
0.0
100
AcDbLayout
  1
Layout1
 70
     1
 71
     1
 10
0.0
 20
0.0
 11
12.0
 21
9.0
 12
0.0
 22
0.0
 32
0.0
 14
1.000000000000000E+20
 24
1.000000000000000E+20
 34
1.000000000000000E+20
 15
-1.000000000000000E+20
 25
-1.000000000000000E+20
 35
-1.000000000000000E+20
146
0.0
 13
0.0
 23
0.0
 33
0.0
 16
1.0
 26
0.0
 36
0.0
 17
0.0
 27
1.0
 37
0.0
 76
     0
330
1B
  0
LAYOUT
  5
26
102
{ACAD_REACTORS
330
1A
102
}
330
1A
100
AcDbPlotSettings
  1

  2
none_device
  4

  6

 40
0.0
 41
0.0
 42
0.0
 43
0.0
 44
0.0
 45
0.0
 46
0.0
 47
0.0
 48
0.0
 49
0.0
140
0.0
141
0.0
142
1.0
143
1.0
 70
   688
 72
     0
 73
     0
 74
     5
  7

 75
    16
147
1.0
 76
     0
 77
     2
 78
   300
148
0.0
149
0.0
100
AcDbLayout
  1
Layout2
 70
     1
 71
     2
 10
0.0
 20
0.0
 11
0.0
 21
0.0
 12
0.0
 22
0.0
 32
0.0
 14
0.0
 24
0.0
 34
0.0
 15
0.0
 25
0.0
 35
0.0
146
0.0
 13
0.0
 23
0.0
 33
0.0
 16
1.0
 26
0.0
 36
0.0
 17
0.0
 27
1.0
 37
0.0
 76
     0
330
23
  0
LAYOUT
  5
22
102
{ACAD_REACTORS
330
1A
102
}
330
1A
100
AcDbPlotSettings
  1

  2
none_device
  4

  6

 40
0.0
 41
0.0
 42
0.0
 43
0.0
 44
0.0
 45
0.0
 46
0.0
 47
0.0
 48
0.0
 49
0.0
140
0.0
141
0.0
142
1.0
143
1.0
 70
  1712
 72
     0
 73
     0
 74
     0
  7

 75
     0
147
1.0
 76
     0
 77
     2
 78
   300
148
0.0
149
0.0
100
AcDbLayout
  1
Model
 70
     1
 71
     0
 10
0.0
 20
0.0
 11
12.0
 21
9.0
 12
0.0
 22
0.0
 32
0.0
 14
1.000000000000000E+20
 24
1.000000000000000E+20
 34
1.000000000000000E+20
 15
-1.000000000000000E+20
 25
-1.000000000000000E+20
 35
-1.000000000000000E+20
146
0.0
 13
0.0
 23
0.0
 33
0.0
 16
1.0
 26
0.0
 36
0.0
 17
0.0
 27
1.0
 37
0.0
 76
     0
330
1F
331
29
  0
MATERIAL
  5
3D
102
{ACAD_REACTORS
330
3B
102
}
330
3B
100
AcDbMaterial
  1
ByBlock
  0
MATERIAL
  5
3C
102
{ACAD_REACTORS
330
3B
102
}
330
3B
100
AcDbMaterial
  1
ByLayer
  0
MATERIAL
  5
3E
102
{ACAD_REACTORS
330
3B
102
}
330
3B
100
AcDbMaterial
  1
Global
  0
MLEADERSTYLE
  5
119
102
{ACAD_REACTORS
330
F4
102
}
330
F4
100
AcDbMLeaderStyle
179
     2
170
     2
171
     1
172
     0
 90
        2
 40
0.0
 41
0.0
173
     1
 91
-1056964608
340
14
 92
       -2
290
     1
 42
0.09
291
     1
 43
0.36
  3
Standard
 44
0.18
300

342
11
174
     1
178
     6
175
     1
176
     0
 93
-1056964608
 45
0.18
292
     0
297
     0
 46
0.18
 94
-1056964608
 47
1.0
 49
1.0
140
1.0
293
     1
141
0.0
294
     1
177
     0
142
1.0
295
     0
296
     0
143
0.125
271
     0
272
     9
273
     9
298
     0
  0
MLINESTYLE
  5
18
102
{ACAD_REACTORS
330
17
102
}
330
17
100
AcDbMlineStyle
  2
STANDARD
 70
     0
  3

 62
   256
 51
90.0
 52
90.0
 71
     2
 49
0.5
 62
   256
  6
BYLAYER
 49
-0.5
 62
   256
  6
BYLAYER
  0
ACDBPLACEHOLDER
  5
F
102
{ACAD_REACTORS
330
E
102
}
330
E
  0
SCALE
  5
104
102
{ACAD_REACTORS
330
103
102
}
330
103
100
AcDbScale
 70
     0
300
1:1
140
1.0
141
1.0
290
     1
  0
SCALE
  5
105
102
{ACAD_REACTORS
330
103
102
}
330
103
100
AcDbScale
 70
     0
300
1.10
140
1.0
141
10.0
290
     0
  0
SCALE
  5
106
102
{ACAD_REACTORS
330
103
102
}
330
103
100
AcDbScale
 70
     0
300
1.50
140
1.0
141
50.0
290
     0
  0
SCALE
  5
107
102
{ACAD_REACTORS
330
103
102
}
330
103
100
AcDbScale
 70
     0
300
1:100
140
1.0
141
100.0
290
     0
  0
SCALE
  5
108
102
{ACAD_REACTORS
330
103
102
}
330
103
100
AcDbScale
 70
     0
300
1.200
140
1.0
141
200.0
290
     0
  0
SCALE
  5
109
102
{ACAD_REACTORS
330
103
102
}
330
103
100
AcDbScale
 70
     0
300
1/128" = 1'-0"
140
0.0078125
141
12.0
290
     0
  0
SCALE
  5
10A
102
{ACAD_REACTORS
330
103
102
}
330
103
100
AcDbScale
 70
     0
300
1/64" = 1'-0"
140
0.015625
141
12.0
290
     0
  0
SCALE
  5
10B
102
{ACAD_REACTORS
330
103
102
}
330
103
100
AcDbScale
 70
     0
300
1/32" = 1'-0"
140
0.03125
141
12.0
290
     0
  0
SCALE
  5
10C
102
{ACAD_REACTORS
330
103
102
}
330
103
100
AcDbScale
 70
     0
300
1/16" = 1'-0"
140
0.0625
141
12.0
290
     0
  0
SCALE
  5
10D
102
{ACAD_REACTORS
330
103
102
}
330
103
100
AcDbScale
 70
     0
300
3/32" = 1'-0"
140
0.09375
141
12.0
290
     0
  0
SCALE
  5
10E
102
{ACAD_REACTORS
330
103
102
}
330
103
100
AcDbScale
 70
     0
300
1/8" = 1'-0"
140
0.125
141
12.0
290
     0
  0
SCALE
  5
10F
102
{ACAD_REACTORS
330
103
102
}
330
103
100
AcDbScale
 70
     0
300
3/16" = 1'-0"
140
0.1875
141
12.0
290
     0
  0
SCALE
  5
110
102
{ACAD_REACTORS
330
103
102
}
330
103
100
AcDbScale
 70
     0
300
1/4" = 1'-0"
140
0.25
141
12.0
290
     0
  0
SCALE
  5
111
102
{ACAD_REACTORS
330
103
102
}
330
103
100
AcDbScale
 70
     0
300
3/8" = 1'-0"
140
0.375
141
12.0
290
     0
  0
SCALE
  5
112
102
{ACAD_REACTORS
330
103
102
}
330
103
100
AcDbScale
 70
     0
300
1/2" = 1'-0"
140
0.5
141
12.0
290
     0
  0
SCALE
  5
113
102
{ACAD_REACTORS
330
103
102
}
330
103
100
AcDbScale
 70
     0
300
3/4" = 1'-0"
140
0.75
141
12.0
290
     0
  0
SCALE
  5
114
102
{ACAD_REACTORS
330
103
102
}
330
103
100
AcDbScale
 70
     0
300
1" = 1'-0"
140
1.0
141
12.0
290
     0
  0
SCALE
  5
115
102
{ACAD_REACTORS
330
103
102
}
330
103
100
AcDbScale
 70
     0
300
1-1/2" = 1'-0"
140
1.5
141
12.0
290
     0
  0
SCALE
  5
116
102
{ACAD_REACTORS
330
103
102
}
330
103
100
AcDbScale
 70
     0
300
3" = 1'-0"
140
3.0
141
12.0
290
     0
  0
SCALE
  5
117
102
{ACAD_REACTORS
330
103
102
}
330
103
100
AcDbScale
 70
     0
300
6" = 1'-0"
140
6.0
141
12.0
290
     0
  0
SCALE
  5
118
102
{ACAD_REACTORS
330
103
102
}
330
103
100
AcDbScale
 70
     0
300
1'-0" = 1'-0"
140
12.0
141
12.0
290
     0
  0
ACDBSECTIONVIEWSTYLE
  5
11B
102
{ACAD_XDICTIONARY
360
1E0
102
}
102
{ACAD_REACTORS
330
11A
102
}
330
11A
100
AcDbModelDocViewStyle
 70
     0
  3
Imperial24
290
     0
100
AcDbSectionViewStyle
 70
     0
 71
     0
 90
       78
 71
     1
340
11
 62
   256
 40
0.24
340
0
340
0
 62
   256
 40
0.24
300
I, O, Q, S, X, Z
 40
0.48
 90
        3
 40
0.18
 90
        1
 71
     2
340
16
 90
       25
 62
   256
340
16
 90
       50
 62
   256
 40
0.24
 40
0.0
 40
0.24
 71
     3
340
11
 62
   256
 40
0.24
 90
        1
 40
0.75
 90
        1
300
%<\AcVar ViewType \f "%tc1">% %<\AcVar ViewSectionStartId>%-%<\AcVar ViewSectionEndId>%\PSCALA %<\AcVar ViewScale \f "%sn">%
 71
     4
 62
   256
 62
   257
300
ANSI31
 40
1.0
 90
        0
290
     0
290
     0
 90
        6
 40
0.0
 40
1.570796326794896
 40
0.2617993877991494
 40
1.308996938995747
 40
-0.2617993877991494
 40
1.832595714594046
  0
TABLESTYLE
  5
102
102
{ACAD_XDICTIONARY
360
1DD
102
}
102
{ACAD_REACTORS
330
F3
102
}
330
F3
100
AcDbTableStyle
280
     0
  3
Standard
 70
     0
 71
     0
 40
0.06
 41
0.06
280
     0
281
     0
  7
Standard
140
0.18
170
     2
 62
     0
 63
     7
283
     0
 90
      512
 91
        0
  1

274
    -2
284
     1
 64
     0
275
    -2
285
     1
 65
     0
276
    -2
286
     1
 66
     0
277
    -2
287
     1
 67
     0
278
    -2
288
     1
 68
     0
279
    -2
289
     1
 69
     0
  7
Standard
140
0.25
170
     5
 62
     0
 63
     7
283
     0
 90
      512
 91
        0
  1

274
    -2
284
     1
 64
     0
275
    -2
285
     1
 65
     0
276
    -2
286
     1
 66
     0
277
    -2
287
     1
 67
     0
278
    -2
288
     1
 68
     0
279
    -2
289
     1
 69
     0
  7
Standard
140
0.18
170
     5
 62
     0
 63
     7
283
     0
 90
      512
 91
        0
  1

274
    -2
284
     1
 64
     0
275
    -2
285
     1
 65
     0
276
    -2
286
     1
 66
     0
277
    -2
287
     1
 67
     0
278
    -2
288
     1
 68
     0
279
    -2
289
     1
 69
     0
  0
VISUALSTYLE
  5
2F
102
{ACAD_REACTORS
330
2A
102
}
330
2A
100
AcDbVisualStyle
  2
2dWireframe
 70
     4
177
     3
291
     0
 70
    58
 90
        0
176
     1
 90
        2
176
     1
 90
        0
176
     1
 90
        0
176
     1
 40
0.6
176
     1
 40
30.0
176
     1
 62
     7
420
 16777215
176
     1
 90
        1
176
     1
 90
        4
176
     1
 62
     7
176
     1
 62
   257
176
     1
 90
        1
176
     1
 90
        1
176
     1
 40
1.0
176
     1
 90
        0
176
     1
 62
   257
176
     1
 40
1.0
176
     1
 90
        1
176
     1
 90
        6
176
     1
 90
        2
176
     1
 62
     7
176
     1
 90
        5
176
     1
 90
        0
176
     1
 90
        0
176
     1
290
     0
176
     1
 90
        1
176
     1
 40
0.0
176
     1
 90
        0
176
     1
290
     1
176
     1
290
     1
176
     1
290
     0
176
     1
290
     0
176
     1
290
     0
176
     1
290
     0
176
     1
290
     0
176
     1
290
     0
176
     1
290
     0
176
     1
 90
       50
176
     1
 40
0.0
176
     1
 40
1.0
176
     1
 90
        0
176
     1
 62
    18
420
        0
176
     1
 90
       50
176
     1
 90
        3
176
     1
 62
     5
420
      255
176
     1
290
     0
176
     1
 90
       50
176
     1
 90
       50
176
     1
 90
       50
176
     1
290
     0
176
     1
 90
       50
176
     1
 62
   256
176
     0
 40
1.0
176
     0
 90
        2
176
     1
  1
strokes_ogs.tif
176
     1
290
     0
176
     1
 40
1.0
176
     1
 40
1.0
176
     1
1001
ACAD
1000
AcDbSavedByObjectVersion
1070
     0
  0
VISUALSTYLE
  5
31
102
{ACAD_REACTORS
330
2A
102
}
330
2A
100
AcDbVisualStyle
  2
3D Hidden
 70
     6
177
     3
291
     0
 70
    58
 90
        1
176
     1
 90
        2
176
     1
 90
        2
176
     1
 90
        0
176
     1
 40
0.6
176
     1
 40
30.0
176
     1
 62
     7
420
 16777215
176
     1
 90
        2
176
     1
 90
        2
176
     1
 62
     7
176
     1
 62
   257
176
     1
 90
        2
176
     1
 90
        1
176
     1
 40
40.0
176
     1
 90
        0
176
     1
 62
   257
176
     1
 40
1.0
176
     1
 90
        1
176
     1
 90
        6
176
     1
 90
        2
176
     1
 62
     7
176
     1
 90
        3
176
     1
 90
        0
176
     1
 90
        0
176
     1
290
     0
176
     1
 90
        1
176
     1
 40
0.0
176
     1
 90
        0
176
     1
290
     0
176
     1
290
     1
176
     1
290
     1
176
     1
290
     0
176
     1
290
     0
176
     1
290
     0
176
     1
290
     0
176
     1
290
     0
176
     1
290
     0
176
     1
 90
       50
176
     1
 40
0.0
176
     1
 40
1.0
176
     1
 90
        0
176
     1
 62
    18
420
        0
176
     1
 90
       50
176
     1
 90
        3
176
     1
 62
     5
420
      255
176
     1
290
     0
176
     1
 90
       50
176
     1
 90
       50
176
     1
 90
       50
176
     1
290
     0
176
     1
 90
       50
176
     1
 62
   256
176
     0
 40
1.0
176
     0
 90
        2
176
     1
  1
strokes_ogs.tif
176
     1
290
     0
176
     1
 40
1.0
176
     1
 40
1.0
176
     1
1001
ACAD
1000
AcDbSavedByObjectVersion
1070
     0
  0
VISUALSTYLE
  5
30
102
{ACAD_REACTORS
330
2A
102
}
330
2A
100
AcDbVisualStyle
  2
3dWireframe
 70
     5
177
     3
291
     0
 70
    58
 90
        0
176
     1
 90
        2
176
     1
 90
        0
176
     1
 90
        0
176
     1
 40
0.6
176
     1
 40
30.0
176
     1
 62
     7
420
 16777215
176
     1
 90
        1
176
     1
 90
        4
176
     1
 62
     7
176
     1
 62
   257
176
     1
 90
        1
176
     1
 90
        1
176
     1
 40
1.0
176
     1
 90
        0
176
     1
 62
   257
176
     1
 40
1.0
176
     1
 90
        1
176
     1
 90
        6
176
     1
 90
        2
176
     1
 62
     7
176
     1
 90
        5
176
     1
 90
        0
176
     1
 90
        0
176
     1
290
     0
176
     1
 90
        1
176
     1
 40
0.0
176
     1
 90
        0
176
     1
290
     0
176
     1
290
     1
176
     1
290
     1
176
     1
290
     0
176
     1
290
     0
176
     1
290
     0
176
     1
290
     0
176
     1
290
     0
176
     1
290
     0
176
     1
 90
       50
176
     1
 40
0.0
176
     1
 40
1.0
176
     1
 90
        0
176
     1
 62
    18
420
        0
176
     1
 90
       50
176
     1
 90
        3
176
     1
 62
     5
420
      255
176
     1
290
     0
176
     1
 90
       50
176
     1
 90
       50
176
     1
 90
       50
176
     1
290
     0
176
     1
 90
       50
176
     1
 62
   256
176
     0
 40
1.0
176
     0
 90
        2
176
     1
  1
strokes_ogs.tif
176
     1
290
     0
176
     1
 40
1.0
176
     1
 40
1.0
176
     1
1001
ACAD
1000
AcDbSavedByObjectVersion
1070
     0
  0
VISUALSTYLE
  5
32
102
{ACAD_REACTORS
330
2A
102
}
330
2A
100
AcDbVisualStyle
  2
Basic
 70
     7
177
     3
291
     1
 70
    58
 90
        1
176
     1
 90
        0
176
     1
 90
        1
176
     1
 90
        0
176
     1
 40
0.6
176
     1
 40
30.0
176
     1
 62
     7
420
 16777215
176
     1
 90
        0
176
     1
 90
        4
176
     1
 62
     7
176
     1
 62
   257
176
     1
 90
        1
176
     1
 90
        1
176
     1
 40
1.0
176
     1
 90
        8
176
     1
 62
     7
176
     1
 40
1.0
176
     1
 90
        1
176
     1
 90
        6
176
     1
 90
        2
176
     1
 62
     7
176
     1
 90
        5
176
     1
 90
        0
176
     1
 90
        0
176
     1
290
     0
176
     1
 90
        1
176
     1
 40
0.0
176
     1
 90
        0
176
     1
290
     0
176
     1
290
     1
176
     1
290
     1
176
     1
290
     0
176
     1
290
     0
176
     1
290
     0
176
     1
290
     0
176
     1
290
     0
176
     1
290
     0
176
     1
 90
       50
176
     1
 40
0.0
176
     1
 40
1.0
176
     1
 90
        0
176
     1
 62
    18
420
        0
176
     1
 90
       50
176
     1
 90
        3
176
     1
 62
     5
420
      255
176
     1
290
     0
176
     1
 90
       50
176
     1
 90
       50
176
     1
 90
       50
176
     1
290
     0
176
     1
 90
       50
176
     1
 62
   256
176
     0
 40
1.0
176
     0
 90
        2
176
     1
  1
strokes_ogs.tif
176
     1
290
     0
176
     1
 40
1.0
176
     1
 40
1.0
176
     1
1001
ACAD
1000
AcDbSavedByObjectVersion
1070
     0
  0
VISUALSTYLE
  5
36
102
{ACAD_REACTORS
330
2A
102
}
330
2A
100
AcDbVisualStyle
  2
Brighten
 70
    12
177
     3
291
     1
 70
    58
 90
        2
176
     1
 90
        2
176
     1
 90
        0
176
     1
 90
        0
176
     1
 40
0.6
176
     1
 40
30.0
176
     1
 62
     7
420
 16777215
176
     1
 90
        1
176
     1
 90
        4
176
     1
 62
     7
176
     1
 62
   257
176
     1
 90
        1
176
     1
 90
        1
176
     1
 40
1.0
176
     1
 90
        8
176
     1
 62
     7
176
     1
 40
1.0
176
     1
 90
        1
176
     1
 90
        6
176
     1
 90
        2
176
     1
 62
     7
176
     1
 90
        5
176
     1
 90
        0
176
     1
 90
        0
176
     1
290
     0
176
     1
 90
        1
176
     1
 40
50.0
176
     1
 90
        0
176
     1
290
     0
176
     1
290
     1
176
     1
290
     1
176
     1
290
     0
176
     1
290
     0
176
     1
290
     0
176
     1
290
     0
176
     1
290
     0
176
     1
290
     0
176
     1
 90
       50
176
     1
 40
0.0
176
     1
 40
1.0
176
     1
 90
        0
176
     1
 62
    18
420
        0
176
     1
 90
       50
176
     1
 90
        3
176
     1
 62
     5
420
      255
176
     1
290
     0
176
     1
 90
       50
176
     1
 90
       50
176
     1
 90
       50
176
     1
290
     0
176
     1
 90
       50
176
     1
 62
   256
176
     0
 40
1.0
176
     0
 90
        2
176
     1
  1
strokes_ogs.tif
176
     1
290
     0
176
     1
 40
1.0
176
     1
 40
1.0
176
     1
1001
ACAD
1000
AcDbSavedByObjectVersion
1070
     0
  0
VISUALSTYLE
  5
3A
102
{ACAD_REACTORS
330
2A
102
}
330
2A
100
AcDbVisualStyle
  2
ColorChange
 70
    16
177
     3
291
     1
 70
    58
 90
        2
176
     1
 90
        2
176
     1
 90
        3
176
     1
 90
        0
176
     1
 40
0.6
176
     1
 40
30.0
176
     1
 62
     8
420
  8421504
176
     1
 90
        1
176
     1
 90
        4
176
     1
 62
     7
176
     1
 62
   257
176
     1
 90
        1
176
     1
 90
        1
176
     1
 40
1.0
176
     1
 90
        8
176
     1
 62
     8
420
  8421504
176
     1
 40
1.0
176
     1
 90
        1
176
     1
 90
        6
176
     1
 90
        2
176
     1
 62
     7
176
     1
 90
        5
176
     1
 90
        0
176
     1
 90
        0
176
     1
290
     0
176
     1
 90
        1
176
     1
 40
0.0
176
     1
 90
        0
176
     1
290
     0
176
     1
290
     1
176
     1
290
     1
176
     1
290
     0
176
     1
290
     0
176
     1
290
     0
176
     1
290
     0
176
     1
290
     0
176
     1
290
     0
176
     1
 90
       50
176
     1
 40
0.0
176
     1
 40
1.0
176
     1
 90
        0
176
     1
 62
    18
420
        0
176
     1
 90
       50
176
     1
 90
        3
176
     1
 62
     5
420
      255
176
     1
290
     0
176
     1
 90
       50
176
     1
 90
       50
176
     1
 90
       50
176
     1
290
     0
176
     1
 90
       50
176
     1
 62
   256
176
     0
 40
1.0
176
     0
 90
        2
176
     1
  1
strokes_ogs.tif
176
     1
290
     0
176
     1
 40
1.0
176
     1
 40
1.0
176
     1
1001
ACAD
1000
AcDbSavedByObjectVersion
1070
     0
  0
VISUALSTYLE
  5
34
102
{ACAD_REACTORS
330
2A
102
}
330
2A
100
AcDbVisualStyle
  2
Conceptual
 70
     9
177
     3
291
     0
 70
    58
 90
        3
176
     1
 90
        2
176
     1
 90
        0
176
     1
 90
        0
176
     1
 40
0.6
176
     1
 40
30.0
176
     1
 62
     7
420
 16777215
176
     1
 90
        2
176
     1
 90
        2
176
     1
 62
     7
176
     1
 62
   257
176
     1
 90
        1
176
     1
 90
        1
176
     1
 40
40.0
176
     1
 90
        8
176
     1
 62
     7
176
     1
 40
1.0
176
     1
 90
        1
176
     1
 90
        6
176
     1
 90
        2
176
     1
 62
     7
176
     1
 90
        3
176
     1
 90
        0
176
     1
 90
        0
176
     1
290
     0
176
     1
 90
        1
176
     1
 40
0.0
176
     1
 90
        0
176
     1
290
     0
176
     1
290
     1
176
     1
290
     1
176
     1
290
     0
176
     1
290
     0
176
     1
290
     0
176
     1
290
     0
176
     1
290
     0
176
     1
290
     0
176
     1
 90
       50
176
     1
 40
0.0
176
     1
 40
1.0
176
     1
 90
        0
176
     1
 62
    18
420
        0
176
     1
 90
       50
176
     1
 90
        3
176
     1
 62
     5
420
      255
176
     1
290
     0
176
     1
 90
       50
176
     1
 90
       50
176
     1
 90
       50
176
     1
290
     0
176
     1
 90
       50
176
     1
 62
   256
176
     0
 40
1.0
176
     0
 90
        2
176
     1
  1
strokes_ogs.tif
176
     1
290
     0
176
     1
 40
1.0
176
     1
 40
1.0
176
     1
1001
ACAD
1000
AcDbSavedByObjectVersion
1070
     0
  0
VISUALSTYLE
  5
35
102
{ACAD_REACTORS
330
2A
102
}
330
2A
100
AcDbVisualStyle
  2
Dim
 70
    11
177
     3
291
     1
 70
    58
 90
        2
176
     1
 90
        2
176
     1
 90
        0
176
     1
 90
        0
176
     1
 40
0.6
176
     1
 40
30.0
176
     1
 62
     7
420
 16777215
176
     1
 90
        1
176
     1
 90
        4
176
     1
 62
     7
176
     1
 62
   257
176
     1
 90
        1
176
     1
 90
        1
176
     1
 40
1.0
176
     1
 90
        8
176
     1
 62
     7
176
     1
 40
1.0
176
     1
 90
        1
176
     1
 90
        6
176
     1
 90
        2
176
     1
 62
     7
176
     1
 90
        5
176
     1
 90
        0
176
     1
 90
        0
176
     1
290
     0
176
     1
 90
        1
176
     1
 40
-50.0
176
     1
 90
        0
176
     1
290
     0
176
     1
290
     1
176
     1
290
     1
176
     1
290
     0
176
     1
290
     0
176
     1
290
     0
176
     1
290
     0
176
     1
290
     0
176
     1
290
     0
176
     1
 90
       50
176
     1
 40
0.0
176
     1
 40
1.0
176
     1
 90
        0
176
     1
 62
    18
420
        0
176
     1
 90
       50
176
     1
 90
        3
176
     1
 62
     5
420
      255
176
     1
290
     0
176
     1
 90
       50
176
     1
 90
       50
176
     1
 90
       50
176
     1
290
     0
176
     1
 90
       50
176
     1
 62
   256
176
     0
 40
1.0
176
     0
 90
        2
176
     1
  1
strokes_ogs.tif
176
     1
290
     0
176
     1
 40
1.0
176
     1
 40
1.0
176
     1
1001
ACAD
1000
AcDbSavedByObjectVersion
1070
     0
  0
VISUALSTYLE
  5
100
102
{ACAD_REACTORS
330
2A
102
}
330
2A
100
AcDbVisualStyle
  2
EdgeColorOff
 70
    22
177
     3
291
     1
 70
    58
 90
        2
176
     0
 90
        2
176
     0
 90
        0
176
     0
 90
        0
176
     0
 40
0.6
176
     0
 40
30.0
176
     0
 62
     7
420
 16777215
176
     0
 90
        1
176
     0
 90
        4
176
     0
 62
     7
176
     0
 62
   257
176
     0
 90
        1
176
     0
 90
        1
176
     0
 40
1.0
176
     0
 90
        8
176
     2
 62
     7
176
     0
 40
1.0
176
     0
 90
        1
176
     0
 90
        6
176
     0
 90
        2
176
     0
 62
     7
176
     0
 90
        5
176
     0
 90
        0
176
     0
 90
        0
176
     0
290
     0
176
     0
 90
        1
176
     0
 40
0.0
176
     0
 90
        0
176
     0
290
     0
176
     1
290
     1
176
     1
290
     1
176
     1
290
     0
176
     1
290
     0
176
     1
290
     0
176
     1
290
     0
176
     1
290
     0
176
     1
290
     0
176
     1
 90
       50
176
     0
 40
0.0
176
     0
 40
1.0
176
     0
 90
        0
176
     0
 62
    18
420
        0
176
     0
 90
       50
176
     0
 90
        3
176
     0
 62
     5
420
      255
176
     0
290
     0
176
     1
 90
       50
176
     0
 90
       50
176
     0
 90
       50
176
     0
290
     0
176
     1
 90
       50
176
     0
 62
   256
176
     0
 40
1.0
176
     0
 90
        2
176
     0
  1
strokes_ogs.tif
176
     0
290
     0
176
     1
 40
1.0
176
     0
 40
1.0
176
     0
1001
ACAD
1000
AcDbSavedByObjectVersion
1070
     0
  0
VISUALSTYLE
  5
39
102
{ACAD_REACTORS
330
2A
102
}
330
2A
100
AcDbVisualStyle
  2
Facepattern
 70
    15
177
     3
291
     1
 70
    58
 90
        2
176
     1
 90
        2
176
     1
 90
        0
176
     1
 90
        0
176
     1
 40
0.6
176
     1
 40
30.0
176
     1
 62
     7
420
 16777215
176
     1
 90
        1
176
     1
 90
        4
176
     1
 62
     7
176
     1
 62
   257
176
     1
 90
        1
176
     1
 90
        1
176
     1
 40
1.0
176
     1
 90
        8
176
     1
 62
     7
176
     1
 40
1.0
176
     1
 90
        1
176
     1
 90
        6
176
     1
 90
        2
176
     1
 62
     7
176
     1
 90
        5
176
     1
 90
        0
176
     1
 90
        0
176
     1
290
     0
176
     1
 90
        1
176
     1
 40
0.0
176
     1
 90
        0
176
     1
290
     0
176
     1
290
     1
176
     1
290
     1
176
     1
290
     0
176
     1
290
     0
176
     1
290
     0
176
     1
290
     0
176
     1
290
     0
176
     1
290
     0
176
     1
 90
       50
176
     1
 40
0.0
176
     1
 40
1.0
176
     1
 90
        0
176
     1
 62
    18
420
        0
176
     1
 90
       50
176
     1
 90
        3
176
     1
 62
     5
420
      255
176
     1
290
     0
176
     1
 90
       50
176
     1
 90
       50
176
     1
 90
       50
176
     1
290
     0
176
     1
 90
       50
176
     1
 62
   256
176
     0
 40
1.0
176
     0
 90
        2
176
     1
  1
strokes_ogs.tif
176
     1
290
     0
176
     1
 40
1.0
176
     1
 40
1.0
176
     1
1001
ACAD
1000
AcDbSavedByObjectVersion
1070
     0
  0
VISUALSTYLE
  5
2B
102
{ACAD_REACTORS
330
2A
102
}
330
2A
100
AcDbVisualStyle
  2
Flat
 70
     0
177
     3
291
     1
 70
    58
 90
        2
176
     1
 90
        1
176
     1
 90
        1
176
     1
 90
        2
176
     1
 40
0.6
176
     1
 40
30.0
176
     1
 62
     7
420
 16777215
176
     1
 90
        0
176
     1
 90
        4
176
     1
 62
     7
176
     1
 62
   257
176
     1
 90
        1
176
     1
 90
        1
176
     1
 40
1.0
176
     1
 90
        8
176
     1
 62
     7
176
     1
 40
1.0
176
     1
 90
        1
176
     1
 90
        6
176
     1
 90
        2
176
     1
 62
     7
176
     1
 90
        5
176
     1
 90
        0
176
     1
 90
        0
176
     1
290
     0
176
     1
 90
       13
176
     1
 40
0.0
176
     1
 90
        0
176
     1
290
     0
176
     1
290
     1
176
     1
290
     1
176
     1
290
     0
176
     1
290
     0
176
     1
290
     0
176
     1
290
     0
176
     1
290
     0
176
     1
290
     0
176
     1
 90
       50
176
     1
 40
0.0
176
     1
 40
1.0
176
     1
 90
        0
176
     1
 62
    18
420
        0
176
     1
 90
       50
176
     1
 90
        3
176
     1
 62
     5
420
      255
176
     1
290
     0
176
     1
 90
       50
176
     1
 90
       50
176
     1
 90
       50
176
     1
290
     0
176
     1
 90
       50
176
     1
 62
   256
176
     0
 40
1.0
176
     0
 90
        2
176
     1
  1
strokes_ogs.tif
176
     1
290
     0
176
     1
 40
1.0
176
     1
 40
1.0
176
     1
1001
ACAD
1000
AcDbSavedByObjectVersion
1070
     0
  0
VISUALSTYLE
  5
2C
102
{ACAD_REACTORS
330
2A
102
}
330
2A
100
AcDbVisualStyle
  2
FlatWithEdges
 70
     1
177
     3
291
     1
 70
    58
 90
        2
176
     1
 90
        1
176
     1
 90
        1
176
     1
 90
        2
176
     1
 40
0.6
176
     1
 40
30.0
176
     1
 62
     7
420
 16777215
176
     1
 90
        1
176
     1
 90
        4
176
     1
 62
     7
176
     1
 62
   257
176
     1
 90
        1
176
     1
 90
        1
176
     1
 40
1.0
176
     1
 90
        0
176
     1
 62
   257
176
     1
 40
1.0
176
     1
 90
        1
176
     1
 90
        6
176
     1
 90
        2
176
     1
 62
     7
176
     1
 90
        5
176
     1
 90
        0
176
     1
 90
        0
176
     1
290
     0
176
     1
 90
       13
176
     1
 40
0.0
176
     1
 90
        0
176
     1
290
     0
176
     1
290
     1
176
     1
290
     1
176
     1
290
     0
176
     1
290
     0
176
     1
290
     0
176
     1
290
     0
176
     1
290
     0
176
     1
290
     0
176
     1
 90
       50
176
     1
 40
0.0
176
     1
 40
1.0
176
     1
 90
        0
176
     1
 62
    18
420
        0
176
     1
 90
       50
176
     1
 90
        3
176
     1
 62
     5
420
      255
176
     1
290
     0
176
     1
 90
       50
176
     1
 90
       50
176
     1
 90
       50
176
     1
290
     0
176
     1
 90
       50
176
     1
 62
   256
176
     0
 40
1.0
176
     0
 90
        2
176
     1
  1
strokes_ogs.tif
176
     1
290
     0
176
     1
 40
1.0
176
     1
 40
1.0
176
     1
1001
ACAD
1000
AcDbSavedByObjectVersion
1070
     0
  0
VISUALSTYLE
  5
2D
102
{ACAD_REACTORS
330
2A
102
}
330
2A
100
AcDbVisualStyle
  2
Gouraud
 70
     2
177
     3
291
     1
 70
    58
 90
        2
176
     1
 90
        2
176
     1
 90
        1
176
     1
 90
        2
176
     1
 40
0.6
176
     1
 40
30.0
176
     1
 62
     7
420
 16777215
176
     1
 90
        0
176
     1
 90
        4
176
     1
 62
     7
176
     1
 62
   257
176
     1
 90
        1
176
     1
 90
        1
176
     1
 40
1.0
176
     1
 90
        0
176
     1
 62
     7
176
     1
 40
1.0
176
     1
 90
        1
176
     1
 90
        6
176
     1
 90
        2
176
     1
 62
     7
176
     1
 90
        5
176
     1
 90
        0
176
     1
 90
        0
176
     1
290
     0
176
     1
 90
       13
176
     1
 40
0.0
176
     1
 90
        0
176
     1
290
     0
176
     1
290
     1
176
     1
290
     1
176
     1
290
     0
176
     1
290
     0
176
     1
290
     0
176
     1
290
     0
176
     1
290
     0
176
     1
290
     0
176
     1
 90
       50
176
     1
 40
0.0
176
     1
 40
1.0
176
     1
 90
        0
176
     1
 62
    18
420
        0
176
     1
 90
       50
176
     1
 90
        3
176
     1
 62
     5
420
      255
176
     1
290
     0
176
     1
 90
       50
176
     1
 90
       50
176
     1
 90
       50
176
     1
290
     0
176
     1
 90
       50
176
     1
 62
   256
176
     0
 40
1.0
176
     0
 90
        2
176
     1
  1
strokes_ogs.tif
176
     1
290
     0
176
     1
 40
1.0
176
     1
 40
1.0
176
     1
1001
ACAD
1000
AcDbSavedByObjectVersion
1070
     0
  0
VISUALSTYLE
  5
2E
102
{ACAD_REACTORS
330
2A
102
}
330
2A
100
AcDbVisualStyle
  2
GouraudWithEdges
 70
     3
177
     3
291
     1
 70
    58
 90
        2
176
     1
 90
        2
176
     1
 90
        1
176
     1
 90
        2
176
     1
 40
0.6
176
     1
 40
30.0
176
     1
 62
     7
420
 16777215
176
     1
 90
        1
176
     1
 90
        4
176
     1
 62
     7
176
     1
 62
   257
176
     1
 90
        1
176
     1
 90
        1
176
     1
 40
1.0
176
     1
 90
        0
176
     1
 62
   257
176
     1
 40
1.0
176
     1
 90
        1
176
     1
 90
        6
176
     1
 90
        2
176
     1
 62
     7
176
     1
 90
        5
176
     1
 90
        0
176
     1
 90
        0
176
     1
290
     0
176
     1
 90
       13
176
     1
 40
0.0
176
     1
 90
        0
176
     1
290
     0
176
     1
290
     1
176
     1
290
     1
176
     1
290
     0
176
     1
290
     0
176
     1
290
     0
176
     1
290
     0
176
     1
290
     0
176
     1
290
     0
176
     1
 90
       50
176
     1
 40
0.0
176
     1
 40
1.0
176
     1
 90
        0
176
     1
 62
    18
420
        0
176
     1
 90
       50
176
     1
 90
        3
176
     1
 62
     5
420
      255
176
     1
290
     0
176
     1
 90
       50
176
     1
 90
       50
176
     1
 90
       50
176
     1
290
     0
176
     1
 90
       50
176
     1
 62
   256
176
     0
 40
1.0
176
     0
 90
        2
176
     1
  1
strokes_ogs.tif
176
     1
290
     0
176
     1
 40
1.0
176
     1
 40
1.0
176
     1
1001
ACAD
1000
AcDbSavedByObjectVersion
1070
     0
  0
VISUALSTYLE
  5
F8
102
{ACAD_REACTORS
330
2A
102
}
330
2A
100
AcDbVisualStyle
  2
Hidden
 70
     6
177
     3
291
     0
 70
    58
 90
        1
176
     1
 90
        2
176
     1
 90
        2
176
     1
 90
        0
176
     1
 40
0.6
176
     1
 40
30.0
176
     1
 62
     7
420
 16777215
176
     1
 90
        2
176
     1
 90
        2
176
     1
 62
     7
176
     1
 62
   257
176
     1
 90
        2
176
     1
 90
        1
176
     1
 40
40.0
176
     1
 90
        0
176
     1
 62
   257
176
     1
 40
1.0
176
     1
 90
        1
176
     1
 90
        6
176
     1
 90
        2
176
     1
 62
     7
176
     1
 90
        3
176
     1
 90
        0
176
     1
 90
        0
176
     1
290
     0
176
     1
 90
        1
176
     1
 40
0.0
176
     1
 90
        0
176
     1
290
     0
176
     1
290
     1
176
     1
290
     1
176
     1
290
     0
176
     1
290
     0
176
     1
290
     0
176
     1
290
     0
176
     1
290
     0
176
     1
290
     0
176
     1
 90
       50
176
     1
 40
0.0
176
     1
 40
1.0
176
     1
 90
        0
176
     1
 62
    18
420
        0
176
     1
 90
       50
176
     1
 90
        3
176
     1
 62
     5
420
      255
176
     1
290
     0
176
     1
 90
       50
176
     1
 90
       50
176
     1
 90
       50
176
     1
290
     0
176
     1
 90
       50
176
     1
 62
   256
176
     0
 40
1.0
176
     0
 90
        2
176
     1
  1
strokes_ogs.tif
176
     1
290
     0
176
     1
 40
1.0
176
     1
 40
1.0
176
     1
1001
ACAD
1000
AcDbSavedByObjectVersion
1070
     0
  0
VISUALSTYLE
  5
FE
102
{ACAD_REACTORS
330
2A
102
}
330
2A
100
AcDbVisualStyle
  2
JitterOff
 70
    20
177
     3
291
     1
 70
    58
 90
        2
176
     0
 90
        2
176
     0
 90
        0
176
     0
 90
        0
176
     0
 40
0.6
176
     0
 40
30.0
176
     0
 62
     7
420
 16777215
176
     0
 90
        1
176
     0
 90
        4
176
     0
 62
     7
176
     0
 62
   257
176
     0
 90
        1
176
     0
 90
        1
176
     0
 40
1.0
176
     0
 90
       10
176
     2
 62
     7
176
     0
 40
1.0
176
     0
 90
        1
176
     0
 90
        6
176
     0
 90
        2
176
     0
 62
     7
176
     0
 90
        5
176
     0
 90
        0
176
     0
 90
        0
176
     0
290
     0
176
     0
 90
        1
176
     0
 40
0.0
176
     0
 90
        0
176
     0
290
     0
176
     1
290
     1
176
     1
290
     1
176
     1
290
     0
176
     1
290
     0
176
     1
290
     0
176
     1
290
     0
176
     1
290
     0
176
     1
290
     0
176
     1
 90
       50
176
     0
 40
0.0
176
     0
 40
1.0
176
     0
 90
        0
176
     0
 62
    18
420
        0
176
     0
 90
       50
176
     0
 90
        3
176
     0
 62
     5
420
      255
176
     0
290
     0
176
     1
 90
       50
176
     0
 90
       50
176
     0
 90
       50
176
     0
290
     0
176
     1
 90
       50
176
     0
 62
   256
176
     0
 40
1.0
176
     0
 90
        2
176
     0
  1
strokes_ogs.tif
176
     0
290
     0
176
     1
 40
1.0
176
     0
 40
1.0
176
     0
1001
ACAD
1000
AcDbSavedByObjectVersion
1070
     0
  0
VISUALSTYLE
  5
38
102
{ACAD_REACTORS
330
2A
102
}
330
2A
100
AcDbVisualStyle
  2
Linepattern
 70
    14
177
     3
291
     1
 70
    58
 90
        2
176
     1
 90
        2
176
     1
 90
        0
176
     1
 90
        0
176
     1
 40
0.6
176
     1
 40
30.0
176
     1
 62
     7
420
 16777215
176
     1
 90
        1
176
     1
 90
        4
176
     1
 62
     7
176
     1
 62
   257
176
     1
 90
        7
176
     1
 90
        7
176
     1
 40
1.0
176
     1
 90
        8
176
     1
 62
     7
176
     1
 40
1.0
176
     1
 90
        1
176
     1
 90
        6
176
     1
 90
        2
176
     1
 62
     7
176
     1
 90
        5
176
     1
 90
        0
176
     1
 90
        0
176
     1
290
     0
176
     1
 90
        1
176
     1
 40
0.0
176
     1
 90
        0
176
     1
290
     0
176
     1
290
     1
176
     1
290
     1
176
     1
290
     0
176
     1
290
     0
176
     1
290
     0
176
     1
290
     0
176
     1
290
     0
176
     1
290
     0
176
     1
 90
       50
176
     1
 40
0.0
176
     1
 40
1.0
176
     1
 90
        0
176
     1
 62
    18
420
        0
176
     1
 90
       50
176
     1
 90
        3
176
     1
 62
     5
420
      255
176
     1
290
     0
176
     1
 90
       50
176
     1
 90
       50
176
     1
 90
       50
176
     1
290
     0
176
     1
 90
       50
176
     1
 62
   256
176
     0
 40
1.0
176
     0
 90
        2
176
     1
  1
strokes_ogs.tif
176
     1
290
     0
176
     1
 40
1.0
176
     1
 40
1.0
176
     1
1001
ACAD
1000
AcDbSavedByObjectVersion
1070
     0
  0
VISUALSTYLE
  5
FF
102
{ACAD_REACTORS
330
2A
102
}
330
2A
100
AcDbVisualStyle
  2
OverhangOff
 70
    21
177
     3
291
     1
 70
    58
 90
        2
176
     0
 90
        2
176
     0
 90
        0
176
     0
 90
        0
176
     0
 40
0.6
176
     0
 40
30.0
176
     0
 62
     7
420
 16777215
176
     0
 90
        1
176
     0
 90
        4
176
     0
 62
     7
176
     0
 62
   257
176
     0
 90
        1
176
     0
 90
        1
176
     0
 40
1.0
176
     0
 90
        9
176
     2
 62
     7
176
     0
 40
1.0
176
     0
 90
        1
176
     0
 90
        6
176
     0
 90
        2
176
     0
 62
     7
176
     0
 90
        5
176
     0
 90
        0
176
     0
 90
        0
176
     0
290
     0
176
     0
 90
        1
176
     0
 40
0.0
176
     0
 90
        0
176
     0
290
     0
176
     1
290
     1
176
     1
290
     1
176
     1
290
     0
176
     1
290
     0
176
     1
290
     0
176
     1
290
     0
176
     1
290
     0
176
     1
290
     0
176
     1
 90
       50
176
     0
 40
0.0
176
     0
 40
1.0
176
     0
 90
        0
176
     0
 62
    18
420
        0
176
     0
 90
       50
176
     0
 90
        3
176
     0
 62
     5
420
      255
176
     0
290
     0
176
     1
 90
       50
176
     0
 90
       50
176
     0
 90
       50
176
     0
290
     0
176
     1
 90
       50
176
     0
 62
   256
176
     0
 40
1.0
176
     0
 90
        2
176
     0
  1
strokes_ogs.tif
176
     0
290
     0
176
     1
 40
1.0
176
     0
 40
1.0
176
     0
1001
ACAD
1000
AcDbSavedByObjectVersion
1070
     0
  0
VISUALSTYLE
  5
33
102
{ACAD_REACTORS
330
2A
102
}
330
2A
100
AcDbVisualStyle
  2
Realistic
 70
     8
177
     3
291
     0
 70
    58
 90
        2
176
     1
 90
        2
176
     1
 90
        0
176
     1
 90
        0
176
     1
 40
0.6
176
     1
 40
30.0
176
     1
 62
     7
420
 16777215
176
     1
 90
        1
176
     1
 90
        0
176
     1
 62
     7
176
     1
 62
   257
176
     1
 90
        1
176
     1
 90
        1
176
     1
 40
1.0
176
     1
 90
        8
176
     1
 62
     8
420
  7895160
176
     1
 40
1.0
176
     1
 90
        1
176
     1
 90
        6
176
     1
 90
        2
176
     1
 62
     7
176
     1
 90
        5
176
     1
 90
        0
176
     1
 90
        0
176
     1
290
     0
176
     1
 90
       13
176
     1
 40
0.0
176
     1
 90
        0
176
     1
290
     0
176
     1
290
     1
176
     1
290
     1
176
     1
290
     0
176
     1
290
     0
176
     1
290
     0
176
     1
290
     0
176
     1
290
     0
176
     1
290
     0
176
     1
 90
       50
176
     1
 40
0.0
176
     1
 40
1.0
176
     1
 90
        0
176
     1
 62
    18
420
        0
176
     1
 90
       50
176
     1
 90
        3
176
     1
 62
     5
420
      255
176
     1
290
     0
176
     1
 90
       50
176
     1
 90
       50
176
     1
 90
       50
176
     1
290
     0
176
     1
 90
       50
176
     1
 62
   256
176
     0
 40
1.0
176
     0
 90
        2
176
     1
  1
strokes_ogs.tif
176
     1
290
     0
176
     1
 40
1.0
176
     1
 40
1.0
176
     1
1001
ACAD
1000
AcDbSavedByObjectVersion
1070
     0
  0
VISUALSTYLE
  5
FD
102
{ACAD_REACTORS
330
2A
102
}
330
2A
100
AcDbVisualStyle
  2
Shaded
 70
    27
177
     3
291
     0
 70
    58
 90
        2
176
     1
 90
        2
176
     1
 90
        1
176
     1
 90
        2
176
     1
 40
0.6
176
     1
 40
30.0
176
     1
 62
     7
420
 16777215
176
     1
 90
        0
176
     1
 90
        4
176
     1
 62
     7
176
     1
 62
   257
176
     1
 90
        1
176
     1
 90
        1
176
     1
 40
1.0
176
     1
 90
        8
176
     1
 62
   257
176
     1
 40
1.0
176
     1
 90
        1
176
     1
 90
        6
176
     1
 90
        2
176
     1
 62
     8
420
  7895160
176
     1
 90
        3
176
     1
 90
        0
176
     1
 90
        0
176
     1
290
     0
176
     1
 90
        5
176
     1
 40
0.0
176
     1
 90
        0
176
     1
290
     0
176
     1
290
     1
176
     1
290
     1
176
     1
290
     0
176
     1
290
     0
176
     1
290
     0
176
     1
290
     0
176
     1
290
     0
176
     1
290
     0
176
     1
 90
       50
176
     1
 40
0.0
176
     1
 40
1.0
176
     1
 90
        0
176
     1
 62
    18
420
        0
176
     1
 90
       50
176
     1
 90
        3
176
     1
 62
     5
420
      255
176
     1
290
     0
176
     1
 90
       50
176
     1
 90
       50
176
     1
 90
       50
176
     1
290
     0
176
     1
 90
       50
176
     1
 62
   256
176
     0
 40
1.0
176
     0
 90
        2
176
     1
  1
strokes_ogs.tif
176
     1
290
     0
176
     1
 40
1.0
176
     1
 40
1.0
176
     1
1001
ACAD
1000
AcDbSavedByObjectVersion
1070
     0
  0
VISUALSTYLE
  5
FC
102
{ACAD_REACTORS
330
2A
102
}
330
2A
100
AcDbVisualStyle
  2
Shaded with edges
 70
    26
177
     3
291
     0
 70
    58
 90
        2
176
     1
 90
        2
176
     1
 90
        1
176
     1
 90
        2
176
     1
 40
0.6
176
     1
 40
30.0
176
     1
 62
     7
420
 16777215
176
     1
 90
        1
176
     1
 90
        2
176
     1
 62
     7
176
     1
 62
   257
176
     1
 90
        2
176
     1
 90
        1
176
     1
 40
1.0
176
     1
 90
        8
176
     1
 62
   257
176
     1
 40
1.0
176
     1
 90
        1
176
     1
 90
        6
176
     1
 90
        2
176
     1
 62
     7
176
     1
 90
        3
176
     1
 90
        0
176
     1
 90
        0
176
     1
290
     0
176
     1
 90
        5
176
     1
 40
0.0
176
     1
 90
        0
176
     1
290
     0
176
     1
290
     1
176
     1
290
     1
176
     1
290
     0
176
     1
290
     0
176
     1
290
     0
176
     1
290
     0
176
     1
290
     0
176
     1
290
     0
176
     1
 90
       50
176
     1
 40
0.0
176
     1
 40
1.0
176
     1
 90
        0
176
     1
 62
    18
420
        0
176
     1
 90
       50
176
     1
 90
        3
176
     1
 62
     5
420
      255
176
     1
290
     0
176
     1
 90
       50
176
     1
 90
       50
176
     1
 90
       50
176
     1
290
     0
176
     1
 90
       50
176
     1
 62
   256
176
     0
 40
1.0
176
     0
 90
        2
176
     1
  1
strokes_ogs.tif
176
     1
290
     0
176
     1
 40
1.0
176
     1
 40
1.0
176
     1
1001
ACAD
1000
AcDbSavedByObjectVersion
1070
     0
  0
VISUALSTYLE
  5
F9
102
{ACAD_REACTORS
330
2A
102
}
330
2A
100
AcDbVisualStyle
  2
Shades of Gray
 70
    23
177
     3
291
     0
 70
    58
 90
        2
176
     1
 90
        2
176
     1
 90
        3
176
     1
 90
        0
176
     1
 40
0.6
176
     1
 40
30.0
176
     1
 62
     7
420
 16777215
176
     1
 90
        2
176
     1
 90
        2
176
     1
 62
     7
176
     1
 62
     7
176
     1
 90
        1
176
     1
 90
        1
176
     1
 40
40.0
176
     1
 90
        8
176
     1
 62
     7
176
     1
 40
1.0
176
     1
 90
        1
176
     1
 90
        6
176
     1
 90
        2
176
     1
 62
     7
176
     1
 90
        3
176
     1
 90
        0
176
     1
 90
        0
176
     1
290
     0
176
     1
 90
        1
176
     1
 40
0.0
176
     1
 90
        0
176
     1
290
     0
176
     1
290
     1
176
     1
290
     1
176
     1
290
     0
176
     1
290
     0
176
     1
290
     0
176
     1
290
     0
176
     1
290
     0
176
     1
290
     0
176
     1
 90
       50
176
     1
 40
0.0
176
     1
 40
1.0
176
     1
 90
        0
176
     1
 62
    18
420
        0
176
     1
 90
       50
176
     1
 90
        3
176
     1
 62
     5
420
      255
176
     1
290
     0
176
     1
 90
       50
176
     1
 90
       50
176
     1
 90
       50
176
     1
290
     0
176
     1
 90
       50
176
     1
 62
   256
176
     0
 40
1.0
176
     0
 90
        2
176
     1
  1
strokes_ogs.tif
176
     1
290
     0
176
     1
 40
1.0
176
     1
 40
1.0
176
     1
1001
ACAD
1000
AcDbSavedByObjectVersion
1070
     0
  0
VISUALSTYLE
  5
FA
102
{ACAD_REACTORS
330
2A
102
}
330
2A
100
AcDbVisualStyle
  2
Sketchy
 70
    24
177
     3
291
     0
 70
    58
 90
        1
176
     1
 90
        2
176
     1
 90
        2
176
     1
 90
        0
176
     1
 40
0.6
176
     1
 40
30.0
176
     1
 62
     7
420
 16777215
176
     1
 90
        2
176
     1
 90
        2
176
     1
 62
     7
176
     1
 62
     7
176
     1
 90
        1
176
     1
 90
        1
176
     1
 40
40.0
176
     1
 90
       11
176
     1
 62
     7
176
     1
 40
1.0
176
     1
 90
        1
176
     1
 90
        6
176
     1
 90
        2
176
     1
 62
     7
176
     1
 90
        6
176
     1
 90
        0
176
     1
 90
        0
176
     1
290
     0
176
     1
 90
        1
176
     1
 40
0.0
176
     1
 90
        0
176
     1
290
     0
176
     1
290
     1
176
     1
290
     1
176
     1
290
     0
176
     1
290
     0
176
     1
290
     0
176
     1
290
     0
176
     1
290
     0
176
     1
290
     0
176
     1
 90
       50
176
     1
 40
0.0
176
     1
 40
1.0
176
     1
 90
        0
176
     1
 62
    18
420
        0
176
     1
 90
       50
176
     1
 90
        3
176
     1
 62
     5
420
      255
176
     1
290
     0
176
     1
 90
       50
176
     1
 90
       50
176
     1
 90
       50
176
     1
290
     0
176
     1
 90
       50
176
     1
 62
   256
176
     0
 40
1.0
176
     0
 90
        2
176
     1
  1
strokes_ogs.tif
176
     1
290
     0
176
     1
 40
1.0
176
     1
 40
1.0
176
     1
1001
ACAD
1000
AcDbSavedByObjectVersion
1070
     0
  0
VISUALSTYLE
  5
37
102
{ACAD_REACTORS
330
2A
102
}
330
2A
100
AcDbVisualStyle
  2
Thicken
 70
    13
177
     3
291
     1
 70
    58
 90
        2
176
     1
 90
        2
176
     1
 90
        0
176
     1
 90
        0
176
     1
 40
0.6
176
     1
 40
30.0
176
     1
 62
     7
420
 16777215
176
     1
 90
        1
176
     1
 90
        4
176
     1
 62
     7
176
     1
 62
   257
176
     1
 90
        1
176
     1
 90
        1
176
     1
 40
1.0
176
     1
 90
       12
176
     1
 62
     7
176
     1
 40
1.0
176
     1
 90
        1
176
     1
 90
        6
176
     1
 90
        2
176
     1
 62
     7
176
     1
 90
        5
176
     1
 90
        0
176
     1
 90
        0
176
     1
290
     0
176
     1
 90
        1
176
     1
 40
0.0
176
     1
 90
        0
176
     1
290
     0
176
     1
290
     1
176
     1
290
     1
176
     1
290
     0
176
     1
290
     0
176
     1
290
     0
176
     1
290
     0
176
     1
290
     0
176
     1
290
     0
176
     1
 90
       50
176
     1
 40
0.0
176
     1
 40
1.0
176
     1
 90
        0
176
     1
 62
    18
420
        0
176
     1
 90
       50
176
     1
 90
        3
176
     1
 62
     5
420
      255
176
     1
290
     0
176
     1
 90
       50
176
     1
 90
       50
176
     1
 90
       50
176
     1
290
     0
176
     1
 90
       50
176
     1
 62
   256
176
     0
 40
1.0
176
     0
 90
        2
176
     1
  1
strokes_ogs.tif
176
     1
290
     0
176
     1
 40
1.0
176
     1
 40
1.0
176
     1
1001
ACAD
1000
AcDbSavedByObjectVersion
1070
     0
  0
VISUALSTYLE
  5
F7
102
{ACAD_REACTORS
330
2A
102
}
330
2A
100
AcDbVisualStyle
  2
Wireframe
 70
     5
177
     3
291
     0
 70
    58
 90
        0
176
     1
 90
        2
176
     1
 90
        0
176
     1
 90
        0
176
     1
 40
0.6
176
     1
 40
30.0
176
     1
 62
     7
420
 16777215
176
     1
 90
        1
176
     1
 90
        4
176
     1
 62
     7
176
     1
 62
   257
176
     1
 90
        1
176
     1
 90
        1
176
     1
 40
1.0
176
     1
 90
        0
176
     1
 62
   257
176
     1
 40
1.0
176
     1
 90
        1
176
     1
 90
        6
176
     1
 90
        2
176
     1
 62
     7
176
     1
 90
        3
176
     1
 90
        0
176
     1
 90
        0
176
     1
290
     0
176
     1
 90
        1
176
     1
 40
0.0
176
     1
 90
        0
176
     1
290
     0
176
     1
290
     1
176
     1
290
     1
176
     1
290
     0
176
     1
290
     0
176
     1
290
     0
176
     1
290
     0
176
     1
290
     0
176
     1
290
     0
176
     1
 90
       50
176
     1
 40
0.0
176
     1
 40
1.0
176
     1
 90
        0
176
     1
 62
    18
420
        0
176
     1
 90
       50
176
     1
 90
        3
176
     1
 62
     5
420
      255
176
     1
290
     0
176
     1
 90
       50
176
     1
 90
       50
176
     1
 90
       50
176
     1
290
     0
176
     1
 90
       50
176
     1
 62
   256
176
     0
 40
1.0
176
     0
 90
        2
176
     1
  1
strokes_ogs.tif
176
     1
290
     0
176
     1
 40
1.0
176
     1
 40
1.0
176
     1
1001
ACAD
1000
AcDbSavedByObjectVersion
1070
     0
  0
VISUALSTYLE
  5
FB
102
{ACAD_REACTORS
330
2A
102
}
330
2A
100
AcDbVisualStyle
  2
X-Ray
 70
    25
177
     3
291
     0
 70
    58
 90
        2
176
     1
 90
        2
176
     1
 90
        1
176
     1
 90
        1
176
     1
 40
0.5
176
     1
 40
30.0
176
     1
 62
     7
420
 16777215
176
     1
 90
        1
176
     1
 90
        0
176
     1
 62
     7
176
     1
 62
   257
176
     1
 90
        1
176
     1
 90
        1
176
     1
 40
1.0
176
     1
 90
        8
176
     1
 62
     7
176
     1
 40
1.0
176
     1
 90
        1
176
     1
 90
        6
176
     1
 90
        2
176
     1
 62
     7
176
     1
 90
        3
176
     1
 90
        0
176
     1
 90
        0
176
     1
290
     0
176
     1
 90
       13
176
     1
 40
0.0
176
     1
 90
        0
176
     1
290
     0
176
     1
290
     1
176
     1
290
     1
176
     1
290
     0
176
     1
290
     0
176
     1
290
     0
176
     1
290
     0
176
     1
290
     0
176
     1
290
     0
176
     1
 90
       50
176
     1
 40
0.0
176
     1
 40
1.0
176
     1
 90
        0
176
     1
 62
    18
420
        0
176
     1
 90
       50
176
     1
 90
        3
176
     1
 62
     5
420
      255
176
     1
290
     0
176
     1
 90
       50
176
     1
 90
       50
176
     1
 90
       50
176
     1
290
     0
176
     1
 90
       50
176
     1
 62
   256
176
     0
 40
1.0
176
     0
 90
        2
176
     1
  1
strokes_ogs.tif
176
     1
290
     0
176
     1
 40
1.0
176
     1
 40
1.0
176
     1
1001
ACAD
1000
AcDbSavedByObjectVersion
1070
     0
  0
DICTIONARYVAR
  5
1DB
102
{ACAD_REACTORS
330
1D6
102
}
330
1D6
100
DictionaryVariables
280
     0
  1
1:1
  0
DICTIONARYVAR
  5
1D8
102
{ACAD_REACTORS
330
1D6
102
}
330
1D6
100
DictionaryVariables
280
     0
  1
STANDARD
  0
DICTIONARYVAR
  5
1D7
102
{ACAD_REACTORS
330
1D6
102
}
330
1D6
100
DictionaryVariables
280
     0
  1
STANDARD
  0
DICTIONARYVAR
  5
1D9
102
{ACAD_REACTORS
330
1D6
102
}
330
1D6
100
DictionaryVariables
280
     0
  1
Imperial24
  0
DICTIONARYVAR
  5
1DA
102
{ACAD_REACTORS
330
1D6
102
}
330
1D6
100
DictionaryVariables
280
     0
  1
Imperial24
  0
DICTIONARY
  5
1E2
330
11D
100
AcDbDictionary
280
     1
281
     1
  3
ACAD_XREC_ROUNDTRIP
360
1E3
  0
DICTIONARY
  5
1E0
330
11B
100
AcDbDictionary
280
     1
281
     1
  3
ACAD_XREC_ROUNDTRIP
360
1E1
  0
DICTIONARY
  5
1DD
330
102
100
AcDbDictionary
280
     1
281
     1
  3
ACAD_ROUNDTRIP_2008_TABLESTYLE_CELLSTYLEMAP
360
1DE
  0
XRECORD
  5
1E3
102
{ACAD_REACTORS
330
1E2
102
}
330
1E2
100
AcDbXrecord
280
     1
102
DISPLAYNAME
  1
Imperial24
102
FLAGS
 90
        0
  0
XRECORD
  5
1E1
102
{ACAD_REACTORS
330
1E0
102
}
330
1E0
100
AcDbXrecord
280
     1
102
DISPLAYNAME
  1
Imperial24
102
FLAGS
 90
        0
  0
CELLSTYLEMAP
  5
1DE
102
{ACAD_REACTORS
330
1DD
102
}
330
1DD
100
AcDbCellStyleMap
 90
        3
300
CELLSTYLE
  1
TABLEFORMAT_BEGIN
 90
        5
170
     1
 91
        0
 92
    32768
 62
   257
 93
        1
300
CONTENTFORMAT
  1
CONTENTFORMAT_BEGIN
 90
        0
 91
        0
 92
      512
 93
        0
300

 40
0.0
140
1.0
 94
        5
 62
     0
340
11
144
0.25
309
CONTENTFORMAT_END
171
     0
 94
        0
309
TABLEFORMAT_END
  1
CELLSTYLE_BEGIN
 90
        1
 91
        1
300
_TITLE
309
CELLSTYLE_END
300
CELLSTYLE
  1
TABLEFORMAT_BEGIN
 90
        5
170
     1
 91
        0
 92
        0
 62
   257
 93
        1
300
CONTENTFORMAT
  1
CONTENTFORMAT_BEGIN
 90
        0
 91
        0
 92
      512
 93
        0
300

 40
0.0
140
1.0
 94
        5
 62
     0
340
11
144
0.18
309
CONTENTFORMAT_END
171
     0
 94
        0
309
TABLEFORMAT_END
  1
CELLSTYLE_BEGIN
 90
        2
 91
        1
300
_HEADER
309
CELLSTYLE_END
300
CELLSTYLE
  1
TABLEFORMAT_BEGIN
 90
        5
170
     1
 91
        0
 92
        0
 62
   257
 93
        1
300
CONTENTFORMAT
  1
CONTENTFORMAT_BEGIN
 90
        0
 91
        0
 92
      512
 93
        0
300

 40
0.0
140
1.0
 94
        2
 62
     0
340
11
144
0.18
309
CONTENTFORMAT_END
171
     0
 94
        0
309
TABLEFORMAT_END
  1
CELLSTYLE_BEGIN
 90
        3
 91
        2
300
_DATA
309
CELLSTYLE_END
  0
ENDSEC
  0
EOF
