  0
SECTION
  2
HEADER
  9
$ACADVER
  1
AC1027
  9
$ACADMAINTVER
 70
   125
  9
$DWGCODEPAGE
  3
ANSI_1252
  9
$LASTSAVEDBY
  1
ufficio.tecnico
  9
$REQUIREDVERSIONS
160
                 0
  9
$INSBASE
 10
0.0
 20
0.0
 30
0.0
  9
$EXTMIN
 10
6.881095918418613
 20
-9.109039168729683
 30
0.0
  9
$EXTMAX
 10
16.07391980934957
 20
-1.991800971724275
 30
0.0
  9
$LIMMIN
 10
0.0
 20
0.0
  9
$LIMMAX
 10
12.0
 20
9.0
  9
$ORTHOMODE
 70
     0
  9
$REGENMODE
 70
     1
  9
$FILLMODE
 70
     1
  9
$QTEXTMODE
 70
     0
  9
$MIRRTEXT
 70
     0
  9
$LTSCALE
 40
1.0
  9
$ATTMODE
 70
     1
  9
$TEXTSIZE
 40
0.2
  9
$TRACEWID
 40
0.05
  9
$TEXTSTYLE
  7
Standard
  9
$CLAYER
  8
0
  9
$CELTYPE
  6
ByLayer
  9
$CECOLOR
 62
   256
  9
$CELTSCALE
 40
1.0
  9
$DISPSILH
 70
     0
  9
$DIMSCALE
 40
1.0
  9
$DIMASZ
 40
0.18
  9
$DIMEXO
 40
0.0625
  9
$DIMDLI
 40
0.38
  9
$DIMRND
 40
0.0
  9
$DIMDLE
 40
0.0
  9
$DIMEXE
 40
0.18
  9
$DIMTP
 40
0.0
  9
$DIMTM
 40
0.0
  9
$DIMTXT
 40
0.18
  9
$DIMCEN
 40
0.09
  9
$DIMTSZ
 40
0.0
  9
$DIMTOL
 70
     0
  9
$DIMLIM
 70
     0
  9
$DIMTIH
 70
     1
  9
$DIMTOH
 70
     1
  9
$DIMSE1
 70
     0
  9
$DIMSE2
 70
     0
  9
$DIMTAD
 70
     0
  9
$DIMZIN
 70
     0
  9
$DIMBLK
  1

  9
$DIMASO
 70
     1
  9
$DIMSHO
 70
     1
  9
$DIMPOST
  1

  9
$DIMAPOST
  1

  9
$DIMALT
 70
     0
  9
$DIMALTD
 70
     2
  9
$DIMALTF
 40
25.4
  9
$DIMLFAC
 40
1.0
  9
$DIMTOFL
 70
     0
  9
$DIMTVP
 40
0.0
  9
$DIMTIX
 70
     0
  9
$DIMSOXD
 70
     0
  9
$DIMSAH
 70
     0
  9
$DIMBLK1
  1

  9
$DIMBLK2
  1

  9
$DIMSTYLE
  2
Standard
  9
$DIMCLRD
 70
     0
  9
$DIMCLRE
 70
     0
  9
$DIMCLRT
 70
     0
  9
$DIMTFAC
 40
1.0
  9
$DIMGAP
 40
0.09
  9
$DIMJUST
 70
     0
  9
$DIMSD1
 70
     0
  9
$DIMSD2
 70
     0
  9
$DIMTOLJ
 70
     1
  9
$DIMTZIN
 70
     0
  9
$DIMALTZ
 70
     0
  9
$DIMALTTZ
 70
     0
  9
$DIMUPT
 70
     0
  9
$DIMDEC
 70
     4
  9
$DIMTDEC
 70
     4
  9
$DIMALTU
 70
     2
  9
$DIMALTTD
 70
     2
  9
$DIMTXSTY
  7
Standard
  9
$DIMAUNIT
 70
     0
  9
$DIMADEC
 70
     0
  9
$DIMALTRND
 40
0.0
  9
$DIMAZIN
 70
     0
  9
$DIMDSEP
 70
    46
  9
$DIMATFIT
 70
     3
  9
$DIMFRAC
 70
     0
  9
$DIMLDRBLK
  1

  9
$DIMLUNIT
 70
     2
  9
$DIMLWD
 70
    -2
  9
$DIMLWE
 70
    -2
  9
$DIMTMOVE
 70
     0
  9
$DIMFXL
 40
1.0
  9
$DIMFXLON
 70
     0
  9
$DIMJOGANG
 40
0.7853981633974483
  9
$DIMTFILL
 70
     0
  9
$DIMTFILLCLR
 70
     0
  9
$DIMARCSYM
 70
     0
  9
$DIMLTYPE
  6

  9
$DIMLTEX1
  6

  9
$DIMLTEX2
  6

  9
$DIMTXTDIRECTION
 70
     0
  9
$LUNITS
 70
     2
  9
$LUPREC
 70
     4
  9
$SKETCHINC
 40
0.1
  9
$FILLETRAD
 40
0.0
  9
$AUNITS
 70
     0
  9
$AUPREC
 70
     0
  9
$MENU
  1
.
  9
$ELEVATION
 40
0.0
  9
$PELEVATION
 40
0.0
  9
$THICKNESS
 40
0.0
  9
$LIMCHECK
 70
     0
  9
$CHAMFERA
 40
0.0
  9
$CHAMFERB
 40
0.0
  9
$CHAMFERC
 40
0.0
  9
$CHAMFERD
 40
0.0
  9
$SKPOLY
 70
     0
  9
$TDCREATE
 40
2459328.413425926
  9
$TDUCREATE
 40
2459328.330092592
  9
$TDUPDATE
 40
2459341.346412037
  9
$TDUUPDATE
 40
2459341.263078704
  9
$TDINDWG
 40
0.0043171296
  9
$TDUSRTIMER
 40
0.0043171296
  9
$USRTIMER
 70
     1
  9
$ANGBASE
 50
0.0
  9
$ANGDIR
 70
     0
  9
$PDMODE
 70
     0
  9
$PDSIZE
 40
0.0
  9
$PLINEWID
 40
0.0
  9
$SPLFRAME
 70
     0
  9
$SPLINETYPE
 70
     6
  9
$SPLINESEGS
 70
     8
  9
$HANDSEED
  5
12D
  9
$SURFTAB1
 70
     6
  9
$SURFTAB2
 70
     6
  9
$SURFTYPE
 70
     6
  9
$SURFU
 70
     6
  9
$SURFV
 70
     6
  9
$UCSBASE
  2

  9
$UCSNAME
  2

  9
$UCSORG
 10
0.0
 20
0.0
 30
0.0
  9
$UCSXDIR
 10
1.0
 20
0.0
 30
0.0
  9
$UCSYDIR
 10
0.0
 20
1.0
 30
0.0
  9
$UCSORTHOREF
  2

  9
$UCSORTHOVIEW
 70
     0
  9
$UCSORGTOP
 10
0.0
 20
0.0
 30
0.0
  9
$UCSORGBOTTOM
 10
0.0
 20
0.0
 30
0.0
  9
$UCSORGLEFT
 10
0.0
 20
0.0
 30
0.0
  9
$UCSORGRIGHT
 10
0.0
 20
0.0
 30
0.0
  9
$UCSORGFRONT
 10
0.0
 20
0.0
 30
0.0
  9
$UCSORGBACK
 10
0.0
 20
0.0
 30
0.0
  9
$PUCSBASE
  2

  9
$PUCSNAME
  2

  9
$PUCSORG
 10
0.0
 20
0.0
 30
0.0
  9
$PUCSXDIR
 10
1.0
 20
0.0
 30
0.0
  9
$PUCSYDIR
 10
0.0
 20
1.0
 30
0.0
  9
$PUCSORTHOREF
  2

  9
$PUCSORTHOVIEW
 70
     0
  9
$PUCSORGTOP
 10
0.0
 20
0.0
 30
0.0
  9
$PUCSORGBOTTOM
 10
0.0
 20
0.0
 30
0.0
  9
$PUCSORGLEFT
 10
0.0
 20
0.0
 30
0.0
  9
$PUCSORGRIGHT
 10
0.0
 20
0.0
 30
0.0
  9
$PUCSORGFRONT
 10
0.0
 20
0.0
 30
0.0
  9
$PUCSORGBACK
 10
0.0
 20
0.0
 30
0.0
  9
$USERI1
 70
     0
  9
$USERI2
 70
     0
  9
$USERI3
 70
     0
  9
$USERI4
 70
     0
  9
$USERI5
 70
     0
  9
$USERR1
 40
0.0
  9
$USERR2
 40
0.0
  9
$USERR3
 40
0.0
  9
$USERR4
 40
0.0
  9
$USERR5
 40
0.0
  9
$WORLDVIEW
 70
     1
  9
$SHADEDGE
 70
     3
  9
$SHADEDIF
 70
    70
  9
$TILEMODE
 70
     1
  9
$MAXACTVP
 70
    64
  9
$PINSBASE
 10
0.0
 20
0.0
 30
0.0
  9
$PLIMCHECK
 70
     0
  9
$PEXTMIN
 10
1.000000000000000E+20
 20
1.000000000000000E+20
 30
1.000000000000000E+20
  9
$PEXTMAX
 10
-1.000000000000000E+20
 20
-1.000000000000000E+20
 30
-1.000000000000000E+20
  9
$PLIMMIN
 10
0.0
 20
0.0
  9
$PLIMMAX
 10
12.0
 20
9.0
  9
$UNITMODE
 70
     0
  9
$VISRETAIN
 70
     1
  9
$PLINEGEN
 70
     0
  9
$PSLTSCALE
 70
     1
  9
$TREEDEPTH
 70
  3020
  9
$CMLSTYLE
  2
Standard
  9
$CMLJUST
 70
     0
  9
$CMLSCALE
 40
1.0
  9
$PROXYGRAPHICS
 70
     1
  9
$MEASUREMENT
 70
     0
  9
$CELWEIGHT
370
    -1
  9
$ENDCAPS
280
     0
  9
$JOINSTYLE
280
     0
  9
$LWDISPLAY
290
     1
  9
$INSUNITS
 70
     5
  9
$HYPERLINKBASE
  1

  9
$STYLESHEET
  1

  9
$XEDIT
290
     1
  9
$CEPSNTYPE
380
     0
  9
$PSTYLEMODE
290
     1
  9
$FINGERPRINTGUID
  2
{6BD75456-13A4-AE43-A9E8-3E93EBBF1509}
  9
$VERSIONGUID
  2
{6F8D470C-CBEB-8141-A52E-C47719ED3636}
  9
$EXTNAMES
290
     1
  9
$PSVPSCALE
 40
0.0
  9
$OLESTARTUP
290
     0
  9
$SORTENTS
280
   127
  9
$INDEXCTL
280
     0
  9
$HIDETEXT
280
     1
  9
$XCLIPFRAME
280
     2
  9
$HALOGAP
280
     0
  9
$OBSCOLOR
 70
   257
  9
$OBSLTYPE
280
     0
  9
$INTERSECTIONDISPLAY
280
     0
  9
$INTERSECTIONCOLOR
 70
   257
  9
$DIMASSOC
280
     2
  9
$PROJECTNAME
  1

  9
$CAMERADISPLAY
290
     0
  9
$LENSLENGTH
 40
50.0
  9
$CAMERAHEIGHT
 40
0.0
  9
$STEPSPERSEC
 40
2.0
  9
$STEPSIZE
 40
6.0
  9
$3DDWFPREC
 40
2.0
  9
$PSOLWIDTH
 40
0.25
  9
$PSOLHEIGHT
 40
4.0
  9
$LOFTANG1
 40
1.570796326794896
  9
$LOFTANG2
 40
1.570796326794896
  9
$LOFTMAG1
 40
0.0
  9
$LOFTMAG2
 40
0.0
  9
$LOFTPARAM
 70
     7
  9
$LOFTNORMALS
280
     1
  9
$LATITUDE
 40
37.795
  9
$LONGITUDE
 40
-122.394
  9
$NORTHDIRECTION
 40
0.0
  9
$TIMEZONE
 70
 -8000
  9
$LIGHTGLYPHDISPLAY
280
     1
  9
$TILEMODELIGHTSYNCH
280
     1
  9
$CMATERIAL
347
11
  9
$SOLIDHIST
280
     0
  9
$SHOWHIST
280
     1
  9
$DWFFRAME
280
     2
  9
$DGNFRAME
280
     0
  9
$REALWORLDSCALE
290
     1
  9
$INTERFERECOLOR
 62
     1
  9
$INTERFEREOBJVS
345
33
  9
$INTERFEREVPVS
346
30
  9
$CSHADOW
280
     0
  9
$SHADOWPLANELOCATION
 40
0.0
  0
ENDSEC
  0
SECTION
  2
CLASSES
  0
CLASS
  1
ACDBDICTIONARYWDFLT
  2
AcDbDictionaryWithDefault
  3
ObjectDBX Classes
 90
        0
 91
        1
280
     0
281
     0
  0
CLASS
  1
MATERIAL
  2
AcDbMaterial
  3
ObjectDBX Classes
 90
     1153
 91
        3
280
     0
281
     0
  0
CLASS
  1
VISUALSTYLE
  2
AcDbVisualStyle
  3
ObjectDBX Classes
 90
     4095
 91
       24
280
     0
281
     0
  0
CLASS
  1
SCALE
  2
AcDbScale
  3
ObjectDBX Classes
 90
     1153
 91
       17
280
     0
281
     0
  0
CLASS
  1
TABLESTYLE
  2
AcDbTableStyle
  3
ObjectDBX Classes
 90
     4095
 91
        1
280
     0
281
     0
  0
CLASS
  1
MLEADERSTYLE
  2
AcDbMLeaderStyle
  3
ACDB_MLEADERSTYLE_CLASS
 90
     4095
 91
        1
280
     0
281
     0
  0
CLASS
  1
ACDBSECTIONVIEWSTYLE
  2
AcDbSectionViewStyle
  3
ObjectDBX Classes
 90
     1025
 91
        1
280
     0
281
     0
  0
CLASS
  1
ACDBDETAILVIEWSTYLE
  2
AcDbDetailViewStyle
  3
ObjectDBX Classes
 90
     1025
 91
        1
280
     0
281
     0
  0
CLASS
  1
DICTIONARYVAR
  2
AcDbDictionaryVar
  3
ObjectDBX Classes
 90
        0
 91
        5
280
     0
281
     0
  0
CLASS
  1
CELLSTYLEMAP
  2
AcDbCellStyleMap
  3
ObjectDBX Classes
 90
     1152
 91
        3
280
     0
281
     0
  0
CLASS
  1
SORTENTSTABLE
  2
AcDbSortentsTable
  3
ObjectDBX Classes
 90
        0
 91
        1
280
     0
281
     0
  0
ENDSEC
  0
SECTION
  2
TABLES
  0
TABLE
  2
VPORT
  5
8
330
0
100
AcDbSymbolTable
 70
     1
1001
ACAD
1000
DbSaveVer
1071
      105
  0
VPORT
  5
57
330
8
100
AcDbSymbolTableRecord
100
AcDbViewportTableRecord
  2
*Active
 70
     0
 10
0.0
 20
0.0
 11
1.0
 21
1.0
 12
-0.0166123864107029
 22
-4.085964876074125
 13
0.0
 23
0.0
 14
1.0
 24
1.0
 15
0.0
 25
0.0
 16
0.0
 26
0.0
 36
1.0
 17
10.50008280156501
 27
-5.732638887455728
 37
0.0
 40
18.0830127053699
 41
2.434394904458598
 42
50.0
 43
0.0
 44
0.0
 50
0.0
 51
0.0
 71
     0
 72
   100
 73
     1
 74
     0
 75
     1
 76
     0
 77
     0
 78
     0
281
     0
 65
     1
110
0.0
120
0.0
130
0.0
111
1.0
121
0.0
131
0.0
112
0.0
122
1.0
132
0.0
 79
     0
146
0.0
348
2F
 60
     3
 61
     5
292
     1
282
     1
141
0.0
142
0.0
 63
   250
421
  3355443
1001
ACAD_NAV_VCDISPLAY
1070
     3
  0
ENDTAB
  0
TABLE
  2
LTYPE
  5
5
330
0
100
AcDbSymbolTable
 70
     1
  0
LTYPE
  5
5B
330
5
100
AcDbSymbolTableRecord
100
AcDbLinetypeTableRecord
  2
ByBlock
 70
     0
  3

 72
    65
 73
     0
 40
0.0
  0
LTYPE
  5
5C
330
5
100
AcDbSymbolTableRecord
100
AcDbLinetypeTableRecord
  2
ByLayer
 70
     0
  3

 72
    65
 73
     0
 40
0.0
  0
LTYPE
  5
5D
330
5
100
AcDbSymbolTableRecord
100
AcDbLinetypeTableRecord
  2
Continuous
 70
     0
  3
Solid line
 72
    65
 73
     0
 40
0.0
  0
ENDTAB
  0
TABLE
  2
LAYER
  5
2
330
0
100
AcDbSymbolTable
 70
     2
  0
LAYER
  5
54
330
2
100
AcDbSymbolTableRecord
100
AcDbLayerTableRecord
  2
0
 70
     0
 62
     7
  6
Continuous
370
    -3
390
F
347
21
348
0
  0
LAYER
  5
78
330
2
100
AcDbSymbolTableRecord
100
AcDbLayerTableRecord
  2
Livello 1
 70
     0
 62
     7
  6
Continuous
370
     0
390
F
347
21
348
0
  0
ENDTAB
  0
TABLE
  2
STYLE
  5
3
330
0
100
AcDbSymbolTable
 70
     2
  0
STYLE
  5
55
330
3
100
AcDbSymbolTableRecord
100
AcDbTextStyleTableRecord
  2
Standard
 70
     0
 40
0.0
 41
1.0
 50
0.0
 71
     0
 42
0.2
  3
txt
  4

  0
STYLE
  5
5A
330
3
100
AcDbSymbolTableRecord
100
AcDbTextStyleTableRecord
  2
Annotative
 70
     0
 40
0.0
 41
1.0
 50
0.0
 71
     0
 42
0.2
  3
txt
  4

1001
AcadAnnotative
1000
AnnotativeData
1002
{
1070
     1
1070
     1
1002
}
  0
ENDTAB
  0
TABLE
  2
VIEW
  5
6
330
0
100
AcDbSymbolTable
 70
     0
  0
ENDTAB
  0
TABLE
  2
UCS
  5
7
330
0
100
AcDbSymbolTable
 70
     0
  0
ENDTAB
  0
TABLE
  2
APPID
  5
9
330
0
100
AcDbSymbolTable
 70
     3
  0
APPID
  5
56
330
9
100
AcDbSymbolTableRecord
100
AcDbRegAppTableRecord
  2
ACAD
 70
     0
  0
APPID
  5
5E
330
9
100
AcDbSymbolTableRecord
100
AcDbRegAppTableRecord
  2
AcadAnnotative
 70
     0
  0
APPID
  5
120
330
9
100
AcDbSymbolTableRecord
100
AcDbRegAppTableRecord
  2
ACAD_NAV_VCDISPLAY
 70
     0
  0
ENDTAB
  0
TABLE
  2
DIMSTYLE
  5
A
330
0
100
AcDbSymbolTable
 70
     2
100
AcDbDimStyleTable
 71
     0
  0
DIMSTYLE
105
58
330
A
100
AcDbSymbolTableRecord
100
AcDbDimStyleTableRecord
  2
Standard
 70
     0
340
55
  0
DIMSTYLE
105
59
330
A
100
AcDbSymbolTableRecord
100
AcDbDimStyleTableRecord
  2
Annotative
 70
     0
340
55
1001
AcadAnnotative
1000
AnnotativeData
1002
{
1070
     1
1070
     1
1002
}
  0
ENDTAB
  0
TABLE
  2
BLOCK_RECORD
  5
1
330
0
100
AcDbSymbolTable
 70
     7
  0
BLOCK_RECORD
  5
70
102
{ACAD_XDICTIONARY
360
F9
102
}
330
1
100
AcDbSymbolTableRecord
100
AcDbBlockTableRecord
  2
*Model_Space
340
73
 70
     0
280
     1
281
     0
  0
BLOCK_RECORD
  5
6C
330
1
100
AcDbSymbolTableRecord
100
AcDbBlockTableRecord
  2
*Paper_Space
340
6F
 70
     0
280
     1
281
     0
  0
BLOCK_RECORD
  5
74
330
1
100
AcDbSymbolTableRecord
100
AcDbBlockTableRecord
  2
*Paper_Space0
340
77
 70
     0
280
     1
281
     0
  0
BLOCK_RECORD
  5
8B
330
1
100
AcDbSymbolTableRecord
100
AcDbBlockTableRecord
  2
Block_0
340
0
 70
     0
280
     1
281
     0
  0
BLOCK_RECORD
  5
8F
330
1
100
AcDbSymbolTableRecord
100
AcDbBlockTableRecord
  2
Block_1
340
0
102
{BLKREFS
331
90
102
}
 70
     0
280
     1
281
     0
  0
BLOCK_RECORD
  5
9B
330
1
100
AcDbSymbolTableRecord
100
AcDbBlockTableRecord
  2
Block_2
340
0
 70
     0
280
     1
281
     0
  0
BLOCK_RECORD
  5
9F
330
1
100
AcDbSymbolTableRecord
100
AcDbBlockTableRecord
  2
Block_3
340
0
102
{BLKREFS
331
A0
102
}
 70
     0
280
     1
281
     0
  0
BLOCK_RECORD
  5
A8
330
1
100
AcDbSymbolTableRecord
100
AcDbBlockTableRecord
  2
Block_4
340
0
 70
     0
280
     1
281
     0
  0
BLOCK_RECORD
  5
AC
330
1
100
AcDbSymbolTableRecord
100
AcDbBlockTableRecord
  2
Block_5
340
0
102
{BLKREFS
331
AD
102
}
 70
     0
280
     1
281
     0
  0
ENDTAB
  0
ENDSEC
  0
SECTION
  2
BLOCKS
  0
BLOCK
  5
71
330
70
100
AcDbEntity
  8
0
100
AcDbBlockBegin
  2
*Model_Space
 70
     0
 10
0.0
 20
0.0
 30
0.0
  3
*Model_Space
  1

  0
ENDBLK
  5
72
330
70
100
AcDbEntity
  8
0
100
AcDbBlockEnd
  0
BLOCK
  5
6D
330
6C
100
AcDbEntity
 67
     1
  8
0
100
AcDbBlockBegin
  2
*Paper_Space
 70
     0
 10
0.0
 20
0.0
 30
0.0
  3
*Paper_Space
  1

  0
ENDBLK
  5
6E
330
6C
100
AcDbEntity
 67
     1
  8
0
100
AcDbBlockEnd
  0
BLOCK
  5
75
330
74
100
AcDbEntity
 67
     1
  8
0
100
AcDbBlockBegin
  2
*Paper_Space0
 70
     0
 10
0.0
 20
0.0
 30
0.0
  3
*Paper_Space0
  1

  0
ENDBLK
  5
76
330
74
100
AcDbEntity
 67
     1
  8
0
100
AcDbBlockEnd
  0
BLOCK
  5
8D
330
8B
100
AcDbEntity
  8
0
100
AcDbBlockBegin
  2
Block_0
 70
     0
 10
0.0
 20
0.0
 30
0.0
  3
Block_0
  1

  0
INSERT
  5
90
330
8B
100
AcDbEntity
  8
Livello 1
100
AcDbBlockReference
  2
Block_1
 10
0.0
 20
0.0
 30
0.0
  0
ENDBLK
  5
8E
330
8B
100
AcDbEntity
  8
0
100
AcDbBlockEnd
  0
BLOCK
  5
91
330
8F
100
AcDbEntity
  8
0
100
AcDbBlockBegin
  2
Block_1
 70
     0
 10
0.0
 20
0.0
 30
0.0
  3
Block_1
  1

  0
SPLINE
  5
93
330
8F
100
AcDbEntity
  8
Livello 1
100
AcDbSpline
210
0.0
220
0.0
230
1.0
 70
     9
 71
     3
 72
    17
 73
    13
 74
     0
 42
0.000000001
 43
0.0000000001
 40
0.0
 40
0.0
 40
0.0
 40
0.0
 40
1.0
 40
1.0
 40
1.0
 40
2.0
 40
2.0
 40
2.0
 40
3.0
 40
3.0
 40
3.0
 40
4.0
 40
4.0
 40
4.0
 40
4.0
 10
7.018227944208983
 20
-8.325555553474165
 30
0.0
 10
7.018227944208983
 20
-8.408100041300754
 30
0.0
 10
7.080446368672594
 20
-8.452541773060472
 30
0.0
 10
7.175686033362326
 20
-8.477932126786766
 30
0.0
 10
7.246810029655311
 20
-8.453816458390017
 30
0.0
 10
7.301414793096521
 20
-8.403018525460009
 30
0.0
 10
7.301414793096521
 20
-8.328087698655824
 30
0.0
 10
7.301414793096521
 20
-8.262062443681012
 30
0.0
 10
7.262037351700115
 20
-8.193487818047112
 30
0.0
 10
7.161716171169638
 20
-8.193487818047112
 30
0.0
 10
7.069025877138992
 20
-8.193487818047112
 30
0.0
 10
7.018227944208983
 20
-8.254448782658608
 30
0.0
 10
7.018227944208983
 20
-8.325555553474165
 30
0.0
  0
SPLINE
  5
94
330
8F
100
AcDbEntity
  8
Livello 1
100
AcDbSpline
210
0.0
220
0.0
230
1.0
 70
     9
 71
     3
 72
    17
 73
    13
 74
     0
 42
0.000000001
 43
0.0000000001
 40
0.0
 40
0.0
 40
0.0
 40
0.0
 40
1.0
 40
1.0
 40
1.0
 40
2.0
 40
2.0
 40
2.0
 40
3.0
 40
3.0
 40
3.0
 40
4.0
 40
4.0
 40
4.0
 40
4.0
 10
7.325530461493268
 20
-8.73826076712967
 30
0.0
 10
7.325530461493268
 20
-8.637939586599195
 30
0.0
 10
7.255698376007255
 20
-8.589673798850844
 30
0.0
 10
7.143939478465751
 20
-8.557927243954267
 30
0.0
 10
7.047442353923902
 20
-8.585866968339644
 30
0.0
 10
6.99536973566435
 20
-8.649360078132797
 30
0.0
 10
6.99536973566435
 20
-8.728097735448184
 30
0.0
 10
6.99156290515315
 20
-8.811899683126885
 30
0.0
 10
7.055056014946304
 20
-8.885555824601524
 30
0.0
 10
7.160458711317522
 20
-8.885555824601524
 30
0.0
 10
7.260762666370571
 20
-8.885555824601524
 30
0.0
 10
7.325530461493268
 20
-8.823337400137914
 30
0.0
 10
7.325530461493268
 20
-8.73826076712967
 30
0.0
  0
SPLINE
  5
95
330
8F
100
AcDbEntity
  8
Livello 1
100
AcDbSpline
210
0.0
220
0.0
230
1.0
 70
     9
 71
     3
 72
    35
 73
    31
 74
     0
 42
0.000000001
 43
0.0000000001
 40
0.0
 40
0.0
 40
0.0
 40
0.0
 40
1.0
 40
1.0
 40
1.0
 40
2.0
 40
2.0
 40
2.0
 40
3.0
 40
3.0
 40
3.0
 40
4.0
 40
4.0
 40
4.0
 40
5.0
 40
5.0
 40
5.0
 40
6.0
 40
6.0
 40
6.0
 40
7.0
 40
7.0
 40
7.0
 40
8.0
 40
8.0
 40
8.0
 40
9.0
 40
9.0
 40
9.0
 40
10.0
 40
10.0
 40
10.0
 40
10.0
 10
6.881095918418613
 20
-8.743325057492986
 30
0.0
 10
6.881095918418613
 20
-8.639197046451311
 30
0.0
 10
6.943314342882226
 20
-8.565558130454096
 30
0.0
 10
7.044892983264817
 20
-8.522373858546487
 30
0.0
 10
7.044892983264817
 20
-8.522373858546487
 30
0.0
 10
7.0436355234127
 20
-8.518567028035286
 30
0.0
 10
7.0436355234127
 20
-8.518567028035286
 30
0.0
 10
6.952202689234169
 20
-8.475399981605107
 30
0.0
 10
6.91284247331519
 20
-8.404275985312123
 30
0.0
 10
6.91284247331519
 20
-8.333169214496567
 30
0.0
 10
6.91284247331519
 20
-8.202376164399057
 30
0.0
 10
7.023309460049726
 20
-8.113492700879611
 30
0.0
 10
7.168072372339924
 20
-8.113492700879611
 30
0.0
 10
7.328079832152353
 20
-8.113492700879611
 30
0.0
 10
7.408074949319854
 20
-8.213813881410088
 30
0.0
 10
7.408074949319854
 20
-8.316667207122222
 30
0.0
 10
7.408074949319854
 20
-8.386499292608235
 30
0.0
 10
7.373779023764193
 20
-8.461430119412417
 30
0.0
 10
7.272200383381601
 20
-8.509678681683341
 30
0.0
 10
7.272200383381601
 20
-8.509678681683341
 30
0.0
 10
7.272200383381601
 20
-8.513485512194542
 30
0.0
 10
7.272200383381601
 20
-8.513485512194542
 30
0.0
 10
7.375053709093736
 20
-8.554120413443065
 30
0.0
 10
7.438546818886889
 20
-8.626501869588166
 30
0.0
 10
7.438546818886889
 20
-8.726823050118641
 30
0.0
 10
7.438546818886889
 20
-8.870311277079297
 30
0.0
 10
7.315367429811781
 20
-8.96682562709857
 30
0.0
 10
7.157909340658436
 20
-8.96682562709857
 30
0.0
 10
6.985223929460289
 20
-8.96682562709857
 30
0.0
 10
6.881095918418613
 20
-8.863972301386434
 30
0.0
 10
6.881095918418613
 20
-8.743325057492986
 30
0.0
  0
HATCH
  5
96
330
8F
100
AcDbEntity
  8
Livello 1
 62
   250
420
  1907995
440
 33554687
100
AcDbHatch
 10
0.0
 20
0.0
 30
0.0
210
0.0
220
0.0
230
1.0
  2
SOLID
 70
     1
 71
     1
 91
        3
 92
        1
 93
        1
 72
     4
 94
        3
 73
     0
 74
     0
 95
       17
 96
       13
 40
0.0
 40
0.0
 40
0.0
 40
0.0
 40
1.0
 40
1.0
 40
1.0
 40
2.0
 40
2.0
 40
2.0
 40
3.0
 40
3.0
 40
3.0
 40
4.0
 40
4.0
 40
4.0
 40
4.0
 10
7.018227944208983
 20
-8.325555553474165
 10
7.018227944208983
 20
-8.408100041300754
 10
7.080446368672594
 20
-8.452541773060472
 10
7.175686033362326
 20
-8.477932126786766
 10
7.246810029655311
 20
-8.453816458390017
 10
7.301414793096521
 20
-8.403018525460009
 10
7.301414793096521
 20
-8.328087698655824
 10
7.301414793096521
 20
-8.262062443681012
 10
7.262037351700115
 20
-8.193487818047112
 10
7.161716171169638
 20
-8.193487818047112
 10
7.069025877138992
 20
-8.193487818047112
 10
7.018227944208983
 20
-8.254448782658608
 10
7.018227944208983
 20
-8.325555553474165
 97
        0
 97
        1
330
93
 92
        1
 93
        1
 72
     4
 94
        3
 73
     0
 74
     0
 95
       17
 96
       13
 40
0.0
 40
0.0
 40
0.0
 40
0.0
 40
1.0
 40
1.0
 40
1.0
 40
2.0
 40
2.0
 40
2.0
 40
3.0
 40
3.0
 40
3.0
 40
4.0
 40
4.0
 40
4.0
 40
4.0
 10
7.325530461493268
 20
-8.73826076712967
 10
7.325530461493268
 20
-8.637939586599195
 10
7.255698376007255
 20
-8.589673798850844
 10
7.143939478465751
 20
-8.557927243954267
 10
7.047442353923902
 20
-8.585866968339644
 10
6.99536973566435
 20
-8.649360078132797
 10
6.99536973566435
 20
-8.728097735448184
 10
6.99156290515315
 20
-8.811899683126885
 10
7.055056014946304
 20
-8.885555824601524
 10
7.160458711317522
 20
-8.885555824601524
 10
7.260762666370571
 20
-8.885555824601524
 10
7.325530461493268
 20
-8.823337400137914
 10
7.325530461493268
 20
-8.73826076712967
 97
        0
 97
        1
330
94
 92
        1
 93
        1
 72
     4
 94
        3
 73
     0
 74
     0
 95
       35
 96
       31
 40
0.0
 40
0.0
 40
0.0
 40
0.0
 40
1.0
 40
1.0
 40
1.0
 40
2.0
 40
2.0
 40
2.0
 40
3.0
 40
3.0
 40
3.0
 40
4.0
 40
4.0
 40
4.0
 40
5.0
 40
5.0
 40
5.0
 40
6.0
 40
6.0
 40
6.0
 40
7.0
 40
7.0
 40
7.0
 40
8.0
 40
8.0
 40
8.0
 40
9.0
 40
9.0
 40
9.0
 40
10.0
 40
10.0
 40
10.0
 40
10.0
 10
6.881095918418613
 20
-8.743325057492986
 10
6.881095918418613
 20
-8.639197046451311
 10
6.943314342882226
 20
-8.565558130454096
 10
7.044892983264817
 20
-8.522373858546487
 10
7.044892983264817
 20
-8.522373858546487
 10
7.0436355234127
 20
-8.518567028035286
 10
7.0436355234127
 20
-8.518567028035286
 10
6.952202689234169
 20
-8.475399981605107
 10
6.91284247331519
 20
-8.404275985312123
 10
6.91284247331519
 20
-8.333169214496567
 10
6.91284247331519
 20
-8.202376164399057
 10
7.023309460049726
 20
-8.113492700879611
 10
7.168072372339924
 20
-8.113492700879611
 10
7.328079832152353
 20
-8.113492700879611
 10
7.408074949319854
 20
-8.213813881410088
 10
7.408074949319854
 20
-8.316667207122222
 10
7.408074949319854
 20
-8.386499292608235
 10
7.373779023764193
 20
-8.461430119412417
 10
7.272200383381601
 20
-8.509678681683341
 10
7.272200383381601
 20
-8.509678681683341
 10
7.272200383381601
 20
-8.513485512194542
 10
7.272200383381601
 20
-8.513485512194542
 10
7.375053709093736
 20
-8.554120413443065
 10
7.438546818886889
 20
-8.626501869588166
 10
7.438546818886889
 20
-8.726823050118641
 10
7.438546818886889
 20
-8.870311277079297
 10
7.315367429811781
 20
-8.96682562709857
 10
7.157909340658436
 20
-8.96682562709857
 10
6.985223929460289
 20
-8.96682562709857
 10
6.881095918418613
 20
-8.863972301386434
 10
6.881095918418613
 20
-8.743325057492986
 97
        0
 97
        1
330
95
 75
     2
 76
     1
 98
        1
 10
0.0
 20
0.0
450
        0
451
        0
460
0.0
461
0.0
452
        0
462
0.0
453
        0
470

  0
SPLINE
  5
97
330
8F
100
AcDbEntity
  8
Livello 1
100
AcDbSpline
210
0.0
220
0.0
230
1.0
 70
     9
 71
     3
 72
    17
 73
    13
 74
     0
 42
0.000000001
 43
0.0000000001
 40
0.0
 40
0.0
 40
0.0
 40
0.0
 40
1.0
 40
1.0
 40
1.0
 40
2.0
 40
2.0
 40
2.0
 40
3.0
 40
3.0
 40
3.0
 40
4.0
 40
4.0
 40
4.0
 40
4.0
 10
7.505915661100949
 20
-9.109039168729683
 30
0.0
 10
7.5338381600089
 20
-9.034125567402924
 30
0.0
 10
7.568134085564562
 20
-8.898251001464672
 30
0.0
 10
7.582103947757251
 20
-8.805560707434024
 30
0.0
 10
7.582103947757251
 20
-8.805560707434024
 30
0.0
 10
7.706540796684475
 20
-8.792848305093452
 30
0.0
 10
7.706540796684475
 20
-8.792848305093452
 30
0.0
 10
7.677343612446982
 20
-8.900800372123757
 30
0.0
 10
7.621464163676231
 20
-9.041739228425328
 30
0.0
 10
7.585910778268451
 20
-9.101425507707277
 30
0.0
 10
7.585910778268451
 20
-9.101425507707277
 30
0.0
 10
7.505915661100949
 20
-9.109039168729683
 30
0.0
 10
7.505915661100949
 20
-9.109039168729683
 30
0.0
  0
HATCH
  5
98
330
8F
100
AcDbEntity
  8
Livello 1
 62
   250
420
  1907995
440
 33554687
100
AcDbHatch
 10
0.0
 20
0.0
 30
0.0
210
0.0
220
0.0
230
1.0
  2
SOLID
 70
     1
 71
     1
 91
        1
 92
        1
 93
        1
 72
     4
 94
        3
 73
     0
 74
     0
 95
       17
 96
       13
 40
0.0
 40
0.0
 40
0.0
 40
0.0
 40
1.0
 40
1.0
 40
1.0
 40
2.0
 40
2.0
 40
2.0
 40
3.0
 40
3.0
 40
3.0
 40
4.0
 40
4.0
 40
4.0
 40
4.0
 10
7.505915661100949
 20
-9.109039168729683
 10
7.5338381600089
 20
-9.034125567402924
 10
7.568134085564562
 20
-8.898251001464672
 10
7.582103947757251
 20
-8.805560707434024
 10
7.582103947757251
 20
-8.805560707434024
 10
7.706540796684475
 20
-8.792848305093452
 10
7.706540796684475
 20
-8.792848305093452
 10
7.677343612446982
 20
-8.900800372123757
 10
7.621464163676231
 20
-9.041739228425328
 10
7.585910778268451
 20
-9.101425507707277
 10
7.585910778268451
 20
-9.101425507707277
 10
7.505915661100949
 20
-9.109039168729683
 10
7.505915661100949
 20
-9.109039168729683
 97
        0
 97
        1
330
97
 75
     2
 76
     1
 98
        1
 10
0.0
 20
0.0
450
        0
451
        0
460
0.0
461
0.0
452
        0
462
0.0
453
        0
470

  0
SPLINE
  5
99
330
8F
100
AcDbEntity
  8
Livello 1
100
AcDbSpline
210
0.0
220
0.0
230
1.0
 70
    11
 71
     3
 72
    50
 73
    46
 74
     0
 42
0.000000001
 43
0.0000000001
 40
0.0
 40
0.0
 40
0.0
 40
0.0
 40
1.0
 40
1.0
 40
1.0
 40
2.0
 40
2.0
 40
2.0
 40
3.0
 40
3.0
 40
3.0
 40
4.0
 40
4.0
 40
4.0
 40
5.0
 40
5.0
 40
5.0
 40
6.0
 40
6.0
 40
6.0
 40
7.0
 40
7.0
 40
7.0
 40
8.0
 40
8.0
 40
8.0
 40
9.0
 40
9.0
 40
9.0
 40
10.0
 40
10.0
 40
10.0
 40
11.0
 40
11.0
 40
11.0
 40
12.0
 40
12.0
 40
12.0
 40
13.0
 40
13.0
 40
13.0
 40
14.0
 40
14.0
 40
14.0
 40
15.0
 40
15.0
 40
15.0
 40
15.0
 10
8.298304848185837
 20
-8.22142754243249
 30
0.0
 10
8.298304848185837
 20
-8.22142754243249
 30
0.0
 10
7.983388669879151
 20
-8.22142754243249
 30
0.0
 10
7.983388669879151
 20
-8.22142754243249
 30
0.0
 10
7.983388669879151
 20
-8.22142754243249
 30
0.0
 10
7.951642114982575
 20
-8.433490395027043
 30
0.0
 10
7.951642114982575
 20
-8.433490395027043
 30
0.0
 10
7.970693493016005
 20
-8.430958249845383
 30
0.0
 10
7.988470185719894
 20
-8.428408879186298
 30
0.0
 10
8.018942055286927
 20
-8.428408879186298
 30
0.0
 10
8.082435165080083
 20
-8.428408879186298
 30
0.0
 10
8.14592827487324
 20
-8.442378741378986
 30
0.0
 10
8.196726207803246
 20
-8.47285061094602
 30
0.0
 10
8.261476777448518
 20
-8.509678681683341
 30
0.0
 10
8.31482408103761
 20
-8.580785452498901
 30
0.0
 10
8.31482408103761
 20
-8.684913463540576
 30
0.0
 10
8.31482408103761
 20
-8.846195608682545
 30
0.0
 10
8.186563176121763
 20
-8.96682562709857
 30
0.0
 10
8.007521563753327
 20
-8.96682562709857
 30
0.0
 10
7.917363414904339
 20
-8.96682562709857
 30
0.0
 10
7.841157902770611
 20
-8.941435273372279
 30
0.0
 10
7.801797686851632
 20
-8.916027694168562
 30
0.0
 10
7.801797686851632
 20
-8.916027694168562
 30
0.0
 10
7.829737411237008
 20
-8.830951061160316
 30
0.0
 10
7.829737411237008
 20
-8.830951061160316
 30
0.0
 10
7.864016111315245
 20
-8.851277124523289
 30
0.0
 10
7.931316051619599
 20
-8.876667478249581
 30
0.0
 10
8.006246878423784
 20
-8.876667478249581
 30
0.0
 10
8.111649574795004
 20
-8.876667478249581
 30
0.0
 10
8.201807723643991
 20
-8.808092852615683
 30
0.0
 10
8.201807723643991
 20
-8.697625865881146
 30
0.0
 10
8.20053303831445
 20
-8.590948484180387
 30
0.0
 10
8.129426267498892
 20
-8.514760197524086
 30
0.0
 10
7.964337291845719
 20
-8.514760197524086
 30
0.0
 10
7.917363414904339
 20
-8.514760197524086
 30
0.0
 10
7.880535344167017
 20
-8.519841713364828
 30
0.0
 10
7.850046249122557
 20
-8.523648543876031
 30
0.0
 10
7.850046249122557
 20
-8.523648543876031
 30
0.0
 10
7.903393552711651
 20
-8.127462563072301
 30
0.0
 10
7.903393552711651
 20
-8.127462563072301
 30
0.0
 10
7.903393552711651
 20
-8.127462563072301
 30
0.0
 10
8.298304848185837
 20
-8.127462563072301
 30
0.0
 10
8.298304848185837
 20
-8.127462563072301
 30
0.0
 10
8.298304848185837
 20
-8.127462563072301
 30
0.0
 10
8.298304848185837
 20
-8.22142754243249
 30
0.0
 10
8.298304848185837
 20
-8.22142754243249
 30
0.0
  0
HATCH
  5
9A
330
8F
100
AcDbEntity
  8
Livello 1
 62
   250
420
  1907995
440
 33554687
100
AcDbHatch
 10
0.0
 20
0.0
 30
0.0
210
0.0
220
0.0
230
1.0
  2
SOLID
 70
     1
 71
     1
 91
        1
 92
        1
 93
        1
 72
     4
 94
        3
 73
     0
 74
     0
 95
       50
 96
       46
 40
0.0
 40
0.0
 40
0.0
 40
0.0
 40
1.0
 40
1.0
 40
1.0
 40
2.0
 40
2.0
 40
2.0
 40
3.0
 40
3.0
 40
3.0
 40
4.0
 40
4.0
 40
4.0
 40
5.0
 40
5.0
 40
5.0
 40
6.0
 40
6.0
 40
6.0
 40
7.0
 40
7.0
 40
7.0
 40
8.0
 40
8.0
 40
8.0
 40
9.0
 40
9.0
 40
9.0
 40
10.0
 40
10.0
 40
10.0
 40
11.0
 40
11.0
 40
11.0
 40
12.0
 40
12.0
 40
12.0
 40
13.0
 40
13.0
 40
13.0
 40
14.0
 40
14.0
 40
14.0
 40
15.0
 40
15.0
 40
15.0
 40
15.0
 10
8.298304848185837
 20
-8.22142754243249
 10
8.298304848185837
 20
-8.22142754243249
 10
7.983388669879151
 20
-8.22142754243249
 10
7.983388669879151
 20
-8.22142754243249
 10
7.983388669879151
 20
-8.22142754243249
 10
7.951642114982575
 20
-8.433490395027043
 10
7.951642114982575
 20
-8.433490395027043
 10
7.970693493016005
 20
-8.430958249845383
 10
7.988470185719894
 20
-8.428408879186298
 10
8.018942055286927
 20
-8.428408879186298
 10
8.082435165080083
 20
-8.428408879186298
 10
8.14592827487324
 20
-8.442378741378986
 10
8.196726207803246
 20
-8.47285061094602
 10
8.261476777448518
 20
-8.509678681683341
 10
8.31482408103761
 20
-8.580785452498901
 10
8.31482408103761
 20
-8.684913463540576
 10
8.31482408103761
 20
-8.846195608682545
 10
8.186563176121763
 20
-8.96682562709857
 10
8.007521563753327
 20
-8.96682562709857
 10
7.917363414904339
 20
-8.96682562709857
 10
7.841157902770611
 20
-8.941435273372279
 10
7.801797686851632
 20
-8.916027694168562
 10
7.801797686851632
 20
-8.916027694168562
 10
7.829737411237008
 20
-8.830951061160316
 10
7.829737411237008
 20
-8.830951061160316
 10
7.864016111315245
 20
-8.851277124523289
 10
7.931316051619599
 20
-8.876667478249581
 10
8.006246878423784
 20
-8.876667478249581
 10
8.111649574795004
 20
-8.876667478249581
 10
8.201807723643991
 20
-8.808092852615683
 10
8.201807723643991
 20
-8.697625865881146
 10
8.20053303831445
 20
-8.590948484180387
 10
8.129426267498892
 20
-8.514760197524086
 10
7.964337291845719
 20
-8.514760197524086
 10
7.917363414904339
 20
-8.514760197524086
 10
7.880535344167017
 20
-8.519841713364828
 10
7.850046249122557
 20
-8.523648543876031
 10
7.850046249122557
 20
-8.523648543876031
 10
7.903393552711651
 20
-8.127462563072301
 10
7.903393552711651
 20
-8.127462563072301
 10
7.903393552711651
 20
-8.127462563072301
 10
8.298304848185837
 20
-8.127462563072301
 10
8.298304848185837
 20
-8.127462563072301
 10
8.298304848185837
 20
-8.127462563072301
 10
8.298304848185837
 20
-8.22142754243249
 10
8.298304848185837
 20
-8.22142754243249
 97
        0
 97
        1
330
99
 75
     2
 76
     1
 98
        1
 10
0.0
 20
0.0
450
        0
451
        0
460
0.0
461
0.0
452
        0
462
0.0
453
        0
470

  0
ENDBLK
  5
92
330
8F
100
AcDbEntity
  8
0
100
AcDbBlockEnd
  0
BLOCK
  5
9D
330
9B
100
AcDbEntity
  8
0
100
AcDbBlockBegin
  2
Block_2
 70
     0
 10
0.0
 20
0.0
 30
0.0
  3
Block_2
  1

  0
INSERT
  5
A0
330
9B
100
AcDbEntity
  8
Livello 1
100
AcDbBlockReference
  2
Block_3
 10
0.0
 20
0.0
 30
0.0
  0
ENDBLK
  5
9E
330
9B
100
AcDbEntity
  8
0
100
AcDbBlockEnd
  0
BLOCK
  5
A1
330
9F
100
AcDbEntity
  8
0
100
AcDbBlockBegin
  2
Block_3
 70
     0
 10
0.0
 20
0.0
 30
0.0
  3
Block_3
  1

  0
SPLINE
  5
A3
330
9F
100
AcDbEntity
  8
Livello 1
100
AcDbSpline
210
0.0
220
0.0
230
1.0
 70
     9
 71
     3
 72
    59
 73
    55
 74
     0
 42
0.000000001
 43
0.0000000001
 40
0.0
 40
0.0
 40
0.0
 40
0.0
 40
1.0
 40
1.0
 40
1.0
 40
2.0
 40
2.0
 40
2.0
 40
3.0
 40
3.0
 40
3.0
 40
4.0
 40
4.0
 40
4.0
 40
5.0
 40
5.0
 40
5.0
 40
6.0
 40
6.0
 40
6.0
 40
7.0
 40
7.0
 40
7.0
 40
8.0
 40
8.0
 40
8.0
 40
9.0
 40
9.0
 40
9.0
 40
10.0
 40
10.0
 40
10.0
 40
11.0
 40
11.0
 40
11.0
 40
12.0
 40
12.0
 40
12.0
 40
13.0
 40
13.0
 40
13.0
 40
14.0
 40
14.0
 40
14.0
 40
15.0
 40
15.0
 40
15.0
 40
16.0
 40
16.0
 40
16.0
 40
17.0
 40
17.0
 40
17.0
 40
18.0
 40
18.0
 40
18.0
 40
18.0
 10
10.87465060492022
 20
-8.824594859990028
 30
0.0
 10
10.90637993433936
 20
-8.844920923353004
 30
0.0
 10
10.98003607581402
 20
-8.876667478249581
 30
0.0
 10
11.05751627327729
 20
-8.876667478249581
 30
0.0
 10
11.20100450023794
 20
-8.876667478249581
 30
0.0
 10
11.24544623199766
 20
-8.785234644071051
 30
0.0
 10
11.24417154666812
 20
-8.716660018437151
 30
0.0
 10
11.24289686133858
 20
-8.601111515861871
 30
0.0
 10
11.13878607577433
 20
-8.551588268261408
 30
0.0
 10
11.03085123422145
 20
-8.551588268261408
 30
0.0
 10
11.03085123422145
 20
-8.551588268261408
 30
0.0
 10
10.96863280975784
 20
-8.551588268261408
 30
0.0
 10
10.96863280975784
 20
-8.551588268261408
 30
0.0
 10
10.96863280975784
 20
-8.551588268261408
 30
0.0
 10
10.96863280975784
 20
-8.467769095105277
 30
0.0
 10
10.96863280975784
 20
-8.467769095105277
 30
0.0
 10
10.96863280975784
 20
-8.467769095105277
 30
0.0
 10
11.03085123422145
 20
-8.467769095105277
 30
0.0
 10
11.03085123422145
 20
-8.467769095105277
 30
0.0
 10
11.11212103671849
 20
-8.467769095105277
 30
0.0
 10
11.2149571369532
 20
-8.425876734004638
 30
0.0
 10
11.2149571369532
 20
-8.328087698655824
 30
0.0
 10
11.2149571369532
 20
-8.262062443681012
 30
0.0
 10
11.17306477585256
 20
-8.2036508497286
 30
0.0
 10
11.070194224663
 20
-8.2036508497286
 30
0.0
 10
11.00418619516562
 20
-8.2036508497286
 30
0.0
 10
10.94069308537246
 20
-8.232848033966092
 30
0.0
 10
10.90513969996468
 20
-8.25825561316981
 30
0.0
 10
10.90513969996468
 20
-8.25825561316981
 30
0.0
 10
10.87592529024977
 20
-8.176985810672766
 30
0.0
 10
10.87592529024977
 20
-8.176985810672766
 30
0.0
 10
10.91909233667995
 20
-8.145239255776187
 30
0.0
 10
11.00291150983607
 20
-8.113492700879611
 30
0.0
 10
11.09179497335552
 20
-8.113492700879611
 30
0.0
 10
11.25433457834961
 20
-8.113492700879611
 30
0.0
 10
11.32799071982425
 20
-8.210007050898886
 30
0.0
 10
11.32799071982425
 20
-8.310311005951936
 30
0.0
 10
11.32799071982425
 20
-8.39538763896018
 30
0.0
 10
11.27717556141681
 20
-8.467769095105277
 30
0.0
 10
11.17561414651165
 20
-8.5045971658426
 30
0.0
 10
11.17561414651165
 20
-8.5045971658426
 30
0.0
 10
11.17561414651165
 20
-8.507146536501684
 30
0.0
 10
11.17561414651165
 20
-8.507146536501684
 30
0.0
 10
11.27717556141681
 20
-8.527455374387232
 30
0.0
 10
11.3597200492434
 20
-8.603643661043532
 30
0.0
 10
11.3597200492434
 20
-8.719209389096237
 30
0.0
 10
11.3597200492434
 20
-8.851277124523289
 30
0.0
 10
11.25688394900869
 20
-8.96682562709857
 30
0.0
 10
11.05879095860683
 20
-8.96682562709857
 30
0.0
 10
10.96608343909875
 20
-8.96682562709857
 30
0.0
 10
10.88481363660171
 20
-8.937611217383652
 30
0.0
 10
10.84416150987576
 20
-8.910946178327817
 30
0.0
 10
10.84416150987576
 20
-8.910946178327817
 30
0.0
 10
10.87465060492022
 20
-8.824594859990028
 30
0.0
 10
10.87465060492022
 20
-8.824594859990028
 30
0.0
  0
HATCH
  5
A4
330
9F
100
AcDbEntity
  8
Livello 1
 62
   250
420
  1907995
440
 33554687
100
AcDbHatch
 10
0.0
 20
0.0
 30
0.0
210
0.0
220
0.0
230
1.0
  2
SOLID
 70
     1
 71
     1
 91
        1
 92
        1
 93
        1
 72
     4
 94
        3
 73
     0
 74
     0
 95
       59
 96
       55
 40
0.0
 40
0.0
 40
0.0
 40
0.0
 40
1.0
 40
1.0
 40
1.0
 40
2.0
 40
2.0
 40
2.0
 40
3.0
 40
3.0
 40
3.0
 40
4.0
 40
4.0
 40
4.0
 40
5.0
 40
5.0
 40
5.0
 40
6.0
 40
6.0
 40
6.0
 40
7.0
 40
7.0
 40
7.0
 40
8.0
 40
8.0
 40
8.0
 40
9.0
 40
9.0
 40
9.0
 40
10.0
 40
10.0
 40
10.0
 40
11.0
 40
11.0
 40
11.0
 40
12.0
 40
12.0
 40
12.0
 40
13.0
 40
13.0
 40
13.0
 40
14.0
 40
14.0
 40
14.0
 40
15.0
 40
15.0
 40
15.0
 40
16.0
 40
16.0
 40
16.0
 40
17.0
 40
17.0
 40
17.0
 40
18.0
 40
18.0
 40
18.0
 40
18.0
 10
10.87465060492022
 20
-8.824594859990028
 10
10.90637993433936
 20
-8.844920923353004
 10
10.98003607581402
 20
-8.876667478249581
 10
11.05751627327729
 20
-8.876667478249581
 10
11.20100450023794
 20
-8.876667478249581
 10
11.24544623199766
 20
-8.785234644071051
 10
11.24417154666812
 20
-8.716660018437151
 10
11.24289686133858
 20
-8.601111515861871
 10
11.13878607577433
 20
-8.551588268261408
 10
11.03085123422145
 20
-8.551588268261408
 10
11.03085123422145
 20
-8.551588268261408
 10
10.96863280975784
 20
-8.551588268261408
 10
10.96863280975784
 20
-8.551588268261408
 10
10.96863280975784
 20
-8.551588268261408
 10
10.96863280975784
 20
-8.467769095105277
 10
10.96863280975784
 20
-8.467769095105277
 10
10.96863280975784
 20
-8.467769095105277
 10
11.03085123422145
 20
-8.467769095105277
 10
11.03085123422145
 20
-8.467769095105277
 10
11.11212103671849
 20
-8.467769095105277
 10
11.2149571369532
 20
-8.425876734004638
 10
11.2149571369532
 20
-8.328087698655824
 10
11.2149571369532
 20
-8.262062443681012
 10
11.17306477585256
 20
-8.2036508497286
 10
11.070194224663
 20
-8.2036508497286
 10
11.00418619516562
 20
-8.2036508497286
 10
10.94069308537246
 20
-8.232848033966092
 10
10.90513969996468
 20
-8.25825561316981
 10
10.90513969996468
 20
-8.25825561316981
 10
10.87592529024977
 20
-8.176985810672766
 10
10.87592529024977
 20
-8.176985810672766
 10
10.91909233667995
 20
-8.145239255776187
 10
11.00291150983607
 20
-8.113492700879611
 10
11.09179497335552
 20
-8.113492700879611
 10
11.25433457834961
 20
-8.113492700879611
 10
11.32799071982425
 20
-8.210007050898886
 10
11.32799071982425
 20
-8.310311005951936
 10
11.32799071982425
 20
-8.39538763896018
 10
11.27717556141681
 20
-8.467769095105277
 10
11.17561414651165
 20
-8.5045971658426
 10
11.17561414651165
 20
-8.5045971658426
 10
11.17561414651165
 20
-8.507146536501684
 10
11.17561414651165
 20
-8.507146536501684
 10
11.27717556141681
 20
-8.527455374387232
 10
11.3597200492434
 20
-8.603643661043532
 10
11.3597200492434
 20
-8.719209389096237
 10
11.3597200492434
 20
-8.851277124523289
 10
11.25688394900869
 20
-8.96682562709857
 10
11.05879095860683
 20
-8.96682562709857
 10
10.96608343909875
 20
-8.96682562709857
 10
10.88481363660171
 20
-8.937611217383652
 10
10.84416150987576
 20
-8.910946178327817
 10
10.84416150987576
 20
-8.910946178327817
 10
10.87465060492022
 20
-8.824594859990028
 10
10.87465060492022
 20
-8.824594859990028
 97
        0
 97
        1
330
A3
 75
     2
 76
     1
 98
        1
 10
0.0
 20
0.0
450
        0
451
        0
460
0.0
461
0.0
452
        0
462
0.0
453
        0
470

  0
SPLINE
  5
A5
330
9F
100
AcDbEntity
  8
Livello 1
100
AcDbSpline
210
0.0
220
0.0
230
1.0
 70
     9
 71
     3
 72
    17
 73
    13
 74
     0
 42
0.000000001
 43
0.0000000001
 40
0.0
 40
0.0
 40
0.0
 40
0.0
 40
1.0
 40
1.0
 40
1.0
 40
2.0
 40
2.0
 40
2.0
 40
3.0
 40
3.0
 40
3.0
 40
4.0
 40
4.0
 40
4.0
 40
4.0
 10
11.59977430265561
 20
-8.543974607239006
 30
0.0
 10
11.59977430265561
 20
-8.758569605015217
 30
0.0
 10
11.66581678310785
 20
-8.880474308760783
 30
0.0
 10
11.76741264896786
 20
-8.880474308760783
 30
0.0
 10
11.8816864662136
 20
-8.880474308760783
 30
0.0
 10
11.93629122965481
 20
-8.747149113481615
 30
0.0
 10
11.93629122965481
 20
-8.536343720739177
 30
0.0
 10
11.93629122965481
 20
-8.333169214496567
 30
0.0
 10
11.88423583687269
 20
-8.199844019217398
 30
0.0
 10
11.76868733429741
 20
-8.199844019217398
 30
0.0
 10
11.67088107347117
 20
-8.199844019217398
 30
0.0
 10
11.59977430265561
 20
-8.319199352303879
 30
0.0
 10
11.59977430265561
 20
-8.543974607239006
 30
0.0
  0
SPLINE
  5
A6
330
9F
100
AcDbEntity
  8
Livello 1
100
AcDbSpline
210
0.0
220
0.0
230
1.0
 70
     9
 71
     3
 72
    17
 73
    13
 74
     0
 42
0.000000001
 43
0.0000000001
 40
0.0
 40
0.0
 40
0.0
 40
0.0
 40
1.0
 40
1.0
 40
1.0
 40
2.0
 40
2.0
 40
2.0
 40
3.0
 40
3.0
 40
3.0
 40
4.0
 40
4.0
 40
4.0
 40
4.0
 10
12.04805012719632
 20
-8.531262204898434
 30
0.0
 10
12.04805012719632
 20
-8.811899683126885
 30
0.0
 10
11.94390489067721
 20
-8.96682562709857
 30
0.0
 10
11.76103922232015
 20
-8.96682562709857
 30
0.0
 10
11.59977430265561
 20
-8.96682562709857
 30
0.0
 10
11.49056477577319
 20
-8.815706513638087
 30
0.0
 10
11.48804985606896
 20
-8.542699921909463
 30
0.0
 10
11.48804985606896
 20
-8.265869274192212
 30
0.0
 10
11.60738796367801
 20
-8.113492700879611
 30
0.0
 10
11.77502630999027
 20
-8.113492700879611
 30
0.0
 10
11.94900363199538
 20
-8.113492700879611
 30
0.0
 10
12.04805012719632
 20
-8.268418644851298
 30
0.0
 10
12.04805012719632
 20
-8.531262204898434
 30
0.0
  0
HATCH
  5
A7
330
9F
100
AcDbEntity
  8
Livello 1
 62
   250
420
  1907995
440
 33554687
100
AcDbHatch
 10
0.0
 20
0.0
 30
0.0
210
0.0
220
0.0
230
1.0
  2
SOLID
 70
     1
 71
     1
 91
        2
 92
        1
 93
        1
 72
     4
 94
        3
 73
     0
 74
     0
 95
       17
 96
       13
 40
0.0
 40
0.0
 40
0.0
 40
0.0
 40
1.0
 40
1.0
 40
1.0
 40
2.0
 40
2.0
 40
2.0
 40
3.0
 40
3.0
 40
3.0
 40
4.0
 40
4.0
 40
4.0
 40
4.0
 10
11.59977430265561
 20
-8.543974607239006
 10
11.59977430265561
 20
-8.758569605015217
 10
11.66581678310785
 20
-8.880474308760783
 10
11.76741264896786
 20
-8.880474308760783
 10
11.8816864662136
 20
-8.880474308760783
 10
11.93629122965481
 20
-8.747149113481615
 10
11.93629122965481
 20
-8.536343720739177
 10
11.93629122965481
 20
-8.333169214496567
 10
11.88423583687269
 20
-8.199844019217398
 10
11.76868733429741
 20
-8.199844019217398
 10
11.67088107347117
 20
-8.199844019217398
 10
11.59977430265561
 20
-8.319199352303879
 10
11.59977430265561
 20
-8.543974607239006
 97
        0
 97
        1
330
A5
 92
        1
 93
        1
 72
     4
 94
        3
 73
     0
 74
     0
 95
       17
 96
       13
 40
0.0
 40
0.0
 40
0.0
 40
0.0
 40
1.0
 40
1.0
 40
1.0
 40
2.0
 40
2.0
 40
2.0
 40
3.0
 40
3.0
 40
3.0
 40
4.0
 40
4.0
 40
4.0
 40
4.0
 10
12.04805012719632
 20
-8.531262204898434
 10
12.04805012719632
 20
-8.811899683126885
 10
11.94390489067721
 20
-8.96682562709857
 10
11.76103922232015
 20
-8.96682562709857
 10
11.59977430265561
 20
-8.96682562709857
 10
11.49056477577319
 20
-8.815706513638087
 10
11.48804985606896
 20
-8.542699921909463
 10
11.48804985606896
 20
-8.265869274192212
 10
11.60738796367801
 20
-8.113492700879611
 10
11.77502630999027
 20
-8.113492700879611
 10
11.94900363199538
 20
-8.113492700879611
 10
12.04805012719632
 20
-8.268418644851298
 10
12.04805012719632
 20
-8.531262204898434
 97
        0
 97
        1
330
A6
 75
     2
 76
     1
 98
        1
 10
0.0
 20
0.0
450
        0
451
        0
460
0.0
461
0.0
452
        0
462
0.0
453
        0
470

  0
ENDBLK
  5
A2
330
9F
100
AcDbEntity
  8
0
100
AcDbBlockEnd
  0
BLOCK
  5
AA
330
A8
100
AcDbEntity
  8
0
100
AcDbBlockBegin
  2
Block_4
 70
     0
 10
0.0
 20
0.0
 30
0.0
  3
Block_4
  1

  0
INSERT
  5
AD
330
A8
100
AcDbEntity
  8
Livello 1
100
AcDbBlockReference
  2
Block_5
 10
0.0
 20
0.0
 30
0.0
  0
ENDBLK
  5
AB
330
A8
100
AcDbEntity
  8
0
100
AcDbBlockEnd
  0
BLOCK
  5
AE
330
AC
100
AcDbEntity
  8
0
100
AcDbBlockBegin
  2
Block_5
 70
     0
 10
0.0
 20
0.0
 30
0.0
  3
Block_5
  1

  0
SPLINE
  5
B0
330
AC
100
AcDbEntity
  8
Livello 1
100
AcDbSpline
210
0.0
220
0.0
230
1.0
 70
     9
 71
     3
 72
    59
 73
    55
 74
     0
 42
0.000000001
 43
0.0000000001
 40
0.0
 40
0.0
 40
0.0
 40
0.0
 40
1.0
 40
1.0
 40
1.0
 40
2.0
 40
2.0
 40
2.0
 40
3.0
 40
3.0
 40
3.0
 40
4.0
 40
4.0
 40
4.0
 40
5.0
 40
5.0
 40
5.0
 40
6.0
 40
6.0
 40
6.0
 40
7.0
 40
7.0
 40
7.0
 40
8.0
 40
8.0
 40
8.0
 40
9.0
 40
9.0
 40
9.0
 40
10.0
 40
10.0
 40
10.0
 40
11.0
 40
11.0
 40
11.0
 40
12.0
 40
12.0
 40
12.0
 40
13.0
 40
13.0
 40
13.0
 40
14.0
 40
14.0
 40
14.0
 40
15.0
 40
15.0
 40
15.0
 40
16.0
 40
16.0
 40
16.0
 40
17.0
 40
17.0
 40
17.0
 40
18.0
 40
18.0
 40
18.0
 40
18.0
 10
15.93170626771846
 20
-5.312388914687527
 30
0.0
 10
15.95203233108143
 20
-5.28064235979095
 30
0.0
 10
15.98376166050059
 20
-5.206986218316308
 30
0.0
 10
15.98376166050059
 20
-5.129523246330466
 30
0.0
 10
15.98376166050059
 20
-4.986035019369808
 30
0.0
 10
15.89232882632205
 20
-4.941593287610086
 30
0.0
 10
15.82377142616558
 20
-4.942850747462203
 30
0.0
 10
15.7082229235903
 20
-4.944125432791746
 30
0.0
 10
15.65868245051241
 20
-5.048253443833422
 30
0.0
 10
15.65868245051241
 20
-5.156188285386298
 30
0.0
 10
15.65868245051241
 20
-5.156188285386298
 30
0.0
 10
15.65868245051241
 20
-5.218406709849912
 30
0.0
 10
15.65868245051241
 20
-5.218406709849912
 30
0.0
 10
15.65868245051241
 20
-5.218406709849912
 30
0.0
 10
15.57486327735628
 20
-5.218406709849912
 30
0.0
 10
15.57486327735628
 20
-5.218406709849912
 30
0.0
 10
15.57486327735628
 20
-5.218406709849912
 30
0.0
 10
15.57486327735628
 20
-5.156188285386298
 30
0.0
 10
15.57486327735628
 20
-5.156188285386298
 30
0.0
 10
15.57486327735628
 20
-5.074918482889255
 30
0.0
 10
15.53297091625564
 20
-4.972065157177122
 30
0.0
 10
15.43519910638425
 20
-4.972065157177122
 30
0.0
 10
15.36915662593201
 20
-4.972065157177122
 30
0.0
 10
15.31076225745703
 20
-5.013974743755186
 30
0.0
 10
15.31076225745703
 20
-5.11682806946732
 30
0.0
 10
15.31076225745703
 20
-5.182853324442132
 30
0.0
 10
15.33994221621709
 20
-5.246346434235287
 30
0.0
 10
15.36536702089824
 20
-5.281899819643066
 30
0.0
 10
15.36536702089824
 20
-5.281899819643066
 30
0.0
 10
15.2840972184012
 20
-5.311114229357983
 30
0.0
 10
15.2840972184012
 20
-5.311114229357983
 30
0.0
 10
15.25233343802718
 20
-5.267929957450378
 30
0.0
 10
15.22060410860803
 20
-5.184128009771676
 30
0.0
 10
15.22060410860803
 20
-5.09524454625223
 30
0.0
 10
15.22060410860803
 20
-4.93270494125814
 30
0.0
 10
15.31710123314989
 20
-4.859048799783501
 30
0.0
 10
15.41742241368036
 20
-4.859048799783501
 30
0.0
 10
15.50248182121118
 20
-4.859048799783501
 30
0.0
 10
15.57486327735628
 20
-4.909846732713509
 30
0.0
 10
15.6116913480936
 20
-5.011425373096101
 30
0.0
 10
15.6116913480936
 20
-5.011425373096101
 30
0.0
 10
15.61424071875269
 20
-5.011425373096101
 30
0.0
 10
15.61424071875269
 20
-5.011425373096101
 30
0.0
 10
15.63456678211566
 20
-4.909846732713509
 30
0.0
 10
15.71073784329453
 20
-4.827302244886923
 30
0.0
 10
15.82632079682467
 20
-4.827302244886923
 30
0.0
 10
15.95837130677429
 20
-4.827302244886923
 30
0.0
 10
16.07391980934957
 20
-4.930155570599056
 30
0.0
 10
16.07391980934957
 20
-5.128248561000923
 30
0.0
 10
16.07391980934957
 20
-5.220956080508996
 30
0.0
 10
16.04470539963465
 20
-5.302225883006039
 30
0.0
 10
16.01804036057882
 20
-5.342860784254561
 30
0.0
 10
16.01804036057882
 20
-5.342860784254561
 30
0.0
 10
15.93170626771846
 20
-5.312388914687527
 30
0.0
 10
15.93170626771846
 20
-5.312388914687527
 30
0.0
  0
HATCH
  5
B1
330
AC
100
AcDbEntity
  8
Livello 1
 62
   250
420
  1907995
440
 33554687
100
AcDbHatch
 10
0.0
 20
0.0
 30
0.0
210
0.0
220
0.0
230
1.0
  2
SOLID
 70
     1
 71
     1
 91
        1
 92
        1
 93
        1
 72
     4
 94
        3
 73
     0
 74
     0
 95
       59
 96
       55
 40
0.0
 40
0.0
 40
0.0
 40
0.0
 40
1.0
 40
1.0
 40
1.0
 40
2.0
 40
2.0
 40
2.0
 40
3.0
 40
3.0
 40
3.0
 40
4.0
 40
4.0
 40
4.0
 40
5.0
 40
5.0
 40
5.0
 40
6.0
 40
6.0
 40
6.0
 40
7.0
 40
7.0
 40
7.0
 40
8.0
 40
8.0
 40
8.0
 40
9.0
 40
9.0
 40
9.0
 40
10.0
 40
10.0
 40
10.0
 40
11.0
 40
11.0
 40
11.0
 40
12.0
 40
12.0
 40
12.0
 40
13.0
 40
13.0
 40
13.0
 40
14.0
 40
14.0
 40
14.0
 40
15.0
 40
15.0
 40
15.0
 40
16.0
 40
16.0
 40
16.0
 40
17.0
 40
17.0
 40
17.0
 40
18.0
 40
18.0
 40
18.0
 40
18.0
 10
15.93170626771846
 20
-5.312388914687527
 10
15.95203233108143
 20
-5.28064235979095
 10
15.98376166050059
 20
-5.206986218316308
 10
15.98376166050059
 20
-5.129523246330466
 10
15.98376166050059
 20
-4.986035019369808
 10
15.89232882632205
 20
-4.941593287610086
 10
15.82377142616558
 20
-4.942850747462203
 10
15.7082229235903
 20
-4.944125432791746
 10
15.65868245051241
 20
-5.048253443833422
 10
15.65868245051241
 20
-5.156188285386298
 10
15.65868245051241
 20
-5.156188285386298
 10
15.65868245051241
 20
-5.218406709849912
 10
15.65868245051241
 20
-5.218406709849912
 10
15.65868245051241
 20
-5.218406709849912
 10
15.57486327735628
 20
-5.218406709849912
 10
15.57486327735628
 20
-5.218406709849912
 10
15.57486327735628
 20
-5.218406709849912
 10
15.57486327735628
 20
-5.156188285386298
 10
15.57486327735628
 20
-5.156188285386298
 10
15.57486327735628
 20
-5.074918482889255
 10
15.53297091625564
 20
-4.972065157177122
 10
15.43519910638425
 20
-4.972065157177122
 10
15.36915662593201
 20
-4.972065157177122
 10
15.31076225745703
 20
-5.013974743755186
 10
15.31076225745703
 20
-5.11682806946732
 10
15.31076225745703
 20
-5.182853324442132
 10
15.33994221621709
 20
-5.246346434235287
 10
15.36536702089824
 20
-5.281899819643066
 10
15.36536702089824
 20
-5.281899819643066
 10
15.2840972184012
 20
-5.311114229357983
 10
15.2840972184012
 20
-5.311114229357983
 10
15.25233343802718
 20
-5.267929957450378
 10
15.22060410860803
 20
-5.184128009771676
 10
15.22060410860803
 20
-5.09524454625223
 10
15.22060410860803
 20
-4.93270494125814
 10
15.31710123314989
 20
-4.859048799783501
 10
15.41742241368036
 20
-4.859048799783501
 10
15.50248182121118
 20
-4.859048799783501
 10
15.57486327735628
 20
-4.909846732713509
 10
15.6116913480936
 20
-5.011425373096101
 10
15.6116913480936
 20
-5.011425373096101
 10
15.61424071875269
 20
-5.011425373096101
 10
15.61424071875269
 20
-5.011425373096101
 10
15.63456678211566
 20
-4.909846732713509
 10
15.71073784329453
 20
-4.827302244886923
 10
15.82632079682467
 20
-4.827302244886923
 10
15.95837130677429
 20
-4.827302244886923
 10
16.07391980934957
 20
-4.930155570599056
 10
16.07391980934957
 20
-5.128248561000923
 10
16.07391980934957
 20
-5.220956080508996
 10
16.04470539963465
 20
-5.302225883006039
 10
16.01804036057882
 20
-5.342860784254561
 10
16.01804036057882
 20
-5.342860784254561
 10
15.93170626771846
 20
-5.312388914687527
 10
15.93170626771846
 20
-5.312388914687527
 97
        0
 97
        1
330
B0
 75
     2
 76
     1
 98
        1
 10
0.0
 20
0.0
450
        0
451
        0
460
0.0
461
0.0
452
        0
462
0.0
453
        0
470

  0
SPLINE
  5
B2
330
AC
100
AcDbEntity
  8
Livello 1
100
AcDbSpline
210
0.0
220
0.0
230
1.0
 70
     9
 71
     3
 72
    17
 73
    13
 74
     0
 42
0.000000001
 43
0.0000000001
 40
0.0
 40
0.0
 40
0.0
 40
0.0
 40
1.0
 40
1.0
 40
1.0
 40
2.0
 40
2.0
 40
2.0
 40
3.0
 40
3.0
 40
3.0
 40
4.0
 40
4.0
 40
4.0
 40
4.0
 10
15.65106878949001
 20
-4.587247991474715
 30
0.0
 10
15.86566378726622
 20
-4.587247991474715
 30
0.0
 10
15.98758571648921
 20
-4.521205511022476
 30
0.0
 10
15.98758571648921
 20
-4.419626870639883
 30
0.0
 10
15.98758571648921
 20
-4.305335827916721
 30
0.0
 10
15.85426052121004
 20
-4.250731064475511
 30
0.0
 10
15.64345512846761
 20
-4.250731064475511
 30
0.0
 10
15.44026339674757
 20
-4.250731064475511
 30
0.0
 10
15.3069382014684
 20
-4.302803682735063
 30
0.0
 10
15.3069382014684
 20
-4.41835218531034
 30
0.0
 10
15.3069382014684
 20
-4.516141220659157
 30
0.0
 10
15.42631076003231
 20
-4.587247991474715
 30
0.0
 10
15.65106878949001
 20
-4.587247991474715
 30
0.0
  0
SPLINE
  5
B3
330
AC
100
AcDbEntity
  8
Livello 1
100
AcDbSpline
210
0.0
220
0.0
230
1.0
 70
     9
 71
     3
 72
    17
 73
    13
 74
     0
 42
0.000000001
 43
0.0000000001
 40
0.0
 40
0.0
 40
0.0
 40
0.0
 40
1.0
 40
1.0
 40
1.0
 40
2.0
 40
2.0
 40
2.0
 40
3.0
 40
3.0
 40
3.0
 40
4.0
 40
4.0
 40
4.0
 40
4.0
 10
15.63835638714944
 20
-4.138989392411431
 30
0.0
 10
15.91899386537789
 20
-4.138989392411431
 30
0.0
 10
16.07391980934957
 20
-4.243117403453108
 30
0.0
 10
16.07391980934957
 20
-4.425983071810169
 30
0.0
 10
16.07391980934957
 20
-4.587247991474715
 30
0.0
 10
15.92281792136651
 20
-4.696457518357134
 30
0.0
 10
15.64979410416047
 20
-4.698989663538792
 30
0.0
 10
15.37298068192064
 20
-4.698989663538792
 30
0.0
 10
15.22060410860803
 20
-4.579634330452313
 30
0.0
 10
15.22060410860803
 20
-4.412013209617481
 30
0.0
 10
15.22060410860803
 20
-4.238035887612365
 30
0.0
 10
15.37553005257972
 20
-4.138989392411431
 30
0.0
 10
15.63835638714944
 20
-4.138989392411431
 30
0.0
  0
HATCH
  5
B4
330
AC
100
AcDbEntity
  8
Livello 1
 62
   250
420
  1907995
440
 33554687
100
AcDbHatch
 10
0.0
 20
0.0
 30
0.0
210
0.0
220
0.0
230
1.0
  2
SOLID
 70
     1
 71
     1
 91
        2
 92
        1
 93
        1
 72
     4
 94
        3
 73
     0
 74
     0
 95
       17
 96
       13
 40
0.0
 40
0.0
 40
0.0
 40
0.0
 40
1.0
 40
1.0
 40
1.0
 40
2.0
 40
2.0
 40
2.0
 40
3.0
 40
3.0
 40
3.0
 40
4.0
 40
4.0
 40
4.0
 40
4.0
 10
15.65106878949001
 20
-4.587247991474715
 10
15.86566378726622
 20
-4.587247991474715
 10
15.98758571648921
 20
-4.521205511022476
 10
15.98758571648921
 20
-4.419626870639883
 10
15.98758571648921
 20
-4.305335827916721
 10
15.85426052121004
 20
-4.250731064475511
 10
15.64345512846761
 20
-4.250731064475511
 10
15.44026339674757
 20
-4.250731064475511
 10
15.3069382014684
 20
-4.302803682735063
 10
15.3069382014684
 20
-4.41835218531034
 10
15.3069382014684
 20
-4.516141220659157
 10
15.42631076003231
 20
-4.587247991474715
 10
15.65106878949001
 20
-4.587247991474715
 97
        0
 97
        1
330
B2
 92
        1
 93
        1
 72
     4
 94
        3
 73
     0
 74
     0
 95
       17
 96
       13
 40
0.0
 40
0.0
 40
0.0
 40
0.0
 40
1.0
 40
1.0
 40
1.0
 40
2.0
 40
2.0
 40
2.0
 40
3.0
 40
3.0
 40
3.0
 40
4.0
 40
4.0
 40
4.0
 40
4.0
 10
15.63835638714944
 20
-4.138989392411431
 10
15.91899386537789
 20
-4.138989392411431
 10
16.07391980934957
 20
-4.243117403453108
 10
16.07391980934957
 20
-4.425983071810169
 10
16.07391980934957
 20
-4.587247991474715
 10
15.92281792136651
 20
-4.696457518357134
 10
15.64979410416047
 20
-4.698989663538792
 10
15.37298068192064
 20
-4.698989663538792
 10
15.22060410860803
 20
-4.579634330452313
 10
15.22060410860803
 20
-4.412013209617481
 10
15.22060410860803
 20
-4.238035887612365
 10
15.37553005257972
 20
-4.138989392411431
 10
15.63835638714944
 20
-4.138989392411431
 97
        0
 97
        1
330
B3
 75
     2
 76
     1
 98
        1
 10
0.0
 20
0.0
450
        0
451
        0
460
0.0
461
0.0
452
        0
462
0.0
453
        0
470

  0
ENDBLK
  5
AF
330
AC
100
AcDbEntity
  8
0
100
AcDbBlockEnd
  0
ENDSEC
  0
SECTION
  2
ENTITIES
  0
SPLINE
  5
7B
330
70
100
AcDbEntity
  8
Livello 1
100
AcDbSpline
210
0.0
220
0.0
230
1.0
 70
     9
 71
     3
 72
    20
 73
    16
 74
     0
 42
0.000000001
 43
0.0000000001
 40
0.0
 40
0.0
 40
0.0
 40
0.0
 40
1.0
 40
1.0
 40
1.0
 40
2.0
 40
2.0
 40
2.0
 40
3.0
 40
3.0
 40
3.0
 40
4.0
 40
4.0
 40
4.0
 40
5.0
 40
5.0
 40
5.0
 40
5.0
 10
9.488899288658457
 20
-2.440812999389827
 30
0.0
 10
9.488899288658457
 20
-2.393364388290569
 30
0.0
 10
9.527362648788287
 20
-2.354904554966831
 30
0.0
 10
9.574807730911192
 20
-2.354904554966831
 30
0.0
 10
9.622256340811793
 20
-2.354904554966831
 30
0.0
 10
9.660716173163931
 20
-2.393364388290569
 30
0.0
 10
9.660716173163931
 20
-2.440812999389827
 30
0.0
 10
9.660716173163931
 20
-2.48825808271127
 30
0.0
 10
9.622256340811793
 20
-2.526721443812792
 30
0.0
 10
9.574807730911192
 20
-2.526721443812792
 30
0.0
 10
9.527362648788287
 20
-2.526721443812792
 30
0.0
 10
9.488899288658457
 20
-2.48825808271127
 30
0.0
 10
9.488899288658457
 20
-2.440812999389827
 30
0.0
 10
9.488899288658457
 20
-2.440812999389827
 30
0.0
 10
9.488899288658457
 20
-2.440812999389827
 30
0.0
 10
9.488899288658457
 20
-2.440812999389827
 30
0.0
  0
SPLINE
  5
7C
330
70
100
AcDbEntity
  8
Livello 1
100
AcDbSpline
210
0.0
220
0.0
230
1.0
 70
     9
 71
     3
 72
    20
 73
    16
 74
     0
 42
0.000000001
 43
0.0000000001
 40
0.0
 40
0.0
 40
0.0
 40
0.0
 40
1.0
 40
1.0
 40
1.0
 40
2.0
 40
2.0
 40
2.0
 40
3.0
 40
3.0
 40
3.0
 40
4.0
 40
4.0
 40
4.0
 40
5.0
 40
5.0
 40
5.0
 40
5.0
 10
9.488899288658457
 20
-6.719210164986892
 30
0.0
 10
9.488899288658457
 20
-6.671761553887636
 30
0.0
 10
9.527362648788287
 20
-6.633298192786146
 30
0.0
 10
9.574807730911192
 20
-6.633298192786146
 30
0.0
 10
9.622256340811793
 20
-6.633298192786146
 30
0.0
 10
9.660716173163931
 20
-6.671761553887636
 30
0.0
 10
9.660716173163931
 20
-6.719210164986892
 30
0.0
 10
9.660716173163931
 20
-6.766655248308367
 30
0.0
 10
9.622256340811793
 20
-6.805118609409857
 30
0.0
 10
9.574807730911192
 20
-6.805118609409857
 30
0.0
 10
9.527362648788287
 20
-6.805118609409857
 30
0.0
 10
9.488899288658457
 20
-6.766655248308367
 30
0.0
 10
9.488899288658457
 20
-6.719210164986892
 30
0.0
 10
9.488899288658457
 20
-6.719210164986892
 30
0.0
 10
9.488899288658457
 20
-6.719210164986892
 30
0.0
 10
9.488899288658457
 20
-6.719210164986892
 30
0.0
  0
SPLINE
  5
7D
330
70
100
AcDbEntity
  8
Livello 1
100
AcDbSpline
210
0.0
220
0.0
230
1.0
 70
     9
 71
     3
 72
    20
 73
    16
 74
     0
 42
0.000000001
 43
0.0000000001
 40
0.0
 40
0.0
 40
0.0
 40
0.0
 40
1.0
 40
1.0
 40
1.0
 40
2.0
 40
2.0
 40
2.0
 40
3.0
 40
3.0
 40
3.0
 40
4.0
 40
4.0
 40
4.0
 40
5.0
 40
5.0
 40
5.0
 40
5.0
 10
13.79349009550586
 20
-2.440812999389827
 30
0.0
 10
13.79349009550586
 20
-2.393364388290569
 30
0.0
 10
13.83195039133733
 20
-2.354904554966831
 30
0.0
 10
13.87939900243662
 20
-2.354904554966831
 30
0.0
 10
13.92684361988151
 20
-2.354904554966831
 30
0.0
 10
13.96530698001134
 20
-2.393364388290569
 30
0.0
 10
13.96530698001134
 20
-2.440812999389827
 30
0.0
 10
13.96530698001134
 20
-2.48825808271127
 30
0.0
 10
13.92684361988151
 20
-2.526721443812792
 30
0.0
 10
13.87939900243662
 20
-2.526721443812792
 30
0.0
 10
13.83195039133733
 20
-2.526721443812792
 30
0.0
 10
13.79349009550586
 20
-2.48825808271127
 30
0.0
 10
13.79349009550586
 20
-2.440812999389827
 30
0.0
 10
13.79349009550586
 20
-2.440812999389827
 30
0.0
 10
13.79349009550586
 20
-2.440812999389827
 30
0.0
 10
13.79349009550586
 20
-2.440812999389827
 30
0.0
  0
SPLINE
  5
7E
330
70
100
AcDbEntity
  8
Livello 1
100
AcDbSpline
210
0.0
220
0.0
230
1.0
 70
     9
 71
     3
 72
    20
 73
    16
 74
     0
 42
0.000000001
 43
0.0000000001
 40
0.0
 40
0.0
 40
0.0
 40
0.0
 40
1.0
 40
1.0
 40
1.0
 40
2.0
 40
2.0
 40
2.0
 40
3.0
 40
3.0
 40
3.0
 40
4.0
 40
4.0
 40
4.0
 40
5.0
 40
5.0
 40
5.0
 40
5.0
 10
13.79349009550586
 20
-6.719210164986892
 30
0.0
 10
13.79349009550586
 20
-6.671761553887636
 30
0.0
 10
13.83195039133733
 20
-6.633298192786146
 30
0.0
 10
13.87939900243662
 20
-6.633298192786146
 30
0.0
 10
13.92684361988151
 20
-6.633298192786146
 30
0.0
 10
13.96530698001134
 20
-6.671761553887636
 30
0.0
 10
13.96530698001134
 20
-6.719210164986892
 30
0.0
 10
13.96530698001134
 20
-6.766655248308367
 30
0.0
 10
13.92684361988151
 20
-6.805118609409857
 30
0.0
 10
13.87939900243662
 20
-6.805118609409857
 30
0.0
 10
13.83195039133733
 20
-6.805118609409857
 30
0.0
 10
13.79349009550586
 20
-6.766655248308367
 30
0.0
 10
13.79349009550586
 20
-6.719210164986892
 30
0.0
 10
13.79349009550586
 20
-6.719210164986892
 30
0.0
 10
13.79349009550586
 20
-6.719210164986892
 30
0.0
 10
13.79349009550586
 20
-6.719210164986892
 30
0.0
  0
LINE
  5
7F
330
70
100
AcDbEntity
  8
Livello 1
100
AcDbLine
 10
7.336344593574702
 20
-1.991800971724275
 30
0.0
 11
8.119415990263552
 21
-1.991800971724275
 31
0.0
  0
LINE
  5
80
330
70
100
AcDbEntity
  8
Livello 1
100
AcDbLine
 10
7.336344593574702
 20
-7.172409664873589
 30
0.0
 11
8.119415990263552
 21
-7.172409664873589
 31
0.0
  0
LINE
  5
81
330
70
100
AcDbEntity
  8
Livello 1
100
AcDbLine
 10
7.336344593574702
 20
-1.991800971724275
 30
0.0
 11
7.336344593574702
 21
-7.172409664873589
 31
0.0
  0
LINE
  5
82
330
70
100
AcDbEntity
  8
Livello 1
100
AcDbLine
 10
7.70878650397924
 20
-1.991800971724275
 30
0.0
 11
7.70878650397924
 21
-7.172409664873589
 31
0.0
  0
LINE
  5
83
330
70
100
AcDbEntity
  8
Livello 1
100
AcDbLine
 10
8.119415990263552
 20
-1.991800971724275
 30
0.0
 11
8.119415990263552
 21
-7.172409664873589
 31
0.0
  0
LINE
  5
84
330
70
100
AcDbEntity
  8
Livello 1
100
AcDbLine
 10
6.97862440825646
 20
-2.44778741605474
 30
0.0
 11
6.97862440825646
 21
-6.716423220543123
 31
0.0
  0
LINE
  5
85
330
70
100
AcDbEntity
  8
Livello 1
100
AcDbLine
 10
6.97862440825646
 20
-2.44778741605474
 30
0.0
 11
7.336344593574702
 21
-2.44778741605474
 31
0.0
  0
LINE
  5
86
330
70
100
AcDbEntity
  8
Livello 1
100
AcDbLine
 10
6.97862440825646
 20
-6.716423220543123
 30
0.0
 11
7.336344593574702
 21
-6.716423220543123
 31
0.0
  0
SPLINE
  5
87
330
70
100
AcDbEntity
  8
Livello 1
100
AcDbSpline
210
0.0
220
0.0
230
1.0
 70
     8
 71
     3
 72
     8
 73
     4
 74
     0
 42
0.000000001
 43
0.0000000001
 40
0.0
 40
0.0
 40
0.0
 40
0.0
 40
1.0
 40
1.0
 40
1.0
 40
1.0
 10
8.119415990263552
 20
-2.302181916091131
 30
0.0
 10
8.545889034938875
 20
-3.80357238793802
 30
0.0
 10
8.545889034938875
 20
-5.394060415318156
 30
0.0
 10
8.119415990263552
 20
-6.895450887165043
 30
0.0
  0
LINE
  5
88
330
70
100
AcDbEntity
  8
Livello 1
100
AcDbLine
 10
9.124590058697016
 20
-7.883930039181288
 30
0.0
 11
14.34175184484254
 21
-7.883930039181288
 31
0.0
  0
LINE
  5
89
330
70
100
AcDbEntity
  8
Livello 1
100
AcDbLine
 10
15.02180040776715
 20
-1.991800971724275
 30
0.0
 11
15.02180040776715
 21
-7.172409429242343
 31
0.0
  0
LINE
  5
8A
330
70
100
AcDbEntity
  8
Livello 1
100
AcDbLine
 10
6.97862440825646
 20
-7.883930039181288
 30
0.0
 11
8.439270773770045
 21
-7.883930039181288
 31
0.0
  0
SPLINE
  5
FB
330
70
100
AcDbEntity
  8
Livello 1
100
AcDbSpline
210
0.0
220
0.0
230
1.0
 70
     8
 71
     3
 72
     8
 73
     4
 74
     0
 42
0.000000001
 43
0.0000000001
 40
0.0
 40
0.0
 40
0.0
 40
0.0
 40
1.0
 40
1.0
 40
1.0
 40
1.0
 10
9.828807724431117
 20
-2.564941388247665
 30
0.0
 10
11.08395574796517
 20
-2.335702860527204
 30
0.0
 10
12.37025094725833
 20
-2.335702860527204
 30
0.0
 10
13.62539900250009
 20
-2.564941388247665
 30
0.0
  0
SPLINE
  5
FC
330
70
100
AcDbEntity
  8
Livello 1
100
AcDbSpline
210
0.0
220
0.0
230
1.0
 70
     8
 71
     3
 72
     8
 73
     4
 74
     0
 42
0.000000001
 43
0.0000000001
 40
1.0
 40
1.0
 40
1.0
 40
1.0
 40
2.0
 40
2.0
 40
2.0
 40
2.0
 10
13.62539900250009
 20
-2.564941388247665
 30
0.0
 10
13.67865034843567
 20
-2.59131858268551
 30
0.0
 10
13.72030987515062
 20
-2.636403582674248
 30
0.0
 10
13.74240081903148
 20
-2.691570971549341
 30
0.0
  0
SPLINE
  5
FD
330
70
100
AcDbEntity
  8
Livello 1
100
AcDbSpline
210
0.0
220
0.0
230
1.0
 70
     8
 71
     3
 72
     8
 73
     4
 74
     0
 42
0.000000001
 43
0.0000000001
 40
2.0
 40
2.0
 40
2.0
 40
2.0
 40
3.0
 40
3.0
 40
3.0
 40
3.0
 10
13.74240081903148
 20
-2.691570971549341
 30
0.0
 10
14.00106453465464
 20
-3.936379110127024
 30
0.0
 10
14.00349164570383
 20
-5.220825359805934
 30
0.0
 10
13.74953045773848
 20
-6.466600109494486
 30
0.0
  0
SPLINE
  5
FE
330
70
100
AcDbEntity
  8
Livello 1
100
AcDbSpline
210
0.0
220
0.0
230
1.0
 70
     8
 71
     3
 72
     8
 73
     4
 74
     0
 42
0.000000001
 43
0.0000000001
 40
3.0
 40
3.0
 40
3.0
 40
3.0
 40
4.0
 40
4.0
 40
4.0
 40
4.0
 10
13.74953045773848
 20
-6.466600109494486
 30
0.0
 10
13.73792406914569
 20
-6.527433109479278
 30
0.0
 10
13.69676195908471
 20
-6.578480053910966
 30
0.0
 10
13.63977071053868
 20
-6.602712359460451
 30
0.0
  0
SPLINE
  5
FF
330
70
100
AcDbEntity
  8
Livello 1
100
AcDbSpline
210
0.0
220
0.0
230
1.0
 70
     8
 71
     3
 72
     8
 73
     4
 74
     0
 42
0.000000001
 43
0.0000000001
 40
4.0
 40
4.0
 40
4.0
 40
4.0
 40
5.0
 40
5.0
 40
5.0
 40
5.0
 10
13.63977071053868
 20
-6.602712359460451
 30
0.0
 10
12.3779340205086
 20
-6.829604914959281
 30
0.0
 10
11.08567377569912
 20
-6.828797053848373
 30
0.0
 10
9.824122835661746
 20
-6.600320526127722
 30
0.0
  0
SPLINE
  5
100
330
70
100
AcDbEntity
  8
Livello 1
100
AcDbSpline
210
0.0
220
0.0
230
1.0
 70
     8
 71
     3
 72
     8
 73
     4
 74
     0
 42
0.000000001
 43
0.0000000001
 40
5.0
 40
5.0
 40
5.0
 40
5.0
 40
6.0
 40
6.0
 40
6.0
 40
6.0
 10
9.824122835661746
 20
-6.600320526127722
 30
0.0
 10
9.752540698599073
 20
-6.584519609465003
 30
0.0
 10
9.696632477803184
 20
-6.528607859478987
 30
0.0
 10
9.680838617095011
 20
-6.457022192830217
 30
0.0
  0
SPLINE
  5
101
330
70
100
AcDbEntity
  8
Livello 1
100
AcDbSpline
210
0.0
220
0.0
230
1.0
 70
     8
 71
     3
 72
     8
 73
     4
 74
     0
 42
0.000000001
 43
0.0000000001
 40
6.0
 40
6.0
 40
6.0
 40
6.0
 40
7.0
 40
7.0
 40
7.0
 40
7.0
 10
9.680838617095011
 20
-6.457022192830217
 30
0.0
 10
9.459417650521707
 20
-5.203010082032608
 30
0.0
 10
9.474001483482977
 20
-3.918680249020344
 30
0.0
 10
9.723842227109008
 20
-2.670019777110296
 30
0.0
  0
SPLINE
  5
102
330
70
100
AcDbEntity
  8
Livello 1
100
AcDbSpline
210
0.0
220
0.0
230
1.0
 70
     8
 71
     3
 72
     8
 73
     4
 74
     0
 42
0.000000001
 43
0.0000000001
 40
7.0
 40
7.0
 40
7.0
 40
7.0
 40
8.0
 40
8.0
 40
8.0
 40
8.0
 10
9.723842227109008
 20
-2.670019777110296
 30
0.0
 10
9.739234281249423
 20
-2.619748943789525
 30
0.0
 10
9.778554531268735
 20
-2.580385999354904
 30
0.0
 10
9.828807724431117
 20
-2.564941388247665
 30
0.0
  0
SPLINE
  5
103
330
70
100
AcDbEntity
  8
Livello 1
100
AcDbSpline
210
0.0
220
0.0
230
1.0
 70
     8
 71
     3
 72
     8
 73
     4
 74
     0
 42
0.000000001
 43
0.0000000001
 40
0.0
 40
0.0
 40
0.0
 40
0.0
 40
1.0
 40
1.0
 40
1.0
 40
1.0
 10
9.527962370995206
 20
-2.216400471668136
 30
0.0
 10
10.98360458385868
 20
-1.916934471742999
 30
0.0
 10
12.484974280563
 20
-1.916934471742999
 30
0.0
 10
13.94061606397459
 20
-2.216400471668136
 30
0.0
  0
SPLINE
  5
104
330
70
100
AcDbEntity
  8
Livello 1
100
AcDbSpline
210
0.0
220
0.0
230
1.0
 70
     8
 71
     3
 72
     8
 73
     4
 74
     0
 42
0.000000001
 43
0.0000000001
 40
1.0
 40
1.0
 40
1.0
 40
1.0
 40
2.0
 40
2.0
 40
2.0
 40
2.0
 10
13.94061606397459
 20
-2.216400471668136
 30
0.0
 10
14.01422667320774
 20
-2.236325360552048
 30
0.0
 10
14.07102036620325
 20
-2.294953499426281
 30
0.0
 10
14.08859622460655
 20
-2.369163832741044
 30
0.0
  0
SPLINE
  5
105
330
70
100
AcDbEntity
  8
Livello 1
100
AcDbSpline
210
0.0
220
0.0
230
1.0
 70
     8
 71
     3
 72
     8
 73
     4
 74
     0
 42
0.000000001
 43
0.0000000001
 40
2.0
 40
2.0
 40
2.0
 40
2.0
 40
3.0
 40
3.0
 40
3.0
 40
3.0
 10
14.08859622460655
 20
-2.369163832741044
 30
0.0
 10
14.42613705158791
 20
-3.823888860155157
 30
0.0
 10
14.42613705158791
 20
-5.336582331999205
 30
0.0
 10
14.08859622460655
 20
-6.791303831635534
 30
0.0
  0
SPLINE
  5
106
330
70
100
AcDbEntity
  8
Livello 1
100
AcDbSpline
210
0.0
220
0.0
230
1.0
 70
     8
 71
     3
 72
     8
 73
     4
 74
     0
 42
0.000000001
 43
0.0000000001
 40
3.0
 40
3.0
 40
3.0
 40
3.0
 40
4.0
 40
4.0
 40
4.0
 40
4.0
 10
14.08859622460655
 20
-6.791303831635534
 30
0.0
 10
14.07579039127638
 20
-6.870470692726851
 30
0.0
 10
14.02086289129015
 20
-6.936369581599246
 30
0.0
 10
13.94529789130904
 20
-6.963223026036974
 30
0.0
  0
SPLINE
  5
107
330
70
100
AcDbEntity
  8
Livello 1
100
AcDbSpline
210
0.0
220
0.0
230
1.0
 70
     8
 71
     3
 72
     8
 73
     4
 74
     0
 42
0.000000001
 43
0.0000000001
 40
4.0
 40
4.0
 40
4.0
 40
4.0
 40
5.0
 40
5.0
 40
5.0
 40
5.0
 10
13.94529789130904
 20
-6.963223026036974
 30
0.0
 10
12.49730343412989
 20
-7.243737803744636
 30
0.0
 10
11.00877174988328
 20
-7.242115025967253
 30
0.0
 10
9.561388064586891
 20
-6.958439359371517
 30
0.0
  0
SPLINE
  5
108
330
70
100
AcDbEntity
  8
Livello 1
100
AcDbSpline
210
0.0
220
0.0
230
1.0
 70
     8
 71
     3
 72
     8
 73
     4
 74
     0
 42
0.000000001
 43
0.0000000001
 40
5.0
 40
5.0
 40
5.0
 40
5.0
 40
6.0
 40
6.0
 40
6.0
 40
6.0
 10
9.561388064586891
 20
-6.958439359371517
 30
0.0
 10
9.475906483434377
 20
-6.932929998266778
 30
0.0
 10
9.402807401965956
 20
-6.876845387169697
 30
0.0
 10
9.356032597603725
 20
-6.800881748299802
 30
0.0
  0
SPLINE
  5
109
330
70
100
AcDbEntity
  8
Livello 1
100
AcDbSpline
210
0.0
220
0.0
230
1.0
 70
     8
 71
     3
 72
     8
 73
     4
 74
     0
 42
0.000000001
 43
0.0000000001
 40
6.0
 40
6.0
 40
6.0
 40
6.0
 40
7.0
 40
7.0
 40
7.0
 40
7.0
 10
9.356032597603725
 20
-6.800881748299802
 30
0.0
 10
9.045835105517523
 20
-5.37194477643482
 30
0.0
 10
9.047468466586963
 20
-3.892909832360131
 30
0.0
 10
9.360826847481414
 20
-2.464660777161626
 30
0.0
  0
SPLINE
  5
10A
330
70
100
AcDbEntity
  8
Livello 1
100
AcDbSpline
210
0.0
220
0.0
230
1.0
 70
     8
 71
     3
 72
     8
 73
     4
 74
     0
 42
0.000000001
 43
0.0000000001
 40
7.0
 40
7.0
 40
7.0
 40
7.0
 40
8.0
 40
8.0
 40
8.0
 40
8.0
 10
9.360826847481414
 20
-2.464660777161626
 30
0.0
 10
9.367046319544963
 20
-2.357603304966162
 30
0.0
 10
9.431110762354988
 20
-2.262441499434389
 30
0.0
 10
9.527962370995206
 20
-2.216400471668136
 30
0.0
  0
SPLINE
  5
10E
330
70
100
AcDbEntity
  8
Livello 1
100
AcDbSpline
210
0.0
220
0.0
230
1.0
 70
     9
 71
     3
 72
    17
 73
    13
 74
     0
 42
0.000000001
 43
0.0000000001
 40
0.0
 40
0.0
 40
0.0
 40
0.0
 40
1.0
 40
1.0
 40
1.0
 40
2.0
 40
2.0
 40
2.0
 40
3.0
 40
3.0
 40
3.0
 40
4.0
 40
4.0
 40
4.0
 40
4.0
 10
7.018227944208983
 20
-8.325555553474165
 30
0.0
 10
7.018227944208983
 20
-8.408100041300754
 30
0.0
 10
7.080446368672594
 20
-8.452541773060472
 30
0.0
 10
7.175686033362326
 20
-8.477932126786766
 30
0.0
 10
7.246810029655311
 20
-8.453816458390017
 30
0.0
 10
7.301414793096521
 20
-8.403018525460009
 30
0.0
 10
7.301414793096521
 20
-8.328087698655824
 30
0.0
 10
7.301414793096521
 20
-8.262062443681012
 30
0.0
 10
7.262037351700115
 20
-8.193487818047112
 30
0.0
 10
7.161716171169638
 20
-8.193487818047112
 30
0.0
 10
7.069025877138992
 20
-8.193487818047112
 30
0.0
 10
7.018227944208983
 20
-8.254448782658608
 30
0.0
 10
7.018227944208983
 20
-8.325555553474165
 30
0.0
  0
SPLINE
  5
10F
330
70
100
AcDbEntity
  8
Livello 1
100
AcDbSpline
210
0.0
220
0.0
230
1.0
 70
     9
 71
     3
 72
    17
 73
    13
 74
     0
 42
0.000000001
 43
0.0000000001
 40
0.0
 40
0.0
 40
0.0
 40
0.0
 40
1.0
 40
1.0
 40
1.0
 40
2.0
 40
2.0
 40
2.0
 40
3.0
 40
3.0
 40
3.0
 40
4.0
 40
4.0
 40
4.0
 40
4.0
 10
7.325530461493268
 20
-8.73826076712967
 30
0.0
 10
7.325530461493268
 20
-8.637939586599195
 30
0.0
 10
7.255698376007255
 20
-8.589673798850844
 30
0.0
 10
7.143939478465751
 20
-8.557927243954267
 30
0.0
 10
7.047442353923902
 20
-8.585866968339644
 30
0.0
 10
6.99536973566435
 20
-8.649360078132797
 30
0.0
 10
6.99536973566435
 20
-8.728097735448184
 30
0.0
 10
6.99156290515315
 20
-8.811899683126885
 30
0.0
 10
7.055056014946304
 20
-8.885555824601524
 30
0.0
 10
7.160458711317522
 20
-8.885555824601524
 30
0.0
 10
7.260762666370571
 20
-8.885555824601524
 30
0.0
 10
7.325530461493268
 20
-8.823337400137914
 30
0.0
 10
7.325530461493268
 20
-8.73826076712967
 30
0.0
  0
SPLINE
  5
110
330
70
100
AcDbEntity
  8
Livello 1
100
AcDbSpline
210
0.0
220
0.0
230
1.0
 70
     9
 71
     3
 72
    35
 73
    31
 74
     0
 42
0.000000001
 43
0.0000000001
 40
0.0
 40
0.0
 40
0.0
 40
0.0
 40
1.0
 40
1.0
 40
1.0
 40
2.0
 40
2.0
 40
2.0
 40
3.0
 40
3.0
 40
3.0
 40
4.0
 40
4.0
 40
4.0
 40
5.0
 40
5.0
 40
5.0
 40
6.0
 40
6.0
 40
6.0
 40
7.0
 40
7.0
 40
7.0
 40
8.0
 40
8.0
 40
8.0
 40
9.0
 40
9.0
 40
9.0
 40
10.0
 40
10.0
 40
10.0
 40
10.0
 10
6.881095918418613
 20
-8.743325057492986
 30
0.0
 10
6.881095918418613
 20
-8.639197046451311
 30
0.0
 10
6.943314342882226
 20
-8.565558130454096
 30
0.0
 10
7.044892983264817
 20
-8.522373858546487
 30
0.0
 10
7.044892983264817
 20
-8.522373858546487
 30
0.0
 10
7.0436355234127
 20
-8.518567028035286
 30
0.0
 10
7.0436355234127
 20
-8.518567028035286
 30
0.0
 10
6.952202689234169
 20
-8.475399981605107
 30
0.0
 10
6.91284247331519
 20
-8.404275985312123
 30
0.0
 10
6.91284247331519
 20
-8.333169214496567
 30
0.0
 10
6.91284247331519
 20
-8.202376164399057
 30
0.0
 10
7.023309460049726
 20
-8.113492700879611
 30
0.0
 10
7.168072372339924
 20
-8.113492700879611
 30
0.0
 10
7.328079832152353
 20
-8.113492700879611
 30
0.0
 10
7.408074949319854
 20
-8.213813881410088
 30
0.0
 10
7.408074949319854
 20
-8.316667207122222
 30
0.0
 10
7.408074949319854
 20
-8.386499292608235
 30
0.0
 10
7.373779023764193
 20
-8.461430119412417
 30
0.0
 10
7.272200383381601
 20
-8.509678681683341
 30
0.0
 10
7.272200383381601
 20
-8.509678681683341
 30
0.0
 10
7.272200383381601
 20
-8.513485512194542
 30
0.0
 10
7.272200383381601
 20
-8.513485512194542
 30
0.0
 10
7.375053709093736
 20
-8.554120413443065
 30
0.0
 10
7.438546818886889
 20
-8.626501869588166
 30
0.0
 10
7.438546818886889
 20
-8.726823050118641
 30
0.0
 10
7.438546818886889
 20
-8.870311277079297
 30
0.0
 10
7.315367429811781
 20
-8.96682562709857
 30
0.0
 10
7.157909340658436
 20
-8.96682562709857
 30
0.0
 10
6.985223929460289
 20
-8.96682562709857
 30
0.0
 10
6.881095918418613
 20
-8.863972301386434
 30
0.0
 10
6.881095918418613
 20
-8.743325057492986
 30
0.0
  0
HATCH
  5
111
330
70
100
AcDbEntity
  8
Livello 1
 62
   250
420
  1907995
440
 33554687
100
AcDbHatch
 10
0.0
 20
0.0
 30
0.0
210
0.0
220
0.0
230
1.0
  2
SOLID
 70
     1
 71
     0
 91
        3
 92
        1
 93
        1
 72
     4
 94
        3
 73
     0
 74
     0
 95
       17
 96
       13
 40
0.0
 40
0.0
 40
0.0
 40
0.0
 40
1.0
 40
1.0
 40
1.0
 40
2.0
 40
2.0
 40
2.0
 40
3.0
 40
3.0
 40
3.0
 40
4.0
 40
4.0
 40
4.0
 40
4.0
 10
7.018227944208983
 20
-8.325555553474165
 10
7.018227944208983
 20
-8.408100041300754
 10
7.080446368672594
 20
-8.452541773060472
 10
7.175686033362326
 20
-8.477932126786766
 10
7.246810029655311
 20
-8.453816458390017
 10
7.301414793096521
 20
-8.403018525460009
 10
7.301414793096521
 20
-8.328087698655824
 10
7.301414793096521
 20
-8.262062443681012
 10
7.262037351700115
 20
-8.193487818047112
 10
7.161716171169638
 20
-8.193487818047112
 10
7.069025877138992
 20
-8.193487818047112
 10
7.018227944208983
 20
-8.254448782658608
 10
7.018227944208983
 20
-8.325555553474165
 97
        0
 97
        0
 92
        1
 93
        1
 72
     4
 94
        3
 73
     0
 74
     0
 95
       17
 96
       13
 40
0.0
 40
0.0
 40
0.0
 40
0.0
 40
1.0
 40
1.0
 40
1.0
 40
2.0
 40
2.0
 40
2.0
 40
3.0
 40
3.0
 40
3.0
 40
4.0
 40
4.0
 40
4.0
 40
4.0
 10
7.325530461493268
 20
-8.73826076712967
 10
7.325530461493268
 20
-8.637939586599195
 10
7.255698376007255
 20
-8.589673798850844
 10
7.143939478465751
 20
-8.557927243954267
 10
7.047442353923902
 20
-8.585866968339644
 10
6.99536973566435
 20
-8.649360078132797
 10
6.99536973566435
 20
-8.728097735448184
 10
6.99156290515315
 20
-8.811899683126885
 10
7.055056014946304
 20
-8.885555824601524
 10
7.160458711317522
 20
-8.885555824601524
 10
7.260762666370571
 20
-8.885555824601524
 10
7.325530461493268
 20
-8.823337400137914
 10
7.325530461493268
 20
-8.73826076712967
 97
        0
 97
        0
 92
        1
 93
        1
 72
     4
 94
        3
 73
     0
 74
     0
 95
       35
 96
       31
 40
0.0
 40
0.0
 40
0.0
 40
0.0
 40
1.0
 40
1.0
 40
1.0
 40
2.0
 40
2.0
 40
2.0
 40
3.0
 40
3.0
 40
3.0
 40
4.0
 40
4.0
 40
4.0
 40
5.0
 40
5.0
 40
5.0
 40
6.0
 40
6.0
 40
6.0
 40
7.0
 40
7.0
 40
7.0
 40
8.0
 40
8.0
 40
8.0
 40
9.0
 40
9.0
 40
9.0
 40
10.0
 40
10.0
 40
10.0
 40
10.0
 10
6.881095918418613
 20
-8.743325057492986
 10
6.881095918418613
 20
-8.639197046451311
 10
6.943314342882226
 20
-8.565558130454096
 10
7.044892983264817
 20
-8.522373858546487
 10
7.044892983264817
 20
-8.522373858546487
 10
7.0436355234127
 20
-8.518567028035286
 10
7.0436355234127
 20
-8.518567028035286
 10
6.952202689234169
 20
-8.475399981605107
 10
6.91284247331519
 20
-8.404275985312123
 10
6.91284247331519
 20
-8.333169214496567
 10
6.91284247331519
 20
-8.202376164399057
 10
7.023309460049726
 20
-8.113492700879611
 10
7.168072372339924
 20
-8.113492700879611
 10
7.328079832152353
 20
-8.113492700879611
 10
7.408074949319854
 20
-8.213813881410088
 10
7.408074949319854
 20
-8.316667207122222
 10
7.408074949319854
 20
-8.386499292608235
 10
7.373779023764193
 20
-8.461430119412417
 10
7.272200383381601
 20
-8.509678681683341
 10
7.272200383381601
 20
-8.509678681683341
 10
7.272200383381601
 20
-8.513485512194542
 10
7.272200383381601
 20
-8.513485512194542
 10
7.375053709093736
 20
-8.554120413443065
 10
7.438546818886889
 20
-8.626501869588166
 10
7.438546818886889
 20
-8.726823050118641
 10
7.438546818886889
 20
-8.870311277079297
 10
7.315367429811781
 20
-8.96682562709857
 10
7.157909340658436
 20
-8.96682562709857
 10
6.985223929460289
 20
-8.96682562709857
 10
6.881095918418613
 20
-8.863972301386434
 10
6.881095918418613
 20
-8.743325057492986
 97
        0
 97
        0
 75
     2
 76
     1
 98
        1
 10
0.0
 20
0.0
450
        0
451
        0
460
0.0
461
0.0
452
        0
462
0.0
453
        0
470

  0
SPLINE
  5
112
330
70
100
AcDbEntity
  8
Livello 1
100
AcDbSpline
210
0.0
220
0.0
230
1.0
 70
     9
 71
     3
 72
    17
 73
    13
 74
     0
 42
0.000000001
 43
0.0000000001
 40
0.0
 40
0.0
 40
0.0
 40
0.0
 40
1.0
 40
1.0
 40
1.0
 40
2.0
 40
2.0
 40
2.0
 40
3.0
 40
3.0
 40
3.0
 40
4.0
 40
4.0
 40
4.0
 40
4.0
 10
7.505915661100949
 20
-9.109039168729683
 30
0.0
 10
7.5338381600089
 20
-9.034125567402924
 30
0.0
 10
7.568134085564562
 20
-8.898251001464672
 30
0.0
 10
7.582103947757251
 20
-8.805560707434024
 30
0.0
 10
7.582103947757251
 20
-8.805560707434024
 30
0.0
 10
7.706540796684475
 20
-8.792848305093452
 30
0.0
 10
7.706540796684475
 20
-8.792848305093452
 30
0.0
 10
7.677343612446982
 20
-8.900800372123757
 30
0.0
 10
7.621464163676231
 20
-9.041739228425328
 30
0.0
 10
7.585910778268451
 20
-9.101425507707277
 30
0.0
 10
7.585910778268451
 20
-9.101425507707277
 30
0.0
 10
7.505915661100949
 20
-9.109039168729683
 30
0.0
 10
7.505915661100949
 20
-9.109039168729683
 30
0.0
  0
HATCH
  5
113
330
70
100
AcDbEntity
  8
Livello 1
 62
   250
420
  1907995
440
 33554687
100
AcDbHatch
 10
0.0
 20
0.0
 30
0.0
210
0.0
220
0.0
230
1.0
  2
SOLID
 70
     1
 71
     0
 91
        1
 92
        1
 93
        1
 72
     4
 94
        3
 73
     0
 74
     0
 95
       17
 96
       13
 40
0.0
 40
0.0
 40
0.0
 40
0.0
 40
1.0
 40
1.0
 40
1.0
 40
2.0
 40
2.0
 40
2.0
 40
3.0
 40
3.0
 40
3.0
 40
4.0
 40
4.0
 40
4.0
 40
4.0
 10
7.505915661100949
 20
-9.109039168729683
 10
7.5338381600089
 20
-9.034125567402924
 10
7.568134085564562
 20
-8.898251001464672
 10
7.582103947757251
 20
-8.805560707434024
 10
7.582103947757251
 20
-8.805560707434024
 10
7.706540796684475
 20
-8.792848305093452
 10
7.706540796684475
 20
-8.792848305093452
 10
7.677343612446982
 20
-8.900800372123757
 10
7.621464163676231
 20
-9.041739228425328
 10
7.585910778268451
 20
-9.101425507707277
 10
7.585910778268451
 20
-9.101425507707277
 10
7.505915661100949
 20
-9.109039168729683
 10
7.505915661100949
 20
-9.109039168729683
 97
        0
 97
        0
 75
     2
 76
     1
 98
        1
 10
0.0
 20
0.0
450
        0
451
        0
460
0.0
461
0.0
452
        0
462
0.0
453
        0
470

  0
SPLINE
  5
114
330
70
100
AcDbEntity
  8
Livello 1
100
AcDbSpline
210
0.0
220
0.0
230
1.0
 70
    11
 71
     3
 72
    50
 73
    46
 74
     0
 42
0.000000001
 43
0.0000000001
 40
0.0
 40
0.0
 40
0.0
 40
0.0
 40
1.0
 40
1.0
 40
1.0
 40
2.0
 40
2.0
 40
2.0
 40
3.0
 40
3.0
 40
3.0
 40
4.0
 40
4.0
 40
4.0
 40
5.0
 40
5.0
 40
5.0
 40
6.0
 40
6.0
 40
6.0
 40
7.0
 40
7.0
 40
7.0
 40
8.0
 40
8.0
 40
8.0
 40
9.0
 40
9.0
 40
9.0
 40
10.0
 40
10.0
 40
10.0
 40
11.0
 40
11.0
 40
11.0
 40
12.0
 40
12.0
 40
12.0
 40
13.0
 40
13.0
 40
13.0
 40
14.0
 40
14.0
 40
14.0
 40
15.0
 40
15.0
 40
15.0
 40
15.0
 10
8.298304848185837
 20
-8.22142754243249
 30
0.0
 10
8.298304848185837
 20
-8.22142754243249
 30
0.0
 10
7.983388669879151
 20
-8.22142754243249
 30
0.0
 10
7.983388669879151
 20
-8.22142754243249
 30
0.0
 10
7.983388669879151
 20
-8.22142754243249
 30
0.0
 10
7.951642114982575
 20
-8.433490395027043
 30
0.0
 10
7.951642114982575
 20
-8.433490395027043
 30
0.0
 10
7.970693493016005
 20
-8.430958249845383
 30
0.0
 10
7.988470185719894
 20
-8.428408879186298
 30
0.0
 10
8.018942055286927
 20
-8.428408879186298
 30
0.0
 10
8.082435165080083
 20
-8.428408879186298
 30
0.0
 10
8.14592827487324
 20
-8.442378741378986
 30
0.0
 10
8.196726207803246
 20
-8.47285061094602
 30
0.0
 10
8.261476777448518
 20
-8.509678681683341
 30
0.0
 10
8.31482408103761
 20
-8.580785452498901
 30
0.0
 10
8.31482408103761
 20
-8.684913463540576
 30
0.0
 10
8.31482408103761
 20
-8.846195608682545
 30
0.0
 10
8.186563176121763
 20
-8.96682562709857
 30
0.0
 10
8.007521563753327
 20
-8.96682562709857
 30
0.0
 10
7.917363414904339
 20
-8.96682562709857
 30
0.0
 10
7.841157902770611
 20
-8.941435273372279
 30
0.0
 10
7.801797686851632
 20
-8.916027694168562
 30
0.0
 10
7.801797686851632
 20
-8.916027694168562
 30
0.0
 10
7.829737411237008
 20
-8.830951061160316
 30
0.0
 10
7.829737411237008
 20
-8.830951061160316
 30
0.0
 10
7.864016111315245
 20
-8.851277124523289
 30
0.0
 10
7.931316051619599
 20
-8.876667478249581
 30
0.0
 10
8.006246878423784
 20
-8.876667478249581
 30
0.0
 10
8.111649574795004
 20
-8.876667478249581
 30
0.0
 10
8.201807723643991
 20
-8.808092852615683
 30
0.0
 10
8.201807723643991
 20
-8.697625865881146
 30
0.0
 10
8.20053303831445
 20
-8.590948484180387
 30
0.0
 10
8.129426267498892
 20
-8.514760197524086
 30
0.0
 10
7.964337291845719
 20
-8.514760197524086
 30
0.0
 10
7.917363414904339
 20
-8.514760197524086
 30
0.0
 10
7.880535344167017
 20
-8.519841713364828
 30
0.0
 10
7.850046249122557
 20
-8.523648543876031
 30
0.0
 10
7.850046249122557
 20
-8.523648543876031
 30
0.0
 10
7.903393552711651
 20
-8.127462563072301
 30
0.0
 10
7.903393552711651
 20
-8.127462563072301
 30
0.0
 10
7.903393552711651
 20
-8.127462563072301
 30
0.0
 10
8.298304848185837
 20
-8.127462563072301
 30
0.0
 10
8.298304848185837
 20
-8.127462563072301
 30
0.0
 10
8.298304848185837
 20
-8.127462563072301
 30
0.0
 10
8.298304848185837
 20
-8.22142754243249
 30
0.0
 10
8.298304848185837
 20
-8.22142754243249
 30
0.0
  0
HATCH
  5
115
330
70
100
AcDbEntity
  8
Livello 1
 62
   250
420
  1907995
440
 33554687
100
AcDbHatch
 10
0.0
 20
0.0
 30
0.0
210
0.0
220
0.0
230
1.0
  2
SOLID
 70
     1
 71
     0
 91
        1
 92
        1
 93
        1
 72
     4
 94
        3
 73
     0
 74
     0
 95
       50
 96
       46
 40
0.0
 40
0.0
 40
0.0
 40
0.0
 40
1.0
 40
1.0
 40
1.0
 40
2.0
 40
2.0
 40
2.0
 40
3.0
 40
3.0
 40
3.0
 40
4.0
 40
4.0
 40
4.0
 40
5.0
 40
5.0
 40
5.0
 40
6.0
 40
6.0
 40
6.0
 40
7.0
 40
7.0
 40
7.0
 40
8.0
 40
8.0
 40
8.0
 40
9.0
 40
9.0
 40
9.0
 40
10.0
 40
10.0
 40
10.0
 40
11.0
 40
11.0
 40
11.0
 40
12.0
 40
12.0
 40
12.0
 40
13.0
 40
13.0
 40
13.0
 40
14.0
 40
14.0
 40
14.0
 40
15.0
 40
15.0
 40
15.0
 40
15.0
 10
8.298304848185837
 20
-8.22142754243249
 10
8.298304848185837
 20
-8.22142754243249
 10
7.983388669879151
 20
-8.22142754243249
 10
7.983388669879151
 20
-8.22142754243249
 10
7.983388669879151
 20
-8.22142754243249
 10
7.951642114982575
 20
-8.433490395027043
 10
7.951642114982575
 20
-8.433490395027043
 10
7.970693493016005
 20
-8.430958249845383
 10
7.988470185719894
 20
-8.428408879186298
 10
8.018942055286927
 20
-8.428408879186298
 10
8.082435165080083
 20
-8.428408879186298
 10
8.14592827487324
 20
-8.442378741378986
 10
8.196726207803246
 20
-8.47285061094602
 10
8.261476777448518
 20
-8.509678681683341
 10
8.31482408103761
 20
-8.580785452498901
 10
8.31482408103761
 20
-8.684913463540576
 10
8.31482408103761
 20
-8.846195608682545
 10
8.186563176121763
 20
-8.96682562709857
 10
8.007521563753327
 20
-8.96682562709857
 10
7.917363414904339
 20
-8.96682562709857
 10
7.841157902770611
 20
-8.941435273372279
 10
7.801797686851632
 20
-8.916027694168562
 10
7.801797686851632
 20
-8.916027694168562
 10
7.829737411237008
 20
-8.830951061160316
 10
7.829737411237008
 20
-8.830951061160316
 10
7.864016111315245
 20
-8.851277124523289
 10
7.931316051619599
 20
-8.876667478249581
 10
8.006246878423784
 20
-8.876667478249581
 10
8.111649574795004
 20
-8.876667478249581
 10
8.201807723643991
 20
-8.808092852615683
 10
8.201807723643991
 20
-8.697625865881146
 10
8.20053303831445
 20
-8.590948484180387
 10
8.129426267498892
 20
-8.514760197524086
 10
7.964337291845719
 20
-8.514760197524086
 10
7.917363414904339
 20
-8.514760197524086
 10
7.880535344167017
 20
-8.519841713364828
 10
7.850046249122557
 20
-8.523648543876031
 10
7.850046249122557
 20
-8.523648543876031
 10
7.903393552711651
 20
-8.127462563072301
 10
7.903393552711651
 20
-8.127462563072301
 10
7.903393552711651
 20
-8.127462563072301
 10
8.298304848185837
 20
-8.127462563072301
 10
8.298304848185837
 20
-8.127462563072301
 10
8.298304848185837
 20
-8.127462563072301
 10
8.298304848185837
 20
-8.22142754243249
 10
8.298304848185837
 20
-8.22142754243249
 97
        0
 97
        0
 75
     2
 76
     1
 98
        1
 10
0.0
 20
0.0
450
        0
451
        0
460
0.0
461
0.0
452
        0
462
0.0
453
        0
470

  0
SPLINE
  5
116
330
70
100
AcDbEntity
  8
Livello 1
100
AcDbSpline
210
0.0
220
0.0
230
1.0
 70
     9
 71
     3
 72
    59
 73
    55
 74
     0
 42
0.000000001
 43
0.0000000001
 40
0.0
 40
0.0
 40
0.0
 40
0.0
 40
1.0
 40
1.0
 40
1.0
 40
2.0
 40
2.0
 40
2.0
 40
3.0
 40
3.0
 40
3.0
 40
4.0
 40
4.0
 40
4.0
 40
5.0
 40
5.0
 40
5.0
 40
6.0
 40
6.0
 40
6.0
 40
7.0
 40
7.0
 40
7.0
 40
8.0
 40
8.0
 40
8.0
 40
9.0
 40
9.0
 40
9.0
 40
10.0
 40
10.0
 40
10.0
 40
11.0
 40
11.0
 40
11.0
 40
12.0
 40
12.0
 40
12.0
 40
13.0
 40
13.0
 40
13.0
 40
14.0
 40
14.0
 40
14.0
 40
15.0
 40
15.0
 40
15.0
 40
16.0
 40
16.0
 40
16.0
 40
17.0
 40
17.0
 40
17.0
 40
18.0
 40
18.0
 40
18.0
 40
18.0
 10
10.87465060492022
 20
-8.824594859990028
 30
0.0
 10
10.90637993433936
 20
-8.844920923353004
 30
0.0
 10
10.98003607581402
 20
-8.876667478249581
 30
0.0
 10
11.05751627327729
 20
-8.876667478249581
 30
0.0
 10
11.20100450023794
 20
-8.876667478249581
 30
0.0
 10
11.24544623199766
 20
-8.785234644071051
 30
0.0
 10
11.24417154666812
 20
-8.716660018437151
 30
0.0
 10
11.24289686133858
 20
-8.601111515861871
 30
0.0
 10
11.13878607577433
 20
-8.551588268261408
 30
0.0
 10
11.03085123422145
 20
-8.551588268261408
 30
0.0
 10
11.03085123422145
 20
-8.551588268261408
 30
0.0
 10
10.96863280975784
 20
-8.551588268261408
 30
0.0
 10
10.96863280975784
 20
-8.551588268261408
 30
0.0
 10
10.96863280975784
 20
-8.551588268261408
 30
0.0
 10
10.96863280975784
 20
-8.467769095105277
 30
0.0
 10
10.96863280975784
 20
-8.467769095105277
 30
0.0
 10
10.96863280975784
 20
-8.467769095105277
 30
0.0
 10
11.03085123422145
 20
-8.467769095105277
 30
0.0
 10
11.03085123422145
 20
-8.467769095105277
 30
0.0
 10
11.11212103671849
 20
-8.467769095105277
 30
0.0
 10
11.2149571369532
 20
-8.425876734004638
 30
0.0
 10
11.2149571369532
 20
-8.328087698655824
 30
0.0
 10
11.2149571369532
 20
-8.262062443681012
 30
0.0
 10
11.17306477585256
 20
-8.2036508497286
 30
0.0
 10
11.070194224663
 20
-8.2036508497286
 30
0.0
 10
11.00418619516562
 20
-8.2036508497286
 30
0.0
 10
10.94069308537246
 20
-8.232848033966092
 30
0.0
 10
10.90513969996468
 20
-8.25825561316981
 30
0.0
 10
10.90513969996468
 20
-8.25825561316981
 30
0.0
 10
10.87592529024977
 20
-8.176985810672766
 30
0.0
 10
10.87592529024977
 20
-8.176985810672766
 30
0.0
 10
10.91909233667995
 20
-8.145239255776187
 30
0.0
 10
11.00291150983607
 20
-8.113492700879611
 30
0.0
 10
11.09179497335552
 20
-8.113492700879611
 30
0.0
 10
11.25433457834961
 20
-8.113492700879611
 30
0.0
 10
11.32799071982425
 20
-8.210007050898886
 30
0.0
 10
11.32799071982425
 20
-8.310311005951936
 30
0.0
 10
11.32799071982425
 20
-8.39538763896018
 30
0.0
 10
11.27717556141681
 20
-8.467769095105277
 30
0.0
 10
11.17561414651165
 20
-8.5045971658426
 30
0.0
 10
11.17561414651165
 20
-8.5045971658426
 30
0.0
 10
11.17561414651165
 20
-8.507146536501684
 30
0.0
 10
11.17561414651165
 20
-8.507146536501684
 30
0.0
 10
11.27717556141681
 20
-8.527455374387232
 30
0.0
 10
11.3597200492434
 20
-8.603643661043532
 30
0.0
 10
11.3597200492434
 20
-8.719209389096237
 30
0.0
 10
11.3597200492434
 20
-8.851277124523289
 30
0.0
 10
11.25688394900869
 20
-8.96682562709857
 30
0.0
 10
11.05879095860683
 20
-8.96682562709857
 30
0.0
 10
10.96608343909875
 20
-8.96682562709857
 30
0.0
 10
10.88481363660171
 20
-8.937611217383652
 30
0.0
 10
10.84416150987576
 20
-8.910946178327817
 30
0.0
 10
10.84416150987576
 20
-8.910946178327817
 30
0.0
 10
10.87465060492022
 20
-8.824594859990028
 30
0.0
 10
10.87465060492022
 20
-8.824594859990028
 30
0.0
  0
HATCH
  5
117
330
70
100
AcDbEntity
  8
Livello 1
 62
   250
420
  1907995
440
 33554687
100
AcDbHatch
 10
0.0
 20
0.0
 30
0.0
210
0.0
220
0.0
230
1.0
  2
SOLID
 70
     1
 71
     0
 91
        1
 92
        1
 93
        1
 72
     4
 94
        3
 73
     0
 74
     0
 95
       59
 96
       55
 40
0.0
 40
0.0
 40
0.0
 40
0.0
 40
1.0
 40
1.0
 40
1.0
 40
2.0
 40
2.0
 40
2.0
 40
3.0
 40
3.0
 40
3.0
 40
4.0
 40
4.0
 40
4.0
 40
5.0
 40
5.0
 40
5.0
 40
6.0
 40
6.0
 40
6.0
 40
7.0
 40
7.0
 40
7.0
 40
8.0
 40
8.0
 40
8.0
 40
9.0
 40
9.0
 40
9.0
 40
10.0
 40
10.0
 40
10.0
 40
11.0
 40
11.0
 40
11.0
 40
12.0
 40
12.0
 40
12.0
 40
13.0
 40
13.0
 40
13.0
 40
14.0
 40
14.0
 40
14.0
 40
15.0
 40
15.0
 40
15.0
 40
16.0
 40
16.0
 40
16.0
 40
17.0
 40
17.0
 40
17.0
 40
18.0
 40
18.0
 40
18.0
 40
18.0
 10
10.87465060492022
 20
-8.824594859990028
 10
10.90637993433936
 20
-8.844920923353004
 10
10.98003607581402
 20
-8.876667478249581
 10
11.05751627327729
 20
-8.876667478249581
 10
11.20100450023794
 20
-8.876667478249581
 10
11.24544623199766
 20
-8.785234644071051
 10
11.24417154666812
 20
-8.716660018437151
 10
11.24289686133858
 20
-8.601111515861871
 10
11.13878607577433
 20
-8.551588268261408
 10
11.03085123422145
 20
-8.551588268261408
 10
11.03085123422145
 20
-8.551588268261408
 10
10.96863280975784
 20
-8.551588268261408
 10
10.96863280975784
 20
-8.551588268261408
 10
10.96863280975784
 20
-8.551588268261408
 10
10.96863280975784
 20
-8.467769095105277
 10
10.96863280975784
 20
-8.467769095105277
 10
10.96863280975784
 20
-8.467769095105277
 10
11.03085123422145
 20
-8.467769095105277
 10
11.03085123422145
 20
-8.467769095105277
 10
11.11212103671849
 20
-8.467769095105277
 10
11.2149571369532
 20
-8.425876734004638
 10
11.2149571369532
 20
-8.328087698655824
 10
11.2149571369532
 20
-8.262062443681012
 10
11.17306477585256
 20
-8.2036508497286
 10
11.070194224663
 20
-8.2036508497286
 10
11.00418619516562
 20
-8.2036508497286
 10
10.94069308537246
 20
-8.232848033966092
 10
10.90513969996468
 20
-8.25825561316981
 10
10.90513969996468
 20
-8.25825561316981
 10
10.87592529024977
 20
-8.176985810672766
 10
10.87592529024977
 20
-8.176985810672766
 10
10.91909233667995
 20
-8.145239255776187
 10
11.00291150983607
 20
-8.113492700879611
 10
11.09179497335552
 20
-8.113492700879611
 10
11.25433457834961
 20
-8.113492700879611
 10
11.32799071982425
 20
-8.210007050898886
 10
11.32799071982425
 20
-8.310311005951936
 10
11.32799071982425
 20
-8.39538763896018
 10
11.27717556141681
 20
-8.467769095105277
 10
11.17561414651165
 20
-8.5045971658426
 10
11.17561414651165
 20
-8.5045971658426
 10
11.17561414651165
 20
-8.507146536501684
 10
11.17561414651165
 20
-8.507146536501684
 10
11.27717556141681
 20
-8.527455374387232
 10
11.3597200492434
 20
-8.603643661043532
 10
11.3597200492434
 20
-8.719209389096237
 10
11.3597200492434
 20
-8.851277124523289
 10
11.25688394900869
 20
-8.96682562709857
 10
11.05879095860683
 20
-8.96682562709857
 10
10.96608343909875
 20
-8.96682562709857
 10
10.88481363660171
 20
-8.937611217383652
 10
10.84416150987576
 20
-8.910946178327817
 10
10.84416150987576
 20
-8.910946178327817
 10
10.87465060492022
 20
-8.824594859990028
 10
10.87465060492022
 20
-8.824594859990028
 97
        0
 97
        0
 75
     2
 76
     1
 98
        1
 10
0.0
 20
0.0
450
        0
451
        0
460
0.0
461
0.0
452
        0
462
0.0
453
        0
470

  0
SPLINE
  5
118
330
70
100
AcDbEntity
  8
Livello 1
100
AcDbSpline
210
0.0
220
0.0
230
1.0
 70
     9
 71
     3
 72
    17
 73
    13
 74
     0
 42
0.000000001
 43
0.0000000001
 40
0.0
 40
0.0
 40
0.0
 40
0.0
 40
1.0
 40
1.0
 40
1.0
 40
2.0
 40
2.0
 40
2.0
 40
3.0
 40
3.0
 40
3.0
 40
4.0
 40
4.0
 40
4.0
 40
4.0
 10
11.59977430265561
 20
-8.543974607239006
 30
0.0
 10
11.59977430265561
 20
-8.758569605015217
 30
0.0
 10
11.66581678310785
 20
-8.880474308760783
 30
0.0
 10
11.76741264896786
 20
-8.880474308760783
 30
0.0
 10
11.8816864662136
 20
-8.880474308760783
 30
0.0
 10
11.93629122965481
 20
-8.747149113481615
 30
0.0
 10
11.93629122965481
 20
-8.536343720739177
 30
0.0
 10
11.93629122965481
 20
-8.333169214496567
 30
0.0
 10
11.88423583687269
 20
-8.199844019217398
 30
0.0
 10
11.76868733429741
 20
-8.199844019217398
 30
0.0
 10
11.67088107347117
 20
-8.199844019217398
 30
0.0
 10
11.59977430265561
 20
-8.319199352303879
 30
0.0
 10
11.59977430265561
 20
-8.543974607239006
 30
0.0
  0
SPLINE
  5
119
330
70
100
AcDbEntity
  8
Livello 1
100
AcDbSpline
210
0.0
220
0.0
230
1.0
 70
     9
 71
     3
 72
    17
 73
    13
 74
     0
 42
0.000000001
 43
0.0000000001
 40
0.0
 40
0.0
 40
0.0
 40
0.0
 40
1.0
 40
1.0
 40
1.0
 40
2.0
 40
2.0
 40
2.0
 40
3.0
 40
3.0
 40
3.0
 40
4.0
 40
4.0
 40
4.0
 40
4.0
 10
12.04805012719632
 20
-8.531262204898434
 30
0.0
 10
12.04805012719632
 20
-8.811899683126885
 30
0.0
 10
11.94390489067721
 20
-8.96682562709857
 30
0.0
 10
11.76103922232015
 20
-8.96682562709857
 30
0.0
 10
11.59977430265561
 20
-8.96682562709857
 30
0.0
 10
11.49056477577319
 20
-8.815706513638087
 30
0.0
 10
11.48804985606896
 20
-8.542699921909463
 30
0.0
 10
11.48804985606896
 20
-8.265869274192212
 30
0.0
 10
11.60738796367801
 20
-8.113492700879611
 30
0.0
 10
11.77502630999027
 20
-8.113492700879611
 30
0.0
 10
11.94900363199538
 20
-8.113492700879611
 30
0.0
 10
12.04805012719632
 20
-8.268418644851298
 30
0.0
 10
12.04805012719632
 20
-8.531262204898434
 30
0.0
  0
HATCH
  5
11A
330
70
100
AcDbEntity
  8
Livello 1
 62
   250
420
  1907995
440
 33554687
100
AcDbHatch
 10
0.0
 20
0.0
 30
0.0
210
0.0
220
0.0
230
1.0
  2
SOLID
 70
     1
 71
     0
 91
        2
 92
        1
 93
        1
 72
     4
 94
        3
 73
     0
 74
     0
 95
       17
 96
       13
 40
0.0
 40
0.0
 40
0.0
 40
0.0
 40
1.0
 40
1.0
 40
1.0
 40
2.0
 40
2.0
 40
2.0
 40
3.0
 40
3.0
 40
3.0
 40
4.0
 40
4.0
 40
4.0
 40
4.0
 10
11.59977430265561
 20
-8.543974607239006
 10
11.59977430265561
 20
-8.758569605015217
 10
11.66581678310785
 20
-8.880474308760783
 10
11.76741264896786
 20
-8.880474308760783
 10
11.8816864662136
 20
-8.880474308760783
 10
11.93629122965481
 20
-8.747149113481615
 10
11.93629122965481
 20
-8.536343720739177
 10
11.93629122965481
 20
-8.333169214496567
 10
11.88423583687269
 20
-8.199844019217398
 10
11.76868733429741
 20
-8.199844019217398
 10
11.67088107347117
 20
-8.199844019217398
 10
11.59977430265561
 20
-8.319199352303879
 10
11.59977430265561
 20
-8.543974607239006
 97
        0
 97
        0
 92
        1
 93
        1
 72
     4
 94
        3
 73
     0
 74
     0
 95
       17
 96
       13
 40
0.0
 40
0.0
 40
0.0
 40
0.0
 40
1.0
 40
1.0
 40
1.0
 40
2.0
 40
2.0
 40
2.0
 40
3.0
 40
3.0
 40
3.0
 40
4.0
 40
4.0
 40
4.0
 40
4.0
 10
12.04805012719632
 20
-8.531262204898434
 10
12.04805012719632
 20
-8.811899683126885
 10
11.94390489067721
 20
-8.96682562709857
 10
11.76103922232015
 20
-8.96682562709857
 10
11.59977430265561
 20
-8.96682562709857
 10
11.49056477577319
 20
-8.815706513638087
 10
11.48804985606896
 20
-8.542699921909463
 10
11.48804985606896
 20
-8.265869274192212
 10
11.60738796367801
 20
-8.113492700879611
 10
11.77502630999027
 20
-8.113492700879611
 10
11.94900363199538
 20
-8.113492700879611
 10
12.04805012719632
 20
-8.268418644851298
 10
12.04805012719632
 20
-8.531262204898434
 97
        0
 97
        0
 75
     2
 76
     1
 98
        1
 10
0.0
 20
0.0
450
        0
451
        0
460
0.0
461
0.0
452
        0
462
0.0
453
        0
470

  0
SPLINE
  5
11B
330
70
100
AcDbEntity
  8
Livello 1
100
AcDbSpline
210
0.0
220
0.0
230
1.0
 70
     9
 71
     3
 72
    59
 73
    55
 74
     0
 42
0.000000001
 43
0.0000000001
 40
0.0
 40
0.0
 40
0.0
 40
0.0
 40
1.0
 40
1.0
 40
1.0
 40
2.0
 40
2.0
 40
2.0
 40
3.0
 40
3.0
 40
3.0
 40
4.0
 40
4.0
 40
4.0
 40
5.0
 40
5.0
 40
5.0
 40
6.0
 40
6.0
 40
6.0
 40
7.0
 40
7.0
 40
7.0
 40
8.0
 40
8.0
 40
8.0
 40
9.0
 40
9.0
 40
9.0
 40
10.0
 40
10.0
 40
10.0
 40
11.0
 40
11.0
 40
11.0
 40
12.0
 40
12.0
 40
12.0
 40
13.0
 40
13.0
 40
13.0
 40
14.0
 40
14.0
 40
14.0
 40
15.0
 40
15.0
 40
15.0
 40
16.0
 40
16.0
 40
16.0
 40
17.0
 40
17.0
 40
17.0
 40
18.0
 40
18.0
 40
18.0
 40
18.0
 10
15.93170626771846
 20
-5.312388914687527
 30
0.0
 10
15.95203233108143
 20
-5.28064235979095
 30
0.0
 10
15.98376166050059
 20
-5.206986218316308
 30
0.0
 10
15.98376166050059
 20
-5.129523246330466
 30
0.0
 10
15.98376166050059
 20
-4.986035019369808
 30
0.0
 10
15.89232882632205
 20
-4.941593287610086
 30
0.0
 10
15.82377142616558
 20
-4.942850747462203
 30
0.0
 10
15.7082229235903
 20
-4.944125432791746
 30
0.0
 10
15.65868245051241
 20
-5.048253443833422
 30
0.0
 10
15.65868245051241
 20
-5.156188285386298
 30
0.0
 10
15.65868245051241
 20
-5.156188285386298
 30
0.0
 10
15.65868245051241
 20
-5.218406709849912
 30
0.0
 10
15.65868245051241
 20
-5.218406709849912
 30
0.0
 10
15.65868245051241
 20
-5.218406709849912
 30
0.0
 10
15.57486327735628
 20
-5.218406709849912
 30
0.0
 10
15.57486327735628
 20
-5.218406709849912
 30
0.0
 10
15.57486327735628
 20
-5.218406709849912
 30
0.0
 10
15.57486327735628
 20
-5.156188285386298
 30
0.0
 10
15.57486327735628
 20
-5.156188285386298
 30
0.0
 10
15.57486327735628
 20
-5.074918482889255
 30
0.0
 10
15.53297091625564
 20
-4.972065157177122
 30
0.0
 10
15.43519910638425
 20
-4.972065157177122
 30
0.0
 10
15.36915662593201
 20
-4.972065157177122
 30
0.0
 10
15.31076225745703
 20
-5.013974743755186
 30
0.0
 10
15.31076225745703
 20
-5.11682806946732
 30
0.0
 10
15.31076225745703
 20
-5.182853324442132
 30
0.0
 10
15.33994221621709
 20
-5.246346434235287
 30
0.0
 10
15.36536702089824
 20
-5.281899819643066
 30
0.0
 10
15.36536702089824
 20
-5.281899819643066
 30
0.0
 10
15.2840972184012
 20
-5.311114229357983
 30
0.0
 10
15.2840972184012
 20
-5.311114229357983
 30
0.0
 10
15.25233343802718
 20
-5.267929957450378
 30
0.0
 10
15.22060410860803
 20
-5.184128009771676
 30
0.0
 10
15.22060410860803
 20
-5.09524454625223
 30
0.0
 10
15.22060410860803
 20
-4.93270494125814
 30
0.0
 10
15.31710123314989
 20
-4.859048799783501
 30
0.0
 10
15.41742241368036
 20
-4.859048799783501
 30
0.0
 10
15.50248182121118
 20
-4.859048799783501
 30
0.0
 10
15.57486327735628
 20
-4.909846732713509
 30
0.0
 10
15.6116913480936
 20
-5.011425373096101
 30
0.0
 10
15.6116913480936
 20
-5.011425373096101
 30
0.0
 10
15.61424071875269
 20
-5.011425373096101
 30
0.0
 10
15.61424071875269
 20
-5.011425373096101
 30
0.0
 10
15.63456678211566
 20
-4.909846732713509
 30
0.0
 10
15.71073784329453
 20
-4.827302244886923
 30
0.0
 10
15.82632079682467
 20
-4.827302244886923
 30
0.0
 10
15.95837130677429
 20
-4.827302244886923
 30
0.0
 10
16.07391980934957
 20
-4.930155570599056
 30
0.0
 10
16.07391980934957
 20
-5.128248561000923
 30
0.0
 10
16.07391980934957
 20
-5.220956080508996
 30
0.0
 10
16.04470539963465
 20
-5.302225883006039
 30
0.0
 10
16.01804036057882
 20
-5.342860784254561
 30
0.0
 10
16.01804036057882
 20
-5.342860784254561
 30
0.0
 10
15.93170626771846
 20
-5.312388914687527
 30
0.0
 10
15.93170626771846
 20
-5.312388914687527
 30
0.0
  0
HATCH
  5
11C
330
70
100
AcDbEntity
  8
Livello 1
 62
   250
420
  1907995
440
 33554687
100
AcDbHatch
 10
0.0
 20
0.0
 30
0.0
210
0.0
220
0.0
230
1.0
  2
SOLID
 70
     1
 71
     0
 91
        1
 92
        1
 93
        1
 72
     4
 94
        3
 73
     0
 74
     0
 95
       59
 96
       55
 40
0.0
 40
0.0
 40
0.0
 40
0.0
 40
1.0
 40
1.0
 40
1.0
 40
2.0
 40
2.0
 40
2.0
 40
3.0
 40
3.0
 40
3.0
 40
4.0
 40
4.0
 40
4.0
 40
5.0
 40
5.0
 40
5.0
 40
6.0
 40
6.0
 40
6.0
 40
7.0
 40
7.0
 40
7.0
 40
8.0
 40
8.0
 40
8.0
 40
9.0
 40
9.0
 40
9.0
 40
10.0
 40
10.0
 40
10.0
 40
11.0
 40
11.0
 40
11.0
 40
12.0
 40
12.0
 40
12.0
 40
13.0
 40
13.0
 40
13.0
 40
14.0
 40
14.0
 40
14.0
 40
15.0
 40
15.0
 40
15.0
 40
16.0
 40
16.0
 40
16.0
 40
17.0
 40
17.0
 40
17.0
 40
18.0
 40
18.0
 40
18.0
 40
18.0
 10
15.93170626771846
 20
-5.312388914687527
 10
15.95203233108143
 20
-5.28064235979095
 10
15.98376166050059
 20
-5.206986218316308
 10
15.98376166050059
 20
-5.129523246330466
 10
15.98376166050059
 20
-4.986035019369808
 10
15.89232882632205
 20
-4.941593287610086
 10
15.82377142616558
 20
-4.942850747462203
 10
15.7082229235903
 20
-4.944125432791746
 10
15.65868245051241
 20
-5.048253443833422
 10
15.65868245051241
 20
-5.156188285386298
 10
15.65868245051241
 20
-5.156188285386298
 10
15.65868245051241
 20
-5.218406709849912
 10
15.65868245051241
 20
-5.218406709849912
 10
15.65868245051241
 20
-5.218406709849912
 10
15.57486327735628
 20
-5.218406709849912
 10
15.57486327735628
 20
-5.218406709849912
 10
15.57486327735628
 20
-5.218406709849912
 10
15.57486327735628
 20
-5.156188285386298
 10
15.57486327735628
 20
-5.156188285386298
 10
15.57486327735628
 20
-5.074918482889255
 10
15.53297091625564
 20
-4.972065157177122
 10
15.43519910638425
 20
-4.972065157177122
 10
15.36915662593201
 20
-4.972065157177122
 10
15.31076225745703
 20
-5.013974743755186
 10
15.31076225745703
 20
-5.11682806946732
 10
15.31076225745703
 20
-5.182853324442132
 10
15.33994221621709
 20
-5.246346434235287
 10
15.36536702089824
 20
-5.281899819643066
 10
15.36536702089824
 20
-5.281899819643066
 10
15.2840972184012
 20
-5.311114229357983
 10
15.2840972184012
 20
-5.311114229357983
 10
15.25233343802718
 20
-5.267929957450378
 10
15.22060410860803
 20
-5.184128009771676
 10
15.22060410860803
 20
-5.09524454625223
 10
15.22060410860803
 20
-4.93270494125814
 10
15.31710123314989
 20
-4.859048799783501
 10
15.41742241368036
 20
-4.859048799783501
 10
15.50248182121118
 20
-4.859048799783501
 10
15.57486327735628
 20
-4.909846732713509
 10
15.6116913480936
 20
-5.011425373096101
 10
15.6116913480936
 20
-5.011425373096101
 10
15.61424071875269
 20
-5.011425373096101
 10
15.61424071875269
 20
-5.011425373096101
 10
15.63456678211566
 20
-4.909846732713509
 10
15.71073784329453
 20
-4.827302244886923
 10
15.82632079682467
 20
-4.827302244886923
 10
15.95837130677429
 20
-4.827302244886923
 10
16.07391980934957
 20
-4.930155570599056
 10
16.07391980934957
 20
-5.128248561000923
 10
16.07391980934957
 20
-5.220956080508996
 10
16.04470539963465
 20
-5.302225883006039
 10
16.01804036057882
 20
-5.342860784254561
 10
16.01804036057882
 20
-5.342860784254561
 10
15.93170626771846
 20
-5.312388914687527
 10
15.93170626771846
 20
-5.312388914687527
 97
        0
 97
        0
 75
     2
 76
     1
 98
        1
 10
0.0
 20
0.0
450
        0
451
        0
460
0.0
461
0.0
452
        0
462
0.0
453
        0
470

  0
SPLINE
  5
11D
330
70
100
AcDbEntity
  8
Livello 1
100
AcDbSpline
210
0.0
220
0.0
230
1.0
 70
     9
 71
     3
 72
    17
 73
    13
 74
     0
 42
0.000000001
 43
0.0000000001
 40
0.0
 40
0.0
 40
0.0
 40
0.0
 40
1.0
 40
1.0
 40
1.0
 40
2.0
 40
2.0
 40
2.0
 40
3.0
 40
3.0
 40
3.0
 40
4.0
 40
4.0
 40
4.0
 40
4.0
 10
15.65106878949001
 20
-4.587247991474715
 30
0.0
 10
15.86566378726622
 20
-4.587247991474715
 30
0.0
 10
15.98758571648921
 20
-4.521205511022476
 30
0.0
 10
15.98758571648921
 20
-4.419626870639883
 30
0.0
 10
15.98758571648921
 20
-4.305335827916721
 30
0.0
 10
15.85426052121004
 20
-4.250731064475511
 30
0.0
 10
15.64345512846761
 20
-4.250731064475511
 30
0.0
 10
15.44026339674757
 20
-4.250731064475511
 30
0.0
 10
15.3069382014684
 20
-4.302803682735063
 30
0.0
 10
15.3069382014684
 20
-4.41835218531034
 30
0.0
 10
15.3069382014684
 20
-4.516141220659157
 30
0.0
 10
15.42631076003231
 20
-4.587247991474715
 30
0.0
 10
15.65106878949001
 20
-4.587247991474715
 30
0.0
  0
SPLINE
  5
11E
330
70
100
AcDbEntity
  8
Livello 1
100
AcDbSpline
210
0.0
220
0.0
230
1.0
 70
     9
 71
     3
 72
    17
 73
    13
 74
     0
 42
0.000000001
 43
0.0000000001
 40
0.0
 40
0.0
 40
0.0
 40
0.0
 40
1.0
 40
1.0
 40
1.0
 40
2.0
 40
2.0
 40
2.0
 40
3.0
 40
3.0
 40
3.0
 40
4.0
 40
4.0
 40
4.0
 40
4.0
 10
15.63835638714944
 20
-4.138989392411431
 30
0.0
 10
15.91899386537789
 20
-4.138989392411431
 30
0.0
 10
16.07391980934957
 20
-4.243117403453108
 30
0.0
 10
16.07391980934957
 20
-4.425983071810169
 30
0.0
 10
16.07391980934957
 20
-4.587247991474715
 30
0.0
 10
15.92281792136651
 20
-4.696457518357134
 30
0.0
 10
15.64979410416047
 20
-4.698989663538792
 30
0.0
 10
15.37298068192064
 20
-4.698989663538792
 30
0.0
 10
15.22060410860803
 20
-4.579634330452313
 30
0.0
 10
15.22060410860803
 20
-4.412013209617481
 30
0.0
 10
15.22060410860803
 20
-4.238035887612365
 30
0.0
 10
15.37553005257972
 20
-4.138989392411431
 30
0.0
 10
15.63835638714944
 20
-4.138989392411431
 30
0.0
  0
HATCH
  5
11F
330
70
100
AcDbEntity
  8
Livello 1
 62
   250
420
  1907995
440
 33554687
100
AcDbHatch
 10
0.0
 20
0.0
 30
0.0
210
0.0
220
0.0
230
1.0
  2
SOLID
 70
     1
 71
     0
 91
        2
 92
        1
 93
        1
 72
     4
 94
        3
 73
     0
 74
     0
 95
       17
 96
       13
 40
0.0
 40
0.0
 40
0.0
 40
0.0
 40
1.0
 40
1.0
 40
1.0
 40
2.0
 40
2.0
 40
2.0
 40
3.0
 40
3.0
 40
3.0
 40
4.0
 40
4.0
 40
4.0
 40
4.0
 10
15.65106878949001
 20
-4.587247991474715
 10
15.86566378726622
 20
-4.587247991474715
 10
15.98758571648921
 20
-4.521205511022476
 10
15.98758571648921
 20
-4.419626870639883
 10
15.98758571648921
 20
-4.305335827916721
 10
15.85426052121004
 20
-4.250731064475511
 10
15.64345512846761
 20
-4.250731064475511
 10
15.44026339674757
 20
-4.250731064475511
 10
15.3069382014684
 20
-4.302803682735063
 10
15.3069382014684
 20
-4.41835218531034
 10
15.3069382014684
 20
-4.516141220659157
 10
15.42631076003231
 20
-4.587247991474715
 10
15.65106878949001
 20
-4.587247991474715
 97
        0
 97
        0
 92
        1
 93
        1
 72
     4
 94
        3
 73
     0
 74
     0
 95
       17
 96
       13
 40
0.0
 40
0.0
 40
0.0
 40
0.0
 40
1.0
 40
1.0
 40
1.0
 40
2.0
 40
2.0
 40
2.0
 40
3.0
 40
3.0
 40
3.0
 40
4.0
 40
4.0
 40
4.0
 40
4.0
 10
15.63835638714944
 20
-4.138989392411431
 10
15.91899386537789
 20
-4.138989392411431
 10
16.07391980934957
 20
-4.243117403453108
 10
16.07391980934957
 20
-4.425983071810169
 10
16.07391980934957
 20
-4.587247991474715
 10
15.92281792136651
 20
-4.696457518357134
 10
15.64979410416047
 20
-4.698989663538792
 10
15.37298068192064
 20
-4.698989663538792
 10
15.22060410860803
 20
-4.579634330452313
 10
15.22060410860803
 20
-4.412013209617481
 10
15.22060410860803
 20
-4.238035887612365
 10
15.37553005257972
 20
-4.138989392411431
 10
15.63835638714944
 20
-4.138989392411431
 97
        0
 97
        0
 75
     2
 76
     1
 98
        1
 10
0.0
 20
0.0
450
        0
451
        0
460
0.0
461
0.0
452
        0
462
0.0
453
        0
470

  0
ENDSEC
  0
SECTION
  2
OBJECTS
  0
DICTIONARY
  5
C
330
0
100
AcDbDictionary
281
     1
  3
ACAD_CIP_PREVIOUS_PRODUCT_INFO
350
F8
  3
ACAD_COLOR
350
63
  3
ACAD_DETAILVIEWSTYLE
350
6A
  3
ACAD_GROUP
350
D
  3
ACAD_LAYOUT
350
62
  3
ACAD_MATERIAL
350
10
  3
ACAD_MLEADERSTYLE
350
66
  3
ACAD_MLINESTYLE
350
5F
  3
ACAD_PLOTSETTINGS
350
61
  3
ACAD_PLOTSTYLENAME
350
E
  3
ACAD_SCALELIST
350
42
  3
ACAD_SECTIONVIEWSTYLE
350
68
  3
ACAD_TABLESTYLE
350
64
  3
ACAD_VISUALSTYLE
350
29
  3
ACDB_RECOMPOSE_DATA
350
128
  3
AcDbVariableDictionary
350
B5
  0
DICTIONARY
  5
F9
330
70
100
AcDbDictionary
280
     1
281
     1
  3
ACAD_SORTENTS
360
FA
  0
XRECORD
  5
F8
102
{ACAD_REACTORS
330
C
102
}
330
C
100
AcDbXrecord
280
     1
300
ACD
300
2019
300
ACD_F_S
  0
DICTIONARY
  5
63
102
{ACAD_REACTORS
330
C
102
}
330
C
100
AcDbDictionary
281
     1
  0
DICTIONARY
  5
6A
102
{ACAD_REACTORS
330
C
102
}
330
C
100
AcDbDictionary
281
     1
  3
Imperial24
350
6B
  0
DICTIONARY
  5
D
102
{ACAD_REACTORS
330
C
102
}
330
C
100
AcDbDictionary
281
     1
  0
DICTIONARY
  5
62
102
{ACAD_REACTORS
330
C
102
}
330
C
100
AcDbDictionary
281
     1
  3
Layout1
350
6F
  3
Layout2
350
77
  3
Model
350
73
  0
DICTIONARY
  5
10
102
{ACAD_REACTORS
330
C
102
}
330
C
100
AcDbDictionary
281
     1
  3
ByBlock
350
19
  3
ByLayer
350
11
  3
Global
350
21
  0
DICTIONARY
  5
66
102
{ACAD_REACTORS
330
C
102
}
330
C
100
AcDbDictionary
281
     1
  3
Standard
350
67
  0
DICTIONARY
  5
5F
102
{ACAD_REACTORS
330
C
102
}
330
C
100
AcDbDictionary
281
     1
  3
Standard
350
60
  0
DICTIONARY
  5
61
102
{ACAD_REACTORS
330
C
102
}
330
C
100
AcDbDictionary
281
     1
  0
ACDBDICTIONARYWDFLT
  5
E
102
{ACAD_REACTORS
330
C
102
}
330
C
100
AcDbDictionary
281
     1
  3
Normal
350
F
100
AcDbDictionaryWithDefault
340
F
  0
DICTIONARY
  5
42
102
{ACAD_REACTORS
330
C
102
}
330
C
100
AcDbDictionary
281
     1
  3
A0
350
43
  3
A1
350
44
  3
A2
350
45
  3
A3
350
46
  3
A4
350
47
  3
A5
350
48
  3
A6
350
49
  3
A7
350
4A
  3
A8
350
4B
  3
A9
350
4C
  3
B0
350
4D
  3
B1
350
4E
  3
B2
350
4F
  3
B3
350
50
  3
B4
350
51
  3
B5
350
52
  3
B6
350
53
  0
DICTIONARY
  5
68
102
{ACAD_REACTORS
330
C
102
}
330
C
100
AcDbDictionary
281
     1
  3
Imperial24
350
69
  0
DICTIONARY
  5
64
102
{ACAD_REACTORS
330
C
102
}
330
C
100
AcDbDictionary
281
     1
  3
Standard
350
65
  0
DICTIONARY
  5
29
102
{ACAD_REACTORS
330
C
102
}
330
C
100
AcDbDictionary
281
     1
  3
2dWireframe
350
2F
  3
Basic
350
2E
  3
Brighten
350
35
  3
ColorChange
350
39
  3
Conceptual
350
32
  3
Dim
350
34
  3
EdgeColorOff
350
41
  3
Facepattern
350
38
  3
Flat
350
2A
  3
FlatWithEdges
350
2B
  3
Gouraud
350
2C
  3
GouraudWithEdges
350
2D
  3
Hidden
350
31
  3
JitterOff
350
3F
  3
Linepattern
350
37
  3
OverhangOff
350
40
  3
Realistic
350
33
  3
Shaded
350
3E
  3
Shaded with edges
350
3D
  3
Shades of Gray
350
3A
  3
Sketchy
350
3B
  3
Thicken
350
36
  3
Wireframe
350
30
  3
X-Ray
350
3C
  0
XRECORD
  5
128
102
{ACAD_REACTORS
330
C
102
}
330
C
100
AcDbXrecord
280
     1
 90
        1
330
65
  0
DICTIONARY
  5
B5
102
{ACAD_REACTORS
330
C
102
}
330
C
100
AcDbDictionary
281
     1
  3
CANNOSCALE
350
BA
  3
CMLEADERSTYLE
350
B7
  3
CTABLESTYLE
350
B6
  3
CVIEWDETAILSTYLE
350
B8
  3
CVIEWSECTIONSTYLE
350
B9
  0
SORTENTSTABLE
  5
FA
102
{ACAD_REACTORS
330
F9
102
}
330
F9
100
AcDbSortentsTable
330
70
331
7F
  5
100
331
80
  5
101
331
81
  5
102
331
82
  5
103
331
83
  5
104
331
84
  5
105
331
85
  5
106
331
86
  5
107
331
88
  5
108
331
89
  5
109
331
8A
  5
10A
331
FB
  5
7F
331
FC
  5
80
331
FD
  5
81
331
FE
  5
82
331
FF
  5
83
331
100
  5
84
331
101
  5
85
331
102
  5
86
331
103
  5
88
331
104
  5
89
331
105
  5
8A
331
106
  5
FB
331
107
  5
FC
331
108
  5
FD
331
109
  5
FE
331
10A
  5
FF
  0
ACDBDETAILVIEWSTYLE
  5
6B
102
{ACAD_XDICTIONARY
360
12B
102
}
102
{ACAD_REACTORS
330
6A
102
}
330
6A
100
AcDbModelDocViewStyle
 70
     0
  3
Imperial24
290
     0
100
AcDbDetailViewStyle
 70
     0
 71
     0
 90
        3
 71
     1
340
55
 62
   256
 40
0.24
340
0
 62
   256
 40
0.24
300

 40
0.36
280
     3
 71
     2
340
5D
 90
       25
 62
   256
 71
     3
340
55
 62
   256
 40
0.24
 90
        1
 40
0.75
 90
        1
300
%<\AcVar ViewType \f "%tc1">% %<\AcVar ViewDetailId>%\PSCALE %<\AcVar ViewScale \f "%sn">%
 71
     4
340
5D
 90
       25
 62
   256
340
5D
 90
       25
 62
   256
280
     0
  0
LAYOUT
  5
6F
102
{ACAD_REACTORS
330
62
102
}
330
62
100
AcDbPlotSettings
  1

  2

  4

  6

 40
0.0
 41
0.0
 42
0.0
 43
0.0
 44
0.0
 45
0.0
 46
0.0
 47
0.0
 48
0.0
 49
0.0
140
0.0
141
0.0
142
1.0
143
1.0
 70
   688
 72
     0
 73
     0
 74
     5
  7

 75
    16
147
1.0
 76
     0
 77
     2
 78
   300
148
0.0
149
0.0
100
AcDbLayout
  1
Layout1
 70
     1
 71
     1
 10
0.0
 20
0.0
 11
12.0
 21
9.0
 12
0.0
 22
0.0
 32
0.0
 14
1.000000000000000E+20
 24
1.000000000000000E+20
 34
1.000000000000000E+20
 15
-1.000000000000000E+20
 25
-1.000000000000000E+20
 35
-1.000000000000000E+20
146
0.0
 13
0.0
 23
0.0
 33
0.0
 16
1.0
 26
0.0
 36
0.0
 17
0.0
 27
1.0
 37
0.0
 76
     0
330
6C
  0
LAYOUT
  5
77
102
{ACAD_REACTORS
330
62
102
}
330
62
100
AcDbPlotSettings
  1

  2

  4

  6

 40
0.0
 41
0.0
 42
0.0
 43
0.0
 44
0.0
 45
0.0
 46
0.0
 47
0.0
 48
0.0
 49
0.0
140
0.0
141
0.0
142
1.0
143
1.0
 70
   688
 72
     0
 73
     0
 74
     5
  7

 75
    16
147
1.0
 76
     0
 77
     2
 78
   300
148
0.0
149
0.0
100
AcDbLayout
  1
Layout2
 70
     1
 71
     2
 10
0.0
 20
0.0
 11
12.0
 21
9.0
 12
0.0
 22
0.0
 32
0.0
 14
0.0
 24
0.0
 34
0.0
 15
0.0
 25
0.0
 35
0.0
146
0.0
 13
0.0
 23
0.0
 33
0.0
 16
1.0
 26
0.0
 36
0.0
 17
0.0
 27
1.0
 37
0.0
 76
     0
330
74
  0
LAYOUT
  5
73
102
{ACAD_REACTORS
330
62
102
}
330
62
100
AcDbPlotSettings
  1

  2

  4

  6

 40
0.0
 41
0.0
 42
0.0
 43
0.0
 44
0.0
 45
0.0
 46
0.0
 47
0.0
 48
0.0
 49
0.0
140
0.0
141
0.0
142
1.0
143
1.0
 70
  1712
 72
     0
 73
     0
 74
     0
  7

 75
     0
147
1.0
 76
     0
 77
     2
 78
   300
148
0.0
149
0.0
100
AcDbLayout
  1
Model
 70
     1
 71
     0
 10
0.0
 20
0.0
 11
12.0
 21
9.0
 12
0.0
 22
0.0
 32
0.0
 14
0.0
 24
0.0
 34
0.0
 15
0.0
 25
0.0
 35
0.0
146
0.0
 13
0.0
 23
0.0
 33
0.0
 16
1.0
 26
0.0
 36
0.0
 17
0.0
 27
1.0
 37
0.0
 76
     0
330
70
331
57
  0
MATERIAL
  5
19
102
{ACAD_XDICTIONARY
360
1A
102
}
102
{ACAD_REACTORS
330
10
102
}
330
10
100
AcDbMaterial
  1
ByBlock
 72
     0
 43
0.0208333333333333
 43
0.0
 43
0.0
 43
0.0
 43
0.0
 43
0.0208333333333333
 43
0.0
 43
0.0
 43
0.0
 43
0.0
 43
1.0
 43
0.0
 43
0.0
 43
0.0
 43
0.0
 43
1.0
 77
     0
 47
0.0208333333333333
 47
0.0
 47
0.0
 47
0.0
 47
0.0
 47
0.0208333333333333
 47
0.0
 47
0.0
 47
0.0
 47
0.0
 47
1.0
 47
0.0
 47
0.0
 47
0.0
 47
0.0
 47
1.0
171
     0
 49
0.0208333333333333
 49
0.0
 49
0.0
 49
0.0
 49
0.0
 49
0.0208333333333333
 49
0.0
 49
0.0
 49
0.0
 49
0.0
 49
1.0
 49
0.0
 49
0.0
 49
0.0
 49
0.0
 49
1.0
175
     0
142
0.0208333333333333
142
0.0
142
0.0
142
0.0
142
0.0
142
0.0208333333333333
142
0.0
142
0.0
142
0.0
142
0.0
142
1.0
142
0.0
142
0.0
142
0.0
142
0.0
142
1.0
179
     0
144
0.0208333333333333
144
0.0
144
0.0
144
0.0
144
0.0
144
0.0208333333333333
144
0.0
144
0.0
144
0.0
144
0.0
144
1.0
144
0.0
144
0.0
144
0.0
144
0.0
144
1.0
147
0.0208333333333333
147
0.0
147
0.0
147
0.0
147
0.0
147
0.0208333333333333
147
0.0
147
0.0
147
0.0
147
0.0
147
1.0
147
0.0
147
0.0
147
0.0
147
0.0
147
1.0
  0
MATERIAL
  5
11
102
{ACAD_XDICTIONARY
360
12
102
}
102
{ACAD_REACTORS
330
10
102
}
330
10
100
AcDbMaterial
  1
ByLayer
 72
     0
 43
0.0208333333333333
 43
0.0
 43
0.0
 43
0.0
 43
0.0
 43
0.0208333333333333
 43
0.0
 43
0.0
 43
0.0
 43
0.0
 43
1.0
 43
0.0
 43
0.0
 43
0.0
 43
0.0
 43
1.0
 77
     0
 47
0.0208333333333333
 47
0.0
 47
0.0
 47
0.0
 47
0.0
 47
0.0208333333333333
 47
0.0
 47
0.0
 47
0.0
 47
0.0
 47
1.0
 47
0.0
 47
0.0
 47
0.0
 47
0.0
 47
1.0
171
     0
 49
0.0208333333333333
 49
0.0
 49
0.0
 49
0.0
 49
0.0
 49
0.0208333333333333
 49
0.0
 49
0.0
 49
0.0
 49
0.0
 49
1.0
 49
0.0
 49
0.0
 49
0.0
 49
0.0
 49
1.0
175
     0
142
0.0208333333333333
142
0.0
142
0.0
142
0.0
142
0.0
142
0.0208333333333333
142
0.0
142
0.0
142
0.0
142
0.0
142
1.0
142
0.0
142
0.0
142
0.0
142
0.0
142
1.0
179
     0
144
0.0208333333333333
144
0.0
144
0.0
144
0.0
144
0.0
144
0.0208333333333333
144
0.0
144
0.0
144
0.0
144
0.0
144
1.0
144
0.0
144
0.0
144
0.0
144
0.0
144
1.0
147
0.0208333333333333
147
0.0
147
0.0
147
0.0
147
0.0
147
0.0208333333333333
147
0.0
147
0.0
147
0.0
147
0.0
147
1.0
147
0.0
147
0.0
147
0.0
147
0.0
147
1.0
  0
MATERIAL
  5
21
102
{ACAD_XDICTIONARY
360
22
102
}
102
{ACAD_REACTORS
330
10
102
}
330
10
100
AcDbMaterial
  1
Global
 72
     0
 43
0.0208333333333333
 43
0.0
 43
0.0
 43
0.0
 43
0.0
 43
0.0208333333333333
 43
0.0
 43
0.0
 43
0.0
 43
0.0
 43
1.0
 43
0.0
 43
0.0
 43
0.0
 43
0.0
 43
1.0
 77
     0
 47
0.0208333333333333
 47
0.0
 47
0.0
 47
0.0
 47
0.0
 47
0.0208333333333333
 47
0.0
 47
0.0
 47
0.0
 47
0.0
 47
1.0
 47
0.0
 47
0.0
 47
0.0
 47
0.0
 47
1.0
171
     0
 49
0.0208333333333333
 49
0.0
 49
0.0
 49
0.0
 49
0.0
 49
0.0208333333333333
 49
0.0
 49
0.0
 49
0.0
 49
0.0
 49
1.0
 49
0.0
 49
0.0
 49
0.0
 49
0.0
 49
1.0
175
     0
142
0.0208333333333333
142
0.0
142
0.0
142
0.0
142
0.0
142
0.0208333333333333
142
0.0
142
0.0
142
0.0
142
0.0
142
1.0
142
0.0
142
0.0
142
0.0
142
0.0
142
1.0
179
     0
144
0.0208333333333333
144
0.0
144
0.0
144
0.0
144
0.0
144
0.0208333333333333
144
0.0
144
0.0
144
0.0
144
0.0
144
1.0
144
0.0
144
0.0
144
0.0
144
0.0
144
1.0
147
0.0208333333333333
147
0.0
147
0.0
147
0.0
147
0.0
147
0.0208333333333333
147
0.0
147
0.0
147
0.0
147
0.0
147
1.0
147
0.0
147
0.0
147
0.0
147
0.0
147
1.0
  0
MLEADERSTYLE
  5
67
102
{ACAD_REACTORS
330
66
102
}
330
66
100
AcDbMLeaderStyle
179
     2
170
     2
171
     1
172
     0
 90
        2
 40
0.0
 41
0.0
173
     1
 91
-1056964608
340
5B
 92
       -2
290
     1
 42
0.09
291
     1
 43
0.36
  3
Standard
 44
0.18
300

342
55
174
     1
178
     6
175
     1
176
     0
 93
-1056964608
 45
0.18
292
     0
297
     0
 46
0.18
 94
-1056964608
 47
1.0
 49
1.0
140
1.0
293
     1
141
0.0
294
     1
177
     0
142
1.0
295
     0
296
     0
143
0.125
271
     0
272
     9
273
     9
298
     1
  0
MLINESTYLE
  5
60
102
{ACAD_REACTORS
330
5F
102
}
330
5F
100
AcDbMlineStyle
  2
STANDARD
 70
     0
  3

 62
   256
 51
90.0
 52
90.0
 71
     2
 49
0.5
 62
   256
  6
BYLAYER
 49
-0.5
 62
   256
  6
BYLAYER
  0
ACDBPLACEHOLDER
  5
F
102
{ACAD_REACTORS
330
E
102
}
330
E
  0
SCALE
  5
43
102
{ACAD_REACTORS
330
42
102
}
330
42
100
AcDbScale
 70
     0
300
1:1
140
1.0
141
1.0
290
     1
  0
SCALE
  5
44
102
{ACAD_REACTORS
330
42
102
}
330
42
100
AcDbScale
 70
     0
300
1/128" = 1'-0"
140
0.0078125
141
12.0
290
     0
  0
SCALE
  5
45
102
{ACAD_REACTORS
330
42
102
}
330
42
100
AcDbScale
 70
     0
300
1/64" = 1'-0"
140
0.015625
141
12.0
290
     0
  0
SCALE
  5
46
102
{ACAD_REACTORS
330
42
102
}
330
42
100
AcDbScale
 70
     0
300
1/32" = 1'-0"
140
0.03125
141
12.0
290
     0
  0
SCALE
  5
47
102
{ACAD_REACTORS
330
42
102
}
330
42
100
AcDbScale
 70
     0
300
1/16" = 1'-0"
140
0.0625
141
12.0
290
     0
  0
SCALE
  5
48
102
{ACAD_REACTORS
330
42
102
}
330
42
100
AcDbScale
 70
     0
300
3/32" = 1'-0"
140
0.09375
141
12.0
290
     0
  0
SCALE
  5
49
102
{ACAD_REACTORS
330
42
102
}
330
42
100
AcDbScale
 70
     0
300
1/8" = 1'-0"
140
0.125
141
12.0
290
     0
  0
SCALE
  5
4A
102
{ACAD_REACTORS
330
42
102
}
330
42
100
AcDbScale
 70
     0
300
3/16" = 1'-0"
140
0.1875
141
12.0
290
     0
  0
SCALE
  5
4B
102
{ACAD_REACTORS
330
42
102
}
330
42
100
AcDbScale
 70
     0
300
1/4" = 1'-0"
140
0.25
141
12.0
290
     0
  0
SCALE
  5
4C
102
{ACAD_REACTORS
330
42
102
}
330
42
100
AcDbScale
 70
     0
300
3/8" = 1'-0"
140
0.375
141
12.0
290
     0
  0
SCALE
  5
4D
102
{ACAD_REACTORS
330
42
102
}
330
42
100
AcDbScale
 70
     0
300
1/2" = 1'-0"
140
0.5
141
12.0
290
     0
  0
SCALE
  5
4E
102
{ACAD_REACTORS
330
42
102
}
330
42
100
AcDbScale
 70
     0
300
3/4" = 1'-0"
140
0.75
141
12.0
290
     0
  0
SCALE
  5
4F
102
{ACAD_REACTORS
330
42
102
}
330
42
100
AcDbScale
 70
     0
300
1" = 1'-0"
140
1.0
141
12.0
290
     0
  0
SCALE
  5
50
102
{ACAD_REACTORS
330
42
102
}
330
42
100
AcDbScale
 70
     0
300
1-1/2" = 1'-0"
140
1.5
141
12.0
290
     0
  0
SCALE
  5
51
102
{ACAD_REACTORS
330
42
102
}
330
42
100
AcDbScale
 70
     0
300
3" = 1'-0"
140
3.0
141
12.0
290
     0
  0
SCALE
  5
52
102
{ACAD_REACTORS
330
42
102
}
330
42
100
AcDbScale
 70
     0
300
6" = 1'-0"
140
6.0
141
12.0
290
     0
  0
SCALE
  5
53
102
{ACAD_REACTORS
330
42
102
}
330
42
100
AcDbScale
 70
     0
300
1'-0" = 1'-0"
140
12.0
141
12.0
290
     0
  0
ACDBSECTIONVIEWSTYLE
  5
69
102
{ACAD_XDICTIONARY
360
129
102
}
102
{ACAD_REACTORS
330
68
102
}
330
68
100
AcDbModelDocViewStyle
 70
     0
  3
Imperial24
290
     0
100
AcDbSectionViewStyle
 70
     0
 71
     0
 90
       78
 71
     1
340
55
 62
   256
 40
0.24
340
0
340
0
 62
   256
 40
0.24
300
I, O, Q, S, X, Z
 40
0.48
 90
        3
 40
0.18
 90
        1
 71
     2
340
5D
 90
       25
 62
   256
340
5D
 90
       50
 62
   256
 40
0.24
 40
0.0
 40
0.24
 71
     3
340
55
 62
   256
 40
0.24
 90
        1
 40
0.75
 90
        1
300
%<\AcVar ViewType \f "%tc1">% %<\AcVar ViewSectionStartId>%-%<\AcVar ViewSectionEndId>%\PSCALE %<\AcVar ViewScale \f "%sn">%
 71
     4
 62
   256
 62
   257
300
ANSI31
 40
1.0
 90
        0
290
     0
290
     0
 90
        6
 40
0.0
 40
1.570796326794896
 40
0.2617993877991494
 40
1.308996938995747
 40
-0.2617993877991494
 40
1.832595714594045
  0
TABLESTYLE
  5
65
102
{ACAD_XDICTIONARY
360
BB
102
}
102
{ACAD_REACTORS
330
64
102
}
330
64
100
AcDbTableStyle
280
     0
  3
Standard
 70
     0
 71
     0
 40
0.06
 41
0.06
280
     0
281
     0
  7
Standard
140
0.18
170
     2
 62
     0
 63
     7
283
     0
 90
      512
 91
        0
  1

274
    -2
284
     1
 64
     0
275
    -2
285
     1
 65
     0
276
    -2
286
     1
 66
     0
277
    -2
287
     1
 67
     0
278
    -2
288
     1
 68
     0
279
    -2
289
     1
 69
     0
  7
Standard
140
0.25
170
     5
 62
     0
 63
     7
283
     0
 90
      512
 91
        0
  1

274
    -2
284
     1
 64
     0
275
    -2
285
     1
 65
     0
276
    -2
286
     1
 66
     0
277
    -2
287
     1
 67
     0
278
    -2
288
     1
 68
     0
279
    -2
289
     1
 69
     0
  7
Standard
140
0.18
170
     5
 62
     0
 63
     7
283
     0
 90
      512
 91
        0
  1

274
    -2
284
     1
 64
     0
275
    -2
285
     1
 65
     0
276
    -2
286
     1
 66
     0
277
    -2
287
     1
 67
     0
278
    -2
288
     1
 68
     0
279
    -2
289
     1
 69
     0
  0
VISUALSTYLE
  5
2F
102
{ACAD_REACTORS
330
29
102
}
330
29
100
AcDbVisualStyle
  2
2dWireframe
 70
     4
177
     3
291
     0
 70
    58
 90
        0
176
     1
 90
        2
176
     1
 90
        0
176
     1
 90
        0
176
     1
 40
0.6
176
     1
 40
30.0
176
     1
 62
     7
420
 16777215
176
     1
 90
        1
176
     1
 90
        4
176
     1
 62
     7
176
     1
 62
   257
176
     1
 90
        1
176
     1
 90
        1
176
     1
 40
1.0
176
     1
 90
        0
176
     1
 62
   257
176
     1
 40
1.0
176
     1
 90
        1
176
     1
 90
        6
176
     1
 90
        2
176
     1
 62
     7
176
     1
 90
        5
176
     1
 90
        0
176
     1
 90
        0
176
     1
290
     0
176
     1
 90
        1
176
     1
 40
0.0
176
     1
 90
        0
176
     1
290
     1
176
     1
290
     1
176
     1
290
     0
176
     1
290
     0
176
     1
290
     0
176
     1
290
     0
176
     1
290
     0
176
     1
290
     0
176
     1
290
     0
176
     1
 90
       50
176
     1
 40
0.0
176
     1
 40
1.0
176
     1
 90
        0
176
     1
 62
    18
420
        0
176
     1
 90
       50
176
     1
 90
        3
176
     1
 62
     5
420
      255
176
     1
290
     0
176
     1
 90
       50
176
     1
 90
       50
176
     1
 90
       50
176
     1
290
     0
176
     1
 90
       50
176
     1
 62
   256
176
     0
 40
1.0
176
     0
 90
        2
176
     1
  1
strokes_ogs.tif
176
     1
290
     0
176
     1
 40
1.0
176
     1
 40
1.0
176
     1
1001
ACAD
1000
AcDbSavedByObjectVersion
1070
     0
  0
VISUALSTYLE
  5
2E
102
{ACAD_REACTORS
330
29
102
}
330
29
100
AcDbVisualStyle
  2
Basic
 70
     7
177
     3
291
     1
 70
    58
 90
        1
176
     1
 90
        0
176
     1
 90
        1
176
     1
 90
        0
176
     1
 40
0.6
176
     1
 40
30.0
176
     1
 62
     7
420
 16777215
176
     1
 90
        0
176
     1
 90
        4
176
     1
 62
     7
176
     1
 62
   257
176
     1
 90
        1
176
     1
 90
        1
176
     1
 40
1.0
176
     1
 90
        8
176
     1
 62
     7
176
     1
 40
1.0
176
     1
 90
        1
176
     1
 90
        6
176
     1
 90
        2
176
     1
 62
     7
176
     1
 90
        5
176
     1
 90
        0
176
     1
 90
        0
176
     1
290
     0
176
     1
 90
        1
176
     1
 40
0.0
176
     1
 90
        0
176
     1
290
     0
176
     1
290
     1
176
     1
290
     1
176
     1
290
     0
176
     1
290
     0
176
     1
290
     0
176
     1
290
     0
176
     1
290
     0
176
     1
290
     0
176
     1
 90
       50
176
     1
 40
0.0
176
     1
 40
1.0
176
     1
 90
        0
176
     1
 62
    18
420
        0
176
     1
 90
       50
176
     1
 90
        3
176
     1
 62
     5
420
      255
176
     1
290
     0
176
     1
 90
       50
176
     1
 90
       50
176
     1
 90
       50
176
     1
290
     0
176
     1
 90
       50
176
     1
 62
   256
176
     0
 40
1.0
176
     0
 90
        2
176
     1
  1
strokes_ogs.tif
176
     1
290
     0
176
     1
 40
1.0
176
     1
 40
1.0
176
     1
1001
ACAD
1000
AcDbSavedByObjectVersion
1070
     0
  0
VISUALSTYLE
  5
35
102
{ACAD_REACTORS
330
29
102
}
330
29
100
AcDbVisualStyle
  2
Brighten
 70
    12
177
     3
291
     1
 70
    58
 90
        2
176
     1
 90
        2
176
     1
 90
        0
176
     1
 90
        0
176
     1
 40
0.6
176
     1
 40
30.0
176
     1
 62
     7
420
 16777215
176
     1
 90
        1
176
     1
 90
        4
176
     1
 62
     7
176
     1
 62
   257
176
     1
 90
        1
176
     1
 90
        1
176
     1
 40
1.0
176
     1
 90
        8
176
     1
 62
     7
176
     1
 40
1.0
176
     1
 90
        1
176
     1
 90
        6
176
     1
 90
        2
176
     1
 62
     7
176
     1
 90
        5
176
     1
 90
        0
176
     1
 90
        0
176
     1
290
     0
176
     1
 90
        1
176
     1
 40
50.0
176
     1
 90
        0
176
     1
290
     0
176
     1
290
     1
176
     1
290
     1
176
     1
290
     0
176
     1
290
     0
176
     1
290
     0
176
     1
290
     0
176
     1
290
     0
176
     1
290
     0
176
     1
 90
       50
176
     1
 40
0.0
176
     1
 40
1.0
176
     1
 90
        0
176
     1
 62
    18
420
        0
176
     1
 90
       50
176
     1
 90
        3
176
     1
 62
     5
420
      255
176
     1
290
     0
176
     1
 90
       50
176
     1
 90
       50
176
     1
 90
       50
176
     1
290
     0
176
     1
 90
       50
176
     1
 62
   256
176
     0
 40
1.0
176
     0
 90
        2
176
     1
  1
strokes_ogs.tif
176
     1
290
     0
176
     1
 40
1.0
176
     1
 40
1.0
176
     1
1001
ACAD
1000
AcDbSavedByObjectVersion
1070
     0
  0
VISUALSTYLE
  5
39
102
{ACAD_REACTORS
330
29
102
}
330
29
100
AcDbVisualStyle
  2
ColorChange
 70
    16
177
     3
291
     1
 70
    58
 90
        2
176
     1
 90
        2
176
     1
 90
        3
176
     1
 90
        0
176
     1
 40
0.6
176
     1
 40
30.0
176
     1
 62
     8
420
  8421504
176
     1
 90
        1
176
     1
 90
        4
176
     1
 62
     7
176
     1
 62
   257
176
     1
 90
        1
176
     1
 90
        1
176
     1
 40
1.0
176
     1
 90
        8
176
     1
 62
     8
420
  8421504
176
     1
 40
1.0
176
     1
 90
        1
176
     1
 90
        6
176
     1
 90
        2
176
     1
 62
     7
176
     1
 90
        5
176
     1
 90
        0
176
     1
 90
        0
176
     1
290
     0
176
     1
 90
        1
176
     1
 40
0.0
176
     1
 90
        0
176
     1
290
     0
176
     1
290
     1
176
     1
290
     1
176
     1
290
     0
176
     1
290
     0
176
     1
290
     0
176
     1
290
     0
176
     1
290
     0
176
     1
290
     0
176
     1
 90
       50
176
     1
 40
0.0
176
     1
 40
1.0
176
     1
 90
        0
176
     1
 62
    18
420
        0
176
     1
 90
       50
176
     1
 90
        3
176
     1
 62
     5
420
      255
176
     1
290
     0
176
     1
 90
       50
176
     1
 90
       50
176
     1
 90
       50
176
     1
290
     0
176
     1
 90
       50
176
     1
 62
   256
176
     0
 40
1.0
176
     0
 90
        2
176
     1
  1
strokes_ogs.tif
176
     1
290
     0
176
     1
 40
1.0
176
     1
 40
1.0
176
     1
1001
ACAD
1000
AcDbSavedByObjectVersion
1070
     0
  0
VISUALSTYLE
  5
32
102
{ACAD_REACTORS
330
29
102
}
330
29
100
AcDbVisualStyle
  2
Conceptual
 70
     9
177
     3
291
     0
 70
    58
 90
        3
176
     1
 90
        2
176
     1
 90
        0
176
     1
 90
        0
176
     1
 40
0.6
176
     1
 40
30.0
176
     1
 62
     7
420
 16777215
176
     1
 90
        2
176
     1
 90
        2
176
     1
 62
     7
176
     1
 62
   257
176
     1
 90
        1
176
     1
 90
        1
176
     1
 40
179.0
176
     1
 90
        8
176
     1
 62
     7
176
     1
 40
1.0
176
     1
 90
        1
176
     1
 90
        6
176
     1
 90
        2
176
     1
 62
     7
176
     1
 90
        3
176
     1
 90
        0
176
     1
 90
        0
176
     1
290
     0
176
     1
 90
        1
176
     1
 40
0.0
176
     1
 90
        0
176
     1
290
     0
176
     1
290
     1
176
     1
290
     1
176
     1
290
     0
176
     1
290
     0
176
     1
290
     0
176
     1
290
     0
176
     1
290
     0
176
     1
290
     0
176
     1
 90
       50
176
     1
 40
0.0
176
     1
 40
1.0
176
     1
 90
        0
176
     1
 62
    18
420
        0
176
     1
 90
       50
176
     1
 90
        3
176
     1
 62
     5
420
      255
176
     1
290
     0
176
     1
 90
       50
176
     1
 90
       50
176
     1
 90
       50
176
     1
290
     0
176
     1
 90
       50
176
     1
 62
   256
176
     0
 40
1.0
176
     0
 90
        2
176
     1
  1
strokes_ogs.tif
176
     1
290
     0
176
     1
 40
1.0
176
     1
 40
1.0
176
     1
1001
ACAD
1000
AcDbSavedByObjectVersion
1070
     0
  0
VISUALSTYLE
  5
34
102
{ACAD_REACTORS
330
29
102
}
330
29
100
AcDbVisualStyle
  2
Dim
 70
    11
177
     3
291
     1
 70
    58
 90
        2
176
     1
 90
        2
176
     1
 90
        0
176
     1
 90
        0
176
     1
 40
0.6
176
     1
 40
30.0
176
     1
 62
     7
420
 16777215
176
     1
 90
        1
176
     1
 90
        4
176
     1
 62
     7
176
     1
 62
   257
176
     1
 90
        1
176
     1
 90
        1
176
     1
 40
1.0
176
     1
 90
        8
176
     1
 62
     7
176
     1
 40
1.0
176
     1
 90
        1
176
     1
 90
        6
176
     1
 90
        2
176
     1
 62
     7
176
     1
 90
        5
176
     1
 90
        0
176
     1
 90
        0
176
     1
290
     0
176
     1
 90
        1
176
     1
 40
-50.0
176
     1
 90
        0
176
     1
290
     0
176
     1
290
     1
176
     1
290
     1
176
     1
290
     0
176
     1
290
     0
176
     1
290
     0
176
     1
290
     0
176
     1
290
     0
176
     1
290
     0
176
     1
 90
       50
176
     1
 40
0.0
176
     1
 40
1.0
176
     1
 90
        0
176
     1
 62
    18
420
        0
176
     1
 90
       50
176
     1
 90
        3
176
     1
 62
     5
420
      255
176
     1
290
     0
176
     1
 90
       50
176
     1
 90
       50
176
     1
 90
       50
176
     1
290
     0
176
     1
 90
       50
176
     1
 62
   256
176
     0
 40
1.0
176
     0
 90
        2
176
     1
  1
strokes_ogs.tif
176
     1
290
     0
176
     1
 40
1.0
176
     1
 40
1.0
176
     1
1001
ACAD
1000
AcDbSavedByObjectVersion
1070
     0
  0
VISUALSTYLE
  5
41
102
{ACAD_REACTORS
330
29
102
}
330
29
100
AcDbVisualStyle
  2
EdgeColorOff
 70
    22
177
     3
291
     1
 70
    58
 90
        2
176
     0
 90
        2
176
     0
 90
        0
176
     0
 90
        0
176
     0
 40
0.6
176
     0
 40
30.0
176
     0
 62
     7
420
 16777215
176
     0
 90
        1
176
     0
 90
        4
176
     0
 62
     7
176
     0
 62
   257
176
     0
 90
        1
176
     0
 90
        1
176
     0
 40
1.0
176
     0
 90
        8
176
     2
 62
     7
176
     0
 40
1.0
176
     0
 90
        1
176
     0
 90
        6
176
     0
 90
        2
176
     0
 62
     7
176
     0
 90
        5
176
     0
 90
        0
176
     0
 90
        0
176
     0
290
     0
176
     0
 90
        1
176
     0
 40
0.0
176
     0
 90
        0
176
     0
290
     0
176
     0
290
     1
176
     0
290
     1
176
     0
290
     0
176
     0
290
     0
176
     0
290
     0
176
     0
290
     0
176
     0
290
     0
176
     0
290
     0
176
     0
 90
       50
176
     0
 40
0.0
176
     0
 40
1.0
176
     0
 90
        0
176
     0
 62
    18
420
        0
176
     0
 90
       50
176
     0
 90
        3
176
     0
 62
     5
420
      255
176
     0
290
     0
176
     0
 90
       50
176
     0
 90
       50
176
     0
 90
       50
176
     0
290
     0
176
     0
 90
       50
176
     0
 62
   256
176
     0
 40
1.0
176
     0
 90
        2
176
     0
  1
strokes_ogs.tif
176
     0
290
     0
176
     0
 40
1.0
176
     0
 40
1.0
176
     0
1001
ACAD
1000
AcDbSavedByObjectVersion
1070
     0
  0
VISUALSTYLE
  5
38
102
{ACAD_REACTORS
330
29
102
}
330
29
100
AcDbVisualStyle
  2
Facepattern
 70
    15
177
     3
291
     1
 70
    58
 90
        2
176
     1
 90
        2
176
     1
 90
        0
176
     1
 90
        0
176
     1
 40
0.6
176
     1
 40
30.0
176
     1
 62
     7
420
 16777215
176
     1
 90
        1
176
     1
 90
        4
176
     1
 62
     7
176
     1
 62
   257
176
     1
 90
        1
176
     1
 90
        1
176
     1
 40
1.0
176
     1
 90
        8
176
     1
 62
     7
176
     1
 40
1.0
176
     1
 90
        1
176
     1
 90
        6
176
     1
 90
        2
176
     1
 62
     7
176
     1
 90
        5
176
     1
 90
        0
176
     1
 90
        0
176
     1
290
     0
176
     1
 90
        1
176
     1
 40
0.0
176
     1
 90
        0
176
     1
290
     0
176
     1
290
     1
176
     1
290
     1
176
     1
290
     0
176
     1
290
     0
176
     1
290
     0
176
     1
290
     0
176
     1
290
     0
176
     1
290
     0
176
     1
 90
       50
176
     1
 40
0.0
176
     1
 40
1.0
176
     1
 90
        0
176
     1
 62
    18
420
        0
176
     1
 90
       50
176
     1
 90
        3
176
     1
 62
     5
420
      255
176
     1
290
     0
176
     1
 90
       50
176
     1
 90
       50
176
     1
 90
       50
176
     1
290
     0
176
     1
 90
       50
176
     1
 62
   256
176
     0
 40
1.0
176
     0
 90
        2
176
     1
  1
strokes_ogs.tif
176
     1
290
     0
176
     1
 40
1.0
176
     1
 40
1.0
176
     1
1001
ACAD
1000
AcDbSavedByObjectVersion
1070
     0
  0
VISUALSTYLE
  5
2A
102
{ACAD_REACTORS
330
29
102
}
330
29
100
AcDbVisualStyle
  2
Flat
 70
     0
177
     3
291
     1
 70
    58
 90
        2
176
     1
 90
        1
176
     1
 90
        1
176
     1
 90
        2
176
     1
 40
0.6
176
     1
 40
30.0
176
     1
 62
     7
420
 16777215
176
     1
 90
        0
176
     1
 90
        0
176
     1
 62
     7
176
     1
 62
   257
176
     1
 90
        1
176
     1
 90
        1
176
     1
 40
1.0
176
     1
 90
        8
176
     1
 62
     7
176
     1
 40
1.0
176
     1
 90
        1
176
     1
 90
        6
176
     1
 90
        2
176
     1
 62
     7
176
     1
 90
        5
176
     1
 90
        0
176
     1
 90
        0
176
     1
290
     0
176
     1
 90
       13
176
     1
 40
0.0
176
     1
 90
        0
176
     1
290
     0
176
     1
290
     1
176
     1
290
     1
176
     1
290
     0
176
     1
290
     0
176
     1
290
     0
176
     1
290
     0
176
     1
290
     0
176
     1
290
     0
176
     1
 90
       50
176
     1
 40
0.0
176
     1
 40
1.0
176
     1
 90
        0
176
     1
 62
    18
420
        0
176
     1
 90
       50
176
     1
 90
        3
176
     1
 62
     5
420
      255
176
     1
290
     0
176
     1
 90
       50
176
     1
 90
       50
176
     1
 90
       50
176
     1
290
     0
176
     1
 90
       50
176
     1
 62
   256
176
     0
 40
1.0
176
     0
 90
        2
176
     1
  1
strokes_ogs.tif
176
     1
290
     0
176
     1
 40
1.0
176
     1
 40
1.0
176
     1
1001
ACAD
1000
AcDbSavedByObjectVersion
1070
     0
  0
VISUALSTYLE
  5
2B
102
{ACAD_REACTORS
330
29
102
}
330
29
100
AcDbVisualStyle
  2
FlatWithEdges
 70
     1
177
     3
291
     1
 70
    58
 90
        2
176
     1
 90
        1
176
     1
 90
        1
176
     1
 90
        2
176
     1
 40
0.6
176
     1
 40
30.0
176
     1
 62
     7
420
 16777215
176
     1
 90
        1
176
     1
 90
        0
176
     1
 62
     7
176
     1
 62
   257
176
     1
 90
        1
176
     1
 90
        1
176
     1
 40
1.0
176
     1
 90
        0
176
     1
 62
   257
176
     1
 40
1.0
176
     1
 90
        1
176
     1
 90
        6
176
     1
 90
        2
176
     1
 62
     7
176
     1
 90
        5
176
     1
 90
        0
176
     1
 90
        0
176
     1
290
     0
176
     1
 90
       13
176
     1
 40
0.0
176
     1
 90
        0
176
     1
290
     0
176
     1
290
     1
176
     1
290
     1
176
     1
290
     0
176
     1
290
     0
176
     1
290
     0
176
     1
290
     0
176
     1
290
     0
176
     1
290
     0
176
     1
 90
       50
176
     1
 40
0.0
176
     1
 40
1.0
176
     1
 90
        0
176
     1
 62
    18
420
        0
176
     1
 90
       50
176
     1
 90
        3
176
     1
 62
     5
420
      255
176
     1
290
     0
176
     1
 90
       50
176
     1
 90
       50
176
     1
 90
       50
176
     1
290
     0
176
     1
 90
       50
176
     1
 62
   256
176
     0
 40
1.0
176
     0
 90
        2
176
     1
  1
strokes_ogs.tif
176
     1
290
     0
176
     1
 40
1.0
176
     1
 40
1.0
176
     1
1001
ACAD
1000
AcDbSavedByObjectVersion
1070
     0
  0
VISUALSTYLE
  5
2C
102
{ACAD_REACTORS
330
29
102
}
330
29
100
AcDbVisualStyle
  2
Gouraud
 70
     2
177
     3
291
     1
 70
    58
 90
        2
176
     1
 90
        2
176
     1
 90
        1
176
     1
 90
        2
176
     1
 40
0.6
176
     1
 40
30.0
176
     1
 62
     7
420
 16777215
176
     1
 90
        0
176
     1
 90
        0
176
     1
 62
     7
176
     1
 62
   257
176
     1
 90
        1
176
     1
 90
        1
176
     1
 40
1.0
176
     1
 90
        0
176
     1
 62
     7
176
     1
 40
1.0
176
     1
 90
        1
176
     1
 90
        6
176
     1
 90
        2
176
     1
 62
     7
176
     1
 90
        5
176
     1
 90
        0
176
     1
 90
        0
176
     1
290
     0
176
     1
 90
       13
176
     1
 40
0.0
176
     1
 90
        0
176
     1
290
     0
176
     1
290
     1
176
     1
290
     1
176
     1
290
     0
176
     1
290
     0
176
     1
290
     0
176
     1
290
     0
176
     1
290
     0
176
     1
290
     0
176
     1
 90
       50
176
     1
 40
0.0
176
     1
 40
1.0
176
     1
 90
        0
176
     1
 62
    18
420
        0
176
     1
 90
       50
176
     1
 90
        3
176
     1
 62
     5
420
      255
176
     1
290
     0
176
     1
 90
       50
176
     1
 90
       50
176
     1
 90
       50
176
     1
290
     0
176
     1
 90
       50
176
     1
 62
   256
176
     0
 40
1.0
176
     0
 90
        2
176
     1
  1
strokes_ogs.tif
176
     1
290
     0
176
     1
 40
1.0
176
     1
 40
1.0
176
     1
1001
ACAD
1000
AcDbSavedByObjectVersion
1070
     0
  0
VISUALSTYLE
  5
2D
102
{ACAD_REACTORS
330
29
102
}
330
29
100
AcDbVisualStyle
  2
GouraudWithEdges
 70
     3
177
     3
291
     1
 70
    58
 90
        2
176
     1
 90
        2
176
     1
 90
        1
176
     1
 90
        2
176
     1
 40
0.6
176
     1
 40
30.0
176
     1
 62
     7
420
 16777215
176
     1
 90
        1
176
     1
 90
        0
176
     1
 62
     7
176
     1
 62
   257
176
     1
 90
        1
176
     1
 90
        1
176
     1
 40
1.0
176
     1
 90
        0
176
     1
 62
   257
176
     1
 40
1.0
176
     1
 90
        1
176
     1
 90
        6
176
     1
 90
        2
176
     1
 62
     7
176
     1
 90
        5
176
     1
 90
        0
176
     1
 90
        0
176
     1
290
     0
176
     1
 90
       13
176
     1
 40
0.0
176
     1
 90
        0
176
     1
290
     0
176
     1
290
     1
176
     1
290
     1
176
     1
290
     0
176
     1
290
     0
176
     1
290
     0
176
     1
290
     0
176
     1
290
     0
176
     1
290
     0
176
     1
 90
       50
176
     1
 40
0.0
176
     1
 40
1.0
176
     1
 90
        0
176
     1
 62
    18
420
        0
176
     1
 90
       50
176
     1
 90
        3
176
     1
 62
     5
420
      255
176
     1
290
     0
176
     1
 90
       50
176
     1
 90
       50
176
     1
 90
       50
176
     1
290
     0
176
     1
 90
       50
176
     1
 62
   256
176
     0
 40
1.0
176
     0
 90
        2
176
     1
  1
strokes_ogs.tif
176
     1
290
     0
176
     1
 40
1.0
176
     1
 40
1.0
176
     1
1001
ACAD
1000
AcDbSavedByObjectVersion
1070
     0
  0
VISUALSTYLE
  5
31
102
{ACAD_REACTORS
330
29
102
}
330
29
100
AcDbVisualStyle
  2
Hidden
 70
     6
177
     3
291
     0
 70
    58
 90
        1
176
     1
 90
        2
176
     1
 90
        2
176
     1
 90
        0
176
     1
 40
0.6
176
     1
 40
30.0
176
     1
 62
     7
420
 16777215
176
     1
 90
        2
176
     1
 90
        2
176
     1
 62
     7
176
     1
 62
   257
176
     1
 90
        2
176
     1
 90
        1
176
     1
 40
40.0
176
     1
 90
        0
176
     1
 62
   257
176
     1
 40
1.0
176
     1
 90
        1
176
     1
 90
        6
176
     1
 90
        2
176
     1
 62
     7
176
     1
 90
        3
176
     1
 90
        0
176
     1
 90
        0
176
     1
290
     0
176
     1
 90
        1
176
     1
 40
0.0
176
     1
 90
        0
176
     1
290
     0
176
     1
290
     1
176
     1
290
     1
176
     1
290
     0
176
     1
290
     0
176
     1
290
     0
176
     1
290
     0
176
     1
290
     0
176
     1
290
     0
176
     1
 90
       50
176
     1
 40
0.0
176
     1
 40
1.0
176
     1
 90
        0
176
     1
 62
    18
420
        0
176
     1
 90
       50
176
     1
 90
        3
176
     1
 62
     5
420
      255
176
     1
290
     0
176
     1
 90
       50
176
     1
 90
       50
176
     1
 90
       50
176
     1
290
     0
176
     1
 90
       50
176
     1
 62
   256
176
     0
 40
1.0
176
     0
 90
        2
176
     1
  1
strokes_ogs.tif
176
     1
290
     0
176
     1
 40
1.0
176
     1
 40
1.0
176
     1
1001
ACAD
1000
AcDbSavedByObjectVersion
1070
     0
  0
VISUALSTYLE
  5
3F
102
{ACAD_REACTORS
330
29
102
}
330
29
100
AcDbVisualStyle
  2
JitterOff
 70
    20
177
     3
291
     1
 70
    58
 90
        2
176
     0
 90
        2
176
     0
 90
        0
176
     0
 90
        0
176
     0
 40
0.6
176
     0
 40
30.0
176
     0
 62
     7
420
 16777215
176
     0
 90
        1
176
     0
 90
        4
176
     0
 62
     7
176
     0
 62
   257
176
     0
 90
        1
176
     0
 90
        1
176
     0
 40
1.0
176
     0
 90
       10
176
     2
 62
     7
176
     0
 40
1.0
176
     0
 90
        1
176
     0
 90
        6
176
     0
 90
        2
176
     0
 62
     7
176
     0
 90
        5
176
     0
 90
        0
176
     0
 90
        0
176
     0
290
     0
176
     0
 90
        1
176
     0
 40
0.0
176
     0
 90
        0
176
     0
290
     0
176
     0
290
     1
176
     0
290
     1
176
     0
290
     0
176
     0
290
     0
176
     0
290
     0
176
     0
290
     0
176
     0
290
     0
176
     0
290
     0
176
     0
 90
       50
176
     0
 40
0.0
176
     0
 40
1.0
176
     0
 90
        0
176
     0
 62
    18
420
        0
176
     0
 90
       50
176
     0
 90
        3
176
     0
 62
     5
420
      255
176
     0
290
     0
176
     0
 90
       50
176
     0
 90
       50
176
     0
 90
       50
176
     0
290
     0
176
     0
 90
       50
176
     0
 62
   256
176
     0
 40
1.0
176
     0
 90
        2
176
     0
  1
strokes_ogs.tif
176
     0
290
     0
176
     0
 40
1.0
176
     0
 40
1.0
176
     0
1001
ACAD
1000
AcDbSavedByObjectVersion
1070
     0
  0
VISUALSTYLE
  5
37
102
{ACAD_REACTORS
330
29
102
}
330
29
100
AcDbVisualStyle
  2
Linepattern
 70
    14
177
     3
291
     1
 70
    58
 90
        2
176
     1
 90
        2
176
     1
 90
        0
176
     1
 90
        0
176
     1
 40
0.6
176
     1
 40
30.0
176
     1
 62
     7
420
 16777215
176
     1
 90
        1
176
     1
 90
        4
176
     1
 62
     7
176
     1
 62
   257
176
     1
 90
        7
176
     1
 90
        7
176
     1
 40
1.0
176
     1
 90
        8
176
     1
 62
     7
176
     1
 40
1.0
176
     1
 90
        1
176
     1
 90
        6
176
     1
 90
        2
176
     1
 62
     7
176
     1
 90
        5
176
     1
 90
        0
176
     1
 90
        0
176
     1
290
     0
176
     1
 90
        1
176
     1
 40
0.0
176
     1
 90
        0
176
     1
290
     0
176
     1
290
     1
176
     1
290
     1
176
     1
290
     0
176
     1
290
     0
176
     1
290
     0
176
     1
290
     0
176
     1
290
     0
176
     1
290
     0
176
     1
 90
       50
176
     1
 40
0.0
176
     1
 40
1.0
176
     1
 90
        0
176
     1
 62
    18
420
        0
176
     1
 90
       50
176
     1
 90
        3
176
     1
 62
     5
420
      255
176
     1
290
     0
176
     1
 90
       50
176
     1
 90
       50
176
     1
 90
       50
176
     1
290
     0
176
     1
 90
       50
176
     1
 62
   256
176
     0
 40
1.0
176
     0
 90
        2
176
     1
  1
strokes_ogs.tif
176
     1
290
     0
176
     1
 40
1.0
176
     1
 40
1.0
176
     1
1001
ACAD
1000
AcDbSavedByObjectVersion
1070
     0
  0
VISUALSTYLE
  5
40
102
{ACAD_REACTORS
330
29
102
}
330
29
100
AcDbVisualStyle
  2
OverhangOff
 70
    21
177
     3
291
     1
 70
    58
 90
        2
176
     0
 90
        2
176
     0
 90
        0
176
     0
 90
        0
176
     0
 40
0.6
176
     0
 40
30.0
176
     0
 62
     7
420
 16777215
176
     0
 90
        1
176
     0
 90
        4
176
     0
 62
     7
176
     0
 62
   257
176
     0
 90
        1
176
     0
 90
        1
176
     0
 40
1.0
176
     0
 90
        9
176
     2
 62
     7
176
     0
 40
1.0
176
     0
 90
        1
176
     0
 90
        6
176
     0
 90
        2
176
     0
 62
     7
176
     0
 90
        5
176
     0
 90
        0
176
     0
 90
        0
176
     0
290
     0
176
     0
 90
        1
176
     0
 40
0.0
176
     0
 90
        0
176
     0
290
     0
176
     0
290
     1
176
     0
290
     1
176
     0
290
     0
176
     0
290
     0
176
     0
290
     0
176
     0
290
     0
176
     0
290
     0
176
     0
290
     0
176
     0
 90
       50
176
     0
 40
0.0
176
     0
 40
1.0
176
     0
 90
        0
176
     0
 62
    18
420
        0
176
     0
 90
       50
176
     0
 90
        3
176
     0
 62
     5
420
      255
176
     0
290
     0
176
     0
 90
       50
176
     0
 90
       50
176
     0
 90
       50
176
     0
290
     0
176
     0
 90
       50
176
     0
 62
   256
176
     0
 40
1.0
176
     0
 90
        2
176
     0
  1
strokes_ogs.tif
176
     0
290
     0
176
     0
 40
1.0
176
     0
 40
1.0
176
     0
1001
ACAD
1000
AcDbSavedByObjectVersion
1070
     0
  0
VISUALSTYLE
  5
33
102
{ACAD_REACTORS
330
29
102
}
330
29
100
AcDbVisualStyle
  2
Realistic
 70
     8
177
     3
291
     0
 70
    58
 90
        2
176
     1
 90
        3
176
     1
 90
        0
176
     1
 90
        2
176
     1
 40
0.6
176
     1
 40
30.0
176
     1
 62
     7
420
 16777215
176
     1
 90
        0
176
     1
 90
        0
176
     1
 62
     7
176
     1
 62
   257
176
     1
 90
        1
176
     1
 90
        1
176
     1
 40
1.0
176
     1
 90
        8
176
     1
 62
   257
176
     1
 40
1.0
176
     1
 90
        1
176
     1
 90
        6
176
     1
 90
        2
176
     1
 62
     7
176
     1
 90
        3
176
     1
 90
        0
176
     1
 90
        0
176
     1
290
     0
176
     1
 90
       13
176
     1
 40
0.0
176
     1
 90
        0
176
     1
290
     0
176
     1
290
     1
176
     1
290
     1
176
     1
290
     0
176
     1
290
     0
176
     1
290
     0
176
     1
290
     0
176
     1
290
     0
176
     1
290
     0
176
     1
 90
       50
176
     1
 40
0.0
176
     1
 40
1.0
176
     1
 90
        0
176
     1
 62
    18
420
        0
176
     1
 90
       50
176
     1
 90
        3
176
     1
 62
     5
420
      255
176
     1
290
     0
176
     1
 90
       50
176
     1
 90
       50
176
     1
 90
       50
176
     1
290
     0
176
     1
 90
       50
176
     1
 62
   256
176
     0
 40
1.0
176
     0
 90
        2
176
     1
  1
strokes_ogs.tif
176
     1
290
     0
176
     1
 40
1.0
176
     1
 40
1.0
176
     1
1001
ACAD
1000
AcDbSavedByObjectVersion
1070
     0
  0
VISUALSTYLE
  5
3E
102
{ACAD_REACTORS
330
29
102
}
330
29
100
AcDbVisualStyle
  2
Shaded
 70
    27
177
     3
291
     0
 70
    58
 90
        2
176
     1
 90
        2
176
     1
 90
        1
176
     1
 90
        2
176
     1
 40
0.6
176
     1
 40
30.0
176
     1
 62
     7
420
 16777215
176
     1
 90
        0
176
     1
 90
        4
176
     1
 62
     7
176
     1
 62
   257
176
     1
 90
        1
176
     1
 90
        1
176
     1
 40
1.0
176
     1
 90
        8
176
     1
 62
   257
176
     1
 40
1.0
176
     1
 90
        1
176
     1
 90
        6
176
     1
 90
        2
176
     1
 62
     8
420
  7895160
176
     1
 90
        3
176
     1
 90
        0
176
     1
 90
        0
176
     1
290
     0
176
     1
 90
        5
176
     1
 40
0.0
176
     1
 90
        0
176
     1
290
     0
176
     1
290
     1
176
     1
290
     1
176
     1
290
     0
176
     1
290
     0
176
     1
290
     0
176
     1
290
     0
176
     1
290
     0
176
     1
290
     0
176
     1
 90
       50
176
     1
 40
0.0
176
     1
 40
1.0
176
     1
 90
        0
176
     1
 62
    18
420
        0
176
     1
 90
       50
176
     1
 90
        3
176
     1
 62
     5
420
      255
176
     1
290
     0
176
     1
 90
       50
176
     1
 90
       50
176
     1
 90
       50
176
     1
290
     0
176
     1
 90
       50
176
     1
 62
   256
176
     0
 40
1.0
176
     0
 90
        2
176
     1
  1
strokes_ogs.tif
176
     1
290
     0
176
     1
 40
1.0
176
     1
 40
1.0
176
     1
1001
ACAD
1000
AcDbSavedByObjectVersion
1070
     0
  0
VISUALSTYLE
  5
3D
102
{ACAD_REACTORS
330
29
102
}
330
29
100
AcDbVisualStyle
  2
Shaded with edges
 70
    26
177
     3
291
     0
 70
    58
 90
        2
176
     1
 90
        2
176
     1
 90
        1
176
     1
 90
        2
176
     1
 40
0.6
176
     1
 40
30.0
176
     1
 62
     7
420
 16777215
176
     1
 90
        1
176
     1
 90
        2
176
     1
 62
     7
176
     1
 62
   257
176
     1
 90
        2
176
     1
 90
        1
176
     1
 40
1.0
176
     1
 90
        8
176
     1
 62
   257
176
     1
 40
1.0
176
     1
 90
        1
176
     1
 90
        6
176
     1
 90
        2
176
     1
 62
     7
176
     1
 90
        3
176
     1
 90
        0
176
     1
 90
        0
176
     1
290
     0
176
     1
 90
        5
176
     1
 40
0.0
176
     1
 90
        0
176
     1
290
     0
176
     1
290
     1
176
     1
290
     1
176
     1
290
     0
176
     1
290
     0
176
     1
290
     0
176
     1
290
     0
176
     1
290
     0
176
     1
290
     0
176
     1
 90
       50
176
     1
 40
0.0
176
     1
 40
1.0
176
     1
 90
        0
176
     1
 62
    18
420
        0
176
     1
 90
       50
176
     1
 90
        3
176
     1
 62
     5
420
      255
176
     1
290
     0
176
     1
 90
       50
176
     1
 90
       50
176
     1
 90
       50
176
     1
290
     0
176
     1
 90
       50
176
     1
 62
   256
176
     0
 40
1.0
176
     0
 90
        2
176
     1
  1
strokes_ogs.tif
176
     1
290
     0
176
     1
 40
1.0
176
     1
 40
1.0
176
     1
1001
ACAD
1000
AcDbSavedByObjectVersion
1070
     0
  0
VISUALSTYLE
  5
3A
102
{ACAD_REACTORS
330
29
102
}
330
29
100
AcDbVisualStyle
  2
Shades of Gray
 70
    23
177
     3
291
     0
 70
    58
 90
        2
176
     1
 90
        2
176
     1
 90
        3
176
     1
 90
        0
176
     1
 40
0.6
176
     1
 40
30.0
176
     1
 62
     7
420
 16777215
176
     1
 90
        2
176
     1
 90
        2
176
     1
 62
     7
176
     1
 62
     7
176
     1
 90
        1
176
     1
 90
        1
176
     1
 40
40.0
176
     1
 90
        8
176
     1
 62
     7
176
     1
 40
1.0
176
     1
 90
        1
176
     1
 90
        6
176
     1
 90
        2
176
     1
 62
     7
176
     1
 90
        3
176
     1
 90
        0
176
     1
 90
        0
176
     1
290
     0
176
     1
 90
        1
176
     1
 40
0.0
176
     1
 90
        0
176
     1
290
     0
176
     1
290
     1
176
     1
290
     1
176
     1
290
     0
176
     1
290
     0
176
     1
290
     0
176
     1
290
     0
176
     1
290
     0
176
     1
290
     0
176
     1
 90
       50
176
     1
 40
0.0
176
     1
 40
1.0
176
     1
 90
        0
176
     1
 62
    18
420
        0
176
     1
 90
       50
176
     1
 90
        3
176
     1
 62
     5
420
      255
176
     1
290
     0
176
     1
 90
       50
176
     1
 90
       50
176
     1
 90
       50
176
     1
290
     0
176
     1
 90
       50
176
     1
 62
   256
176
     0
 40
1.0
176
     0
 90
        2
176
     1
  1
strokes_ogs.tif
176
     1
290
     0
176
     1
 40
1.0
176
     1
 40
1.0
176
     1
1001
ACAD
1000
AcDbSavedByObjectVersion
1070
     0
  0
VISUALSTYLE
  5
3B
102
{ACAD_REACTORS
330
29
102
}
330
29
100
AcDbVisualStyle
  2
Sketchy
 70
    24
177
     3
291
     0
 70
    58
 90
        1
176
     1
 90
        2
176
     1
 90
        2
176
     1
 90
        0
176
     1
 40
0.6
176
     1
 40
30.0
176
     1
 62
     7
420
 16777215
176
     1
 90
        2
176
     1
 90
        2
176
     1
 62
     7
176
     1
 62
     7
176
     1
 90
        1
176
     1
 90
        1
176
     1
 40
40.0
176
     1
 90
       11
176
     1
 62
     7
176
     1
 40
1.0
176
     1
 90
        1
176
     1
 90
        6
176
     1
 90
        2
176
     1
 62
     7
176
     1
 90
        6
176
     1
 90
        0
176
     1
 90
        0
176
     1
290
     0
176
     1
 90
        1
176
     1
 40
0.0
176
     1
 90
        0
176
     1
290
     0
176
     1
290
     1
176
     1
290
     1
176
     1
290
     0
176
     1
290
     0
176
     1
290
     0
176
     1
290
     0
176
     1
290
     0
176
     1
290
     0
176
     1
 90
       50
176
     1
 40
0.0
176
     1
 40
1.0
176
     1
 90
        0
176
     1
 62
    18
420
        0
176
     1
 90
       50
176
     1
 90
        3
176
     1
 62
     5
420
      255
176
     1
290
     0
176
     1
 90
       50
176
     1
 90
       50
176
     1
 90
       50
176
     1
290
     0
176
     1
 90
       50
176
     1
 62
   256
176
     0
 40
1.0
176
     0
 90
        2
176
     1
  1
strokes_ogs.tif
176
     1
290
     0
176
     1
 40
1.0
176
     1
 40
1.0
176
     1
1001
ACAD
1000
AcDbSavedByObjectVersion
1070
     0
  0
VISUALSTYLE
  5
36
102
{ACAD_REACTORS
330
29
102
}
330
29
100
AcDbVisualStyle
  2
Thicken
 70
    13
177
     3
291
     1
 70
    58
 90
        2
176
     1
 90
        2
176
     1
 90
        0
176
     1
 90
        0
176
     1
 40
0.6
176
     1
 40
30.0
176
     1
 62
     7
420
 16777215
176
     1
 90
        1
176
     1
 90
        4
176
     1
 62
     7
176
     1
 62
   257
176
     1
 90
        1
176
     1
 90
        1
176
     1
 40
1.0
176
     1
 90
       12
176
     1
 62
     7
176
     1
 40
1.0
176
     1
 90
        1
176
     1
 90
        6
176
     1
 90
        2
176
     1
 62
     7
176
     1
 90
        5
176
     1
 90
        0
176
     1
 90
        0
176
     1
290
     0
176
     1
 90
        1
176
     1
 40
0.0
176
     1
 90
        0
176
     1
290
     0
176
     1
290
     1
176
     1
290
     1
176
     1
290
     0
176
     1
290
     0
176
     1
290
     0
176
     1
290
     0
176
     1
290
     0
176
     1
290
     0
176
     1
 90
       50
176
     1
 40
0.0
176
     1
 40
1.0
176
     1
 90
        0
176
     1
 62
    18
420
        0
176
     1
 90
       50
176
     1
 90
        3
176
     1
 62
     5
420
      255
176
     1
290
     0
176
     1
 90
       50
176
     1
 90
       50
176
     1
 90
       50
176
     1
290
     0
176
     1
 90
       50
176
     1
 62
   256
176
     0
 40
1.0
176
     0
 90
        2
176
     1
  1
strokes_ogs.tif
176
     1
290
     0
176
     1
 40
1.0
176
     1
 40
1.0
176
     1
1001
ACAD
1000
AcDbSavedByObjectVersion
1070
     0
  0
VISUALSTYLE
  5
30
102
{ACAD_REACTORS
330
29
102
}
330
29
100
AcDbVisualStyle
  2
Wireframe
 70
     5
177
     3
291
     0
 70
    58
 90
        0
176
     1
 90
        2
176
     1
 90
        0
176
     1
 90
        0
176
     1
 40
0.6
176
     1
 40
30.0
176
     1
 62
     7
420
 16777215
176
     1
 90
        1
176
     1
 90
        4
176
     1
 62
     7
176
     1
 62
   257
176
     1
 90
        1
176
     1
 90
        1
176
     1
 40
1.0
176
     1
 90
        0
176
     1
 62
   257
176
     1
 40
1.0
176
     1
 90
        1
176
     1
 90
        6
176
     1
 90
        2
176
     1
 62
     7
176
     1
 90
        3
176
     1
 90
        0
176
     1
 90
        0
176
     1
290
     0
176
     1
 90
        1
176
     1
 40
0.0
176
     1
 90
        0
176
     1
290
     0
176
     1
290
     1
176
     1
290
     1
176
     1
290
     0
176
     1
290
     0
176
     1
290
     0
176
     1
290
     0
176
     1
290
     0
176
     1
290
     0
176
     1
 90
       50
176
     1
 40
0.0
176
     1
 40
1.0
176
     1
 90
        0
176
     1
 62
    18
420
        0
176
     1
 90
       50
176
     1
 90
        3
176
     1
 62
     5
420
      255
176
     1
290
     0
176
     1
 90
       50
176
     1
 90
       50
176
     1
 90
       50
176
     1
290
     0
176
     1
 90
       50
176
     1
 62
   256
176
     0
 40
1.0
176
     0
 90
        2
176
     1
  1
strokes_ogs.tif
176
     1
290
     0
176
     1
 40
1.0
176
     1
 40
1.0
176
     1
1001
ACAD
1000
AcDbSavedByObjectVersion
1070
     0
  0
VISUALSTYLE
  5
3C
102
{ACAD_REACTORS
330
29
102
}
330
29
100
AcDbVisualStyle
  2
X-Ray
 70
    25
177
     3
291
     0
 70
    58
 90
        2
176
     1
 90
        2
176
     1
 90
        1
176
     1
 90
        1
176
     1
 40
0.5
176
     1
 40
30.0
176
     1
 62
     7
420
 16777215
176
     1
 90
        1
176
     1
 90
        0
176
     1
 62
     7
176
     1
 62
   257
176
     1
 90
        1
176
     1
 90
        1
176
     1
 40
1.0
176
     1
 90
        8
176
     1
 62
     7
176
     1
 40
1.0
176
     1
 90
        1
176
     1
 90
        6
176
     1
 90
        2
176
     1
 62
     7
176
     1
 90
        3
176
     1
 90
        0
176
     1
 90
        0
176
     1
290
     0
176
     1
 90
       13
176
     1
 40
0.0
176
     1
 90
        0
176
     1
290
     0
176
     1
290
     1
176
     1
290
     1
176
     1
290
     0
176
     1
290
     0
176
     1
290
     0
176
     1
290
     0
176
     1
290
     0
176
     1
290
     0
176
     1
 90
       50
176
     1
 40
0.0
176
     1
 40
1.0
176
     1
 90
        0
176
     1
 62
    18
420
        0
176
     1
 90
       50
176
     1
 90
        3
176
     1
 62
     5
420
      255
176
     1
290
     0
176
     1
 90
       50
176
     1
 90
       50
176
     1
 90
       50
176
     1
290
     0
176
     1
 90
       50
176
     1
 62
   256
176
     0
 40
1.0
176
     0
 90
        2
176
     1
  1
strokes_ogs.tif
176
     1
290
     0
176
     1
 40
1.0
176
     1
 40
1.0
176
     1
1001
ACAD
1000
AcDbSavedByObjectVersion
1070
     0
  0
DICTIONARYVAR
  5
BA
102
{ACAD_REACTORS
330
B5
102
}
330
B5
100
DictionaryVariables
280
     0
  1
1:1
  0
DICTIONARYVAR
  5
B7
102
{ACAD_REACTORS
330
B5
102
}
330
B5
100
DictionaryVariables
280
     0
  1
STANDARD
  0
DICTIONARYVAR
  5
B6
102
{ACAD_REACTORS
330
B5
102
}
330
B5
100
DictionaryVariables
280
     0
  1
STANDARD
  0
DICTIONARYVAR
  5
B8
102
{ACAD_REACTORS
330
B5
102
}
330
B5
100
DictionaryVariables
280
     0
  1
Imperial24
  0
DICTIONARYVAR
  5
B9
102
{ACAD_REACTORS
330
B5
102
}
330
B5
100
DictionaryVariables
280
     0
  1
Imperial24
  0
DICTIONARY
  5
12B
330
6B
100
AcDbDictionary
280
     1
281
     1
  3
ACAD_XREC_ROUNDTRIP
360
12C
  0
DICTIONARY
  5
1A
330
19
100
AcDbDictionary
280
     1
281
     1
  3
BUMPTILE
360
1C
  3
DIFFUSETILE
360
1B
  3
OPACITYTILE
360
1F
  3
REFLECTIONTILE
360
1E
  3
REFRACTIONTILE
360
20
  3
SPECULARTILE
360
1D
  0
DICTIONARY
  5
12
330
11
100
AcDbDictionary
280
     1
281
     1
  3
BUMPTILE
360
14
  3
DIFFUSETILE
360
13
  3
OPACITYTILE
360
17
  3
REFLECTIONTILE
360
16
  3
REFRACTIONTILE
360
18
  3
SPECULARTILE
360
15
  0
DICTIONARY
  5
22
330
21
100
AcDbDictionary
280
     1
281
     1
  3
BUMPTILE
360
24
  3
DIFFUSETILE
360
23
  3
OPACITYTILE
360
27
  3
REFLECTIONTILE
360
26
  3
REFRACTIONTILE
360
28
  3
SPECULARTILE
360
25
  0
DICTIONARY
  5
129
330
69
100
AcDbDictionary
280
     1
281
     1
  3
ACAD_XREC_ROUNDTRIP
360
12A
  0
DICTIONARY
  5
BB
330
65
100
AcDbDictionary
280
     1
281
     1
  3
ACAD_ROUNDTRIP_2008_TABLESTYLE_CELLSTYLEMAP
360
127
  0
XRECORD
  5
12C
102
{ACAD_REACTORS
330
12B
102
}
330
12B
100
AcDbXrecord
280
     1
102
DISPLAYNAME
  1
Imperial24
102
FLAGS
 90
        0
  0
XRECORD
  5
1C
102
{ACAD_REACTORS
330
1A
102
}
330
1A
100
AcDbXrecord
280
     1
270
     1
271
     1
  0
XRECORD
  5
1B
102
{ACAD_REACTORS
330
1A
102
}
330
1A
100
AcDbXrecord
280
     1
270
     1
271
     1
  0
XRECORD
  5
1F
102
{ACAD_REACTORS
330
1A
102
}
330
1A
100
AcDbXrecord
280
     1
270
     1
271
     1
  0
XRECORD
  5
1E
102
{ACAD_REACTORS
330
1A
102
}
330
1A
100
AcDbXrecord
280
     1
270
     1
271
     1
  0
XRECORD
  5
20
102
{ACAD_REACTORS
330
1A
102
}
330
1A
100
AcDbXrecord
280
     1
270
     1
271
     1
  0
XRECORD
  5
1D
102
{ACAD_REACTORS
330
1A
102
}
330
1A
100
AcDbXrecord
280
     1
270
     1
271
     1
  0
XRECORD
  5
14
102
{ACAD_REACTORS
330
12
102
}
330
12
100
AcDbXrecord
280
     1
270
     1
271
     1
  0
XRECORD
  5
13
102
{ACAD_REACTORS
330
12
102
}
330
12
100
AcDbXrecord
280
     1
270
     1
271
     1
  0
XRECORD
  5
17
102
{ACAD_REACTORS
330
12
102
}
330
12
100
AcDbXrecord
280
     1
270
     1
271
     1
  0
XRECORD
  5
16
102
{ACAD_REACTORS
330
12
102
}
330
12
100
AcDbXrecord
280
     1
270
     1
271
     1
  0
XRECORD
  5
18
102
{ACAD_REACTORS
330
12
102
}
330
12
100
AcDbXrecord
280
     1
270
     1
271
     1
  0
XRECORD
  5
15
102
{ACAD_REACTORS
330
12
102
}
330
12
100
AcDbXrecord
280
     1
270
     1
271
     1
  0
XRECORD
  5
24
102
{ACAD_REACTORS
330
22
102
}
330
22
100
AcDbXrecord
280
     1
270
     1
271
     1
  0
XRECORD
  5
23
102
{ACAD_REACTORS
330
22
102
}
330
22
100
AcDbXrecord
280
     1
270
     1
271
     1
  0
XRECORD
  5
27
102
{ACAD_REACTORS
330
22
102
}
330
22
100
AcDbXrecord
280
     1
270
     1
271
     1
  0
XRECORD
  5
26
102
{ACAD_REACTORS
330
22
102
}
330
22
100
AcDbXrecord
280
     1
270
     1
271
     1
  0
XRECORD
  5
28
102
{ACAD_REACTORS
330
22
102
}
330
22
100
AcDbXrecord
280
     1
270
     1
271
     1
  0
XRECORD
  5
25
102
{ACAD_REACTORS
330
22
102
}
330
22
100
AcDbXrecord
280
     1
270
     1
271
     1
  0
XRECORD
  5
12A
102
{ACAD_REACTORS
330
129
102
}
330
129
100
AcDbXrecord
280
     1
102
DISPLAYNAME
  1
Imperial24
102
FLAGS
 90
        0
  0
CELLSTYLEMAP
  5
127
102
{ACAD_REACTORS
330
BB
102
}
330
BB
100
AcDbCellStyleMap
 90
        3
300
CELLSTYLE
  1
TABLEFORMAT_BEGIN
 90
        5
170
     1
 91
        0
 92
    32768
 62
   257
 93
        1
300
CONTENTFORMAT
  1
CONTENTFORMAT_BEGIN
 90
        0
 91
        0
 92
      512
 93
        0
300

 40
0.0
140
1.0
 94
        5
 62
     0
340
55
144
0.25
309
CONTENTFORMAT_END
171
     1
301
MARGIN
  1
CELLMARGIN_BEGIN
 40
0.06
 40
0.06
 40
0.06
 40
0.06
 40
0.18
 40
0.18
309
CELLMARGIN_END
 94
        6
 95
        1
302
GRIDFORMAT
  1
GRIDFORMAT_BEGIN
 90
        0
 91
        1
 62
     0
 92
       -2
340
0
 93
        0
 40
0.045
309
GRIDFORMAT_END
 95
        2
302
GRIDFORMAT
  1
GRIDFORMAT_BEGIN
 90
        0
 91
        1
 62
     0
 92
       -2
340
0
 93
        0
 40
0.045
309
GRIDFORMAT_END
 95
        4
302
GRIDFORMAT
  1
GRIDFORMAT_BEGIN
 90
        0
 91
        1
 62
     0
 92
       -2
340
0
 93
        0
 40
0.045
309
GRIDFORMAT_END
 95
        8
302
GRIDFORMAT
  1
GRIDFORMAT_BEGIN
 90
        0
 91
        1
 62
     0
 92
       -2
340
0
 93
        0
 40
0.045
309
GRIDFORMAT_END
 95
       16
302
GRIDFORMAT
  1
GRIDFORMAT_BEGIN
 90
        0
 91
        1
 62
     0
 92
       -2
340
0
 93
        0
 40
0.045
309
GRIDFORMAT_END
 95
       32
302
GRIDFORMAT
  1
GRIDFORMAT_BEGIN
 90
        0
 91
        1
 62
     0
 92
       -2
340
0
 93
        0
 40
0.045
309
GRIDFORMAT_END
309
TABLEFORMAT_END
  1
CELLSTYLE_BEGIN
 90
        1
 91
        1
300
_TITLE
309
CELLSTYLE_END
300
CELLSTYLE
  1
TABLEFORMAT_BEGIN
 90
        5
170
     1
 91
        0
 92
        0
 62
   257
 93
        1
300
CONTENTFORMAT
  1
CONTENTFORMAT_BEGIN
 90
        0
 91
        0
 92
      512
 93
        0
300

 40
0.0
140
1.0
 94
        5
 62
     0
340
55
144
0.18
309
CONTENTFORMAT_END
171
     1
301
MARGIN
  1
CELLMARGIN_BEGIN
 40
0.06
 40
0.06
 40
0.06
 40
0.06
 40
0.18
 40
0.18
309
CELLMARGIN_END
 94
        6
 95
        1
302
GRIDFORMAT
  1
GRIDFORMAT_BEGIN
 90
        0
 91
        1
 62
     0
 92
       -2
340
0
 93
        0
 40
0.045
309
GRIDFORMAT_END
 95
        2
302
GRIDFORMAT
  1
GRIDFORMAT_BEGIN
 90
        0
 91
        1
 62
     0
 92
       -2
340
0
 93
        0
 40
0.045
309
GRIDFORMAT_END
 95
        4
302
GRIDFORMAT
  1
GRIDFORMAT_BEGIN
 90
        0
 91
        1
 62
     0
 92
       -2
340
0
 93
        0
 40
0.045
309
GRIDFORMAT_END
 95
        8
302
GRIDFORMAT
  1
GRIDFORMAT_BEGIN
 90
        0
 91
        1
 62
     0
 92
       -2
340
0
 93
        0
 40
0.045
309
GRIDFORMAT_END
 95
       16
302
GRIDFORMAT
  1
GRIDFORMAT_BEGIN
 90
        0
 91
        1
 62
     0
 92
       -2
340
0
 93
        0
 40
0.045
309
GRIDFORMAT_END
 95
       32
302
GRIDFORMAT
  1
GRIDFORMAT_BEGIN
 90
        0
 91
        1
 62
     0
 92
       -2
340
0
 93
        0
 40
0.045
309
GRIDFORMAT_END
309
TABLEFORMAT_END
  1
CELLSTYLE_BEGIN
 90
        2
 91
        1
300
_HEADER
309
CELLSTYLE_END
300
CELLSTYLE
  1
TABLEFORMAT_BEGIN
 90
        5
170
     1
 91
        0
 92
        0
 62
   257
 93
        1
300
CONTENTFORMAT
  1
CONTENTFORMAT_BEGIN
 90
        0
 91
        0
 92
      512
 93
        0
300

 40
0.0
140
1.0
 94
        2
 62
     0
340
55
144
0.18
309
CONTENTFORMAT_END
171
     1
301
MARGIN
  1
CELLMARGIN_BEGIN
 40
0.06
 40
0.06
 40
0.06
 40
0.06
 40
0.18
 40
0.18
309
CELLMARGIN_END
 94
        6
 95
        1
302
GRIDFORMAT
  1
GRIDFORMAT_BEGIN
 90
        0
 91
        1
 62
     0
 92
       -2
340
0
 93
        0
 40
0.045
309
GRIDFORMAT_END
 95
        2
302
GRIDFORMAT
  1
GRIDFORMAT_BEGIN
 90
        0
 91
        1
 62
     0
 92
       -2
340
0
 93
        0
 40
0.045
309
GRIDFORMAT_END
 95
        4
302
GRIDFORMAT
  1
GRIDFORMAT_BEGIN
 90
        0
 91
        1
 62
     0
 92
       -2
340
0
 93
        0
 40
0.045
309
GRIDFORMAT_END
 95
        8
302
GRIDFORMAT
  1
GRIDFORMAT_BEGIN
 90
        0
 91
        1
 62
     0
 92
       -2
340
0
 93
        0
 40
0.045
309
GRIDFORMAT_END
 95
       16
302
GRIDFORMAT
  1
GRIDFORMAT_BEGIN
 90
        0
 91
        1
 62
     0
 92
       -2
340
0
 93
        0
 40
0.045
309
GRIDFORMAT_END
 95
       32
302
GRIDFORMAT
  1
GRIDFORMAT_BEGIN
 90
        0
 91
        1
 62
     0
 92
       -2
340
0
 93
        0
 40
0.045
309
GRIDFORMAT_END
309
TABLEFORMAT_END
  1
CELLSTYLE_BEGIN
 90
        3
 91
        2
300
_DATA
309
CELLSTYLE_END
  0
ENDSEC
  0
EOF
