  0
SECTION
  2
HEADER
  9
$ACADVER
  1
AC1027
  9
$ACADMAINTVER
 70
   125
  9
$DWGCODEPAGE
  3
ANSI_1252
  9
$LASTSAVEDBY
  1
ufficio.tecnico
  9
$REQUIREDVERSIONS
160
                 0
  9
$INSBASE
 10
0.0
 20
0.0
 30
0.0
  9
$EXTMIN
 10
0.5755099072635383
 20
-6.777570799086857
 30
0.0
  9
$EXTMAX
 10
20.00728867772387
 20
-2.434166666058124
 30
0.0
  9
$LIMMIN
 10
0.0
 20
0.0
  9
$LIMMAX
 10
12.0
 20
9.0
  9
$ORTHOMODE
 70
     0
  9
$REGENMODE
 70
     1
  9
$FILLMODE
 70
     1
  9
$QTEXTMODE
 70
     0
  9
$MIRRTEXT
 70
     1
  9
$LTSCALE
 40
1.0
  9
$ATTMODE
 70
     1
  9
$TEXTSIZE
 40
0.2
  9
$TRACEWID
 40
0.05
  9
$TEXTSTYLE
  7
Standard
  9
$CLAYER
  8
0
  9
$CELTYPE
  6
ByLayer
  9
$CECOLOR
 62
   256
  9
$CELTSCALE
 40
1.0
  9
$DISPSILH
 70
     0
  9
$DIMSCALE
 40
1.0
  9
$DIMASZ
 40
0.18
  9
$DIMEXO
 40
0.0625
  9
$DIMDLI
 40
0.38
  9
$DIMRND
 40
0.0
  9
$DIMDLE
 40
0.0
  9
$DIMEXE
 40
0.18
  9
$DIMTP
 40
0.0
  9
$DIMTM
 40
0.0
  9
$DIMTXT
 40
0.18
  9
$DIMCEN
 40
0.09
  9
$DIMTSZ
 40
0.0
  9
$DIMTOL
 70
     0
  9
$DIMLIM
 70
     0
  9
$DIMTIH
 70
     1
  9
$DIMTOH
 70
     1
  9
$DIMSE1
 70
     0
  9
$DIMSE2
 70
     0
  9
$DIMTAD
 70
     0
  9
$DIMZIN
 70
     0
  9
$DIMBLK
  1

  9
$DIMASO
 70
     1
  9
$DIMSHO
 70
     1
  9
$DIMPOST
  1

  9
$DIMAPOST
  1

  9
$DIMALT
 70
     0
  9
$DIMALTD
 70
     2
  9
$DIMALTF
 40
25.4
  9
$DIMLFAC
 40
1.0
  9
$DIMTOFL
 70
     0
  9
$DIMTVP
 40
0.0
  9
$DIMTIX
 70
     0
  9
$DIMSOXD
 70
     0
  9
$DIMSAH
 70
     0
  9
$DIMBLK1
  1

  9
$DIMBLK2
  1

  9
$DIMSTYLE
  2
Standard
  9
$DIMCLRD
 70
     0
  9
$DIMCLRE
 70
     0
  9
$DIMCLRT
 70
     0
  9
$DIMTFAC
 40
1.0
  9
$DIMGAP
 40
0.09
  9
$DIMJUST
 70
     0
  9
$DIMSD1
 70
     0
  9
$DIMSD2
 70
     0
  9
$DIMTOLJ
 70
     1
  9
$DIMTZIN
 70
     0
  9
$DIMALTZ
 70
     0
  9
$DIMALTTZ
 70
     0
  9
$DIMUPT
 70
     0
  9
$DIMDEC
 70
     4
  9
$DIMTDEC
 70
     4
  9
$DIMALTU
 70
     2
  9
$DIMALTTD
 70
     2
  9
$DIMTXSTY
  7
Standard
  9
$DIMAUNIT
 70
     0
  9
$DIMADEC
 70
     0
  9
$DIMALTRND
 40
0.0
  9
$DIMAZIN
 70
     0
  9
$DIMDSEP
 70
    46
  9
$DIMATFIT
 70
     3
  9
$DIMFRAC
 70
     0
  9
$DIMLDRBLK
  1

  9
$DIMLUNIT
 70
     2
  9
$DIMLWD
 70
    -2
  9
$DIMLWE
 70
    -2
  9
$DIMTMOVE
 70
     0
  9
$DIMFXL
 40
1.0
  9
$DIMFXLON
 70
     0
  9
$DIMJOGANG
 40
0.7853981633974483
  9
$DIMTFILL
 70
     0
  9
$DIMTFILLCLR
 70
     0
  9
$DIMARCSYM
 70
     0
  9
$DIMLTYPE
  6

  9
$DIMLTEX1
  6

  9
$DIMLTEX2
  6

  9
$DIMTXTDIRECTION
 70
     0
  9
$LUNITS
 70
     2
  9
$LUPREC
 70
     4
  9
$SKETCHINC
 40
0.1
  9
$FILLETRAD
 40
0.5
  9
$AUNITS
 70
     0
  9
$AUPREC
 70
     0
  9
$MENU
  1
.
  9
$ELEVATION
 40
0.0
  9
$PELEVATION
 40
0.0
  9
$THICKNESS
 40
0.0
  9
$LIMCHECK
 70
     0
  9
$CHAMFERA
 40
0.5
  9
$CHAMFERB
 40
0.5
  9
$CHAMFERC
 40
1.0
  9
$CHAMFERD
 40
0.0
  9
$SKPOLY
 70
     0
  9
$TDCREATE
 40
2459325.491979167
  9
$TDUCREATE
 40
2459325.408648102
  9
$TDUPDATE
 40
2459328.463287037
  9
$TDUUPDATE
 40
2459328.379953704
  9
$TDINDWG
 40
0.0006713079
  9
$TDUSRTIMER
 40
0.0006713079
  9
$USRTIMER
 70
     1
  9
$ANGBASE
 50
0.0
  9
$ANGDIR
 70
     0
  9
$PDMODE
 70
     0
  9
$PDSIZE
 40
0.0
  9
$PLINEWID
 40
0.0
  9
$SPLFRAME
 70
     0
  9
$SPLINETYPE
 70
     6
  9
$SPLINESEGS
 70
     8
  9
$HANDSEED
  5
10A
  9
$SURFTAB1
 70
     6
  9
$SURFTAB2
 70
     6
  9
$SURFTYPE
 70
     6
  9
$SURFU
 70
     6
  9
$SURFV
 70
     6
  9
$UCSBASE
  2

  9
$UCSNAME
  2

  9
$UCSORG
 10
0.0
 20
0.0
 30
0.0
  9
$UCSXDIR
 10
1.0
 20
0.0
 30
0.0
  9
$UCSYDIR
 10
0.0
 20
1.0
 30
0.0
  9
$UCSORTHOREF
  2

  9
$UCSORTHOVIEW
 70
     0
  9
$UCSORGTOP
 10
0.0
 20
0.0
 30
0.0
  9
$UCSORGBOTTOM
 10
0.0
 20
0.0
 30
0.0
  9
$UCSORGLEFT
 10
0.0
 20
0.0
 30
0.0
  9
$UCSORGRIGHT
 10
0.0
 20
0.0
 30
0.0
  9
$UCSORGFRONT
 10
0.0
 20
0.0
 30
0.0
  9
$UCSORGBACK
 10
0.0
 20
0.0
 30
0.0
  9
$PUCSBASE
  2

  9
$PUCSNAME
  2

  9
$PUCSORG
 10
0.0
 20
0.0
 30
0.0
  9
$PUCSXDIR
 10
1.0
 20
0.0
 30
0.0
  9
$PUCSYDIR
 10
0.0
 20
1.0
 30
0.0
  9
$PUCSORTHOREF
  2

  9
$PUCSORTHOVIEW
 70
     0
  9
$PUCSORGTOP
 10
0.0
 20
0.0
 30
0.0
  9
$PUCSORGBOTTOM
 10
0.0
 20
0.0
 30
0.0
  9
$PUCSORGLEFT
 10
0.0
 20
0.0
 30
0.0
  9
$PUCSORGRIGHT
 10
0.0
 20
0.0
 30
0.0
  9
$PUCSORGFRONT
 10
0.0
 20
0.0
 30
0.0
  9
$PUCSORGBACK
 10
0.0
 20
0.0
 30
0.0
  9
$USERI1
 70
     0
  9
$USERI2
 70
     0
  9
$USERI3
 70
     0
  9
$USERI4
 70
     0
  9
$USERI5
 70
     0
  9
$USERR1
 40
0.0
  9
$USERR2
 40
0.0
  9
$USERR3
 40
0.0
  9
$USERR4
 40
0.0
  9
$USERR5
 40
0.0
  9
$WORLDVIEW
 70
     1
  9
$SHADEDGE
 70
     3
  9
$SHADEDIF
 70
    70
  9
$TILEMODE
 70
     1
  9
$MAXACTVP
 70
    64
  9
$PINSBASE
 10
0.0
 20
0.0
 30
0.0
  9
$PLIMCHECK
 70
     0
  9
$PEXTMIN
 10
1.000000000000000E+20
 20
1.000000000000000E+20
 30
1.000000000000000E+20
  9
$PEXTMAX
 10
-1.000000000000000E+20
 20
-1.000000000000000E+20
 30
-1.000000000000000E+20
  9
$PLIMMIN
 10
0.0
 20
0.0
  9
$PLIMMAX
 10
12.0
 20
9.0
  9
$UNITMODE
 70
     0
  9
$VISRETAIN
 70
     1
  9
$PLINEGEN
 70
     0
  9
$PSLTSCALE
 70
     1
  9
$TREEDEPTH
 70
  3020
  9
$CMLSTYLE
  2
Standard
  9
$CMLJUST
 70
     0
  9
$CMLSCALE
 40
1.0
  9
$PROXYGRAPHICS
 70
     1
  9
$MEASUREMENT
 70
     0
  9
$CELWEIGHT
370
    -1
  9
$ENDCAPS
280
     0
  9
$JOINSTYLE
280
     0
  9
$LWDISPLAY
290
     1
  9
$INSUNITS
 70
     5
  9
$HYPERLINKBASE
  1

  9
$STYLESHEET
  1

  9
$XEDIT
290
     1
  9
$CEPSNTYPE
380
     0
  9
$PSTYLEMODE
290
     1
  9
$FINGERPRINTGUID
  2
{F9B204DB-48AF-4684-B216-F894F5F0F6AA}
  9
$VERSIONGUID
  2
{2771F628-A53F-D348-894E-811122C78672}
  9
$EXTNAMES
290
     1
  9
$PSVPSCALE
 40
0.0
  9
$OLESTARTUP
290
     0
  9
$SORTENTS
280
   127
  9
$INDEXCTL
280
     0
  9
$HIDETEXT
280
     1
  9
$XCLIPFRAME
280
     2
  9
$HALOGAP
280
     0
  9
$OBSCOLOR
 70
   257
  9
$OBSLTYPE
280
     0
  9
$INTERSECTIONDISPLAY
280
     0
  9
$INTERSECTIONCOLOR
 70
   257
  9
$DIMASSOC
280
     2
  9
$PROJECTNAME
  1

  9
$CAMERADISPLAY
290
     0
  9
$LENSLENGTH
 40
50.0
  9
$CAMERAHEIGHT
 40
0.0
  9
$STEPSPERSEC
 40
2.0
  9
$STEPSIZE
 40
6.0
  9
$3DDWFPREC
 40
2.0
  9
$PSOLWIDTH
 40
0.25
  9
$PSOLHEIGHT
 40
4.0
  9
$LOFTANG1
 40
1.570796326794897
  9
$LOFTANG2
 40
1.570796326794897
  9
$LOFTMAG1
 40
0.0
  9
$LOFTMAG2
 40
0.0
  9
$LOFTPARAM
 70
     7
  9
$LOFTNORMALS
280
     1
  9
$LATITUDE
 40
37.795
  9
$LONGITUDE
 40
-122.394
  9
$NORTHDIRECTION
 40
0.0
  9
$TIMEZONE
 70
 -8000
  9
$LIGHTGLYPHDISPLAY
280
     1
  9
$TILEMODELIGHTSYNCH
280
     1
  9
$CMATERIAL
347
3C
  9
$SOLIDHIST
280
     1
  9
$SHOWHIST
280
     1
  9
$DWFFRAME
280
     2
  9
$DGNFRAME
280
     2
  9
$REALWORLDSCALE
290
     1
  9
$INTERFERECOLOR
 62
   256
  9
$INTERFEREOBJVS
345
33
  9
$INTERFEREVPVS
346
9B
  9
$CSHADOW
280
     0
  9
$SHADOWPLANELOCATION
 40
0.0
  0
ENDSEC
  0
SECTION
  2
CLASSES
  0
CLASS
  1
ACDBDICTIONARYWDFLT
  2
AcDbDictionaryWithDefault
  3
ObjectDBX Classes
 90
        0
 91
        1
280
     0
281
     0
  0
CLASS
  1
VISUALSTYLE
  2
AcDbVisualStyle
  3
ObjectDBX Classes
 90
     4095
 91
       26
280
     0
281
     0
  0
CLASS
  1
MATERIAL
  2
AcDbMaterial
  3
ObjectDBX Classes
 90
     1153
 91
        3
280
     0
281
     0
  0
CLASS
  1
SUN
  2
AcDbSun
  3
SCENEOE
 90
     1153
 91
        1
280
     0
281
     0
  0
CLASS
  1
TABLESTYLE
  2
AcDbTableStyle
  3
ObjectDBX Classes
 90
     4095
 91
        1
280
     0
281
     0
  0
CLASS
  1
SCALE
  2
AcDbScale
  3
ObjectDBX Classes
 90
     1153
 91
       21
280
     0
281
     0
  0
CLASS
  1
MLEADERSTYLE
  2
AcDbMLeaderStyle
  3
ACDB_MLEADERSTYLE_CLASS
 90
     4095
 91
        1
280
     0
281
     0
  0
CLASS
  1
ACDBSECTIONVIEWSTYLE
  2
AcDbSectionViewStyle
  3
ObjectDBX Classes
 90
     1025
 91
        1
280
     0
281
     0
  0
CLASS
  1
ACDBDETAILVIEWSTYLE
  2
AcDbDetailViewStyle
  3
ObjectDBX Classes
 90
     1025
 91
        1
280
     0
281
     0
  0
CLASS
  1
SORTENTSTABLE
  2
AcDbSortentsTable
  3
ObjectDBX Classes
 90
        0
 91
        1
280
     0
281
     0
  0
CLASS
  1
DICTIONARYVAR
  2
AcDbDictionaryVar
  3
ObjectDBX Classes
 90
        0
 91
        5
280
     0
281
     0
  0
CLASS
  1
CELLSTYLEMAP
  2
AcDbCellStyleMap
  3
ObjectDBX Classes
 90
     1152
 91
        1
280
     0
281
     0
  0
ENDSEC
  0
SECTION
  2
TABLES
  0
TABLE
  2
VPORT
  5
8
330
0
100
AcDbSymbolTable
 70
     1
1001
ACAD
1000
DbSaveVer
1071
      105
  0
VPORT
  5
29
330
8
100
AcDbSymbolTableRecord
100
AcDbViewportTableRecord
  2
*Active
 70
     0
 10
0.0
 20
0.0
 11
1.0
 21
1.0
 12
-5.604914917187443
 22
-0.5702125228518682
 13
0.0
 23
0.0
 14
0.5
 24
0.5
 15
0.5
 25
0.5
 16
0.0
 26
0.0
 36
1.0
 17
10.50008280156501
 27
-5.732638887455728
 37
0.0
 40
46.88536173972003
 41
1.932867132867133
 42
50.0
 43
0.0
 44
0.0
 50
0.0
 51
0.0
 71
     0
 72
   100
 73
     1
 74
     3
 75
     0
 76
     0
 77
     0
 78
     0
281
     0
 65
     1
110
0.0
120
0.0
130
0.0
111
1.0
121
0.0
131
0.0
112
0.0
122
1.0
132
0.0
 79
     0
146
0.0
348
2F
 60
     3
 61
     5
292
     1
282
     1
141
0.0
142
0.0
 63
   250
361
3F
1001
ACAD_NAV_VCDISPLAY
1070
     3
  0
ENDTAB
  0
TABLE
  2
LTYPE
  5
5
330
0
100
AcDbSymbolTable
 70
     1
  0
LTYPE
  5
14
330
5
100
AcDbSymbolTableRecord
100
AcDbLinetypeTableRecord
  2
ByBlock
 70
     0
  3

 72
    65
 73
     0
 40
0.0
  0
LTYPE
  5
15
330
5
100
AcDbSymbolTableRecord
100
AcDbLinetypeTableRecord
  2
ByLayer
 70
     0
  3

 72
    65
 73
     0
 40
0.0
  0
LTYPE
  5
16
330
5
100
AcDbSymbolTableRecord
100
AcDbLinetypeTableRecord
  2
Continuous
 70
     0
  3
Solid line
 72
    65
 73
     0
 40
0.0
  0
ENDTAB
  0
TABLE
  2
LAYER
  5
2
330
0
100
AcDbSymbolTable
 70
     2
  0
LAYER
  5
10
330
2
100
AcDbSymbolTableRecord
100
AcDbLayerTableRecord
  2
0
 70
     0
 62
     7
  6
Continuous
370
    -3
390
F
347
3E
348
0
  0
LAYER
  5
40
330
2
100
AcDbSymbolTableRecord
100
AcDbLayerTableRecord
  2
Livello 1
 70
     0
 62
     7
  6
Continuous
370
    -3
390
F
347
3E
348
0
  0
ENDTAB
  0
TABLE
  2
STYLE
  5
3
330
0
100
AcDbSymbolTable
 70
     1
  0
STYLE
  5
11
330
3
100
AcDbSymbolTableRecord
100
AcDbTextStyleTableRecord
  2
Standard
 70
     0
 40
0.0
 41
1.0
 50
0.0
 71
     0
 42
0.2
  3
txt
  4

  0
ENDTAB
  0
TABLE
  2
VIEW
  5
6
330
0
100
AcDbSymbolTable
 70
     0
  0
ENDTAB
  0
TABLE
  2
UCS
  5
7
330
0
100
AcDbSymbolTable
 70
     0
  0
ENDTAB
  0
TABLE
  2
APPID
  5
9
330
0
100
AcDbSymbolTable
 70
     2
  0
APPID
  5
12
330
9
100
AcDbSymbolTableRecord
100
AcDbRegAppTableRecord
  2
ACAD
 70
     0
  0
APPID
  5
102
330
9
100
AcDbSymbolTableRecord
100
AcDbRegAppTableRecord
  2
ACAD_NAV_VCDISPLAY
 70
     0
  0
ENDTAB
  0
TABLE
  2
DIMSTYLE
  5
A
330
0
100
AcDbSymbolTable
 70
     1
100
AcDbDimStyleTable
 71
     0
  0
DIMSTYLE
105
27
330
A
100
AcDbSymbolTableRecord
100
AcDbDimStyleTableRecord
  2
Standard
 70
     0
340
11
  0
ENDTAB
  0
TABLE
  2
BLOCK_RECORD
  5
1
330
0
100
AcDbSymbolTable
 70
     7
  0
BLOCK_RECORD
  5
1F
102
{ACAD_XDICTIONARY
360
C5
102
}
330
1
100
AcDbSymbolTableRecord
100
AcDbBlockTableRecord
  2
*Model_Space
340
22
 70
     0
280
     1
281
     0
  0
BLOCK_RECORD
  5
1B
330
1
100
AcDbSymbolTableRecord
100
AcDbBlockTableRecord
  2
*Paper_Space
340
1E
 70
     0
280
     1
281
     0
  0
BLOCK_RECORD
  5
23
330
1
100
AcDbSymbolTableRecord
100
AcDbBlockTableRecord
  2
*Paper_Space0
340
26
 70
     0
280
     1
281
     0
  0
BLOCK_RECORD
  5
41
330
1
100
AcDbSymbolTableRecord
100
AcDbBlockTableRecord
  2
block 2
340
0
 70
     0
280
     1
281
     0
  0
BLOCK_RECORD
  5
4C
330
1
100
AcDbSymbolTableRecord
100
AcDbBlockTableRecord
  2
block 3
340
0
 70
     0
280
     1
281
     0
  0
BLOCK_RECORD
  5
57
330
1
100
AcDbSymbolTableRecord
100
AcDbBlockTableRecord
  2
block 4
340
0
 70
     0
280
     1
281
     0
  0
BLOCK_RECORD
  5
6E
330
1
100
AcDbSymbolTableRecord
100
AcDbBlockTableRecord
  2
block 5
340
0
 70
     0
280
     1
281
     0
  0
BLOCK_RECORD
  5
84
330
1
100
AcDbSymbolTableRecord
100
AcDbBlockTableRecord
  2
block 6
340
0
 70
     0
280
     1
281
     0
  0
BLOCK_RECORD
  5
8C
330
1
100
AcDbSymbolTableRecord
100
AcDbBlockTableRecord
  2
block 7
340
0
 70
     0
280
     1
281
     0
  0
ENDTAB
  0
ENDSEC
  0
SECTION
  2
BLOCKS
  0
BLOCK
  5
20
330
1F
100
AcDbEntity
  8
0
100
AcDbBlockBegin
  2
*Model_Space
 70
     0
 10
0.0
 20
0.0
 30
0.0
  3
*Model_Space
  1

  0
ENDBLK
  5
21
330
1F
100
AcDbEntity
  8
0
100
AcDbBlockEnd
  0
BLOCK
  5
1C
330
1B
100
AcDbEntity
 67
     1
  8
0
100
AcDbBlockBegin
  2
*Paper_Space
 70
     0
 10
0.0
 20
0.0
 30
0.0
  3
*Paper_Space
  1

  0
ENDBLK
  5
1D
330
1B
100
AcDbEntity
 67
     1
  8
0
100
AcDbBlockEnd
  0
BLOCK
  5
24
330
23
100
AcDbEntity
 67
     1
  8
0
100
AcDbBlockBegin
  2
*Paper_Space0
 70
     0
 10
0.0
 20
0.0
 30
0.0
  3
*Paper_Space0
  1

  0
ENDBLK
  5
25
330
23
100
AcDbEntity
 67
     1
  8
0
100
AcDbBlockEnd
  0
BLOCK
  5
43
330
41
100
AcDbEntity
  8
0
100
AcDbBlockBegin
  2
block 2
 70
     0
 10
0.0
 20
0.0
 30
0.0
  3
block 2
  1

  0
POLYLINE
  5
45
330
41
100
AcDbEntity
  8
Livello 1
 62
   250
420
  1842203
370
    70
100
AcDb2dPolyline
 66
     1
 10
0.0
 20
0.0
 30
0.0
  0
VERTEX
  5
46
330
45
100
AcDbEntity
  8
Livello 1
 62
   250
420
  1842203
370
    70
100
AcDbVertex
100
AcDb2dVertex
 10
0.5755099072635383
 20
-2.434166666058124
 30
0.0
  0
VERTEX
  5
47
330
45
100
AcDbEntity
  8
Livello 1
 62
   250
420
  1842203
370
    70
100
AcDbVertex
100
AcDb2dVertex
 10
14.61610073708667
 20
-2.434166666058124
 30
0.0
  0
VERTEX
  5
48
330
45
100
AcDbEntity
  8
Livello 1
 62
   250
420
  1842203
370
    70
100
AcDbVertex
100
AcDb2dVertex
 10
14.61610073708667
 20
-4.9302705265452
 30
0.0
  0
VERTEX
  5
49
330
45
100
AcDbEntity
  8
Livello 1
 62
   250
420
  1842203
370
    70
100
AcDbVertex
100
AcDb2dVertex
 10
0.5755099072635383
 20
-4.9302705265452
 30
0.0
  0
VERTEX
  5
4A
330
45
100
AcDbEntity
  8
Livello 1
 62
   250
420
  1842203
370
    70
100
AcDbVertex
100
AcDb2dVertex
 10
0.5755099072635383
 20
-2.434166666058124
 30
0.0
  0
SEQEND
  5
4B
330
45
100
AcDbEntity
  8
Livello 1
 62
   250
420
  1842203
370
    70
  0
ENDBLK
  5
44
330
41
100
AcDbEntity
  8
0
100
AcDbBlockEnd
  0
BLOCK
  5
4E
330
4C
100
AcDbEntity
  8
0
100
AcDbBlockBegin
  2
block 3
 70
     0
 10
0.0
 20
0.0
 30
0.0
  3
block 3
  1

  0
POLYLINE
  5
50
330
4C
100
AcDbEntity
  8
Livello 1
 62
   250
420
  1842203
370
    70
100
AcDb2dPolyline
 66
     1
 10
0.0
 20
0.0
 30
0.0
  0
VERTEX
  5
51
330
50
100
AcDbEntity
  8
Livello 1
 62
   250
420
  1842203
370
    70
100
AcDbVertex
100
AcDb2dVertex
 10
16.1633238364941
 20
-2.434166666058124
 30
0.0
  0
VERTEX
  5
52
330
50
100
AcDbEntity
  8
Livello 1
 62
   250
420
  1842203
370
    70
100
AcDbVertex
100
AcDb2dVertex
 10
18.65942758142094
 20
-2.434166666058124
 30
0.0
  0
VERTEX
  5
53
330
50
100
AcDbEntity
  8
Livello 1
 62
   250
420
  1842203
370
    70
100
AcDbVertex
100
AcDb2dVertex
 10
18.65942758142094
 20
-4.9302705265452
 30
0.0
  0
VERTEX
  5
54
330
50
100
AcDbEntity
  8
Livello 1
 62
   250
420
  1842203
370
    70
100
AcDbVertex
100
AcDb2dVertex
 10
16.1633238364941
 20
-4.9302705265452
 30
0.0
  0
VERTEX
  5
55
330
50
100
AcDbEntity
  8
Livello 1
 62
   250
420
  1842203
370
    70
100
AcDbVertex
100
AcDb2dVertex
 10
16.1633238364941
 20
-2.434166666058124
 30
0.0
  0
SEQEND
  5
56
330
50
100
AcDbEntity
  8
Livello 1
 62
   250
420
  1842203
370
    70
  0
ENDBLK
  5
4F
330
4C
100
AcDbEntity
  8
0
100
AcDbBlockEnd
  0
BLOCK
  5
59
330
57
100
AcDbEntity
  8
0
100
AcDbBlockBegin
  2
block 4
 70
     0
 10
0.0
 20
0.0
 30
0.0
  3
block 4
  1

  0
POLYLINE
  5
5B
330
57
100
AcDbEntity
  8
Livello 1
 62
   250
420
  1842203
370
    70
100
AcDb2dPolyline
 66
     1
 10
0.0
 20
0.0
 30
0.0
  0
VERTEX
  5
5C
330
5B
100
AcDbEntity
  8
Livello 1
 62
   250
420
  1842203
370
    70
100
AcDbVertex
100
AcDb2dVertex
 10
15.69530414216667
 20
-2.742198110425563
 30
0.0
  0
VERTEX
  5
5D
330
5B
100
AcDbEntity
  8
Livello 1
 62
   250
420
  1842203
370
    70
100
AcDbVertex
100
AcDb2dVertex
 10
16.1633238364941
 20
-2.742198110425563
 30
0.0
  0
VERTEX
  5
5E
330
5B
100
AcDbEntity
  8
Livello 1
 62
   250
420
  1842203
370
    70
100
AcDbVertex
100
AcDb2dVertex
 10
16.1633238364941
 20
-4.62223908217776
 30
0.0
  0
VERTEX
  5
5F
330
5B
100
AcDbEntity
  8
Livello 1
 62
   250
420
  1842203
370
    70
100
AcDbVertex
100
AcDb2dVertex
 10
15.69530414216667
 20
-4.62223908217776
 30
0.0
  0
VERTEX
  5
60
330
5B
100
AcDbEntity
  8
Livello 1
 62
   250
420
  1842203
370
    70
100
AcDbVertex
100
AcDb2dVertex
 10
15.69530414216667
 20
-2.742198110425563
 30
0.0
  0
SEQEND
  5
61
330
5B
100
AcDbEntity
  8
Livello 1
 62
   250
420
  1842203
370
    70
  0
ENDBLK
  5
5A
330
57
100
AcDbEntity
  8
0
100
AcDbBlockEnd
  0
BLOCK
  5
70
330
6E
100
AcDbEntity
  8
0
100
AcDbBlockBegin
  2
block 5
 70
     0
 10
0.0
 20
0.0
 30
0.0
  3
block 5
  1

  0
POLYLINE
  5
72
330
6E
100
AcDbEntity
  8
Livello 1
370
     0
100
AcDb2dPolyline
 66
     1
 10
0.0
 20
0.0
 30
0.0
  0
VERTEX
  5
73
330
72
100
AcDbEntity
  8
Livello 1
370
     0
100
AcDbVertex
100
AcDb2dVertex
 10
6.534209254008808
 20
-6.768269041276682
 30
0.0
  0
VERTEX
  5
74
330
72
100
AcDbEntity
  8
Livello 1
370
     0
100
AcDbVertex
100
AcDb2dVertex
 10
6.534209254008808
 20
-6.618407387668315
 30
0.0
  0
VERTEX
  5
75
330
72
100
AcDbEntity
  8
Livello 1
370
     0
100
AcDbVertex
100
AcDb2dVertex
 10
6.278479816138712
 20
-6.618407387668315
 30
0.0
  0
VERTEX
  5
76
330
72
100
AcDbEntity
  8
Livello 1
370
     0
100
AcDbVertex
100
AcDb2dVertex
 10
6.278479816138712
 20
-6.569280326048652
 30
0.0
  0
VERTEX
  5
77
330
72
100
AcDbEntity
  8
Livello 1
370
     0
100
AcDbVertex
100
AcDb2dVertex
 10
6.524046222327322
 20
-6.217880586553167
 30
0.0
  0
VERTEX
  5
78
330
72
100
AcDbEntity
  8
Livello 1
370
     0
100
AcDbVertex
100
AcDb2dVertex
 10
6.604471976430478
 20
-6.217880586553167
 30
0.0
  0
VERTEX
  5
79
330
72
100
AcDbEntity
  8
Livello 1
370
     0
100
AcDbVertex
100
AcDb2dVertex
 10
6.604471976430478
 20
-6.559978568238477
 30
0.0
  0
VERTEX
  5
7A
330
72
100
AcDbEntity
  8
Livello 1
370
     0
100
AcDbVertex
100
AcDb2dVertex
 10
6.681538762435517
 20
-6.559978568238477
 30
0.0
  0
VERTEX
  5
7B
330
72
100
AcDbEntity
  8
Livello 1
370
     0
100
AcDbVertex
100
AcDb2dVertex
 10
6.681538762435517
 20
-6.618407387668315
 30
0.0
  0
VERTEX
  5
7C
330
72
100
AcDbEntity
  8
Livello 1
370
     0
100
AcDbVertex
100
AcDb2dVertex
 10
6.604471976430478
 20
-6.618407387668315
 30
0.0
  0
VERTEX
  5
7D
330
72
100
AcDbEntity
  8
Livello 1
370
     0
100
AcDbVertex
100
AcDb2dVertex
 10
6.604471976430478
 20
-6.768269041276682
 30
0.0
  0
VERTEX
  5
7E
330
72
100
AcDbEntity
  8
Livello 1
370
     0
100
AcDbVertex
100
AcDb2dVertex
 10
6.534209254008808
 20
-6.768269041276682
 30
0.0
  0
SEQEND
  5
7F
330
72
100
AcDbEntity
  8
Livello 1
370
     0
  0
SPLINE
  5
80
330
6E
100
AcDbEntity
  8
Livello 1
370
     0
100
AcDbSpline
210
0.0
220
0.0
230
1.0
 70
    11
 71
     3
 72
    26
 73
    22
 74
     0
 42
0.000000001
 43
0.0000000001
 40
0.0
 40
0.0
 40
0.0
 40
0.0
 40
1.0
 40
1.0
 40
1.0
 40
2.0
 40
2.0
 40
2.0
 40
3.0
 40
3.0
 40
3.0
 40
4.0
 40
4.0
 40
4.0
 40
5.0
 40
5.0
 40
5.0
 40
6.0
 40
6.0
 40
6.0
 40
7.0
 40
7.0
 40
7.0
 40
7.0
 10
6.534209254008808
 20
-6.559978568238477
 30
0.0
 10
6.534209254008808
 20
-6.559978568238477
 30
0.0
 10
6.534209254008808
 20
-6.37621717505525
 30
0.0
 10
6.534209254008808
 20
-6.37621717505525
 30
0.0
 10
6.534209254008808
 20
-6.347450627753414
 30
0.0
 10
6.535053302402692
 20
-6.318649629496727
 30
0.0
 10
6.536741399190467
 20
-6.289848631240038
 30
0.0
 10
6.536741399190467
 20
-6.289848631240038
 30
0.0
 10
6.534209254008808
 20
-6.289848631240038
 30
0.0
 10
6.534209254008808
 20
-6.289848631240038
 30
0.0
 10
6.517259384221378
 20
-6.322025823072271
 30
0.0
 10
6.503720158964347
 20
-6.345762530965642
 30
0.0
 10
6.488475611442117
 20
-6.371152884691932
 30
0.0
 10
6.488475611442117
 20
-6.371152884691932
 30
0.0
 10
6.353841279878553
 20
-6.558290471450705
 30
0.0
 10
6.353841279878553
 20
-6.558290471450705
 30
0.0
 10
6.353841279878553
 20
-6.558290471450705
 30
0.0
 10
6.353841279878553
 20
-6.559978568238477
 30
0.0
 10
6.353841279878553
 20
-6.559978568238477
 30
0.0
 10
6.353841279878553
 20
-6.559978568238477
 30
0.0
 10
6.534209254008808
 20
-6.559978568238477
 30
0.0
 10
6.534209254008808
 20
-6.559978568238477
 30
0.0
  0
HATCH
  5
81
330
6E
100
AcDbEntity
  8
Livello 1
 62
   250
420
  1842203
100
AcDbHatch
 10
0.0
 20
0.0
 30
0.0
210
0.0
220
0.0
230
1.0
  2
SOLID
 70
     1
 71
     0
 91
        2
 92
        1
 93
       11
 72
     1
 10
6.534209254008808
 20
-6.768269041276682
 11
6.534209254008808
 21
-6.618407387668315
 72
     1
 10
6.534209254008808
 20
-6.618407387668315
 11
6.278479816138712
 21
-6.618407387668315
 72
     1
 10
6.278479816138712
 20
-6.618407387668315
 11
6.278479816138712
 21
-6.569280326048652
 72
     1
 10
6.278479816138712
 20
-6.569280326048652
 11
6.524046222327322
 21
-6.217880586553167
 72
     1
 10
6.524046222327322
 20
-6.217880586553167
 11
6.604471976430478
 21
-6.217880586553167
 72
     1
 10
6.604471976430478
 20
-6.217880586553167
 11
6.604471976430478
 21
-6.559978568238477
 72
     1
 10
6.604471976430478
 20
-6.559978568238477
 11
6.681538762435517
 21
-6.559978568238477
 72
     1
 10
6.681538762435517
 20
-6.559978568238477
 11
6.681538762435517
 21
-6.618407387668315
 72
     1
 10
6.681538762435517
 20
-6.618407387668315
 11
6.604471976430478
 21
-6.618407387668315
 72
     1
 10
6.604471976430478
 20
-6.618407387668315
 11
6.604471976430478
 21
-6.768269041276682
 72
     1
 10
6.604471976430478
 20
-6.768269041276682
 11
6.534209254008808
 21
-6.768269041276682
 97
        0
 92
        1
 93
        1
 72
     4
 94
        3
 73
     0
 74
     0
 95
       26
 96
       22
 40
0.0
 40
0.0
 40
0.0
 40
0.0
 40
1.0
 40
1.0
 40
1.0
 40
2.0
 40
2.0
 40
2.0
 40
3.0
 40
3.0
 40
3.0
 40
4.0
 40
4.0
 40
4.0
 40
5.0
 40
5.0
 40
5.0
 40
6.0
 40
6.0
 40
6.0
 40
7.0
 40
7.0
 40
7.0
 40
7.0
 10
6.534209254008808
 20
-6.559978568238477
 10
6.534209254008808
 20
-6.559978568238477
 10
6.534209254008808
 20
-6.37621717505525
 10
6.534209254008808
 20
-6.37621717505525
 10
6.534209254008808
 20
-6.347450627753414
 10
6.535053302402692
 20
-6.318649629496727
 10
6.536741399190467
 20
-6.289848631240038
 10
6.536741399190467
 20
-6.289848631240038
 10
6.534209254008808
 20
-6.289848631240038
 10
6.534209254008808
 20
-6.289848631240038
 10
6.517259384221378
 20
-6.322025823072271
 10
6.503720158964347
 20
-6.345762530965642
 10
6.488475611442117
 20
-6.371152884691932
 10
6.488475611442117
 20
-6.371152884691932
 10
6.353841279878553
 20
-6.558290471450705
 10
6.353841279878553
 20
-6.558290471450705
 10
6.353841279878553
 20
-6.558290471450705
 10
6.353841279878553
 20
-6.559978568238477
 10
6.353841279878553
 20
-6.559978568238477
 10
6.353841279878553
 20
-6.559978568238477
 10
6.534209254008808
 20
-6.559978568238477
 10
6.534209254008808
 20
-6.559978568238477
 97
        0
 97
        0
 75
     2
 76
     1
 98
        0
450
        0
451
        0
460
0.0
461
0.0
452
        0
462
0.0
453
        0
470

  0
SPLINE
  5
82
330
6E
100
AcDbEntity
  8
Livello 1
370
     0
100
AcDbSpline
210
0.0
220
0.0
230
1.0
 70
    11
 71
     3
 72
    50
 73
    46
 74
     0
 42
0.000000001
 43
0.0000000001
 40
0.0
 40
0.0
 40
0.0
 40
0.0
 40
1.0
 40
1.0
 40
1.0
 40
2.0
 40
2.0
 40
2.0
 40
3.0
 40
3.0
 40
3.0
 40
4.0
 40
4.0
 40
4.0
 40
5.0
 40
5.0
 40
5.0
 40
6.0
 40
6.0
 40
6.0
 40
7.0
 40
7.0
 40
7.0
 40
8.0
 40
8.0
 40
8.0
 40
9.0
 40
9.0
 40
9.0
 40
10.0
 40
10.0
 40
10.0
 40
11.0
 40
11.0
 40
11.0
 40
12.0
 40
12.0
 40
12.0
 40
13.0
 40
13.0
 40
13.0
 40
14.0
 40
14.0
 40
14.0
 40
15.0
 40
15.0
 40
15.0
 40
15.0
 10
7.066752114118727
 20
-6.280546873429861
 30
0.0
 10
7.066752114118727
 20
-6.280546873429861
 30
0.0
 10
6.856756318815324
 20
-6.280546873429861
 30
0.0
 10
6.856756318815324
 20
-6.280546873429861
 30
0.0
 10
6.856756318815324
 20
-6.280546873429861
 30
0.0
 10
6.835586207058463
 20
-6.421968043099367
 30
0.0
 10
6.835586207058463
 20
-6.421968043099367
 30
0.0
 10
6.84828138392161
 20
-6.420245495356744
 30
0.0
 10
6.860149737868294
 20
-6.418557398568971
 30
0.0
 10
6.880458575753842
 20
-6.418557398568971
 30
0.0
 10
6.922798799267562
 20
-6.418557398568971
 30
0.0
 10
6.965139022781284
 20
-6.427893607333997
 30
0.0
 10
6.999004311401289
 20
-6.44818521974212
 30
0.0
 10
7.042188583308896
 20
-6.47274875055195
 30
0.0
 10
7.077759194194101
 20
-6.520187715383842
 30
0.0
 10
7.077759194194101
 20
-6.589606389411624
 30
0.0
 10
7.077759194194101
 20
-6.697127819506271
 30
0.0
 10
6.992234698772774
 20
-6.777570799086857
 30
0.0
 10
6.872844914731441
 20
-6.777570799086857
 30
0.0
 10
6.81272799851383
 20
-6.777570799086857
 30
0.0
 10
6.761912840106397
 20
-6.76065538025428
 30
0.0
 10
6.735678437986218
 20
-6.743705510466851
 30
0.0
 10
6.735678437986218
 20
-6.743705510466851
 30
0.0
 10
6.754299179083994
 20
-6.686999238779638
 30
0.0
 10
6.754299179083994
 20
-6.686999238779638
 30
0.0
 10
6.777157387628627
 20
-6.700538464036669
 30
0.0
 10
6.822029756324006
 20
-6.717453882869246
 30
0.0
 10
6.872000866337553
 20
-6.717453882869246
 30
0.0
 10
6.942280814236652
 20
-6.717453882869246
 30
0.0
 10
7.002397730454261
 20
-6.671737465779982
 30
0.0
 10
7.002397730454261
 20
-6.59808132430534
 30
0.0
 10
7.001553682060375
 20
-6.526940102534932
 30
0.0
 10
6.954131942705911
 20
-6.476159395082347
 30
0.0
 10
6.844061141952178
 20
-6.476159395082347
 30
0.0
 10
6.81272799851383
 20
-6.476159395082347
 30
0.0
 10
6.788164467704
 20
-6.479535588657893
 30
0.0
 10
6.767838404341026
 20
-6.482084959316977
 30
0.0
 10
6.767838404341026
 20
-6.482084959316977
 30
0.0
 10
6.80340901522623
 20
-6.217880586553167
 30
0.0
 10
6.80340901522623
 20
-6.217880586553167
 30
0.0
 10
6.80340901522623
 20
-6.217880586553167
 30
0.0
 10
7.066752114118727
 20
-6.217880586553167
 30
0.0
 10
7.066752114118727
 20
-6.217880586553167
 30
0.0
 10
7.066752114118727
 20
-6.217880586553167
 30
0.0
 10
7.066752114118727
 20
-6.280546873429861
 30
0.0
 10
7.066752114118727
 20
-6.280546873429861
 30
0.0
  0
HATCH
  5
83
330
6E
100
AcDbEntity
  8
Livello 1
 62
   250
420
  1842203
100
AcDbHatch
 10
0.0
 20
0.0
 30
0.0
210
0.0
220
0.0
230
1.0
  2
SOLID
 70
     1
 71
     0
 91
        1
 92
        1
 93
        1
 72
     4
 94
        3
 73
     0
 74
     0
 95
       50
 96
       46
 40
0.0
 40
0.0
 40
0.0
 40
0.0
 40
1.0
 40
1.0
 40
1.0
 40
2.0
 40
2.0
 40
2.0
 40
3.0
 40
3.0
 40
3.0
 40
4.0
 40
4.0
 40
4.0
 40
5.0
 40
5.0
 40
5.0
 40
6.0
 40
6.0
 40
6.0
 40
7.0
 40
7.0
 40
7.0
 40
8.0
 40
8.0
 40
8.0
 40
9.0
 40
9.0
 40
9.0
 40
10.0
 40
10.0
 40
10.0
 40
11.0
 40
11.0
 40
11.0
 40
12.0
 40
12.0
 40
12.0
 40
13.0
 40
13.0
 40
13.0
 40
14.0
 40
14.0
 40
14.0
 40
15.0
 40
15.0
 40
15.0
 40
15.0
 10
7.066752114118727
 20
-6.280546873429861
 10
7.066752114118727
 20
-6.280546873429861
 10
6.856756318815324
 20
-6.280546873429861
 10
6.856756318815324
 20
-6.280546873429861
 10
6.856756318815324
 20
-6.280546873429861
 10
6.835586207058463
 20
-6.421968043099367
 10
6.835586207058463
 20
-6.421968043099367
 10
6.84828138392161
 20
-6.420245495356744
 10
6.860149737868294
 20
-6.418557398568971
 10
6.880458575753842
 20
-6.418557398568971
 10
6.922798799267562
 20
-6.418557398568971
 10
6.965139022781284
 20
-6.427893607333997
 10
6.999004311401289
 20
-6.44818521974212
 10
7.042188583308896
 20
-6.47274875055195
 10
7.077759194194101
 20
-6.520187715383842
 10
7.077759194194101
 20
-6.589606389411624
 10
7.077759194194101
 20
-6.697127819506271
 10
6.992234698772774
 20
-6.777570799086857
 10
6.872844914731441
 20
-6.777570799086857
 10
6.81272799851383
 20
-6.777570799086857
 10
6.761912840106397
 20
-6.76065538025428
 10
6.735678437986218
 20
-6.743705510466851
 10
6.735678437986218
 20
-6.743705510466851
 10
6.754299179083994
 20
-6.686999238779638
 10
6.754299179083994
 20
-6.686999238779638
 10
6.777157387628627
 20
-6.700538464036669
 10
6.822029756324006
 20
-6.717453882869246
 10
6.872000866337553
 20
-6.717453882869246
 10
6.942280814236652
 20
-6.717453882869246
 10
7.002397730454261
 20
-6.671737465779982
 10
7.002397730454261
 20
-6.59808132430534
 10
7.001553682060375
 20
-6.526940102534932
 10
6.954131942705911
 20
-6.476159395082347
 10
6.844061141952178
 20
-6.476159395082347
 10
6.81272799851383
 20
-6.476159395082347
 10
6.788164467704
 20
-6.479535588657893
 10
6.767838404341026
 20
-6.482084959316977
 10
6.767838404341026
 20
-6.482084959316977
 10
6.80340901522623
 20
-6.217880586553167
 10
6.80340901522623
 20
-6.217880586553167
 10
6.80340901522623
 20
-6.217880586553167
 10
7.066752114118727
 20
-6.217880586553167
 10
7.066752114118727
 20
-6.217880586553167
 10
7.066752114118727
 20
-6.217880586553167
 10
7.066752114118727
 20
-6.280546873429861
 10
7.066752114118727
 20
-6.280546873429861
 97
        0
 97
        0
 75
     2
 76
     1
 98
        0
450
        0
451
        0
460
0.0
461
0.0
452
        0
462
0.0
453
        0
470

  0
ENDBLK
  5
71
330
6E
100
AcDbEntity
  8
0
100
AcDbBlockEnd
  0
BLOCK
  5
86
330
84
100
AcDbEntity
  8
0
100
AcDbBlockBegin
  2
block 6
 70
     0
 10
0.0
 20
0.0
 30
0.0
  3
block 6
  1

  0
SPLINE
  5
88
330
84
100
AcDbEntity
  8
Livello 1
370
     0
100
AcDbSpline
210
0.0
220
0.0
230
1.0
 70
     9
 71
     3
 72
    35
 73
    31
 74
     0
 42
0.000000001
 43
0.0000000001
 40
0.0
 40
0.0
 40
0.0
 40
0.0
 40
1.0
 40
1.0
 40
1.0
 40
2.0
 40
2.0
 40
2.0
 40
3.0
 40
3.0
 40
3.0
 40
4.0
 40
4.0
 40
4.0
 40
5.0
 40
5.0
 40
5.0
 40
6.0
 40
6.0
 40
6.0
 40
7.0
 40
7.0
 40
7.0
 40
8.0
 40
8.0
 40
8.0
 40
9.0
 40
9.0
 40
9.0
 40
10.0
 40
10.0
 40
10.0
 40
10.0
 10
19.85828829798681
 20
-3.691850449380856
 30
0.0
 10
19.78883517300418
 20
-3.691850449380856
 30
0.0
 10
19.73974256233937
 20
-3.650371499738448
 30
0.0
 10
19.71094156408268
 20
-3.582623697021011
 30
0.0
 10
19.71094156408268
 20
-3.582623697021011
 30
0.0
 10
19.7083921934236
 20
-3.583467745414897
 30
0.0
 10
19.7083921934236
 20
-3.583467745414897
 30
0.0
 10
19.67962564612176
 20
-3.644428710026392
 30
0.0
 10
19.63218668128987
 20
-3.670680337623996
 30
0.0
 10
19.58478216741282
 20
-3.670680337623996
 30
0.0
 10
19.49755234972631
 20
-3.670680337623996
 30
0.0
 10
19.43829670738001
 20
-3.597024196149355
 30
0.0
 10
19.43829670738001
 20
-3.500492620652654
 30
0.0
 10
19.43829670738001
 20
-3.393798013474466
 30
0.0
 10
19.50520046170356
 20
-3.340450709885373
 30
0.0
 10
19.57375786186003
 20
-3.340450709885373
 30
0.0
 10
19.62033555282061
 20
-3.340450709885373
 30
0.0
 10
19.67028943735673
 20
-3.363326143907431
 30
0.0
 10
19.70246662918897
 20
-3.431056721147443
 30
0.0
 10
19.70246662918897
 20
-3.431056721147443
 30
0.0
 10
19.70501599984805
 20
-3.431056721147443
 30
0.0
 10
19.70501599984805
 20
-3.431056721147443
 30
0.0
 10
19.73209445036212
 20
-3.36246487003612
 30
0.0
 10
19.78036023811046
 20
-3.320141871999825
 30
0.0
 10
19.84726399243402
 20
-3.320141871999825
 30
0.0
 10
19.94293429405941
 20
-3.320141871999825
 30
0.0
 10
20.00728867772387
 20
-3.402272948368181
 30
0.0
 10
20.00728867772387
 20
-3.50726223328117
 30
0.0
 10
20.00728867772387
 20
-3.622414549875646
 30
0.0
 10
19.9387312775674
 20
-3.691850449380856
 30
0.0
 10
19.85828829798681
 20
-3.691850449380856
 30
0.0
  0
SPLINE
  5
89
330
84
100
AcDbEntity
  8
Livello 1
370
     0
100
AcDbSpline
210
0.0
220
0.0
230
1.0
 70
     9
 71
     3
 72
    17
 73
    13
 74
     0
 42
0.000000001
 43
0.0000000001
 40
0.0
 40
0.0
 40
0.0
 40
0.0
 40
1.0
 40
1.0
 40
1.0
 40
2.0
 40
2.0
 40
2.0
 40
3.0
 40
3.0
 40
3.0
 40
4.0
 40
4.0
 40
4.0
 40
4.0
 10
19.57968342609466
 20
-3.600400389724899
 30
0.0
 10
19.63473605194895
 20
-3.600400389724899
 30
0.0
 10
19.6643638731221
 20
-3.558921440082491
 30
0.0
 10
19.68131374290953
 20
-3.49541110481191
 30
0.0
 10
19.66522514699341
 20
-3.447989365457446
 30
0.0
 10
19.63135985837341
 20
-3.411574706178356
 30
0.0
 10
19.58140597383728
 20
-3.411574706178356
 30
0.0
 10
19.53734320258094
 20
-3.411574706178356
 30
0.0
 10
19.49162678549168
 20
-3.43782633377596
 30
0.0
 10
19.49162678549168
 20
-3.504730088099512
 30
0.0
 10
19.49162678549168
 20
-3.566535101104893
 30
0.0
 10
19.53227891221762
 20
-3.600400389724899
 30
0.0
 10
19.57968342609466
 20
-3.600400389724899
 30
0.0
  0
SPLINE
  5
8A
330
84
100
AcDbEntity
  8
Livello 1
370
     0
100
AcDbSpline
210
0.0
220
0.0
230
1.0
 70
     9
 71
     3
 72
    17
 73
    13
 74
     0
 42
0.000000001
 43
0.0000000001
 40
0.0
 40
0.0
 40
0.0
 40
0.0
 40
1.0
 40
1.0
 40
1.0
 40
2.0
 40
2.0
 40
2.0
 40
3.0
 40
3.0
 40
3.0
 40
4.0
 40
4.0
 40
4.0
 40
4.0
 10
19.85487765345642
 20
-3.395503335739666
 30
0.0
 10
19.78800835008772
 20
-3.395503335739666
 30
0.0
 10
19.75583115825549
 20
-3.442063801222816
 30
0.0
 10
19.7346438210212
 20
-3.516581216568771
 30
0.0
 10
19.75328178759639
 20
-3.580935600233238
 30
0.0
 10
19.79562201111012
 20
-3.615644937247129
 30
0.0
 10
19.84812526630532
 20
-3.615644937247129
 30
0.0
 10
19.90400471507608
 20
-3.618194307906214
 30
0.0
 10
19.95309732574089
 20
-3.575854084392493
 30
0.0
 10
19.95309732574089
 20
-3.505574136493398
 30
0.0
 10
19.95309732574089
 20
-3.438687607647271
 30
0.0
 10
19.91161837609848
 20
-3.395503335739666
 30
0.0
 10
19.85487765345642
 20
-3.395503335739666
 30
0.0
  0
HATCH
  5
8B
330
84
100
AcDbEntity
  8
Livello 1
 62
   250
420
  1842203
100
AcDbHatch
 10
0.0
 20
0.0
 30
0.0
210
0.0
220
0.0
230
1.0
  2
SOLID
 70
     1
 71
     0
 91
        3
 92
        1
 93
        1
 72
     4
 94
        3
 73
     0
 74
     0
 95
       35
 96
       31
 40
0.0
 40
0.0
 40
0.0
 40
0.0
 40
1.0
 40
1.0
 40
1.0
 40
2.0
 40
2.0
 40
2.0
 40
3.0
 40
3.0
 40
3.0
 40
4.0
 40
4.0
 40
4.0
 40
5.0
 40
5.0
 40
5.0
 40
6.0
 40
6.0
 40
6.0
 40
7.0
 40
7.0
 40
7.0
 40
8.0
 40
8.0
 40
8.0
 40
9.0
 40
9.0
 40
9.0
 40
10.0
 40
10.0
 40
10.0
 40
10.0
 10
19.85828829798681
 20
-3.691850449380856
 10
19.78883517300418
 20
-3.691850449380856
 10
19.73974256233937
 20
-3.650371499738448
 10
19.71094156408268
 20
-3.582623697021011
 10
19.71094156408268
 20
-3.582623697021011
 10
19.7083921934236
 20
-3.583467745414897
 10
19.7083921934236
 20
-3.583467745414897
 10
19.67962564612176
 20
-3.644428710026392
 10
19.63218668128987
 20
-3.670680337623996
 10
19.58478216741282
 20
-3.670680337623996
 10
19.49755234972631
 20
-3.670680337623996
 10
19.43829670738001
 20
-3.597024196149355
 10
19.43829670738001
 20
-3.500492620652654
 10
19.43829670738001
 20
-3.393798013474466
 10
19.50520046170356
 20
-3.340450709885373
 10
19.57375786186003
 20
-3.340450709885373
 10
19.62033555282061
 20
-3.340450709885373
 10
19.67028943735673
 20
-3.363326143907431
 10
19.70246662918897
 20
-3.431056721147443
 10
19.70246662918897
 20
-3.431056721147443
 10
19.70501599984805
 20
-3.431056721147443
 10
19.70501599984805
 20
-3.431056721147443
 10
19.73209445036212
 20
-3.36246487003612
 10
19.78036023811046
 20
-3.320141871999825
 10
19.84726399243402
 20
-3.320141871999825
 10
19.94293429405941
 20
-3.320141871999825
 10
20.00728867772387
 20
-3.402272948368181
 10
20.00728867772387
 20
-3.50726223328117
 10
20.00728867772387
 20
-3.622414549875646
 10
19.9387312775674
 20
-3.691850449380856
 10
19.85828829798681
 20
-3.691850449380856
 97
        0
 97
        0
 92
        1
 93
        1
 72
     4
 94
        3
 73
     0
 74
     0
 95
       17
 96
       13
 40
0.0
 40
0.0
 40
0.0
 40
0.0
 40
1.0
 40
1.0
 40
1.0
 40
2.0
 40
2.0
 40
2.0
 40
3.0
 40
3.0
 40
3.0
 40
4.0
 40
4.0
 40
4.0
 40
4.0
 10
19.57968342609466
 20
-3.600400389724899
 10
19.63473605194895
 20
-3.600400389724899
 10
19.6643638731221
 20
-3.558921440082491
 10
19.68131374290953
 20
-3.49541110481191
 10
19.66522514699341
 20
-3.447989365457446
 10
19.63135985837341
 20
-3.411574706178356
 10
19.58140597383728
 20
-3.411574706178356
 10
19.53734320258094
 20
-3.411574706178356
 10
19.49162678549168
 20
-3.43782633377596
 10
19.49162678549168
 20
-3.504730088099512
 10
19.49162678549168
 20
-3.566535101104893
 10
19.53227891221762
 20
-3.600400389724899
 10
19.57968342609466
 20
-3.600400389724899
 97
        0
 97
        0
 92
        1
 93
        1
 72
     4
 94
        3
 73
     0
 74
     0
 95
       17
 96
       13
 40
0.0
 40
0.0
 40
0.0
 40
0.0
 40
1.0
 40
1.0
 40
1.0
 40
2.0
 40
2.0
 40
2.0
 40
3.0
 40
3.0
 40
3.0
 40
4.0
 40
4.0
 40
4.0
 40
4.0
 10
19.85487765345642
 20
-3.395503335739666
 10
19.78800835008772
 20
-3.395503335739666
 10
19.75583115825549
 20
-3.442063801222816
 10
19.7346438210212
 20
-3.516581216568771
 10
19.75328178759639
 20
-3.580935600233238
 10
19.79562201111012
 20
-3.615644937247129
 10
19.84812526630532
 20
-3.615644937247129
 10
19.90400471507608
 20
-3.618194307906214
 10
19.95309732574089
 20
-3.575854084392493
 10
19.95309732574089
 20
-3.505574136493398
 10
19.95309732574089
 20
-3.438687607647271
 10
19.91161837609848
 20
-3.395503335739666
 10
19.85487765345642
 20
-3.395503335739666
 97
        0
 97
        0
 75
     2
 76
     1
 98
        0
450
        0
451
        0
460
0.0
461
0.0
452
        0
462
0.0
453
        0
470

  0
ENDBLK
  5
87
330
84
100
AcDbEntity
  8
0
100
AcDbBlockEnd
  0
BLOCK
  5
8E
330
8C
100
AcDbEntity
  8
0
100
AcDbBlockBegin
  2
block 7
 70
     0
 10
0.0
 20
0.0
 30
0.0
  3
block 7
  1

  0
SPLINE
  5
90
330
8C
100
AcDbEntity
  8
Livello 1
370
     0
100
AcDbSpline
210
0.0
220
0.0
230
1.0
 70
     9
 71
     3
 72
    41
 73
    37
 74
     0
 42
0.000000001
 43
0.0000000001
 40
0.0
 40
0.0
 40
0.0
 40
0.0
 40
1.0
 40
1.0
 40
1.0
 40
2.0
 40
2.0
 40
2.0
 40
3.0
 40
3.0
 40
3.0
 40
4.0
 40
4.0
 40
4.0
 40
5.0
 40
5.0
 40
5.0
 40
6.0
 40
6.0
 40
6.0
 40
7.0
 40
7.0
 40
7.0
 40
8.0
 40
8.0
 40
8.0
 40
9.0
 40
9.0
 40
9.0
 40
10.0
 40
10.0
 40
10.0
 40
11.0
 40
11.0
 40
11.0
 40
12.0
 40
12.0
 40
12.0
 40
12.0
 10
16.77899305136081
 20
-6.531022540684952
 30
0.0
 10
16.79508164727692
 20
-6.532710637472725
 30
0.0
 10
16.81368516289727
 20
-6.531022540684952
 30
0.0
 10
16.83910996757842
 20
-6.528473170025867
 30
0.0
 10
16.8822770140086
 20
-6.522547605791237
 30
0.0
 10
16.92292914073455
 20
-6.504770913087348
 30
0.0
 10
16.95424505869547
 20
-6.4751430919142
 30
0.0
 10
16.99065971797456
 20
-6.442104626210653
 30
0.0
 10
17.01691134557216
 20
-6.393873289417156
 30
0.0
 10
17.02707437725365
 20
-6.328657631881378
 30
0.0
 10
17.02707437725365
 20
-6.328657631881378
 30
0.0
 10
17.02452500659456
 20
-6.328657631881378
 30
0.0
 10
17.02452500659456
 20
-6.328657631881378
 30
0.0
 10
16.99407036250495
 20
-6.365899114076928
 30
0.0
 10
16.95004204220346
 20
-6.387913274227673
 30
0.0
 10
16.89498941634917
 20
-6.387913274227673
 30
0.0
 10
16.79590847019338
 20
-6.387913274227673
 30
0.0
 10
16.73241536040023
 20
-6.313430309836572
 30
0.0
 10
16.73241536040023
 20
-6.219413654044106
 30
0.0
 10
16.73241536040023
 20
-6.115268417525003
 30
0.0
 10
16.80775959866264
 20
-6.023835583346473
 30
0.0
 10
16.92037977007546
 20
-6.023835583346473
 30
0.0
 10
17.03299994148828
 20
-6.023835583346473
 30
0.0
 10
17.10245306647091
 20
-6.115268417525003
 30
0.0
 10
17.10245306647091
 20
-6.255828313323195
 30
0.0
 10
17.10245306647091
 20
-6.376923419629727
 30
0.0
 10
17.06180093974497
 20
-6.461603866657167
 30
0.0
 10
17.00760958776198
 20
-6.514107121852375
 30
0.0
 10
16.96526936424826
 20
-6.555586071494781
 30
0.0
 10
16.90684054481843
 20
-6.580976425221074
 30
0.0
 10
16.84758490247213
 20
-6.587763263327017
 30
0.0
 10
16.82047200100321
 20
-6.592000730773874
 30
0.0
 10
16.79676974406469
 20
-6.592827553690334
 30
0.0
 10
16.77899305136081
 20
-6.592000730773874
 30
0.0
 10
16.77899305136081
 20
-6.592000730773874
 30
0.0
 10
16.77899305136081
 20
-6.531022540684952
 30
0.0
 10
16.77899305136081
 20
-6.531022540684952
 30
0.0
  0
SPLINE
  5
91
330
8C
100
AcDbEntity
  8
Livello 1
370
     0
100
AcDbSpline
210
0.0
220
0.0
230
1.0
 70
     9
 71
     3
 72
    20
 73
    16
 74
     0
 42
0.000000001
 43
0.0000000001
 40
0.0
 40
0.0
 40
0.0
 40
0.0
 40
1.0
 40
1.0
 40
1.0
 40
2.0
 40
2.0
 40
2.0
 40
3.0
 40
3.0
 40
3.0
 40
4.0
 40
4.0
 40
4.0
 40
5.0
 40
5.0
 40
5.0
 40
5.0
 10
16.80607150187487
 20
-6.214349363680787
 30
0.0
 10
16.80607150187487
 20
-6.282941214792111
 30
0.0
 10
16.84758490247213
 20
-6.331207002540462
 30
0.0
 10
16.9119392861366
 20
-6.331207002540462
 30
0.0
 10
16.96189317067272
 20
-6.331207002540462
 30
0.0
 10
17.00082274965604
 20
-6.30664347173063
 30
0.0
 10
17.02032199010256
 20
-6.273605006027083
 30
0.0
 10
17.02452500659456
 20
-6.266852618875994
 30
0.0
 10
17.02707437725365
 20
-6.25837768398228
 30
0.0
 10
17.02707437725365
 20
-6.246526555513021
 30
0.0
 10
17.02707437725365
 20
-6.152544350675404
 30
0.0
 10
16.99234781476233
 20
-6.080576305988535
 30
0.0
 10
16.91445420584083
 20
-6.080576305988535
 30
0.0
 10
16.85096109604768
 20
-6.080576305988535
 30
0.0
 10
16.80607150187487
 20
-6.136455754759288
 30
0.0
 10
16.80607150187487
 20
-6.214349363680787
 30
0.0
  0
HATCH
  5
92
330
8C
100
AcDbEntity
  8
Livello 1
 62
   250
420
  1842203
100
AcDbHatch
 10
0.0
 20
0.0
 30
0.0
210
0.0
220
0.0
230
1.0
  2
SOLID
 70
     1
 71
     0
 91
        2
 92
        1
 93
        1
 72
     4
 94
        3
 73
     0
 74
     0
 95
       41
 96
       37
 40
0.0
 40
0.0
 40
0.0
 40
0.0
 40
1.0
 40
1.0
 40
1.0
 40
2.0
 40
2.0
 40
2.0
 40
3.0
 40
3.0
 40
3.0
 40
4.0
 40
4.0
 40
4.0
 40
5.0
 40
5.0
 40
5.0
 40
6.0
 40
6.0
 40
6.0
 40
7.0
 40
7.0
 40
7.0
 40
8.0
 40
8.0
 40
8.0
 40
9.0
 40
9.0
 40
9.0
 40
10.0
 40
10.0
 40
10.0
 40
11.0
 40
11.0
 40
11.0
 40
12.0
 40
12.0
 40
12.0
 40
12.0
 10
16.77899305136081
 20
-6.531022540684952
 10
16.79508164727692
 20
-6.532710637472725
 10
16.81368516289727
 20
-6.531022540684952
 10
16.83910996757842
 20
-6.528473170025867
 10
16.8822770140086
 20
-6.522547605791237
 10
16.92292914073455
 20
-6.504770913087348
 10
16.95424505869547
 20
-6.4751430919142
 10
16.99065971797456
 20
-6.442104626210653
 10
17.01691134557216
 20
-6.393873289417156
 10
17.02707437725365
 20
-6.328657631881378
 10
17.02707437725365
 20
-6.328657631881378
 10
17.02452500659456
 20
-6.328657631881378
 10
17.02452500659456
 20
-6.328657631881378
 10
16.99407036250495
 20
-6.365899114076928
 10
16.95004204220346
 20
-6.387913274227673
 10
16.89498941634917
 20
-6.387913274227673
 10
16.79590847019338
 20
-6.387913274227673
 10
16.73241536040023
 20
-6.313430309836572
 10
16.73241536040023
 20
-6.219413654044106
 10
16.73241536040023
 20
-6.115268417525003
 10
16.80775959866264
 20
-6.023835583346473
 10
16.92037977007546
 20
-6.023835583346473
 10
17.03299994148828
 20
-6.023835583346473
 10
17.10245306647091
 20
-6.115268417525003
 10
17.10245306647091
 20
-6.255828313323195
 10
17.10245306647091
 20
-6.376923419629727
 10
17.06180093974497
 20
-6.461603866657167
 10
17.00760958776198
 20
-6.514107121852375
 10
16.96526936424826
 20
-6.555586071494781
 10
16.90684054481843
 20
-6.580976425221074
 10
16.84758490247213
 20
-6.587763263327017
 10
16.82047200100321
 20
-6.592000730773874
 10
16.79676974406469
 20
-6.592827553690334
 10
16.77899305136081
 20
-6.592000730773874
 10
16.77899305136081
 20
-6.592000730773874
 10
16.77899305136081
 20
-6.531022540684952
 10
16.77899305136081
 20
-6.531022540684952
 97
        0
 97
        0
 92
        1
 93
        1
 72
     4
 94
        3
 73
     0
 74
     0
 95
       20
 96
       16
 40
0.0
 40
0.0
 40
0.0
 40
0.0
 40
1.0
 40
1.0
 40
1.0
 40
2.0
 40
2.0
 40
2.0
 40
3.0
 40
3.0
 40
3.0
 40
4.0
 40
4.0
 40
4.0
 40
5.0
 40
5.0
 40
5.0
 40
5.0
 10
16.80607150187487
 20
-6.214349363680787
 10
16.80607150187487
 20
-6.282941214792111
 10
16.84758490247213
 20
-6.331207002540462
 10
16.9119392861366
 20
-6.331207002540462
 10
16.96189317067272
 20
-6.331207002540462
 10
17.00082274965604
 20
-6.30664347173063
 10
17.02032199010256
 20
-6.273605006027083
 10
17.02452500659456
 20
-6.266852618875994
 10
17.02707437725365
 20
-6.25837768398228
 10
17.02707437725365
 20
-6.246526555513021
 10
17.02707437725365
 20
-6.152544350675404
 10
16.99234781476233
 20
-6.080576305988535
 10
16.91445420584083
 20
-6.080576305988535
 10
16.85096109604768
 20
-6.080576305988535
 10
16.80607150187487
 20
-6.136455754759288
 10
16.80607150187487
 20
-6.214349363680787
 97
        0
 97
        0
 75
     2
 76
     1
 98
        0
450
        0
451
        0
460
0.0
461
0.0
452
        0
462
0.0
453
        0
470

  0
SPLINE
  5
93
330
8C
100
AcDbEntity
  8
Livello 1
370
     0
100
AcDbSpline
210
0.0
220
0.0
230
1.0
 70
     9
 71
     3
 72
    17
 73
    13
 74
     0
 42
0.000000001
 43
0.0000000001
 40
0.0
 40
0.0
 40
0.0
 40
0.0
 40
1.0
 40
1.0
 40
1.0
 40
2.0
 40
2.0
 40
2.0
 40
3.0
 40
3.0
 40
3.0
 40
4.0
 40
4.0
 40
4.0
 40
4.0
 10
17.14555121099139
 20
-6.687671032399261
 30
0.0
 10
17.16418917756659
 20
-6.637717147863139
 30
0.0
 10
17.18706461158865
 20
-6.547111136601067
 30
0.0
 10
17.19636636939882
 20
-6.485306123595687
 30
0.0
 10
17.19636636939882
 20
-6.485306123595687
 30
0.0
 10
17.27935871963849
 20
-6.476831188701972
 30
0.0
 10
17.27935871963849
 20
-6.476831188701972
 30
0.0
 10
17.25989393014683
 20
-6.548799233388841
 30
0.0
 10
17.22261799699643
 20
-6.642781438226456
 30
0.0
 10
17.19891574005791
 20
-6.682606742035945
 30
0.0
 10
17.19891574005791
 20
-6.682606742035945
 30
0.0
 10
17.14555121099139
 20
-6.687671032399261
 30
0.0
 10
17.14555121099139
 20
-6.687671032399261
 30
0.0
  0
HATCH
  5
94
330
8C
100
AcDbEntity
  8
Livello 1
 62
   250
420
  1842203
100
AcDbHatch
 10
0.0
 20
0.0
 30
0.0
210
0.0
220
0.0
230
1.0
  2
SOLID
 70
     1
 71
     0
 91
        1
 92
        1
 93
        1
 72
     4
 94
        3
 73
     0
 74
     0
 95
       17
 96
       13
 40
0.0
 40
0.0
 40
0.0
 40
0.0
 40
1.0
 40
1.0
 40
1.0
 40
2.0
 40
2.0
 40
2.0
 40
3.0
 40
3.0
 40
3.0
 40
4.0
 40
4.0
 40
4.0
 40
4.0
 10
17.14555121099139
 20
-6.687671032399261
 10
17.16418917756659
 20
-6.637717147863139
 10
17.18706461158865
 20
-6.547111136601067
 10
17.19636636939882
 20
-6.485306123595687
 10
17.19636636939882
 20
-6.485306123595687
 10
17.27935871963849
 20
-6.476831188701972
 10
17.27935871963849
 20
-6.476831188701972
 10
17.25989393014683
 20
-6.548799233388841
 10
17.22261799699643
 20
-6.642781438226456
 10
17.19891574005791
 20
-6.682606742035945
 10
17.19891574005791
 20
-6.682606742035945
 10
17.14555121099139
 20
-6.687671032399261
 10
17.14555121099139
 20
-6.687671032399261
 97
        0
 97
        0
 75
     2
 76
     1
 98
        0
450
        0
451
        0
460
0.0
461
0.0
452
        0
462
0.0
453
        0
470

  0
SPLINE
  5
95
330
8C
100
AcDbEntity
  8
Livello 1
370
     0
100
AcDbSpline
210
0.0
220
0.0
230
1.0
 70
    11
 71
     3
 72
    50
 73
    46
 74
     0
 42
0.000000001
 43
0.0000000001
 40
0.0
 40
0.0
 40
0.0
 40
0.0
 40
1.0
 40
1.0
 40
1.0
 40
2.0
 40
2.0
 40
2.0
 40
3.0
 40
3.0
 40
3.0
 40
4.0
 40
4.0
 40
4.0
 40
5.0
 40
5.0
 40
5.0
 40
6.0
 40
6.0
 40
6.0
 40
7.0
 40
7.0
 40
7.0
 40
8.0
 40
8.0
 40
8.0
 40
9.0
 40
9.0
 40
9.0
 40
10.0
 40
10.0
 40
10.0
 40
11.0
 40
11.0
 40
11.0
 40
12.0
 40
12.0
 40
12.0
 40
13.0
 40
13.0
 40
13.0
 40
14.0
 40
14.0
 40
14.0
 40
15.0
 40
15.0
 40
15.0
 40
15.0
 10
17.67392550556416
 20
-6.09580362803334
 30
0.0
 10
17.67392550556416
 20
-6.09580362803334
 30
0.0
 10
17.46391248478333
 20
-6.09580362803334
 30
0.0
 10
17.46391248478333
 20
-6.09580362803334
 30
0.0
 10
17.46391248478333
 20
-6.09580362803334
 30
0.0
 10
17.44275959850389
 20
-6.237224797702846
 30
0.0
 10
17.44275959850389
 20
-6.237224797702846
 30
0.0
 10
17.45543754988961
 20
-6.235502249960222
 30
0.0
 10
17.46732312931372
 20
-6.233814153172448
 30
0.0
 10
17.48761474172185
 20
-6.233814153172448
 30
0.0
 10
17.52995496523556
 20
-6.233814153172448
 30
0.0
 10
17.57229518874929
 20
-6.243150361937476
 30
0.0
 10
17.60616047736929
 20
-6.263441974345598
 30
0.0
 10
17.64936197475432
 20
-6.288005505155428
 30
0.0
 10
17.6849153601621
 20
-6.335444469987318
 30
0.0
 10
17.6849153601621
 20
-6.404863144015103
 30
0.0
 10
17.6849153601621
 20
-6.51238457410975
 30
0.0
 10
17.5994080902182
 20
-6.592827553690334
 30
0.0
 10
17.48000108069944
 20
-6.592827553690334
 30
0.0
 10
17.41988416448183
 20
-6.592827553690334
 30
0.0
 10
17.3690690060744
 20
-6.575912134857758
 30
0.0
 10
17.34285182943165
 20
-6.558962265070328
 30
0.0
 10
17.34285182943165
 20
-6.558962265070328
 30
0.0
 10
17.361455345052
 20
-6.502255993383116
 30
0.0
 10
17.361455345052
 20
-6.502255993383116
 30
0.0
 10
17.38433077907406
 20
-6.515795218640147
 30
0.0
 10
17.42918592229201
 20
-6.532710637472725
 30
0.0
 10
17.47917425778298
 20
-6.532710637472725
 30
0.0
 10
17.54945420568208
 20
-6.532710637472725
 30
0.0
 10
17.60957112189969
 20
-6.486994220383459
 30
0.0
 10
17.60957112189969
 20
-6.413338078908817
 30
0.0
 10
17.60870984802838
 20
-6.342196857138409
 30
0.0
 10
17.56130533415134
 20
-6.291416149685826
 30
0.0
 10
17.45123453339761
 20
-6.291416149685826
 30
0.0
 10
17.41988416448183
 20
-6.291416149685826
 30
0.0
 10
17.395320633672
 20
-6.29479234326137
 30
0.0
 10
17.37499457030903
 20
-6.297341713920454
 30
0.0
 10
17.37499457030903
 20
-6.297341713920454
 30
0.0
 10
17.41058240667166
 20
-6.033137341156646
 30
0.0
 10
17.41058240667166
 20
-6.033137341156646
 30
0.0
 10
17.41058240667166
 20
-6.033137341156646
 30
0.0
 10
17.67392550556416
 20
-6.033137341156646
 30
0.0
 10
17.67392550556416
 20
-6.033137341156646
 30
0.0
 10
17.67392550556416
 20
-6.033137341156646
 30
0.0
 10
17.67392550556416
 20
-6.09580362803334
 30
0.0
 10
17.67392550556416
 20
-6.09580362803334
 30
0.0
  0
HATCH
  5
96
330
8C
100
AcDbEntity
  8
Livello 1
 62
   250
420
  1842203
100
AcDbHatch
 10
0.0
 20
0.0
 30
0.0
210
0.0
220
0.0
230
1.0
  2
SOLID
 70
     1
 71
     0
 91
        1
 92
        1
 93
        1
 72
     4
 94
        3
 73
     0
 74
     0
 95
       50
 96
       46
 40
0.0
 40
0.0
 40
0.0
 40
0.0
 40
1.0
 40
1.0
 40
1.0
 40
2.0
 40
2.0
 40
2.0
 40
3.0
 40
3.0
 40
3.0
 40
4.0
 40
4.0
 40
4.0
 40
5.0
 40
5.0
 40
5.0
 40
6.0
 40
6.0
 40
6.0
 40
7.0
 40
7.0
 40
7.0
 40
8.0
 40
8.0
 40
8.0
 40
9.0
 40
9.0
 40
9.0
 40
10.0
 40
10.0
 40
10.0
 40
11.0
 40
11.0
 40
11.0
 40
12.0
 40
12.0
 40
12.0
 40
13.0
 40
13.0
 40
13.0
 40
14.0
 40
14.0
 40
14.0
 40
15.0
 40
15.0
 40
15.0
 40
15.0
 10
17.67392550556416
 20
-6.09580362803334
 10
17.67392550556416
 20
-6.09580362803334
 10
17.46391248478333
 20
-6.09580362803334
 10
17.46391248478333
 20
-6.09580362803334
 10
17.46391248478333
 20
-6.09580362803334
 10
17.44275959850389
 20
-6.237224797702846
 10
17.44275959850389
 20
-6.237224797702846
 10
17.45543754988961
 20
-6.235502249960222
 10
17.46732312931372
 20
-6.233814153172448
 10
17.48761474172185
 20
-6.233814153172448
 10
17.52995496523556
 20
-6.233814153172448
 10
17.57229518874929
 20
-6.243150361937476
 10
17.60616047736929
 20
-6.263441974345598
 10
17.64936197475432
 20
-6.288005505155428
 10
17.6849153601621
 20
-6.335444469987318
 10
17.6849153601621
 20
-6.404863144015103
 10
17.6849153601621
 20
-6.51238457410975
 10
17.5994080902182
 20
-6.592827553690334
 10
17.48000108069944
 20
-6.592827553690334
 10
17.41988416448183
 20
-6.592827553690334
 10
17.3690690060744
 20
-6.575912134857758
 10
17.34285182943165
 20
-6.558962265070328
 10
17.34285182943165
 20
-6.558962265070328
 10
17.361455345052
 20
-6.502255993383116
 10
17.361455345052
 20
-6.502255993383116
 10
17.38433077907406
 20
-6.515795218640147
 10
17.42918592229201
 20
-6.532710637472725
 10
17.47917425778298
 20
-6.532710637472725
 10
17.54945420568208
 20
-6.532710637472725
 10
17.60957112189969
 20
-6.486994220383459
 10
17.60957112189969
 20
-6.413338078908817
 10
17.60870984802838
 20
-6.342196857138409
 10
17.56130533415134
 20
-6.291416149685826
 10
17.45123453339761
 20
-6.291416149685826
 10
17.41988416448183
 20
-6.291416149685826
 10
17.395320633672
 20
-6.29479234326137
 10
17.37499457030903
 20
-6.297341713920454
 10
17.37499457030903
 20
-6.297341713920454
 10
17.41058240667166
 20
-6.033137341156646
 10
17.41058240667166
 20
-6.033137341156646
 10
17.41058240667166
 20
-6.033137341156646
 10
17.67392550556416
 20
-6.033137341156646
 10
17.67392550556416
 20
-6.033137341156646
 10
17.67392550556416
 20
-6.033137341156646
 10
17.67392550556416
 20
-6.09580362803334
 10
17.67392550556416
 20
-6.09580362803334
 97
        0
 97
        0
 75
     2
 76
     1
 98
        0
450
        0
451
        0
460
0.0
461
0.0
452
        0
462
0.0
453
        0
470

  0
ENDBLK
  5
8F
330
8C
100
AcDbEntity
  8
0
100
AcDbBlockEnd
  0
ENDSEC
  0
SECTION
  2
ENTITIES
  0
POLYLINE
  5
C7
330
1F
100
AcDbEntity
  8
Livello 1
100
AcDb2dPolyline
 66
     1
 10
0.0
 20
0.0
 30
0.0
  0
VERTEX
  5
C8
330
C7
100
AcDbEntity
  8
Livello 1
100
AcDbVertex
100
AcDb2dVertex
 10
0.5755099072635383
 20
-2.434166666058124
 30
0.0
  0
VERTEX
  5
C9
330
C7
100
AcDbEntity
  8
Livello 1
100
AcDbVertex
100
AcDb2dVertex
 10
14.61610073708667
 20
-2.434166666058124
 30
0.0
  0
VERTEX
  5
CA
330
C7
100
AcDbEntity
  8
Livello 1
100
AcDbVertex
100
AcDb2dVertex
 10
14.61610073708667
 20
-4.9302705265452
 30
0.0
  0
VERTEX
  5
CB
330
C7
100
AcDbEntity
  8
Livello 1
100
AcDbVertex
100
AcDb2dVertex
 10
0.5755099072635383
 20
-4.9302705265452
 30
0.0
  0
VERTEX
  5
CC
330
C7
100
AcDbEntity
  8
Livello 1
100
AcDbVertex
100
AcDb2dVertex
 10
0.5755099072635383
 20
-2.434166666058124
 30
0.0
  0
SEQEND
  5
CD
330
C7
100
AcDbEntity
  8
Livello 1
  0
POLYLINE
  5
CE
330
1F
100
AcDbEntity
  8
Livello 1
100
AcDb2dPolyline
 66
     1
 10
0.0
 20
0.0
 30
0.0
  0
VERTEX
  5
CF
330
CE
100
AcDbEntity
  8
Livello 1
100
AcDbVertex
100
AcDb2dVertex
 10
16.1633238364941
 20
-2.434166666058124
 30
0.0
  0
VERTEX
  5
D0
330
CE
100
AcDbEntity
  8
Livello 1
100
AcDbVertex
100
AcDb2dVertex
 10
18.65942758142094
 20
-2.434166666058124
 30
0.0
  0
VERTEX
  5
D1
330
CE
100
AcDbEntity
  8
Livello 1
100
AcDbVertex
100
AcDb2dVertex
 10
18.65942758142094
 20
-4.9302705265452
 30
0.0
  0
VERTEX
  5
D2
330
CE
100
AcDbEntity
  8
Livello 1
100
AcDbVertex
100
AcDb2dVertex
 10
16.1633238364941
 20
-4.9302705265452
 30
0.0
  0
VERTEX
  5
D3
330
CE
100
AcDbEntity
  8
Livello 1
100
AcDbVertex
100
AcDb2dVertex
 10
16.1633238364941
 20
-2.434166666058124
 30
0.0
  0
SEQEND
  5
D4
330
CE
100
AcDbEntity
  8
Livello 1
  0
POLYLINE
  5
D5
330
1F
100
AcDbEntity
  8
Livello 1
100
AcDb2dPolyline
 66
     1
 10
0.0
 20
0.0
 30
0.0
  0
VERTEX
  5
D6
330
D5
100
AcDbEntity
  8
Livello 1
100
AcDbVertex
100
AcDb2dVertex
 10
15.69530414216667
 20
-2.742198110425563
 30
0.0
  0
VERTEX
  5
D7
330
D5
100
AcDbEntity
  8
Livello 1
100
AcDbVertex
100
AcDb2dVertex
 10
16.1633238364941
 20
-2.742198110425563
 30
0.0
  0
VERTEX
  5
D8
330
D5
100
AcDbEntity
  8
Livello 1
100
AcDbVertex
100
AcDb2dVertex
 10
16.1633238364941
 20
-4.62223908217776
 30
0.0
  0
VERTEX
  5
D9
330
D5
100
AcDbEntity
  8
Livello 1
100
AcDbVertex
100
AcDb2dVertex
 10
15.69530414216667
 20
-4.62223908217776
 30
0.0
  0
VERTEX
  5
DA
330
D5
100
AcDbEntity
  8
Livello 1
100
AcDbVertex
100
AcDb2dVertex
 10
15.69530414216667
 20
-2.742198110425563
 30
0.0
  0
SEQEND
  5
DB
330
D5
100
AcDbEntity
  8
Livello 1
  0
LINE
  5
DC
330
1F
100
AcDbEntity
  8
Livello 1
100
AcDbLine
 10
0.5755099072635383
 20
-5.732638887455728
 30
0.0
 11
14.61610073708667
 21
-5.732638887455728
 31
0.0
  0
LINE
  5
DD
330
1F
100
AcDbEntity
  8
Livello 1
100
AcDbLine
 10
15.69530414216667
 20
-5.732638887455728
 30
0.0
 11
18.65942758142094
 21
-5.732638887455728
 31
0.0
  0
LINE
  5
DE
330
1F
100
AcDbEntity
  8
Livello 1
100
AcDbLine
 10
19.1715123408861
 20
-2.434166666058124
 30
0.0
 11
19.1715123408861
 21
-4.9302705265452
 31
0.0
  0
POLYLINE
  5
DF
330
1F
100
AcDbEntity
  8
Livello 1
100
AcDb2dPolyline
 66
     1
 10
0.0
 20
0.0
 30
0.0
  0
VERTEX
  5
E0
330
DF
100
AcDbEntity
  8
Livello 1
100
AcDbVertex
100
AcDb2dVertex
 10
6.534209254008808
 20
-6.768269041276682
 30
0.0
  0
VERTEX
  5
E1
330
DF
100
AcDbEntity
  8
Livello 1
100
AcDbVertex
100
AcDb2dVertex
 10
6.534209254008808
 20
-6.618407387668315
 30
0.0
  0
VERTEX
  5
E2
330
DF
100
AcDbEntity
  8
Livello 1
100
AcDbVertex
100
AcDb2dVertex
 10
6.278479816138712
 20
-6.618407387668315
 30
0.0
  0
VERTEX
  5
E3
330
DF
100
AcDbEntity
  8
Livello 1
100
AcDbVertex
100
AcDb2dVertex
 10
6.278479816138712
 20
-6.569280326048652
 30
0.0
  0
VERTEX
  5
E4
330
DF
100
AcDbEntity
  8
Livello 1
100
AcDbVertex
100
AcDb2dVertex
 10
6.524046222327322
 20
-6.217880586553167
 30
0.0
  0
VERTEX
  5
E5
330
DF
100
AcDbEntity
  8
Livello 1
100
AcDbVertex
100
AcDb2dVertex
 10
6.604471976430478
 20
-6.217880586553167
 30
0.0
  0
VERTEX
  5
E6
330
DF
100
AcDbEntity
  8
Livello 1
100
AcDbVertex
100
AcDb2dVertex
 10
6.604471976430478
 20
-6.559978568238477
 30
0.0
  0
VERTEX
  5
E7
330
DF
100
AcDbEntity
  8
Livello 1
100
AcDbVertex
100
AcDb2dVertex
 10
6.681538762435517
 20
-6.559978568238477
 30
0.0
  0
VERTEX
  5
E8
330
DF
100
AcDbEntity
  8
Livello 1
100
AcDbVertex
100
AcDb2dVertex
 10
6.681538762435517
 20
-6.618407387668315
 30
0.0
  0
VERTEX
  5
E9
330
DF
100
AcDbEntity
  8
Livello 1
100
AcDbVertex
100
AcDb2dVertex
 10
6.604471976430478
 20
-6.618407387668315
 30
0.0
  0
VERTEX
  5
EA
330
DF
100
AcDbEntity
  8
Livello 1
100
AcDbVertex
100
AcDb2dVertex
 10
6.604471976430478
 20
-6.768269041276682
 30
0.0
  0
VERTEX
  5
EB
330
DF
100
AcDbEntity
  8
Livello 1
100
AcDbVertex
100
AcDb2dVertex
 10
6.534209254008808
 20
-6.768269041276682
 30
0.0
  0
SEQEND
  5
EC
330
DF
100
AcDbEntity
  8
Livello 1
  0
SPLINE
  5
ED
330
1F
100
AcDbEntity
  8
Livello 1
100
AcDbSpline
210
0.0
220
0.0
230
1.0
 70
    11
 71
     3
 72
    26
 73
    22
 74
     0
 42
0.000000001
 43
0.0000000001
 40
0.0
 40
0.0
 40
0.0
 40
0.0
 40
1.0
 40
1.0
 40
1.0
 40
2.0
 40
2.0
 40
2.0
 40
3.0
 40
3.0
 40
3.0
 40
4.0
 40
4.0
 40
4.0
 40
5.0
 40
5.0
 40
5.0
 40
6.0
 40
6.0
 40
6.0
 40
7.0
 40
7.0
 40
7.0
 40
7.0
 10
6.534209254008808
 20
-6.559978568238477
 30
0.0
 10
6.534209254008808
 20
-6.559978568238477
 30
0.0
 10
6.534209254008808
 20
-6.37621717505525
 30
0.0
 10
6.534209254008808
 20
-6.37621717505525
 30
0.0
 10
6.534209254008808
 20
-6.347450627753414
 30
0.0
 10
6.535053302402692
 20
-6.318649629496727
 30
0.0
 10
6.536741399190467
 20
-6.289848631240038
 30
0.0
 10
6.536741399190467
 20
-6.289848631240038
 30
0.0
 10
6.534209254008808
 20
-6.289848631240038
 30
0.0
 10
6.534209254008808
 20
-6.289848631240038
 30
0.0
 10
6.517259384221378
 20
-6.322025823072271
 30
0.0
 10
6.503720158964347
 20
-6.345762530965642
 30
0.0
 10
6.488475611442117
 20
-6.371152884691932
 30
0.0
 10
6.488475611442117
 20
-6.371152884691932
 30
0.0
 10
6.353841279878553
 20
-6.558290471450705
 30
0.0
 10
6.353841279878553
 20
-6.558290471450705
 30
0.0
 10
6.353841279878553
 20
-6.558290471450705
 30
0.0
 10
6.353841279878553
 20
-6.559978568238477
 30
0.0
 10
6.353841279878553
 20
-6.559978568238477
 30
0.0
 10
6.353841279878553
 20
-6.559978568238477
 30
0.0
 10
6.534209254008808
 20
-6.559978568238477
 30
0.0
 10
6.534209254008808
 20
-6.559978568238477
 30
0.0
  0
HATCH
  5
EE
330
1F
100
AcDbEntity
  8
Livello 1
100
AcDbHatch
 10
0.0
 20
0.0
 30
0.0
210
0.0
220
0.0
230
1.0
  2
SOLID
 70
     1
 71
     0
 91
        2
 92
        1
 93
       11
 72
     1
 10
6.534209254008808
 20
-6.768269041276682
 11
6.534209254008808
 21
-6.618407387668315
 72
     1
 10
6.534209254008808
 20
-6.618407387668315
 11
6.278479816138712
 21
-6.618407387668315
 72
     1
 10
6.278479816138712
 20
-6.618407387668315
 11
6.278479816138712
 21
-6.569280326048652
 72
     1
 10
6.278479816138712
 20
-6.569280326048652
 11
6.524046222327322
 21
-6.217880586553167
 72
     1
 10
6.524046222327322
 20
-6.217880586553167
 11
6.604471976430478
 21
-6.217880586553167
 72
     1
 10
6.604471976430478
 20
-6.217880586553167
 11
6.604471976430478
 21
-6.559978568238477
 72
     1
 10
6.604471976430478
 20
-6.559978568238477
 11
6.681538762435517
 21
-6.559978568238477
 72
     1
 10
6.681538762435517
 20
-6.559978568238477
 11
6.681538762435517
 21
-6.618407387668315
 72
     1
 10
6.681538762435517
 20
-6.618407387668315
 11
6.604471976430478
 21
-6.618407387668315
 72
     1
 10
6.604471976430478
 20
-6.618407387668315
 11
6.604471976430478
 21
-6.768269041276682
 72
     1
 10
6.604471976430478
 20
-6.768269041276682
 11
6.534209254008808
 21
-6.768269041276682
 97
        0
 92
        1
 93
        1
 72
     4
 94
        3
 73
     0
 74
     0
 95
       26
 96
       22
 40
0.0
 40
0.0
 40
0.0
 40
0.0
 40
1.0
 40
1.0
 40
1.0
 40
2.0
 40
2.0
 40
2.0
 40
3.0
 40
3.0
 40
3.0
 40
4.0
 40
4.0
 40
4.0
 40
5.0
 40
5.0
 40
5.0
 40
6.0
 40
6.0
 40
6.0
 40
7.0
 40
7.0
 40
7.0
 40
7.0
 10
6.534209254008808
 20
-6.559978568238477
 10
6.534209254008808
 20
-6.559978568238477
 10
6.534209254008808
 20
-6.37621717505525
 10
6.534209254008808
 20
-6.37621717505525
 10
6.534209254008808
 20
-6.347450627753414
 10
6.535053302402692
 20
-6.318649629496727
 10
6.536741399190467
 20
-6.289848631240038
 10
6.536741399190467
 20
-6.289848631240038
 10
6.534209254008808
 20
-6.289848631240038
 10
6.534209254008808
 20
-6.289848631240038
 10
6.517259384221378
 20
-6.322025823072271
 10
6.503720158964347
 20
-6.345762530965642
 10
6.488475611442117
 20
-6.371152884691932
 10
6.488475611442117
 20
-6.371152884691932
 10
6.353841279878553
 20
-6.558290471450705
 10
6.353841279878553
 20
-6.558290471450705
 10
6.353841279878553
 20
-6.558290471450705
 10
6.353841279878553
 20
-6.559978568238477
 10
6.353841279878553
 20
-6.559978568238477
 10
6.353841279878553
 20
-6.559978568238477
 10
6.534209254008808
 20
-6.559978568238477
 10
6.534209254008808
 20
-6.559978568238477
 97
        0
 97
        0
 75
     2
 76
     1
 98
        0
450
        0
451
        0
460
0.0
461
0.0
452
        0
462
0.0
453
        0
470

  0
SPLINE
  5
EF
330
1F
100
AcDbEntity
  8
Livello 1
100
AcDbSpline
210
0.0
220
0.0
230
1.0
 70
    11
 71
     3
 72
    50
 73
    46
 74
     0
 42
0.000000001
 43
0.0000000001
 40
0.0
 40
0.0
 40
0.0
 40
0.0
 40
1.0
 40
1.0
 40
1.0
 40
2.0
 40
2.0
 40
2.0
 40
3.0
 40
3.0
 40
3.0
 40
4.0
 40
4.0
 40
4.0
 40
5.0
 40
5.0
 40
5.0
 40
6.0
 40
6.0
 40
6.0
 40
7.0
 40
7.0
 40
7.0
 40
8.0
 40
8.0
 40
8.0
 40
9.0
 40
9.0
 40
9.0
 40
10.0
 40
10.0
 40
10.0
 40
11.0
 40
11.0
 40
11.0
 40
12.0
 40
12.0
 40
12.0
 40
13.0
 40
13.0
 40
13.0
 40
14.0
 40
14.0
 40
14.0
 40
15.0
 40
15.0
 40
15.0
 40
15.0
 10
7.066752114118727
 20
-6.280546873429861
 30
0.0
 10
7.066752114118727
 20
-6.280546873429861
 30
0.0
 10
6.856756318815324
 20
-6.280546873429861
 30
0.0
 10
6.856756318815324
 20
-6.280546873429861
 30
0.0
 10
6.856756318815324
 20
-6.280546873429861
 30
0.0
 10
6.835586207058463
 20
-6.421968043099367
 30
0.0
 10
6.835586207058463
 20
-6.421968043099367
 30
0.0
 10
6.84828138392161
 20
-6.420245495356744
 30
0.0
 10
6.860149737868294
 20
-6.418557398568971
 30
0.0
 10
6.880458575753842
 20
-6.418557398568971
 30
0.0
 10
6.922798799267562
 20
-6.418557398568971
 30
0.0
 10
6.965139022781284
 20
-6.427893607333997
 30
0.0
 10
6.999004311401289
 20
-6.44818521974212
 30
0.0
 10
7.042188583308896
 20
-6.47274875055195
 30
0.0
 10
7.077759194194101
 20
-6.520187715383842
 30
0.0
 10
7.077759194194101
 20
-6.589606389411624
 30
0.0
 10
7.077759194194101
 20
-6.697127819506271
 30
0.0
 10
6.992234698772774
 20
-6.777570799086857
 30
0.0
 10
6.872844914731441
 20
-6.777570799086857
 30
0.0
 10
6.81272799851383
 20
-6.777570799086857
 30
0.0
 10
6.761912840106397
 20
-6.76065538025428
 30
0.0
 10
6.735678437986218
 20
-6.743705510466851
 30
0.0
 10
6.735678437986218
 20
-6.743705510466851
 30
0.0
 10
6.754299179083994
 20
-6.686999238779638
 30
0.0
 10
6.754299179083994
 20
-6.686999238779638
 30
0.0
 10
6.777157387628627
 20
-6.700538464036669
 30
0.0
 10
6.822029756324006
 20
-6.717453882869246
 30
0.0
 10
6.872000866337553
 20
-6.717453882869246
 30
0.0
 10
6.942280814236652
 20
-6.717453882869246
 30
0.0
 10
7.002397730454261
 20
-6.671737465779982
 30
0.0
 10
7.002397730454261
 20
-6.59808132430534
 30
0.0
 10
7.001553682060375
 20
-6.526940102534932
 30
0.0
 10
6.954131942705911
 20
-6.476159395082347
 30
0.0
 10
6.844061141952178
 20
-6.476159395082347
 30
0.0
 10
6.81272799851383
 20
-6.476159395082347
 30
0.0
 10
6.788164467704
 20
-6.479535588657893
 30
0.0
 10
6.767838404341026
 20
-6.482084959316977
 30
0.0
 10
6.767838404341026
 20
-6.482084959316977
 30
0.0
 10
6.80340901522623
 20
-6.217880586553167
 30
0.0
 10
6.80340901522623
 20
-6.217880586553167
 30
0.0
 10
6.80340901522623
 20
-6.217880586553167
 30
0.0
 10
7.066752114118727
 20
-6.217880586553167
 30
0.0
 10
7.066752114118727
 20
-6.217880586553167
 30
0.0
 10
7.066752114118727
 20
-6.217880586553167
 30
0.0
 10
7.066752114118727
 20
-6.280546873429861
 30
0.0
 10
7.066752114118727
 20
-6.280546873429861
 30
0.0
  0
HATCH
  5
F0
330
1F
100
AcDbEntity
  8
Livello 1
100
AcDbHatch
 10
0.0
 20
0.0
 30
0.0
210
0.0
220
0.0
230
1.0
  2
SOLID
 70
     1
 71
     0
 91
        1
 92
        1
 93
        1
 72
     4
 94
        3
 73
     0
 74
     0
 95
       50
 96
       46
 40
0.0
 40
0.0
 40
0.0
 40
0.0
 40
1.0
 40
1.0
 40
1.0
 40
2.0
 40
2.0
 40
2.0
 40
3.0
 40
3.0
 40
3.0
 40
4.0
 40
4.0
 40
4.0
 40
5.0
 40
5.0
 40
5.0
 40
6.0
 40
6.0
 40
6.0
 40
7.0
 40
7.0
 40
7.0
 40
8.0
 40
8.0
 40
8.0
 40
9.0
 40
9.0
 40
9.0
 40
10.0
 40
10.0
 40
10.0
 40
11.0
 40
11.0
 40
11.0
 40
12.0
 40
12.0
 40
12.0
 40
13.0
 40
13.0
 40
13.0
 40
14.0
 40
14.0
 40
14.0
 40
15.0
 40
15.0
 40
15.0
 40
15.0
 10
7.066752114118727
 20
-6.280546873429861
 10
7.066752114118727
 20
-6.280546873429861
 10
6.856756318815324
 20
-6.280546873429861
 10
6.856756318815324
 20
-6.280546873429861
 10
6.856756318815324
 20
-6.280546873429861
 10
6.835586207058463
 20
-6.421968043099367
 10
6.835586207058463
 20
-6.421968043099367
 10
6.84828138392161
 20
-6.420245495356744
 10
6.860149737868294
 20
-6.418557398568971
 10
6.880458575753842
 20
-6.418557398568971
 10
6.922798799267562
 20
-6.418557398568971
 10
6.965139022781284
 20
-6.427893607333997
 10
6.999004311401289
 20
-6.44818521974212
 10
7.042188583308896
 20
-6.47274875055195
 10
7.077759194194101
 20
-6.520187715383842
 10
7.077759194194101
 20
-6.589606389411624
 10
7.077759194194101
 20
-6.697127819506271
 10
6.992234698772774
 20
-6.777570799086857
 10
6.872844914731441
 20
-6.777570799086857
 10
6.81272799851383
 20
-6.777570799086857
 10
6.761912840106397
 20
-6.76065538025428
 10
6.735678437986218
 20
-6.743705510466851
 10
6.735678437986218
 20
-6.743705510466851
 10
6.754299179083994
 20
-6.686999238779638
 10
6.754299179083994
 20
-6.686999238779638
 10
6.777157387628627
 20
-6.700538464036669
 10
6.822029756324006
 20
-6.717453882869246
 10
6.872000866337553
 20
-6.717453882869246
 10
6.942280814236652
 20
-6.717453882869246
 10
7.002397730454261
 20
-6.671737465779982
 10
7.002397730454261
 20
-6.59808132430534
 10
7.001553682060375
 20
-6.526940102534932
 10
6.954131942705911
 20
-6.476159395082347
 10
6.844061141952178
 20
-6.476159395082347
 10
6.81272799851383
 20
-6.476159395082347
 10
6.788164467704
 20
-6.479535588657893
 10
6.767838404341026
 20
-6.482084959316977
 10
6.767838404341026
 20
-6.482084959316977
 10
6.80340901522623
 20
-6.217880586553167
 10
6.80340901522623
 20
-6.217880586553167
 10
6.80340901522623
 20
-6.217880586553167
 10
7.066752114118727
 20
-6.217880586553167
 10
7.066752114118727
 20
-6.217880586553167
 10
7.066752114118727
 20
-6.217880586553167
 10
7.066752114118727
 20
-6.280546873429861
 10
7.066752114118727
 20
-6.280546873429861
 97
        0
 97
        0
 75
     2
 76
     1
 98
        0
450
        0
451
        0
460
0.0
461
0.0
452
        0
462
0.0
453
        0
470

  0
SPLINE
  5
F1
330
1F
100
AcDbEntity
  8
Livello 1
100
AcDbSpline
210
0.0
220
0.0
230
1.0
 70
     9
 71
     3
 72
    35
 73
    31
 74
     0
 42
0.000000001
 43
0.0000000001
 40
0.0
 40
0.0
 40
0.0
 40
0.0
 40
1.0
 40
1.0
 40
1.0
 40
2.0
 40
2.0
 40
2.0
 40
3.0
 40
3.0
 40
3.0
 40
4.0
 40
4.0
 40
4.0
 40
5.0
 40
5.0
 40
5.0
 40
6.0
 40
6.0
 40
6.0
 40
7.0
 40
7.0
 40
7.0
 40
8.0
 40
8.0
 40
8.0
 40
9.0
 40
9.0
 40
9.0
 40
10.0
 40
10.0
 40
10.0
 40
10.0
 10
19.85828829798681
 20
-3.691850449380856
 30
0.0
 10
19.78883517300418
 20
-3.691850449380856
 30
0.0
 10
19.73974256233937
 20
-3.650371499738448
 30
0.0
 10
19.71094156408268
 20
-3.582623697021011
 30
0.0
 10
19.71094156408268
 20
-3.582623697021011
 30
0.0
 10
19.7083921934236
 20
-3.583467745414897
 30
0.0
 10
19.7083921934236
 20
-3.583467745414897
 30
0.0
 10
19.67962564612176
 20
-3.644428710026392
 30
0.0
 10
19.63218668128987
 20
-3.670680337623996
 30
0.0
 10
19.58478216741282
 20
-3.670680337623996
 30
0.0
 10
19.49755234972631
 20
-3.670680337623996
 30
0.0
 10
19.43829670738001
 20
-3.597024196149355
 30
0.0
 10
19.43829670738001
 20
-3.500492620652654
 30
0.0
 10
19.43829670738001
 20
-3.393798013474466
 30
0.0
 10
19.50520046170356
 20
-3.340450709885373
 30
0.0
 10
19.57375786186003
 20
-3.340450709885373
 30
0.0
 10
19.62033555282061
 20
-3.340450709885373
 30
0.0
 10
19.67028943735673
 20
-3.363326143907431
 30
0.0
 10
19.70246662918897
 20
-3.431056721147443
 30
0.0
 10
19.70246662918897
 20
-3.431056721147443
 30
0.0
 10
19.70501599984805
 20
-3.431056721147443
 30
0.0
 10
19.70501599984805
 20
-3.431056721147443
 30
0.0
 10
19.73209445036212
 20
-3.36246487003612
 30
0.0
 10
19.78036023811046
 20
-3.320141871999825
 30
0.0
 10
19.84726399243402
 20
-3.320141871999825
 30
0.0
 10
19.94293429405941
 20
-3.320141871999825
 30
0.0
 10
20.00728867772387
 20
-3.402272948368181
 30
0.0
 10
20.00728867772387
 20
-3.50726223328117
 30
0.0
 10
20.00728867772387
 20
-3.622414549875646
 30
0.0
 10
19.9387312775674
 20
-3.691850449380856
 30
0.0
 10
19.85828829798681
 20
-3.691850449380856
 30
0.0
  0
SPLINE
  5
F2
330
1F
100
AcDbEntity
  8
Livello 1
100
AcDbSpline
210
0.0
220
0.0
230
1.0
 70
     9
 71
     3
 72
    17
 73
    13
 74
     0
 42
0.000000001
 43
0.0000000001
 40
0.0
 40
0.0
 40
0.0
 40
0.0
 40
1.0
 40
1.0
 40
1.0
 40
2.0
 40
2.0
 40
2.0
 40
3.0
 40
3.0
 40
3.0
 40
4.0
 40
4.0
 40
4.0
 40
4.0
 10
19.57968342609466
 20
-3.600400389724899
 30
0.0
 10
19.63473605194895
 20
-3.600400389724899
 30
0.0
 10
19.6643638731221
 20
-3.558921440082491
 30
0.0
 10
19.68131374290953
 20
-3.49541110481191
 30
0.0
 10
19.66522514699341
 20
-3.447989365457446
 30
0.0
 10
19.63135985837341
 20
-3.411574706178356
 30
0.0
 10
19.58140597383728
 20
-3.411574706178356
 30
0.0
 10
19.53734320258094
 20
-3.411574706178356
 30
0.0
 10
19.49162678549168
 20
-3.43782633377596
 30
0.0
 10
19.49162678549168
 20
-3.504730088099512
 30
0.0
 10
19.49162678549168
 20
-3.566535101104893
 30
0.0
 10
19.53227891221762
 20
-3.600400389724899
 30
0.0
 10
19.57968342609466
 20
-3.600400389724899
 30
0.0
  0
SPLINE
  5
F3
330
1F
100
AcDbEntity
  8
Livello 1
100
AcDbSpline
210
0.0
220
0.0
230
1.0
 70
     9
 71
     3
 72
    17
 73
    13
 74
     0
 42
0.000000001
 43
0.0000000001
 40
0.0
 40
0.0
 40
0.0
 40
0.0
 40
1.0
 40
1.0
 40
1.0
 40
2.0
 40
2.0
 40
2.0
 40
3.0
 40
3.0
 40
3.0
 40
4.0
 40
4.0
 40
4.0
 40
4.0
 10
19.85487765345642
 20
-3.395503335739666
 30
0.0
 10
19.78800835008772
 20
-3.395503335739666
 30
0.0
 10
19.75583115825549
 20
-3.442063801222816
 30
0.0
 10
19.7346438210212
 20
-3.516581216568771
 30
0.0
 10
19.75328178759639
 20
-3.580935600233238
 30
0.0
 10
19.79562201111012
 20
-3.615644937247129
 30
0.0
 10
19.84812526630532
 20
-3.615644937247129
 30
0.0
 10
19.90400471507608
 20
-3.618194307906214
 30
0.0
 10
19.95309732574089
 20
-3.575854084392493
 30
0.0
 10
19.95309732574089
 20
-3.505574136493398
 30
0.0
 10
19.95309732574089
 20
-3.438687607647271
 30
0.0
 10
19.91161837609848
 20
-3.395503335739666
 30
0.0
 10
19.85487765345642
 20
-3.395503335739666
 30
0.0
  0
HATCH
  5
F4
330
1F
100
AcDbEntity
  8
Livello 1
100
AcDbHatch
 10
0.0
 20
0.0
 30
0.0
210
0.0
220
0.0
230
1.0
  2
SOLID
 70
     1
 71
     0
 91
        3
 92
        1
 93
        1
 72
     4
 94
        3
 73
     0
 74
     0
 95
       35
 96
       31
 40
0.0
 40
0.0
 40
0.0
 40
0.0
 40
1.0
 40
1.0
 40
1.0
 40
2.0
 40
2.0
 40
2.0
 40
3.0
 40
3.0
 40
3.0
 40
4.0
 40
4.0
 40
4.0
 40
5.0
 40
5.0
 40
5.0
 40
6.0
 40
6.0
 40
6.0
 40
7.0
 40
7.0
 40
7.0
 40
8.0
 40
8.0
 40
8.0
 40
9.0
 40
9.0
 40
9.0
 40
10.0
 40
10.0
 40
10.0
 40
10.0
 10
19.85828829798681
 20
-3.691850449380856
 10
19.78883517300418
 20
-3.691850449380856
 10
19.73974256233937
 20
-3.650371499738448
 10
19.71094156408268
 20
-3.582623697021011
 10
19.71094156408268
 20
-3.582623697021011
 10
19.7083921934236
 20
-3.583467745414897
 10
19.7083921934236
 20
-3.583467745414897
 10
19.67962564612176
 20
-3.644428710026392
 10
19.63218668128987
 20
-3.670680337623996
 10
19.58478216741282
 20
-3.670680337623996
 10
19.49755234972631
 20
-3.670680337623996
 10
19.43829670738001
 20
-3.597024196149355
 10
19.43829670738001
 20
-3.500492620652654
 10
19.43829670738001
 20
-3.393798013474466
 10
19.50520046170356
 20
-3.340450709885373
 10
19.57375786186003
 20
-3.340450709885373
 10
19.62033555282061
 20
-3.340450709885373
 10
19.67028943735673
 20
-3.363326143907431
 10
19.70246662918897
 20
-3.431056721147443
 10
19.70246662918897
 20
-3.431056721147443
 10
19.70501599984805
 20
-3.431056721147443
 10
19.70501599984805
 20
-3.431056721147443
 10
19.73209445036212
 20
-3.36246487003612
 10
19.78036023811046
 20
-3.320141871999825
 10
19.84726399243402
 20
-3.320141871999825
 10
19.94293429405941
 20
-3.320141871999825
 10
20.00728867772387
 20
-3.402272948368181
 10
20.00728867772387
 20
-3.50726223328117
 10
20.00728867772387
 20
-3.622414549875646
 10
19.9387312775674
 20
-3.691850449380856
 10
19.85828829798681
 20
-3.691850449380856
 97
        0
 97
        0
 92
        1
 93
        1
 72
     4
 94
        3
 73
     0
 74
     0
 95
       17
 96
       13
 40
0.0
 40
0.0
 40
0.0
 40
0.0
 40
1.0
 40
1.0
 40
1.0
 40
2.0
 40
2.0
 40
2.0
 40
3.0
 40
3.0
 40
3.0
 40
4.0
 40
4.0
 40
4.0
 40
4.0
 10
19.57968342609466
 20
-3.600400389724899
 10
19.63473605194895
 20
-3.600400389724899
 10
19.6643638731221
 20
-3.558921440082491
 10
19.68131374290953
 20
-3.49541110481191
 10
19.66522514699341
 20
-3.447989365457446
 10
19.63135985837341
 20
-3.411574706178356
 10
19.58140597383728
 20
-3.411574706178356
 10
19.53734320258094
 20
-3.411574706178356
 10
19.49162678549168
 20
-3.43782633377596
 10
19.49162678549168
 20
-3.504730088099512
 10
19.49162678549168
 20
-3.566535101104893
 10
19.53227891221762
 20
-3.600400389724899
 10
19.57968342609466
 20
-3.600400389724899
 97
        0
 97
        0
 92
        1
 93
        1
 72
     4
 94
        3
 73
     0
 74
     0
 95
       17
 96
       13
 40
0.0
 40
0.0
 40
0.0
 40
0.0
 40
1.0
 40
1.0
 40
1.0
 40
2.0
 40
2.0
 40
2.0
 40
3.0
 40
3.0
 40
3.0
 40
4.0
 40
4.0
 40
4.0
 40
4.0
 10
19.85487765345642
 20
-3.395503335739666
 10
19.78800835008772
 20
-3.395503335739666
 10
19.75583115825549
 20
-3.442063801222816
 10
19.7346438210212
 20
-3.516581216568771
 10
19.75328178759639
 20
-3.580935600233238
 10
19.79562201111012
 20
-3.615644937247129
 10
19.84812526630532
 20
-3.615644937247129
 10
19.90400471507608
 20
-3.618194307906214
 10
19.95309732574089
 20
-3.575854084392493
 10
19.95309732574089
 20
-3.505574136493398
 10
19.95309732574089
 20
-3.438687607647271
 10
19.91161837609848
 20
-3.395503335739666
 10
19.85487765345642
 20
-3.395503335739666
 97
        0
 97
        0
 75
     2
 76
     1
 98
        0
450
        0
451
        0
460
0.0
461
0.0
452
        0
462
0.0
453
        0
470

  0
SPLINE
  5
F5
330
1F
100
AcDbEntity
  8
Livello 1
100
AcDbSpline
210
0.0
220
0.0
230
1.0
 70
     9
 71
     3
 72
    41
 73
    37
 74
     0
 42
0.000000001
 43
0.0000000001
 40
0.0
 40
0.0
 40
0.0
 40
0.0
 40
1.0
 40
1.0
 40
1.0
 40
2.0
 40
2.0
 40
2.0
 40
3.0
 40
3.0
 40
3.0
 40
4.0
 40
4.0
 40
4.0
 40
5.0
 40
5.0
 40
5.0
 40
6.0
 40
6.0
 40
6.0
 40
7.0
 40
7.0
 40
7.0
 40
8.0
 40
8.0
 40
8.0
 40
9.0
 40
9.0
 40
9.0
 40
10.0
 40
10.0
 40
10.0
 40
11.0
 40
11.0
 40
11.0
 40
12.0
 40
12.0
 40
12.0
 40
12.0
 10
16.77899305136081
 20
-6.531022540684952
 30
0.0
 10
16.79508164727692
 20
-6.532710637472725
 30
0.0
 10
16.81368516289727
 20
-6.531022540684952
 30
0.0
 10
16.83910996757842
 20
-6.528473170025867
 30
0.0
 10
16.8822770140086
 20
-6.522547605791237
 30
0.0
 10
16.92292914073455
 20
-6.504770913087348
 30
0.0
 10
16.95424505869547
 20
-6.4751430919142
 30
0.0
 10
16.99065971797456
 20
-6.442104626210653
 30
0.0
 10
17.01691134557216
 20
-6.393873289417156
 30
0.0
 10
17.02707437725365
 20
-6.328657631881378
 30
0.0
 10
17.02707437725365
 20
-6.328657631881378
 30
0.0
 10
17.02452500659456
 20
-6.328657631881378
 30
0.0
 10
17.02452500659456
 20
-6.328657631881378
 30
0.0
 10
16.99407036250495
 20
-6.365899114076928
 30
0.0
 10
16.95004204220346
 20
-6.387913274227673
 30
0.0
 10
16.89498941634917
 20
-6.387913274227673
 30
0.0
 10
16.79590847019338
 20
-6.387913274227673
 30
0.0
 10
16.73241536040023
 20
-6.313430309836572
 30
0.0
 10
16.73241536040023
 20
-6.219413654044106
 30
0.0
 10
16.73241536040023
 20
-6.115268417525003
 30
0.0
 10
16.80775959866264
 20
-6.023835583346473
 30
0.0
 10
16.92037977007546
 20
-6.023835583346473
 30
0.0
 10
17.03299994148828
 20
-6.023835583346473
 30
0.0
 10
17.10245306647091
 20
-6.115268417525003
 30
0.0
 10
17.10245306647091
 20
-6.255828313323195
 30
0.0
 10
17.10245306647091
 20
-6.376923419629727
 30
0.0
 10
17.06180093974497
 20
-6.461603866657167
 30
0.0
 10
17.00760958776198
 20
-6.514107121852375
 30
0.0
 10
16.96526936424826
 20
-6.555586071494781
 30
0.0
 10
16.90684054481843
 20
-6.580976425221074
 30
0.0
 10
16.84758490247213
 20
-6.587763263327017
 30
0.0
 10
16.82047200100321
 20
-6.592000730773874
 30
0.0
 10
16.79676974406469
 20
-6.592827553690334
 30
0.0
 10
16.77899305136081
 20
-6.592000730773874
 30
0.0
 10
16.77899305136081
 20
-6.592000730773874
 30
0.0
 10
16.77899305136081
 20
-6.531022540684952
 30
0.0
 10
16.77899305136081
 20
-6.531022540684952
 30
0.0
  0
SPLINE
  5
F6
330
1F
100
AcDbEntity
  8
Livello 1
100
AcDbSpline
210
0.0
220
0.0
230
1.0
 70
     9
 71
     3
 72
    20
 73
    16
 74
     0
 42
0.000000001
 43
0.0000000001
 40
0.0
 40
0.0
 40
0.0
 40
0.0
 40
1.0
 40
1.0
 40
1.0
 40
2.0
 40
2.0
 40
2.0
 40
3.0
 40
3.0
 40
3.0
 40
4.0
 40
4.0
 40
4.0
 40
5.0
 40
5.0
 40
5.0
 40
5.0
 10
16.80607150187487
 20
-6.214349363680787
 30
0.0
 10
16.80607150187487
 20
-6.282941214792111
 30
0.0
 10
16.84758490247213
 20
-6.331207002540462
 30
0.0
 10
16.9119392861366
 20
-6.331207002540462
 30
0.0
 10
16.96189317067272
 20
-6.331207002540462
 30
0.0
 10
17.00082274965604
 20
-6.30664347173063
 30
0.0
 10
17.02032199010256
 20
-6.273605006027083
 30
0.0
 10
17.02452500659456
 20
-6.266852618875994
 30
0.0
 10
17.02707437725365
 20
-6.25837768398228
 30
0.0
 10
17.02707437725365
 20
-6.246526555513021
 30
0.0
 10
17.02707437725365
 20
-6.152544350675404
 30
0.0
 10
16.99234781476233
 20
-6.080576305988535
 30
0.0
 10
16.91445420584083
 20
-6.080576305988535
 30
0.0
 10
16.85096109604768
 20
-6.080576305988535
 30
0.0
 10
16.80607150187487
 20
-6.136455754759288
 30
0.0
 10
16.80607150187487
 20
-6.214349363680787
 30
0.0
  0
HATCH
  5
F7
330
1F
100
AcDbEntity
  8
Livello 1
100
AcDbHatch
 10
0.0
 20
0.0
 30
0.0
210
0.0
220
0.0
230
1.0
  2
SOLID
 70
     1
 71
     0
 91
        2
 92
        1
 93
        1
 72
     4
 94
        3
 73
     0
 74
     0
 95
       41
 96
       37
 40
0.0
 40
0.0
 40
0.0
 40
0.0
 40
1.0
 40
1.0
 40
1.0
 40
2.0
 40
2.0
 40
2.0
 40
3.0
 40
3.0
 40
3.0
 40
4.0
 40
4.0
 40
4.0
 40
5.0
 40
5.0
 40
5.0
 40
6.0
 40
6.0
 40
6.0
 40
7.0
 40
7.0
 40
7.0
 40
8.0
 40
8.0
 40
8.0
 40
9.0
 40
9.0
 40
9.0
 40
10.0
 40
10.0
 40
10.0
 40
11.0
 40
11.0
 40
11.0
 40
12.0
 40
12.0
 40
12.0
 40
12.0
 10
16.77899305136081
 20
-6.531022540684952
 10
16.79508164727692
 20
-6.532710637472725
 10
16.81368516289727
 20
-6.531022540684952
 10
16.83910996757842
 20
-6.528473170025867
 10
16.8822770140086
 20
-6.522547605791237
 10
16.92292914073455
 20
-6.504770913087348
 10
16.95424505869547
 20
-6.4751430919142
 10
16.99065971797456
 20
-6.442104626210653
 10
17.01691134557216
 20
-6.393873289417156
 10
17.02707437725365
 20
-6.328657631881378
 10
17.02707437725365
 20
-6.328657631881378
 10
17.02452500659456
 20
-6.328657631881378
 10
17.02452500659456
 20
-6.328657631881378
 10
16.99407036250495
 20
-6.365899114076928
 10
16.95004204220346
 20
-6.387913274227673
 10
16.89498941634917
 20
-6.387913274227673
 10
16.79590847019338
 20
-6.387913274227673
 10
16.73241536040023
 20
-6.313430309836572
 10
16.73241536040023
 20
-6.219413654044106
 10
16.73241536040023
 20
-6.115268417525003
 10
16.80775959866264
 20
-6.023835583346473
 10
16.92037977007546
 20
-6.023835583346473
 10
17.03299994148828
 20
-6.023835583346473
 10
17.10245306647091
 20
-6.115268417525003
 10
17.10245306647091
 20
-6.255828313323195
 10
17.10245306647091
 20
-6.376923419629727
 10
17.06180093974497
 20
-6.461603866657167
 10
17.00760958776198
 20
-6.514107121852375
 10
16.96526936424826
 20
-6.555586071494781
 10
16.90684054481843
 20
-6.580976425221074
 10
16.84758490247213
 20
-6.587763263327017
 10
16.82047200100321
 20
-6.592000730773874
 10
16.79676974406469
 20
-6.592827553690334
 10
16.77899305136081
 20
-6.592000730773874
 10
16.77899305136081
 20
-6.592000730773874
 10
16.77899305136081
 20
-6.531022540684952
 10
16.77899305136081
 20
-6.531022540684952
 97
        0
 97
        0
 92
        1
 93
        1
 72
     4
 94
        3
 73
     0
 74
     0
 95
       20
 96
       16
 40
0.0
 40
0.0
 40
0.0
 40
0.0
 40
1.0
 40
1.0
 40
1.0
 40
2.0
 40
2.0
 40
2.0
 40
3.0
 40
3.0
 40
3.0
 40
4.0
 40
4.0
 40
4.0
 40
5.0
 40
5.0
 40
5.0
 40
5.0
 10
16.80607150187487
 20
-6.214349363680787
 10
16.80607150187487
 20
-6.282941214792111
 10
16.84758490247213
 20
-6.331207002540462
 10
16.9119392861366
 20
-6.331207002540462
 10
16.96189317067272
 20
-6.331207002540462
 10
17.00082274965604
 20
-6.30664347173063
 10
17.02032199010256
 20
-6.273605006027083
 10
17.02452500659456
 20
-6.266852618875994
 10
17.02707437725365
 20
-6.25837768398228
 10
17.02707437725365
 20
-6.246526555513021
 10
17.02707437725365
 20
-6.152544350675404
 10
16.99234781476233
 20
-6.080576305988535
 10
16.91445420584083
 20
-6.080576305988535
 10
16.85096109604768
 20
-6.080576305988535
 10
16.80607150187487
 20
-6.136455754759288
 10
16.80607150187487
 20
-6.214349363680787
 97
        0
 97
        0
 75
     2
 76
     1
 98
        0
450
        0
451
        0
460
0.0
461
0.0
452
        0
462
0.0
453
        0
470

  0
SPLINE
  5
F8
330
1F
100
AcDbEntity
  8
Livello 1
100
AcDbSpline
210
0.0
220
0.0
230
1.0
 70
     9
 71
     3
 72
    17
 73
    13
 74
     0
 42
0.000000001
 43
0.0000000001
 40
0.0
 40
0.0
 40
0.0
 40
0.0
 40
1.0
 40
1.0
 40
1.0
 40
2.0
 40
2.0
 40
2.0
 40
3.0
 40
3.0
 40
3.0
 40
4.0
 40
4.0
 40
4.0
 40
4.0
 10
17.14555121099139
 20
-6.687671032399261
 30
0.0
 10
17.16418917756659
 20
-6.637717147863139
 30
0.0
 10
17.18706461158865
 20
-6.547111136601067
 30
0.0
 10
17.19636636939882
 20
-6.485306123595687
 30
0.0
 10
17.19636636939882
 20
-6.485306123595687
 30
0.0
 10
17.27935871963849
 20
-6.476831188701972
 30
0.0
 10
17.27935871963849
 20
-6.476831188701972
 30
0.0
 10
17.25989393014683
 20
-6.548799233388841
 30
0.0
 10
17.22261799699643
 20
-6.642781438226456
 30
0.0
 10
17.19891574005791
 20
-6.682606742035945
 30
0.0
 10
17.19891574005791
 20
-6.682606742035945
 30
0.0
 10
17.14555121099139
 20
-6.687671032399261
 30
0.0
 10
17.14555121099139
 20
-6.687671032399261
 30
0.0
  0
HATCH
  5
F9
330
1F
100
AcDbEntity
  8
Livello 1
100
AcDbHatch
 10
0.0
 20
0.0
 30
0.0
210
0.0
220
0.0
230
1.0
  2
SOLID
 70
     1
 71
     0
 91
        1
 92
        1
 93
        1
 72
     4
 94
        3
 73
     0
 74
     0
 95
       17
 96
       13
 40
0.0
 40
0.0
 40
0.0
 40
0.0
 40
1.0
 40
1.0
 40
1.0
 40
2.0
 40
2.0
 40
2.0
 40
3.0
 40
3.0
 40
3.0
 40
4.0
 40
4.0
 40
4.0
 40
4.0
 10
17.14555121099139
 20
-6.687671032399261
 10
17.16418917756659
 20
-6.637717147863139
 10
17.18706461158865
 20
-6.547111136601067
 10
17.19636636939882
 20
-6.485306123595687
 10
17.19636636939882
 20
-6.485306123595687
 10
17.27935871963849
 20
-6.476831188701972
 10
17.27935871963849
 20
-6.476831188701972
 10
17.25989393014683
 20
-6.548799233388841
 10
17.22261799699643
 20
-6.642781438226456
 10
17.19891574005791
 20
-6.682606742035945
 10
17.19891574005791
 20
-6.682606742035945
 10
17.14555121099139
 20
-6.687671032399261
 10
17.14555121099139
 20
-6.687671032399261
 97
        0
 97
        0
 75
     2
 76
     1
 98
        0
450
        0
451
        0
460
0.0
461
0.0
452
        0
462
0.0
453
        0
470

  0
SPLINE
  5
FA
330
1F
100
AcDbEntity
  8
Livello 1
100
AcDbSpline
210
0.0
220
0.0
230
1.0
 70
    11
 71
     3
 72
    50
 73
    46
 74
     0
 42
0.000000001
 43
0.0000000001
 40
0.0
 40
0.0
 40
0.0
 40
0.0
 40
1.0
 40
1.0
 40
1.0
 40
2.0
 40
2.0
 40
2.0
 40
3.0
 40
3.0
 40
3.0
 40
4.0
 40
4.0
 40
4.0
 40
5.0
 40
5.0
 40
5.0
 40
6.0
 40
6.0
 40
6.0
 40
7.0
 40
7.0
 40
7.0
 40
8.0
 40
8.0
 40
8.0
 40
9.0
 40
9.0
 40
9.0
 40
10.0
 40
10.0
 40
10.0
 40
11.0
 40
11.0
 40
11.0
 40
12.0
 40
12.0
 40
12.0
 40
13.0
 40
13.0
 40
13.0
 40
14.0
 40
14.0
 40
14.0
 40
15.0
 40
15.0
 40
15.0
 40
15.0
 10
17.67392550556416
 20
-6.09580362803334
 30
0.0
 10
17.67392550556416
 20
-6.09580362803334
 30
0.0
 10
17.46391248478333
 20
-6.09580362803334
 30
0.0
 10
17.46391248478333
 20
-6.09580362803334
 30
0.0
 10
17.46391248478333
 20
-6.09580362803334
 30
0.0
 10
17.44275959850389
 20
-6.237224797702846
 30
0.0
 10
17.44275959850389
 20
-6.237224797702846
 30
0.0
 10
17.45543754988961
 20
-6.235502249960222
 30
0.0
 10
17.46732312931372
 20
-6.233814153172448
 30
0.0
 10
17.48761474172185
 20
-6.233814153172448
 30
0.0
 10
17.52995496523556
 20
-6.233814153172448
 30
0.0
 10
17.57229518874929
 20
-6.243150361937476
 30
0.0
 10
17.60616047736929
 20
-6.263441974345598
 30
0.0
 10
17.64936197475432
 20
-6.288005505155428
 30
0.0
 10
17.6849153601621
 20
-6.335444469987318
 30
0.0
 10
17.6849153601621
 20
-6.404863144015103
 30
0.0
 10
17.6849153601621
 20
-6.51238457410975
 30
0.0
 10
17.5994080902182
 20
-6.592827553690334
 30
0.0
 10
17.48000108069944
 20
-6.592827553690334
 30
0.0
 10
17.41988416448183
 20
-6.592827553690334
 30
0.0
 10
17.3690690060744
 20
-6.575912134857758
 30
0.0
 10
17.34285182943165
 20
-6.558962265070328
 30
0.0
 10
17.34285182943165
 20
-6.558962265070328
 30
0.0
 10
17.361455345052
 20
-6.502255993383116
 30
0.0
 10
17.361455345052
 20
-6.502255993383116
 30
0.0
 10
17.38433077907406
 20
-6.515795218640147
 30
0.0
 10
17.42918592229201
 20
-6.532710637472725
 30
0.0
 10
17.47917425778298
 20
-6.532710637472725
 30
0.0
 10
17.54945420568208
 20
-6.532710637472725
 30
0.0
 10
17.60957112189969
 20
-6.486994220383459
 30
0.0
 10
17.60957112189969
 20
-6.413338078908817
 30
0.0
 10
17.60870984802838
 20
-6.342196857138409
 30
0.0
 10
17.56130533415134
 20
-6.291416149685826
 30
0.0
 10
17.45123453339761
 20
-6.291416149685826
 30
0.0
 10
17.41988416448183
 20
-6.291416149685826
 30
0.0
 10
17.395320633672
 20
-6.29479234326137
 30
0.0
 10
17.37499457030903
 20
-6.297341713920454
 30
0.0
 10
17.37499457030903
 20
-6.297341713920454
 30
0.0
 10
17.41058240667166
 20
-6.033137341156646
 30
0.0
 10
17.41058240667166
 20
-6.033137341156646
 30
0.0
 10
17.41058240667166
 20
-6.033137341156646
 30
0.0
 10
17.67392550556416
 20
-6.033137341156646
 30
0.0
 10
17.67392550556416
 20
-6.033137341156646
 30
0.0
 10
17.67392550556416
 20
-6.033137341156646
 30
0.0
 10
17.67392550556416
 20
-6.09580362803334
 30
0.0
 10
17.67392550556416
 20
-6.09580362803334
 30
0.0
  0
HATCH
  5
FB
330
1F
100
AcDbEntity
  8
Livello 1
100
AcDbHatch
 10
0.0
 20
0.0
 30
0.0
210
0.0
220
0.0
230
1.0
  2
SOLID
 70
     1
 71
     0
 91
        1
 92
        1
 93
        1
 72
     4
 94
        3
 73
     0
 74
     0
 95
       50
 96
       46
 40
0.0
 40
0.0
 40
0.0
 40
0.0
 40
1.0
 40
1.0
 40
1.0
 40
2.0
 40
2.0
 40
2.0
 40
3.0
 40
3.0
 40
3.0
 40
4.0
 40
4.0
 40
4.0
 40
5.0
 40
5.0
 40
5.0
 40
6.0
 40
6.0
 40
6.0
 40
7.0
 40
7.0
 40
7.0
 40
8.0
 40
8.0
 40
8.0
 40
9.0
 40
9.0
 40
9.0
 40
10.0
 40
10.0
 40
10.0
 40
11.0
 40
11.0
 40
11.0
 40
12.0
 40
12.0
 40
12.0
 40
13.0
 40
13.0
 40
13.0
 40
14.0
 40
14.0
 40
14.0
 40
15.0
 40
15.0
 40
15.0
 40
15.0
 10
17.67392550556416
 20
-6.09580362803334
 10
17.67392550556416
 20
-6.09580362803334
 10
17.46391248478333
 20
-6.09580362803334
 10
17.46391248478333
 20
-6.09580362803334
 10
17.46391248478333
 20
-6.09580362803334
 10
17.44275959850389
 20
-6.237224797702846
 10
17.44275959850389
 20
-6.237224797702846
 10
17.45543754988961
 20
-6.235502249960222
 10
17.46732312931372
 20
-6.233814153172448
 10
17.48761474172185
 20
-6.233814153172448
 10
17.52995496523556
 20
-6.233814153172448
 10
17.57229518874929
 20
-6.243150361937476
 10
17.60616047736929
 20
-6.263441974345598
 10
17.64936197475432
 20
-6.288005505155428
 10
17.6849153601621
 20
-6.335444469987318
 10
17.6849153601621
 20
-6.404863144015103
 10
17.6849153601621
 20
-6.51238457410975
 10
17.5994080902182
 20
-6.592827553690334
 10
17.48000108069944
 20
-6.592827553690334
 10
17.41988416448183
 20
-6.592827553690334
 10
17.3690690060744
 20
-6.575912134857758
 10
17.34285182943165
 20
-6.558962265070328
 10
17.34285182943165
 20
-6.558962265070328
 10
17.361455345052
 20
-6.502255993383116
 10
17.361455345052
 20
-6.502255993383116
 10
17.38433077907406
 20
-6.515795218640147
 10
17.42918592229201
 20
-6.532710637472725
 10
17.47917425778298
 20
-6.532710637472725
 10
17.54945420568208
 20
-6.532710637472725
 10
17.60957112189969
 20
-6.486994220383459
 10
17.60957112189969
 20
-6.413338078908817
 10
17.60870984802838
 20
-6.342196857138409
 10
17.56130533415134
 20
-6.291416149685826
 10
17.45123453339761
 20
-6.291416149685826
 10
17.41988416448183
 20
-6.291416149685826
 10
17.395320633672
 20
-6.29479234326137
 10
17.37499457030903
 20
-6.297341713920454
 10
17.37499457030903
 20
-6.297341713920454
 10
17.41058240667166
 20
-6.033137341156646
 10
17.41058240667166
 20
-6.033137341156646
 10
17.41058240667166
 20
-6.033137341156646
 10
17.67392550556416
 20
-6.033137341156646
 10
17.67392550556416
 20
-6.033137341156646
 10
17.67392550556416
 20
-6.033137341156646
 10
17.67392550556416
 20
-6.09580362803334
 10
17.67392550556416
 20
-6.09580362803334
 97
        0
 97
        0
 75
     2
 76
     1
 98
        0
450
        0
451
        0
460
0.0
461
0.0
452
        0
462
0.0
453
        0
470

  0
ENDSEC
  0
SECTION
  2
OBJECTS
  0
DICTIONARY
  5
C
330
0
100
AcDbDictionary
281
     1
  3
ACAD_CIP_PREVIOUS_PRODUCT_INFO
350
C4
  3
ACAD_COLOR
350
A5
  3
ACAD_DETAILVIEWSTYLE
350
C0
  3
ACAD_GROUP
350
D
  3
ACAD_LAYOUT
350
1A
  3
ACAD_MATERIAL
350
3B
  3
ACAD_MLEADERSTYLE
350
98
  3
ACAD_MLINESTYLE
350
17
  3
ACAD_PLOTSETTINGS
350
19
  3
ACAD_PLOTSTYLENAME
350
E
  3
ACAD_SCALELIST
350
A7
  3
ACAD_SECTIONVIEWSTYLE
350
BE
  3
ACAD_TABLESTYLE
350
97
  3
ACAD_VISUALSTYLE
350
2A
  3
ACDB_RECOMPOSE_DATA
350
105
  3
AcDbVariableDictionary
350
FC
  0
SUN
  5
3F
330
29
100
AcDbSun
 90
        1
290
     1
 63
     7
421
 16777215
 40
1.0
291
     1
 91
  2455826
 92
 54000000
292
     0
 70
     0
 71
   256
280
     1
1001
ACAD
1000
AcDbSavedByObjectVersion
1070
     0
  0
DICTIONARY
  5
C5
330
1F
100
AcDbDictionary
280
     1
281
     1
  3
ACAD_SORTENTS
360
C6
  0
XRECORD
  5
C4
102
{ACAD_REACTORS
330
C
102
}
330
C
100
AcDbXrecord
280
     1
300
ACD
300
2019
300
ACD_F_S
  0
DICTIONARY
  5
A5
102
{ACAD_REACTORS
330
C
102
}
330
C
100
AcDbDictionary
281
     1
  0
DICTIONARY
  5
C0
102
{ACAD_REACTORS
330
C
102
}
330
C
100
AcDbDictionary
281
     1
  3
Imperial24
350
C1
  0
DICTIONARY
  5
D
102
{ACAD_REACTORS
330
C
102
}
330
C
100
AcDbDictionary
281
     1
  0
DICTIONARY
  5
1A
102
{ACAD_REACTORS
330
C
102
}
330
C
100
AcDbDictionary
281
     1
  3
Layout1
350
1E
  3
Layout2
350
26
  3
Model
350
22
  0
DICTIONARY
  5
3B
102
{ACAD_REACTORS
330
C
102
}
330
C
100
AcDbDictionary
281
     1
  3
ByBlock
350
3D
  3
ByLayer
350
3C
  3
Global
350
3E
  0
DICTIONARY
  5
98
102
{ACAD_REACTORS
330
C
102
}
330
C
100
AcDbDictionary
281
     1
  3
Standard
350
BD
  0
DICTIONARY
  5
17
102
{ACAD_REACTORS
330
C
102
}
330
C
100
AcDbDictionary
281
     1
  3
Standard
350
18
  0
DICTIONARY
  5
19
102
{ACAD_REACTORS
330
C
102
}
330
C
100
AcDbDictionary
281
     1
  0
ACDBDICTIONARYWDFLT
  5
E
102
{ACAD_REACTORS
330
C
102
}
330
C
100
AcDbDictionary
281
     1
  3
Normal
350
F
100
AcDbDictionaryWithDefault
340
F
  0
DICTIONARY
  5
A7
102
{ACAD_REACTORS
330
C
102
}
330
C
100
AcDbDictionary
281
     1
  3
A0
350
A8
  3
A1
350
A9
  3
A2
350
AA
  3
A3
350
AB
  3
A4
350
AC
  3
A5
350
AD
  3
A6
350
AE
  3
A7
350
AF
  3
A8
350
B0
  3
A9
350
B1
  3
B0
350
B2
  3
B1
350
B3
  3
B2
350
B4
  3
B3
350
B5
  3
B4
350
B6
  3
B5
350
B7
  3
B6
350
B8
  3
B7
350
B9
  3
B8
350
BA
  3
B9
350
BB
  3
C0
350
BC
  0
DICTIONARY
  5
BE
102
{ACAD_REACTORS
330
C
102
}
330
C
100
AcDbDictionary
281
     1
  3
Imperial24
350
BF
  0
DICTIONARY
  5
97
102
{ACAD_REACTORS
330
C
102
}
330
C
100
AcDbDictionary
281
     1
  3
Standard
350
A6
  0
DICTIONARY
  5
2A
102
{ACAD_REACTORS
330
C
102
}
330
C
100
AcDbDictionary
281
     1
  3
2dWireframe
350
2F
  3
3D Hidden
350
31
  3
3dWireframe
350
30
  3
Basic
350
32
  3
Brighten
350
36
  3
ColorChange
350
3A
  3
Conceptual
350
34
  3
Dim
350
35
  3
EdgeColorOff
350
A4
  3
Facepattern
350
39
  3
Flat
350
2B
  3
FlatWithEdges
350
2C
  3
Gouraud
350
2D
  3
GouraudWithEdges
350
2E
  3
Hidden
350
9C
  3
JitterOff
350
A2
  3
Linepattern
350
38
  3
OverhangOff
350
A3
  3
Realistic
350
33
  3
Shaded
350
A1
  3
Shaded with edges
350
A0
  3
Shades of Gray
350
9D
  3
Sketchy
350
9E
  3
Thicken
350
37
  3
Wireframe
350
9B
  3
X-Ray
350
9F
  0
XRECORD
  5
105
102
{ACAD_REACTORS
330
C
102
}
330
C
100
AcDbXrecord
280
     1
 90
        1
330
A6
  0
DICTIONARY
  5
FC
102
{ACAD_REACTORS
330
C
102
}
330
C
100
AcDbDictionary
281
     1
  3
CANNOSCALE
350
101
  3
CMLEADERSTYLE
350
FE
  3
CTABLESTYLE
350
FD
  3
CVIEWDETAILSTYLE
350
FF
  3
CVIEWSECTIONSTYLE
350
100
  0
SORTENTSTABLE
  5
C6
102
{ACAD_REACTORS
330
C5
102
}
330
C5
100
AcDbSortentsTable
330
1F
  0
ACDBDETAILVIEWSTYLE
  5
C1
102
{ACAD_XDICTIONARY
360
108
102
}
102
{ACAD_REACTORS
330
C0
102
}
330
C0
100
AcDbModelDocViewStyle
 70
     0
  3
Imperial24
290
     0
100
AcDbDetailViewStyle
 70
     0
 71
     0
 90
        3
 71
     1
340
11
 62
   256
 40
0.24
340
0
 62
   256
 40
0.24
300

 40
0.36
280
     3
 71
     2
340
16
 90
       25
 62
   256
 71
     3
340
11
 62
   256
 40
0.24
 90
        1
 40
0.75
 90
        1
300
%<\AcVar ViewType \f "%tc1">% %<\AcVar ViewDetailId>%\PSCALA %<\AcVar ViewScale \f "%sn">%
 71
     4
340
16
 90
       25
 62
   256
340
16
 90
       25
 62
   256
280
     0
  0
LAYOUT
  5
1E
102
{ACAD_REACTORS
330
1A
102
}
330
1A
100
AcDbPlotSettings
  1

  2
none_device
  4

  6

 40
0.0
 41
0.0
 42
0.0
 43
0.0
 44
0.0
 45
0.0
 46
0.0
 47
0.0
 48
0.0
 49
0.0
140
0.0
141
0.0
142
1.0
143
1.0
 70
   688
 72
     0
 73
     0
 74
     5
  7

 75
    16
147
1.0
 76
     0
 77
     2
 78
   300
148
0.0
149
0.0
100
AcDbLayout
  1
Layout1
 70
     1
 71
     1
 10
0.0
 20
0.0
 11
12.0
 21
9.0
 12
0.0
 22
0.0
 32
0.0
 14
1.000000000000000E+20
 24
1.000000000000000E+20
 34
1.000000000000000E+20
 15
-1.000000000000000E+20
 25
-1.000000000000000E+20
 35
-1.000000000000000E+20
146
0.0
 13
0.0
 23
0.0
 33
0.0
 16
1.0
 26
0.0
 36
0.0
 17
0.0
 27
1.0
 37
0.0
 76
     0
330
1B
  0
LAYOUT
  5
26
102
{ACAD_REACTORS
330
1A
102
}
330
1A
100
AcDbPlotSettings
  1

  2
none_device
  4

  6

 40
0.0
 41
0.0
 42
0.0
 43
0.0
 44
0.0
 45
0.0
 46
0.0
 47
0.0
 48
0.0
 49
0.0
140
0.0
141
0.0
142
1.0
143
1.0
 70
   688
 72
     0
 73
     0
 74
     5
  7

 75
    16
147
1.0
 76
     0
 77
     2
 78
   300
148
0.0
149
0.0
100
AcDbLayout
  1
Layout2
 70
     1
 71
     2
 10
0.0
 20
0.0
 11
0.0
 21
0.0
 12
0.0
 22
0.0
 32
0.0
 14
0.0
 24
0.0
 34
0.0
 15
0.0
 25
0.0
 35
0.0
146
0.0
 13
0.0
 23
0.0
 33
0.0
 16
1.0
 26
0.0
 36
0.0
 17
0.0
 27
1.0
 37
0.0
 76
     0
330
23
  0
LAYOUT
  5
22
102
{ACAD_REACTORS
330
1A
102
}
330
1A
100
AcDbPlotSettings
  1

  2
none_device
  4

  6

 40
0.0
 41
0.0
 42
0.0
 43
0.0
 44
0.0
 45
0.0
 46
0.0
 47
0.0
 48
0.0
 49
0.0
140
0.0
141
0.0
142
1.0
143
1.0
 70
  1712
 72
     0
 73
     0
 74
     0
  7

 75
     0
147
1.0
 76
     0
 77
     2
 78
   300
148
0.0
149
0.0
100
AcDbLayout
  1
Model
 70
     1
 71
     0
 10
0.0
 20
0.0
 11
12.0
 21
9.0
 12
0.0
 22
0.0
 32
0.0
 14
1.000000000000000E+20
 24
1.000000000000000E+20
 34
1.000000000000000E+20
 15
-1.000000000000000E+20
 25
-1.000000000000000E+20
 35
-1.000000000000000E+20
146
0.0
 13
0.0
 23
0.0
 33
0.0
 16
1.0
 26
0.0
 36
0.0
 17
0.0
 27
1.0
 37
0.0
 76
     0
330
1F
331
29
  0
MATERIAL
  5
3D
102
{ACAD_REACTORS
330
3B
102
}
330
3B
100
AcDbMaterial
  1
ByBlock
  0
MATERIAL
  5
3C
102
{ACAD_REACTORS
330
3B
102
}
330
3B
100
AcDbMaterial
  1
ByLayer
  0
MATERIAL
  5
3E
102
{ACAD_REACTORS
330
3B
102
}
330
3B
100
AcDbMaterial
  1
Global
  0
MLEADERSTYLE
  5
BD
102
{ACAD_REACTORS
330
98
102
}
330
98
100
AcDbMLeaderStyle
179
     2
170
     2
171
     1
172
     0
 90
        2
 40
0.0
 41
0.0
173
     1
 91
-1056964608
340
14
 92
       -2
290
     1
 42
0.09
291
     1
 43
0.36
  3
Standard
 44
0.18
300

342
11
174
     1
178
     6
175
     1
176
     0
 93
-1056964608
 45
0.18
292
     0
297
     0
 46
0.18
 94
-1056964608
 47
1.0
 49
1.0
140
1.0
293
     1
141
0.0
294
     1
177
     0
142
1.0
295
     0
296
     0
143
0.125
271
     0
272
     9
273
     9
298
     0
  0
MLINESTYLE
  5
18
102
{ACAD_REACTORS
330
17
102
}
330
17
100
AcDbMlineStyle
  2
STANDARD
 70
     0
  3

 62
   256
 51
90.0
 52
90.0
 71
     2
 49
0.5
 62
   256
  6
BYLAYER
 49
-0.5
 62
   256
  6
BYLAYER
  0
ACDBPLACEHOLDER
  5
F
102
{ACAD_REACTORS
330
E
102
}
330
E
  0
SCALE
  5
A8
102
{ACAD_REACTORS
330
A7
102
}
330
A7
100
AcDbScale
 70
     0
300
1:1
140
1.0
141
1.0
290
     1
  0
SCALE
  5
A9
102
{ACAD_REACTORS
330
A7
102
}
330
A7
100
AcDbScale
 70
     0
300
1.10
140
1.0
141
10.0
290
     0
  0
SCALE
  5
AA
102
{ACAD_REACTORS
330
A7
102
}
330
A7
100
AcDbScale
 70
     0
300
1.50
140
1.0
141
50.0
290
     0
  0
SCALE
  5
AB
102
{ACAD_REACTORS
330
A7
102
}
330
A7
100
AcDbScale
 70
     0
300
1:100
140
1.0
141
100.0
290
     0
  0
SCALE
  5
AC
102
{ACAD_REACTORS
330
A7
102
}
330
A7
100
AcDbScale
 70
     0
300
1.200
140
1.0
141
200.0
290
     0
  0
SCALE
  5
AD
102
{ACAD_REACTORS
330
A7
102
}
330
A7
100
AcDbScale
 70
     0
300
1/128" = 1'-0"
140
0.0078125
141
12.0
290
     0
  0
SCALE
  5
AE
102
{ACAD_REACTORS
330
A7
102
}
330
A7
100
AcDbScale
 70
     0
300
1/64" = 1'-0"
140
0.015625
141
12.0
290
     0
  0
SCALE
  5
AF
102
{ACAD_REACTORS
330
A7
102
}
330
A7
100
AcDbScale
 70
     0
300
1/32" = 1'-0"
140
0.03125
141
12.0
290
     0
  0
SCALE
  5
B0
102
{ACAD_REACTORS
330
A7
102
}
330
A7
100
AcDbScale
 70
     0
300
1/16" = 1'-0"
140
0.0625
141
12.0
290
     0
  0
SCALE
  5
B1
102
{ACAD_REACTORS
330
A7
102
}
330
A7
100
AcDbScale
 70
     0
300
3/32" = 1'-0"
140
0.09375
141
12.0
290
     0
  0
SCALE
  5
B2
102
{ACAD_REACTORS
330
A7
102
}
330
A7
100
AcDbScale
 70
     0
300
1/8" = 1'-0"
140
0.125
141
12.0
290
     0
  0
SCALE
  5
B3
102
{ACAD_REACTORS
330
A7
102
}
330
A7
100
AcDbScale
 70
     0
300
3/16" = 1'-0"
140
0.1875
141
12.0
290
     0
  0
SCALE
  5
B4
102
{ACAD_REACTORS
330
A7
102
}
330
A7
100
AcDbScale
 70
     0
300
1/4" = 1'-0"
140
0.25
141
12.0
290
     0
  0
SCALE
  5
B5
102
{ACAD_REACTORS
330
A7
102
}
330
A7
100
AcDbScale
 70
     0
300
3/8" = 1'-0"
140
0.375
141
12.0
290
     0
  0
SCALE
  5
B6
102
{ACAD_REACTORS
330
A7
102
}
330
A7
100
AcDbScale
 70
     0
300
1/2" = 1'-0"
140
0.5
141
12.0
290
     0
  0
SCALE
  5
B7
102
{ACAD_REACTORS
330
A7
102
}
330
A7
100
AcDbScale
 70
     0
300
3/4" = 1'-0"
140
0.75
141
12.0
290
     0
  0
SCALE
  5
B8
102
{ACAD_REACTORS
330
A7
102
}
330
A7
100
AcDbScale
 70
     0
300
1" = 1'-0"
140
1.0
141
12.0
290
     0
  0
SCALE
  5
B9
102
{ACAD_REACTORS
330
A7
102
}
330
A7
100
AcDbScale
 70
     0
300
1-1/2" = 1'-0"
140
1.5
141
12.0
290
     0
  0
SCALE
  5
BA
102
{ACAD_REACTORS
330
A7
102
}
330
A7
100
AcDbScale
 70
     0
300
3" = 1'-0"
140
3.0
141
12.0
290
     0
  0
SCALE
  5
BB
102
{ACAD_REACTORS
330
A7
102
}
330
A7
100
AcDbScale
 70
     0
300
6" = 1'-0"
140
6.0
141
12.0
290
     0
  0
SCALE
  5
BC
102
{ACAD_REACTORS
330
A7
102
}
330
A7
100
AcDbScale
 70
     0
300
1'-0" = 1'-0"
140
12.0
141
12.0
290
     0
  0
ACDBSECTIONVIEWSTYLE
  5
BF
102
{ACAD_XDICTIONARY
360
106
102
}
102
{ACAD_REACTORS
330
BE
102
}
330
BE
100
AcDbModelDocViewStyle
 70
     0
  3
Imperial24
290
     0
100
AcDbSectionViewStyle
 70
     0
 71
     0
 90
       78
 71
     1
340
11
 62
   256
 40
0.24
340
0
340
0
 62
   256
 40
0.24
300
I, O, Q, S, X, Z
 40
0.48
 90
        3
 40
0.18
 90
        1
 71
     2
340
16
 90
       25
 62
   256
340
16
 90
       50
 62
   256
 40
0.24
 40
0.0
 40
0.24
 71
     3
340
11
 62
   256
 40
0.24
 90
        1
 40
0.75
 90
        1
300
%<\AcVar ViewType \f "%tc1">% %<\AcVar ViewSectionStartId>%-%<\AcVar ViewSectionEndId>%\PSCALA %<\AcVar ViewScale \f "%sn">%
 71
     4
 62
   256
 62
   257
300
ANSI31
 40
1.0
 90
        0
290
     0
290
     0
 90
        6
 40
0.0
 40
1.570796326794896
 40
0.2617993877991494
 40
1.308996938995747
 40
-0.2617993877991494
 40
1.832595714594046
  0
TABLESTYLE
  5
A6
102
{ACAD_XDICTIONARY
360
103
102
}
102
{ACAD_REACTORS
330
97
102
}
330
97
100
AcDbTableStyle
280
     0
  3
Standard
 70
     0
 71
     0
 40
0.06
 41
0.06
280
     0
281
     0
  7
Standard
140
0.18
170
     2
 62
     0
 63
     7
283
     0
 90
      512
 91
        0
  1

274
    -2
284
     1
 64
     0
275
    -2
285
     1
 65
     0
276
    -2
286
     1
 66
     0
277
    -2
287
     1
 67
     0
278
    -2
288
     1
 68
     0
279
    -2
289
     1
 69
     0
  7
Standard
140
0.25
170
     5
 62
     0
 63
     7
283
     0
 90
      512
 91
        0
  1

274
    -2
284
     1
 64
     0
275
    -2
285
     1
 65
     0
276
    -2
286
     1
 66
     0
277
    -2
287
     1
 67
     0
278
    -2
288
     1
 68
     0
279
    -2
289
     1
 69
     0
  7
Standard
140
0.18
170
     5
 62
     0
 63
     7
283
     0
 90
      512
 91
        0
  1

274
    -2
284
     1
 64
     0
275
    -2
285
     1
 65
     0
276
    -2
286
     1
 66
     0
277
    -2
287
     1
 67
     0
278
    -2
288
     1
 68
     0
279
    -2
289
     1
 69
     0
  0
VISUALSTYLE
  5
2F
102
{ACAD_REACTORS
330
2A
102
}
330
2A
100
AcDbVisualStyle
  2
2dWireframe
 70
     4
177
     3
291
     0
 70
    58
 90
        0
176
     1
 90
        2
176
     1
 90
        0
176
     1
 90
        0
176
     1
 40
0.6
176
     1
 40
30.0
176
     1
 62
     7
420
 16777215
176
     1
 90
        1
176
     1
 90
        4
176
     1
 62
     7
176
     1
 62
   257
176
     1
 90
        1
176
     1
 90
        1
176
     1
 40
1.0
176
     1
 90
        0
176
     1
 62
   257
176
     1
 40
1.0
176
     1
 90
        1
176
     1
 90
        6
176
     1
 90
        2
176
     1
 62
     7
176
     1
 90
        5
176
     1
 90
        0
176
     1
 90
        0
176
     1
290
     0
176
     1
 90
        1
176
     1
 40
0.0
176
     1
 90
        0
176
     1
290
     1
176
     1
290
     1
176
     1
290
     0
176
     1
290
     0
176
     1
290
     0
176
     1
290
     0
176
     1
290
     0
176
     1
290
     0
176
     1
290
     0
176
     1
 90
       50
176
     1
 40
0.0
176
     1
 40
1.0
176
     1
 90
        0
176
     1
 62
    18
420
        0
176
     1
 90
       50
176
     1
 90
        3
176
     1
 62
     5
420
      255
176
     1
290
     0
176
     1
 90
       50
176
     1
 90
       50
176
     1
 90
       50
176
     1
290
     0
176
     1
 90
       50
176
     1
 62
   256
176
     0
 40
1.0
176
     0
 90
        2
176
     1
  1
strokes_ogs.tif
176
     1
290
     0
176
     1
 40
1.0
176
     1
 40
1.0
176
     1
1001
ACAD
1000
AcDbSavedByObjectVersion
1070
     0
  0
VISUALSTYLE
  5
31
102
{ACAD_REACTORS
330
2A
102
}
330
2A
100
AcDbVisualStyle
  2
3D Hidden
 70
     6
177
     3
291
     0
 70
    58
 90
        1
176
     1
 90
        2
176
     1
 90
        2
176
     1
 90
        0
176
     1
 40
0.6
176
     1
 40
30.0
176
     1
 62
     7
420
 16777215
176
     1
 90
        2
176
     1
 90
        2
176
     1
 62
     7
176
     1
 62
   257
176
     1
 90
        2
176
     1
 90
        1
176
     1
 40
40.0
176
     1
 90
        0
176
     1
 62
   257
176
     1
 40
1.0
176
     1
 90
        1
176
     1
 90
        6
176
     1
 90
        2
176
     1
 62
     7
176
     1
 90
        3
176
     1
 90
        0
176
     1
 90
        0
176
     1
290
     0
176
     1
 90
        1
176
     1
 40
0.0
176
     1
 90
        0
176
     1
290
     0
176
     1
290
     1
176
     1
290
     1
176
     1
290
     0
176
     1
290
     0
176
     1
290
     0
176
     1
290
     0
176
     1
290
     0
176
     1
290
     0
176
     1
 90
       50
176
     1
 40
0.0
176
     1
 40
1.0
176
     1
 90
        0
176
     1
 62
    18
420
        0
176
     1
 90
       50
176
     1
 90
        3
176
     1
 62
     5
420
      255
176
     1
290
     0
176
     1
 90
       50
176
     1
 90
       50
176
     1
 90
       50
176
     1
290
     0
176
     1
 90
       50
176
     1
 62
   256
176
     0
 40
1.0
176
     0
 90
        2
176
     1
  1
strokes_ogs.tif
176
     1
290
     0
176
     1
 40
1.0
176
     1
 40
1.0
176
     1
1001
ACAD
1000
AcDbSavedByObjectVersion
1070
     0
  0
VISUALSTYLE
  5
30
102
{ACAD_REACTORS
330
2A
102
}
330
2A
100
AcDbVisualStyle
  2
3dWireframe
 70
     5
177
     3
291
     0
 70
    58
 90
        0
176
     1
 90
        2
176
     1
 90
        0
176
     1
 90
        0
176
     1
 40
0.6
176
     1
 40
30.0
176
     1
 62
     7
420
 16777215
176
     1
 90
        1
176
     1
 90
        4
176
     1
 62
     7
176
     1
 62
   257
176
     1
 90
        1
176
     1
 90
        1
176
     1
 40
1.0
176
     1
 90
        0
176
     1
 62
   257
176
     1
 40
1.0
176
     1
 90
        1
176
     1
 90
        6
176
     1
 90
        2
176
     1
 62
     7
176
     1
 90
        5
176
     1
 90
        0
176
     1
 90
        0
176
     1
290
     0
176
     1
 90
        1
176
     1
 40
0.0
176
     1
 90
        0
176
     1
290
     0
176
     1
290
     1
176
     1
290
     1
176
     1
290
     0
176
     1
290
     0
176
     1
290
     0
176
     1
290
     0
176
     1
290
     0
176
     1
290
     0
176
     1
 90
       50
176
     1
 40
0.0
176
     1
 40
1.0
176
     1
 90
        0
176
     1
 62
    18
420
        0
176
     1
 90
       50
176
     1
 90
        3
176
     1
 62
     5
420
      255
176
     1
290
     0
176
     1
 90
       50
176
     1
 90
       50
176
     1
 90
       50
176
     1
290
     0
176
     1
 90
       50
176
     1
 62
   256
176
     0
 40
1.0
176
     0
 90
        2
176
     1
  1
strokes_ogs.tif
176
     1
290
     0
176
     1
 40
1.0
176
     1
 40
1.0
176
     1
1001
ACAD
1000
AcDbSavedByObjectVersion
1070
     0
  0
VISUALSTYLE
  5
32
102
{ACAD_REACTORS
330
2A
102
}
330
2A
100
AcDbVisualStyle
  2
Basic
 70
     7
177
     3
291
     1
 70
    58
 90
        1
176
     1
 90
        0
176
     1
 90
        1
176
     1
 90
        0
176
     1
 40
0.6
176
     1
 40
30.0
176
     1
 62
     7
420
 16777215
176
     1
 90
        0
176
     1
 90
        4
176
     1
 62
     7
176
     1
 62
   257
176
     1
 90
        1
176
     1
 90
        1
176
     1
 40
1.0
176
     1
 90
        8
176
     1
 62
     7
176
     1
 40
1.0
176
     1
 90
        1
176
     1
 90
        6
176
     1
 90
        2
176
     1
 62
     7
176
     1
 90
        5
176
     1
 90
        0
176
     1
 90
        0
176
     1
290
     0
176
     1
 90
        1
176
     1
 40
0.0
176
     1
 90
        0
176
     1
290
     0
176
     1
290
     1
176
     1
290
     1
176
     1
290
     0
176
     1
290
     0
176
     1
290
     0
176
     1
290
     0
176
     1
290
     0
176
     1
290
     0
176
     1
 90
       50
176
     1
 40
0.0
176
     1
 40
1.0
176
     1
 90
        0
176
     1
 62
    18
420
        0
176
     1
 90
       50
176
     1
 90
        3
176
     1
 62
     5
420
      255
176
     1
290
     0
176
     1
 90
       50
176
     1
 90
       50
176
     1
 90
       50
176
     1
290
     0
176
     1
 90
       50
176
     1
 62
   256
176
     0
 40
1.0
176
     0
 90
        2
176
     1
  1
strokes_ogs.tif
176
     1
290
     0
176
     1
 40
1.0
176
     1
 40
1.0
176
     1
1001
ACAD
1000
AcDbSavedByObjectVersion
1070
     0
  0
VISUALSTYLE
  5
36
102
{ACAD_REACTORS
330
2A
102
}
330
2A
100
AcDbVisualStyle
  2
Brighten
 70
    12
177
     3
291
     1
 70
    58
 90
        2
176
     1
 90
        2
176
     1
 90
        0
176
     1
 90
        0
176
     1
 40
0.6
176
     1
 40
30.0
176
     1
 62
     7
420
 16777215
176
     1
 90
        1
176
     1
 90
        4
176
     1
 62
     7
176
     1
 62
   257
176
     1
 90
        1
176
     1
 90
        1
176
     1
 40
1.0
176
     1
 90
        8
176
     1
 62
     7
176
     1
 40
1.0
176
     1
 90
        1
176
     1
 90
        6
176
     1
 90
        2
176
     1
 62
     7
176
     1
 90
        5
176
     1
 90
        0
176
     1
 90
        0
176
     1
290
     0
176
     1
 90
        1
176
     1
 40
50.0
176
     1
 90
        0
176
     1
290
     0
176
     1
290
     1
176
     1
290
     1
176
     1
290
     0
176
     1
290
     0
176
     1
290
     0
176
     1
290
     0
176
     1
290
     0
176
     1
290
     0
176
     1
 90
       50
176
     1
 40
0.0
176
     1
 40
1.0
176
     1
 90
        0
176
     1
 62
    18
420
        0
176
     1
 90
       50
176
     1
 90
        3
176
     1
 62
     5
420
      255
176
     1
290
     0
176
     1
 90
       50
176
     1
 90
       50
176
     1
 90
       50
176
     1
290
     0
176
     1
 90
       50
176
     1
 62
   256
176
     0
 40
1.0
176
     0
 90
        2
176
     1
  1
strokes_ogs.tif
176
     1
290
     0
176
     1
 40
1.0
176
     1
 40
1.0
176
     1
1001
ACAD
1000
AcDbSavedByObjectVersion
1070
     0
  0
VISUALSTYLE
  5
3A
102
{ACAD_REACTORS
330
2A
102
}
330
2A
100
AcDbVisualStyle
  2
ColorChange
 70
    16
177
     3
291
     1
 70
    58
 90
        2
176
     1
 90
        2
176
     1
 90
        3
176
     1
 90
        0
176
     1
 40
0.6
176
     1
 40
30.0
176
     1
 62
     8
420
  8421504
176
     1
 90
        1
176
     1
 90
        4
176
     1
 62
     7
176
     1
 62
   257
176
     1
 90
        1
176
     1
 90
        1
176
     1
 40
1.0
176
     1
 90
        8
176
     1
 62
     8
420
  8421504
176
     1
 40
1.0
176
     1
 90
        1
176
     1
 90
        6
176
     1
 90
        2
176
     1
 62
     7
176
     1
 90
        5
176
     1
 90
        0
176
     1
 90
        0
176
     1
290
     0
176
     1
 90
        1
176
     1
 40
0.0
176
     1
 90
        0
176
     1
290
     0
176
     1
290
     1
176
     1
290
     1
176
     1
290
     0
176
     1
290
     0
176
     1
290
     0
176
     1
290
     0
176
     1
290
     0
176
     1
290
     0
176
     1
 90
       50
176
     1
 40
0.0
176
     1
 40
1.0
176
     1
 90
        0
176
     1
 62
    18
420
        0
176
     1
 90
       50
176
     1
 90
        3
176
     1
 62
     5
420
      255
176
     1
290
     0
176
     1
 90
       50
176
     1
 90
       50
176
     1
 90
       50
176
     1
290
     0
176
     1
 90
       50
176
     1
 62
   256
176
     0
 40
1.0
176
     0
 90
        2
176
     1
  1
strokes_ogs.tif
176
     1
290
     0
176
     1
 40
1.0
176
     1
 40
1.0
176
     1
1001
ACAD
1000
AcDbSavedByObjectVersion
1070
     0
  0
VISUALSTYLE
  5
34
102
{ACAD_REACTORS
330
2A
102
}
330
2A
100
AcDbVisualStyle
  2
Conceptual
 70
     9
177
     3
291
     0
 70
    58
 90
        3
176
     1
 90
        2
176
     1
 90
        0
176
     1
 90
        0
176
     1
 40
0.6
176
     1
 40
30.0
176
     1
 62
     7
420
 16777215
176
     1
 90
        2
176
     1
 90
        2
176
     1
 62
     7
176
     1
 62
   257
176
     1
 90
        1
176
     1
 90
        1
176
     1
 40
40.0
176
     1
 90
        8
176
     1
 62
     7
176
     1
 40
1.0
176
     1
 90
        1
176
     1
 90
        6
176
     1
 90
        2
176
     1
 62
     7
176
     1
 90
        3
176
     1
 90
        0
176
     1
 90
        0
176
     1
290
     0
176
     1
 90
        1
176
     1
 40
0.0
176
     1
 90
        0
176
     1
290
     0
176
     1
290
     1
176
     1
290
     1
176
     1
290
     0
176
     1
290
     0
176
     1
290
     0
176
     1
290
     0
176
     1
290
     0
176
     1
290
     0
176
     1
 90
       50
176
     1
 40
0.0
176
     1
 40
1.0
176
     1
 90
        0
176
     1
 62
    18
420
        0
176
     1
 90
       50
176
     1
 90
        3
176
     1
 62
     5
420
      255
176
     1
290
     0
176
     1
 90
       50
176
     1
 90
       50
176
     1
 90
       50
176
     1
290
     0
176
     1
 90
       50
176
     1
 62
   256
176
     0
 40
1.0
176
     0
 90
        2
176
     1
  1
strokes_ogs.tif
176
     1
290
     0
176
     1
 40
1.0
176
     1
 40
1.0
176
     1
1001
ACAD
1000
AcDbSavedByObjectVersion
1070
     0
  0
VISUALSTYLE
  5
35
102
{ACAD_REACTORS
330
2A
102
}
330
2A
100
AcDbVisualStyle
  2
Dim
 70
    11
177
     3
291
     1
 70
    58
 90
        2
176
     1
 90
        2
176
     1
 90
        0
176
     1
 90
        0
176
     1
 40
0.6
176
     1
 40
30.0
176
     1
 62
     7
420
 16777215
176
     1
 90
        1
176
     1
 90
        4
176
     1
 62
     7
176
     1
 62
   257
176
     1
 90
        1
176
     1
 90
        1
176
     1
 40
1.0
176
     1
 90
        8
176
     1
 62
     7
176
     1
 40
1.0
176
     1
 90
        1
176
     1
 90
        6
176
     1
 90
        2
176
     1
 62
     7
176
     1
 90
        5
176
     1
 90
        0
176
     1
 90
        0
176
     1
290
     0
176
     1
 90
        1
176
     1
 40
-50.0
176
     1
 90
        0
176
     1
290
     0
176
     1
290
     1
176
     1
290
     1
176
     1
290
     0
176
     1
290
     0
176
     1
290
     0
176
     1
290
     0
176
     1
290
     0
176
     1
290
     0
176
     1
 90
       50
176
     1
 40
0.0
176
     1
 40
1.0
176
     1
 90
        0
176
     1
 62
    18
420
        0
176
     1
 90
       50
176
     1
 90
        3
176
     1
 62
     5
420
      255
176
     1
290
     0
176
     1
 90
       50
176
     1
 90
       50
176
     1
 90
       50
176
     1
290
     0
176
     1
 90
       50
176
     1
 62
   256
176
     0
 40
1.0
176
     0
 90
        2
176
     1
  1
strokes_ogs.tif
176
     1
290
     0
176
     1
 40
1.0
176
     1
 40
1.0
176
     1
1001
ACAD
1000
AcDbSavedByObjectVersion
1070
     0
  0
VISUALSTYLE
  5
A4
102
{ACAD_REACTORS
330
2A
102
}
330
2A
100
AcDbVisualStyle
  2
EdgeColorOff
 70
    22
177
     3
291
     1
 70
    58
 90
        2
176
     0
 90
        2
176
     0
 90
        0
176
     0
 90
        0
176
     0
 40
0.6
176
     0
 40
30.0
176
     0
 62
     7
420
 16777215
176
     0
 90
        1
176
     0
 90
        4
176
     0
 62
     7
176
     0
 62
   257
176
     0
 90
        1
176
     0
 90
        1
176
     0
 40
1.0
176
     0
 90
        8
176
     2
 62
     7
176
     0
 40
1.0
176
     0
 90
        1
176
     0
 90
        6
176
     0
 90
        2
176
     0
 62
     7
176
     0
 90
        5
176
     0
 90
        0
176
     0
 90
        0
176
     0
290
     0
176
     0
 90
        1
176
     0
 40
0.0
176
     0
 90
        0
176
     0
290
     0
176
     1
290
     1
176
     1
290
     1
176
     1
290
     0
176
     1
290
     0
176
     1
290
     0
176
     1
290
     0
176
     1
290
     0
176
     1
290
     0
176
     1
 90
       50
176
     0
 40
0.0
176
     0
 40
1.0
176
     0
 90
        0
176
     0
 62
    18
420
        0
176
     0
 90
       50
176
     0
 90
        3
176
     0
 62
     5
420
      255
176
     0
290
     0
176
     1
 90
       50
176
     0
 90
       50
176
     0
 90
       50
176
     0
290
     0
176
     1
 90
       50
176
     0
 62
   256
176
     0
 40
1.0
176
     0
 90
        2
176
     0
  1
strokes_ogs.tif
176
     0
290
     0
176
     1
 40
1.0
176
     0
 40
1.0
176
     0
1001
ACAD
1000
AcDbSavedByObjectVersion
1070
     0
  0
VISUALSTYLE
  5
39
102
{ACAD_REACTORS
330
2A
102
}
330
2A
100
AcDbVisualStyle
  2
Facepattern
 70
    15
177
     3
291
     1
 70
    58
 90
        2
176
     1
 90
        2
176
     1
 90
        0
176
     1
 90
        0
176
     1
 40
0.6
176
     1
 40
30.0
176
     1
 62
     7
420
 16777215
176
     1
 90
        1
176
     1
 90
        4
176
     1
 62
     7
176
     1
 62
   257
176
     1
 90
        1
176
     1
 90
        1
176
     1
 40
1.0
176
     1
 90
        8
176
     1
 62
     7
176
     1
 40
1.0
176
     1
 90
        1
176
     1
 90
        6
176
     1
 90
        2
176
     1
 62
     7
176
     1
 90
        5
176
     1
 90
        0
176
     1
 90
        0
176
     1
290
     0
176
     1
 90
        1
176
     1
 40
0.0
176
     1
 90
        0
176
     1
290
     0
176
     1
290
     1
176
     1
290
     1
176
     1
290
     0
176
     1
290
     0
176
     1
290
     0
176
     1
290
     0
176
     1
290
     0
176
     1
290
     0
176
     1
 90
       50
176
     1
 40
0.0
176
     1
 40
1.0
176
     1
 90
        0
176
     1
 62
    18
420
        0
176
     1
 90
       50
176
     1
 90
        3
176
     1
 62
     5
420
      255
176
     1
290
     0
176
     1
 90
       50
176
     1
 90
       50
176
     1
 90
       50
176
     1
290
     0
176
     1
 90
       50
176
     1
 62
   256
176
     0
 40
1.0
176
     0
 90
        2
176
     1
  1
strokes_ogs.tif
176
     1
290
     0
176
     1
 40
1.0
176
     1
 40
1.0
176
     1
1001
ACAD
1000
AcDbSavedByObjectVersion
1070
     0
  0
VISUALSTYLE
  5
2B
102
{ACAD_REACTORS
330
2A
102
}
330
2A
100
AcDbVisualStyle
  2
Flat
 70
     0
177
     3
291
     1
 70
    58
 90
        2
176
     1
 90
        1
176
     1
 90
        1
176
     1
 90
        2
176
     1
 40
0.6
176
     1
 40
30.0
176
     1
 62
     7
420
 16777215
176
     1
 90
        0
176
     1
 90
        4
176
     1
 62
     7
176
     1
 62
   257
176
     1
 90
        1
176
     1
 90
        1
176
     1
 40
1.0
176
     1
 90
        8
176
     1
 62
     7
176
     1
 40
1.0
176
     1
 90
        1
176
     1
 90
        6
176
     1
 90
        2
176
     1
 62
     7
176
     1
 90
        5
176
     1
 90
        0
176
     1
 90
        0
176
     1
290
     0
176
     1
 90
       13
176
     1
 40
0.0
176
     1
 90
        0
176
     1
290
     0
176
     1
290
     1
176
     1
290
     1
176
     1
290
     0
176
     1
290
     0
176
     1
290
     0
176
     1
290
     0
176
     1
290
     0
176
     1
290
     0
176
     1
 90
       50
176
     1
 40
0.0
176
     1
 40
1.0
176
     1
 90
        0
176
     1
 62
    18
420
        0
176
     1
 90
       50
176
     1
 90
        3
176
     1
 62
     5
420
      255
176
     1
290
     0
176
     1
 90
       50
176
     1
 90
       50
176
     1
 90
       50
176
     1
290
     0
176
     1
 90
       50
176
     1
 62
   256
176
     0
 40
1.0
176
     0
 90
        2
176
     1
  1
strokes_ogs.tif
176
     1
290
     0
176
     1
 40
1.0
176
     1
 40
1.0
176
     1
1001
ACAD
1000
AcDbSavedByObjectVersion
1070
     0
  0
VISUALSTYLE
  5
2C
102
{ACAD_REACTORS
330
2A
102
}
330
2A
100
AcDbVisualStyle
  2
FlatWithEdges
 70
     1
177
     3
291
     1
 70
    58
 90
        2
176
     1
 90
        1
176
     1
 90
        1
176
     1
 90
        2
176
     1
 40
0.6
176
     1
 40
30.0
176
     1
 62
     7
420
 16777215
176
     1
 90
        1
176
     1
 90
        4
176
     1
 62
     7
176
     1
 62
   257
176
     1
 90
        1
176
     1
 90
        1
176
     1
 40
1.0
176
     1
 90
        0
176
     1
 62
   257
176
     1
 40
1.0
176
     1
 90
        1
176
     1
 90
        6
176
     1
 90
        2
176
     1
 62
     7
176
     1
 90
        5
176
     1
 90
        0
176
     1
 90
        0
176
     1
290
     0
176
     1
 90
       13
176
     1
 40
0.0
176
     1
 90
        0
176
     1
290
     0
176
     1
290
     1
176
     1
290
     1
176
     1
290
     0
176
     1
290
     0
176
     1
290
     0
176
     1
290
     0
176
     1
290
     0
176
     1
290
     0
176
     1
 90
       50
176
     1
 40
0.0
176
     1
 40
1.0
176
     1
 90
        0
176
     1
 62
    18
420
        0
176
     1
 90
       50
176
     1
 90
        3
176
     1
 62
     5
420
      255
176
     1
290
     0
176
     1
 90
       50
176
     1
 90
       50
176
     1
 90
       50
176
     1
290
     0
176
     1
 90
       50
176
     1
 62
   256
176
     0
 40
1.0
176
     0
 90
        2
176
     1
  1
strokes_ogs.tif
176
     1
290
     0
176
     1
 40
1.0
176
     1
 40
1.0
176
     1
1001
ACAD
1000
AcDbSavedByObjectVersion
1070
     0
  0
VISUALSTYLE
  5
2D
102
{ACAD_REACTORS
330
2A
102
}
330
2A
100
AcDbVisualStyle
  2
Gouraud
 70
     2
177
     3
291
     1
 70
    58
 90
        2
176
     1
 90
        2
176
     1
 90
        1
176
     1
 90
        2
176
     1
 40
0.6
176
     1
 40
30.0
176
     1
 62
     7
420
 16777215
176
     1
 90
        0
176
     1
 90
        4
176
     1
 62
     7
176
     1
 62
   257
176
     1
 90
        1
176
     1
 90
        1
176
     1
 40
1.0
176
     1
 90
        0
176
     1
 62
     7
176
     1
 40
1.0
176
     1
 90
        1
176
     1
 90
        6
176
     1
 90
        2
176
     1
 62
     7
176
     1
 90
        5
176
     1
 90
        0
176
     1
 90
        0
176
     1
290
     0
176
     1
 90
       13
176
     1
 40
0.0
176
     1
 90
        0
176
     1
290
     0
176
     1
290
     1
176
     1
290
     1
176
     1
290
     0
176
     1
290
     0
176
     1
290
     0
176
     1
290
     0
176
     1
290
     0
176
     1
290
     0
176
     1
 90
       50
176
     1
 40
0.0
176
     1
 40
1.0
176
     1
 90
        0
176
     1
 62
    18
420
        0
176
     1
 90
       50
176
     1
 90
        3
176
     1
 62
     5
420
      255
176
     1
290
     0
176
     1
 90
       50
176
     1
 90
       50
176
     1
 90
       50
176
     1
290
     0
176
     1
 90
       50
176
     1
 62
   256
176
     0
 40
1.0
176
     0
 90
        2
176
     1
  1
strokes_ogs.tif
176
     1
290
     0
176
     1
 40
1.0
176
     1
 40
1.0
176
     1
1001
ACAD
1000
AcDbSavedByObjectVersion
1070
     0
  0
VISUALSTYLE
  5
2E
102
{ACAD_REACTORS
330
2A
102
}
330
2A
100
AcDbVisualStyle
  2
GouraudWithEdges
 70
     3
177
     3
291
     1
 70
    58
 90
        2
176
     1
 90
        2
176
     1
 90
        1
176
     1
 90
        2
176
     1
 40
0.6
176
     1
 40
30.0
176
     1
 62
     7
420
 16777215
176
     1
 90
        1
176
     1
 90
        4
176
     1
 62
     7
176
     1
 62
   257
176
     1
 90
        1
176
     1
 90
        1
176
     1
 40
1.0
176
     1
 90
        0
176
     1
 62
   257
176
     1
 40
1.0
176
     1
 90
        1
176
     1
 90
        6
176
     1
 90
        2
176
     1
 62
     7
176
     1
 90
        5
176
     1
 90
        0
176
     1
 90
        0
176
     1
290
     0
176
     1
 90
       13
176
     1
 40
0.0
176
     1
 90
        0
176
     1
290
     0
176
     1
290
     1
176
     1
290
     1
176
     1
290
     0
176
     1
290
     0
176
     1
290
     0
176
     1
290
     0
176
     1
290
     0
176
     1
290
     0
176
     1
 90
       50
176
     1
 40
0.0
176
     1
 40
1.0
176
     1
 90
        0
176
     1
 62
    18
420
        0
176
     1
 90
       50
176
     1
 90
        3
176
     1
 62
     5
420
      255
176
     1
290
     0
176
     1
 90
       50
176
     1
 90
       50
176
     1
 90
       50
176
     1
290
     0
176
     1
 90
       50
176
     1
 62
   256
176
     0
 40
1.0
176
     0
 90
        2
176
     1
  1
strokes_ogs.tif
176
     1
290
     0
176
     1
 40
1.0
176
     1
 40
1.0
176
     1
1001
ACAD
1000
AcDbSavedByObjectVersion
1070
     0
  0
VISUALSTYLE
  5
9C
102
{ACAD_REACTORS
330
2A
102
}
330
2A
100
AcDbVisualStyle
  2
Hidden
 70
     6
177
     3
291
     0
 70
    58
 90
        1
176
     1
 90
        2
176
     1
 90
        2
176
     1
 90
        0
176
     1
 40
0.6
176
     1
 40
30.0
176
     1
 62
     7
420
 16777215
176
     1
 90
        2
176
     1
 90
        2
176
     1
 62
     7
176
     1
 62
   257
176
     1
 90
        2
176
     1
 90
        1
176
     1
 40
40.0
176
     1
 90
        0
176
     1
 62
   257
176
     1
 40
1.0
176
     1
 90
        1
176
     1
 90
        6
176
     1
 90
        2
176
     1
 62
     7
176
     1
 90
        3
176
     1
 90
        0
176
     1
 90
        0
176
     1
290
     0
176
     1
 90
        1
176
     1
 40
0.0
176
     1
 90
        0
176
     1
290
     0
176
     1
290
     1
176
     1
290
     1
176
     1
290
     0
176
     1
290
     0
176
     1
290
     0
176
     1
290
     0
176
     1
290
     0
176
     1
290
     0
176
     1
 90
       50
176
     1
 40
0.0
176
     1
 40
1.0
176
     1
 90
        0
176
     1
 62
    18
420
        0
176
     1
 90
       50
176
     1
 90
        3
176
     1
 62
     5
420
      255
176
     1
290
     0
176
     1
 90
       50
176
     1
 90
       50
176
     1
 90
       50
176
     1
290
     0
176
     1
 90
       50
176
     1
 62
   256
176
     0
 40
1.0
176
     0
 90
        2
176
     1
  1
strokes_ogs.tif
176
     1
290
     0
176
     1
 40
1.0
176
     1
 40
1.0
176
     1
1001
ACAD
1000
AcDbSavedByObjectVersion
1070
     0
  0
VISUALSTYLE
  5
A2
102
{ACAD_REACTORS
330
2A
102
}
330
2A
100
AcDbVisualStyle
  2
JitterOff
 70
    20
177
     3
291
     1
 70
    58
 90
        2
176
     0
 90
        2
176
     0
 90
        0
176
     0
 90
        0
176
     0
 40
0.6
176
     0
 40
30.0
176
     0
 62
     7
420
 16777215
176
     0
 90
        1
176
     0
 90
        4
176
     0
 62
     7
176
     0
 62
   257
176
     0
 90
        1
176
     0
 90
        1
176
     0
 40
1.0
176
     0
 90
       10
176
     2
 62
     7
176
     0
 40
1.0
176
     0
 90
        1
176
     0
 90
        6
176
     0
 90
        2
176
     0
 62
     7
176
     0
 90
        5
176
     0
 90
        0
176
     0
 90
        0
176
     0
290
     0
176
     0
 90
        1
176
     0
 40
0.0
176
     0
 90
        0
176
     0
290
     0
176
     1
290
     1
176
     1
290
     1
176
     1
290
     0
176
     1
290
     0
176
     1
290
     0
176
     1
290
     0
176
     1
290
     0
176
     1
290
     0
176
     1
 90
       50
176
     0
 40
0.0
176
     0
 40
1.0
176
     0
 90
        0
176
     0
 62
    18
420
        0
176
     0
 90
       50
176
     0
 90
        3
176
     0
 62
     5
420
      255
176
     0
290
     0
176
     1
 90
       50
176
     0
 90
       50
176
     0
 90
       50
176
     0
290
     0
176
     1
 90
       50
176
     0
 62
   256
176
     0
 40
1.0
176
     0
 90
        2
176
     0
  1
strokes_ogs.tif
176
     0
290
     0
176
     1
 40
1.0
176
     0
 40
1.0
176
     0
1001
ACAD
1000
AcDbSavedByObjectVersion
1070
     0
  0
VISUALSTYLE
  5
38
102
{ACAD_REACTORS
330
2A
102
}
330
2A
100
AcDbVisualStyle
  2
Linepattern
 70
    14
177
     3
291
     1
 70
    58
 90
        2
176
     1
 90
        2
176
     1
 90
        0
176
     1
 90
        0
176
     1
 40
0.6
176
     1
 40
30.0
176
     1
 62
     7
420
 16777215
176
     1
 90
        1
176
     1
 90
        4
176
     1
 62
     7
176
     1
 62
   257
176
     1
 90
        7
176
     1
 90
        7
176
     1
 40
1.0
176
     1
 90
        8
176
     1
 62
     7
176
     1
 40
1.0
176
     1
 90
        1
176
     1
 90
        6
176
     1
 90
        2
176
     1
 62
     7
176
     1
 90
        5
176
     1
 90
        0
176
     1
 90
        0
176
     1
290
     0
176
     1
 90
        1
176
     1
 40
0.0
176
     1
 90
        0
176
     1
290
     0
176
     1
290
     1
176
     1
290
     1
176
     1
290
     0
176
     1
290
     0
176
     1
290
     0
176
     1
290
     0
176
     1
290
     0
176
     1
290
     0
176
     1
 90
       50
176
     1
 40
0.0
176
     1
 40
1.0
176
     1
 90
        0
176
     1
 62
    18
420
        0
176
     1
 90
       50
176
     1
 90
        3
176
     1
 62
     5
420
      255
176
     1
290
     0
176
     1
 90
       50
176
     1
 90
       50
176
     1
 90
       50
176
     1
290
     0
176
     1
 90
       50
176
     1
 62
   256
176
     0
 40
1.0
176
     0
 90
        2
176
     1
  1
strokes_ogs.tif
176
     1
290
     0
176
     1
 40
1.0
176
     1
 40
1.0
176
     1
1001
ACAD
1000
AcDbSavedByObjectVersion
1070
     0
  0
VISUALSTYLE
  5
A3
102
{ACAD_REACTORS
330
2A
102
}
330
2A
100
AcDbVisualStyle
  2
OverhangOff
 70
    21
177
     3
291
     1
 70
    58
 90
        2
176
     0
 90
        2
176
     0
 90
        0
176
     0
 90
        0
176
     0
 40
0.6
176
     0
 40
30.0
176
     0
 62
     7
420
 16777215
176
     0
 90
        1
176
     0
 90
        4
176
     0
 62
     7
176
     0
 62
   257
176
     0
 90
        1
176
     0
 90
        1
176
     0
 40
1.0
176
     0
 90
        9
176
     2
 62
     7
176
     0
 40
1.0
176
     0
 90
        1
176
     0
 90
        6
176
     0
 90
        2
176
     0
 62
     7
176
     0
 90
        5
176
     0
 90
        0
176
     0
 90
        0
176
     0
290
     0
176
     0
 90
        1
176
     0
 40
0.0
176
     0
 90
        0
176
     0
290
     0
176
     1
290
     1
176
     1
290
     1
176
     1
290
     0
176
     1
290
     0
176
     1
290
     0
176
     1
290
     0
176
     1
290
     0
176
     1
290
     0
176
     1
 90
       50
176
     0
 40
0.0
176
     0
 40
1.0
176
     0
 90
        0
176
     0
 62
    18
420
        0
176
     0
 90
       50
176
     0
 90
        3
176
     0
 62
     5
420
      255
176
     0
290
     0
176
     1
 90
       50
176
     0
 90
       50
176
     0
 90
       50
176
     0
290
     0
176
     1
 90
       50
176
     0
 62
   256
176
     0
 40
1.0
176
     0
 90
        2
176
     0
  1
strokes_ogs.tif
176
     0
290
     0
176
     1
 40
1.0
176
     0
 40
1.0
176
     0
1001
ACAD
1000
AcDbSavedByObjectVersion
1070
     0
  0
VISUALSTYLE
  5
33
102
{ACAD_REACTORS
330
2A
102
}
330
2A
100
AcDbVisualStyle
  2
Realistic
 70
     8
177
     3
291
     0
 70
    58
 90
        2
176
     1
 90
        2
176
     1
 90
        0
176
     1
 90
        0
176
     1
 40
0.6
176
     1
 40
30.0
176
     1
 62
     7
420
 16777215
176
     1
 90
        1
176
     1
 90
        0
176
     1
 62
     7
176
     1
 62
   257
176
     1
 90
        1
176
     1
 90
        1
176
     1
 40
1.0
176
     1
 90
        8
176
     1
 62
     8
420
  7895160
176
     1
 40
1.0
176
     1
 90
        1
176
     1
 90
        6
176
     1
 90
        2
176
     1
 62
     7
176
     1
 90
        5
176
     1
 90
        0
176
     1
 90
        0
176
     1
290
     0
176
     1
 90
       13
176
     1
 40
0.0
176
     1
 90
        0
176
     1
290
     0
176
     1
290
     1
176
     1
290
     1
176
     1
290
     0
176
     1
290
     0
176
     1
290
     0
176
     1
290
     0
176
     1
290
     0
176
     1
290
     0
176
     1
 90
       50
176
     1
 40
0.0
176
     1
 40
1.0
176
     1
 90
        0
176
     1
 62
    18
420
        0
176
     1
 90
       50
176
     1
 90
        3
176
     1
 62
     5
420
      255
176
     1
290
     0
176
     1
 90
       50
176
     1
 90
       50
176
     1
 90
       50
176
     1
290
     0
176
     1
 90
       50
176
     1
 62
   256
176
     0
 40
1.0
176
     0
 90
        2
176
     1
  1
strokes_ogs.tif
176
     1
290
     0
176
     1
 40
1.0
176
     1
 40
1.0
176
     1
1001
ACAD
1000
AcDbSavedByObjectVersion
1070
     0
  0
VISUALSTYLE
  5
A1
102
{ACAD_REACTORS
330
2A
102
}
330
2A
100
AcDbVisualStyle
  2
Shaded
 70
    27
177
     3
291
     0
 70
    58
 90
        2
176
     1
 90
        2
176
     1
 90
        1
176
     1
 90
        2
176
     1
 40
0.6
176
     1
 40
30.0
176
     1
 62
     7
420
 16777215
176
     1
 90
        0
176
     1
 90
        4
176
     1
 62
     7
176
     1
 62
   257
176
     1
 90
        1
176
     1
 90
        1
176
     1
 40
1.0
176
     1
 90
        8
176
     1
 62
   257
176
     1
 40
1.0
176
     1
 90
        1
176
     1
 90
        6
176
     1
 90
        2
176
     1
 62
     8
420
  7895160
176
     1
 90
        3
176
     1
 90
        0
176
     1
 90
        0
176
     1
290
     0
176
     1
 90
        5
176
     1
 40
0.0
176
     1
 90
        0
176
     1
290
     0
176
     1
290
     1
176
     1
290
     1
176
     1
290
     0
176
     1
290
     0
176
     1
290
     0
176
     1
290
     0
176
     1
290
     0
176
     1
290
     0
176
     1
 90
       50
176
     1
 40
0.0
176
     1
 40
1.0
176
     1
 90
        0
176
     1
 62
    18
420
        0
176
     1
 90
       50
176
     1
 90
        3
176
     1
 62
     5
420
      255
176
     1
290
     0
176
     1
 90
       50
176
     1
 90
       50
176
     1
 90
       50
176
     1
290
     0
176
     1
 90
       50
176
     1
 62
   256
176
     0
 40
1.0
176
     0
 90
        2
176
     1
  1
strokes_ogs.tif
176
     1
290
     0
176
     1
 40
1.0
176
     1
 40
1.0
176
     1
1001
ACAD
1000
AcDbSavedByObjectVersion
1070
     0
  0
VISUALSTYLE
  5
A0
102
{ACAD_REACTORS
330
2A
102
}
330
2A
100
AcDbVisualStyle
  2
Shaded with edges
 70
    26
177
     3
291
     0
 70
    58
 90
        2
176
     1
 90
        2
176
     1
 90
        1
176
     1
 90
        2
176
     1
 40
0.6
176
     1
 40
30.0
176
     1
 62
     7
420
 16777215
176
     1
 90
        1
176
     1
 90
        2
176
     1
 62
     7
176
     1
 62
   257
176
     1
 90
        2
176
     1
 90
        1
176
     1
 40
1.0
176
     1
 90
        8
176
     1
 62
   257
176
     1
 40
1.0
176
     1
 90
        1
176
     1
 90
        6
176
     1
 90
        2
176
     1
 62
     7
176
     1
 90
        3
176
     1
 90
        0
176
     1
 90
        0
176
     1
290
     0
176
     1
 90
        5
176
     1
 40
0.0
176
     1
 90
        0
176
     1
290
     0
176
     1
290
     1
176
     1
290
     1
176
     1
290
     0
176
     1
290
     0
176
     1
290
     0
176
     1
290
     0
176
     1
290
     0
176
     1
290
     0
176
     1
 90
       50
176
     1
 40
0.0
176
     1
 40
1.0
176
     1
 90
        0
176
     1
 62
    18
420
        0
176
     1
 90
       50
176
     1
 90
        3
176
     1
 62
     5
420
      255
176
     1
290
     0
176
     1
 90
       50
176
     1
 90
       50
176
     1
 90
       50
176
     1
290
     0
176
     1
 90
       50
176
     1
 62
   256
176
     0
 40
1.0
176
     0
 90
        2
176
     1
  1
strokes_ogs.tif
176
     1
290
     0
176
     1
 40
1.0
176
     1
 40
1.0
176
     1
1001
ACAD
1000
AcDbSavedByObjectVersion
1070
     0
  0
VISUALSTYLE
  5
9D
102
{ACAD_REACTORS
330
2A
102
}
330
2A
100
AcDbVisualStyle
  2
Shades of Gray
 70
    23
177
     3
291
     0
 70
    58
 90
        2
176
     1
 90
        2
176
     1
 90
        3
176
     1
 90
        0
176
     1
 40
0.6
176
     1
 40
30.0
176
     1
 62
     7
420
 16777215
176
     1
 90
        2
176
     1
 90
        2
176
     1
 62
     7
176
     1
 62
     7
176
     1
 90
        1
176
     1
 90
        1
176
     1
 40
40.0
176
     1
 90
        8
176
     1
 62
     7
176
     1
 40
1.0
176
     1
 90
        1
176
     1
 90
        6
176
     1
 90
        2
176
     1
 62
     7
176
     1
 90
        3
176
     1
 90
        0
176
     1
 90
        0
176
     1
290
     0
176
     1
 90
        1
176
     1
 40
0.0
176
     1
 90
        0
176
     1
290
     0
176
     1
290
     1
176
     1
290
     1
176
     1
290
     0
176
     1
290
     0
176
     1
290
     0
176
     1
290
     0
176
     1
290
     0
176
     1
290
     0
176
     1
 90
       50
176
     1
 40
0.0
176
     1
 40
1.0
176
     1
 90
        0
176
     1
 62
    18
420
        0
176
     1
 90
       50
176
     1
 90
        3
176
     1
 62
     5
420
      255
176
     1
290
     0
176
     1
 90
       50
176
     1
 90
       50
176
     1
 90
       50
176
     1
290
     0
176
     1
 90
       50
176
     1
 62
   256
176
     0
 40
1.0
176
     0
 90
        2
176
     1
  1
strokes_ogs.tif
176
     1
290
     0
176
     1
 40
1.0
176
     1
 40
1.0
176
     1
1001
ACAD
1000
AcDbSavedByObjectVersion
1070
     0
  0
VISUALSTYLE
  5
9E
102
{ACAD_REACTORS
330
2A
102
}
330
2A
100
AcDbVisualStyle
  2
Sketchy
 70
    24
177
     3
291
     0
 70
    58
 90
        1
176
     1
 90
        2
176
     1
 90
        2
176
     1
 90
        0
176
     1
 40
0.6
176
     1
 40
30.0
176
     1
 62
     7
420
 16777215
176
     1
 90
        2
176
     1
 90
        2
176
     1
 62
     7
176
     1
 62
     7
176
     1
 90
        1
176
     1
 90
        1
176
     1
 40
40.0
176
     1
 90
       11
176
     1
 62
     7
176
     1
 40
1.0
176
     1
 90
        1
176
     1
 90
        6
176
     1
 90
        2
176
     1
 62
     7
176
     1
 90
        6
176
     1
 90
        0
176
     1
 90
        0
176
     1
290
     0
176
     1
 90
        1
176
     1
 40
0.0
176
     1
 90
        0
176
     1
290
     0
176
     1
290
     1
176
     1
290
     1
176
     1
290
     0
176
     1
290
     0
176
     1
290
     0
176
     1
290
     0
176
     1
290
     0
176
     1
290
     0
176
     1
 90
       50
176
     1
 40
0.0
176
     1
 40
1.0
176
     1
 90
        0
176
     1
 62
    18
420
        0
176
     1
 90
       50
176
     1
 90
        3
176
     1
 62
     5
420
      255
176
     1
290
     0
176
     1
 90
       50
176
     1
 90
       50
176
     1
 90
       50
176
     1
290
     0
176
     1
 90
       50
176
     1
 62
   256
176
     0
 40
1.0
176
     0
 90
        2
176
     1
  1
strokes_ogs.tif
176
     1
290
     0
176
     1
 40
1.0
176
     1
 40
1.0
176
     1
1001
ACAD
1000
AcDbSavedByObjectVersion
1070
     0
  0
VISUALSTYLE
  5
37
102
{ACAD_REACTORS
330
2A
102
}
330
2A
100
AcDbVisualStyle
  2
Thicken
 70
    13
177
     3
291
     1
 70
    58
 90
        2
176
     1
 90
        2
176
     1
 90
        0
176
     1
 90
        0
176
     1
 40
0.6
176
     1
 40
30.0
176
     1
 62
     7
420
 16777215
176
     1
 90
        1
176
     1
 90
        4
176
     1
 62
     7
176
     1
 62
   257
176
     1
 90
        1
176
     1
 90
        1
176
     1
 40
1.0
176
     1
 90
       12
176
     1
 62
     7
176
     1
 40
1.0
176
     1
 90
        1
176
     1
 90
        6
176
     1
 90
        2
176
     1
 62
     7
176
     1
 90
        5
176
     1
 90
        0
176
     1
 90
        0
176
     1
290
     0
176
     1
 90
        1
176
     1
 40
0.0
176
     1
 90
        0
176
     1
290
     0
176
     1
290
     1
176
     1
290
     1
176
     1
290
     0
176
     1
290
     0
176
     1
290
     0
176
     1
290
     0
176
     1
290
     0
176
     1
290
     0
176
     1
 90
       50
176
     1
 40
0.0
176
     1
 40
1.0
176
     1
 90
        0
176
     1
 62
    18
420
        0
176
     1
 90
       50
176
     1
 90
        3
176
     1
 62
     5
420
      255
176
     1
290
     0
176
     1
 90
       50
176
     1
 90
       50
176
     1
 90
       50
176
     1
290
     0
176
     1
 90
       50
176
     1
 62
   256
176
     0
 40
1.0
176
     0
 90
        2
176
     1
  1
strokes_ogs.tif
176
     1
290
     0
176
     1
 40
1.0
176
     1
 40
1.0
176
     1
1001
ACAD
1000
AcDbSavedByObjectVersion
1070
     0
  0
VISUALSTYLE
  5
9B
102
{ACAD_REACTORS
330
2A
102
}
330
2A
100
AcDbVisualStyle
  2
Wireframe
 70
     5
177
     3
291
     0
 70
    58
 90
        0
176
     1
 90
        2
176
     1
 90
        0
176
     1
 90
        0
176
     1
 40
0.6
176
     1
 40
30.0
176
     1
 62
     7
420
 16777215
176
     1
 90
        1
176
     1
 90
        4
176
     1
 62
     7
176
     1
 62
   257
176
     1
 90
        1
176
     1
 90
        1
176
     1
 40
1.0
176
     1
 90
        0
176
     1
 62
   257
176
     1
 40
1.0
176
     1
 90
        1
176
     1
 90
        6
176
     1
 90
        2
176
     1
 62
     7
176
     1
 90
        3
176
     1
 90
        0
176
     1
 90
        0
176
     1
290
     0
176
     1
 90
        1
176
     1
 40
0.0
176
     1
 90
        0
176
     1
290
     0
176
     1
290
     1
176
     1
290
     1
176
     1
290
     0
176
     1
290
     0
176
     1
290
     0
176
     1
290
     0
176
     1
290
     0
176
     1
290
     0
176
     1
 90
       50
176
     1
 40
0.0
176
     1
 40
1.0
176
     1
 90
        0
176
     1
 62
    18
420
        0
176
     1
 90
       50
176
     1
 90
        3
176
     1
 62
     5
420
      255
176
     1
290
     0
176
     1
 90
       50
176
     1
 90
       50
176
     1
 90
       50
176
     1
290
     0
176
     1
 90
       50
176
     1
 62
   256
176
     0
 40
1.0
176
     0
 90
        2
176
     1
  1
strokes_ogs.tif
176
     1
290
     0
176
     1
 40
1.0
176
     1
 40
1.0
176
     1
1001
ACAD
1000
AcDbSavedByObjectVersion
1070
     0
  0
VISUALSTYLE
  5
9F
102
{ACAD_REACTORS
330
2A
102
}
330
2A
100
AcDbVisualStyle
  2
X-Ray
 70
    25
177
     3
291
     0
 70
    58
 90
        2
176
     1
 90
        2
176
     1
 90
        1
176
     1
 90
        1
176
     1
 40
0.5
176
     1
 40
30.0
176
     1
 62
     7
420
 16777215
176
     1
 90
        1
176
     1
 90
        0
176
     1
 62
     7
176
     1
 62
   257
176
     1
 90
        1
176
     1
 90
        1
176
     1
 40
1.0
176
     1
 90
        8
176
     1
 62
     7
176
     1
 40
1.0
176
     1
 90
        1
176
     1
 90
        6
176
     1
 90
        2
176
     1
 62
     7
176
     1
 90
        3
176
     1
 90
        0
176
     1
 90
        0
176
     1
290
     0
176
     1
 90
       13
176
     1
 40
0.0
176
     1
 90
        0
176
     1
290
     0
176
     1
290
     1
176
     1
290
     1
176
     1
290
     0
176
     1
290
     0
176
     1
290
     0
176
     1
290
     0
176
     1
290
     0
176
     1
290
     0
176
     1
 90
       50
176
     1
 40
0.0
176
     1
 40
1.0
176
     1
 90
        0
176
     1
 62
    18
420
        0
176
     1
 90
       50
176
     1
 90
        3
176
     1
 62
     5
420
      255
176
     1
290
     0
176
     1
 90
       50
176
     1
 90
       50
176
     1
 90
       50
176
     1
290
     0
176
     1
 90
       50
176
     1
 62
   256
176
     0
 40
1.0
176
     0
 90
        2
176
     1
  1
strokes_ogs.tif
176
     1
290
     0
176
     1
 40
1.0
176
     1
 40
1.0
176
     1
1001
ACAD
1000
AcDbSavedByObjectVersion
1070
     0
  0
DICTIONARYVAR
  5
101
102
{ACAD_REACTORS
330
FC
102
}
330
FC
100
DictionaryVariables
280
     0
  1
1:1
  0
DICTIONARYVAR
  5
FE
102
{ACAD_REACTORS
330
FC
102
}
330
FC
100
DictionaryVariables
280
     0
  1
STANDARD
  0
DICTIONARYVAR
  5
FD
102
{ACAD_REACTORS
330
FC
102
}
330
FC
100
DictionaryVariables
280
     0
  1
STANDARD
  0
DICTIONARYVAR
  5
FF
102
{ACAD_REACTORS
330
FC
102
}
330
FC
100
DictionaryVariables
280
     0
  1
Imperial24
  0
DICTIONARYVAR
  5
100
102
{ACAD_REACTORS
330
FC
102
}
330
FC
100
DictionaryVariables
280
     0
  1
Imperial24
  0
DICTIONARY
  5
108
330
C1
100
AcDbDictionary
280
     1
281
     1
  3
ACAD_XREC_ROUNDTRIP
360
109
  0
DICTIONARY
  5
106
330
BF
100
AcDbDictionary
280
     1
281
     1
  3
ACAD_XREC_ROUNDTRIP
360
107
  0
DICTIONARY
  5
103
330
A6
100
AcDbDictionary
280
     1
281
     1
  3
ACAD_ROUNDTRIP_2008_TABLESTYLE_CELLSTYLEMAP
360
104
  0
XRECORD
  5
109
102
{ACAD_REACTORS
330
108
102
}
330
108
100
AcDbXrecord
280
     1
102
DISPLAYNAME
  1
Imperial24
102
FLAGS
 90
        0
  0
XRECORD
  5
107
102
{ACAD_REACTORS
330
106
102
}
330
106
100
AcDbXrecord
280
     1
102
DISPLAYNAME
  1
Imperial24
102
FLAGS
 90
        0
  0
CELLSTYLEMAP
  5
104
102
{ACAD_REACTORS
330
103
102
}
330
103
100
AcDbCellStyleMap
 90
        3
300
CELLSTYLE
  1
TABLEFORMAT_BEGIN
 90
        5
170
     1
 91
        0
 92
    32768
 62
   257
 93
        1
300
CONTENTFORMAT
  1
CONTENTFORMAT_BEGIN
 90
        0
 91
        0
 92
      512
 93
        0
300

 40
0.0
140
1.0
 94
        5
 62
     0
340
11
144
0.25
309
CONTENTFORMAT_END
171
     0
 94
        0
309
TABLEFORMAT_END
  1
CELLSTYLE_BEGIN
 90
        1
 91
        1
300
_TITLE
309
CELLSTYLE_END
300
CELLSTYLE
  1
TABLEFORMAT_BEGIN
 90
        5
170
     1
 91
        0
 92
        0
 62
   257
 93
        1
300
CONTENTFORMAT
  1
CONTENTFORMAT_BEGIN
 90
        0
 91
        0
 92
      512
 93
        0
300

 40
0.0
140
1.0
 94
        5
 62
     0
340
11
144
0.18
309
CONTENTFORMAT_END
171
     0
 94
        0
309
TABLEFORMAT_END
  1
CELLSTYLE_BEGIN
 90
        2
 91
        1
300
_HEADER
309
CELLSTYLE_END
300
CELLSTYLE
  1
TABLEFORMAT_BEGIN
 90
        5
170
     1
 91
        0
 92
        0
 62
   257
 93
        1
300
CONTENTFORMAT
  1
CONTENTFORMAT_BEGIN
 90
        0
 91
        0
 92
      512
 93
        0
300

 40
0.0
140
1.0
 94
        2
 62
     0
340
11
144
0.18
309
CONTENTFORMAT_END
171
     0
 94
        0
309
TABLEFORMAT_END
  1
CELLSTYLE_BEGIN
 90
        3
 91
        2
300
_DATA
309
CELLSTYLE_END
  0
ENDSEC
  0
EOF
