  0
SECTION
  2
HEADER
  9
$ACADVER
  1
AC1027
  9
$ACADMAINTVER
 70
   125
  9
$DWGCODEPAGE
  3
ANSI_1252
  9
$LASTSAVEDBY
  1
andrea.ragusa
  9
$REQUIREDVERSIONS
160
                 0
  9
$INSBASE
 10
0.0
 20
0.0
 30
0.0
  9
$EXTMIN
 10
60.06658970434023
 20
-107.0240958063785
 30
-0.0015258207003583
  9
$EXTMAX
 10
97.65362537425259
 20
-89.40659262523675
 30
0.0000000349246037
  9
$LIMMIN
 10
0.0
 20
0.0
  9
$LIMMAX
 10
12.0
 20
9.0
  9
$ORTHOMODE
 70
     0
  9
$REGENMODE
 70
     1
  9
$FILLMODE
 70
     1
  9
$QTEXTMODE
 70
     0
  9
$MIRRTEXT
 70
     1
  9
$LTSCALE
 40
1.0
  9
$ATTMODE
 70
     1
  9
$TEXTSIZE
 40
0.2
  9
$TRACEWID
 40
0.05
  9
$TEXTSTYLE
  7
Standard
  9
$CLAYER
  8
0
  9
$CELTYPE
  6
ByLayer
  9
$CECOLOR
 62
   256
  9
$CELTSCALE
 40
1.0
  9
$DISPSILH
 70
     0
  9
$DIMSCALE
 40
1.0
  9
$DIMASZ
 40
0.18
  9
$DIMEXO
 40
0.0625
  9
$DIMDLI
 40
0.38
  9
$DIMRND
 40
0.0
  9
$DIMDLE
 40
0.0
  9
$DIMEXE
 40
0.18
  9
$DIMTP
 40
0.0
  9
$DIMTM
 40
0.0
  9
$DIMTXT
 40
0.18
  9
$DIMCEN
 40
0.09
  9
$DIMTSZ
 40
0.0
  9
$DIMTOL
 70
     0
  9
$DIMLIM
 70
     0
  9
$DIMTIH
 70
     1
  9
$DIMTOH
 70
     1
  9
$DIMSE1
 70
     0
  9
$DIMSE2
 70
     0
  9
$DIMTAD
 70
     0
  9
$DIMZIN
 70
     0
  9
$DIMBLK
  1

  9
$DIMASO
 70
     1
  9
$DIMSHO
 70
     1
  9
$DIMPOST
  1

  9
$DIMAPOST
  1

  9
$DIMALT
 70
     0
  9
$DIMALTD
 70
     2
  9
$DIMALTF
 40
25.4
  9
$DIMLFAC
 40
1.0
  9
$DIMTOFL
 70
     0
  9
$DIMTVP
 40
0.0
  9
$DIMTIX
 70
     0
  9
$DIMSOXD
 70
     0
  9
$DIMSAH
 70
     0
  9
$DIMBLK1
  1

  9
$DIMBLK2
  1

  9
$DIMSTYLE
  2
Standard
  9
$DIMCLRD
 70
     0
  9
$DIMCLRE
 70
     0
  9
$DIMCLRT
 70
     0
  9
$DIMTFAC
 40
1.0
  9
$DIMGAP
 40
0.09
  9
$DIMJUST
 70
     0
  9
$DIMSD1
 70
     0
  9
$DIMSD2
 70
     0
  9
$DIMTOLJ
 70
     1
  9
$DIMTZIN
 70
     0
  9
$DIMALTZ
 70
     0
  9
$DIMALTTZ
 70
     0
  9
$DIMUPT
 70
     0
  9
$DIMDEC
 70
     4
  9
$DIMTDEC
 70
     4
  9
$DIMALTU
 70
     2
  9
$DIMALTTD
 70
     2
  9
$DIMTXSTY
  7
Standard
  9
$DIMAUNIT
 70
     0
  9
$DIMADEC
 70
     0
  9
$DIMALTRND
 40
0.0
  9
$DIMAZIN
 70
     0
  9
$DIMDSEP
 70
    46
  9
$DIMATFIT
 70
     3
  9
$DIMFRAC
 70
     0
  9
$DIMLDRBLK
  1

  9
$DIMLUNIT
 70
     2
  9
$DIMLWD
 70
    -2
  9
$DIMLWE
 70
    -2
  9
$DIMTMOVE
 70
     0
  9
$DIMFXL
 40
1.0
  9
$DIMFXLON
 70
     0
  9
$DIMJOGANG
 40
0.7853981633974483
  9
$DIMTFILL
 70
     0
  9
$DIMTFILLCLR
 70
     0
  9
$DIMARCSYM
 70
     0
  9
$DIMLTYPE
  6

  9
$DIMLTEX1
  6

  9
$DIMLTEX2
  6

  9
$DIMTXTDIRECTION
 70
     0
  9
$LUNITS
 70
     2
  9
$LUPREC
 70
     4
  9
$SKETCHINC
 40
0.1
  9
$FILLETRAD
 40
0.5
  9
$AUNITS
 70
     0
  9
$AUPREC
 70
     0
  9
$MENU
  1
.
  9
$ELEVATION
 40
0.0
  9
$PELEVATION
 40
0.0
  9
$THICKNESS
 40
0.0
  9
$LIMCHECK
 70
     0
  9
$CHAMFERA
 40
0.5
  9
$CHAMFERB
 40
0.5
  9
$CHAMFERC
 40
1.0
  9
$CHAMFERD
 40
0.0
  9
$SKPOLY
 70
     0
  9
$TDCREATE
 40
2459019.724710648
  9
$TDUCREATE
 40
2459019.641386389
  9
$TDUPDATE
 40
2459052.626875000
  9
$TDUUPDATE
 40
2459052.543541667
  9
$TDINDWG
 40
0.0059953819
  9
$TDUSRTIMER
 40
0.0059953819
  9
$USRTIMER
 70
     1
  9
$ANGBASE
 50
0.0
  9
$ANGDIR
 70
     0
  9
$PDMODE
 70
     0
  9
$PDSIZE
 40
0.0
  9
$PLINEWID
 40
0.0
  9
$SPLFRAME
 70
     0
  9
$SPLINETYPE
 70
     6
  9
$SPLINESEGS
 70
     8
  9
$HANDSEED
  5
242
  9
$SURFTAB1
 70
     6
  9
$SURFTAB2
 70
     6
  9
$SURFTYPE
 70
     6
  9
$SURFU
 70
     6
  9
$SURFV
 70
     6
  9
$UCSBASE
  2

  9
$UCSNAME
  2

  9
$UCSORG
 10
0.0
 20
0.0
 30
0.0
  9
$UCSXDIR
 10
1.0
 20
0.0
 30
0.0
  9
$UCSYDIR
 10
0.0
 20
1.0
 30
0.0
  9
$UCSORTHOREF
  2

  9
$UCSORTHOVIEW
 70
     0
  9
$UCSORGTOP
 10
0.0
 20
0.0
 30
0.0
  9
$UCSORGBOTTOM
 10
0.0
 20
0.0
 30
0.0
  9
$UCSORGLEFT
 10
0.0
 20
0.0
 30
0.0
  9
$UCSORGRIGHT
 10
0.0
 20
0.0
 30
0.0
  9
$UCSORGFRONT
 10
0.0
 20
0.0
 30
0.0
  9
$UCSORGBACK
 10
0.0
 20
0.0
 30
0.0
  9
$PUCSBASE
  2

  9
$PUCSNAME
  2

  9
$PUCSORG
 10
0.0
 20
0.0
 30
0.0
  9
$PUCSXDIR
 10
1.0
 20
0.0
 30
0.0
  9
$PUCSYDIR
 10
0.0
 20
1.0
 30
0.0
  9
$PUCSORTHOREF
  2

  9
$PUCSORTHOVIEW
 70
     0
  9
$PUCSORGTOP
 10
0.0
 20
0.0
 30
0.0
  9
$PUCSORGBOTTOM
 10
0.0
 20
0.0
 30
0.0
  9
$PUCSORGLEFT
 10
0.0
 20
0.0
 30
0.0
  9
$PUCSORGRIGHT
 10
0.0
 20
0.0
 30
0.0
  9
$PUCSORGFRONT
 10
0.0
 20
0.0
 30
0.0
  9
$PUCSORGBACK
 10
0.0
 20
0.0
 30
0.0
  9
$USERI1
 70
     0
  9
$USERI2
 70
     0
  9
$USERI3
 70
     0
  9
$USERI4
 70
     0
  9
$USERI5
 70
     0
  9
$USERR1
 40
0.0
  9
$USERR2
 40
0.0
  9
$USERR3
 40
0.0
  9
$USERR4
 40
0.0
  9
$USERR5
 40
0.0
  9
$WORLDVIEW
 70
     1
  9
$SHADEDGE
 70
     3
  9
$SHADEDIF
 70
    70
  9
$TILEMODE
 70
     1
  9
$MAXACTVP
 70
    64
  9
$PINSBASE
 10
0.0
 20
0.0
 30
0.0
  9
$PLIMCHECK
 70
     0
  9
$PEXTMIN
 10
1.000000000000000E+20
 20
1.000000000000000E+20
 30
1.000000000000000E+20
  9
$PEXTMAX
 10
-1.000000000000000E+20
 20
-1.000000000000000E+20
 30
-1.000000000000000E+20
  9
$PLIMMIN
 10
0.0
 20
0.0
  9
$PLIMMAX
 10
12.0
 20
9.0
  9
$UNITMODE
 70
     0
  9
$VISRETAIN
 70
     1
  9
$PLINEGEN
 70
     0
  9
$PSLTSCALE
 70
     1
  9
$TREEDEPTH
 70
  3020
  9
$CMLSTYLE
  2
Standard
  9
$CMLJUST
 70
     0
  9
$CMLSCALE
 40
1.0
  9
$PROXYGRAPHICS
 70
     1
  9
$MEASUREMENT
 70
     0
  9
$CELWEIGHT
370
    -1
  9
$ENDCAPS
280
     0
  9
$JOINSTYLE
280
     0
  9
$LWDISPLAY
290
     1
  9
$INSUNITS
 70
     4
  9
$HYPERLINKBASE
  1

  9
$STYLESHEET
  1

  9
$XEDIT
290
     1
  9
$CEPSNTYPE
380
     0
  9
$PSTYLEMODE
290
     1
  9
$FINGERPRINTGUID
  2
{64FA742A-D0F7-4AD5-A5FA-AE811D05566F}
  9
$VERSIONGUID
  2
{1F0E8C4C-211A-194F-BE8D-BB770DF2DCD2}
  9
$EXTNAMES
290
     1
  9
$PSVPSCALE
 40
0.0
  9
$OLESTARTUP
290
     0
  9
$SORTENTS
280
   127
  9
$INDEXCTL
280
     0
  9
$HIDETEXT
280
     1
  9
$XCLIPFRAME
280
     2
  9
$HALOGAP
280
     0
  9
$OBSCOLOR
 70
   257
  9
$OBSLTYPE
280
     0
  9
$INTERSECTIONDISPLAY
280
     0
  9
$INTERSECTIONCOLOR
 70
   257
  9
$DIMASSOC
280
     2
  9
$PROJECTNAME
  1

  9
$CAMERADISPLAY
290
     0
  9
$LENSLENGTH
 40
50.0
  9
$CAMERAHEIGHT
 40
0.0
  9
$STEPSPERSEC
 40
2.0
  9
$STEPSIZE
 40
6.0
  9
$3DDWFPREC
 40
2.0
  9
$PSOLWIDTH
 40
0.25
  9
$PSOLHEIGHT
 40
4.0
  9
$LOFTANG1
 40
1.570796326794897
  9
$LOFTANG2
 40
1.570796326794897
  9
$LOFTMAG1
 40
0.0
  9
$LOFTMAG2
 40
0.0
  9
$LOFTPARAM
 70
     7
  9
$LOFTNORMALS
280
     1
  9
$LATITUDE
 40
37.795
  9
$LONGITUDE
 40
-122.394
  9
$NORTHDIRECTION
 40
0.0
  9
$TIMEZONE
 70
 -8000
  9
$LIGHTGLYPHDISPLAY
280
     1
  9
$TILEMODELIGHTSYNCH
280
     1
  9
$CMATERIAL
347
3C
  9
$SOLIDHIST
280
     1
  9
$SHOWHIST
280
     1
  9
$DWFFRAME
280
     2
  9
$DGNFRAME
280
     2
  9
$REALWORLDSCALE
290
     1
  9
$INTERFERECOLOR
 62
   256
  9
$INTERFEREOBJVS
345
33
  9
$INTERFEREVPVS
346
104
  9
$CSHADOW
280
     0
  9
$SHADOWPLANELOCATION
 40
0.0
  0
ENDSEC
  0
SECTION
  2
CLASSES
  0
CLASS
  1
ACDBDICTIONARYWDFLT
  2
AcDbDictionaryWithDefault
  3
ObjectDBX Classes
 90
        0
 91
        1
280
     0
281
     0
  0
CLASS
  1
VISUALSTYLE
  2
AcDbVisualStyle
  3
ObjectDBX Classes
 90
     4095
 91
       26
280
     0
281
     0
  0
CLASS
  1
MATERIAL
  2
AcDbMaterial
  3
ObjectDBX Classes
 90
     1153
 91
        3
280
     0
281
     0
  0
CLASS
  1
SUN
  2
AcDbSun
  3
SCENEOE
 90
     1153
 91
        1
280
     0
281
     0
  0
CLASS
  1
TABLESTYLE
  2
AcDbTableStyle
  3
ObjectDBX Classes
 90
     4095
 91
        1
280
     0
281
     0
  0
CLASS
  1
SCALE
  2
AcDbScale
  3
ObjectDBX Classes
 90
     1153
 91
       21
280
     0
281
     0
  0
CLASS
  1
MLEADERSTYLE
  2
AcDbMLeaderStyle
  3
ACDB_MLEADERSTYLE_CLASS
 90
     4095
 91
        1
280
     0
281
     0
  0
CLASS
  1
ACDBSECTIONVIEWSTYLE
  2
AcDbSectionViewStyle
  3
ObjectDBX Classes
 90
     1025
 91
        1
280
     0
281
     0
  0
CLASS
  1
ACDBDETAILVIEWSTYLE
  2
AcDbDetailViewStyle
  3
ObjectDBX Classes
 90
     1025
 91
        1
280
     0
281
     0
  0
CLASS
  1
SORTENTSTABLE
  2
AcDbSortentsTable
  3
ObjectDBX Classes
 90
        0
 91
        1
280
     0
281
     0
  0
CLASS
  1
DICTIONARYVAR
  2
AcDbDictionaryVar
  3
ObjectDBX Classes
 90
        0
 91
        5
280
     0
281
     0
  0
CLASS
  1
CELLSTYLEMAP
  2
AcDbCellStyleMap
  3
ObjectDBX Classes
 90
     1152
 91
        2
280
     0
281
     0
  0
ENDSEC
  0
SECTION
  2
TABLES
  0
TABLE
  2
VPORT
  5
8
330
0
100
AcDbSymbolTable
 70
     1
1001
ACAD
1000
DbSaveVer
1071
      208
  0
VPORT
  5
29
330
8
100
AcDbSymbolTableRecord
100
AcDbViewportTableRecord
  2
*Active
 70
     0
 10
0.0
 20
0.0
 11
1.0
 21
1.0
 12
-20.49003577034185
 22
52.1626393631627
 13
0.0
 23
0.0
 14
0.5
 24
0.5
 15
0.5
 25
0.5
 16
0.0
 26
0.0
 36
1.0
 17
104.9999999737534
 27
-148.4999999628701
 37
0.0
 40
31.32773845407441
 41
1.209798994974874
 42
50.0
 43
0.0
 44
0.0
 50
0.0
 51
0.0
 71
     0
 72
   100
 73
     1
 74
     3
 75
     0
 76
     0
 77
     0
 78
     0
281
     0
 65
     1
110
0.0
120
0.0
130
0.0
111
1.0
121
0.0
131
0.0
112
0.0
122
1.0
132
0.0
 79
     0
146
0.0
348
2F
 60
     3
 61
     5
292
     1
282
     1
141
0.0
142
0.0
 63
   250
361
3F
1001
ACAD_NAV_VCDISPLAY
1070
     3
  0
ENDTAB
  0
TABLE
  2
LTYPE
  5
5
330
0
100
AcDbSymbolTable
 70
     2
  0
LTYPE
  5
14
330
5
100
AcDbSymbolTableRecord
100
AcDbLinetypeTableRecord
  2
ByBlock
 70
     0
  3

 72
    65
 73
     0
 40
0.0
  0
LTYPE
  5
15
330
5
100
AcDbSymbolTableRecord
100
AcDbLinetypeTableRecord
  2
ByLayer
 70
     0
  3

 72
    65
 73
     0
 40
0.0
  0
LTYPE
  5
16
330
5
100
AcDbSymbolTableRecord
100
AcDbLinetypeTableRecord
  2
Continuous
 70
     0
  3
Solid line
 72
    65
 73
     0
 40
0.0
  0
ENDTAB
  0
TABLE
  2
LAYER
  5
2
102
{ACAD_XDICTIONARY
360
1FD
102
}
330
0
100
AcDbSymbolTable
 70
     2
  0
LAYER
  5
10
330
2
100
AcDbSymbolTableRecord
100
AcDbLayerTableRecord
  2
0
 70
     0
 62
     7
  6
Continuous
370
    -3
390
F
347
3E
348
0
  0
LAYER
  5
40
330
2
100
AcDbSymbolTableRecord
100
AcDbLayerTableRecord
  2
Livello 1
 70
     0
 62
     7
  6
Continuous
370
    -3
390
F
347
3E
348
0
  0
ENDTAB
  0
TABLE
  2
STYLE
  5
3
330
0
100
AcDbSymbolTable
 70
     1
  0
STYLE
  5
11
330
3
100
AcDbSymbolTableRecord
100
AcDbTextStyleTableRecord
  2
Standard
 70
     0
 40
0.0
 41
1.0
 50
0.0
 71
     0
 42
0.2
  3
txt
  4

  0
ENDTAB
  0
TABLE
  2
VIEW
  5
6
330
0
100
AcDbSymbolTable
 70
     1
  0
ENDTAB
  0
TABLE
  2
UCS
  5
7
330
0
100
AcDbSymbolTable
 70
     0
  0
ENDTAB
  0
TABLE
  2
APPID
  5
9
330
0
100
AcDbSymbolTable
 70
     4
  0
APPID
  5
12
330
9
100
AcDbSymbolTableRecord
100
AcDbRegAppTableRecord
  2
ACAD
 70
     0
  0
APPID
  5
1B8
330
9
100
AcDbSymbolTableRecord
100
AcDbRegAppTableRecord
  2
ACAD_NAV_VCDISPLAY
 70
     0
  0
APPID
  5
1F0
330
9
100
AcDbSymbolTableRecord
100
AcDbRegAppTableRecord
  2
ACAD_MLEADERVER
 70
     0
  0
APPID
  5
22B
330
9
100
AcDbSymbolTableRecord
100
AcDbRegAppTableRecord
  2
ACAD_EXEMPT_FROM_CAD_STANDARDS
 70
     0
  0
ENDTAB
  0
TABLE
  2
DIMSTYLE
  5
A
330
0
100
AcDbSymbolTable
 70
     1
100
AcDbDimStyleTable
 71
     0
  0
DIMSTYLE
105
27
330
A
100
AcDbSymbolTableRecord
100
AcDbDimStyleTableRecord
  2
Standard
 70
     0
340
11
  0
ENDTAB
  0
TABLE
  2
BLOCK_RECORD
  5
1
330
0
100
AcDbSymbolTable
 70
     8
  0
BLOCK_RECORD
  5
1F
102
{ACAD_XDICTIONARY
360
12F
102
}
330
1
100
AcDbSymbolTableRecord
100
AcDbBlockTableRecord
  2
*Model_Space
340
22
 70
     0
280
     1
281
     0
  0
BLOCK_RECORD
  5
1B
330
1
100
AcDbSymbolTableRecord
100
AcDbBlockTableRecord
  2
*Paper_Space
340
1E
 70
     0
280
     1
281
     0
  0
BLOCK_RECORD
  5
23
330
1
100
AcDbSymbolTableRecord
100
AcDbBlockTableRecord
  2
*Paper_Space0
340
26
 70
     0
280
     1
281
     0
  0
BLOCK_RECORD
  5
45
330
1
100
AcDbSymbolTableRecord
100
AcDbBlockTableRecord
  2
block 2
340
0
 70
     0
280
     1
281
     0
  0
BLOCK_RECORD
  5
58
330
1
100
AcDbSymbolTableRecord
100
AcDbBlockTableRecord
  2
block 3
340
0
 70
     0
280
     1
281
     0
  0
BLOCK_RECORD
  5
6B
330
1
100
AcDbSymbolTableRecord
100
AcDbBlockTableRecord
  2
block 4
340
0
 70
     0
280
     1
281
     0
  0
BLOCK_RECORD
  5
7C
330
1
100
AcDbSymbolTableRecord
100
AcDbBlockTableRecord
  2
block 5
340
0
 70
     0
280
     1
281
     0
  0
BLOCK_RECORD
  5
89
330
1
100
AcDbSymbolTableRecord
100
AcDbBlockTableRecord
  2
block 6
340
0
 70
     0
280
     1
281
     0
  0
BLOCK_RECORD
  5
96
330
1
100
AcDbSymbolTableRecord
100
AcDbBlockTableRecord
  2
block 7
340
0
 70
     0
280
     1
281
     0
  0
BLOCK_RECORD
  5
CB
330
1
100
AcDbSymbolTableRecord
100
AcDbBlockTableRecord
  2
block 8
340
0
 70
     0
280
     1
281
     0
  0
ENDTAB
  0
ENDSEC
  0
SECTION
  2
BLOCKS
  0
BLOCK
  5
20
330
1F
100
AcDbEntity
  8
0
100
AcDbBlockBegin
  2
*Model_Space
 70
     0
 10
0.0
 20
0.0
 30
0.0
  3
*Model_Space
  1

  0
ENDBLK
  5
21
330
1F
100
AcDbEntity
  8
0
100
AcDbBlockEnd
  0
BLOCK
  5
1C
330
1B
100
AcDbEntity
 67
     1
  8
0
100
AcDbBlockBegin
  2
*Paper_Space
 70
     0
 10
0.0
 20
0.0
 30
0.0
  3
*Paper_Space
  1

  0
ENDBLK
  5
1D
330
1B
100
AcDbEntity
 67
     1
  8
0
100
AcDbBlockEnd
  0
BLOCK
  5
24
330
23
100
AcDbEntity
 67
     1
  8
0
100
AcDbBlockBegin
  2
*Paper_Space0
 70
     0
 10
0.0
 20
0.0
 30
0.0
  3
*Paper_Space0
  1

  0
ENDBLK
  5
25
330
23
100
AcDbEntity
 67
     1
  8
0
100
AcDbBlockEnd
  0
BLOCK
  5
47
330
45
100
AcDbEntity
  8
0
100
AcDbBlockBegin
  2
block 2
 70
     0
 10
0.0
 20
0.0
 30
0.0
  3
block 2
  1

  0
SPLINE
  5
49
330
45
100
AcDbEntity
  8
Livello 1
370
     0
100
AcDbSpline
210
0.0
220
0.0
230
1.0
 70
     9
 71
     3
 72
    17
 73
    13
 74
     0
 42
0.000000001
 43
0.0000000001
 40
0.0
 40
0.0
 40
0.0
 40
0.0
 40
1.0
 40
1.0
 40
1.0
 40
2.0
 40
2.0
 40
2.0
 40
3.0
 40
3.0
 40
3.0
 40
4.0
 40
4.0
 40
4.0
 40
4.0
 10
73.83704770101665
 20
-90.11612728185415
 30
0.0
 10
74.03178037757999
 20
-90.11612728185415
 30
0.0
 10
74.18982547870624
 20
-89.95808285359812
 30
0.0
 10
74.18982547870624
 20
-89.76334950416458
 30
0.0
 10
74.18982547870624
 20
-89.56861615473105
 30
0.0
 10
74.03178037757999
 20
-89.41057172647498
 30
0.0
 10
73.83704770101665
 20
-89.41057172647498
 30
0.0
 10
73.64231367871292
 20
-89.41057172647498
 30
0.0
 10
73.48426992332708
 20
-89.56861615473105
 30
0.0
 10
73.48426992332708
 20
-89.76334950416458
 30
0.0
 10
73.48426992332708
 20
-89.95808285359812
 30
0.0
 10
73.64231367871292
 20
-90.11612728185415
 30
0.0
 10
73.83704770101665
 20
-90.11612728185415
 30
0.0
  0
HATCH
  5
4A
330
45
100
AcDbEntity
  8
Livello 1
 62
   252
420
  8882054
100
AcDbHatch
 10
0.0
 20
0.0
 30
0.0
210
0.0
220
0.0
230
1.0
  2
SOLID
 70
     1
 71
     0
 91
        1
 92
        1
 93
        2
 72
     4
 94
        3
 73
     0
 74
     0
 95
       17
 96
       13
 40
0.0
 40
0.0
 40
0.0
 40
0.0
 40
0.3527777776895833
 40
0.3527777776895833
 40
0.3527777776895833
 40
0.7055555553791667
 40
0.7055555553791667
 40
0.7055555553791667
 40
1.05833333306875
 40
1.05833333306875
 40
1.05833333306875
 40
1.411111110758331
 40
1.411111110758331
 40
1.411111110758331
 40
1.411111110758331
 10
73.83704770101665
 20
-90.11612728185415
 10
74.03178037757999
 20
-90.11612728185415
 10
74.18982547870624
 20
-89.95808285359812
 10
74.18982547870624
 20
-89.76334950416458
 10
74.18982547870624
 20
-89.56861615473105
 10
74.03178037757999
 20
-89.41057172647498
 10
73.83704770101665
 20
-89.41057172647498
 10
73.64231367871292
 20
-89.41057172647498
 10
73.48426992332708
 20
-89.56861615473105
 10
73.48426992332708
 20
-89.76334950416458
 10
73.48426992332708
 20
-89.95808285359812
 10
73.64231367871292
 20
-90.11612728185415
 10
73.83704770101665
 20
-90.11612728185415
 97
        0
 72
     1
 10
73.83704770101665
 20
-90.11612728185415
 11
73.83704770101665
 21
-90.11612728185415
 97
        0
 75
     2
 76
     1
 98
        0
450
        0
451
        0
460
0.0
461
0.0
452
        0
462
0.0
453
        0
470

  0
SPLINE
  5
4B
330
45
100
AcDbEntity
  8
Livello 1
370
     0
100
AcDbSpline
210
0.0
220
0.0
230
1.0
 70
     9
 71
     3
 72
    17
 73
    13
 74
     0
 42
0.000000001
 43
0.0000000001
 40
0.0
 40
0.0
 40
0.0
 40
0.0
 40
1.0
 40
1.0
 40
1.0
 40
2.0
 40
2.0
 40
2.0
 40
3.0
 40
3.0
 40
3.0
 40
4.0
 40
4.0
 40
4.0
 40
4.0
 10
73.83704770101665
 20
-92.74125236088268
 30
0.0
 10
74.03178037757999
 20
-92.74125236088268
 30
0.0
 10
74.18982547870624
 20
-92.58320793262665
 30
0.0
 10
74.18982547870624
 20
-92.38847458319307
 30
0.0
 10
74.18982547870624
 20
-92.19374123375954
 30
0.0
 10
74.03178037757999
 20
-92.0356968055035
 30
0.0
 10
73.83704770101665
 20
-92.0356968055035
 30
0.0
 10
73.64231367871292
 20
-92.0356968055035
 30
0.0
 10
73.48426992332708
 20
-92.19374123375954
 30
0.0
 10
73.48426992332708
 20
-92.38847458319307
 30
0.0
 10
73.48426992332708
 20
-92.58320793262665
 30
0.0
 10
73.64231367871292
 20
-92.74125236088268
 30
0.0
 10
73.83704770101665
 20
-92.74125236088268
 30
0.0
  0
HATCH
  5
4C
330
45
100
AcDbEntity
  8
Livello 1
 62
   252
420
  8882054
100
AcDbHatch
 10
0.0
 20
0.0
 30
0.0
210
0.0
220
0.0
230
1.0
  2
SOLID
 70
     1
 71
     0
 91
        1
 92
        1
 93
        2
 72
     4
 94
        3
 73
     0
 74
     0
 95
       17
 96
       13
 40
0.0
 40
0.0
 40
0.0
 40
0.0
 40
0.3527777776895833
 40
0.3527777776895833
 40
0.3527777776895833
 40
0.7055555553791667
 40
0.7055555553791667
 40
0.7055555553791667
 40
1.05833333306875
 40
1.05833333306875
 40
1.05833333306875
 40
1.411111110758331
 40
1.411111110758331
 40
1.411111110758331
 40
1.411111110758331
 10
73.83704770101665
 20
-92.74125236088268
 10
74.03178037757999
 20
-92.74125236088268
 10
74.18982547870624
 20
-92.58320793262665
 10
74.18982547870624
 20
-92.38847458319307
 10
74.18982547870624
 20
-92.19374123375954
 10
74.03178037757999
 20
-92.0356968055035
 10
73.83704770101665
 20
-92.0356968055035
 10
73.64231367871292
 20
-92.0356968055035
 10
73.48426992332708
 20
-92.19374123375954
 10
73.48426992332708
 20
-92.38847458319307
 10
73.48426992332708
 20
-92.58320793262665
 10
73.64231367871292
 20
-92.74125236088268
 10
73.83704770101665
 20
-92.74125236088268
 97
        0
 72
     1
 10
73.83704770101665
 20
-92.74125236088268
 11
73.83704770101665
 21
-92.74125236088268
 97
        0
 75
     2
 76
     1
 98
        0
450
        0
451
        0
460
0.0
461
0.0
452
        0
462
0.0
453
        0
470

  0
POLYLINE
  5
4D
330
45
100
AcDbEntity
  8
Livello 1
370
     0
100
AcDb2dPolyline
 66
     1
 10
0.0
 20
0.0
 30
0.0
  0
VERTEX
  5
4E
330
4D
100
AcDbEntity
  8
Livello 1
370
     0
100
AcDbVertex
100
AcDb2dVertex
 10
56.89440050244267
 20
-98.06230528699348
 30
0.0
  0
VERTEX
  5
4F
330
4D
100
AcDbEntity
  8
Livello 1
370
     0
100
AcDbVertex
100
AcDb2dVertex
 10
90.46191175588484
 20
-98.06230528699348
 30
0.0
  0
VERTEX
  5
50
330
4D
100
AcDbEntity
  8
Livello 1
370
     0
100
AcDbVertex
100
AcDb2dVertex
 10
90.46191175588484
 20
-82.50445189944754
 30
0.0
  0
VERTEX
  5
51
330
4D
100
AcDbEntity
  8
Livello 1
370
     0
100
AcDbVertex
100
AcDb2dVertex
 10
56.89440050244267
 20
-82.50445189944754
 30
0.0
  0
VERTEX
  5
52
330
4D
100
AcDbEntity
  8
Livello 1
370
     0
100
AcDbVertex
100
AcDb2dVertex
 10
56.89440050244267
 20
-98.06230528699348
 30
0.0
  0
SEQEND
  5
53
330
4D
100
AcDbEntity
  8
Livello 1
370
     0
  0
ENDBLK
  5
48
330
45
100
AcDbEntity
  8
0
100
AcDbBlockEnd
  0
BLOCK
  5
5A
330
58
100
AcDbEntity
  8
0
100
AcDbBlockBegin
  2
block 3
 70
     0
 10
0.0
 20
0.0
 30
0.0
  3
block 3
  1

  0
SPLINE
  5
5C
330
58
100
AcDbEntity
  8
Livello 1
370
     0
100
AcDbSpline
210
0.0
220
0.0
230
1.0
 70
     9
 71
     3
 72
    17
 73
    13
 74
     0
 42
0.000000001
 43
0.0000000001
 40
0.0
 40
0.0
 40
0.0
 40
0.0
 40
1.0
 40
1.0
 40
1.0
 40
2.0
 40
2.0
 40
2.0
 40
3.0
 40
3.0
 40
3.0
 40
4.0
 40
4.0
 40
4.0
 40
4.0
 10
83.13485845452786
 20
-93.74748030691256
 30
0.0
 10
83.13485845452786
 20
-93.94221365634605
 30
0.0
 10
83.29290220991367
 20
-94.10025808460213
 30
0.0
 10
83.48763623221744
 20
-94.10025808460213
 30
0.0
 10
83.68236756304034
 20
-94.10025808460213
 30
0.0
 10
83.84041400990701
 20
-93.94221365634605
 30
0.0
 10
83.84041400990701
 20
-93.74748030691256
 30
0.0
 10
83.84041400990701
 20
-93.55274729391412
 30
0.0
 10
83.68236756304034
 20
-93.39470252922295
 30
0.0
 10
83.48763623221744
 20
-93.39470252922295
 30
0.0
 10
83.29290220991367
 20
-93.39470252922295
 30
0.0
 10
83.13485845452786
 20
-93.55274729391412
 30
0.0
 10
83.13485845452786
 20
-93.74748030691256
 30
0.0
  0
HATCH
  5
5D
330
58
100
AcDbEntity
  8
Livello 1
 62
   252
420
  8882054
100
AcDbHatch
 10
0.0
 20
0.0
 30
0.0
210
0.0
220
0.0
230
1.0
  2
SOLID
 70
     1
 71
     0
 91
        1
 92
        1
 93
        2
 72
     4
 94
        3
 73
     0
 74
     0
 95
       17
 96
       13
 40
0.0
 40
0.0
 40
0.0
 40
0.0
 40
0.3527777776895833
 40
0.3527777776895833
 40
0.3527777776895833
 40
0.7055555553791667
 40
0.7055555553791667
 40
0.7055555553791667
 40
1.05833333306875
 40
1.05833333306875
 40
1.05833333306875
 40
1.411111110758331
 40
1.411111110758331
 40
1.411111110758331
 40
1.411111110758331
 10
83.13485845452786
 20
-93.74748030691256
 10
83.13485845452786
 20
-93.94221365634605
 10
83.29290220991367
 20
-94.10025808460213
 10
83.48763623221744
 20
-94.10025808460213
 10
83.68236756304034
 20
-94.10025808460213
 10
83.84041400990701
 20
-93.94221365634605
 10
83.84041400990701
 20
-93.74748030691256
 10
83.84041400990701
 20
-93.55274729391412
 10
83.68236756304034
 20
-93.39470252922295
 10
83.48763623221744
 20
-93.39470252922295
 10
83.29290220991367
 20
-93.39470252922295
 10
83.13485845452786
 20
-93.55274729391412
 10
83.13485845452786
 20
-93.74748030691256
 97
        0
 72
     1
 10
83.13485845452786
 20
-93.74748030691256
 11
83.13485845452786
 21
-93.74748030691256
 97
        0
 75
     2
 76
     1
 98
        0
450
        0
451
        0
460
0.0
461
0.0
452
        0
462
0.0
453
        0
470

  0
SPLINE
  5
5E
330
58
100
AcDbEntity
  8
Livello 1
370
     0
100
AcDbSpline
210
0.0
220
0.0
230
1.0
 70
     9
 71
     3
 72
    17
 73
    13
 74
     0
 42
0.000000001
 43
0.0000000001
 40
0.0
 40
0.0
 40
0.0
 40
0.0
 40
1.0
 40
1.0
 40
1.0
 40
2.0
 40
2.0
 40
2.0
 40
3.0
 40
3.0
 40
3.0
 40
4.0
 40
4.0
 40
4.0
 40
4.0
 10
79.94042058063842
 20
-93.74748030691256
 30
0.0
 10
79.94042058063842
 20
-93.94221365634605
 30
0.0
 10
80.09846433602424
 20
-94.10025808460213
 30
0.0
 10
80.29319835832799
 20
-94.10025808460213
 30
0.0
 10
80.4879296891509
 20
-94.10025808460213
 30
0.0
 10
80.64597613601758
 20
-93.94221365634605
 30
0.0
 10
80.64597613601758
 20
-93.74748030691256
 30
0.0
 10
80.64597613601758
 20
-93.55274729391412
 30
0.0
 10
80.4879296891509
 20
-93.39470252922295
 30
0.0
 10
80.29319835832799
 20
-93.39470252922295
 30
0.0
 10
80.09846433602424
 20
-93.39470252922295
 30
0.0
 10
79.94042058063842
 20
-93.55274729391412
 30
0.0
 10
79.94042058063842
 20
-93.74748030691256
 30
0.0
  0
HATCH
  5
5F
330
58
100
AcDbEntity
  8
Livello 1
 62
   252
420
  8882054
100
AcDbHatch
 10
0.0
 20
0.0
 30
0.0
210
0.0
220
0.0
230
1.0
  2
SOLID
 70
     1
 71
     0
 91
        1
 92
        1
 93
        2
 72
     4
 94
        3
 73
     0
 74
     0
 95
       17
 96
       13
 40
0.0
 40
0.0
 40
0.0
 40
0.0
 40
0.3527777776895833
 40
0.3527777776895833
 40
0.3527777776895833
 40
0.7055555553791667
 40
0.7055555553791667
 40
0.7055555553791667
 40
1.05833333306875
 40
1.05833333306875
 40
1.05833333306875
 40
1.411111110758331
 40
1.411111110758331
 40
1.411111110758331
 40
1.411111110758331
 10
79.94042058063842
 20
-93.74748030691256
 10
79.94042058063842
 20
-93.94221365634605
 10
80.09846433602424
 20
-94.10025808460213
 10
80.29319835832799
 20
-94.10025808460213
 10
80.4879296891509
 20
-94.10025808460213
 10
80.64597613601758
 20
-93.94221365634605
 10
80.64597613601758
 20
-93.74748030691256
 10
80.64597613601758
 20
-93.55274729391412
 10
80.4879296891509
 20
-93.39470252922295
 10
80.29319835832799
 20
-93.39470252922295
 10
80.09846433602424
 20
-93.39470252922295
 10
79.94042058063842
 20
-93.55274729391412
 10
79.94042058063842
 20
-93.74748030691256
 97
        0
 72
     1
 10
79.94042058063842
 20
-93.74748030691256
 11
79.94042058063842
 21
-93.74748030691256
 97
        0
 75
     2
 76
     1
 98
        0
450
        0
451
        0
460
0.0
461
0.0
452
        0
462
0.0
453
        0
470

  0
POLYLINE
  5
60
330
58
100
AcDbEntity
  8
Livello 1
370
     0
100
AcDb2dPolyline
 66
     1
 10
0.0
 20
0.0
 30
0.0
  0
VERTEX
  5
61
330
60
100
AcDbEntity
  8
Livello 1
370
     0
100
AcDbVertex
100
AcDb2dVertex
 10
56.89440050244267
 20
-98.06230528699348
 30
0.0
  0
VERTEX
  5
62
330
60
100
AcDbEntity
  8
Livello 1
370
     0
100
AcDbVertex
100
AcDb2dVertex
 10
90.46191175588484
 20
-98.06230528699348
 30
0.0
  0
VERTEX
  5
63
330
60
100
AcDbEntity
  8
Livello 1
370
     0
100
AcDbVertex
100
AcDb2dVertex
 10
90.46191175588484
 20
-82.50445189944754
 30
0.0
  0
VERTEX
  5
64
330
60
100
AcDbEntity
  8
Livello 1
370
     0
100
AcDbVertex
100
AcDb2dVertex
 10
56.89440050244267
 20
-82.50445189944754
 30
0.0
  0
VERTEX
  5
65
330
60
100
AcDbEntity
  8
Livello 1
370
     0
100
AcDbVertex
100
AcDb2dVertex
 10
56.89440050244267
 20
-98.06230528699348
 30
0.0
  0
SEQEND
  5
66
330
60
100
AcDbEntity
  8
Livello 1
370
     0
  0
ENDBLK
  5
5B
330
58
100
AcDbEntity
  8
0
100
AcDbBlockEnd
  0
BLOCK
  5
6D
330
6B
100
AcDbEntity
  8
0
100
AcDbBlockBegin
  2
block 4
 70
     0
 10
0.0
 20
0.0
 30
0.0
  3
block 4
  1

  0
SPLINE
  5
6F
330
6B
100
AcDbEntity
  8
Livello 1
370
     0
100
AcDbSpline
210
0.0
220
0.0
230
1.0
 70
     9
 71
     3
 72
    17
 73
    13
 74
     0
 42
0.000000001
 43
0.0000000001
 40
0.0
 40
0.0
 40
0.0
 40
0.0
 40
1.0
 40
1.0
 40
1.0
 40
2.0
 40
2.0
 40
2.0
 40
3.0
 40
3.0
 40
3.0
 40
4.0
 40
4.0
 40
4.0
 40
4.0
 10
72.12469932506468
 20
-93.74748030691256
 30
0.0
 10
72.12469932506468
 20
-93.94221365634605
 30
0.0
 10
72.28274308045051
 20
-94.10025808460213
 30
0.0
 10
72.47747710275426
 20
-94.10025808460213
 30
0.0
 10
72.67220977931758
 20
-94.10025808460213
 30
0.0
 10
72.83025488044384
 20
-93.94221365634605
 30
0.0
 10
72.83025488044384
 20
-93.74748030691256
 30
0.0
 10
72.83025488044384
 20
-93.55274729391412
 30
0.0
 10
72.67220977931758
 20
-93.39470252922295
 30
0.0
 10
72.47747710275426
 20
-93.39470252922295
 30
0.0
 10
72.28274308045051
 20
-93.39470252922295
 30
0.0
 10
72.12469932506468
 20
-93.55274729391412
 30
0.0
 10
72.12469932506468
 20
-93.74748030691256
 30
0.0
  0
HATCH
  5
70
330
6B
100
AcDbEntity
  8
Livello 1
 62
   252
420
  8882054
100
AcDbHatch
 10
0.0
 20
0.0
 30
0.0
210
0.0
220
0.0
230
1.0
  2
SOLID
 70
     1
 71
     0
 91
        1
 92
        1
 93
        2
 72
     4
 94
        3
 73
     0
 74
     0
 95
       17
 96
       13
 40
0.0
 40
0.0
 40
0.0
 40
0.0
 40
0.3527777776895833
 40
0.3527777776895833
 40
0.3527777776895833
 40
0.7055555553791667
 40
0.7055555553791667
 40
0.7055555553791667
 40
1.05833333306875
 40
1.05833333306875
 40
1.05833333306875
 40
1.411111110758331
 40
1.411111110758331
 40
1.411111110758331
 40
1.411111110758331
 10
72.12469932506468
 20
-93.74748030691256
 10
72.12469932506468
 20
-93.94221365634605
 10
72.28274308045051
 20
-94.10025808460213
 10
72.47747710275426
 20
-94.10025808460213
 10
72.67220977931758
 20
-94.10025808460213
 10
72.83025488044384
 20
-93.94221365634605
 10
72.83025488044384
 20
-93.74748030691256
 10
72.83025488044384
 20
-93.55274729391412
 10
72.67220977931758
 20
-93.39470252922295
 10
72.47747710275426
 20
-93.39470252922295
 10
72.28274308045051
 20
-93.39470252922295
 10
72.12469932506468
 20
-93.55274729391412
 10
72.12469932506468
 20
-93.74748030691256
 97
        0
 72
     1
 10
72.12469932506468
 20
-93.74748030691256
 11
72.12469932506468
 21
-93.74748030691256
 97
        0
 75
     2
 76
     1
 98
        0
450
        0
451
        0
460
0.0
461
0.0
452
        0
462
0.0
453
        0
470

  0
SPLINE
  5
71
330
6B
100
AcDbEntity
  8
Livello 1
370
     0
100
AcDbSpline
210
0.0
220
0.0
230
1.0
 70
     9
 71
     3
 72
    17
 73
    13
 74
     0
 42
0.000000001
 43
0.0000000001
 40
0.0
 40
0.0
 40
0.0
 40
0.0
 40
1.0
 40
1.0
 40
1.0
 40
2.0
 40
2.0
 40
2.0
 40
3.0
 40
3.0
 40
3.0
 40
4.0
 40
4.0
 40
4.0
 40
4.0
 10
60.06940050164892
 20
-93.74748030691256
 30
0.0
 10
60.06940050164892
 20
-93.94221365634605
 30
0.0
 10
60.22744492990497
 20
-94.10025808460213
 30
0.0
 10
60.42217827933851
 20
-94.10025808460213
 30
0.0
 10
60.61691162877202
 20
-94.10025808460213
 30
0.0
 10
60.77495605702809
 20
-93.94221365634605
 30
0.0
 10
60.77495605702809
 20
-93.74748030691256
 30
0.0
 10
60.77495605702809
 20
-93.55274729391412
 30
0.0
 10
60.61691162877202
 20
-93.39470252922295
 30
0.0
 10
60.42217827933851
 20
-93.39470252922295
 30
0.0
 10
60.22744492990497
 20
-93.39470252922295
 30
0.0
 10
60.06940050164892
 20
-93.55274729391412
 30
0.0
 10
60.06940050164892
 20
-93.74748030691256
 30
0.0
  0
HATCH
  5
72
330
6B
100
AcDbEntity
  8
Livello 1
 62
   252
420
  8882054
100
AcDbHatch
 10
0.0
 20
0.0
 30
0.0
210
0.0
220
0.0
230
1.0
  2
SOLID
 70
     1
 71
     0
 91
        1
 92
        1
 93
        2
 72
     4
 94
        3
 73
     0
 74
     0
 95
       17
 96
       13
 40
0.0
 40
0.0
 40
0.0
 40
0.0
 40
0.3527777776895833
 40
0.3527777776895833
 40
0.3527777776895833
 40
0.7055555553791667
 40
0.7055555553791667
 40
0.7055555553791667
 40
1.05833333306875
 40
1.05833333306875
 40
1.05833333306875
 40
1.411111110758331
 40
1.411111110758331
 40
1.411111110758331
 40
1.411111110758331
 10
60.06940050164892
 20
-93.74748030691256
 10
60.06940050164892
 20
-93.94221365634605
 10
60.22744492990497
 20
-94.10025808460213
 10
60.42217827933851
 20
-94.10025808460213
 10
60.61691162877202
 20
-94.10025808460213
 10
60.77495605702809
 20
-93.94221365634605
 10
60.77495605702809
 20
-93.74748030691256
 10
60.77495605702809
 20
-93.55274729391412
 10
60.61691162877202
 20
-93.39470252922295
 10
60.42217827933851
 20
-93.39470252922295
 10
60.22744492990497
 20
-93.39470252922295
 10
60.06940050164892
 20
-93.55274729391412
 10
60.06940050164892
 20
-93.74748030691256
 97
        0
 72
     1
 10
60.06940050164892
 20
-93.74748030691256
 11
60.06940050164892
 21
-93.74748030691256
 97
        0
 75
     2
 76
     1
 98
        0
450
        0
451
        0
460
0.0
461
0.0
452
        0
462
0.0
453
        0
470

  0
MTEXT
  5
73
330
6B
100
AcDbEntity
  8
Livello 1
 62
   250
420
  1842203
100
AcDbMText
 10
76.94050172365769
 20
-92.81018335353323
 30
0.0
 40
2.123016666135912
 41
0.0
 46
0.0
 71
     7
 72
     1
  1
\fSource Sans Pro Light|b0|i0|c0|p34;\W1;7,5
 11
-0.0000000000000002
 21
1.0
 31
0.0
 73
     1
 44
1.0
  0
POLYLINE
  5
74
330
6B
100
AcDbEntity
  8
Livello 1
370
     0
100
AcDb2dPolyline
 66
     1
 10
0.0
 20
0.0
 30
0.0
  0
VERTEX
  5
75
330
74
100
AcDbEntity
  8
Livello 1
370
     0
100
AcDbVertex
100
AcDb2dVertex
 10
56.89440050244267
 20
-98.06230528699348
 30
0.0
  0
VERTEX
  5
76
330
74
100
AcDbEntity
  8
Livello 1
370
     0
100
AcDbVertex
100
AcDb2dVertex
 10
90.46191175588484
 20
-98.06230528699348
 30
0.0
  0
VERTEX
  5
77
330
74
100
AcDbEntity
  8
Livello 1
370
     0
100
AcDbVertex
100
AcDb2dVertex
 10
90.46191175588484
 20
-82.50445189944754
 30
0.0
  0
VERTEX
  5
78
330
74
100
AcDbEntity
  8
Livello 1
370
     0
100
AcDbVertex
100
AcDb2dVertex
 10
56.89440050244267
 20
-82.50445189944754
 30
0.0
  0
VERTEX
  5
79
330
74
100
AcDbEntity
  8
Livello 1
370
     0
100
AcDbVertex
100
AcDb2dVertex
 10
56.89440050244267
 20
-98.06230528699348
 30
0.0
  0
SEQEND
  5
7A
330
74
100
AcDbEntity
  8
Livello 1
370
     0
  0
ENDBLK
  5
6E
330
6B
100
AcDbEntity
  8
0
100
AcDbBlockEnd
  0
BLOCK
  5
7E
330
7C
100
AcDbEntity
  8
0
100
AcDbBlockBegin
  2
block 5
 70
     0
 10
0.0
 20
0.0
 30
0.0
  3
block 5
  1

  0
MTEXT
  5
80
330
7C
100
AcDbEntity
  8
Livello 1
 62
   250
420
  1842203
100
AcDbMText
 10
80.15568014896066
 20
-96.85100044372344
 30
0.0
 40
2.123016666135912
 41
0.0
 46
0.0
 71
     7
 72
     1
  1
\fSource Sans Pro Light|b0|i0|c0|p34;\W1;9,5
 73
     1
 44
1.0
  0
POLYLINE
  5
81
330
7C
100
AcDbEntity
  8
Livello 1
370
     0
100
AcDb2dPolyline
 66
     1
 10
0.0
 20
0.0
 30
0.0
  0
VERTEX
  5
82
330
81
100
AcDbEntity
  8
Livello 1
370
     0
100
AcDbVertex
100
AcDb2dVertex
 10
56.89440050244267
 20
-98.06230528699348
 30
0.0
  0
VERTEX
  5
83
330
81
100
AcDbEntity
  8
Livello 1
370
     0
100
AcDbVertex
100
AcDb2dVertex
 10
90.46191175588484
 20
-98.06230528699348
 30
0.0
  0
VERTEX
  5
84
330
81
100
AcDbEntity
  8
Livello 1
370
     0
100
AcDbVertex
100
AcDb2dVertex
 10
90.46191175588484
 20
-82.50445189944754
 30
0.0
  0
VERTEX
  5
85
330
81
100
AcDbEntity
  8
Livello 1
370
     0
100
AcDbVertex
100
AcDb2dVertex
 10
56.89440050244267
 20
-82.50445189944754
 30
0.0
  0
VERTEX
  5
86
330
81
100
AcDbEntity
  8
Livello 1
370
     0
100
AcDbVertex
100
AcDb2dVertex
 10
56.89440050244267
 20
-98.06230528699348
 30
0.0
  0
SEQEND
  5
87
330
81
100
AcDbEntity
  8
Livello 1
370
     0
  0
ENDBLK
  5
7F
330
7C
100
AcDbEntity
  8
0
100
AcDbBlockEnd
  0
BLOCK
  5
8B
330
89
100
AcDbEntity
  8
0
100
AcDbBlockBegin
  2
block 6
 70
     0
 10
0.0
 20
0.0
 30
0.0
  3
block 6
  1

  0
MTEXT
  5
8D
330
89
100
AcDbEntity
  8
Livello 1
 62
   250
420
  1842203
100
AcDbMText
 10
65.02843812800286
 20
-96.85100044372344
 30
0.0
 40
2.123016666135912
 41
0.0
 46
0.0
 71
     7
 72
     1
  1
\fSource Sans Pro Light|b0|i0|c0|p34;\W1;30
 73
     1
 44
1.0
  0
POLYLINE
  5
8E
330
89
100
AcDbEntity
  8
Livello 1
370
     0
100
AcDb2dPolyline
 66
     1
 10
0.0
 20
0.0
 30
0.0
  0
VERTEX
  5
8F
330
8E
100
AcDbEntity
  8
Livello 1
370
     0
100
AcDbVertex
100
AcDb2dVertex
 10
56.89440050244267
 20
-98.06230528699348
 30
0.0
  0
VERTEX
  5
90
330
8E
100
AcDbEntity
  8
Livello 1
370
     0
100
AcDbVertex
100
AcDb2dVertex
 10
90.46191175588484
 20
-98.06230528699348
 30
0.0
  0
VERTEX
  5
91
330
8E
100
AcDbEntity
  8
Livello 1
370
     0
100
AcDbVertex
100
AcDb2dVertex
 10
90.46191175588484
 20
-82.50445189944754
 30
0.0
  0
VERTEX
  5
92
330
8E
100
AcDbEntity
  8
Livello 1
370
     0
100
AcDbVertex
100
AcDb2dVertex
 10
56.89440050244267
 20
-82.50445189944754
 30
0.0
  0
VERTEX
  5
93
330
8E
100
AcDbEntity
  8
Livello 1
370
     0
100
AcDbVertex
100
AcDb2dVertex
 10
56.89440050244267
 20
-98.06230528699348
 30
0.0
  0
SEQEND
  5
94
330
8E
100
AcDbEntity
  8
Livello 1
370
     0
  0
ENDBLK
  5
8C
330
89
100
AcDbEntity
  8
0
100
AcDbBlockEnd
  0
BLOCK
  5
98
330
96
100
AcDbEntity
  8
0
100
AcDbBlockBegin
  2
block 7
 70
     0
 10
0.0
 20
0.0
 30
0.0
  3
block 7
  1

  0
SPLINE
  5
9A
330
96
100
AcDbEntity
  8
Livello 1
 62
   250
420
  1842203
370
     9
100
AcDbSpline
210
0.0
220
0.0
230
1.0
 70
    11
 71
     3
 72
    41
 73
    37
 74
     0
 42
0.000000001
 43
0.0000000001
 40
0.0
 40
0.0
 40
0.0
 40
0.0
 40
1.0
 40
1.0
 40
1.0
 40
2.0
 40
2.0
 40
2.0
 40
3.0
 40
3.0
 40
3.0
 40
4.0
 40
4.0
 40
4.0
 40
5.0
 40
5.0
 40
5.0
 40
6.0
 40
6.0
 40
6.0
 40
7.0
 40
7.0
 40
7.0
 40
8.0
 40
8.0
 40
8.0
 40
9.0
 40
9.0
 40
9.0
 40
10.0
 40
10.0
 40
10.0
 40
11.0
 40
11.0
 40
11.0
 40
12.0
 40
12.0
 40
12.0
 40
12.0
 10
3.08196057618495
 20
-92.65330485982806
 30
0.0
 10
3.08196057618495
 20
-92.65330485982806
 30
0.0
 10
3.305617251679711
 20
-92.43740503213684
 30
0.0
 10
3.33172461590387
 20
-91.88424986967577
 30
0.0
 10
3.33172461590387
 20
-91.88424986967577
 30
0.0
 10
3.33172461590387
 20
-90.25617983351255
 30
0.0
 10
3.33172461590387
 20
-90.25617983351255
 30
0.0
 10
3.305617251679711
 20
-89.70337725504256
 30
0.0
 10
3.08196057618495
 20
-89.49911875488847
 30
0.0
 10
3.08196057618495
 20
-89.49911875488847
 30
0.0
 10
3.08196057618495
 20
-89.49911875488847
 30
0.0
 10
2.741176037153394
 20
-89.50088302058423
 30
0.0
 10
2.741176037153394
 20
-89.50088302058423
 30
0.0
 10
2.741176037153394
 20
-89.50088302058423
 30
0.0
 10
-8.580877275920496
 20
-89.50088302058423
 30
0.0
 10
-8.580877275920496
 20
-89.50088302058423
 30
0.0
 10
-8.580877275920496
 20
-89.50088302058423
 30
0.0
 10
-9.03454790467264
 20
-89.50546863107875
 30
0.0
 10
-9.03454790467264
 20
-89.50546863107875
 30
0.0
 10
-9.03454790467264
 20
-89.50546863107875
 30
0.0
 10
-9.257854687657175
 20
-89.70902196325068
 30
0.0
 10
-9.283962051881335
 20
-90.26217712571176
 30
0.0
 10
-9.283962051881335
 20
-90.26217712571176
 30
0.0
 10
-9.283962051881335
 20
-91.89024648900476
 30
0.0
 10
-9.283962051881335
 20
-91.89024648900476
 30
0.0
 10
-9.257854687657175
 20
-92.44304940390987
 30
0.0
 10
-9.03454790467264
 20
-92.64695498363776
 30
0.0
 10
-9.03454790467264
 20
-92.64695498363776
 30
0.0
 10
-9.03454790467264
 20
-92.64695498363776
 30
0.0
 10
-8.057351953243218
 20
-92.63707724892617
 30
0.0
 10
-8.057351953243218
 20
-92.63707724892617
 30
0.0
 10
-8.057351953243218
 20
-92.63707724892617
 30
0.0
 10
2.466714969174593
 20
-92.63707724892617
 30
0.0
 10
2.466714969174593
 20
-92.63707724892617
 30
0.0
 10
2.466714969174593
 20
-92.63707724892617
 30
0.0
 10
3.08196057618495
 20
-92.65330485982806
 30
0.0
 10
3.08196057618495
 20
-92.65330485982806
 30
0.0
  0
SPLINE
  5
9B
330
96
100
AcDbEntity
  8
Livello 1
370
     0
100
AcDbSpline
210
0.0
220
0.0
230
1.0
 70
    11
 71
     3
 72
    53
 73
    49
 74
     0
 42
0.000000001
 43
0.0000000001
 40
0.0
 40
0.0
 40
0.0
 40
0.0
 40
1.0
 40
1.0
 40
1.0
 40
2.0
 40
2.0
 40
2.0
 40
3.0
 40
3.0
 40
3.0
 40
4.0
 40
4.0
 40
4.0
 40
5.0
 40
5.0
 40
5.0
 40
6.0
 40
6.0
 40
6.0
 40
7.0
 40
7.0
 40
7.0
 40
8.0
 40
8.0
 40
8.0
 40
9.0
 40
9.0
 40
9.0
 40
10.0
 40
10.0
 40
10.0
 40
11.0
 40
11.0
 40
11.0
 40
12.0
 40
12.0
 40
12.0
 40
13.0
 40
13.0
 40
13.0
 40
14.0
 40
14.0
 40
14.0
 40
15.0
 40
15.0
 40
15.0
 40
16.0
 40
16.0
 40
16.0
 40
16.0
 10
72.56905743008326
 20
-92.70625705402869
 30
0.0
 10
72.56905743008326
 20
-92.70625705402869
 30
0.0
 10
71.9315882657122
 20
-92.68932360227443
 30
0.0
 10
71.9315882657122
 20
-92.68932360227443
 30
0.0
 10
71.9315882657122
 20
-92.68932360227443
 30
0.0
 10
61.40893302499907
 20
-92.68932360227443
 30
0.0
 10
61.40893302499907
 20
-92.68932360227443
 30
0.0
 10
61.40893302499907
 20
-92.68932360227443
 30
0.0
 10
60.41198294988685
 20
-92.69955425741224
 30
0.0
 10
60.41198294988685
 20
-92.69955425741224
 30
0.0
 10
60.41198294988685
 20
-92.69955425741224
 30
0.0
 10
60.39681376382836
 20
-92.68544315976205
 30
0.0
 10
60.39681376382836
 20
-92.68544315976205
 30
0.0
 10
60.38693602911674
 20
-92.67662351345876
 30
0.0
 10
60.15692476734021
 20
-92.46072368576747
 30
0.0
 10
60.13011358087433
 20
-91.8927515848039
 30
0.0
 10
60.13011358087433
 20
-91.8927515848039
 30
0.0
 10
60.13011358087433
 20
-90.26221278783301
 30
0.0
 10
60.13011358087433
 20
-90.26221278783301
 30
0.0
 10
60.15692476734021
 20
-89.69141833276529
 30
0.0
 10
60.38693602911674
 20
-89.47551783220388
 30
0.0
 10
60.39681376382836
 20
-89.46669852233567
 30
0.0
 10
60.39681376382836
 20
-89.46669852233567
 30
0.0
 10
60.41163036589577
 20
-89.45329292910273
 30
0.0
 10
60.41163036589577
 20
-89.45329292910273
 30
0.0
 10
60.41163036589577
 20
-89.45329292910273
 30
0.0
 10
60.8847052258205
 20
-89.44835406174695
 30
0.0
 10
60.8847052258205
 20
-89.44835406174695
 30
0.0
 10
60.8847052258205
 20
-89.44835406174695
 30
0.0
 10
72.20781359938675
 20
-89.44835406174695
 30
0.0
 10
72.20781359938675
 20
-89.44835406174695
 30
0.0
 10
72.20781359938675
 20
-89.44835406174695
 30
0.0
 10
72.56870484609219
 20
-89.44659046892137
 30
0.0
 10
72.56870484609219
 20
-89.44659046892137
 30
0.0
 10
72.56870484609219
 20
-89.44659046892137
 30
0.0
 10
72.58352144815963
 20
-89.46034864614537
 30
0.0
 10
72.58352144815963
 20
-89.46034864614537
 30
0.0
 10
72.59339918287122
 20
-89.46952054000464
 30
0.0
 10
72.82341044464776
 20
-89.68577362455716
 30
0.0
 10
72.85022163111363
 20
-90.25374606195587
 30
0.0
 10
72.85022163111363
 20
-90.25374606195587
 30
0.0
 10
72.85022163111363
 20
-91.88428485892677
 30
0.0
 10
72.85022163111363
 20
-91.88428485892677
 30
0.0
 10
72.82341044464776
 20
-92.45402088915104
 30
0.0
 10
72.59445828058486
 20
-92.68156238081457
 30
0.0
 10
72.58457920013281
 20
-92.69108753153508
 30
0.0
 10
72.58457920013281
 20
-92.69108753153508
 30
0.0
 10
72.56905743008326
 20
-92.70625705402869
 30
0.0
 10
72.56905743008326
 20
-92.70625705402869
 30
0.0
  0
SPLINE
  5
9C
330
96
100
AcDbEntity
  8
Livello 1
370
     0
100
AcDbSpline
210
0.0
220
0.0
230
1.0
 70
    11
 71
     3
 72
    41
 73
    37
 74
     0
 42
0.000000001
 43
0.0000000001
 40
0.0
 40
0.0
 40
0.0
 40
0.0
 40
1.0
 40
1.0
 40
1.0
 40
2.0
 40
2.0
 40
2.0
 40
3.0
 40
3.0
 40
3.0
 40
4.0
 40
4.0
 40
4.0
 40
5.0
 40
5.0
 40
5.0
 40
6.0
 40
6.0
 40
6.0
 40
7.0
 40
7.0
 40
7.0
 40
8.0
 40
8.0
 40
8.0
 40
9.0
 40
9.0
 40
9.0
 40
10.0
 40
10.0
 40
10.0
 40
11.0
 40
11.0
 40
11.0
 40
12.0
 40
12.0
 40
12.0
 40
12.0
 10
71.93299994741689
 20
-92.58490121051504
 30
0.0
 10
71.93299994741689
 20
-92.58490121051504
 30
0.0
 10
72.52566537585419
 20
-92.60042365343478
 30
0.0
 10
72.52566537585419
 20
-92.60042365343478
 30
0.0
 10
72.5722320317433
 20
-92.54327375841684
 30
0.0
 10
72.72498568152268
 20
-92.32490449704769
 30
0.0
 10
72.74579890291912
 20
-91.88181542524887
 30
0.0
 10
72.74579890291912
 20
-91.88181542524887
 30
0.0
 10
72.74579890291912
 20
-90.25621549563377
 30
0.0
 10
72.74579890291912
 20
-90.25621549563377
 30
0.0
 10
72.72498568152268
 20
-89.81418484867838
 30
0.0
 10
72.57152686376116
 20
-89.60463489717744
 30
0.0
 10
72.52566537585419
 20
-89.55136510823676
 30
0.0
 10
72.52566537585419
 20
-89.55136510823676
 30
0.0
 10
72.20781359938675
 20
-89.5531293739325
 30
0.0
 10
72.20781359938675
 20
-89.5531293739325
 30
0.0
 10
72.20781359938675
 20
-89.5531293739325
 30
0.0
 10
60.88541106667285
 20
-89.5531293739325
 30
0.0
 10
60.88541106667285
 20
-89.5531293739325
 30
0.0
 10
60.88541106667285
 20
-89.5531293739325
 30
0.0
 10
60.45466983613377
 20
-89.55736240043595
 30
0.0
 10
60.45466983613377
 20
-89.55736240043595
 30
0.0
 10
60.40951351620893
 20
-89.6095737645332
 30
0.0
 10
60.25570211445635
 20
-89.81912371603419
 30
0.0
 10
60.23453630906885
 20
-90.26468222151093
 30
0.0
 10
60.23453630906885
 20
-90.26468222151093
 30
0.0
 10
60.23453630906885
 20
-91.890282151126
 30
0.0
 10
60.23453630906885
 20
-91.890282151126
 30
0.0
 10
60.25570211445635
 20
-92.33160695722906
 30
0.0
 10
60.40845576423574
 20
-92.54115690873002
 30
0.0
 10
60.45466983613377
 20
-92.59442636123557
 30
0.0
 10
60.45466983613377
 20
-92.59442636123557
 30
0.0
 10
61.408580441008
 20
-92.58490121051504
 30
0.0
 10
61.408580441008
 20
-92.58490121051504
 30
0.0
 10
61.408580441008
 20
-92.58490121051504
 30
0.0
 10
71.93299994741689
 20
-92.58490121051504
 30
0.0
 10
71.93299994741689
 20
-92.58490121051504
 30
0.0
  0
HATCH
  5
9D
330
96
100
AcDbEntity
  8
Livello 1
 62
   250
420
  1842203
100
AcDbHatch
 10
0.0
 20
0.0
 30
0.0
210
0.0
220
0.0
230
1.0
  2
SOLID
 70
     1
 71
     0
 91
        2
 92
        1
 93
        1
 72
     4
 94
        3
 73
     0
 74
     0
 95
       53
 96
       49
 40
0.0
 40
0.0
 40
0.0
 40
0.0
 40
1.0
 40
1.0
 40
1.0
 40
2.0
 40
2.0
 40
2.0
 40
3.0
 40
3.0
 40
3.0
 40
4.0
 40
4.0
 40
4.0
 40
5.0
 40
5.0
 40
5.0
 40
6.0
 40
6.0
 40
6.0
 40
7.0
 40
7.0
 40
7.0
 40
8.0
 40
8.0
 40
8.0
 40
9.0
 40
9.0
 40
9.0
 40
10.0
 40
10.0
 40
10.0
 40
11.0
 40
11.0
 40
11.0
 40
12.0
 40
12.0
 40
12.0
 40
13.0
 40
13.0
 40
13.0
 40
14.0
 40
14.0
 40
14.0
 40
15.0
 40
15.0
 40
15.0
 40
16.0
 40
16.0
 40
16.0
 40
16.0
 10
72.56905743008326
 20
-92.70625705402869
 10
72.56905743008326
 20
-92.70625705402869
 10
71.9315882657122
 20
-92.68932360227443
 10
71.9315882657122
 20
-92.68932360227443
 10
71.9315882657122
 20
-92.68932360227443
 10
61.40893302499907
 20
-92.68932360227443
 10
61.40893302499907
 20
-92.68932360227443
 10
61.40893302499907
 20
-92.68932360227443
 10
60.41198294988685
 20
-92.69955425741224
 10
60.41198294988685
 20
-92.69955425741224
 10
60.41198294988685
 20
-92.69955425741224
 10
60.39681376382836
 20
-92.68544315976205
 10
60.39681376382836
 20
-92.68544315976205
 10
60.38693602911674
 20
-92.67662351345876
 10
60.15692476734021
 20
-92.46072368576747
 10
60.13011358087433
 20
-91.8927515848039
 10
60.13011358087433
 20
-91.8927515848039
 10
60.13011358087433
 20
-90.26221278783301
 10
60.13011358087433
 20
-90.26221278783301
 10
60.15692476734021
 20
-89.69141833276529
 10
60.38693602911674
 20
-89.47551783220388
 10
60.39681376382836
 20
-89.46669852233567
 10
60.39681376382836
 20
-89.46669852233567
 10
60.41163036589577
 20
-89.45329292910273
 10
60.41163036589577
 20
-89.45329292910273
 10
60.41163036589577
 20
-89.45329292910273
 10
60.8847052258205
 20
-89.44835406174695
 10
60.8847052258205
 20
-89.44835406174695
 10
60.8847052258205
 20
-89.44835406174695
 10
72.20781359938675
 20
-89.44835406174695
 10
72.20781359938675
 20
-89.44835406174695
 10
72.20781359938675
 20
-89.44835406174695
 10
72.56870484609219
 20
-89.44659046892137
 10
72.56870484609219
 20
-89.44659046892137
 10
72.56870484609219
 20
-89.44659046892137
 10
72.58352144815963
 20
-89.46034864614537
 10
72.58352144815963
 20
-89.46034864614537
 10
72.59339918287122
 20
-89.46952054000464
 10
72.82341044464776
 20
-89.68577362455716
 10
72.85022163111363
 20
-90.25374606195587
 10
72.85022163111363
 20
-90.25374606195587
 10
72.85022163111363
 20
-91.88428485892677
 10
72.85022163111363
 20
-91.88428485892677
 10
72.82341044464776
 20
-92.45402088915104
 10
72.59445828058486
 20
-92.68156238081457
 10
72.58457920013281
 20
-92.69108753153508
 10
72.58457920013281
 20
-92.69108753153508
 10
72.56905743008326
 20
-92.70625705402869
 10
72.56905743008326
 20
-92.70625705402869
 97
        0
 97
        0
 92
        1
 93
        1
 72
     4
 94
        3
 73
     0
 74
     0
 95
       41
 96
       37
 40
0.0
 40
0.0
 40
0.0
 40
0.0
 40
1.0
 40
1.0
 40
1.0
 40
2.0
 40
2.0
 40
2.0
 40
3.0
 40
3.0
 40
3.0
 40
4.0
 40
4.0
 40
4.0
 40
5.0
 40
5.0
 40
5.0
 40
6.0
 40
6.0
 40
6.0
 40
7.0
 40
7.0
 40
7.0
 40
8.0
 40
8.0
 40
8.0
 40
9.0
 40
9.0
 40
9.0
 40
10.0
 40
10.0
 40
10.0
 40
11.0
 40
11.0
 40
11.0
 40
12.0
 40
12.0
 40
12.0
 40
12.0
 10
71.93299994741689
 20
-92.58490121051504
 10
71.93299994741689
 20
-92.58490121051504
 10
72.52566537585419
 20
-92.60042365343478
 10
72.52566537585419
 20
-92.60042365343478
 10
72.5722320317433
 20
-92.54327375841684
 10
72.72498568152268
 20
-92.32490449704769
 10
72.74579890291912
 20
-91.88181542524887
 10
72.74579890291912
 20
-91.88181542524887
 10
72.74579890291912
 20
-90.25621549563377
 10
72.74579890291912
 20
-90.25621549563377
 10
72.72498568152268
 20
-89.81418484867838
 10
72.57152686376116
 20
-89.60463489717744
 10
72.52566537585419
 20
-89.55136510823676
 10
72.52566537585419
 20
-89.55136510823676
 10
72.20781359938675
 20
-89.5531293739325
 10
72.20781359938675
 20
-89.5531293739325
 10
72.20781359938675
 20
-89.5531293739325
 10
60.88541106667285
 20
-89.5531293739325
 10
60.88541106667285
 20
-89.5531293739325
 10
60.88541106667285
 20
-89.5531293739325
 10
60.45466983613377
 20
-89.55736240043595
 10
60.45466983613377
 20
-89.55736240043595
 10
60.40951351620893
 20
-89.6095737645332
 10
60.25570211445635
 20
-89.81912371603419
 10
60.23453630906885
 20
-90.26468222151093
 10
60.23453630906885
 20
-90.26468222151093
 10
60.23453630906885
 20
-91.890282151126
 10
60.23453630906885
 20
-91.890282151126
 10
60.25570211445635
 20
-92.33160695722906
 10
60.40845576423574
 20
-92.54115690873002
 10
60.45466983613377
 20
-92.59442636123557
 10
60.45466983613377
 20
-92.59442636123557
 10
61.408580441008
 20
-92.58490121051504
 10
61.408580441008
 20
-92.58490121051504
 10
61.408580441008
 20
-92.58490121051504
 10
71.93299994741689
 20
-92.58490121051504
 10
71.93299994741689
 20
-92.58490121051504
 97
        0
 97
        0
 75
     2
 76
     1
 98
        0
450
        0
451
        0
460
0.0
461
0.0
452
        0
462
0.0
453
        0
470

  0
POLYLINE
  5
9E
330
96
100
AcDbEntity
  8
Livello 1
370
     0
100
AcDb2dPolyline
 66
     1
 10
0.0
 20
0.0
 30
0.0
  0
VERTEX
  5
9F
330
9E
100
AcDbEntity
  8
Livello 1
370
     0
100
AcDbVertex
100
AcDb2dVertex
 10
-5.499287811019778
 20
-86.02270587136324
 30
0.0
  0
VERTEX
  5
A0
330
9E
100
AcDbEntity
  8
Livello 1
370
     0
100
AcDbVertex
100
AcDb2dVertex
 10
-9.284241965889512
 20
-86.02270587136324
 30
0.0
  0
VERTEX
  5
A1
330
9E
100
AcDbEntity
  8
Livello 1
370
     0
100
AcDbVertex
100
AcDb2dVertex
 10
-9.284241965889512
 20
-82.86851909355346
 30
0.0
  0
VERTEX
  5
A2
330
9E
100
AcDbEntity
  8
Livello 1
370
     0
100
AcDbVertex
100
AcDb2dVertex
 10
-5.499287811019778
 20
-82.86851909355346
 30
0.0
  0
VERTEX
  5
A3
330
9E
100
AcDbEntity
  8
Livello 1
370
     0
100
AcDbVertex
100
AcDb2dVertex
 10
-5.499287811019778
 20
-86.02270587136324
 30
0.0
  0
SEQEND
  5
A5
330
9E
100
AcDbEntity
  8
Livello 1
370
     0
  0
HATCH
  5
A4
330
96
100
AcDbEntity
  8
Livello 1
 62
     7
420
 16776959
100
AcDbHatch
 10
0.0
 20
0.0
 30
0.0
210
0.0
220
0.0
230
1.0
  2
SOLID
 70
     1
 71
     0
 91
        1
 92
        1
 93
        4
 72
     1
 10
-5.499287811019778
 20
-86.02270587136324
 11
-9.284241965889512
 21
-86.02270587136324
 72
     1
 10
-9.284241965889512
 20
-86.02270587136324
 11
-9.284241965889512
 21
-82.86851909355346
 72
     1
 10
-9.284241965889512
 20
-82.86851909355346
 11
-5.499287811019778
 21
-82.86851909355346
 72
     1
 10
-5.499287811019778
 20
-82.86851909355346
 11
-5.499287811019778
 21
-86.02270587136324
 97
        0
 75
     2
 76
     1
 98
        0
450
        0
451
        0
460
0.0
461
0.0
452
        0
462
0.0
453
        0
470

  0
POLYLINE
  5
A6
330
96
100
AcDbEntity
  8
Livello 1
 62
   250
420
  1842203
370
     9
100
AcDb2dPolyline
 66
     1
 10
0.0
 20
0.0
 30
0.0
  0
VERTEX
  5
A7
330
A6
100
AcDbEntity
  8
Livello 1
 62
   250
420
  1842203
370
     9
100
AcDbVertex
100
AcDb2dVertex
 10
-5.499255513249603
 20
-86.02277584986529
 30
0.0
  0
VERTEX
  5
A8
330
A6
100
AcDbEntity
  8
Livello 1
 62
   250
420
  1842203
370
     9
100
AcDbVertex
100
AcDb2dVertex
 10
-9.284209668119338
 20
-86.02277584986529
 30
0.0
  0
VERTEX
  5
A9
330
A6
100
AcDbEntity
  8
Livello 1
 62
   250
420
  1842203
370
     9
100
AcDbVertex
100
AcDb2dVertex
 10
-9.284209668119338
 20
-82.86859041779589
 30
0.0
  0
VERTEX
  5
AA
330
A6
100
AcDbEntity
  8
Livello 1
 62
   250
420
  1842203
370
     9
100
AcDbVertex
100
AcDb2dVertex
 10
-5.499255513249603
 20
-82.86859041779589
 30
0.0
  0
VERTEX
  5
AB
330
A6
100
AcDbEntity
  8
Livello 1
 62
   250
420
  1842203
370
     9
100
AcDbVertex
100
AcDb2dVertex
 10
-5.499255513249603
 20
-86.02277584986529
 30
0.0
  0
SEQEND
  5
AC
330
A6
100
AcDbEntity
  8
Livello 1
 62
   250
420
  1842203
370
     9
  0
POLYLINE
  5
AD
330
96
100
AcDbEntity
  8
Livello 1
370
     0
100
AcDb2dPolyline
 66
     1
 10
0.0
 20
0.0
 30
0.0
  0
VERTEX
  5
AE
330
AD
100
AcDbEntity
  8
Livello 1
370
     0
100
AcDbVertex
100
AcDb2dVertex
 10
63.97606140184786
 20
-86.02270587136324
 30
0.0
  0
VERTEX
  5
AF
330
AD
100
AcDbEntity
  8
Livello 1
370
     0
100
AcDbVertex
100
AcDb2dVertex
 10
60.19110859271856
 20
-86.02270587136324
 30
0.0
  0
VERTEX
  5
B0
330
AD
100
AcDbEntity
  8
Livello 1
370
     0
100
AcDbVertex
100
AcDb2dVertex
 10
60.19110859271856
 20
-82.86851909355346
 30
0.0
  0
VERTEX
  5
B1
330
AD
100
AcDbEntity
  8
Livello 1
370
     0
100
AcDbVertex
100
AcDb2dVertex
 10
63.97606140184786
 20
-82.86851909355346
 30
0.0
  0
VERTEX
  5
B2
330
AD
100
AcDbEntity
  8
Livello 1
370
     0
100
AcDbVertex
100
AcDb2dVertex
 10
63.97606140184786
 20
-86.02270587136324
 30
0.0
  0
SEQEND
  5
B4
330
AD
100
AcDbEntity
  8
Livello 1
370
     0
  0
HATCH
  5
B3
330
96
100
AcDbEntity
  8
Livello 1
 62
     7
420
 16776959
100
AcDbHatch
 10
0.0
 20
0.0
 30
0.0
210
0.0
220
0.0
230
1.0
  2
SOLID
 70
     1
 71
     0
 91
        1
 92
        1
 93
        4
 72
     1
 10
63.97606140184786
 20
-86.02270587136324
 11
60.19110859271856
 21
-86.02270587136324
 72
     1
 10
60.19110859271856
 20
-86.02270587136324
 11
60.19110859271856
 21
-82.86851909355346
 72
     1
 10
60.19110859271856
 20
-82.86851909355346
 11
63.97606140184786
 21
-82.86851909355346
 72
     1
 10
63.97606140184786
 20
-82.86851909355346
 11
63.97606140184786
 21
-86.02270587136324
 97
        0
 75
     2
 76
     1
 98
        0
450
        0
451
        0
460
0.0
461
0.0
452
        0
462
0.0
453
        0
470

  0
POLYLINE
  5
B5
330
96
100
AcDbEntity
  8
Livello 1
370
     0
100
AcDb2dPolyline
 66
     1
 10
0.0
 20
0.0
 30
0.0
  0
VERTEX
  5
B6
330
B5
100
AcDbEntity
  8
Livello 1
370
     0
100
AcDbVertex
100
AcDb2dVertex
 10
64.02827276594512
 20
-86.07491656259027
 30
0.0
  0
VERTEX
  5
B7
330
B5
100
AcDbEntity
  8
Livello 1
370
     0
100
AcDbVertex
100
AcDb2dVertex
 10
60.13889790149151
 20
-86.07491656259027
 30
0.0
  0
VERTEX
  5
B8
330
B5
100
AcDbEntity
  8
Livello 1
370
     0
100
AcDbVertex
100
AcDb2dVertex
 10
60.13889790149151
 20
-82.81630840232637
 30
0.0
  0
VERTEX
  5
B9
330
B5
100
AcDbEntity
  8
Livello 1
370
     0
100
AcDbVertex
100
AcDb2dVertex
 10
64.02827276594512
 20
-82.81630840232637
 30
0.0
  0
VERTEX
  5
BA
330
B5
100
AcDbEntity
  8
Livello 1
370
     0
100
AcDbVertex
100
AcDb2dVertex
 10
64.02827276594512
 20
-86.07491656259027
 30
0.0
  0
SEQEND
  5
BB
330
B5
100
AcDbEntity
  8
Livello 1
370
     0
  0
POLYLINE
  5
BC
330
96
100
AcDbEntity
  8
Livello 1
370
     0
100
AcDb2dPolyline
 66
     1
 10
0.0
 20
0.0
 30
0.0
  0
VERTEX
  5
BD
330
BC
100
AcDbEntity
  8
Livello 1
370
     0
100
AcDbVertex
100
AcDb2dVertex
 10
60.24367287724198
 20
-85.97049383439577
 30
0.0
  0
VERTEX
  5
BE
330
BC
100
AcDbEntity
  8
Livello 1
370
     0
100
AcDbVertex
100
AcDb2dVertex
 10
63.92385071062083
 20
-85.97049383439577
 30
0.0
  0
VERTEX
  5
BF
330
BC
100
AcDbEntity
  8
Livello 1
370
     0
100
AcDbVertex
100
AcDb2dVertex
 10
63.92385071062083
 20
-82.92072978478048
 30
0.0
  0
VERTEX
  5
C0
330
BC
100
AcDbEntity
  8
Livello 1
370
     0
100
AcDbVertex
100
AcDb2dVertex
 10
60.24367287724198
 20
-82.92072978478048
 30
0.0
  0
VERTEX
  5
C1
330
BC
100
AcDbEntity
  8
Livello 1
370
     0
100
AcDbVertex
100
AcDb2dVertex
 10
60.24367287724198
 20
-85.97049383439577
 30
0.0
  0
SEQEND
  5
C2
330
BC
100
AcDbEntity
  8
Livello 1
370
     0
  0
HATCH
  5
C3
330
96
100
AcDbEntity
  8
Livello 1
 62
   250
420
  1842203
100
AcDbHatch
 10
0.0
 20
0.0
 30
0.0
210
0.0
220
0.0
230
1.0
  2
SOLID
 70
     1
 71
     0
 91
        2
 92
        1
 93
        4
 72
     1
 10
64.02827276594512
 20
-86.07491656259027
 11
60.13889790149151
 21
-86.07491656259027
 72
     1
 10
60.13889790149151
 20
-86.07491656259027
 11
60.13889790149151
 21
-82.81630840232637
 72
     1
 10
60.13889790149151
 20
-82.81630840232637
 11
64.02827276594512
 21
-82.81630840232637
 72
     1
 10
64.02827276594512
 20
-82.81630840232637
 11
64.02827276594512
 21
-86.07491656259027
 97
        0
 92
        1
 93
        4
 72
     1
 10
60.24367287724198
 20
-85.97049383439577
 11
63.92385071062083
 21
-85.97049383439577
 72
     1
 10
63.92385071062083
 20
-85.97049383439577
 11
63.92385071062083
 21
-82.92072978478048
 72
     1
 10
63.92385071062083
 20
-82.92072978478048
 11
60.24367287724198
 21
-82.92072978478048
 72
     1
 10
60.24367287724198
 20
-82.92072978478048
 11
60.24367287724198
 21
-85.97049383439577
 97
        0
 75
     2
 76
     1
 98
        0
450
        0
451
        0
460
0.0
461
0.0
452
        0
462
0.0
453
        0
470

  0
POLYLINE
  5
C4
330
96
100
AcDbEntity
  8
Livello 1
370
     0
100
AcDb2dPolyline
 66
     1
 10
0.0
 20
0.0
 30
0.0
  0
VERTEX
  5
C5
330
C4
100
AcDbEntity
  8
Livello 1
370
     0
100
AcDbVertex
100
AcDb2dVertex
 10
60.08950889149833
 20
-92.74135800150594
 30
0.0
  0
VERTEX
  5
C6
330
C4
100
AcDbEntity
  8
Livello 1
370
     0
100
AcDbVertex
100
AcDb2dVertex
 10
72.85053922585369
 20
-92.74135800150594
 30
0.0
  0
VERTEX
  5
C7
330
C4
100
AcDbEntity
  8
Livello 1
370
     0
100
AcDbVertex
100
AcDb2dVertex
 10
72.85053922585369
 20
-89.41042975086027
 30
0.0
  0
VERTEX
  5
C8
330
C4
100
AcDbEntity
  8
Livello 1
370
     0
100
AcDbVertex
100
AcDb2dVertex
 10
60.08950889149833
 20
-89.41042975086027
 30
0.0
  0
VERTEX
  5
C9
330
C4
100
AcDbEntity
  8
Livello 1
370
     0
100
AcDbVertex
100
AcDb2dVertex
 10
60.08950889149833
 20
-92.74135800150594
 30
0.0
  0
SEQEND
  5
CA
330
C4
100
AcDbEntity
  8
Livello 1
370
     0
  0
ENDBLK
  5
99
330
96
100
AcDbEntity
  8
0
100
AcDbBlockEnd
  0
BLOCK
  5
CD
330
CB
100
AcDbEntity
  8
0
100
AcDbBlockBegin
  2
block 8
 70
     0
 10
0.0
 20
0.0
 30
0.0
  3
block 8
  1

  0
SPLINE
  5
CF
330
CB
100
AcDbEntity
  8
Livello 1
 62
   250
420
  1842203
370
     9
100
AcDbSpline
210
0.0
220
0.0
230
1.0
 70
    11
 71
     3
 72
    41
 73
    37
 74
     0
 42
0.000000001
 43
0.0000000001
 40
0.0
 40
0.0
 40
0.0
 40
0.0
 40
1.0
 40
1.0
 40
1.0
 40
2.0
 40
2.0
 40
2.0
 40
3.0
 40
3.0
 40
3.0
 40
4.0
 40
4.0
 40
4.0
 40
5.0
 40
5.0
 40
5.0
 40
6.0
 40
6.0
 40
6.0
 40
7.0
 40
7.0
 40
7.0
 40
8.0
 40
8.0
 40
8.0
 40
9.0
 40
9.0
 40
9.0
 40
10.0
 40
10.0
 40
10.0
 40
11.0
 40
11.0
 40
11.0
 40
12.0
 40
12.0
 40
12.0
 40
12.0
 10
22.90210897566921
 20
-99.31191476234673
 30
0.0
 10
22.90210897566921
 20
-99.31191476234673
 30
0.0
 10
23.12576834264481
 20
-99.09601476643787
 30
0.0
 10
23.15187301538812
 20
-98.54285918343297
 30
0.0
 10
23.15187301538812
 20
-98.54285918343297
 30
0.0
 10
23.15187301538812
 20
-96.91478973603116
 30
0.0
 10
23.15187301538812
 20
-96.91478973603116
 30
0.0
 10
23.12576834264481
 20
-96.36198682112608
 30
0.0
 10
22.90210897566921
 20
-96.15772865740709
 30
0.0
 10
22.90210897566921
 20
-96.15772865740709
 30
0.0
 10
22.90210897566921
 20
-96.15772865740709
 30
0.0
 10
22.56132443663765
 20
-96.15949258666777
 30
0.0
 10
22.56132443663765
 20
-96.15949258666777
 30
0.0
 10
22.56132443663765
 20
-96.15949258666777
 30
0.0
 10
11.2392738150446
 20
-96.15949258666777
 30
0.0
 10
11.2392738150446
 20
-96.15949258666777
 30
0.0
 10
11.2392738150446
 20
-96.15949258666777
 30
0.0
 10
10.78560318629246
 20
-96.16407853359744
 30
0.0
 10
10.78560318629246
 20
-96.16407853359744
 30
0.0
 10
10.78560318629246
 20
-96.16407853359744
 30
0.0
 10
10.56229102034623
 20
-96.36763152933426
 30
0.0
 10
10.53618903908377
 20
-96.92078702823041
 30
0.0
 10
10.53618903908377
 20
-96.92078702823041
 30
0.0
 10
10.53618903908377
 20
-98.54885639152341
 30
0.0
 10
10.53618903908377
 20
-98.54885639152341
 30
0.0
 10
10.56229102034623
 20
-99.10165922231971
 30
0.0
 10
10.78560318629246
 20
-99.30556480204764
 30
0.0
 10
10.78560318629246
 20
-99.30556480204764
 30
0.0
 10
10.78560318629246
 20
-99.30556480204764
 30
0.0
 10
11.76279644624104
 20
-99.29568706733601
 30
0.0
 10
11.76279644624104
 20
-99.29568706733601
 30
0.0
 10
11.76279644624104
 20
-99.29568706733601
 30
0.0
 10
22.28686336865886
 20
-99.29568706733601
 30
0.0
 10
22.28686336865886
 20
-99.29568706733601
 30
0.0
 10
22.28686336865886
 20
-99.29568706733601
 30
0.0
 10
22.90210897566921
 20
-99.31191476234673
 30
0.0
 10
22.90210897566921
 20
-99.31191476234673
 30
0.0
  0
SPLINE
  5
D0
330
CB
100
AcDbEntity
  8
Livello 1
370
     0
100
AcDbSpline
210
0.0
220
0.0
230
1.0
 70
    11
 71
     3
 72
    53
 73
    49
 74
     0
 42
0.000000001
 43
0.0000000001
 40
0.0
 40
0.0
 40
0.0
 40
0.0
 40
1.0
 40
1.0
 40
1.0
 40
2.0
 40
2.0
 40
2.0
 40
3.0
 40
3.0
 40
3.0
 40
4.0
 40
4.0
 40
4.0
 40
5.0
 40
5.0
 40
5.0
 40
6.0
 40
6.0
 40
6.0
 40
7.0
 40
7.0
 40
7.0
 40
8.0
 40
8.0
 40
8.0
 40
9.0
 40
9.0
 40
9.0
 40
10.0
 40
10.0
 40
10.0
 40
11.0
 40
11.0
 40
11.0
 40
12.0
 40
12.0
 40
12.0
 40
13.0
 40
13.0
 40
13.0
 40
14.0
 40
14.0
 40
14.0
 40
15.0
 40
15.0
 40
15.0
 40
16.0
 40
16.0
 40
16.0
 40
16.0
 10
92.38920582956751
 20
-99.364866704221
 30
0.0
 10
92.38920582956751
 20
-99.364866704221
 30
0.0
 10
91.75173666519643
 20
-99.34793333657552
 30
0.0
 10
91.75173666519643
 20
-99.34793333657552
 30
0.0
 10
91.75173666519643
 20
-99.34793333657552
 30
0.0
 10
81.22908277022377
 20
-99.34793333657552
 30
0.0
 10
81.22908277022377
 20
-99.34793333657552
 30
0.0
 10
81.22908277022377
 20
-99.34793333657552
 30
0.0
 10
80.23213134937108
 20
-99.35816390760452
 30
0.0
 10
80.23213134937108
 20
-99.35816390760452
 30
0.0
 10
80.23213134937108
 20
-99.35816390760452
 30
0.0
 10
80.21696216331262
 20
-99.34405280995436
 30
0.0
 10
80.21696216331262
 20
-99.34405280995436
 30
0.0
 10
80.20708442860099
 20
-99.3352333318686
 30
0.0
 10
79.97707316682445
 20
-99.1193333359598
 30
0.0
 10
79.950263326099
 20
-98.55136110883305
 30
0.0
 10
79.950263326099
 20
-98.55136110883305
 30
0.0
 10
79.950263326099
 20
-96.92082218569895
 30
0.0
 10
79.950263326099
 20
-96.92082218569895
 30
0.0
 10
79.97707316682445
 20
-96.35002789884884
 30
0.0
 10
80.20708442860099
 20
-96.1341277347225
 30
0.0
 10
80.21696216331262
 20
-96.1253084248543
 30
0.0
 10
80.21696216331262
 20
-96.1253084248543
 30
0.0
 10
80.23177876538003
 20
-96.11190283162137
 30
0.0
 10
80.23177876538003
 20
-96.11190283162137
 30
0.0
 10
80.23177876538003
 20
-96.11190283162137
 30
0.0
 10
80.70485497104519
 20
-96.10696396426556
 30
0.0
 10
80.70485497104519
 20
-96.10696396426556
 30
0.0
 10
80.70485497104519
 20
-96.10696396426556
 30
0.0
 10
92.02796334461144
 20
-96.10696396426556
 30
0.0
 10
92.02796334461144
 20
-96.10696396426556
 30
0.0
 10
92.02796334461144
 20
-96.10696396426556
 30
0.0
 10
92.38885324557644
 20
-96.10520003500489
 30
0.0
 10
92.38885324557644
 20
-96.10520003500489
 30
0.0
 10
92.38885324557644
 20
-96.10520003500489
 30
0.0
 10
92.40366984764387
 20
-96.11895821222894
 30
0.0
 10
92.40366984764387
 20
-96.11895821222894
 30
0.0
 10
92.41354758235548
 20
-96.12813044252328
 30
0.0
 10
92.64355884413202
 20
-96.3443831906407
 30
0.0
 10
92.67037137633831
 20
-96.91235562803939
 30
0.0
 10
92.67037137633831
 20
-96.91235562803939
 30
0.0
 10
92.67037137633831
 20
-98.54289446706468
 30
0.0
 10
92.67037137633831
 20
-98.54289446706468
 30
0.0
 10
92.64355884413202
 20
-99.11263062345208
 30
0.0
 10
92.41460802580951
 20
-99.34017228333321
 30
0.0
 10
92.40472759961708
 20
-99.34969726583616
 30
0.0
 10
92.40472759961708
 20
-99.34969726583616
 30
0.0
 10
92.38920582956751
 20
-99.364866704221
 30
0.0
 10
92.38920582956751
 20
-99.364866704221
 30
0.0
  0
SPLINE
  5
D1
330
CB
100
AcDbEntity
  8
Livello 1
370
     0
100
AcDbSpline
210
0.0
220
0.0
230
1.0
 70
    11
 71
     3
 72
    41
 73
    37
 74
     0
 42
0.000000001
 43
0.0000000001
 40
0.0
 40
0.0
 40
0.0
 40
0.0
 40
1.0
 40
1.0
 40
1.0
 40
2.0
 40
2.0
 40
2.0
 40
3.0
 40
3.0
 40
3.0
 40
4.0
 40
4.0
 40
4.0
 40
5.0
 40
5.0
 40
5.0
 40
6.0
 40
6.0
 40
6.0
 40
7.0
 40
7.0
 40
7.0
 40
8.0
 40
8.0
 40
8.0
 40
9.0
 40
9.0
 40
9.0
 40
10.0
 40
10.0
 40
10.0
 40
11.0
 40
11.0
 40
11.0
 40
12.0
 40
12.0
 40
12.0
 40
12.0
 10
91.75314969264155
 20
-99.24351111303366
 30
0.0
 10
91.75314969264155
 20
-99.24351111303366
 30
0.0
 10
92.34581377533844
 20
-99.25903338773588
 30
0.0
 10
92.34581377533844
 20
-99.25903338773588
 30
0.0
 10
92.39238177696798
 20
-99.20188340860912
 30
0.0
 10
92.54513408100695
 20
-98.98351389491372
 30
0.0
 10
92.56594730240335
 20
-98.54042499133241
 30
0.0
 10
92.56594730240335
 20
-98.54042499133241
 30
0.0
 10
92.56594730240335
 20
-96.9148250617173
 30
0.0
 10
92.56594730240335
 20
-96.9148250617173
 30
0.0
 10
92.54513408100695
 20
-96.47279441476193
 30
0.0
 10
92.39167660898585
 20
-96.26324446326096
 30
0.0
 10
92.34581377533844
 20
-96.20997501075537
 30
0.0
 10
92.34581377533844
 20
-96.20997501075537
 30
0.0
 10
92.02796334461144
 20
-96.21173894001605
 30
0.0
 10
92.02796334461144
 20
-96.21173894001605
 30
0.0
 10
92.02796334461144
 20
-96.21173894001605
 30
0.0
 10
80.70556013902733
 20
-96.21173894001605
 30
0.0
 10
80.70556013902733
 20
-96.21173894001605
 30
0.0
 10
80.70556013902733
 20
-96.21173894001605
 30
0.0
 10
80.27481823561803
 20
-96.2159723029546
 30
0.0
 10
80.27481823561803
 20
-96.2159723029546
 30
0.0
 10
80.22966326143361
 20
-96.26818333061677
 30
0.0
 10
80.07585051394061
 20
-96.47773328211771
 30
0.0
 10
80.0546847085531
 20
-96.92329161937687
 30
0.0
 10
80.0546847085531
 20
-96.92329161937687
 30
0.0
 10
80.0546847085531
 20
-98.54889167515512
 30
0.0
 10
80.0546847085531
 20
-98.54889167515512
 30
0.0
 10
80.07585051394061
 20
-98.99021669153015
 30
0.0
 10
80.22860550946042
 20
-99.19976672713984
 30
0.0
 10
80.27481823561803
 20
-99.25303617964544
 30
0.0
 10
80.27481823561803
 20
-99.25303617964544
 30
0.0
 10
81.2287301862327
 20
-99.24351111303366
 30
0.0
 10
81.2287301862327
 20
-99.24351111303366
 30
0.0
 10
81.2287301862327
 20
-99.24351111303366
 30
0.0
 10
91.75314969264155
 20
-99.24351111303366
 30
0.0
 10
91.75314969264155
 20
-99.24351111303366
 30
0.0
  0
HATCH
  5
D2
330
CB
100
AcDbEntity
  8
Livello 1
 62
   250
420
  1842203
100
AcDbHatch
 10
0.0
 20
0.0
 30
0.0
210
0.0
220
0.0
230
1.0
  2
SOLID
 70
     1
 71
     0
 91
        2
 92
        1
 93
        1
 72
     4
 94
        3
 73
     0
 74
     0
 95
       53
 96
       49
 40
0.0
 40
0.0
 40
0.0
 40
0.0
 40
1.0
 40
1.0
 40
1.0
 40
2.0
 40
2.0
 40
2.0
 40
3.0
 40
3.0
 40
3.0
 40
4.0
 40
4.0
 40
4.0
 40
5.0
 40
5.0
 40
5.0
 40
6.0
 40
6.0
 40
6.0
 40
7.0
 40
7.0
 40
7.0
 40
8.0
 40
8.0
 40
8.0
 40
9.0
 40
9.0
 40
9.0
 40
10.0
 40
10.0
 40
10.0
 40
11.0
 40
11.0
 40
11.0
 40
12.0
 40
12.0
 40
12.0
 40
13.0
 40
13.0
 40
13.0
 40
14.0
 40
14.0
 40
14.0
 40
15.0
 40
15.0
 40
15.0
 40
16.0
 40
16.0
 40
16.0
 40
16.0
 10
92.38920582956751
 20
-99.364866704221
 10
92.38920582956751
 20
-99.364866704221
 10
91.75173666519643
 20
-99.34793333657552
 10
91.75173666519643
 20
-99.34793333657552
 10
91.75173666519643
 20
-99.34793333657552
 10
81.22908277022377
 20
-99.34793333657552
 10
81.22908277022377
 20
-99.34793333657552
 10
81.22908277022377
 20
-99.34793333657552
 10
80.23213134937108
 20
-99.35816390760452
 10
80.23213134937108
 20
-99.35816390760452
 10
80.23213134937108
 20
-99.35816390760452
 10
80.21696216331262
 20
-99.34405280995436
 10
80.21696216331262
 20
-99.34405280995436
 10
80.20708442860099
 20
-99.3352333318686
 10
79.97707316682445
 20
-99.1193333359598
 10
79.950263326099
 20
-98.55136110883305
 10
79.950263326099
 20
-98.55136110883305
 10
79.950263326099
 20
-96.92082218569895
 10
79.950263326099
 20
-96.92082218569895
 10
79.97707316682445
 20
-96.35002789884884
 10
80.20708442860099
 20
-96.1341277347225
 10
80.21696216331262
 20
-96.1253084248543
 10
80.21696216331262
 20
-96.1253084248543
 10
80.23177876538003
 20
-96.11190283162137
 10
80.23177876538003
 20
-96.11190283162137
 10
80.23177876538003
 20
-96.11190283162137
 10
80.70485497104519
 20
-96.10696396426556
 10
80.70485497104519
 20
-96.10696396426556
 10
80.70485497104519
 20
-96.10696396426556
 10
92.02796334461144
 20
-96.10696396426556
 10
92.02796334461144
 20
-96.10696396426556
 10
92.02796334461144
 20
-96.10696396426556
 10
92.38885324557644
 20
-96.10520003500489
 10
92.38885324557644
 20
-96.10520003500489
 10
92.38885324557644
 20
-96.10520003500489
 10
92.40366984764387
 20
-96.11895821222894
 10
92.40366984764387
 20
-96.11895821222894
 10
92.41354758235548
 20
-96.12813044252328
 10
92.64355884413202
 20
-96.3443831906407
 10
92.67037137633831
 20
-96.91235562803939
 10
92.67037137633831
 20
-96.91235562803939
 10
92.67037137633831
 20
-98.54289446706468
 10
92.67037137633831
 20
-98.54289446706468
 10
92.64355884413202
 20
-99.11263062345208
 10
92.41460802580951
 20
-99.34017228333321
 10
92.40472759961708
 20
-99.34969726583616
 10
92.40472759961708
 20
-99.34969726583616
 10
92.38920582956751
 20
-99.364866704221
 10
92.38920582956751
 20
-99.364866704221
 97
        0
 97
        0
 92
        1
 93
        1
 72
     4
 94
        3
 73
     0
 74
     0
 95
       41
 96
       37
 40
0.0
 40
0.0
 40
0.0
 40
0.0
 40
1.0
 40
1.0
 40
1.0
 40
2.0
 40
2.0
 40
2.0
 40
3.0
 40
3.0
 40
3.0
 40
4.0
 40
4.0
 40
4.0
 40
5.0
 40
5.0
 40
5.0
 40
6.0
 40
6.0
 40
6.0
 40
7.0
 40
7.0
 40
7.0
 40
8.0
 40
8.0
 40
8.0
 40
9.0
 40
9.0
 40
9.0
 40
10.0
 40
10.0
 40
10.0
 40
11.0
 40
11.0
 40
11.0
 40
12.0
 40
12.0
 40
12.0
 40
12.0
 10
91.75314969264155
 20
-99.24351111303366
 10
91.75314969264155
 20
-99.24351111303366
 10
92.34581377533844
 20
-99.25903338773588
 10
92.34581377533844
 20
-99.25903338773588
 10
92.39238177696798
 20
-99.20188340860912
 10
92.54513408100695
 20
-98.98351389491372
 10
92.56594730240335
 20
-98.54042499133241
 10
92.56594730240335
 20
-98.54042499133241
 10
92.56594730240335
 20
-96.9148250617173
 10
92.56594730240335
 20
-96.9148250617173
 10
92.54513408100695
 20
-96.47279441476193
 10
92.39167660898585
 20
-96.26324446326096
 10
92.34581377533844
 20
-96.20997501075537
 10
92.34581377533844
 20
-96.20997501075537
 10
92.02796334461144
 20
-96.21173894001605
 10
92.02796334461144
 20
-96.21173894001605
 10
92.02796334461144
 20
-96.21173894001605
 10
80.70556013902733
 20
-96.21173894001605
 10
80.70556013902733
 20
-96.21173894001605
 10
80.70556013902733
 20
-96.21173894001605
 10
80.27481823561803
 20
-96.2159723029546
 10
80.27481823561803
 20
-96.2159723029546
 10
80.22966326143361
 20
-96.26818333061677
 10
80.07585051394061
 20
-96.47773328211771
 10
80.0546847085531
 20
-96.92329161937687
 10
80.0546847085531
 20
-96.92329161937687
 10
80.0546847085531
 20
-98.54889167515512
 10
80.0546847085531
 20
-98.54889167515512
 10
80.07585051394061
 20
-98.99021669153015
 10
80.22860550946042
 20
-99.19976672713984
 10
80.27481823561803
 20
-99.25303617964544
 10
80.27481823561803
 20
-99.25303617964544
 10
81.2287301862327
 20
-99.24351111303366
 10
81.2287301862327
 20
-99.24351111303366
 10
81.2287301862327
 20
-99.24351111303366
 10
91.75314969264155
 20
-99.24351111303366
 10
91.75314969264155
 20
-99.24351111303366
 97
        0
 97
        0
 75
     2
 76
     1
 98
        0
450
        0
451
        0
460
0.0
461
0.0
452
        0
462
0.0
453
        0
470

  0
POLYLINE
  5
D3
330
CB
100
AcDbEntity
  8
Livello 1
370
     0
100
AcDb2dPolyline
 66
     1
 10
0.0
 20
0.0
 30
0.0
  0
VERTEX
  5
D4
330
D3
100
AcDbEntity
  8
Livello 1
370
     0
100
AcDbVertex
100
AcDb2dVertex
 10
14.32082559921345
 20
-92.68138575238392
 30
0.0
  0
VERTEX
  5
D5
330
D3
100
AcDbEntity
  8
Livello 1
370
     0
100
AcDbVertex
100
AcDb2dVertex
 10
10.53587144434372
 20
-92.68138575238392
 30
0.0
  0
VERTEX
  5
D6
330
D3
100
AcDbEntity
  8
Livello 1
370
     0
100
AcDbVertex
100
AcDb2dVertex
 10
10.53587144434372
 20
-89.5271996474443
 30
0.0
  0
VERTEX
  5
D7
330
D3
100
AcDbEntity
  8
Livello 1
370
     0
100
AcDbVertex
100
AcDb2dVertex
 10
14.32082559921345
 20
-89.5271996474443
 30
0.0
  0
VERTEX
  5
D8
330
D3
100
AcDbEntity
  8
Livello 1
370
     0
100
AcDbVertex
100
AcDb2dVertex
 10
14.32082559921345
 20
-92.68138575238392
 30
0.0
  0
SEQEND
  5
DA
330
D3
100
AcDbEntity
  8
Livello 1
370
     0
  0
HATCH
  5
D9
330
CB
100
AcDbEntity
  8
Livello 1
 62
     7
420
 16776959
100
AcDbHatch
 10
0.0
 20
0.0
 30
0.0
210
0.0
220
0.0
230
1.0
  2
SOLID
 70
     1
 71
     0
 91
        1
 92
        1
 93
        4
 72
     1
 10
14.32082559921345
 20
-92.68138575238392
 11
10.53587144434372
 21
-92.68138575238392
 72
     1
 10
10.53587144434372
 20
-92.68138575238392
 11
10.53587144434372
 21
-89.5271996474443
 72
     1
 10
10.53587144434372
 20
-89.5271996474443
 11
14.32082559921345
 21
-89.5271996474443
 72
     1
 10
14.32082559921345
 20
-89.5271996474443
 11
14.32082559921345
 21
-92.68138575238392
 97
        0
 75
     2
 76
     1
 98
        0
450
        0
451
        0
460
0.0
461
0.0
452
        0
462
0.0
453
        0
470

  0
POLYLINE
  5
DB
330
CB
100
AcDbEntity
  8
Livello 1
 62
   250
420
  1842203
370
     9
100
AcDb2dPolyline
 66
     1
 10
0.0
 20
0.0
 30
0.0
  0
VERTEX
  5
DC
330
DB
100
AcDbEntity
  8
Livello 1
 62
   250
420
  1842203
370
     9
100
AcDbVertex
100
AcDb2dVertex
 10
14.32093056696652
 20
-92.68138575238392
 30
0.0
  0
VERTEX
  5
DD
330
DB
100
AcDbEntity
  8
Livello 1
 62
   250
420
  1842203
370
     9
100
AcDbVertex
100
AcDb2dVertex
 10
10.53597372061594
 20
-92.68138575238392
 30
0.0
  0
VERTEX
  5
DE
330
DB
100
AcDbEntity
  8
Livello 1
 62
   250
420
  1842203
370
     9
100
AcDbVertex
100
AcDb2dVertex
 10
10.53597372061594
 20
-89.5271996474443
 30
0.0
  0
VERTEX
  5
DF
330
DB
100
AcDbEntity
  8
Livello 1
 62
   250
420
  1842203
370
     9
100
AcDbVertex
100
AcDb2dVertex
 10
14.32093056696652
 20
-89.5271996474443
 30
0.0
  0
VERTEX
  5
E0
330
DB
100
AcDbEntity
  8
Livello 1
 62
   250
420
  1842203
370
     9
100
AcDbVertex
100
AcDb2dVertex
 10
14.32093056696652
 20
-92.68138575238392
 30
0.0
  0
SEQEND
  5
E1
330
DB
100
AcDbEntity
  8
Livello 1
 62
   250
420
  1842203
370
     9
  0
POLYLINE
  5
E2
330
CB
100
AcDbEntity
  8
Livello 1
370
     0
100
AcDb2dPolyline
 66
     1
 10
0.0
 20
0.0
 30
0.0
  0
VERTEX
  5
E3
330
E2
100
AcDbEntity
  8
Livello 1
370
     0
100
AcDbVertex
100
AcDb2dVertex
 10
83.79617683069174
 20
-92.68138575238392
 30
0.0
  0
VERTEX
  5
E4
330
E2
100
AcDbEntity
  8
Livello 1
370
     0
100
AcDbVertex
100
AcDb2dVertex
 10
80.011222675822
 20
-92.68138575238392
 30
0.0
  0
VERTEX
  5
E5
330
E2
100
AcDbEntity
  8
Livello 1
370
     0
100
AcDbVertex
100
AcDb2dVertex
 10
80.011222675822
 20
-89.5271996474443
 30
0.0
  0
VERTEX
  5
E6
330
E2
100
AcDbEntity
  8
Livello 1
370
     0
100
AcDbVertex
100
AcDb2dVertex
 10
83.79617683069174
 20
-89.5271996474443
 30
0.0
  0
VERTEX
  5
E7
330
E2
100
AcDbEntity
  8
Livello 1
370
     0
100
AcDbVertex
100
AcDb2dVertex
 10
83.79617683069174
 20
-92.68138575238392
 30
0.0
  0
SEQEND
  5
E9
330
E2
100
AcDbEntity
  8
Livello 1
370
     0
  0
HATCH
  5
E8
330
CB
100
AcDbEntity
  8
Livello 1
 62
     7
420
 16776959
100
AcDbHatch
 10
0.0
 20
0.0
 30
0.0
210
0.0
220
0.0
230
1.0
  2
SOLID
 70
     1
 71
     0
 91
        1
 92
        1
 93
        4
 72
     1
 10
83.79617683069174
 20
-92.68138575238392
 11
80.011222675822
 21
-92.68138575238392
 72
     1
 10
80.011222675822
 20
-92.68138575238392
 11
80.011222675822
 21
-89.5271996474443
 72
     1
 10
80.011222675822
 20
-89.5271996474443
 11
83.79617683069174
 21
-89.5271996474443
 72
     1
 10
83.79617683069174
 20
-89.5271996474443
 11
83.79617683069174
 21
-92.68138575238392
 97
        0
 75
     2
 76
     1
 98
        0
450
        0
451
        0
460
0.0
461
0.0
452
        0
462
0.0
453
        0
470

  0
POLYLINE
  5
EA
330
CB
100
AcDbEntity
  8
Livello 1
370
     0
100
AcDb2dPolyline
 66
     1
 10
0.0
 20
0.0
 30
0.0
  0
VERTEX
  5
EB
330
EA
100
AcDbEntity
  8
Livello 1
370
     0
100
AcDbVertex
100
AcDb2dVertex
 10
83.84873876016945
 20
-92.73359711648121
 30
0.0
  0
VERTEX
  5
EC
330
EA
100
AcDbEntity
  8
Livello 1
370
     0
100
AcDbVertex
100
AcDb2dVertex
 10
79.9593632228456
 20
-92.73359711648121
 30
0.0
  0
VERTEX
  5
ED
330
EA
100
AcDbEntity
  8
Livello 1
370
     0
100
AcDbVertex
100
AcDb2dVertex
 10
79.9593632228456
 20
-89.47498895621727
 30
0.0
  0
VERTEX
  5
EE
330
EA
100
AcDbEntity
  8
Livello 1
370
     0
100
AcDbVertex
100
AcDb2dVertex
 10
83.84873876016945
 20
-89.47498895621727
 30
0.0
  0
VERTEX
  5
EF
330
EA
100
AcDbEntity
  8
Livello 1
370
     0
100
AcDbVertex
100
AcDb2dVertex
 10
83.84873876016945
 20
-92.73359711648121
 30
0.0
  0
SEQEND
  5
F0
330
EA
100
AcDbEntity
  8
Livello 1
370
     0
  0
POLYLINE
  5
F1
330
CB
100
AcDbEntity
  8
Livello 1
370
     0
100
AcDb2dPolyline
 66
     1
 10
0.0
 20
0.0
 30
0.0
  0
VERTEX
  5
F2
330
F1
100
AcDbEntity
  8
Livello 1
370
     0
100
AcDbVertex
100
AcDb2dVertex
 10
80.06378729678052
 20
-92.62917472472178
 30
0.0
  0
VERTEX
  5
F3
330
F1
100
AcDbEntity
  8
Livello 1
370
     0
100
AcDbVertex
100
AcDb2dVertex
 10
83.74396479372427
 20
-92.62917472472178
 30
0.0
  0
VERTEX
  5
F4
330
F1
100
AcDbEntity
  8
Livello 1
370
     0
100
AcDbVertex
100
AcDb2dVertex
 10
83.74396479372427
 20
-89.57941033867134
 30
0.0
  0
VERTEX
  5
F5
330
F1
100
AcDbEntity
  8
Livello 1
370
     0
100
AcDbVertex
100
AcDb2dVertex
 10
80.06378729678052
 20
-89.57941033867134
 30
0.0
  0
VERTEX
  5
F6
330
F1
100
AcDbEntity
  8
Livello 1
370
     0
100
AcDbVertex
100
AcDb2dVertex
 10
80.06378729678052
 20
-92.62917472472178
 30
0.0
  0
SEQEND
  5
F7
330
F1
100
AcDbEntity
  8
Livello 1
370
     0
  0
HATCH
  5
F8
330
CB
100
AcDbEntity
  8
Livello 1
 62
   250
420
  1842203
100
AcDbHatch
 10
0.0
 20
0.0
 30
0.0
210
0.0
220
0.0
230
1.0
  2
SOLID
 70
     1
 71
     0
 91
        2
 92
        1
 93
        4
 72
     1
 10
83.84873876016945
 20
-92.73359711648121
 11
79.9593632228456
 21
-92.73359711648121
 72
     1
 10
79.9593632228456
 20
-92.73359711648121
 11
79.9593632228456
 21
-89.47498895621727
 72
     1
 10
79.9593632228456
 20
-89.47498895621727
 11
83.84873876016945
 21
-89.47498895621727
 72
     1
 10
83.84873876016945
 20
-89.47498895621727
 11
83.84873876016945
 21
-92.73359711648121
 97
        0
 92
        1
 93
        4
 72
     1
 10
80.06378729678052
 20
-92.62917472472178
 11
83.74396479372427
 21
-92.62917472472178
 72
     1
 10
83.74396479372427
 20
-92.62917472472178
 11
83.74396479372427
 21
-89.57941033867134
 72
     1
 10
83.74396479372427
 20
-89.57941033867134
 11
80.06378729678052
 21
-89.57941033867134
 72
     1
 10
80.06378729678052
 20
-89.57941033867134
 11
80.06378729678052
 21
-92.62917472472178
 97
        0
 75
     2
 76
     1
 98
        0
450
        0
451
        0
460
0.0
461
0.0
452
        0
462
0.0
453
        0
470

  0
POLYLINE
  5
F9
330
CB
100
AcDbEntity
  8
Livello 1
370
     0
100
AcDb2dPolyline
 66
     1
 10
0.0
 20
0.0
 30
0.0
  0
VERTEX
  5
FA
330
F9
100
AcDbEntity
  8
Livello 1
370
     0
100
AcDbVertex
100
AcDb2dVertex
 10
79.94031561288536
 20
-92.73959407224527
 30
0.0
  0
VERTEX
  5
FB
330
F9
100
AcDbEntity
  8
Livello 1
370
     0
100
AcDbVertex
100
AcDb2dVertex
 10
83.84027405290295
 20
-92.73959407224527
 30
0.0
  0
VERTEX
  5
FC
330
F9
100
AcDbEntity
  8
Livello 1
370
     0
100
AcDbVertex
100
AcDb2dVertex
 10
83.84027405290295
 20
-89.46969683200018
 30
0.0
  0
VERTEX
  5
FD
330
F9
100
AcDbEntity
  8
Livello 1
370
     0
100
AcDbVertex
100
AcDb2dVertex
 10
79.94031561288536
 20
-89.46969683200018
 30
0.0
  0
VERTEX
  5
FE
330
F9
100
AcDbEntity
  8
Livello 1
370
     0
100
AcDbVertex
100
AcDb2dVertex
 10
79.94031561288536
 20
-92.73959407224527
 30
0.0
  0
SEQEND
  5
FF
330
F9
100
AcDbEntity
  8
Livello 1
370
     0
  0
ENDBLK
  5
CE
330
CB
100
AcDbEntity
  8
0
100
AcDbBlockEnd
  0
ENDSEC
  0
SECTION
  2
ENTITIES
  0
POLYLINE
  5
41
330
1F
100
AcDbEntity
  8
Livello 1
100
AcDb2dPolyline
 66
     1
 10
0.0
 20
0.0
 30
0.0
  0
VERTEX
  5
42
330
41
100
AcDbEntity
  8
Livello 1
100
AcDbVertex
100
AcDb2dVertex
 10
93.70732456704471
 20
-99.10977938735824
 30
0.0
  0
VERTEX
  5
43
330
41
100
AcDbEntity
  8
Livello 1
100
AcDbVertex
100
AcDb2dVertex
 10
93.70732456704471
 20
-101.7347988257634
 30
0.0
  0
SEQEND
  5
44
330
41
100
AcDbEntity
  8
Livello 1
  0
POLYLINE
  5
54
330
1F
100
AcDbEntity
  8
Livello 1
100
AcDb2dPolyline
 66
     1
 10
0.0
 20
0.0
 30
0.0
  0
VERTEX
  5
55
330
54
100
AcDbEntity
  8
Livello 1
100
AcDbVertex
100
AcDb2dVertex
 10
83.48763623221744
 20
-93.74748030691256
 30
0.0
  0
VERTEX
  5
56
330
54
100
AcDbEntity
  8
Livello 1
100
AcDbVertex
100
AcDb2dVertex
 10
80.29323334757902
 20
-93.74748030691256
 30
0.0
  0
SEQEND
  5
57
330
54
100
AcDbEntity
  8
Livello 1
  0
POLYLINE
  5
67
330
1F
100
AcDbEntity
  8
Livello 1
100
AcDb2dPolyline
 66
     1
 10
0.0
 20
0.0
 30
0.0
  0
VERTEX
  5
68
330
67
100
AcDbEntity
  8
Livello 1
100
AcDbVertex
100
AcDb2dVertex
 10
92.34775396878234
 20
-103.0939101901062
 30
0.0
  0
VERTEX
  5
69
330
67
100
AcDbEntity
  8
Livello 1
100
AcDbVertex
100
AcDb2dVertex
 10
80.29263143736214
 20
-103.0939101901062
 30
0.0
  0
SEQEND
  5
6A
330
67
100
AcDbEntity
  8
Livello 1
  0
MTEXT
  5
95
330
1F
100
AcDbEntity
  8
Livello 1
100
AcDbMText
 10
80.66362108844767
 20
-106.182617879369
 30
0.0
 40
2.123016666135912
 41
0.0
 46
0.0
 71
     7
 72
     1
  1
{\fSource Sans Pro Light|b0|i0|c0|p34;300 mm}
 73
     1
 44
1.0
  0
HATCH
  5
132
330
1F
100
AcDbEntity
  8
Livello 1
 62
   252
420
  8882054
100
AcDbHatch
 10
0.0
 20
0.0
 30
0.0
210
0.0
220
0.0
230
1.0
  2
SOLID
 70
     1
 71
     0
 91
        1
 92
        1
 93
        2
 72
     4
 94
        3
 73
     0
 74
     0
 95
       17
 96
       13
 40
0.0
 40
0.0
 40
0.0
 40
0.0
 40
0.3527777776895833
 40
0.3527777776895833
 40
0.3527777776895833
 40
0.7055555553791667
 40
0.7055555553791667
 40
0.7055555553791667
 40
1.05833333306875
 40
1.05833333306875
 40
1.05833333306875
 40
1.411111110758331
 40
1.411111110758331
 40
1.411111110758331
 40
1.411111110758331
 10
73.83704770101665
 20
-90.11612728185415
 10
74.03178037757999
 20
-90.11612728185415
 10
74.18982547870624
 20
-89.95808285359812
 10
74.18982547870624
 20
-89.76334950416458
 10
74.18982547870624
 20
-89.56861615473105
 10
74.03178037757999
 20
-89.41057172647498
 10
73.83704770101665
 20
-89.41057172647498
 10
73.64231367871292
 20
-89.41057172647498
 10
73.48426992332708
 20
-89.56861615473105
 10
73.48426992332708
 20
-89.76334950416458
 10
73.48426992332708
 20
-89.95808285359812
 10
73.64231367871292
 20
-90.11612728185415
 10
73.83704770101665
 20
-90.11612728185415
 97
        0
 72
     1
 10
73.83704770101665
 20
-90.11612728185415
 11
73.83704770101665
 21
-90.11612728185415
 97
        0
 75
     2
 76
     1
 98
        0
450
        0
451
        0
460
0.0
461
0.0
452
        0
462
0.0
453
        0
470

  0
HATCH
  5
134
330
1F
100
AcDbEntity
  8
Livello 1
 62
   252
420
  8882054
100
AcDbHatch
 10
0.0
 20
0.0
 30
0.0
210
0.0
220
0.0
230
1.0
  2
SOLID
 70
     1
 71
     0
 91
        1
 92
        1
 93
        2
 72
     4
 94
        3
 73
     0
 74
     0
 95
       17
 96
       13
 40
0.0
 40
0.0
 40
0.0
 40
0.0
 40
0.3527777776895833
 40
0.3527777776895833
 40
0.3527777776895833
 40
0.7055555553791667
 40
0.7055555553791667
 40
0.7055555553791667
 40
1.05833333306875
 40
1.05833333306875
 40
1.05833333306875
 40
1.411111110758331
 40
1.411111110758331
 40
1.411111110758331
 40
1.411111110758331
 10
73.83704770101665
 20
-92.74125236088268
 10
74.03178037757999
 20
-92.74125236088268
 10
74.18982547870624
 20
-92.58320793262665
 10
74.18982547870624
 20
-92.38847458319307
 10
74.18982547870624
 20
-92.19374123375954
 10
74.03178037757999
 20
-92.0356968055035
 10
73.83704770101665
 20
-92.0356968055035
 10
73.64231367871292
 20
-92.0356968055035
 10
73.48426992332708
 20
-92.19374123375954
 10
73.48426992332708
 20
-92.38847458319307
 10
73.48426992332708
 20
-92.58320793262665
 10
73.64231367871292
 20
-92.74125236088268
 10
73.83704770101665
 20
-92.74125236088268
 97
        0
 72
     1
 10
73.83704770101665
 20
-92.74125236088268
 11
73.83704770101665
 21
-92.74125236088268
 97
        0
 75
     2
 76
     1
 98
        0
450
        0
451
        0
460
0.0
461
0.0
452
        0
462
0.0
453
        0
470

  0
HATCH
  5
13D
330
1F
100
AcDbEntity
  8
Livello 1
 62
   252
420
  8882054
100
AcDbHatch
 10
0.0
 20
0.0
 30
0.0
210
0.0
220
0.0
230
1.0
  2
SOLID
 70
     1
 71
     0
 91
        1
 92
        1
 93
        2
 72
     4
 94
        3
 73
     0
 74
     0
 95
       17
 96
       13
 40
0.0
 40
0.0
 40
0.0
 40
0.0
 40
0.3527777776895833
 40
0.3527777776895833
 40
0.3527777776895833
 40
0.7055555553791667
 40
0.7055555553791667
 40
0.7055555553791667
 40
1.05833333306875
 40
1.05833333306875
 40
1.05833333306875
 40
1.411111110758331
 40
1.411111110758331
 40
1.411111110758331
 40
1.411111110758331
 10
83.13485845452786
 20
-93.74748030691256
 10
83.13485845452786
 20
-93.94221365634605
 10
83.29290220991367
 20
-94.10025808460213
 10
83.48763623221744
 20
-94.10025808460213
 10
83.68236756304034
 20
-94.10025808460213
 10
83.84041400990701
 20
-93.94221365634605
 10
83.84041400990701
 20
-93.74748030691256
 10
83.84041400990701
 20
-93.55274729391412
 10
83.68236756304034
 20
-93.39470252922295
 10
83.48763623221744
 20
-93.39470252922295
 10
83.29290220991367
 20
-93.39470252922295
 10
83.13485845452786
 20
-93.55274729391412
 10
83.13485845452786
 20
-93.74748030691256
 97
        0
 72
     1
 10
83.13485845452786
 20
-93.74748030691256
 11
83.13485845452786
 21
-93.74748030691256
 97
        0
 75
     2
 76
     1
 98
        0
450
        0
451
        0
460
0.0
461
0.0
452
        0
462
0.0
453
        0
470

  0
HATCH
  5
13F
330
1F
100
AcDbEntity
  8
Livello 1
 62
   252
420
  8882054
100
AcDbHatch
 10
0.0
 20
0.0
 30
0.0
210
0.0
220
0.0
230
1.0
  2
SOLID
 70
     1
 71
     0
 91
        1
 92
        1
 93
        2
 72
     4
 94
        3
 73
     0
 74
     0
 95
       17
 96
       13
 40
0.0
 40
0.0
 40
0.0
 40
0.0
 40
0.3527777776895833
 40
0.3527777776895833
 40
0.3527777776895833
 40
0.7055555553791667
 40
0.7055555553791667
 40
0.7055555553791667
 40
1.05833333306875
 40
1.05833333306875
 40
1.05833333306875
 40
1.411111110758331
 40
1.411111110758331
 40
1.411111110758331
 40
1.411111110758331
 10
79.94042058063842
 20
-93.74748030691256
 10
79.94042058063842
 20
-93.94221365634605
 10
80.09846433602424
 20
-94.10025808460213
 10
80.29319835832799
 20
-94.10025808460213
 10
80.4879296891509
 20
-94.10025808460213
 10
80.64597613601758
 20
-93.94221365634605
 10
80.64597613601758
 20
-93.74748030691256
 10
80.64597613601758
 20
-93.55274729391412
 10
80.4879296891509
 20
-93.39470252922295
 10
80.29319835832799
 20
-93.39470252922295
 10
80.09846433602424
 20
-93.39470252922295
 10
79.94042058063842
 20
-93.55274729391412
 10
79.94042058063842
 20
-93.74748030691256
 97
        0
 72
     1
 10
79.94042058063842
 20
-93.74748030691256
 11
79.94042058063842
 21
-93.74748030691256
 97
        0
 75
     2
 76
     1
 98
        0
450
        0
451
        0
460
0.0
461
0.0
452
        0
462
0.0
453
        0
470

  0
HATCH
  5
148
330
1F
100
AcDbEntity
  8
Livello 1
 62
   252
420
  8882054
100
AcDbHatch
 10
0.0
 20
0.0
 30
0.0
210
0.0
220
0.0
230
1.0
  2
SOLID
 70
     1
 71
     0
 91
        1
 92
        1
 93
        2
 72
     4
 94
        3
 73
     0
 74
     0
 95
       17
 96
       13
 40
0.0
 40
0.0
 40
0.0
 40
0.0
 40
0.3527777776895833
 40
0.3527777776895833
 40
0.3527777776895833
 40
0.7055555553791667
 40
0.7055555553791667
 40
0.7055555553791667
 40
1.05833333306875
 40
1.05833333306875
 40
1.05833333306875
 40
1.411111110758331
 40
1.411111110758331
 40
1.411111110758331
 40
1.411111110758331
 10
72.12469932506468
 20
-93.74748030691256
 10
72.12469932506468
 20
-93.94221365634605
 10
72.28274308045051
 20
-94.10025808460213
 10
72.47747710275426
 20
-94.10025808460213
 10
72.67220977931758
 20
-94.10025808460213
 10
72.83025488044384
 20
-93.94221365634605
 10
72.83025488044384
 20
-93.74748030691256
 10
72.83025488044384
 20
-93.55274729391412
 10
72.67220977931758
 20
-93.39470252922295
 10
72.47747710275426
 20
-93.39470252922295
 10
72.28274308045051
 20
-93.39470252922295
 10
72.12469932506468
 20
-93.55274729391412
 10
72.12469932506468
 20
-93.74748030691256
 97
        0
 72
     1
 10
72.12469932506468
 20
-93.74748030691256
 11
72.12469932506468
 21
-93.74748030691256
 97
        0
 75
     2
 76
     1
 98
        0
450
        0
451
        0
460
0.0
461
0.0
452
        0
462
0.0
453
        0
470

  0
HATCH
  5
14A
330
1F
100
AcDbEntity
  8
Livello 1
 62
   252
420
  8882054
100
AcDbHatch
 10
0.0
 20
0.0
 30
0.0
210
0.0
220
0.0
230
1.0
  2
SOLID
 70
     1
 71
     0
 91
        1
 92
        1
 93
        2
 72
     4
 94
        3
 73
     0
 74
     0
 95
       17
 96
       13
 40
0.0
 40
0.0
 40
0.0
 40
0.0
 40
0.3527777776895833
 40
0.3527777776895833
 40
0.3527777776895833
 40
0.7055555553791667
 40
0.7055555553791667
 40
0.7055555553791667
 40
1.05833333306875
 40
1.05833333306875
 40
1.05833333306875
 40
1.411111110758331
 40
1.411111110758331
 40
1.411111110758331
 40
1.411111110758331
 10
60.06940050164892
 20
-93.74748030691256
 10
60.06940050164892
 20
-93.94221365634605
 10
60.22744492990497
 20
-94.10025808460213
 10
60.42217827933851
 20
-94.10025808460213
 10
60.61691162877202
 20
-94.10025808460213
 10
60.77495605702809
 20
-93.94221365634605
 10
60.77495605702809
 20
-93.74748030691256
 10
60.77495605702809
 20
-93.55274729391412
 10
60.61691162877202
 20
-93.39470252922295
 10
60.42217827933851
 20
-93.39470252922295
 10
60.22744492990497
 20
-93.39470252922295
 10
60.06940050164892
 20
-93.55274729391412
 10
60.06940050164892
 20
-93.74748030691256
 97
        0
 72
     1
 10
60.06940050164892
 20
-93.74748030691256
 11
60.06940050164892
 21
-93.74748030691256
 97
        0
 75
     2
 76
     1
 98
        0
450
        0
451
        0
460
0.0
461
0.0
452
        0
462
0.0
453
        0
470

  0
MTEXT
  5
14B
330
1F
100
AcDbEntity
  8
Livello 1
100
AcDbMText
 10
96.81077858968578
 20
-102.1566132367269
 30
0.0
 40
2.123016666135912
 41
0.0
 46
0.0
 71
     7
 72
     1
  1
{\fSource Sans Pro Light|b0|i0|c0|p34;75 mm}
 11
-0.0000000000000002
 21
1.0
 31
0.0
 73
     1
 44
1.0
  0
MTEXT
  5
153
330
1F
100
AcDbEntity
  8
Livello 1
100
AcDbMText
 10
80.15568014896066
 20
-96.85100044372344
 30
0.0
 40
2.123016666135912
 41
0.0
 46
0.0
 71
     7
 72
     1
  1
{\fSource Sans Pro Light|b0|i0|c0|p34;95 mm}
 73
     1
 44
1.0
  0
POLYLINE
  5
17E
330
1F
100
AcDbEntity
  8
Livello 1
100
AcDb2dPolyline
 66
     1
 10
0.0
 20
0.0
 30
0.0
  0
VERTEX
  5
17F
330
17E
100
AcDbEntity
  8
Livello 1
100
AcDbVertex
100
AcDb2dVertex
 10
83.84873876016945
 20
-92.73359711648121
 30
0.0
  0
VERTEX
  5
180
330
17E
100
AcDbEntity
  8
Livello 1
100
AcDbVertex
100
AcDb2dVertex
 10
79.9593632228456
 20
-92.73359711648121
 30
0.0
  0
VERTEX
  5
181
330
17E
100
AcDbEntity
  8
Livello 1
100
AcDbVertex
100
AcDb2dVertex
 10
79.9593632228456
 20
-89.47498895621727
 30
0.0
  0
VERTEX
  5
182
330
17E
100
AcDbEntity
  8
Livello 1
100
AcDbVertex
100
AcDb2dVertex
 10
83.84873876016945
 20
-89.47498895621727
 30
0.0
  0
VERTEX
  5
183
330
17E
100
AcDbEntity
  8
Livello 1
100
AcDbVertex
100
AcDb2dVertex
 10
83.84873876016945
 20
-92.73359711648121
 30
0.0
  0
SEQEND
  5
184
330
17E
100
AcDbEntity
  8
Livello 1
  0
POLYLINE
  5
185
330
1F
100
AcDbEntity
  8
Livello 1
100
AcDb2dPolyline
 66
     1
 10
0.0
 20
0.0
 30
0.0
  0
VERTEX
  5
186
330
185
100
AcDbEntity
  8
Livello 1
100
AcDbVertex
100
AcDb2dVertex
 10
80.06378729678052
 20
-92.62917472472178
 30
0.0
  0
VERTEX
  5
187
330
185
100
AcDbEntity
  8
Livello 1
100
AcDbVertex
100
AcDb2dVertex
 10
83.74396479372427
 20
-92.62917472472178
 30
0.0
  0
VERTEX
  5
188
330
185
100
AcDbEntity
  8
Livello 1
100
AcDbVertex
100
AcDb2dVertex
 10
83.74396479372427
 20
-89.57941033867134
 30
0.0
  0
VERTEX
  5
189
330
185
100
AcDbEntity
  8
Livello 1
100
AcDbVertex
100
AcDb2dVertex
 10
80.06378729678052
 20
-89.57941033867134
 30
0.0
  0
VERTEX
  5
18A
330
185
100
AcDbEntity
  8
Livello 1
100
AcDbVertex
100
AcDb2dVertex
 10
80.06378729678052
 20
-92.62917472472178
 30
0.0
  0
SEQEND
  5
18B
330
185
100
AcDbEntity
  8
Livello 1
  0
POLYLINE
  5
18D
330
1F
100
AcDbEntity
  8
Livello 1
100
AcDb2dPolyline
 66
     1
 10
0.0
 20
0.0
 30
0.0
  0
VERTEX
  5
18E
330
18D
100
AcDbEntity
  8
Livello 1
100
AcDbVertex
100
AcDb2dVertex
 10
79.94031561288536
 20
-92.73959407224527
 30
0.0
  0
VERTEX
  5
18F
330
18D
100
AcDbEntity
  8
Livello 1
100
AcDbVertex
100
AcDb2dVertex
 10
83.84027405290295
 20
-92.73959407224527
 30
0.0
  0
VERTEX
  5
190
330
18D
100
AcDbEntity
  8
Livello 1
100
AcDbVertex
100
AcDb2dVertex
 10
83.84027405290295
 20
-89.46969683200018
 30
0.0
  0
VERTEX
  5
191
330
18D
100
AcDbEntity
  8
Livello 1
100
AcDbVertex
100
AcDb2dVertex
 10
79.94031561288536
 20
-89.46969683200018
 30
0.0
  0
VERTEX
  5
192
330
18D
100
AcDbEntity
  8
Livello 1
100
AcDbVertex
100
AcDb2dVertex
 10
79.94031561288536
 20
-92.73959407224527
 30
0.0
  0
SEQEND
  5
193
330
18D
100
AcDbEntity
  8
Livello 1
  0
POLYLINE
  5
19B
330
1F
100
AcDbEntity
  8
Livello 1
100
AcDb2dPolyline
 66
     1
 10
0.0
 20
0.0
 30
0.0
  0
VERTEX
  5
19C
330
19B
100
AcDbEntity
  8
Livello 1
100
AcDbVertex
100
AcDb2dVertex
 10
92.56592794623264
 20
-101.9926156250555
 30
0.0
  0
VERTEX
  5
19D
330
19B
100
AcDbEntity
  8
Livello 1
100
AcDbVertex
100
AcDb2dVertex
 10
79.8627980547118
 20
-101.9926156250555
 30
0.0
  0
VERTEX
  5
19E
330
19B
100
AcDbEntity
  8
Livello 1
100
AcDbVertex
100
AcDb2dVertex
 10
79.8627980547118
 20
-98.73400746479155
 30
0.0
  0
VERTEX
  5
19F
330
19B
100
AcDbEntity
  8
Livello 1
100
AcDbVertex
100
AcDb2dVertex
 10
92.56592794623264
 20
-98.73400746479155
 30
0.0
  0
VERTEX
  5
1A0
330
19B
100
AcDbEntity
  8
Livello 1
100
AcDbVertex
100
AcDb2dVertex
 10
92.56592794623264
 20
-101.9926156250555
 30
0.0
  0
SEQEND
  5
1A1
330
19B
100
AcDbEntity
  8
Livello 1
  0
POLYLINE
  5
1A2
330
1F
100
AcDbEntity
  8
Livello 1
100
AcDb2dPolyline
 66
     1
 10
0.0
 20
0.0
 30
0.0
  0
VERTEX
  5
1A3
330
1A2
100
AcDbEntity
  8
Livello 1
100
AcDbVertex
100
AcDb2dVertex
 10
79.96722212864674
 20
-101.888193233296
 30
0.0
  0
VERTEX
  5
1A4
330
1A2
100
AcDbEntity
  8
Livello 1
100
AcDbVertex
100
AcDb2dVertex
 10
92.46150387229768
 20
-101.8881934015136
 30
0.0
  0
VERTEX
  5
1A5
330
1A2
100
AcDbEntity
  8
Livello 1
100
AcDbVertex
100
AcDb2dVertex
 10
92.46150387229768
 20
-98.83842901546318
 30
0.0
  0
VERTEX
  5
1A6
330
1A2
100
AcDbEntity
  8
Livello 1
100
AcDbVertex
100
AcDb2dVertex
 10
79.96722212864674
 20
-98.83842884724565
 30
0.0
  0
VERTEX
  5
1A7
330
1A2
100
AcDbEntity
  8
Livello 1
100
AcDbVertex
100
AcDb2dVertex
 10
79.96722212864674
 20
-101.888193233296
 30
0.0
  0
SEQEND
  5
1A8
330
1A2
100
AcDbEntity
  8
Livello 1
  0
ENDSEC
  0
SECTION
  2
OBJECTS
  0
DICTIONARY
  5
C
330
0
100
AcDbDictionary
281
     1
  3
ACAD_CIP_PREVIOUS_PRODUCT_INFO
350
12E
  3
ACAD_COLOR
350
10E
  3
ACAD_DETAILVIEWSTYLE
350
129
  3
ACAD_GROUP
350
D
  3
ACAD_LAYOUT
350
1A
  3
ACAD_MATERIAL
350
3B
  3
ACAD_MLEADERSTYLE
350
101
  3
ACAD_MLINESTYLE
350
17
  3
ACAD_PLOTSETTINGS
350
19
  3
ACAD_PLOTSTYLENAME
350
E
  3
ACAD_SCALELIST
350
110
  3
ACAD_SECTIONVIEWSTYLE
350
127
  3
ACAD_TABLESTYLE
350
100
  3
ACAD_VISUALSTYLE
350
2A
  3
ACDB_RECOMPOSE_DATA
350
235
  3
AcDbVariableDictionary
350
1B1
  3
AcDsDecomposeData
350
23B
  0
SUN
  5
3F
330
29
100
AcDbSun
 90
        1
290
     1
 63
     7
421
 16777215
 40
1.0
291
     1
 91
  2455826
 92
 54000000
292
     0
 70
     0
 71
   256
280
     1
1001
ACAD
1000
AcDbSavedByObjectVersion
1070
     0
1000
AcDbSavedByObjectVersion
1070
     0
1000
AcDbSavedByObjectVersion
1070
     0
  0
DICTIONARY
  5
1FD
330
2
100
AcDbDictionary
280
     1
281
     1
  3
ACAD_LAYERSTATES
360
1FE
  0
DICTIONARY
  5
12F
330
1F
100
AcDbDictionary
280
     1
281
     1
  3
ACAD_SORTENTS
360
130
  0
XRECORD
  5
12E
102
{ACAD_REACTORS
330
C
102
}
330
C
100
AcDbXrecord
280
     1
300
ACD
300
2020
300

  0
DICTIONARY
  5
10E
102
{ACAD_REACTORS
330
C
102
}
330
C
100
AcDbDictionary
281
     1
  0
DICTIONARY
  5
129
102
{ACAD_REACTORS
330
C
102
}
330
C
100
AcDbDictionary
281
     1
  3
Imperial24
350
12A
  0
DICTIONARY
  5
D
102
{ACAD_REACTORS
330
C
102
}
330
C
100
AcDbDictionary
281
     1
  0
DICTIONARY
  5
1A
102
{ACAD_REACTORS
330
C
102
}
330
C
100
AcDbDictionary
281
     1
  3
Layout1
350
1E
  3
Layout2
350
26
  3
Model
350
22
  0
DICTIONARY
  5
3B
102
{ACAD_REACTORS
330
C
102
}
330
C
100
AcDbDictionary
281
     1
  3
ByBlock
350
3D
  3
ByLayer
350
3C
  3
Global
350
3E
  0
DICTIONARY
  5
101
102
{ACAD_REACTORS
330
C
102
}
330
C
100
AcDbDictionary
281
     1
  3
Standard
350
126
  0
DICTIONARY
  5
17
102
{ACAD_REACTORS
330
C
102
}
330
C
100
AcDbDictionary
281
     1
  3
Standard
350
18
  0
DICTIONARY
  5
19
102
{ACAD_REACTORS
330
C
102
}
330
C
100
AcDbDictionary
281
     1
  0
ACDBDICTIONARYWDFLT
  5
E
102
{ACAD_REACTORS
330
C
102
}
330
C
100
AcDbDictionary
281
     1
  3
Normal
350
F
100
AcDbDictionaryWithDefault
340
F
  0
DICTIONARY
  5
110
102
{ACAD_REACTORS
330
C
102
}
330
C
100
AcDbDictionary
281
     1
  3
A0
350
111
  3
A1
350
112
  3
A2
350
113
  3
A3
350
114
  3
A4
350
115
  3
A5
350
116
  3
A6
350
117
  3
A7
350
118
  3
A8
350
119
  3
A9
350
11A
  3
B0
350
11B
  3
B1
350
11C
  3
B2
350
11D
  3
B3
350
11E
  3
B4
350
11F
  3
B5
350
120
  3
B6
350
121
  3
B7
350
122
  3
B8
350
123
  3
B9
350
124
  3
C0
350
125
  0
DICTIONARY
  5
127
102
{ACAD_REACTORS
330
C
102
}
330
C
100
AcDbDictionary
281
     1
  3
Imperial24
350
128
  0
DICTIONARY
  5
100
102
{ACAD_REACTORS
330
C
102
}
330
C
100
AcDbDictionary
281
     1
  3
Standard
350
10F
  0
DICTIONARY
  5
2A
102
{ACAD_REACTORS
330
C
102
}
330
C
100
AcDbDictionary
281
     1
  3
2dWireframe
350
2F
  3
3D Hidden
350
31
  3
3dWireframe
350
30
  3
Basic
350
32
  3
Brighten
350
36
  3
ColorChange
350
3A
  3
Conceptual
350
34
  3
Dim
350
35
  3
EdgeColorOff
350
10D
  3
Facepattern
350
39
  3
Flat
350
2B
  3
FlatWithEdges
350
2C
  3
Gouraud
350
2D
  3
GouraudWithEdges
350
2E
  3
Hidden
350
105
  3
JitterOff
350
10B
  3
Linepattern
350
38
  3
OverhangOff
350
10C
  3
Realistic
350
33
  3
Shaded
350
10A
  3
Shaded with edges
350
109
  3
Shades of Gray
350
106
  3
Sketchy
350
107
  3
Thicken
350
37
  3
Wireframe
350
104
  3
X-Ray
350
108
  0
XRECORD
  5
235
102
{ACAD_REACTORS
330
C
102
}
330
C
100
AcDbXrecord
280
     1
 90
        1
330
10F
  0
DICTIONARY
  5
1B1
102
{ACAD_REACTORS
330
C
102
}
330
C
100
AcDbDictionary
281
     1
  3
CANNOSCALE
350
1B6
  3
CMLEADERSTYLE
350
1B3
  3
CTABLESTYLE
350
1B2
  3
CVIEWDETAILSTYLE
350
1B4
  3
CVIEWSECTIONSTYLE
350
1B5
  0
DICTIONARY
  5
23B
102
{ACAD_REACTORS
330
C
102
}
330
C
100
AcDbDictionary
281
     1
  3
AcDsRecords
350
23D
  3
AcDsSchemas
350
23C
1001
ACAD
1070
     2
  0
DICTIONARY
  5
1FE
102
{ACAD_REACTORS
330
1FD
102
}
330
1FD
100
AcDbDictionary
281
     1
  0
SORTENTSTABLE
  5
130
102
{ACAD_REACTORS
330
12F
102
}
330
12F
100
AcDbSortentsTable
330
1F
331
54
  5
97
331
67
  5
135
331
95
  5
154
331
132
  5
67
331
134
  5
88
331
13D
  5
131
331
13F
  5
133
331
148
  5
13D
331
14A
  5
13F
331
14B
  5
140
331
153
  5
149
  0
ACDBDETAILVIEWSTYLE
  5
12A
102
{ACAD_XDICTIONARY
360
240
102
}
102
{ACAD_REACTORS
330
129
102
}
330
129
100
AcDbModelDocViewStyle
 70
     0
  3
Imperial24
290
     0
100
AcDbDetailViewStyle
 70
     0
 71
     0
 90
        3
 71
     1
340
11
 62
   256
 40
0.24
340
0
 62
   256
 40
0.24
300

 40
0.36
280
     3
 71
     2
340
16
 90
       25
 62
   256
 71
     3
340
11
 62
   256
 40
0.24
 90
        1
 40
0.75
 90
        1
300
%<\AcVar ViewType \f "%tc1">% %<\AcVar ViewDetailId>%\PSCALA %<\AcVar ViewScale \f "%sn">%
 71
     4
340
16
 90
       25
 62
   256
340
16
 90
       25
 62
   256
280
     0
  0
LAYOUT
  5
1E
102
{ACAD_REACTORS
330
1A
102
}
330
1A
100
AcDbPlotSettings
  1

  2
none_device
  4

  6

 40
0.0
 41
0.0
 42
0.0
 43
0.0
 44
0.0
 45
0.0
 46
0.0
 47
0.0
 48
0.0
 49
0.0
140
0.0
141
0.0
142
1.0
143
1.0
 70
   688
 72
     0
 73
     0
 74
     5
  7

 75
    16
147
1.0
 76
     0
 77
     2
 78
   300
148
0.0
149
0.0
100
AcDbLayout
  1
Layout1
 70
     1
 71
     1
 10
0.0
 20
0.0
 11
12.0
 21
9.0
 12
0.0
 22
0.0
 32
0.0
 14
1.000000000000000E+20
 24
1.000000000000000E+20
 34
1.000000000000000E+20
 15
-1.000000000000000E+20
 25
-1.000000000000000E+20
 35
-1.000000000000000E+20
146
0.0
 13
0.0
 23
0.0
 33
0.0
 16
1.0
 26
0.0
 36
0.0
 17
0.0
 27
1.0
 37
0.0
 76
     0
330
1B
  0
LAYOUT
  5
26
102
{ACAD_REACTORS
330
1A
102
}
330
1A
100
AcDbPlotSettings
  1

  2
none_device
  4

  6

 40
0.0
 41
0.0
 42
0.0
 43
0.0
 44
0.0
 45
0.0
 46
0.0
 47
0.0
 48
0.0
 49
0.0
140
0.0
141
0.0
142
1.0
143
1.0
 70
   688
 72
     0
 73
     0
 74
     5
  7

 75
    16
147
1.0
 76
     0
 77
     2
 78
   300
148
0.0
149
0.0
100
AcDbLayout
  1
Layout2
 70
     1
 71
     2
 10
0.0
 20
0.0
 11
0.0
 21
0.0
 12
0.0
 22
0.0
 32
0.0
 14
0.0
 24
0.0
 34
0.0
 15
0.0
 25
0.0
 35
0.0
146
0.0
 13
0.0
 23
0.0
 33
0.0
 16
1.0
 26
0.0
 36
0.0
 17
0.0
 27
1.0
 37
0.0
 76
     0
330
23
  0
LAYOUT
  5
22
102
{ACAD_REACTORS
330
1A
102
}
330
1A
100
AcDbPlotSettings
  1

  2
none_device
  4

  6

 40
0.0
 41
0.0
 42
0.0
 43
0.0
 44
0.0
 45
0.0
 46
0.0
 47
0.0
 48
0.0
 49
0.0
140
0.0
141
0.0
142
1.0
143
1.0
 70
  1712
 72
     0
 73
     0
 74
     0
  7

 75
     0
147
1.0
 76
     0
 77
     2
 78
   300
148
0.0
149
0.0
100
AcDbLayout
  1
Model
 70
     1
 71
     0
 10
0.0
 20
0.0
 11
12.0
 21
9.0
 12
0.0
 22
0.0
 32
0.0
 14
1.000000000000000E+20
 24
1.000000000000000E+20
 34
1.000000000000000E+20
 15
-1.000000000000000E+20
 25
-1.000000000000000E+20
 35
-1.000000000000000E+20
146
0.0
 13
0.0
 23
0.0
 33
0.0
 16
1.0
 26
0.0
 36
0.0
 17
0.0
 27
1.0
 37
0.0
 76
     0
330
1F
331
29
  0
MATERIAL
  5
3D
102
{ACAD_REACTORS
330
3B
102
}
330
3B
100
AcDbMaterial
  1
ByBlock
  0
MATERIAL
  5
3C
102
{ACAD_REACTORS
330
3B
102
}
330
3B
100
AcDbMaterial
  1
ByLayer
  0
MATERIAL
  5
3E
102
{ACAD_REACTORS
330
3B
102
}
330
3B
100
AcDbMaterial
  1
Global
  0
MLEADERSTYLE
  5
126
102
{ACAD_REACTORS
330
101
102
}
330
101
100
AcDbMLeaderStyle
179
     2
170
     2
171
     1
172
     0
 90
        2
 40
0.0
 41
0.0
173
     1
 91
-1056964608
340
14
 92
       -2
290
     1
 42
0.09
291
     1
 43
0.36
  3
Standard
 44
0.18
300

342
11
174
     1
178
     6
175
     1
176
     0
 93
-1056964608
 45
0.18
292
     0
297
     0
 46
0.18
 94
-1056964608
 47
1.0
 49
1.0
140
1.0
293
     1
141
0.0
294
     1
177
     0
142
1.0
295
     0
296
     0
143
0.125
271
     0
272
     9
273
     9
298
     0
1001
ACAD_MLEADERVER
1070
     2
  0
MLINESTYLE
  5
18
102
{ACAD_REACTORS
330
17
102
}
330
17
100
AcDbMlineStyle
  2
STANDARD
 70
     0
  3

 62
   256
 51
90.0
 52
90.0
 71
     2
 49
0.5
 62
   256
  6
BYLAYER
 49
-0.5
 62
   256
  6
BYLAYER
  0
ACDBPLACEHOLDER
  5
F
102
{ACAD_REACTORS
330
E
102
}
330
E
  0
SCALE
  5
111
102
{ACAD_REACTORS
330
110
102
}
330
110
100
AcDbScale
 70
     0
300
1:1
140
1.0
141
1.0
290
     1
  0
SCALE
  5
112
102
{ACAD_REACTORS
330
110
102
}
330
110
100
AcDbScale
 70
     0
300
1.10
140
1.0
141
10.0
290
     0
  0
SCALE
  5
113
102
{ACAD_REACTORS
330
110
102
}
330
110
100
AcDbScale
 70
     0
300
1.50
140
1.0
141
50.0
290
     0
  0
SCALE
  5
114
102
{ACAD_REACTORS
330
110
102
}
330
110
100
AcDbScale
 70
     0
300
1:100
140
1.0
141
100.0
290
     0
  0
SCALE
  5
115
102
{ACAD_REACTORS
330
110
102
}
330
110
100
AcDbScale
 70
     0
300
1.200
140
1.0
141
200.0
290
     0
  0
SCALE
  5
116
102
{ACAD_REACTORS
330
110
102
}
330
110
100
AcDbScale
 70
     0
300
1/128" = 1'-0"
140
0.0078125
141
12.0
290
     0
  0
SCALE
  5
117
102
{ACAD_REACTORS
330
110
102
}
330
110
100
AcDbScale
 70
     0
300
1/64" = 1'-0"
140
0.015625
141
12.0
290
     0
  0
SCALE
  5
118
102
{ACAD_REACTORS
330
110
102
}
330
110
100
AcDbScale
 70
     0
300
1/32" = 1'-0"
140
0.03125
141
12.0
290
     0
  0
SCALE
  5
119
102
{ACAD_REACTORS
330
110
102
}
330
110
100
AcDbScale
 70
     0
300
1/16" = 1'-0"
140
0.0625
141
12.0
290
     0
  0
SCALE
  5
11A
102
{ACAD_REACTORS
330
110
102
}
330
110
100
AcDbScale
 70
     0
300
3/32" = 1'-0"
140
0.09375
141
12.0
290
     0
  0
SCALE
  5
11B
102
{ACAD_REACTORS
330
110
102
}
330
110
100
AcDbScale
 70
     0
300
1/8" = 1'-0"
140
0.125
141
12.0
290
     0
  0
SCALE
  5
11C
102
{ACAD_REACTORS
330
110
102
}
330
110
100
AcDbScale
 70
     0
300
3/16" = 1'-0"
140
0.1875
141
12.0
290
     0
  0
SCALE
  5
11D
102
{ACAD_REACTORS
330
110
102
}
330
110
100
AcDbScale
 70
     0
300
1/4" = 1'-0"
140
0.25
141
12.0
290
     0
  0
SCALE
  5
11E
102
{ACAD_REACTORS
330
110
102
}
330
110
100
AcDbScale
 70
     0
300
3/8" = 1'-0"
140
0.375
141
12.0
290
     0
  0
SCALE
  5
11F
102
{ACAD_REACTORS
330
110
102
}
330
110
100
AcDbScale
 70
     0
300
1/2" = 1'-0"
140
0.5
141
12.0
290
     0
  0
SCALE
  5
120
102
{ACAD_REACTORS
330
110
102
}
330
110
100
AcDbScale
 70
     0
300
3/4" = 1'-0"
140
0.75
141
12.0
290
     0
  0
SCALE
  5
121
102
{ACAD_REACTORS
330
110
102
}
330
110
100
AcDbScale
 70
     0
300
1" = 1'-0"
140
1.0
141
12.0
290
     0
  0
SCALE
  5
122
102
{ACAD_REACTORS
330
110
102
}
330
110
100
AcDbScale
 70
     0
300
1-1/2" = 1'-0"
140
1.5
141
12.0
290
     0
  0
SCALE
  5
123
102
{ACAD_REACTORS
330
110
102
}
330
110
100
AcDbScale
 70
     0
300
3" = 1'-0"
140
3.0
141
12.0
290
     0
  0
SCALE
  5
124
102
{ACAD_REACTORS
330
110
102
}
330
110
100
AcDbScale
 70
     0
300
6" = 1'-0"
140
6.0
141
12.0
290
     0
  0
SCALE
  5
125
102
{ACAD_REACTORS
330
110
102
}
330
110
100
AcDbScale
 70
     0
300
1'-0" = 1'-0"
140
12.0
141
12.0
290
     0
  0
ACDBSECTIONVIEWSTYLE
  5
128
102
{ACAD_XDICTIONARY
360
23E
102
}
102
{ACAD_REACTORS
330
127
102
}
330
127
100
AcDbModelDocViewStyle
 70
     0
  3
Imperial24
290
     0
100
AcDbSectionViewStyle
 70
     0
 71
     0
 90
       78
 71
     1
340
11
 62
   256
 40
0.24
340
0
340
0
 62
   256
 40
0.24
300
I, O, Q, S, X, Z
 40
0.48
 90
        3
 40
0.18
 90
        1
 71
     2
340
16
 90
       25
 62
   256
340
16
 90
       50
 62
   256
 40
0.24
 40
0.0
 40
0.24
 71
     3
340
11
 62
   256
 40
0.24
 90
        1
 40
0.75
 90
        1
300
%<\AcVar ViewType \f "%tc1">% %<\AcVar ViewSectionStartId>%-%<\AcVar ViewSectionEndId>%\PSCALA %<\AcVar ViewScale \f "%sn">%
 71
     4
 62
   256
 62
   257
300
ANSI31
 40
1.0
 90
        0
290
     0
290
     0
 90
        6
 40
0.0
 40
1.570796326794896
 40
0.2617993877991494
 40
1.308996938995747
 40
-0.2617993877991494
 40
1.832595714594044
  0
TABLESTYLE
  5
10F
102
{ACAD_XDICTIONARY
360
1B9
102
}
102
{ACAD_REACTORS
330
100
102
}
330
100
100
AcDbTableStyle
280
     0
  3
Standard
 70
     0
 71
     0
 40
0.06
 41
0.06
280
     0
281
     0
  7
Standard
140
0.18
170
     2
 62
     0
 63
     7
283
     0
 90
      512
 91
        0
  1

274
    -2
284
     1
 64
     0
275
    -2
285
     1
 65
     0
276
    -2
286
     1
 66
     0
277
    -2
287
     1
 67
     0
278
    -2
288
     1
 68
     0
279
    -2
289
     1
 69
     0
  7
Standard
140
0.25
170
     5
 62
     0
 63
     7
283
     0
 90
      512
 91
        0
  1

274
    -2
284
     1
 64
     0
275
    -2
285
     1
 65
     0
276
    -2
286
     1
 66
     0
277
    -2
287
     1
 67
     0
278
    -2
288
     1
 68
     0
279
    -2
289
     1
 69
     0
  7
Standard
140
0.18
170
     5
 62
     0
 63
     7
283
     0
 90
      512
 91
        0
  1

274
    -2
284
     1
 64
     0
275
    -2
285
     1
 65
     0
276
    -2
286
     1
 66
     0
277
    -2
287
     1
 67
     0
278
    -2
288
     1
 68
     0
279
    -2
289
     1
 69
     0
  0
VISUALSTYLE
  5
2F
102
{ACAD_REACTORS
330
2A
102
}
330
2A
100
AcDbVisualStyle
  2

 70
     4
177
     3
291
     0
 70
    58
 90
        0
176
     1
 90
        2
176
     1
 90
        0
176
     1
 90
        0
176
     1
 40
0.6
176
     1
 40
30.0
176
     1
 62
     7
420
 16777215
176
     1
 90
        1
176
     1
 90
        4
176
     1
 62
     7
176
     1
 62
   257
176
     1
 90
        1
176
     1
 90
        1
176
     1
 40
1.0
176
     1
 90
        0
176
     1
 62
   257
176
     1
 40
1.0
176
     1
 90
        1
176
     1
 90
        6
176
     1
 90
        2
176
     1
 62
     7
176
     1
 90
        5
176
     1
 90
        0
176
     1
 90
        0
176
     1
290
     0
176
     1
 90
        1
176
     1
 40
0.0
176
     1
 90
        0
176
     1
290
     1
176
     1
290
     1
176
     1
290
     0
176
     1
290
     0
176
     1
290
     0
176
     1
290
     0
176
     1
290
     0
176
     1
290
     0
176
     1
290
     0
176
     1
 90
       50
176
     1
 40
0.0
176
     1
 40
1.0
176
     1
 90
        0
176
     1
 62
    18
176
     1
 90
       50
176
     1
 90
        3
176
     1
 62
     5
420
      255
176
     1
290
     0
176
     1
 90
       50
176
     1
 90
       50
176
     1
 90
       50
176
     1
290
     0
176
     1
 90
       50
176
     1
 62
   256
176
     0
 40
1.0
176
     0
 90
        2
176
     1
  1
strokes_ogs.tif
176
     1
290
     0
176
     1
 40
1.0
176
     1
 40
1.0
176
     1
1001
ACAD
1000
AcDbSavedByObjectVersion
1070
     0
  0
VISUALSTYLE
  5
31
102
{ACAD_REACTORS
330
2A
102
}
330
2A
100
AcDbVisualStyle
  2

 70
     6
177
     3
291
     0
 70
    58
 90
        1
176
     1
 90
        2
176
     1
 90
        2
176
     1
 90
        0
176
     1
 40
0.6
176
     1
 40
30.0
176
     1
 62
     7
420
 16777215
176
     1
 90
        2
176
     1
 90
        2
176
     1
 62
     7
176
     1
 62
   257
176
     1
 90
        2
176
     1
 90
        1
176
     1
 40
40.0
176
     1
 90
        0
176
     1
 62
   257
176
     1
 40
1.0
176
     1
 90
        1
176
     1
 90
        6
176
     1
 90
        2
176
     1
 62
     7
176
     1
 90
        3
176
     1
 90
        0
176
     1
 90
        0
176
     1
290
     0
176
     1
 90
        1
176
     1
 40
0.0
176
     1
 90
        0
176
     1
290
     0
176
     1
290
     1
176
     1
290
     1
176
     1
290
     0
176
     1
290
     0
176
     1
290
     0
176
     1
290
     0
176
     1
290
     0
176
     1
290
     0
176
     1
 90
       50
176
     1
 40
0.0
176
     1
 40
1.0
176
     1
 90
        0
176
     1
 62
    18
176
     1
 90
       50
176
     1
 90
        3
176
     1
 62
     5
420
      255
176
     1
290
     0
176
     1
 90
       50
176
     1
 90
       50
176
     1
 90
       50
176
     1
290
     0
176
     1
 90
       50
176
     1
 62
   256
176
     0
 40
1.0
176
     0
 90
        2
176
     1
  1
strokes_ogs.tif
176
     1
290
     0
176
     1
 40
1.0
176
     1
 40
1.0
176
     1
1001
ACAD
1000
AcDbSavedByObjectVersion
1070
     0
  0
VISUALSTYLE
  5
30
102
{ACAD_REACTORS
330
2A
102
}
330
2A
100
AcDbVisualStyle
  2

 70
     5
177
     3
291
     0
 70
    58
 90
        0
176
     1
 90
        2
176
     1
 90
        0
176
     1
 90
        0
176
     1
 40
0.6
176
     1
 40
30.0
176
     1
 62
     7
420
 16777215
176
     1
 90
        1
176
     1
 90
        4
176
     1
 62
     7
176
     1
 62
   257
176
     1
 90
        1
176
     1
 90
        1
176
     1
 40
1.0
176
     1
 90
        0
176
     1
 62
   257
176
     1
 40
1.0
176
     1
 90
        1
176
     1
 90
        6
176
     1
 90
        2
176
     1
 62
     7
176
     1
 90
        5
176
     1
 90
        0
176
     1
 90
        0
176
     1
290
     0
176
     1
 90
        1
176
     1
 40
0.0
176
     1
 90
        0
176
     1
290
     0
176
     1
290
     1
176
     1
290
     1
176
     1
290
     0
176
     1
290
     0
176
     1
290
     0
176
     1
290
     0
176
     1
290
     0
176
     1
290
     0
176
     1
 90
       50
176
     1
 40
0.0
176
     1
 40
1.0
176
     1
 90
        0
176
     1
 62
    18
176
     1
 90
       50
176
     1
 90
        3
176
     1
 62
     5
420
      255
176
     1
290
     0
176
     1
 90
       50
176
     1
 90
       50
176
     1
 90
       50
176
     1
290
     0
176
     1
 90
       50
176
     1
 62
   256
176
     0
 40
1.0
176
     0
 90
        2
176
     1
  1
strokes_ogs.tif
176
     1
290
     0
176
     1
 40
1.0
176
     1
 40
1.0
176
     1
1001
ACAD
1000
AcDbSavedByObjectVersion
1070
     0
  0
VISUALSTYLE
  5
32
102
{ACAD_REACTORS
330
2A
102
}
330
2A
100
AcDbVisualStyle
  2

 70
     7
177
     3
291
     1
 70
    58
 90
        1
176
     1
 90
        0
176
     1
 90
        1
176
     1
 90
        0
176
     1
 40
0.6
176
     1
 40
30.0
176
     1
 62
     7
420
 16777215
176
     1
 90
        0
176
     1
 90
        4
176
     1
 62
     7
176
     1
 62
   257
176
     1
 90
        1
176
     1
 90
        1
176
     1
 40
1.0
176
     1
 90
        8
176
     1
 62
     7
176
     1
 40
1.0
176
     1
 90
        1
176
     1
 90
        6
176
     1
 90
        2
176
     1
 62
     7
176
     1
 90
        5
176
     1
 90
        0
176
     1
 90
        0
176
     1
290
     0
176
     1
 90
        1
176
     1
 40
0.0
176
     1
 90
        0
176
     1
290
     0
176
     1
290
     1
176
     1
290
     1
176
     1
290
     0
176
     1
290
     0
176
     1
290
     0
176
     1
290
     0
176
     1
290
     0
176
     1
290
     0
176
     1
 90
       50
176
     1
 40
0.0
176
     1
 40
1.0
176
     1
 90
        0
176
     1
 62
    18
176
     1
 90
       50
176
     1
 90
        3
176
     1
 62
     5
420
      255
176
     1
290
     0
176
     1
 90
       50
176
     1
 90
       50
176
     1
 90
       50
176
     1
290
     0
176
     1
 90
       50
176
     1
 62
   256
176
     0
 40
1.0
176
     0
 90
        2
176
     1
  1
strokes_ogs.tif
176
     1
290
     0
176
     1
 40
1.0
176
     1
 40
1.0
176
     1
1001
ACAD
1000
AcDbSavedByObjectVersion
1070
     0
  0
VISUALSTYLE
  5
36
102
{ACAD_REACTORS
330
2A
102
}
330
2A
100
AcDbVisualStyle
  2

 70
    12
177
     3
291
     1
 70
    58
 90
        2
176
     1
 90
        2
176
     1
 90
        0
176
     1
 90
        0
176
     1
 40
0.6
176
     1
 40
30.0
176
     1
 62
     7
420
 16777215
176
     1
 90
        1
176
     1
 90
        4
176
     1
 62
     7
176
     1
 62
   257
176
     1
 90
        1
176
     1
 90
        1
176
     1
 40
1.0
176
     1
 90
        8
176
     1
 62
     7
176
     1
 40
1.0
176
     1
 90
        1
176
     1
 90
        6
176
     1
 90
        2
176
     1
 62
     7
176
     1
 90
        5
176
     1
 90
        0
176
     1
 90
        0
176
     1
290
     0
176
     1
 90
        1
176
     1
 40
50.0
176
     1
 90
        0
176
     1
290
     0
176
     1
290
     1
176
     1
290
     1
176
     1
290
     0
176
     1
290
     0
176
     1
290
     0
176
     1
290
     0
176
     1
290
     0
176
     1
290
     0
176
     1
 90
       50
176
     1
 40
0.0
176
     1
 40
1.0
176
     1
 90
        0
176
     1
 62
    18
176
     1
 90
       50
176
     1
 90
        3
176
     1
 62
     5
420
      255
176
     1
290
     0
176
     1
 90
       50
176
     1
 90
       50
176
     1
 90
       50
176
     1
290
     0
176
     1
 90
       50
176
     1
 62
   256
176
     0
 40
1.0
176
     0
 90
        2
176
     1
  1
strokes_ogs.tif
176
     1
290
     0
176
     1
 40
1.0
176
     1
 40
1.0
176
     1
1001
ACAD
1000
AcDbSavedByObjectVersion
1070
     0
  0
VISUALSTYLE
  5
3A
102
{ACAD_REACTORS
330
2A
102
}
330
2A
100
AcDbVisualStyle
  2

 70
    16
177
     3
291
     1
 70
    58
 90
        2
176
     1
 90
        2
176
     1
 90
        3
176
     1
 90
        0
176
     1
 40
0.6
176
     1
 40
30.0
176
     1
 62
     8
420
  8421504
176
     1
 90
        1
176
     1
 90
        4
176
     1
 62
     7
176
     1
 62
   257
176
     1
 90
        1
176
     1
 90
        1
176
     1
 40
1.0
176
     1
 90
        8
176
     1
 62
     8
420
  8421504
176
     1
 40
1.0
176
     1
 90
        1
176
     1
 90
        6
176
     1
 90
        2
176
     1
 62
     7
176
     1
 90
        5
176
     1
 90
        0
176
     1
 90
        0
176
     1
290
     0
176
     1
 90
        1
176
     1
 40
0.0
176
     1
 90
        0
176
     1
290
     0
176
     1
290
     1
176
     1
290
     1
176
     1
290
     0
176
     1
290
     0
176
     1
290
     0
176
     1
290
     0
176
     1
290
     0
176
     1
290
     0
176
     1
 90
       50
176
     1
 40
0.0
176
     1
 40
1.0
176
     1
 90
        0
176
     1
 62
    18
176
     1
 90
       50
176
     1
 90
        3
176
     1
 62
     5
420
      255
176
     1
290
     0
176
     1
 90
       50
176
     1
 90
       50
176
     1
 90
       50
176
     1
290
     0
176
     1
 90
       50
176
     1
 62
   256
176
     0
 40
1.0
176
     0
 90
        2
176
     1
  1
strokes_ogs.tif
176
     1
290
     0
176
     1
 40
1.0
176
     1
 40
1.0
176
     1
1001
ACAD
1000
AcDbSavedByObjectVersion
1070
     0
  0
VISUALSTYLE
  5
34
102
{ACAD_REACTORS
330
2A
102
}
330
2A
100
AcDbVisualStyle
  2

 70
     9
177
     3
291
     0
 70
    58
 90
        3
176
     1
 90
        2
176
     1
 90
        0
176
     1
 90
        0
176
     1
 40
0.6
176
     1
 40
30.0
176
     1
 62
     7
420
 16777215
176
     1
 90
        2
176
     1
 90
        2
176
     1
 62
     7
176
     1
 62
   257
176
     1
 90
        1
176
     1
 90
        1
176
     1
 40
40.0
176
     1
 90
        8
176
     1
 62
     7
176
     1
 40
1.0
176
     1
 90
        1
176
     1
 90
        6
176
     1
 90
        2
176
     1
 62
     7
176
     1
 90
        3
176
     1
 90
        0
176
     1
 90
        0
176
     1
290
     0
176
     1
 90
        1
176
     1
 40
0.0
176
     1
 90
        0
176
     1
290
     0
176
     1
290
     1
176
     1
290
     1
176
     1
290
     0
176
     1
290
     0
176
     1
290
     0
176
     1
290
     0
176
     1
290
     0
176
     1
290
     0
176
     1
 90
       50
176
     1
 40
0.0
176
     1
 40
1.0
176
     1
 90
        0
176
     1
 62
    18
176
     1
 90
       50
176
     1
 90
        3
176
     1
 62
     5
420
      255
176
     1
290
     0
176
     1
 90
       50
176
     1
 90
       50
176
     1
 90
       50
176
     1
290
     0
176
     1
 90
       50
176
     1
 62
   256
176
     0
 40
1.0
176
     0
 90
        2
176
     1
  1
strokes_ogs.tif
176
     1
290
     0
176
     1
 40
1.0
176
     1
 40
1.0
176
     1
1001
ACAD
1000
AcDbSavedByObjectVersion
1070
     0
  0
VISUALSTYLE
  5
35
102
{ACAD_REACTORS
330
2A
102
}
330
2A
100
AcDbVisualStyle
  2

 70
    11
177
     3
291
     1
 70
    58
 90
        2
176
     1
 90
        2
176
     1
 90
        0
176
     1
 90
        0
176
     1
 40
0.6
176
     1
 40
30.0
176
     1
 62
     7
420
 16777215
176
     1
 90
        1
176
     1
 90
        4
176
     1
 62
     7
176
     1
 62
   257
176
     1
 90
        1
176
     1
 90
        1
176
     1
 40
1.0
176
     1
 90
        8
176
     1
 62
     7
176
     1
 40
1.0
176
     1
 90
        1
176
     1
 90
        6
176
     1
 90
        2
176
     1
 62
     7
176
     1
 90
        5
176
     1
 90
        0
176
     1
 90
        0
176
     1
290
     0
176
     1
 90
        1
176
     1
 40
-50.0
176
     1
 90
        0
176
     1
290
     0
176
     1
290
     1
176
     1
290
     1
176
     1
290
     0
176
     1
290
     0
176
     1
290
     0
176
     1
290
     0
176
     1
290
     0
176
     1
290
     0
176
     1
 90
       50
176
     1
 40
0.0
176
     1
 40
1.0
176
     1
 90
        0
176
     1
 62
    18
176
     1
 90
       50
176
     1
 90
        3
176
     1
 62
     5
420
      255
176
     1
290
     0
176
     1
 90
       50
176
     1
 90
       50
176
     1
 90
       50
176
     1
290
     0
176
     1
 90
       50
176
     1
 62
   256
176
     0
 40
1.0
176
     0
 90
        2
176
     1
  1
strokes_ogs.tif
176
     1
290
     0
176
     1
 40
1.0
176
     1
 40
1.0
176
     1
1001
ACAD
1000
AcDbSavedByObjectVersion
1070
     0
  0
VISUALSTYLE
  5
10D
102
{ACAD_REACTORS
330
2A
102
}
330
2A
100
AcDbVisualStyle
  2

 70
    22
177
     3
291
     1
 70
    58
 90
        2
176
     0
 90
        2
176
     0
 90
        0
176
     0
 90
        0
176
     0
 40
0.6
176
     0
 40
30.0
176
     0
 62
     7
420
 16777215
176
     0
 90
        1
176
     0
 90
        4
176
     0
 62
     7
176
     0
 62
   257
176
     0
 90
        1
176
     0
 90
        1
176
     0
 40
1.0
176
     0
 90
        8
176
     2
 62
     7
176
     0
 40
1.0
176
     0
 90
        1
176
     0
 90
        6
176
     0
 90
        2
176
     0
 62
     7
176
     0
 90
        5
176
     0
 90
        0
176
     0
 90
        0
176
     0
290
     0
176
     0
 90
        1
176
     0
 40
0.0
176
     0
 90
        0
176
     0
290
     0
176
     1
290
     1
176
     1
290
     1
176
     1
290
     0
176
     1
290
     0
176
     1
290
     0
176
     1
290
     0
176
     1
290
     0
176
     1
290
     0
176
     1
 90
       50
176
     0
 40
0.0
176
     0
 40
1.0
176
     0
 90
        0
176
     0
 62
    18
176
     0
 90
       50
176
     0
 90
        3
176
     0
 62
     5
420
      255
176
     0
290
     0
176
     1
 90
       50
176
     0
 90
       50
176
     0
 90
       50
176
     0
290
     0
176
     1
 90
       50
176
     0
 62
   256
176
     0
 40
1.0
176
     0
 90
        2
176
     0
  1
strokes_ogs.tif
176
     0
290
     0
176
     1
 40
1.0
176
     0
 40
1.0
176
     0
1001
ACAD
1000
AcDbSavedByObjectVersion
1070
     0
  0
VISUALSTYLE
  5
39
102
{ACAD_REACTORS
330
2A
102
}
330
2A
100
AcDbVisualStyle
  2

 70
    15
177
     3
291
     1
 70
    58
 90
        2
176
     1
 90
        2
176
     1
 90
        0
176
     1
 90
        0
176
     1
 40
0.6
176
     1
 40
30.0
176
     1
 62
     7
420
 16777215
176
     1
 90
        1
176
     1
 90
        4
176
     1
 62
     7
176
     1
 62
   257
176
     1
 90
        1
176
     1
 90
        1
176
     1
 40
1.0
176
     1
 90
        8
176
     1
 62
     7
176
     1
 40
1.0
176
     1
 90
        1
176
     1
 90
        6
176
     1
 90
        2
176
     1
 62
     7
176
     1
 90
        5
176
     1
 90
        0
176
     1
 90
        0
176
     1
290
     0
176
     1
 90
        1
176
     1
 40
0.0
176
     1
 90
        0
176
     1
290
     0
176
     1
290
     1
176
     1
290
     1
176
     1
290
     0
176
     1
290
     0
176
     1
290
     0
176
     1
290
     0
176
     1
290
     0
176
     1
290
     0
176
     1
 90
       50
176
     1
 40
0.0
176
     1
 40
1.0
176
     1
 90
        0
176
     1
 62
    18
176
     1
 90
       50
176
     1
 90
        3
176
     1
 62
     5
420
      255
176
     1
290
     0
176
     1
 90
       50
176
     1
 90
       50
176
     1
 90
       50
176
     1
290
     0
176
     1
 90
       50
176
     1
 62
   256
176
     0
 40
1.0
176
     0
 90
        2
176
     1
  1
strokes_ogs.tif
176
     1
290
     0
176
     1
 40
1.0
176
     1
 40
1.0
176
     1
1001
ACAD
1000
AcDbSavedByObjectVersion
1070
     0
  0
VISUALSTYLE
  5
2B
102
{ACAD_REACTORS
330
2A
102
}
330
2A
100
AcDbVisualStyle
  2

 70
     0
177
     3
291
     1
 70
    58
 90
        2
176
     1
 90
        1
176
     1
 90
        1
176
     1
 90
        2
176
     1
 40
0.6
176
     1
 40
30.0
176
     1
 62
     7
420
 16777215
176
     1
 90
        0
176
     1
 90
        4
176
     1
 62
     7
176
     1
 62
   257
176
     1
 90
        1
176
     1
 90
        1
176
     1
 40
1.0
176
     1
 90
        8
176
     1
 62
     7
176
     1
 40
1.0
176
     1
 90
        1
176
     1
 90
        6
176
     1
 90
        2
176
     1
 62
     7
176
     1
 90
        5
176
     1
 90
        0
176
     1
 90
        0
176
     1
290
     0
176
     1
 90
       13
176
     1
 40
0.0
176
     1
 90
        0
176
     1
290
     0
176
     1
290
     1
176
     1
290
     1
176
     1
290
     0
176
     1
290
     0
176
     1
290
     0
176
     1
290
     0
176
     1
290
     0
176
     1
290
     0
176
     1
 90
       50
176
     1
 40
0.0
176
     1
 40
1.0
176
     1
 90
        0
176
     1
 62
    18
176
     1
 90
       50
176
     1
 90
        3
176
     1
 62
     5
420
      255
176
     1
290
     0
176
     1
 90
       50
176
     1
 90
       50
176
     1
 90
       50
176
     1
290
     0
176
     1
 90
       50
176
     1
 62
   256
176
     0
 40
1.0
176
     0
 90
        2
176
     1
  1
strokes_ogs.tif
176
     1
290
     0
176
     1
 40
1.0
176
     1
 40
1.0
176
     1
1001
ACAD
1000
AcDbSavedByObjectVersion
1070
     0
  0
VISUALSTYLE
  5
2C
102
{ACAD_REACTORS
330
2A
102
}
330
2A
100
AcDbVisualStyle
  2

 70
     1
177
     3
291
     1
 70
    58
 90
        2
176
     1
 90
        1
176
     1
 90
        1
176
     1
 90
        2
176
     1
 40
0.6
176
     1
 40
30.0
176
     1
 62
     7
420
 16777215
176
     1
 90
        1
176
     1
 90
        4
176
     1
 62
     7
176
     1
 62
   257
176
     1
 90
        1
176
     1
 90
        1
176
     1
 40
1.0
176
     1
 90
        0
176
     1
 62
   257
176
     1
 40
1.0
176
     1
 90
        1
176
     1
 90
        6
176
     1
 90
        2
176
     1
 62
     7
176
     1
 90
        5
176
     1
 90
        0
176
     1
 90
        0
176
     1
290
     0
176
     1
 90
       13
176
     1
 40
0.0
176
     1
 90
        0
176
     1
290
     0
176
     1
290
     1
176
     1
290
     1
176
     1
290
     0
176
     1
290
     0
176
     1
290
     0
176
     1
290
     0
176
     1
290
     0
176
     1
290
     0
176
     1
 90
       50
176
     1
 40
0.0
176
     1
 40
1.0
176
     1
 90
        0
176
     1
 62
    18
176
     1
 90
       50
176
     1
 90
        3
176
     1
 62
     5
420
      255
176
     1
290
     0
176
     1
 90
       50
176
     1
 90
       50
176
     1
 90
       50
176
     1
290
     0
176
     1
 90
       50
176
     1
 62
   256
176
     0
 40
1.0
176
     0
 90
        2
176
     1
  1
strokes_ogs.tif
176
     1
290
     0
176
     1
 40
1.0
176
     1
 40
1.0
176
     1
1001
ACAD
1000
AcDbSavedByObjectVersion
1070
     0
  0
VISUALSTYLE
  5
2D
102
{ACAD_REACTORS
330
2A
102
}
330
2A
100
AcDbVisualStyle
  2

 70
     2
177
     3
291
     1
 70
    58
 90
        2
176
     1
 90
        2
176
     1
 90
        1
176
     1
 90
        2
176
     1
 40
0.6
176
     1
 40
30.0
176
     1
 62
     7
420
 16777215
176
     1
 90
        0
176
     1
 90
        4
176
     1
 62
     7
176
     1
 62
   257
176
     1
 90
        1
176
     1
 90
        1
176
     1
 40
1.0
176
     1
 90
        0
176
     1
 62
     7
176
     1
 40
1.0
176
     1
 90
        1
176
     1
 90
        6
176
     1
 90
        2
176
     1
 62
     7
176
     1
 90
        5
176
     1
 90
        0
176
     1
 90
        0
176
     1
290
     0
176
     1
 90
       13
176
     1
 40
0.0
176
     1
 90
        0
176
     1
290
     0
176
     1
290
     1
176
     1
290
     1
176
     1
290
     0
176
     1
290
     0
176
     1
290
     0
176
     1
290
     0
176
     1
290
     0
176
     1
290
     0
176
     1
 90
       50
176
     1
 40
0.0
176
     1
 40
1.0
176
     1
 90
        0
176
     1
 62
    18
176
     1
 90
       50
176
     1
 90
        3
176
     1
 62
     5
420
      255
176
     1
290
     0
176
     1
 90
       50
176
     1
 90
       50
176
     1
 90
       50
176
     1
290
     0
176
     1
 90
       50
176
     1
 62
   256
176
     0
 40
1.0
176
     0
 90
        2
176
     1
  1
strokes_ogs.tif
176
     1
290
     0
176
     1
 40
1.0
176
     1
 40
1.0
176
     1
1001
ACAD
1000
AcDbSavedByObjectVersion
1070
     0
  0
VISUALSTYLE
  5
2E
102
{ACAD_REACTORS
330
2A
102
}
330
2A
100
AcDbVisualStyle
  2

 70
     3
177
     3
291
     1
 70
    58
 90
        2
176
     1
 90
        2
176
     1
 90
        1
176
     1
 90
        2
176
     1
 40
0.6
176
     1
 40
30.0
176
     1
 62
     7
420
 16777215
176
     1
 90
        1
176
     1
 90
        4
176
     1
 62
     7
176
     1
 62
   257
176
     1
 90
        1
176
     1
 90
        1
176
     1
 40
1.0
176
     1
 90
        0
176
     1
 62
   257
176
     1
 40
1.0
176
     1
 90
        1
176
     1
 90
        6
176
     1
 90
        2
176
     1
 62
     7
176
     1
 90
        5
176
     1
 90
        0
176
     1
 90
        0
176
     1
290
     0
176
     1
 90
       13
176
     1
 40
0.0
176
     1
 90
        0
176
     1
290
     0
176
     1
290
     1
176
     1
290
     1
176
     1
290
     0
176
     1
290
     0
176
     1
290
     0
176
     1
290
     0
176
     1
290
     0
176
     1
290
     0
176
     1
 90
       50
176
     1
 40
0.0
176
     1
 40
1.0
176
     1
 90
        0
176
     1
 62
    18
176
     1
 90
       50
176
     1
 90
        3
176
     1
 62
     5
420
      255
176
     1
290
     0
176
     1
 90
       50
176
     1
 90
       50
176
     1
 90
       50
176
     1
290
     0
176
     1
 90
       50
176
     1
 62
   256
176
     0
 40
1.0
176
     0
 90
        2
176
     1
  1
strokes_ogs.tif
176
     1
290
     0
176
     1
 40
1.0
176
     1
 40
1.0
176
     1
1001
ACAD
1000
AcDbSavedByObjectVersion
1070
     0
  0
VISUALSTYLE
  5
105
102
{ACAD_REACTORS
330
2A
102
}
330
2A
100
AcDbVisualStyle
  2

 70
     6
177
     3
291
     0
 70
    58
 90
        1
176
     1
 90
        2
176
     1
 90
        2
176
     1
 90
        0
176
     1
 40
0.6
176
     1
 40
30.0
176
     1
 62
     7
420
 16777215
176
     1
 90
        2
176
     1
 90
        2
176
     1
 62
     7
176
     1
 62
   257
176
     1
 90
        2
176
     1
 90
        1
176
     1
 40
40.0
176
     1
 90
        0
176
     1
 62
   257
176
     1
 40
1.0
176
     1
 90
        1
176
     1
 90
        6
176
     1
 90
        2
176
     1
 62
     7
176
     1
 90
        3
176
     1
 90
        0
176
     1
 90
        0
176
     1
290
     0
176
     1
 90
        1
176
     1
 40
0.0
176
     1
 90
        0
176
     1
290
     0
176
     1
290
     1
176
     1
290
     1
176
     1
290
     0
176
     1
290
     0
176
     1
290
     0
176
     1
290
     0
176
     1
290
     0
176
     1
290
     0
176
     1
 90
       50
176
     1
 40
0.0
176
     1
 40
1.0
176
     1
 90
        0
176
     1
 62
    18
176
     1
 90
       50
176
     1
 90
        3
176
     1
 62
     5
420
      255
176
     1
290
     0
176
     1
 90
       50
176
     1
 90
       50
176
     1
 90
       50
176
     1
290
     0
176
     1
 90
       50
176
     1
 62
   256
176
     0
 40
1.0
176
     0
 90
        2
176
     1
  1
strokes_ogs.tif
176
     1
290
     0
176
     1
 40
1.0
176
     1
 40
1.0
176
     1
1001
ACAD
1000
AcDbSavedByObjectVersion
1070
     0
  0
VISUALSTYLE
  5
10B
102
{ACAD_REACTORS
330
2A
102
}
330
2A
100
AcDbVisualStyle
  2

 70
    20
177
     3
291
     1
 70
    58
 90
        2
176
     0
 90
        2
176
     0
 90
        0
176
     0
 90
        0
176
     0
 40
0.6
176
     0
 40
30.0
176
     0
 62
     7
420
 16777215
176
     0
 90
        1
176
     0
 90
        4
176
     0
 62
     7
176
     0
 62
   257
176
     0
 90
        1
176
     0
 90
        1
176
     0
 40
1.0
176
     0
 90
       10
176
     2
 62
     7
176
     0
 40
1.0
176
     0
 90
        1
176
     0
 90
        6
176
     0
 90
        2
176
     0
 62
     7
176
     0
 90
        5
176
     0
 90
        0
176
     0
 90
        0
176
     0
290
     0
176
     0
 90
        1
176
     0
 40
0.0
176
     0
 90
        0
176
     0
290
     0
176
     1
290
     1
176
     1
290
     1
176
     1
290
     0
176
     1
290
     0
176
     1
290
     0
176
     1
290
     0
176
     1
290
     0
176
     1
290
     0
176
     1
 90
       50
176
     0
 40
0.0
176
     0
 40
1.0
176
     0
 90
        0
176
     0
 62
    18
176
     0
 90
       50
176
     0
 90
        3
176
     0
 62
     5
420
      255
176
     0
290
     0
176
     1
 90
       50
176
     0
 90
       50
176
     0
 90
       50
176
     0
290
     0
176
     1
 90
       50
176
     0
 62
   256
176
     0
 40
1.0
176
     0
 90
        2
176
     0
  1
strokes_ogs.tif
176
     0
290
     0
176
     1
 40
1.0
176
     0
 40
1.0
176
     0
1001
ACAD
1000
AcDbSavedByObjectVersion
1070
     0
  0
VISUALSTYLE
  5
38
102
{ACAD_REACTORS
330
2A
102
}
330
2A
100
AcDbVisualStyle
  2

 70
    14
177
     3
291
     1
 70
    58
 90
        2
176
     1
 90
        2
176
     1
 90
        0
176
     1
 90
        0
176
     1
 40
0.6
176
     1
 40
30.0
176
     1
 62
     7
420
 16777215
176
     1
 90
        1
176
     1
 90
        4
176
     1
 62
     7
176
     1
 62
   257
176
     1
 90
        7
176
     1
 90
        7
176
     1
 40
1.0
176
     1
 90
        8
176
     1
 62
     7
176
     1
 40
1.0
176
     1
 90
        1
176
     1
 90
        6
176
     1
 90
        2
176
     1
 62
     7
176
     1
 90
        5
176
     1
 90
        0
176
     1
 90
        0
176
     1
290
     0
176
     1
 90
        1
176
     1
 40
0.0
176
     1
 90
        0
176
     1
290
     0
176
     1
290
     1
176
     1
290
     1
176
     1
290
     0
176
     1
290
     0
176
     1
290
     0
176
     1
290
     0
176
     1
290
     0
176
     1
290
     0
176
     1
 90
       50
176
     1
 40
0.0
176
     1
 40
1.0
176
     1
 90
        0
176
     1
 62
    18
176
     1
 90
       50
176
     1
 90
        3
176
     1
 62
     5
420
      255
176
     1
290
     0
176
     1
 90
       50
176
     1
 90
       50
176
     1
 90
       50
176
     1
290
     0
176
     1
 90
       50
176
     1
 62
   256
176
     0
 40
1.0
176
     0
 90
        2
176
     1
  1
strokes_ogs.tif
176
     1
290
     0
176
     1
 40
1.0
176
     1
 40
1.0
176
     1
1001
ACAD
1000
AcDbSavedByObjectVersion
1070
     0
  0
VISUALSTYLE
  5
10C
102
{ACAD_REACTORS
330
2A
102
}
330
2A
100
AcDbVisualStyle
  2

 70
    21
177
     3
291
     1
 70
    58
 90
        2
176
     0
 90
        2
176
     0
 90
        0
176
     0
 90
        0
176
     0
 40
0.6
176
     0
 40
30.0
176
     0
 62
     7
420
 16777215
176
     0
 90
        1
176
     0
 90
        4
176
     0
 62
     7
176
     0
 62
   257
176
     0
 90
        1
176
     0
 90
        1
176
     0
 40
1.0
176
     0
 90
        9
176
     2
 62
     7
176
     0
 40
1.0
176
     0
 90
        1
176
     0
 90
        6
176
     0
 90
        2
176
     0
 62
     7
176
     0
 90
        5
176
     0
 90
        0
176
     0
 90
        0
176
     0
290
     0
176
     0
 90
        1
176
     0
 40
0.0
176
     0
 90
        0
176
     0
290
     0
176
     1
290
     1
176
     1
290
     1
176
     1
290
     0
176
     1
290
     0
176
     1
290
     0
176
     1
290
     0
176
     1
290
     0
176
     1
290
     0
176
     1
 90
       50
176
     0
 40
0.0
176
     0
 40
1.0
176
     0
 90
        0
176
     0
 62
    18
176
     0
 90
       50
176
     0
 90
        3
176
     0
 62
     5
420
      255
176
     0
290
     0
176
     1
 90
       50
176
     0
 90
       50
176
     0
 90
       50
176
     0
290
     0
176
     1
 90
       50
176
     0
 62
   256
176
     0
 40
1.0
176
     0
 90
        2
176
     0
  1
strokes_ogs.tif
176
     0
290
     0
176
     1
 40
1.0
176
     0
 40
1.0
176
     0
1001
ACAD
1000
AcDbSavedByObjectVersion
1070
     0
  0
VISUALSTYLE
  5
33
102
{ACAD_REACTORS
330
2A
102
}
330
2A
100
AcDbVisualStyle
  2

 70
     8
177
     3
291
     0
 70
    58
 90
        2
176
     1
 90
        2
176
     1
 90
        0
176
     1
 90
        0
176
     1
 40
0.6
176
     1
 40
30.0
176
     1
 62
     7
420
 16777215
176
     1
 90
        1
176
     1
 90
        0
176
     1
 62
     7
176
     1
 62
   257
176
     1
 90
        1
176
     1
 90
        1
176
     1
 40
1.0
176
     1
 90
        8
176
     1
 62
     8
420
  7895160
176
     1
 40
1.0
176
     1
 90
        1
176
     1
 90
        6
176
     1
 90
        2
176
     1
 62
     7
176
     1
 90
        5
176
     1
 90
        0
176
     1
 90
        0
176
     1
290
     0
176
     1
 90
       13
176
     1
 40
0.0
176
     1
 90
        0
176
     1
290
     0
176
     1
290
     1
176
     1
290
     1
176
     1
290
     0
176
     1
290
     0
176
     1
290
     0
176
     1
290
     0
176
     1
290
     0
176
     1
290
     0
176
     1
 90
       50
176
     1
 40
0.0
176
     1
 40
1.0
176
     1
 90
        0
176
     1
 62
    18
176
     1
 90
       50
176
     1
 90
        3
176
     1
 62
     5
420
      255
176
     1
290
     0
176
     1
 90
       50
176
     1
 90
       50
176
     1
 90
       50
176
     1
290
     0
176
     1
 90
       50
176
     1
 62
   256
176
     0
 40
1.0
176
     0
 90
        2
176
     1
  1
strokes_ogs.tif
176
     1
290
     0
176
     1
 40
1.0
176
     1
 40
1.0
176
     1
1001
ACAD
1000
AcDbSavedByObjectVersion
1070
     0
  0
VISUALSTYLE
  5
10A
102
{ACAD_REACTORS
330
2A
102
}
330
2A
100
AcDbVisualStyle
  2

 70
    27
177
     3
291
     0
 70
    58
 90
        2
176
     1
 90
        2
176
     1
 90
        1
176
     1
 90
        2
176
     1
 40
0.6
176
     1
 40
30.0
176
     1
 62
     7
420
 16777215
176
     1
 90
        0
176
     1
 90
        4
176
     1
 62
     7
176
     1
 62
   257
176
     1
 90
        1
176
     1
 90
        1
176
     1
 40
1.0
176
     1
 90
        8
176
     1
 62
   257
176
     1
 40
1.0
176
     1
 90
        1
176
     1
 90
        6
176
     1
 90
        2
176
     1
 62
     8
420
  7895160
176
     1
 90
        3
176
     1
 90
        0
176
     1
 90
        0
176
     1
290
     0
176
     1
 90
        5
176
     1
 40
0.0
176
     1
 90
        0
176
     1
290
     0
176
     1
290
     1
176
     1
290
     1
176
     1
290
     0
176
     1
290
     0
176
     1
290
     0
176
     1
290
     0
176
     1
290
     0
176
     1
290
     0
176
     1
 90
       50
176
     1
 40
0.0
176
     1
 40
1.0
176
     1
 90
        0
176
     1
 62
    18
176
     1
 90
       50
176
     1
 90
        3
176
     1
 62
     5
420
      255
176
     1
290
     0
176
     1
 90
       50
176
     1
 90
       50
176
     1
 90
       50
176
     1
290
     0
176
     1
 90
       50
176
     1
 62
   256
176
     0
 40
1.0
176
     0
 90
        2
176
     1
  1
strokes_ogs.tif
176
     1
290
     0
176
     1
 40
1.0
176
     1
 40
1.0
176
     1
1001
ACAD
1000
AcDbSavedByObjectVersion
1070
     0
  0
VISUALSTYLE
  5
109
102
{ACAD_REACTORS
330
2A
102
}
330
2A
100
AcDbVisualStyle
  2

 70
    26
177
     3
291
     0
 70
    58
 90
        2
176
     1
 90
        2
176
     1
 90
        1
176
     1
 90
        2
176
     1
 40
0.6
176
     1
 40
30.0
176
     1
 62
     7
420
 16777215
176
     1
 90
        1
176
     1
 90
        2
176
     1
 62
     7
176
     1
 62
   257
176
     1
 90
        2
176
     1
 90
        1
176
     1
 40
1.0
176
     1
 90
        8
176
     1
 62
   257
176
     1
 40
1.0
176
     1
 90
        1
176
     1
 90
        6
176
     1
 90
        2
176
     1
 62
     7
176
     1
 90
        3
176
     1
 90
        0
176
     1
 90
        0
176
     1
290
     0
176
     1
 90
        5
176
     1
 40
0.0
176
     1
 90
        0
176
     1
290
     0
176
     1
290
     1
176
     1
290
     1
176
     1
290
     0
176
     1
290
     0
176
     1
290
     0
176
     1
290
     0
176
     1
290
     0
176
     1
290
     0
176
     1
 90
       50
176
     1
 40
0.0
176
     1
 40
1.0
176
     1
 90
        0
176
     1
 62
    18
176
     1
 90
       50
176
     1
 90
        3
176
     1
 62
     5
420
      255
176
     1
290
     0
176
     1
 90
       50
176
     1
 90
       50
176
     1
 90
       50
176
     1
290
     0
176
     1
 90
       50
176
     1
 62
   256
176
     0
 40
1.0
176
     0
 90
        2
176
     1
  1
strokes_ogs.tif
176
     1
290
     0
176
     1
 40
1.0
176
     1
 40
1.0
176
     1
1001
ACAD
1000
AcDbSavedByObjectVersion
1070
     0
  0
VISUALSTYLE
  5
106
102
{ACAD_REACTORS
330
2A
102
}
330
2A
100
AcDbVisualStyle
  2

 70
    23
177
     3
291
     0
 70
    58
 90
        2
176
     1
 90
        2
176
     1
 90
        3
176
     1
 90
        0
176
     1
 40
0.6
176
     1
 40
30.0
176
     1
 62
     7
420
 16777215
176
     1
 90
        2
176
     1
 90
        2
176
     1
 62
     7
176
     1
 62
     7
176
     1
 90
        1
176
     1
 90
        1
176
     1
 40
40.0
176
     1
 90
        8
176
     1
 62
     7
176
     1
 40
1.0
176
     1
 90
        1
176
     1
 90
        6
176
     1
 90
        2
176
     1
 62
     7
176
     1
 90
        3
176
     1
 90
        0
176
     1
 90
        0
176
     1
290
     0
176
     1
 90
        1
176
     1
 40
0.0
176
     1
 90
        0
176
     1
290
     0
176
     1
290
     1
176
     1
290
     1
176
     1
290
     0
176
     1
290
     0
176
     1
290
     0
176
     1
290
     0
176
     1
290
     0
176
     1
290
     0
176
     1
 90
       50
176
     1
 40
0.0
176
     1
 40
1.0
176
     1
 90
        0
176
     1
 62
    18
176
     1
 90
       50
176
     1
 90
        3
176
     1
 62
     5
420
      255
176
     1
290
     0
176
     1
 90
       50
176
     1
 90
       50
176
     1
 90
       50
176
     1
290
     0
176
     1
 90
       50
176
     1
 62
   256
176
     0
 40
1.0
176
     0
 90
        2
176
     1
  1
strokes_ogs.tif
176
     1
290
     0
176
     1
 40
1.0
176
     1
 40
1.0
176
     1
1001
ACAD
1000
AcDbSavedByObjectVersion
1070
     0
  0
VISUALSTYLE
  5
107
102
{ACAD_REACTORS
330
2A
102
}
330
2A
100
AcDbVisualStyle
  2

 70
    24
177
     3
291
     0
 70
    58
 90
        1
176
     1
 90
        2
176
     1
 90
        2
176
     1
 90
        0
176
     1
 40
0.6
176
     1
 40
30.0
176
     1
 62
     7
420
 16777215
176
     1
 90
        2
176
     1
 90
        2
176
     1
 62
     7
176
     1
 62
     7
176
     1
 90
        1
176
     1
 90
        1
176
     1
 40
40.0
176
     1
 90
       11
176
     1
 62
     7
176
     1
 40
1.0
176
     1
 90
        1
176
     1
 90
        6
176
     1
 90
        2
176
     1
 62
     7
176
     1
 90
        6
176
     1
 90
        0
176
     1
 90
        0
176
     1
290
     0
176
     1
 90
        1
176
     1
 40
0.0
176
     1
 90
        0
176
     1
290
     0
176
     1
290
     1
176
     1
290
     1
176
     1
290
     0
176
     1
290
     0
176
     1
290
     0
176
     1
290
     0
176
     1
290
     0
176
     1
290
     0
176
     1
 90
       50
176
     1
 40
0.0
176
     1
 40
1.0
176
     1
 90
        0
176
     1
 62
    18
176
     1
 90
       50
176
     1
 90
        3
176
     1
 62
     5
420
      255
176
     1
290
     0
176
     1
 90
       50
176
     1
 90
       50
176
     1
 90
       50
176
     1
290
     0
176
     1
 90
       50
176
     1
 62
   256
176
     0
 40
1.0
176
     0
 90
        2
176
     1
  1
strokes_ogs.tif
176
     1
290
     0
176
     1
 40
1.0
176
     1
 40
1.0
176
     1
1001
ACAD
1000
AcDbSavedByObjectVersion
1070
     0
  0
VISUALSTYLE
  5
37
102
{ACAD_REACTORS
330
2A
102
}
330
2A
100
AcDbVisualStyle
  2

 70
    13
177
     3
291
     1
 70
    58
 90
        2
176
     1
 90
        2
176
     1
 90
        0
176
     1
 90
        0
176
     1
 40
0.6
176
     1
 40
30.0
176
     1
 62
     7
420
 16777215
176
     1
 90
        1
176
     1
 90
        4
176
     1
 62
     7
176
     1
 62
   257
176
     1
 90
        1
176
     1
 90
        1
176
     1
 40
1.0
176
     1
 90
       12
176
     1
 62
     7
176
     1
 40
1.0
176
     1
 90
        1
176
     1
 90
        6
176
     1
 90
        2
176
     1
 62
     7
176
     1
 90
        5
176
     1
 90
        0
176
     1
 90
        0
176
     1
290
     0
176
     1
 90
        1
176
     1
 40
0.0
176
     1
 90
        0
176
     1
290
     0
176
     1
290
     1
176
     1
290
     1
176
     1
290
     0
176
     1
290
     0
176
     1
290
     0
176
     1
290
     0
176
     1
290
     0
176
     1
290
     0
176
     1
 90
       50
176
     1
 40
0.0
176
     1
 40
1.0
176
     1
 90
        0
176
     1
 62
    18
176
     1
 90
       50
176
     1
 90
        3
176
     1
 62
     5
420
      255
176
     1
290
     0
176
     1
 90
       50
176
     1
 90
       50
176
     1
 90
       50
176
     1
290
     0
176
     1
 90
       50
176
     1
 62
   256
176
     0
 40
1.0
176
     0
 90
        2
176
     1
  1
strokes_ogs.tif
176
     1
290
     0
176
     1
 40
1.0
176
     1
 40
1.0
176
     1
1001
ACAD
1000
AcDbSavedByObjectVersion
1070
     0
  0
VISUALSTYLE
  5
104
102
{ACAD_REACTORS
330
2A
102
}
330
2A
100
AcDbVisualStyle
  2

 70
     5
177
     3
291
     0
 70
    58
 90
        0
176
     1
 90
        2
176
     1
 90
        0
176
     1
 90
        0
176
     1
 40
0.6
176
     1
 40
30.0
176
     1
 62
     7
420
 16777215
176
     1
 90
        1
176
     1
 90
        4
176
     1
 62
     7
176
     1
 62
   257
176
     1
 90
        1
176
     1
 90
        1
176
     1
 40
1.0
176
     1
 90
        0
176
     1
 62
   257
176
     1
 40
1.0
176
     1
 90
        1
176
     1
 90
        6
176
     1
 90
        2
176
     1
 62
     7
176
     1
 90
        3
176
     1
 90
        0
176
     1
 90
        0
176
     1
290
     0
176
     1
 90
        1
176
     1
 40
0.0
176
     1
 90
        0
176
     1
290
     0
176
     1
290
     1
176
     1
290
     1
176
     1
290
     0
176
     1
290
     0
176
     1
290
     0
176
     1
290
     0
176
     1
290
     0
176
     1
290
     0
176
     1
 90
       50
176
     1
 40
0.0
176
     1
 40
1.0
176
     1
 90
        0
176
     1
 62
    18
176
     1
 90
       50
176
     1
 90
        3
176
     1
 62
     5
420
      255
176
     1
290
     0
176
     1
 90
       50
176
     1
 90
       50
176
     1
 90
       50
176
     1
290
     0
176
     1
 90
       50
176
     1
 62
   256
176
     0
 40
1.0
176
     0
 90
        2
176
     1
  1
strokes_ogs.tif
176
     1
290
     0
176
     1
 40
1.0
176
     1
 40
1.0
176
     1
1001
ACAD
1000
AcDbSavedByObjectVersion
1070
     0
  0
VISUALSTYLE
  5
108
102
{ACAD_REACTORS
330
2A
102
}
330
2A
100
AcDbVisualStyle
  2

 70
    25
177
     3
291
     0
 70
    58
 90
        2
176
     1
 90
        2
176
     1
 90
        1
176
     1
 90
        1
176
     1
 40
0.5
176
     1
 40
30.0
176
     1
 62
     7
420
 16777215
176
     1
 90
        1
176
     1
 90
        0
176
     1
 62
     7
176
     1
 62
   257
176
     1
 90
        1
176
     1
 90
        1
176
     1
 40
1.0
176
     1
 90
        8
176
     1
 62
     7
176
     1
 40
1.0
176
     1
 90
        1
176
     1
 90
        6
176
     1
 90
        2
176
     1
 62
     7
176
     1
 90
        3
176
     1
 90
        0
176
     1
 90
        0
176
     1
290
     0
176
     1
 90
       13
176
     1
 40
0.0
176
     1
 90
        0
176
     1
290
     0
176
     1
290
     1
176
     1
290
     1
176
     1
290
     0
176
     1
290
     0
176
     1
290
     0
176
     1
290
     0
176
     1
290
     0
176
     1
290
     0
176
     1
 90
       50
176
     1
 40
0.0
176
     1
 40
1.0
176
     1
 90
        0
176
     1
 62
    18
176
     1
 90
       50
176
     1
 90
        3
176
     1
 62
     5
420
      255
176
     1
290
     0
176
     1
 90
       50
176
     1
 90
       50
176
     1
 90
       50
176
     1
290
     0
176
     1
 90
       50
176
     1
 62
   256
176
     0
 40
1.0
176
     0
 90
        2
176
     1
  1
strokes_ogs.tif
176
     1
290
     0
176
     1
 40
1.0
176
     1
 40
1.0
176
     1
1001
ACAD
1000
AcDbSavedByObjectVersion
1070
     0
  0
DICTIONARYVAR
  5
1B6
102
{ACAD_REACTORS
330
1B1
102
}
330
1B1
100
DictionaryVariables
280
     0
  1
1:1
  0
DICTIONARYVAR
  5
1B3
102
{ACAD_REACTORS
330
1B1
102
}
330
1B1
100
DictionaryVariables
280
     0
  1
STANDARD
  0
DICTIONARYVAR
  5
1B2
102
{ACAD_REACTORS
330
1B1
102
}
330
1B1
100
DictionaryVariables
280
     0
  1
STANDARD
  0
DICTIONARYVAR
  5
1B4
102
{ACAD_REACTORS
330
1B1
102
}
330
1B1
100
DictionaryVariables
280
     0
  1
Imperial24
  0
DICTIONARYVAR
  5
1B5
102
{ACAD_REACTORS
330
1B1
102
}
330
1B1
100
DictionaryVariables
280
     0
  1
Imperial24
  0
DICTIONARY
  5
23D
102
{ACAD_REACTORS
330
23B
102
}
330
23B
100
AcDbDictionary
281
     1
  0
DICTIONARY
  5
23C
102
{ACAD_REACTORS
330
23B
102
}
330
23B
100
AcDbDictionary
281
     1
  3
2146796981856
350
236
  3
2146796981872
350
237
  3
2146796981888
350
238
  3
2146796981904
350
239
  3
2146796981920
350
23A
  0
DICTIONARY
  5
240
330
12A
100
AcDbDictionary
280
     1
281
     1
  3
ACAD_XREC_ROUNDTRIP
360
241
  0
DICTIONARY
  5
23E
330
128
100
AcDbDictionary
280
     1
281
     1
  3
ACAD_XREC_ROUNDTRIP
360
23F
  0
DICTIONARY
  5
1B9
330
10F
100
AcDbDictionary
280
     1
281
     1
  3
ACAD_ROUNDTRIP_2008_TABLESTYLE_CELLSTYLEMAP
360
234
  0
XRECORD
  5
236
102
{ACAD_REACTORS
330
23C
102
}
330
23C
100
AcDbXrecord
280
     1
  1
AcDb_Thumbnail_Schema
102
{ATTRRECORD
341
237
  2
AcDbDs::TreatedAsObjectData
280
     1
291
     1
102
ATTRRECORD}
102
{ATTRRECORD
341
238
  2
AcDbDs::Legacy
280
     1
291
     1
102
ATTRRECORD}
  2
AcDbDs::ID
280
    10
 91
        8
102
{ATTRRECORD
341
239
  2
AcDs:Indexable
280
     1
291
     1
102
ATTRRECORD}
102
{ATTRRECORD
341
23A
  2
AcDbDs::HandleAttribute
280
     7
282
     1
102
ATTRRECORD}
  2
Thumbnail_Data
280
    15
 91
        0
  0
XRECORD
  5
237
102
{ACAD_REACTORS
330
23C
102
}
330
23C
100
AcDbXrecord
280
     1
  1
AcDbDs::TreatedAsObjectDataSchema
  2
AcDbDs::TreatedAsObjectData
280
     1
 91
        0
  0
XRECORD
  5
238
102
{ACAD_REACTORS
330
23C
102
}
330
23C
100
AcDbXrecord
280
     1
  1
AcDbDs::LegacySchema
  2
AcDbDs::Legacy
280
     1
 91
        0
  0
XRECORD
  5
239
102
{ACAD_REACTORS
330
23C
102
}
330
23C
100
AcDbXrecord
280
     1
  1
AcDbDs::IndexedPropertySchema
  2
AcDs:Indexable
280
     1
 91
        0
  0
XRECORD
  5
23A
102
{ACAD_REACTORS
330
23C
102
}
330
23C
100
AcDbXrecord
280
     1
  1
AcDbDs::HandleAttributeSchema
  2
AcDbDs::HandleAttribute
280
     7
 91
        1
284
     1
  0
XRECORD
  5
241
102
{ACAD_REACTORS
330
240
102
}
330
240
100
AcDbXrecord
280
     1
102
DISPLAYNAME
  1
Imperial24
102
FLAGS
 90
        0
  0
XRECORD
  5
23F
102
{ACAD_REACTORS
330
23E
102
}
330
23E
100
AcDbXrecord
280
     1
102
DISPLAYNAME
  1
Imperial24
102
FLAGS
 90
        0
  0
CELLSTYLEMAP
  5
234
102
{ACAD_REACTORS
330
1B9
102
}
330
1B9
100
AcDbCellStyleMap
 90
        3
300
CELLSTYLE
  1
TABLEFORMAT_BEGIN
 90
        5
170
     1
 91
        0
 92
    32768
 62
   257
 93
        1
300
CONTENTFORMAT
  1
CONTENTFORMAT_BEGIN
 90
        0
 91
        0
 92
      512
 93
        0
300

 40
0.0
140
1.0
 94
        5
 62
     0
340
11
144
0.25
309
CONTENTFORMAT_END
171
     1
301
MARGIN
  1
CELLMARGIN_BEGIN
 40
0.06
 40
0.06
 40
0.06
 40
0.06
 40
0.18
 40
0.18
309
CELLMARGIN_END
 94
        6
 95
        1
302
GRIDFORMAT
  1
GRIDFORMAT_BEGIN
 90
        0
 91
        1
 62
     0
 92
       -2
340
0
 93
        0
 40
0.045
309
GRIDFORMAT_END
 95
        2
302
GRIDFORMAT
  1
GRIDFORMAT_BEGIN
 90
        0
 91
        1
 62
     0
 92
       -2
340
0
 93
        0
 40
0.045
309
GRIDFORMAT_END
 95
        4
302
GRIDFORMAT
  1
GRIDFORMAT_BEGIN
 90
        0
 91
        1
 62
     0
 92
       -2
340
0
 93
        0
 40
0.045
309
GRIDFORMAT_END
 95
        8
302
GRIDFORMAT
  1
GRIDFORMAT_BEGIN
 90
        0
 91
        1
 62
     0
 92
       -2
340
0
 93
        0
 40
0.045
309
GRIDFORMAT_END
 95
       16
302
GRIDFORMAT
  1
GRIDFORMAT_BEGIN
 90
        0
 91
        1
 62
     0
 92
       -2
340
0
 93
        0
 40
0.045
309
GRIDFORMAT_END
 95
       32
302
GRIDFORMAT
  1
GRIDFORMAT_BEGIN
 90
        0
 91
        1
 62
     0
 92
       -2
340
0
 93
        0
 40
0.045
309
GRIDFORMAT_END
309
TABLEFORMAT_END
  1
CELLSTYLE_BEGIN
 90
        1
 91
        1
300
_TITLE
309
CELLSTYLE_END
300
CELLSTYLE
  1
TABLEFORMAT_BEGIN
 90
        5
170
     1
 91
        0
 92
        0
 62
   257
 93
        1
300
CONTENTFORMAT
  1
CONTENTFORMAT_BEGIN
 90
        0
 91
        0
 92
      512
 93
        0
300

 40
0.0
140
1.0
 94
        5
 62
     0
340
11
144
0.18
309
CONTENTFORMAT_END
171
     1
301
MARGIN
  1
CELLMARGIN_BEGIN
 40
0.06
 40
0.06
 40
0.06
 40
0.06
 40
0.18
 40
0.18
309
CELLMARGIN_END
 94
        6
 95
        1
302
GRIDFORMAT
  1
GRIDFORMAT_BEGIN
 90
        0
 91
        1
 62
     0
 92
       -2
340
0
 93
        0
 40
0.045
309
GRIDFORMAT_END
 95
        2
302
GRIDFORMAT
  1
GRIDFORMAT_BEGIN
 90
        0
 91
        1
 62
     0
 92
       -2
340
0
 93
        0
 40
0.045
309
GRIDFORMAT_END
 95
        4
302
GRIDFORMAT
  1
GRIDFORMAT_BEGIN
 90
        0
 91
        1
 62
     0
 92
       -2
340
0
 93
        0
 40
0.045
309
GRIDFORMAT_END
 95
        8
302
GRIDFORMAT
  1
GRIDFORMAT_BEGIN
 90
        0
 91
        1
 62
     0
 92
       -2
340
0
 93
        0
 40
0.045
309
GRIDFORMAT_END
 95
       16
302
GRIDFORMAT
  1
GRIDFORMAT_BEGIN
 90
        0
 91
        1
 62
     0
 92
       -2
340
0
 93
        0
 40
0.045
309
GRIDFORMAT_END
 95
       32
302
GRIDFORMAT
  1
GRIDFORMAT_BEGIN
 90
        0
 91
        1
 62
     0
 92
       -2
340
0
 93
        0
 40
0.045
309
GRIDFORMAT_END
309
TABLEFORMAT_END
  1
CELLSTYLE_BEGIN
 90
        2
 91
        1
300
_HEADER
309
CELLSTYLE_END
300
CELLSTYLE
  1
TABLEFORMAT_BEGIN
 90
        5
170
     1
 91
        0
 92
        0
 62
   257
 93
        1
300
CONTENTFORMAT
  1
CONTENTFORMAT_BEGIN
 90
        0
 91
        0
 92
      512
 93
        0
300

 40
0.0
140
1.0
 94
        2
 62
     0
340
11
144
0.18
309
CONTENTFORMAT_END
171
     1
301
MARGIN
  1
CELLMARGIN_BEGIN
 40
0.06
 40
0.06
 40
0.06
 40
0.06
 40
0.18
 40
0.18
309
CELLMARGIN_END
 94
        6
 95
        1
302
GRIDFORMAT
  1
GRIDFORMAT_BEGIN
 90
        0
 91
        1
 62
     0
 92
       -2
340
0
 93
        0
 40
0.045
309
GRIDFORMAT_END
 95
        2
302
GRIDFORMAT
  1
GRIDFORMAT_BEGIN
 90
        0
 91
        1
 62
     0
 92
       -2
340
0
 93
        0
 40
0.045
309
GRIDFORMAT_END
 95
        4
302
GRIDFORMAT
  1
GRIDFORMAT_BEGIN
 90
        0
 91
        1
 62
     0
 92
       -2
340
0
 93
        0
 40
0.045
309
GRIDFORMAT_END
 95
        8
302
GRIDFORMAT
  1
GRIDFORMAT_BEGIN
 90
        0
 91
        1
 62
     0
 92
       -2
340
0
 93
        0
 40
0.045
309
GRIDFORMAT_END
 95
       16
302
GRIDFORMAT
  1
GRIDFORMAT_BEGIN
 90
        0
 91
        1
 62
     0
 92
       -2
340
0
 93
        0
 40
0.045
309
GRIDFORMAT_END
 95
       32
302
GRIDFORMAT
  1
GRIDFORMAT_BEGIN
 90
        0
 91
        1
 62
     0
 92
       -2
340
0
 93
        0
 40
0.045
309
GRIDFORMAT_END
309
TABLEFORMAT_END
  1
CELLSTYLE_BEGIN
 90
        3
 91
        2
300
_DATA
309
CELLSTYLE_END
  0
ENDSEC
  0
SECTION
  2
ACDSDATA
 70
     2
 71
     8
  0
ACDSSCHEMA
 90
        0
  1
AcDb_Thumbnail_Schema
  2
AcDbDs::ID
280
    10
 91
        8
  2
Thumbnail_Data
280
    15
 91
        0
101
ACDSRECORD
 95
        0
 90
        1
  2
AcDbDs::TreatedAsObjectData
280
     1
291
     1
101
ACDSRECORD
 95
        0
 90
        2
  2
AcDbDs::Legacy
280
     1
291
     1
101
ACDSRECORD
  1
AcDbDs::ID
 90
        3
  2
AcDs:Indexable
280
     1
291
     1
101
ACDSRECORD
  1
AcDbDs::ID
 90
        4
  2
AcDbDs::HandleAttribute
280
     7
282
     1
  0
ACDSSCHEMA
 90
        1
  1
AcDbDs::TreatedAsObjectDataSchema
  2
AcDbDs::TreatedAsObjectData
280
     1
 91
        0
  0
ACDSSCHEMA
 90
        2
  1
AcDbDs::LegacySchema
  2
AcDbDs::Legacy
280
     1
 91
        0
  0
ACDSSCHEMA
 90
        3
  1
AcDbDs::IndexedPropertySchema
  2
AcDs:Indexable
280
     1
 91
        0
  0
ACDSSCHEMA
 90
        4
  1
AcDbDs::HandleAttributeSchema
  2
AcDbDs::HandleAttribute
280
     7
 91
        1
284
     1
  0
ACDSRECORD
 90
        0
  2
AcDbDs::ID
280
    10
320
22
  2
Thumbnail_Data
280
    15
 94
     1423
310
89504E470D0A1A0A0000000D4948445200000135000001000803000000E576112800000300504C5445212830FFFFFF2128300000000000000000000000000000000000000000000000000000330000660000990000CC0000FF0033000033330033660033990033CC0033FF0066000066330066660066990066CC0066FF0099
310
000099330099660099990099CC0099FF00CC0000CC3300CC6600CC9900CCCC00CCFF00FF0000FF3300FF6600FF9900FFCC00FFFF3300003300333300663300993300CC3300FF3333003333333333663333993333CC3333FF3366003366333366663366993366CC3366FF3399003399333399663399993399CC3399FF33CC00
310
33CC3333CC6633CC9933CCCC33CCFF33FF0033FF3333FF6633FF9933FFCC33FFFF6600006600336600666600996600CC6600FF6633006633336633666633996633CC6633FF6666006666336666666666996666CC6666FF6699006699336699666699996699CC6699FF66CC0066CC3366CC6666CC9966CCCC66CCFF66FF0066
310
FF3366FF6666FF9966FFCC66FFFF9900009900339900669900999900CC9900FF9933009933339933669933999933CC9933FF9966009966339966669966999966CC9966FF9999009999339999669999999999CC9999FF99CC0099CC3399CC6699CC9999CCCC99CCFF99FF0099FF3399FF6699FF9999FFCC99FFFFCC0000CC00
310
33CC0066CC0099CC00CCCC00FFCC3300CC3333CC3366CC3399CC33CCCC33FFCC6600CC6633CC6666CC6699CC66CCCC66FFCC9900CC9933CC9966CC9999CC99CCCC99FFCCCC00CCCC33CCCC66CCCC99CCCCCCCCCCFFCCFF00CCFF33CCFF66CCFF99CCFFCCCCFFFFFF0000FF0033FF0066FF0099FF00CCFF00FFFF3300FF3333
310
FF3366FF3399FF33CCFF33FFFF6600FF6633FF6666FF6699FF66CCFF66FFFF9900FF9933FF9966FF9999FF99CCFF99FFFFCC00FFCC33FFCC66FFCC99FFCCCCFFCCFFFFFF00FFFF33FFFF66FFFF99FFFFCCFFFFFF0000000D0D0D1A1A1A2828283535354343435050505D5D5D6B6B6B787878868686939393A1A1A1AEAEAEBB
310
BBBBC9C9C9D6D6D6E4E4E4F1F1F1FFFFFF0000000000000000000000000000000000000000000000000000000000002E4550F10000024A4944415478DAEDDCD176A230144051FEFF7FF3DE17AC04022818C2257B3F8C8E9DB5A69E025E346518000000000000000000000000000000000000000000A057698F44C56A67BEAC
310
9A6AAAA9A69A6AAAA9A69A6AAAA9A69A6AAAA9A69A6AAAA9A69A6AAAA9A69A6AAAA976E76A3E45560D00A0AF91EDC2FFDACFE147A77314A349A09A6AAAC9866CE727C590DFFCEC8918D73EFADE53837D26F2FE99A63749B5AF769374FD1349E137B5F14E2A7E7D3CD2BD0F78C5077BCAB65F6D8C33FD07C5077BAE367F09FD
310
DFBCA607BEE283E7468FA0AF0669196579DC7BC52D3D786A5C0B57EDB5919527A98AD5E24FE8B367AEDA9143B36AAA5D3572AA76E36AD13FA35A3D87AF592DEE9B1ED98456985A6BCE6BD1278FF918A25A904329AAC926DB53CE80AD29EA655CB37FAAA61AB2A976A3D1438C03E39A6AB0B79354A49A6A57AD8A54ED54B5A4
310
9A6AAA05AA16781956836A3F5A36D865B51473A148EB6A318F77AAA9A69A6AA56AF9D22FD53E9CD7B249CD6BE8817303F39A332AD5547BC26BA86A47E6B5C0DD5A4EB9713F4E687B6E10FB97339A9D510D512FE5D1B6DAE22441B56163DE08FF7B2D4D3E4556ADBB6AED7E5C120040A74380A59200003C78D62DFEC594BAD1
310
ECFDE7785BB84F1E2DBB4D93858CA9C195AE63D65BDBE2D8DC51270D979F5FD6BC3078E06D2D656B310AD5EA5D18FCC1D56A5E183CECFE99ADCB2EACD17629D87C5E9B3F63D5BE08A75ACDE39A6AF958A1DA918D6D7B5E536DABDAE2BE6A2BE7A169FF3C54B523EF79A8964D1D2BEFA95D7861700000000000000000000000
310
0000001EEF0FB7D5961A89BC17000000000049454E44AE426082
  0
ENDSEC
  0
EOF
