  0
SECTION
  2
HEADER
  9
$ACADVER
  1
AC1027
  9
$ACADMAINTVER
 70
   125
  9
$DWGCODEPAGE
  3
ANSI_1252
  9
$LASTSAVEDBY
  1
andrea.ragusa
  9
$REQUIREDVERSIONS
160
                 0
  9
$INSBASE
 10
0.0
 20
0.0
 30
0.0
  9
$EXTMIN
 10
-0.0128164049386896
 20
0.0589148761458773
 30
-0.0015258207003583
  9
$EXTMAX
 10
17.03430226658747
 20
26.13977088399668
 30
0.0000000349246037
  9
$LIMMIN
 10
0.0
 20
0.0
  9
$LIMMAX
 10
420.0
 20
297.0
  9
$ORTHOMODE
 70
     0
  9
$REGENMODE
 70
     1
  9
$FILLMODE
 70
     1
  9
$QTEXTMODE
 70
     0
  9
$MIRRTEXT
 70
     0
  9
$LTSCALE
 40
1.0
  9
$ATTMODE
 70
     1
  9
$TEXTSIZE
 40
2.5
  9
$TRACEWID
 40
1.0
  9
$TEXTSTYLE
  7
Standard
  9
$CLAYER
  8
0
  9
$CELTYPE
  6
ByLayer
  9
$CECOLOR
 62
   256
  9
$CELTSCALE
 40
1.0
  9
$DISPSILH
 70
     0
  9
$DIMSCALE
 40
1.0
  9
$DIMASZ
 40
2.5
  9
$DIMEXO
 40
0.625
  9
$DIMDLI
 40
3.75
  9
$DIMRND
 40
0.0
  9
$DIMDLE
 40
0.0
  9
$DIMEXE
 40
1.25
  9
$DIMTP
 40
0.0
  9
$DIMTM
 40
0.0
  9
$DIMTXT
 40
2.5
  9
$DIMCEN
 40
2.5
  9
$DIMTSZ
 40
0.0
  9
$DIMTOL
 70
     0
  9
$DIMLIM
 70
     0
  9
$DIMTIH
 70
     0
  9
$DIMTOH
 70
     0
  9
$DIMSE1
 70
     0
  9
$DIMSE2
 70
     0
  9
$DIMTAD
 70
     1
  9
$DIMZIN
 70
     8
  9
$DIMBLK
  1

  9
$DIMASO
 70
     1
  9
$DIMSHO
 70
     1
  9
$DIMPOST
  1

  9
$DIMAPOST
  1

  9
$DIMALT
 70
     0
  9
$DIMALTD
 70
     3
  9
$DIMALTF
 40
0.03937007874016
  9
$DIMLFAC
 40
1.0
  9
$DIMTOFL
 70
     1
  9
$DIMTVP
 40
0.0
  9
$DIMTIX
 70
     0
  9
$DIMSOXD
 70
     0
  9
$DIMSAH
 70
     0
  9
$DIMBLK1
  1

  9
$DIMBLK2
  1

  9
$DIMSTYLE
  2
ISO-25
  9
$DIMCLRD
 70
     0
  9
$DIMCLRE
 70
     0
  9
$DIMCLRT
 70
     0
  9
$DIMTFAC
 40
1.0
  9
$DIMGAP
 40
0.625
  9
$DIMJUST
 70
     0
  9
$DIMSD1
 70
     0
  9
$DIMSD2
 70
     0
  9
$DIMTOLJ
 70
     0
  9
$DIMTZIN
 70
     8
  9
$DIMALTZ
 70
     0
  9
$DIMALTTZ
 70
     0
  9
$DIMUPT
 70
     0
  9
$DIMDEC
 70
     2
  9
$DIMTDEC
 70
     2
  9
$DIMALTU
 70
     2
  9
$DIMALTTD
 70
     3
  9
$DIMTXSTY
  7
Standard
  9
$DIMAUNIT
 70
     0
  9
$DIMADEC
 70
     0
  9
$DIMALTRND
 40
0.0
  9
$DIMAZIN
 70
     0
  9
$DIMDSEP
 70
    44
  9
$DIMATFIT
 70
     3
  9
$DIMFRAC
 70
     0
  9
$DIMLDRBLK
  1

  9
$DIMLUNIT
 70
     2
  9
$DIMLWD
 70
    -2
  9
$DIMLWE
 70
    -2
  9
$DIMTMOVE
 70
     0
  9
$DIMFXL
 40
1.0
  9
$DIMFXLON
 70
     0
  9
$DIMJOGANG
 40
0.7853981633974483
  9
$DIMTFILL
 70
     0
  9
$DIMTFILLCLR
 70
     0
  9
$DIMARCSYM
 70
     0
  9
$DIMLTYPE
  6

  9
$DIMLTEX1
  6

  9
$DIMLTEX2
  6

  9
$DIMTXTDIRECTION
 70
     0
  9
$LUNITS
 70
     2
  9
$LUPREC
 70
     4
  9
$SKETCHINC
 40
1.0
  9
$FILLETRAD
 40
0.0
  9
$AUNITS
 70
     0
  9
$AUPREC
 70
     0
  9
$MENU
  1
.
  9
$ELEVATION
 40
0.0
  9
$PELEVATION
 40
0.0
  9
$THICKNESS
 40
0.0
  9
$LIMCHECK
 70
     0
  9
$CHAMFERA
 40
0.0
  9
$CHAMFERB
 40
0.0
  9
$CHAMFERC
 40
0.0
  9
$CHAMFERD
 40
0.0
  9
$SKPOLY
 70
     0
  9
$TDCREATE
 40
2459052.721458334
  9
$TDUCREATE
 40
2459052.638125000
  9
$TDUPDATE
 40
2459052.721585648
  9
$TDUUPDATE
 40
2459052.638252315
  9
$TDINDWG
 40
0.0001273148
  9
$TDUSRTIMER
 40
0.0001273148
  9
$USRTIMER
 70
     1
  9
$ANGBASE
 50
0.0
  9
$ANGDIR
 70
     0
  9
$PDMODE
 70
     0
  9
$PDSIZE
 40
0.0
  9
$PLINEWID
 40
0.0
  9
$SPLFRAME
 70
     0
  9
$SPLINETYPE
 70
     6
  9
$SPLINESEGS
 70
     8
  9
$HANDSEED
  5
4B3
  9
$SURFTAB1
 70
     6
  9
$SURFTAB2
 70
     6
  9
$SURFTYPE
 70
     6
  9
$SURFU
 70
     6
  9
$SURFV
 70
     6
  9
$UCSBASE
  2

  9
$UCSNAME
  2

  9
$UCSORG
 10
0.0
 20
0.0
 30
0.0
  9
$UCSXDIR
 10
1.0
 20
0.0
 30
0.0
  9
$UCSYDIR
 10
0.0
 20
1.0
 30
0.0
  9
$UCSORTHOREF
  2

  9
$UCSORTHOVIEW
 70
     0
  9
$UCSORGTOP
 10
0.0
 20
0.0
 30
0.0
  9
$UCSORGBOTTOM
 10
0.0
 20
0.0
 30
0.0
  9
$UCSORGLEFT
 10
0.0
 20
0.0
 30
0.0
  9
$UCSORGRIGHT
 10
0.0
 20
0.0
 30
0.0
  9
$UCSORGFRONT
 10
0.0
 20
0.0
 30
0.0
  9
$UCSORGBACK
 10
0.0
 20
0.0
 30
0.0
  9
$PUCSBASE
  2

  9
$PUCSNAME
  2

  9
$PUCSORG
 10
0.0
 20
0.0
 30
0.0
  9
$PUCSXDIR
 10
1.0
 20
0.0
 30
0.0
  9
$PUCSYDIR
 10
0.0
 20
1.0
 30
0.0
  9
$PUCSORTHOREF
  2

  9
$PUCSORTHOVIEW
 70
     0
  9
$PUCSORGTOP
 10
0.0
 20
0.0
 30
0.0
  9
$PUCSORGBOTTOM
 10
0.0
 20
0.0
 30
0.0
  9
$PUCSORGLEFT
 10
0.0
 20
0.0
 30
0.0
  9
$PUCSORGRIGHT
 10
0.0
 20
0.0
 30
0.0
  9
$PUCSORGFRONT
 10
0.0
 20
0.0
 30
0.0
  9
$PUCSORGBACK
 10
0.0
 20
0.0
 30
0.0
  9
$USERI1
 70
     0
  9
$USERI2
 70
     0
  9
$USERI3
 70
     0
  9
$USERI4
 70
     0
  9
$USERI5
 70
     0
  9
$USERR1
 40
0.0
  9
$USERR2
 40
0.0
  9
$USERR3
 40
0.0
  9
$USERR4
 40
0.0
  9
$USERR5
 40
0.0
  9
$WORLDVIEW
 70
     1
  9
$SHADEDGE
 70
     3
  9
$SHADEDIF
 70
    70
  9
$TILEMODE
 70
     1
  9
$MAXACTVP
 70
    64
  9
$PINSBASE
 10
0.0
 20
0.0
 30
0.0
  9
$PLIMCHECK
 70
     0
  9
$PEXTMIN
 10
0.0
 20
0.0
 30
0.0
  9
$PEXTMAX
 10
0.0
 20
0.0
 30
0.0
  9
$PLIMMIN
 10
0.0
 20
0.0
  9
$PLIMMAX
 10
12.0
 20
9.0
  9
$UNITMODE
 70
     0
  9
$VISRETAIN
 70
     1
  9
$PLINEGEN
 70
     0
  9
$PSLTSCALE
 70
     1
  9
$TREEDEPTH
 70
  3020
  9
$CMLSTYLE
  2
Standard
  9
$CMLJUST
 70
     0
  9
$CMLSCALE
 40
20.0
  9
$PROXYGRAPHICS
 70
     1
  9
$MEASUREMENT
 70
     1
  9
$CELWEIGHT
370
    -1
  9
$ENDCAPS
280
     0
  9
$JOINSTYLE
280
     0
  9
$LWDISPLAY
290
     0
  9
$INSUNITS
 70
     4
  9
$HYPERLINKBASE
  1

  9
$STYLESHEET
  1

  9
$XEDIT
290
     1
  9
$CEPSNTYPE
380
     0
  9
$PSTYLEMODE
290
     1
  9
$FINGERPRINTGUID
  2
{61CB3FC9-09E1-0841-9D77-EAE31FDF65FF}
  9
$VERSIONGUID
  2
{C1B2595E-3D02-284D-820C-6871CB836317}
  9
$EXTNAMES
290
     1
  9
$PSVPSCALE
 40
0.0
  9
$OLESTARTUP
290
     0
  9
$SORTENTS
280
   127
  9
$INDEXCTL
280
     0
  9
$HIDETEXT
280
     1
  9
$XCLIPFRAME
280
     2
  9
$HALOGAP
280
     0
  9
$OBSCOLOR
 70
   257
  9
$OBSLTYPE
280
     0
  9
$INTERSECTIONDISPLAY
280
     0
  9
$INTERSECTIONCOLOR
 70
   257
  9
$DIMASSOC
280
     2
  9
$PROJECTNAME
  1

  9
$CAMERADISPLAY
290
     0
  9
$LENSLENGTH
 40
50.0
  9
$CAMERAHEIGHT
 40
0.0
  9
$STEPSPERSEC
 40
2.0
  9
$STEPSIZE
 40
6.0
  9
$3DDWFPREC
 40
2.0
  9
$PSOLWIDTH
 40
5.0
  9
$PSOLHEIGHT
 40
80.0
  9
$LOFTANG1
 40
1.570796326794896
  9
$LOFTANG2
 40
1.570796326794896
  9
$LOFTMAG1
 40
0.0
  9
$LOFTMAG2
 40
0.0
  9
$LOFTPARAM
 70
     7
  9
$LOFTNORMALS
280
     1
  9
$LATITUDE
 40
37.795
  9
$LONGITUDE
 40
-122.394
  9
$NORTHDIRECTION
 40
0.0
  9
$TIMEZONE
 70
 -8000
  9
$LIGHTGLYPHDISPLAY
280
     1
  9
$TILEMODELIGHTSYNCH
280
     1
  9
$CMATERIAL
347
EC
  9
$SOLIDHIST
280
     0
  9
$SHOWHIST
280
     1
  9
$DWFFRAME
280
     2
  9
$DGNFRAME
280
     0
  9
$REALWORLDSCALE
290
     1
  9
$INTERFERECOLOR
 62
     1
  9
$INTERFEREOBJVS
345
F9
  9
$INTERFEREVPVS
346
F6
  9
$CSHADOW
280
     0
  9
$SHADOWPLANELOCATION
 40
0.0
  0
ENDSEC
  0
SECTION
  2
CLASSES
  0
CLASS
  1
ACDBDICTIONARYWDFLT
  2
AcDbDictionaryWithDefault
  3
ObjectDBX Classes
 90
        0
 91
        1
280
     0
281
     0
  0
CLASS
  1
DICTIONARYVAR
  2
AcDbDictionaryVar
  3
ObjectDBX Classes
 90
        0
 91
       11
280
     0
281
     0
  0
CLASS
  1
TABLESTYLE
  2
AcDbTableStyle
  3
ObjectDBX Classes
 90
     4095
 91
        1
280
     0
281
     0
  0
CLASS
  1
MATERIAL
  2
AcDbMaterial
  3
ObjectDBX Classes
 90
     1153
 91
        3
280
     0
281
     0
  0
CLASS
  1
VISUALSTYLE
  2
AcDbVisualStyle
  3
ObjectDBX Classes
 90
     4095
 91
       24
280
     0
281
     0
  0
CLASS
  1
SCALE
  2
AcDbScale
  3
ObjectDBX Classes
 90
     1153
 91
       17
280
     0
281
     0
  0
CLASS
  1
MLEADERSTYLE
  2
AcDbMLeaderStyle
  3
ACDB_MLEADERSTYLE_CLASS
 90
     4095
 91
        2
280
     0
281
     0
  0
CLASS
  1
CELLSTYLEMAP
  2
AcDbCellStyleMap
  3
ObjectDBX Classes
 90
     1152
 91
        1
280
     0
281
     0
  0
CLASS
  1
EXACXREFPANELOBJECT
  2
ExAcXREFPanelObject
  3
EXAC_ESW
 90
     1025
 91
        0
280
     0
281
     0
  0
CLASS
  1
NPOCOLLECTION
  2
AcDbImpNonPersistentObjectsCollection
  3
ObjectDBX Classes
 90
     1153
 91
        0
280
     0
281
     0
  0
CLASS
  1
LAYER_INDEX
  2
AcDbLayerIndex
  3
ObjectDBX Classes
 90
        0
 91
        0
280
     0
281
     0
  0
CLASS
  1
SPATIAL_INDEX
  2
AcDbSpatialIndex
  3
ObjectDBX Classes
 90
        0
 91
        0
280
     0
281
     0
  0
CLASS
  1
IDBUFFER
  2
AcDbIdBuffer
  3
ObjectDBX Classes
 90
        0
 91
        0
280
     0
281
     0
  0
CLASS
  1
ACDBSECTIONVIEWSTYLE
  2
AcDbSectionViewStyle
  3
ObjectDBX Classes
 90
     1025
 91
        2
280
     0
281
     0
  0
CLASS
  1
ACDBDETAILVIEWSTYLE
  2
AcDbDetailViewStyle
  3
ObjectDBX Classes
 90
     1025
 91
        2
280
     0
281
     0
  0
CLASS
  1
SORTENTSTABLE
  2
AcDbSortentsTable
  3
ObjectDBX Classes
 90
        0
 91
        1
280
     0
281
     0
  0
ENDSEC
  0
SECTION
  2
TABLES
  0
TABLE
  2
VPORT
  5
8
330
0
100
AcDbSymbolTable
 70
     1
1001
ACAD
1000
DbSaveVer
1071
      208
  0
VPORT
  5
EA
330
8
100
AcDbSymbolTableRecord
100
AcDbViewportTableRecord
  2
*Active
 70
     0
 10
0.0
 20
0.0
 11
1.0
 21
1.0
 12
8.510742930824392
 22
13.09934288007128
 13
0.0
 23
0.0
 14
10.0
 24
10.0
 15
10.0
 25
10.0
 16
0.0
 26
0.0
 36
1.0
 17
0.0
 27
0.0
 37
0.0
 40
26.28199371485222
 41
1.239382239382239
 42
50.0
 43
0.0
 44
0.0
 50
0.0
 51
0.0
 71
     0
 72
  1000
 73
     1
 74
     3
 75
     0
 76
     1
 77
     0
 78
     0
281
     0
 65
     1
110
0.0
120
0.0
130
0.0
111
1.0
121
0.0
131
0.0
112
0.0
122
1.0
132
0.0
 79
     0
146
0.0
348
F5
 60
     3
 61
     5
292
     1
282
     1
141
0.0
142
0.0
 63
   250
421
  3355443
1001
ACAD_NAV_VCDISPLAY
1070
     3
  0
ENDTAB
  0
TABLE
  2
LTYPE
  5
5
330
0
100
AcDbSymbolTable
 70
     1
  0
LTYPE
  5
14
330
5
100
AcDbSymbolTableRecord
100
AcDbLinetypeTableRecord
  2
ByBlock
 70
     0
  3

 72
    65
 73
     0
 40
0.0
  0
LTYPE
  5
15
330
5
100
AcDbSymbolTableRecord
100
AcDbLinetypeTableRecord
  2
ByLayer
 70
     0
  3

 72
    65
 73
     0
 40
0.0
  0
LTYPE
  5
16
330
5
100
AcDbSymbolTableRecord
100
AcDbLinetypeTableRecord
  2
Continuous
 70
     0
  3
Solid line
 72
    65
 73
     0
 40
0.0
  0
ENDTAB
  0
TABLE
  2
LAYER
  5
2
102
{ACAD_XDICTIONARY
360
1FF
102
}
330
0
100
AcDbSymbolTable
 70
     2
  0
LAYER
  5
10
102
{ACAD_XDICTIONARY
360
13C
102
}
330
2
100
AcDbSymbolTableRecord
100
AcDbLayerTableRecord
  2
0
 70
     0
 62
     7
  6
Continuous
370
    -3
390
F
347
EE
348
0
  0
LAYER
  5
28C
330
2
100
AcDbSymbolTableRecord
100
AcDbLayerTableRecord
  2
Livello 1
 70
     0
 62
     7
  6
Continuous
370
    -3
390
F
347
EE
348
0
  0
ENDTAB
  0
TABLE
  2
STYLE
  5
3
330
0
100
AcDbSymbolTable
 70
     2
  0
STYLE
  5
11
330
3
100
AcDbSymbolTableRecord
100
AcDbTextStyleTableRecord
  2
Standard
 70
     0
 40
0.0
 41
1.0
 50
0.0
 71
     0
 42
2.5
  3
arial.ttf
  4

1001
ACAD
1000
Arial
1071
       34
  0
STYLE
  5
132
330
3
100
AcDbSymbolTableRecord
100
AcDbTextStyleTableRecord
  2
Annotativa
 70
     0
 40
0.0
 41
1.0
 50
0.0
 71
     0
 42
2.5
  3
arial.ttf
  4

1001
AcadAnnotative
1000
AnnotativeData
1002
{
1070
     1
1070
     1
1002
}
1001
ACAD
1000
Arial
1071
       34
  0
ENDTAB
  0
TABLE
  2
VIEW
  5
6
330
0
100
AcDbSymbolTable
 70
     0
  0
ENDTAB
  0
TABLE
  2
UCS
  5
7
330
0
100
AcDbSymbolTable
 70
     0
  0
ENDTAB
  0
TABLE
  2
APPID
  5
9
330
0
100
AcDbSymbolTable
 70
     8
  0
APPID
  5
12
330
9
100
AcDbSymbolTableRecord
100
AcDbRegAppTableRecord
  2
ACAD
 70
     0
  0
APPID
  5
9E
330
9
100
AcDbSymbolTableRecord
100
AcDbRegAppTableRecord
  2
ACAD_PSEXT
 70
     0
  0
APPID
  5
133
330
9
100
AcDbSymbolTableRecord
100
AcDbRegAppTableRecord
  2
AcadAnnoPO
 70
     0
  0
APPID
  5
134
330
9
100
AcDbSymbolTableRecord
100
AcDbRegAppTableRecord
  2
AcadAnnotative
 70
     0
  0
APPID
  5
135
330
9
100
AcDbSymbolTableRecord
100
AcDbRegAppTableRecord
  2
ACAD_DSTYLE_DIMJAG
 70
     0
  0
APPID
  5
136
330
9
100
AcDbSymbolTableRecord
100
AcDbRegAppTableRecord
  2
ACAD_DSTYLE_DIMTALN
 70
     0
  0
APPID
  5
165
330
9
100
AcDbSymbolTableRecord
100
AcDbRegAppTableRecord
  2
ACAD_MLEADERVER
 70
     0
  0
APPID
  5
217
330
9
100
AcDbSymbolTableRecord
100
AcDbRegAppTableRecord
  2
ACAD_NAV_VCDISPLAY
 70
     0
  0
ENDTAB
  0
TABLE
  2
DIMSTYLE
  5
A
330
0
100
AcDbSymbolTable
 70
     3
100
AcDbDimStyleTable
 71
     2
340
27
340
137
  0
DIMSTYLE
105
1B0
330
A
100
AcDbSymbolTableRecord
100
AcDbDimStyleTableRecord
  2
Standard
 70
     0
340
11
  0
DIMSTYLE
105
137
330
A
100
AcDbSymbolTableRecord
100
AcDbDimStyleTableRecord
  2
Annotativa
 70
     0
 40
0.0
 41
2.5
 42
0.625
 43
3.75
 44
1.25
 73
     0
 74
     0
 77
     1
 78
     8
140
2.5
141
2.5
143
0.03937007874016
147
0.625
171
     3
172
     1
271
     2
272
     2
274
     3
278
    44
283
     0
284
     8
340
11
1001
AcadAnnotative
1000
AnnotativeData
1002
{
1070
     1
1070
     1
1002
}
1001
ACAD_DSTYLE_DIMJAG
1070
   388
1040
1.5
1001
ACAD_DSTYLE_DIMTALN
1070
   392
1070
     0
  0
DIMSTYLE
105
27
330
A
100
AcDbSymbolTableRecord
100
AcDbDimStyleTableRecord
  2
ISO-25
 70
     0
 41
2.5
 42
0.625
 43
3.75
 44
1.25
 73
     0
 74
     0
 77
     1
 78
     8
140
2.5
141
2.5
143
0.03937007874016
147
0.625
171
     3
172
     1
271
     2
272
     2
274
     3
278
    44
283
     0
284
     8
340
11
  0
ENDTAB
  0
TABLE
  2
BLOCK_RECORD
  5
1
330
0
100
AcDbSymbolTable
 70
     2
  0
BLOCK_RECORD
  5
1F
102
{ACAD_XDICTIONARY
360
1CE
102
}
330
1
100
AcDbSymbolTableRecord
100
AcDbBlockTableRecord
  2
*Model_Space
340
22
 70
     0
280
     1
281
     0
  0
BLOCK_RECORD
  5
D2
330
1
100
AcDbSymbolTableRecord
100
AcDbBlockTableRecord
  2
*Paper_Space
340
D3
 70
     0
280
     1
281
     0
  0
BLOCK_RECORD
  5
D6
330
1
100
AcDbSymbolTableRecord
100
AcDbBlockTableRecord
  2
*Paper_Space0
340
D7
 70
     0
280
     1
281
     0
  0
ENDTAB
  0
ENDSEC
  0
SECTION
  2
BLOCKS
  0
BLOCK
  5
20
330
1F
100
AcDbEntity
  8
0
100
AcDbBlockBegin
  2
*Model_Space
 70
     0
 10
0.0
 20
0.0
 30
0.0
  3
*Model_Space
  1

  0
ENDBLK
  5
21
330
1F
100
AcDbEntity
  8
0
100
AcDbBlockEnd
  0
BLOCK
  5
D4
330
D2
100
AcDbEntity
 67
     1
  8
0
100
AcDbBlockBegin
  2
*Paper_Space
 70
     0
 10
0.0
 20
0.0
 30
0.0
  3
*Paper_Space
  1

  0
ENDBLK
  5
D5
330
D2
100
AcDbEntity
 67
     1
  8
0
100
AcDbBlockEnd
  0
BLOCK
  5
D8
330
D6
100
AcDbEntity
 67
     1
  8
0
100
AcDbBlockBegin
  2
*Paper_Space0
 70
     0
 10
0.0
 20
0.0
 30
0.0
  3
*Paper_Space0
  1

  0
ENDBLK
  5
D9
330
D6
100
AcDbEntity
 67
     1
  8
0
100
AcDbBlockEnd
  0
ENDSEC
  0
SECTION
  2
ENTITIES
  0
POLYLINE
  5
39C
330
1F
100
AcDbEntity
  8
Livello 1
370
     9
100
AcDb2dPolyline
 66
     1
 10
0.0
 20
0.0
 30
0.0
  0
VERTEX
  5
39D
330
39C
100
AcDbEntity
  8
Livello 1
370
     9
100
AcDbVertex
100
AcDb2dVertex
 10
13.0619829210656
 20
8.34780697361711
 30
0.0
  0
VERTEX
  5
39E
330
39C
100
AcDbEntity
  8
Livello 1
370
     9
100
AcDbVertex
100
AcDb2dVertex
 10
13.0619829210656
 20
0.171828315077704
 30
0.0
  0
SEQEND
  5
39F
330
39C
100
AcDbEntity
  8
Livello 1
370
     9
  0
POLYLINE
  5
3A0
330
1F
100
AcDbEntity
  8
Livello 1
370
     9
100
AcDb2dPolyline
 66
     1
 10
0.0
 20
0.0
 30
0.0
  0
VERTEX
  5
3A1
330
3A0
100
AcDbEntity
  8
Livello 1
370
     9
100
AcDbVertex
100
AcDb2dVertex
 10
11.50517415807972
 20
14.04309198675437
 30
0.0
  0
VERTEX
  5
3A2
330
3A0
100
AcDbEntity
  8
Livello 1
370
     9
100
AcDbVertex
100
AcDb2dVertex
 10
0.6685455648012493
 20
14.04309198675437
 30
0.0
  0
SEQEND
  5
3A3
330
3A0
100
AcDbEntity
  8
Livello 1
370
     9
  0
MTEXT
  5
3A4
330
1F
100
AcDbEntity
  8
Livello 1
100
AcDbMText
 10
16.1652312519584
 20
0.1491081795008995
 30
0.0
 40
2.123016666135912
 41
0.0
 46
0.0
 71
     7
 72
     1
  1
\fSource Sans Pro Light|b0|i0|c0|p34;\W1;57 mm
 11
-0.0000000000000002
 21
1.0
 31
0.0
 73
     1
 44
1.0
  0
MTEXT
  5
3A5
330
1F
100
AcDbEntity
  8
Livello 1
100
AcDbMText
 10
1.985944934498945
 20
10.56272749384592
 30
0.0
 40
2.123016666135912
 41
0.0
 46
0.0
 71
     7
 72
     1
  1
\fSource Sans Pro Light|b0|i0|c0|p34;\W1;80 mm
 73
     1
 44
1.0
  0
SPLINE
  5
3A6
330
1F
100
AcDbEntity
  8
Livello 1
370
     0
100
AcDbSpline
210
0.0
220
0.0
230
1.0
 70
     8
 71
     3
 72
    23
 73
    19
 74
     0
 42
0.000000001
 43
0.0000000001
 40
0.0
 40
0.0
 40
0.0
 40
0.0
 40
1.0
 40
1.0
 40
1.0
 40
2.0
 40
2.0
 40
2.0
 40
3.0
 40
3.0
 40
3.0
 40
4.0
 40
4.0
 40
4.0
 40
5.0
 40
5.0
 40
5.0
 40
6.0
 40
6.0
 40
6.0
 40
6.0
 10
3.346275356491517
 20
7.94552732081928
 30
0.0
 10
3.346275356491517
 20
7.94552732081928
 30
0.0
 10
3.049718576492253
 20
7.911992815195475
 30
0.0
 10
2.410711230816659
 20
7.444586213936275
 30
0.0
 10
2.410711230816659
 20
7.444586213936275
 30
0.0
 10
0.0537330056982057
 20
5.674424829372497
 30
0.0
 10
0.0537330056982057
 20
5.674424829372497
 30
0.0
 10
0.0537330056982057
 20
5.674424829372497
 30
0.0
 10
0.0355614727539262
 20
5.647063235073176
 30
0.0
 10
0.0601710278862697
 20
5.603860930243882
 30
0.0
 10
0.0601710278862697
 20
5.603860930243882
 30
0.0
 10
0.0908027714156674
 20
5.587710699416362
 30
0.0
 10
0.1141661709154391
 20
5.603860930243882
 30
0.0
 10
0.1141661709154391
 20
5.603860930243882
 30
0.0
 10
2.442173296187604
 20
7.376490402745162
 30
0.0
 10
2.442173296187604
 20
7.376490402745162
 30
0.0
 10
2.442173296187604
 20
7.376490402745162
 30
0.0
 10
3.150231928755275
 20
7.882677205800661
 30
0.0
 10
3.366523366909888
 20
7.86971637977777
 30
0.0
  0
SPLINE
  5
3A7
330
1F
100
AcDbEntity
  8
Livello 1
370
     0
100
AcDbSpline
210
0.0
220
0.0
230
1.0
 70
     9
 71
     3
 72
    50
 73
    46
 74
     0
 42
0.000000001
 43
0.0000000001
 40
0.0
 40
0.0
 40
0.0
 40
0.0
 40
1.0
 40
1.0
 40
1.0
 40
2.0
 40
2.0
 40
2.0
 40
3.0
 40
3.0
 40
3.0
 40
4.0
 40
4.0
 40
4.0
 40
5.0
 40
5.0
 40
5.0
 40
6.0
 40
6.0
 40
6.0
 40
7.0
 40
7.0
 40
7.0
 40
8.0
 40
8.0
 40
8.0
 40
9.0
 40
9.0
 40
9.0
 40
10.0
 40
10.0
 40
10.0
 40
11.0
 40
11.0
 40
11.0
 40
12.0
 40
12.0
 40
12.0
 40
13.0
 40
13.0
 40
13.0
 40
14.0
 40
14.0
 40
14.0
 40
15.0
 40
15.0
 40
15.0
 40
15.0
 10
0.0887222567202883
 20
5.545434263998771
 30
0.0
 10
0.0686814903271653
 20
5.545434263998771
 30
0.0
 10
0.0497832575539832
 20
5.551090411000473
 30
0.0
 10
0.0357646795579569
 20
5.558497366293778
 30
0.0
 10
0.0357646795579569
 20
5.558497366293778
 30
0.0
 10
0.0222669031059866
 20
5.565491179276989
 30
0.0
 10
0.0222669031059866
 20
5.565491179276989
 30
0.0
 10
0.0222669031059866
 20
5.565491179276989
 30
0.0
 10
0.0148935913233004
 20
5.57865790358457
 30
0.0
 10
0.0148935913233004
 20
5.57865790358457
 30
0.0
 10
-0.0146992405988442
 20
5.630707105960766
 30
0.0
 10
-0.0059774969113704
 20
5.67802333926599
 30
0.0
 10
0.0103248025840657
 20
5.702607325330291
 30
0.0
 10
0.0103248025840657
 20
5.702607325330291
 30
0.0
 10
0.0223705251186317
 20
5.715362253068292
 30
0.0
 10
0.0223705251186317
 20
5.715362253068292
 30
0.0
 10
0.0223705251186317
 20
5.715362253068292
 30
0.0
 10
2.379452372249701
 20
7.485523637632098
 30
0.0
 10
2.379452372249701
 20
7.485523637632098
 30
0.0
 10
3.022612672873535
 20
7.956120989436385
 30
0.0
 10
3.327683952534968
 20
7.995105743777088
 30
0.0
 10
3.340351407145377
 20
7.996647962302887
 30
0.0
 10
3.340351407145377
 20
7.996647962302887
 30
0.0
 10
3.349074496573265
 20
7.921044265286781
 30
0.0
 10
3.349074496573265
 20
7.921044265286781
 30
0.0
 10
3.349074496573265
 20
7.921044265286781
 30
0.0
 10
3.3462699735298
 20
7.945525975078766
 30
0.0
 10
3.3462699735298
 20
7.945525975078766
 30
0.0
 10
3.3462699735298
 20
7.945525975078766
 30
0.0
 10
3.349178118585896
 20
7.921044265286781
 30
0.0
 10
3.349178118585896
 20
7.921044265286781
 30
0.0
 10
3.356550084628182
 20
7.921456061856474
 30
0.0
 10
3.363195350841522
 20
7.921456061856474
 30
0.0
 10
3.369736995042231
 20
7.921044265286781
 30
0.0
 10
3.369736995042231
 20
7.921044265286781
 30
0.0
 10
3.363403940607227
 20
7.818387148528472
 30
0.0
 10
3.363403940607227
 20
7.818387148528472
 30
0.0
 10
3.219070588660343
 20
7.825074132694879
 30
0.0
 10
2.740386682648704
 20
7.526360130796064
 30
0.0
 10
2.472592412730037
 20
7.334830316441781
 30
0.0
 10
2.472592412730037
 20
7.334830316441781
 30
0.0
 10
0.1458314430904153
 20
5.563125367611689
 30
0.0
 10
0.1458314430904153
 20
5.563125367611689
 30
0.0
 10
0.1273490441082146
 20
5.550268163601487
 30
0.0
 10
0.1075155217404102
 20
5.545434263998771
 30
0.0
 10
0.0887222567202883
 20
5.545434263998771
 30
0.0
  0
SPLINE
  5
3A8
330
1F
100
AcDbEntity
  8
Livello 1
370
     0
100
AcDbSpline
210
0.0
220
0.0
230
1.0
 70
     9
 71
     3
 72
    32
 73
    28
 74
     0
 42
0.000000001
 43
0.0000000001
 40
0.0
 40
0.0
 40
0.0
 40
0.0
 40
1.0
 40
1.0
 40
1.0
 40
2.0
 40
2.0
 40
2.0
 40
3.0
 40
3.0
 40
3.0
 40
4.0
 40
4.0
 40
4.0
 40
5.0
 40
5.0
 40
5.0
 40
6.0
 40
6.0
 40
6.0
 40
7.0
 40
7.0
 40
7.0
 40
8.0
 40
8.0
 40
8.0
 40
9.0
 40
9.0
 40
9.0
 40
9.0
 10
3.512673468429056
 20
8.630874568556578
 30
0.0
 10
3.65305976371259
 20
8.544469958897963
 30
0.0
 10
3.684209617305185
 20
8.342961479300157
 30
0.0
 10
3.58245010940962
 20
8.180747274340689
 30
0.0
 10
3.580996709751801
 20
8.178381462675361
 30
0.0
 10
3.579543310093939
 20
8.176427447579868
 30
0.0
 10
3.577881320670385
 20
8.174061635914597
 30
0.0
 10
3.660431729754833
 20
8.312822276765956
 30
0.0
 10
3.625542063524164
 20
8.486455089222573
 30
0.0
 10
3.497512356813118
 20
8.565144569030763
 30
0.0
 10
3.367717038665915
 20
8.645069438548176
 30
0.0
 10
3.19140351128486
 20
8.596415539261585
 30
0.0
 10
3.103869825410598
 20
8.456829959530267
 30
0.0
 10
3.016439761549023
 20
8.317143449267177
 30
0.0
 10
3.050705004223004
 20
8.139088533777595
 30
0.0
 10
3.180500322370207
 20
8.059163664260182
 30
0.0
 10
3.273745330603603
 20
8.001868765711577
 30
0.0
 10
3.390665950115121
 20
8.011023837815571
 30
0.0
 10
3.481625891108677
 20
8.072226766555274
 30
0.0
 10
3.378204393789559
 20
7.996314894981964
 30
0.0
 10
3.246541187933942
 20
7.980370562439389
 30
0.0
 10
3.144262224234736
 20
8.043220677457981
 30
0.0
 10
3.004186794989166
 20
8.129521665103879
 30
0.0
 10
2.973035595656114
 20
8.330824246416767
 30
0.0
 10
3.074691481539062
 20
8.493038451376378
 30
0.0
 10
3.176450989434627
 20
8.655353586867761
 30
0.0
 10
3.372494417170855
 20
8.717174210462076
 30
0.0
 10
3.512673468429056
 20
8.630874568556578
 30
0.0
  0
SPLINE
  5
3A9
330
1F
100
AcDbEntity
  8
Livello 1
370
     0
100
AcDbSpline
210
0.0
220
0.0
230
1.0
 70
     9
 71
     3
 72
    50
 73
    46
 74
     0
 42
0.000000001
 43
0.0000000001
 40
0.0
 40
0.0
 40
0.0
 40
0.0
 40
1.0
 40
1.0
 40
1.0
 40
2.0
 40
2.0
 40
2.0
 40
3.0
 40
3.0
 40
3.0
 40
4.0
 40
4.0
 40
4.0
 40
5.0
 40
5.0
 40
5.0
 40
6.0
 40
6.0
 40
6.0
 40
7.0
 40
7.0
 40
7.0
 40
8.0
 40
8.0
 40
8.0
 40
9.0
 40
9.0
 40
9.0
 40
10.0
 40
10.0
 40
10.0
 40
11.0
 40
11.0
 40
11.0
 40
12.0
 40
12.0
 40
12.0
 40
13.0
 40
13.0
 40
13.0
 40
14.0
 40
14.0
 40
14.0
 40
15.0
 40
15.0
 40
15.0
 40
15.0
 10
3.284414360684493
 20
7.952928223714678
 30
0.0
 10
3.224500651270886
 20
7.952928223714678
 30
0.0
 10
3.166559797318768
 20
7.968973486789167
 30
0.0
 10
3.116926199003557
 20
7.99952448589309
 30
0.0
 10
2.952760670429256
 20
8.10063803838517
 30
0.0
 10
2.914030261028685
 20
8.334238389872268
 30
0.0
 10
3.030638668761852
 20
8.520214333497165
 30
0.0
 10
3.108308077328715
 20
8.644267377255459
 30
0.0
 10
3.239244583355414
 20
8.721311016525191
 30
0.0
 10
3.372466156621953
 20
8.721311016525191
 30
0.0
 10
3.432483488048177
 20
8.721311016525191
 30
0.0
 10
3.490424342000295
 20
8.705057163685097
 30
0.0
 10
3.540057940315534
 20
8.674611132334177
 30
0.0
 10
3.621049981989088
 20
8.624723189078764
 30
0.0
 10
3.674214803176695
 20
8.542226609611276
 30
0.0
 10
3.689686780830555
 20
8.442038926530898
 30
0.0
 10
3.704742924693462
 20
8.344937026242604
 30
0.0
 10
3.682313469047883
 20
8.242382185756468
 30
0.0
 10
3.626554060322916
 20
8.153611764432582
 30
0.0
 10
3.626554060322916
 20
8.153611764432582
 30
0.0
 10
3.626034604519318
 20
8.153817662717472
 30
0.0
 10
3.626034604519318
 20
8.153817662717472
 30
0.0
 10
3.624892070899392
 20
8.151863647621865
 30
0.0
 10
3.623854505032539
 20
8.149909632526373
 30
0.0
 10
3.622608349399968
 20
8.147955617430767
 30
0.0
 10
3.622608349399968
 20
8.147955617430767
 30
0.0
 10
3.533205430076904
 20
8.200105750338764
 30
0.0
 10
3.533205430076904
 20
8.200105750338764
 30
0.0
 10
3.602151749215892
 20
8.316135489689685
 30
0.0
 10
3.574428150742619
 20
8.457263287946773
 30
0.0
 10
3.470176331581924
 20
8.521448377465901
 30
0.0
 10
3.368105957648424
 20
8.584400768756665
 30
0.0
 10
3.217543173279196
 20
8.540684391085477
 30
0.0
 10
3.148077398336553
 20
8.429695795362675
 30
0.0
 10
3.075703478337842
 20
8.314283750866394
 30
0.0
 10
3.102596754969582
 20
8.167704358151979
 30
0.0
 10
3.207886139997114
 20
8.102901573778183
 30
0.0
 10
3.279636982179553
 20
8.05866977752467
 30
0.0
 10
3.376931323348529
 20
8.06391681943748
 30
0.0
 10
3.452420632428641
 20
8.114730632104567
 30
0.0
 10
3.452420632428641
 20
8.114730632104567
 30
0.0
 10
3.512541585867523
 20
8.031000008668257
 30
0.0
 10
3.512541585867523
 20
8.031000008668257
 30
0.0
 10
3.444009754779116
 20
7.980700268843264
 30
0.0
 10
3.363017713105548
 20
7.952928223714678
 30
0.0
 10
3.284414360684493
 20
7.952928223714678
 30
0.0
  0
SPLINE
  5
3AA
330
1F
100
AcDbEntity
  8
Livello 1
370
     0
100
AcDbSpline
210
0.0
220
0.0
230
1.0
 70
     8
 71
     3
 72
    23
 73
    19
 74
     0
 42
0.000000001
 43
0.0000000001
 40
0.0
 40
0.0
 40
0.0
 40
0.0
 40
1.0
 40
1.0
 40
1.0
 40
2.0
 40
2.0
 40
2.0
 40
3.0
 40
3.0
 40
3.0
 40
4.0
 40
4.0
 40
4.0
 40
5.0
 40
5.0
 40
5.0
 40
6.0
 40
6.0
 40
6.0
 40
6.0
 10
8.584833721745454
 20
7.957480187264593
 30
0.0
 10
8.584833721745454
 20
7.957480187264593
 30
0.0
 10
8.881389156004246
 20
7.92404930365339
 30
0.0
 10
9.520292879667252
 20
7.45664135665379
 30
0.0
 10
9.520292879667252
 20
7.45664135665379
 30
0.0
 10
11.8773733810582
 20
5.686377695817782
 30
0.0
 10
11.8773733810582
 20
5.686377695817782
 30
0.0
 10
11.8773733810582
 20
5.686377695817782
 30
0.0
 10
11.89554625974291
 20
5.659016101518488
 30
0.0
 10
11.87083308259791
 20
5.616019694974085
 30
0.0
 10
11.87083308259791
 20
5.616019694974085
 30
0.0
 10
11.84040858309384
 20
5.599767187874391
 30
0.0
 10
11.81694156158141
 20
5.616019694974085
 30
0.0
 10
11.81694156158141
 20
5.616019694974085
 30
0.0
 10
9.488829468555834
 20
7.388546891203191
 30
0.0
 10
9.488829468555834
 20
7.388546891203191
 30
0.0
 10
9.488829468555834
 20
7.388546891203191
 30
0.0
 10
8.780668559715962
 20
7.894733694258547
 30
0.0
 10
8.564584365586654
 20
7.881875144507972
 30
0.0
  0
SPLINE
  5
3AB
330
1F
100
AcDbEntity
  8
Livello 1
370
     0
100
AcDbSpline
210
0.0
220
0.0
230
1.0
 70
     9
 71
     3
 72
    41
 73
    37
 74
     0
 42
0.000000001
 43
0.0000000001
 40
0.0
 40
0.0
 40
0.0
 40
0.0
 40
1.0
 40
1.0
 40
1.0
 40
2.0
 40
2.0
 40
2.0
 40
3.0
 40
3.0
 40
3.0
 40
4.0
 40
4.0
 40
4.0
 40
5.0
 40
5.0
 40
5.0
 40
6.0
 40
6.0
 40
6.0
 40
7.0
 40
7.0
 40
7.0
 40
8.0
 40
8.0
 40
8.0
 40
9.0
 40
9.0
 40
9.0
 40
10.0
 40
10.0
 40
10.0
 40
11.0
 40
11.0
 40
11.0
 40
12.0
 40
12.0
 40
12.0
 40
12.0
 10
11.84157937726266
 20
5.557387130444084
 30
0.0
 10
11.82340649857796
 20
5.557387130444084
 30
0.0
 10
11.80440464379212
 20
5.56191285548968
 30
0.0
 10
11.78716840044247
 20
5.573947812100868
 30
0.0
 10
11.78716840044247
 20
5.573947812100868
 30
0.0
 10
9.457188419708529
 20
7.347709052298654
 30
0.0
 10
9.457188419708529
 20
7.347709052298654
 30
0.0
 10
9.190433061397115
 20
7.538416619254064
 30
0.0
 10
8.713825632859567
 20
7.840935029331291
 30
0.0
 10
8.567728015216914
 20
7.830545913258589
 30
0.0
 10
8.567728015216914
 20
7.830545913258589
 30
0.0
 10
8.561393615041509
 20
7.933203030016869
 30
0.0
 10
8.561393615041509
 20
7.933203030016869
 30
0.0
 10
8.568038881254864
 20
7.933614826586676
 30
0.0
 10
8.574787769480849
 20
7.933614826586676
 30
0.0
 10
8.581745247472525
 20
7.933203030016869
 30
0.0
 10
8.581745247472525
 20
7.933203030016869
 30
0.0
 10
8.590675580925704
 20
8.008600828748171
 30
0.0
 10
8.590675580925704
 20
8.008600828748171
 30
0.0
 10
8.603343035536127
 20
8.007058610222372
 30
0.0
 10
8.908517937210163
 20
7.968176132153871
 30
0.0
 10
9.551056505758182
 20
7.497991922659792
 30
0.0
 10
9.551056505758182
 20
7.497991922659792
 30
0.0
 10
11.9208058075
 20
5.714560191775575
 30
0.0
 10
11.9208058075
 20
5.714560191775575
 30
0.0
 10
11.93721038326765
 20
5.689873929439073
 30
0.0
 10
11.94582850494247
 20
5.642556350393476
 30
0.0
 10
11.91602842899506
 20
5.590610770029996
 30
0.0
 10
11.91602842899506
 20
5.590610770029996
 30
0.0
 10
11.90865646295279
 20
5.577753566019794
 30
0.0
 10
11.90865646295279
 20
5.577753566019794
 30
0.0
 10
11.90865646295279
 20
5.577753566019794
 30
0.0
 10
11.89557317455137
 20
5.570758407296153
 30
0.0
 10
11.89557317455137
 20
5.570758407296153
 30
0.0
 10
11.88113876276436
 20
5.563146899458502
 30
0.0
 10
11.86192966395325
 20
5.557387130444084
 30
0.0
 10
11.84157937726266
 20
5.557387130444084
 30
0.0
  0
SPLINE
  5
3AC
330
1F
100
AcDbEntity
  8
Livello 1
370
     0
100
AcDbSpline
210
0.0
220
0.0
230
1.0
 70
     9
 71
     3
 72
    32
 73
    28
 74
     0
 42
0.000000001
 43
0.0000000001
 40
0.0
 40
0.0
 40
0.0
 40
0.0
 40
1.0
 40
1.0
 40
1.0
 40
2.0
 40
2.0
 40
2.0
 40
3.0
 40
3.0
 40
3.0
 40
4.0
 40
4.0
 40
4.0
 40
5.0
 40
5.0
 40
5.0
 40
6.0
 40
6.0
 40
6.0
 40
7.0
 40
7.0
 40
7.0
 40
8.0
 40
8.0
 40
8.0
 40
9.0
 40
9.0
 40
9.0
 40
9.0
 10
8.41842484388448
 20
8.64282743500189
 30
0.0
 10
8.278037202860559
 20
8.556525101615562
 30
0.0
 10
8.24688734926795
 20
8.355120244030359
 30
0.0
 10
8.348646857163529
 20
8.192803762798575
 30
0.0
 10
8.350100256821377
 20
8.190540227405591
 30
0.0
 10
8.351553656479197
 20
8.188276692012465
 30
0.0
 10
8.35321564590275
 20
8.186116778632083
 30
0.0
 10
8.270665236818302
 20
8.324878765223985
 30
0.0
 10
8.305554903049014
 20
8.498613853952662
 30
0.0
 10
8.433480987747373
 20
8.577201057488764
 30
0.0
 10
8.563379927907206
 20
8.657226857537864
 30
0.0
 10
8.73958983327563
 20
8.608572958251272
 30
0.0
 10
8.827227141162538
 20
8.468886447988182
 30
0.0
 10
8.914657205024113
 20
8.329198591984692
 30
0.0
 10
8.880391962350131
 20
8.151247298507769
 30
0.0
 10
8.75049167644984
 20
8.071322428990384
 30
0.0
 10
8.657455257982164
 20
8.014027530441779
 30
0.0
 10
8.540431016458029
 20
8.023080326273458
 30
0.0
 10
8.449367453451813
 20
8.084283255013161
 30
0.0
 10
8.552787605030502
 20
8.008267761427362
 30
0.0
 10
8.684555778639207
 20
7.992427050897276
 30
0.0
 10
8.786731120325768
 20
8.055275820175467
 30
0.0
 10
8.926806549571324
 20
8.14157815356188
 30
0.0
 10
8.958061370917022
 20
8.342879389134367
 30
0.0
 10
8.856301863021457
 20
8.505093594093892
 30
0.0
 10
8.754645977138522
 20
8.667411421066191
 30
0.0
 10
8.558602549402294
 20
8.729127076907388
 30
0.0
 10
8.41842484388448
 20
8.64282743500189
 30
0.0
  0
SPLINE
  5
3AD
330
1F
100
AcDbEntity
  8
Livello 1
370
     0
100
AcDbSpline
210
0.0
220
0.0
230
1.0
 70
     9
 71
     3
 72
    56
 73
    52
 74
     0
 42
0.000000001
 43
0.0000000001
 40
0.0
 40
0.0
 40
0.0
 40
0.0
 40
1.0
 40
1.0
 40
1.0
 40
2.0
 40
2.0
 40
2.0
 40
3.0
 40
3.0
 40
3.0
 40
4.0
 40
4.0
 40
4.0
 40
5.0
 40
5.0
 40
5.0
 40
6.0
 40
6.0
 40
6.0
 40
7.0
 40
7.0
 40
7.0
 40
8.0
 40
8.0
 40
8.0
 40
9.0
 40
9.0
 40
9.0
 40
10.0
 40
10.0
 40
10.0
 40
11.0
 40
11.0
 40
11.0
 40
12.0
 40
12.0
 40
12.0
 40
13.0
 40
13.0
 40
13.0
 40
14.0
 40
14.0
 40
14.0
 40
15.0
 40
15.0
 40
15.0
 40
16.0
 40
16.0
 40
16.0
 40
17.0
 40
17.0
 40
17.0
 40
17.0
 10
8.646587058318559
 20
7.964878398679161
 30
0.0
 10
8.646587058318559
 20
7.964878398679161
 30
0.0
 10
8.646587058318559
 20
7.964878398679161
 30
0.0
 10
8.646587058318559
 20
7.964878398679161
 30
0.0
 10
8.567878738144401
 20
7.964878398679161
 30
0.0
 10
8.486886696470833
 20
7.992754065820264
 30
0.0
 10
8.418458487395085
 20
8.043053805645371
 30
0.0
 10
8.418458487395085
 20
8.043053805645371
 30
0.0
 10
8.478579440833954
 20
8.126886705353882
 30
0.0
 10
8.478579440833954
 20
8.126886705353882
 30
0.0
 10
8.554172371926739
 20
8.075866994401991
 30
0.0
 10
8.651466713095729
 20
8.070723574501784
 30
0.0
 10
8.723113933265523
 20
8.115057647027583
 30
0.0
 10
8.773474231409664
 20
8.14601909696077
 30
0.0
 10
8.80774081982409
 20
8.196524735070767
 30
0.0
 10
8.819369362827231
 20
8.257315867240691
 30
0.0
 10
8.831415085361797
 20
8.319650563676987
 30
0.0
 10
8.818435418973038
 20
8.385174664917883
 30
0.0
 10
8.78302764267913
 20
8.441748246599388
 30
0.0
 10
8.713353277970796
 20
8.553046362619681
 30
0.0
 10
8.563206327392521
 20
8.596350943721176
 30
0.0
 10
8.460823741680684
 20
8.533502174442958
 30
0.0
 10
8.356571922520018
 20
8.469418015455687
 30
0.0
 10
8.328951946059362
 20
8.328187940926369
 30
0.0
 10
8.397898265198335
 20
8.212159547315877
 30
0.0
 10
8.397898265198335
 20
8.212159547315877
 30
0.0
 10
8.311299868918737
 20
8.155790518178861
 30
0.0
 10
8.311299868918737
 20
8.155790518178861
 30
0.0
 10
8.311299868918737
 20
8.155790518178861
 30
0.0
 10
8.304342390927033
 20
8.166077357979389
 30
0.0
 10
8.304342390927033
 20
8.166077357979389
 30
0.0
 10
8.248790226227384
 20
8.254538259005755
 30
0.0
 10
8.226360770581806
 20
8.357093099491862
 30
0.0
 10
8.241418260185113
 20
8.454194999780156
 30
0.0
 10
8.256888892098572
 20
8.554176784575787
 30
0.0
 10
8.31005371328618
 20
8.636673364043275
 30
0.0
 10
8.391045754959719
 20
8.68656130729866
 30
0.0
 10
8.440782975287604
 20
8.717007338649466
 30
0.0
 10
8.498723829239736
 20
8.733261191489674
 30
0.0
 10
8.55874116066596
 20
8.733261191489674
 30
0.0
 10
8.691962733932484
 20
8.733261191489674
 30
0.0
 10
8.822796963686968
 20
8.65621755221997
 30
0.0
 10
8.900361404500756
 20
8.532268130474278
 30
0.0
 10
8.956122158966124
 20
8.443394087137761
 30
0.0
 10
8.978550268871302
 20
8.340942868664285
 30
0.0
 10
8.963597747021054
 20
8.243943244648193
 30
0.0
 10
8.94802349309495
 20
8.14385918358036
 30
0.0
 10
8.895065915932605
 20
8.061362604112872
 30
0.0
 10
8.814073874259094
 20
8.011576937129774
 30
0.0
 10
8.764543897956471
 20
7.981027283766252
 30
0.0
 10
8.706499421991736
 20
7.964878398679161
 30
0.0
 10
8.646587058318559
 20
7.964878398679161
 30
0.0
  0
SPLINE
  5
3AE
330
1F
100
AcDbEntity
  8
Livello 1
370
     0
100
AcDbSpline
210
0.0
220
0.0
230
1.0
 70
    11
 71
     3
 72
    74
 73
    70
 74
     0
 42
0.000000001
 43
0.0000000001
 40
0.0
 40
0.0
 40
0.0
 40
0.0
 40
1.0
 40
1.0
 40
1.0
 40
2.0
 40
2.0
 40
2.0
 40
3.0
 40
3.0
 40
3.0
 40
4.0
 40
4.0
 40
4.0
 40
5.0
 40
5.0
 40
5.0
 40
6.0
 40
6.0
 40
6.0
 40
7.0
 40
7.0
 40
7.0
 40
8.0
 40
8.0
 40
8.0
 40
9.0
 40
9.0
 40
9.0
 40
10.0
 40
10.0
 40
10.0
 40
11.0
 40
11.0
 40
11.0
 40
12.0
 40
12.0
 40
12.0
 40
13.0
 40
13.0
 40
13.0
 40
14.0
 40
14.0
 40
14.0
 40
15.0
 40
15.0
 40
15.0
 40
16.0
 40
16.0
 40
16.0
 40
17.0
 40
17.0
 40
17.0
 40
18.0
 40
18.0
 40
18.0
 40
19.0
 40
19.0
 40
19.0
 40
20.0
 40
20.0
 40
20.0
 40
21.0
 40
21.0
 40
21.0
 40
22.0
 40
22.0
 40
22.0
 40
23.0
 40
23.0
 40
23.0
 40
23.0
 10
8.371474651974551
 20
5.761301793919784
 30
0.0
 10
8.371474651974551
 20
5.761301793919784
 30
0.0
 10
3.591167815875806
 20
5.761301793919784
 30
0.0
 10
3.591167815875806
 20
5.761301793919784
 30
0.0
 10
3.377680900764659
 20
5.791131476156579
 30
0.0
 10
3.373942433867
 20
5.960134941554883
 30
0.0
 10
3.373942433867
 20
5.961677160080654
 30
0.0
 10
3.373942433867
 20
5.961677160080654
 30
0.0
 10
3.373942433867
 20
8.210663753400666
 30
0.0
 10
3.373942433867
 20
8.210663753400666
 30
0.0
 10
3.341130590850838
 20
8.208401563748083
 30
0.0
 10
3.275298315052808
 20
8.198012447675296
 30
0.0
 10
3.258372937741114
 20
8.152134810883268
 30
0.0
 10
3.258372937741114
 20
8.152134810883268
 30
0.0
 10
3.224209971339305
 20
8.059558635640598
 30
0.0
 10
3.224209971339305
 20
8.059558635640598
 30
0.0
 10
3.224209971339305
 20
8.059558635640598
 30
0.0
 10
3.224209971339305
 20
8.340580188186066
 30
0.0
 10
3.224209971339305
 20
8.340580188186066
 30
0.0
 10
3.224209971339305
 20
8.340580188186066
 30
0.0
 10
3.228778760078554
 20
8.34633995720037
 30
0.0
 10
3.228778760078554
 20
8.34633995720037
 30
0.0
 10
3.232309982950937
 20
8.350969304258796
 30
0.0
 10
3.317040491522135
 20
8.457226276651084
 30
0.0
 10
3.541741461585871
 20
8.485821914919085
 30
0.0
 10
3.557317061252376
 20
8.487775930014578
 30
0.0
 10
3.573307148969462
 20
8.48972994511007
 30
0.0
 10
3.590025282255908
 20
8.490655814521772
 30
0.0
 10
3.590025282255908
 20
8.490655814521772
 30
0.0
 10
3.60892351502909
 20
8.491993480503168
 30
0.0
 10
3.60892351502909
 20
8.491993480503168
 30
0.0
 10
3.60892351502909
 20
8.491993480503168
 30
0.0
 10
3.60892351502909
 20
5.933595594654576
 30
0.0
 10
3.60892351502909
 20
5.933595594654576
 30
0.0
 10
3.60892351502909
 20
5.933595594654576
 30
0.0
 10
8.352471451448309
 20
5.933595594654576
 30
0.0
 10
8.352471451448309
 20
5.933595594654576
 30
0.0
 10
8.352471451448309
 20
5.933595594654576
 30
0.0
 10
8.352471451448309
 20
8.491993480503168
 30
0.0
 10
8.352471451448309
 20
8.491993480503168
 30
0.0
 10
8.352471451448309
 20
8.491993480503168
 30
0.0
 10
8.371369684221505
 20
8.490655814521772
 30
0.0
 10
8.371369684221505
 20
8.490655814521772
 30
0.0
 10
8.388191439520596
 20
8.48972994511007
 30
0.0
 10
8.404286494990742
 20
8.487775930014578
 30
0.0
 10
8.419758472644602
 20
8.485821914919085
 30
0.0
 10
8.644563064720955
 20
8.457226276651084
 30
0.0
 10
8.729293573292181
 20
8.350969304258796
 30
0.0
 10
8.732719828411489
 20
8.34633995720037
 30
0.0
 10
8.732719828411489
 20
8.34633995720037
 30
0.0
 10
8.737288617150738
 20
8.340580188186066
 30
0.0
 10
8.737288617150738
 20
8.340580188186066
 30
0.0
 10
8.737288617150738
 20
8.340580188186066
 30
0.0
 10
8.737288617150738
 20
8.059558635640598
 30
0.0
 10
8.737288617150738
 20
8.059558635640598
 30
0.0
 10
8.737288617150738
 20
8.059558635640598
 30
0.0
 10
8.703230618502018
 20
8.152134810883268
 30
0.0
 10
8.703230618502018
 20
8.152134810883268
 30
0.0
 10
8.685889407399315
 20
8.198628796789478
 30
0.0
 10
8.618603731943437
 20
8.208813360317776
 30
0.0
 10
8.587661122376118
 20
8.210663753400666
 30
0.0
 10
8.587661122376118
 20
8.210663753400666
 30
0.0
 10
8.587661122376118
 20
5.961883058365486
 30
0.0
 10
8.587661122376118
 20
5.961883058365486
 30
0.0
 10
8.587661122376118
 20
5.960134941554883
 30
0.0
 10
8.583715411453184
 20
5.791131476156579
 30
0.0
 10
8.372512217841403
 20
5.761506346464273
 30
0.0
 10
8.372512217841403
 20
5.761506346464273
 30
0.0
 10
8.371474651974551
 20
5.761301793919784
 30
0.0
 10
8.371474651974551
 20
5.761301793919784
 30
0.0
  0
SPLINE
  5
3AF
330
1F
100
AcDbEntity
  8
Livello 1
370
     0
100
AcDbSpline
210
0.0
220
0.0
230
1.0
 70
    11
 71
     3
 72
    77
 73
    73
 74
     0
 42
0.000000001
 43
0.0000000001
 40
0.0
 40
0.0
 40
0.0
 40
0.0
 40
1.0
 40
1.0
 40
1.0
 40
2.0
 40
2.0
 40
2.0
 40
3.0
 40
3.0
 40
3.0
 40
4.0
 40
4.0
 40
4.0
 40
5.0
 40
5.0
 40
5.0
 40
6.0
 40
6.0
 40
6.0
 40
7.0
 40
7.0
 40
7.0
 40
8.0
 40
8.0
 40
8.0
 40
9.0
 40
9.0
 40
9.0
 40
10.0
 40
10.0
 40
10.0
 40
11.0
 40
11.0
 40
11.0
 40
12.0
 40
12.0
 40
12.0
 40
13.0
 40
13.0
 40
13.0
 40
14.0
 40
14.0
 40
14.0
 40
15.0
 40
15.0
 40
15.0
 40
16.0
 40
16.0
 40
16.0
 40
17.0
 40
17.0
 40
17.0
 40
18.0
 40
18.0
 40
18.0
 40
19.0
 40
19.0
 40
19.0
 40
20.0
 40
20.0
 40
20.0
 40
21.0
 40
21.0
 40
21.0
 40
22.0
 40
22.0
 40
22.0
 40
23.0
 40
23.0
 40
23.0
 40
24.0
 40
24.0
 40
24.0
 40
24.0
 10
8.371492146600076
 20
5.70982856844509
 30
0.0
 10
8.371492146600076
 20
5.70982856844509
 30
0.0
 10
3.591185310501316
 20
5.70982856844509
 30
0.0
 10
3.591185310501316
 20
5.70982856844509
 30
0.0
 10
3.369078927974911
 20
5.740379567549069
 30
0.0
 10
3.32204126293746
 20
5.901976077654069
 30
0.0
 10
3.32204126293746
 20
5.961739064140175
 30
0.0
 10
3.32204126293746
 20
5.961739064140175
 30
0.0
 10
3.32204126293746
 20
8.146848742498065
 30
0.0
 10
3.32204126293746
 20
8.146848742498065
 30
0.0
 10
3.313735353040982
 20
8.142939366566594
 30
0.0
 10
3.308647108498121
 20
8.138517263533572
 30
0.0
 10
3.307088741087198
 20
8.134505611329871
 30
0.0
 10
3.307088741087198
 20
8.134505611329871
 30
0.0
 10
3.172310146150195
 20
7.769034809961766
 30
0.0
 10
3.172310146150195
 20
7.769034809961766
 30
0.0
 10
3.172310146150195
 20
7.769034809961766
 30
0.0
 10
3.172310146150195
 20
8.35843681787108
 30
0.0
 10
3.172310146150195
 20
8.35843681787108
 30
0.0
 10
3.172310146150195
 20
8.35843681787108
 30
0.0
 10
3.183420579090139
 20
8.372425789577761
 30
0.0
 10
3.183420579090139
 20
8.372425789577761
 30
0.0
 10
3.19743781134575
 20
8.390530035500887
 30
0.0
 10
3.29244843101533
 20
8.505942079997169
 30
0.0
 10
3.535217312010672
 20
8.536903529930469
 30
0.0
 10
3.553076633176587
 20
8.539063443310766
 30
0.0
 10
3.569794766463019
 20
8.541121080419003
 30
0.0
 10
3.587239599578367
 20
8.542046949830677
 30
0.0
 10
3.587239599578367
 20
8.542046949830677
 30
0.0
 10
3.660859675209664
 20
8.547086747718282
 30
0.0
 10
3.660859675209664
 20
8.547086747718282
 30
0.0
 10
3.660859675209664
 20
8.547086747718282
 30
0.0
 10
3.660859675209664
 20
5.98498672996348
 30
0.0
 10
3.660859675209664
 20
5.98498672996348
 30
0.0
 10
3.660859675209664
 20
5.98498672996348
 30
0.0
 10
8.300571626259198
 20
5.98498672996348
 30
0.0
 10
8.300571626259198
 20
5.98498672996348
 30
0.0
 10
8.300571626259198
 20
5.98498672996348
 30
0.0
 10
8.300571626259198
 20
8.547086747718282
 30
0.0
 10
8.300571626259198
 20
8.547086747718282
 30
0.0
 10
8.300571626259198
 20
8.547086747718282
 30
0.0
 10
8.375022023732043
 20
8.542046949830677
 30
0.0
 10
8.375022023732043
 20
8.542046949830677
 30
0.0
 10
8.392051023056396
 20
8.541121080419003
 30
0.0
 10
8.40928861214644
 20
8.538961167038564
 30
0.0
 10
8.425694533654521
 20
8.537005806202671
 30
0.0
 10
8.679261635811471
 20
8.504604414015773
 30
0.0
 10
8.771156866399678
 20
8.381580861681783
 30
0.0
 10
8.774895333297322
 20
8.376232889237087
 30
0.0
 10
8.774895333297322
 20
8.376232889237087
 30
0.0
 10
8.784552366579404
 20
8.362860266644588
 30
0.0
 10
8.784552366579404
 20
8.362860266644588
 30
0.0
 10
8.784552366579404
 20
8.362860266644588
 30
0.0
 10
8.789224777331298
 20
8.340642092245587
 30
0.0
 10
8.789224777331298
 20
8.340642092245587
 30
0.0
 10
8.789224777331298
 20
8.340642092245587
 30
0.0
 10
8.789224777331298
 20
7.768211216822379
 30
0.0
 10
8.789224777331298
 20
7.768211216822379
 30
0.0
 10
8.789224777331298
 20
7.768211216822379
 30
0.0
 10
8.654444836653851
 20
8.134607887602072
 30
0.0
 10
8.654444836653851
 20
8.134607887602072
 30
0.0
 10
8.652991436996003
 20
8.138619539805773
 30
0.0
 10
8.647799570440511
 20
8.143042988579281
 30
0.0
 10
8.639595936816263
 20
8.146951018770266
 30
0.0
 10
8.639595936816263
 20
8.146951018770266
 30
0.0
 10
8.639595936816263
 20
5.961944962425093
 30
0.0
 10
8.639595936816263
 20
5.961944962425093
 30
0.0
 10
8.639595936816263
 20
5.902181975938873
 30
0.0
 10
8.592974105569766
 20
5.740481843821271
 30
0.0
 10
8.379798056496554
 20
5.710548539571874
 30
0.0
 10
8.379798056496554
 20
5.710548539571874
 30
0.0
 10
8.371492146600076
 20
5.70982856844509
 30
0.0
 10
8.371492146600076
 20
5.70982856844509
 30
0.0
  0
SPLINE
  5
3B0
330
1F
100
AcDbEntity
  8
Livello 1
370
     0
100
AcDbSpline
210
0.0
220
0.0
230
1.0
 70
    11
 71
     3
 72
    59
 73
    55
 74
     0
 42
0.000000001
 43
0.0000000001
 40
0.0
 40
0.0
 40
0.0
 40
0.0
 40
1.0
 40
1.0
 40
1.0
 40
2.0
 40
2.0
 40
2.0
 40
3.0
 40
3.0
 40
3.0
 40
4.0
 40
4.0
 40
4.0
 40
5.0
 40
5.0
 40
5.0
 40
6.0
 40
6.0
 40
6.0
 40
7.0
 40
7.0
 40
7.0
 40
8.0
 40
8.0
 40
8.0
 40
9.0
 40
9.0
 40
9.0
 40
10.0
 40
10.0
 40
10.0
 40
11.0
 40
11.0
 40
11.0
 40
12.0
 40
12.0
 40
12.0
 40
13.0
 40
13.0
 40
13.0
 40
14.0
 40
14.0
 40
14.0
 40
15.0
 40
15.0
 40
15.0
 40
16.0
 40
16.0
 40
16.0
 40
17.0
 40
17.0
 40
17.0
 40
18.0
 40
18.0
 40
18.0
 40
18.0
 10
3.42587859404756
 20
8.26596426464107
 30
0.0
 10
3.42587859404756
 20
8.26596426464107
 30
0.0
 10
3.42587859404756
 20
5.961739064140175
 30
0.0
 10
3.42587859404756
 20
5.961739064140175
 30
0.0
 10
3.426396704110786
 20
5.949910005813876
 30
0.0
 10
3.435534281589227
 20
5.835013379899862
 30
0.0
 10
3.598453654530956
 20
5.812279786918594
 30
0.0
 10
3.598453654530956
 20
5.812279786918594
 30
0.0
 10
8.367753679702403
 20
5.812691583488287
 30
0.0
 10
8.367753679702403
 20
5.812691583488287
 30
0.0
 10
8.526415129942847
 20
5.83758508985008
 30
0.0
 10
8.535241841383367
 20
5.950219526111368
 30
0.0
 10
8.535759951446564
 20
5.963076730121571
 30
0.0
 10
8.535759951446564
 20
5.963076730121571
 30
0.0
 10
8.535759951446564
 20
8.265448846058689
 30
0.0
 10
8.535759951446564
 20
8.265448846058689
 30
0.0
 10
8.535759951446564
 20
8.265448846058689
 30
0.0
 10
8.590897628095646
 20
8.262054888709599
 30
0.0
 10
8.590897628095646
 20
8.262054888709599
 30
0.0
 10
8.627551560022112
 20
8.259791353316472
 30
0.0
 10
8.659429459184096
 20
8.251871670921673
 30
0.0
 10
8.685388791961599
 20
8.239116743183672
 30
0.0
 10
8.685388791961599
 20
8.239116743183672
 30
0.0
 10
8.685388791961599
 20
8.320995627796662
 30
0.0
 10
8.685388791961599
 20
8.320995627796662
 30
0.0
 10
8.657352981709962
 20
8.349179469494885
 30
0.0
 10
8.576671806074344
 20
8.413982253868596
 30
0.0
 10
8.413129355316343
 20
8.434864108026687
 30
0.0
 10
8.410222556000661
 20
8.43527590459638
 30
0.0
 10
8.407419378697625
 20
8.435480457140869
 30
0.0
 10
8.404407611628883
 20
8.435892253710591
 30
0.0
 10
8.404407611628883
 20
8.435892253710591
 30
0.0
 10
8.404407611628883
 20
5.882123714920282
 30
0.0
 10
8.404407611628883
 20
5.882123714920282
 30
0.0
 10
8.404407611628883
 20
5.882123714920282
 30
0.0
 10
3.557023689839965
 20
5.882123714920282
 30
0.0
 10
3.557023689839965
 20
5.882123714920282
 30
0.0
 10
3.557023689839965
 20
5.882123714920282
 30
0.0
 10
3.557023689839965
 20
8.435892253710591
 30
0.0
 10
3.557023689839965
 20
8.435892253710591
 30
0.0
 10
3.554531378574836
 20
8.435584079153471
 30
0.0
 10
3.552039067309749
 20
8.43527590459638
 30
0.0
 10
3.549546756044648
 20
8.435070006311576
 30
0.0
 10
3.378839583269666
 20
8.413262282741868
 30
0.0
 10
3.297951163608772
 20
8.343727875037586
 30
0.0
 10
3.276146131519894
 20
8.321715598923475
 30
0.0
 10
3.276146131519894
 20
8.321715598923475
 30
0.0
 10
3.276146131519894
 20
8.239116743183672
 30
0.0
 10
3.276146131519894
 20
8.239116743183672
 30
0.0
 10
3.301793252519061
 20
8.251563496364582
 30
0.0
 10
3.333360285643095
 20
8.259483178759381
 30
0.0
 10
3.370325083607482
 20
8.262054888709599
 30
0.0
 10
3.370325083607482
 20
8.262054888709599
 30
0.0
 10
3.42587859404756
 20
8.26596426464107
 30
0.0
 10
3.42587859404756
 20
8.26596426464107
 30
0.0
  0
POLYLINE
  5
3B1
330
1F
100
AcDbEntity
  8
Livello 1
370
     0
100
AcDb2dPolyline
 66
     1
 10
0.0
 20
0.0
 30
0.0
  0
VERTEX
  5
3B2
330
3B1
100
AcDbEntity
  8
Livello 1
370
     0
100
AcDbVertex
100
AcDb2dVertex
 10
11.47301875588124
 20
5.74087076280378
 30
0.0
  0
VERTEX
  5
3B3
330
3B1
100
AcDbEntity
  8
Livello 1
370
     0
100
AcDbVertex
100
AcDb2dVertex
 10
0.446850698335382
 20
5.74087076280378
 30
0.0
  0
VERTEX
  5
3B4
330
3B1
100
AcDbEntity
  8
Livello 1
370
     0
100
AcDbVertex
100
AcDb2dVertex
 10
0.446850698335382
 20
5.768232357103073
 30
0.0
  0
VERTEX
  5
3B5
330
3B1
100
AcDbEntity
  8
Livello 1
370
     0
100
AcDbVertex
100
AcDb2dVertex
 10
11.47301875588124
 20
5.768232357103073
 30
0.0
  0
VERTEX
  5
3B6
330
3B1
100
AcDbEntity
  8
Livello 1
370
     0
100
AcDbVertex
100
AcDb2dVertex
 10
11.47301875588124
 20
5.74087076280378
 30
0.0
  0
SEQEND
  5
3B7
330
3B1
100
AcDbEntity
  8
Livello 1
370
     0
  0
POLYLINE
  5
3B8
330
1F
100
AcDbEntity
  8
Livello 1
370
     0
100
AcDb2dPolyline
 66
     1
 10
0.0
 20
0.0
 30
0.0
  0
VERTEX
  5
3B9
330
3B8
100
AcDbEntity
  8
Livello 1
370
     0
100
AcDbVertex
100
AcDb2dVertex
 10
11.5249320384746
 20
5.689439255282167
 30
0.0
  0
VERTEX
  5
3BA
330
3B8
100
AcDbEntity
  8
Livello 1
370
     0
100
AcDbVertex
100
AcDb2dVertex
 10
0.3949374157420351
 20
5.689439255282167
 30
0.0
  0
VERTEX
  5
3BB
330
3B8
100
AcDbEntity
  8
Livello 1
370
     0
100
AcDbVertex
100
AcDb2dVertex
 10
0.3949374157420351
 20
5.819661173143799
 30
0.0
  0
VERTEX
  5
3BC
330
3B8
100
AcDbEntity
  8
Livello 1
370
     0
100
AcDbVertex
100
AcDb2dVertex
 10
11.5249320384746
 20
5.819661173143799
 30
0.0
  0
VERTEX
  5
3BD
330
3B8
100
AcDbEntity
  8
Livello 1
370
     0
100
AcDbVertex
100
AcDb2dVertex
 10
11.5249320384746
 20
5.689439255282167
 30
0.0
  0
SEQEND
  5
3BE
330
3B8
100
AcDbEntity
  8
Livello 1
370
     0
  0
SPLINE
  5
3BF
330
1F
100
AcDbEntity
  8
Livello 1
370
     0
100
AcDbSpline
210
0.0
220
0.0
230
1.0
 70
     9
 71
     3
 72
    17
 73
    13
 74
     0
 42
0.000000001
 43
0.0000000001
 40
0.0
 40
0.0
 40
0.0
 40
0.0
 40
1.0
 40
1.0
 40
1.0
 40
2.0
 40
2.0
 40
2.0
 40
3.0
 40
3.0
 40
3.0
 40
4.0
 40
4.0
 40
4.0
 40
4.0
 10
6.059503650102783
 20
17.72871434945327
 30
0.0
 10
4.447550201256504
 20
17.72871434945327
 30
0.0
 10
3.136099243332409
 20
19.02776565511129
 30
0.0
 10
3.136099243332409
 20
20.62460240177559
 30
0.0
 10
3.136099243332409
 20
22.22133687216778
 30
0.0
 10
4.447550201256504
 20
23.52038817782579
 30
0.0
 10
6.059503650102783
 20
23.52038817782579
 30
0.0
 10
7.671352131195988
 20
23.52038817782579
 30
0.0
 10
8.982803089120082
 20
22.22133687216778
 30
0.0
 10
8.982803089120082
 20
20.62460240177559
 30
0.0
 10
8.982803089120082
 20
19.02776565511129
 30
0.0
 10
7.671352131195988
 20
17.72871434945327
 30
0.0
 10
6.059503650102783
 20
17.72871434945327
 30
0.0
  0
SPLINE
  5
3C0
330
1F
100
AcDbEntity
  8
Livello 1
370
     0
100
AcDbSpline
210
0.0
220
0.0
230
1.0
 70
     9
 71
     3
 72
    17
 73
    13
 74
     0
 42
0.000000001
 43
0.0000000001
 40
0.0
 40
0.0
 40
0.0
 40
0.0
 40
1.0
 40
1.0
 40
1.0
 40
2.0
 40
2.0
 40
2.0
 40
3.0
 40
3.0
 40
3.0
 40
4.0
 40
4.0
 40
4.0
 40
4.0
 10
6.059503650102783
 20
23.4175278542635
 30
0.0
 10
4.50476435537972
 20
23.4175278542635
 30
0.0
 10
3.239935228702108
 20
22.16455739220148
 30
0.0
 10
3.239935228702108
 20
20.62460240177559
 30
0.0
 10
3.239935228702108
 20
19.08454513507759
 30
0.0
 10
4.50476435537972
 20
17.83157467301558
 30
0.0
 10
6.059503650102783
 20
17.83157467301558
 30
0.0
 10
7.614241599085445
 20
17.83157467301558
 30
0.0
 10
8.878967103750397
 20
19.08454513507759
 30
0.0
 10
8.878967103750397
 20
20.62460240177559
 30
0.0
 10
8.878967103750397
 20
22.16455739220148
 30
0.0
 10
7.614241599085445
 20
23.4175278542635
 30
0.0
 10
6.059503650102783
 20
23.4175278542635
 30
0.0
  0
SPLINE
  5
3C1
330
1F
100
AcDbEntity
  8
Livello 1
370
     0
100
AcDbSpline
210
0.0
220
0.0
230
1.0
 70
     9
 71
     3
 72
    17
 73
    13
 74
     0
 42
0.000000001
 43
0.0000000001
 40
0.0
 40
0.0
 40
0.0
 40
0.0
 40
1.0
 40
1.0
 40
1.0
 40
2.0
 40
2.0
 40
2.0
 40
3.0
 40
3.0
 40
3.0
 40
4.0
 40
4.0
 40
4.0
 40
4.0
 10
6.059503650102783
 20
18.92875953212308
 30
0.0
 10
5.115632268791046
 20
18.92875953212308
 30
0.0
 10
4.347763548822399
 20
19.68953081709598
 30
0.0
 10
4.347763548822399
 20
20.62455126363949
 30
0.0
 10
4.347763548822399
 20
21.55957171018308
 30
0.0
 10
5.115632268791046
 20
22.32034299515598
 30
0.0
 10
6.059503650102783
 20
22.32034299515598
 30
0.0
 10
7.003373685674091
 20
22.32034299515598
 30
0.0
 10
7.771138783630078
 20
21.55957171018308
 30
0.0
 10
7.771138783630078
 20
20.62455126363949
 30
0.0
 10
7.771138783630078
 20
19.68953081709598
 30
0.0
 10
7.003373685674091
 20
18.92875953212308
 30
0.0
 10
6.059503650102783
 20
18.92875953212308
 30
0.0
  0
SPLINE
  5
3C2
330
1F
100
AcDbEntity
  8
Livello 1
370
     0
100
AcDbSpline
210
0.0
220
0.0
230
1.0
 70
     9
 71
     3
 72
    17
 73
    13
 74
     0
 42
0.000000001
 43
0.0000000001
 40
0.0
 40
0.0
 40
0.0
 40
0.0
 40
1.0
 40
1.0
 40
1.0
 40
2.0
 40
2.0
 40
2.0
 40
3.0
 40
3.0
 40
3.0
 40
4.0
 40
4.0
 40
4.0
 40
4.0
 10
6.059503650102783
 20
22.21748267159359
 30
0.0
 10
5.172846422914233
 20
22.21748267159359
 30
0.0
 10
4.451599534192084
 20
21.50289450648909
 30
0.0
 10
4.451599534192084
 20
20.62455126363949
 30
0.0
 10
4.451599534192084
 20
19.74620802078998
 30
0.0
 10
5.172846422914233
 20
19.03162254716629
 30
0.0
 10
6.059503650102783
 20
19.03162254716629
 30
0.0
 10
6.946055909538245
 20
19.03162254716629
 30
0.0
 10
7.667302798260408
 20
19.74620802078998
 30
0.0
 10
7.667302798260408
 20
20.62455126363949
 30
0.0
 10
7.667302798260408
 20
21.50289450648909
 30
0.0
 10
6.946055909538245
 20
22.21748267159359
 30
0.0
 10
6.059503650102783
 20
22.21748267159359
 30
0.0
  0
POLYLINE
  5
3C3
330
1F
100
AcDbEntity
  8
Livello 1
370
     0
100
AcDb2dPolyline
 66
     1
 10
0.0
 20
0.0
 30
0.0
  0
VERTEX
  5
3C4
330
3C3
100
AcDbEntity
  8
Livello 1
370
     0
100
AcDbVertex
100
AcDb2dVertex
 10
6.67142931548733
 20
15.11961434739288
 30
0.0
  0
VERTEX
  5
3C5
330
3C3
100
AcDbEntity
  8
Livello 1
370
     0
100
AcDbVertex
100
AcDb2dVertex
 10
5.99960878105513
 20
15.32544265375148
 30
0.0
  0
VERTEX
  5
3C6
330
3C3
100
AcDbEntity
  8
Livello 1
370
     0
100
AcDbVertex
100
AcDb2dVertex
 10
5.864102140548766
 20
15.3504384363855
 30
0.0
  0
VERTEX
  5
3C7
330
3C3
100
AcDbEntity
  8
Livello 1
370
     0
100
AcDbVertex
100
AcDb2dVertex
 10
5.173799207134365
 20
15.1640533876718
 30
0.0
  0
VERTEX
  5
3C8
330
3C3
100
AcDbEntity
  8
Livello 1
370
     0
100
AcDbVertex
100
AcDb2dVertex
 10
4.519423505817528
 20
15.55019745343219
 30
0.0
  0
VERTEX
  5
3C9
330
3C3
100
AcDbEntity
  8
Livello 1
370
     0
100
AcDbVertex
100
AcDb2dVertex
 10
3.748751608545859
 20
15.55019745343219
 30
0.0
  0
VERTEX
  5
3CA
330
3C3
100
AcDbEntity
  8
Livello 1
370
     0
100
AcDbVertex
100
AcDb2dVertex
 10
3.33288821126348
 20
16.1273586064454
 30
0.0
  0
VERTEX
  5
3CB
330
3C3
100
AcDbEntity
  8
Livello 1
370
     0
100
AcDbVertex
100
AcDb2dVertex
 10
2.552247068931393
 20
16.23783312932627
 30
0.0
  0
VERTEX
  5
3CC
330
3C3
100
AcDbEntity
  8
Livello 1
370
     0
100
AcDbVertex
100
AcDb2dVertex
 10
2.260364045424424
 20
17.00940532694159
 30
0.0
  0
VERTEX
  5
3CD
330
3C3
100
AcDbEntity
  8
Livello 1
370
     0
100
AcDbVertex
100
AcDb2dVertex
 10
1.463940059400542
 20
17.31387909785479
 30
0.0
  0
VERTEX
  5
3CE
330
3C3
100
AcDbEntity
  8
Livello 1
370
     0
100
AcDbVertex
100
AcDb2dVertex
 10
1.449921481404516
 20
18.09985340948688
 30
0.0
  0
VERTEX
  5
3CF
330
3C3
100
AcDbEntity
  8
Livello 1
370
     0
100
AcDbVertex
100
AcDb2dVertex
 10
0.8259702795920986
 20
18.5118168510208
 30
0.0
  0
VERTEX
  5
3D0
330
3C3
100
AcDbEntity
  8
Livello 1
370
     0
100
AcDbVertex
100
AcDb2dVertex
 10
0.9235768325394246
 20
19.39499399347299
 30
0.0
  0
VERTEX
  5
3D1
330
3C3
100
AcDbEntity
  8
Livello 1
370
     0
100
AcDbVertex
100
AcDb2dVertex
 10
0.449563991539236
 20
19.96125195757158
 30
0.0
  0
VERTEX
  5
3D2
330
3C3
100
AcDbEntity
  8
Livello 1
370
     0
100
AcDbVertex
100
AcDb2dVertex
 10
0.7437320822860017
 20
20.71070825706009
 30
0.0
  0
VERTEX
  5
3D3
330
3C3
100
AcDbEntity
  8
Livello 1
370
     0
100
AcDbVertex
100
AcDb2dVertex
 10
0.5202772678548229
 20
21.4993552091742
 30
0.0
  0
VERTEX
  5
3D4
330
3C3
100
AcDbEntity
  8
Livello 1
370
     0
100
AcDbVertex
100
AcDb2dVertex
 10
0.9947045969056063
 20
22.03815199418209
 30
0.0
  0
VERTEX
  5
3D5
330
3C3
100
AcDbEntity
  8
Livello 1
370
     0
100
AcDbVertex
100
AcDb2dVertex
 10
0.9947045969056063
 20
22.84942622578409
 30
0.0
  0
VERTEX
  5
3D6
330
3C3
100
AcDbEntity
  8
Livello 1
370
     0
100
AcDbVertex
100
AcDb2dVertex
 10
1.524787712668342
 20
23.2641699670337
 30
0.0
  0
VERTEX
  5
3D7
330
3C3
100
AcDbEntity
  8
Livello 1
370
     0
100
AcDbVertex
100
AcDb2dVertex
 10
1.747204961232668
 20
24.06258968610628
 30
0.0
  0
VERTEX
  5
3D8
330
3C3
100
AcDbEntity
  8
Livello 1
370
     0
100
AcDbVertex
100
AcDb2dVertex
 10
2.426916917510752
 20
24.37858299504829
 30
0.0
  0
VERTEX
  5
3D9
330
3C3
100
AcDbEntity
  8
Livello 1
370
     0
100
AcDbVertex
100
AcDb2dVertex
 10
2.804983849246752
 20
25.19705962939909
 30
0.0
  0
VERTEX
  5
3DA
330
3C3
100
AcDbEntity
  8
Livello 1
370
     0
100
AcDbVertex
100
AcDb2dVertex
 10
3.586455313420415
 20
25.19705962939909
 30
0.0
  0
VERTEX
  5
3DB
330
3C3
100
AcDbEntity
  8
Livello 1
370
     0
100
AcDbVertex
100
AcDb2dVertex
 10
4.126091840452943
 20
25.81392550787979
 30
0.0
  0
VERTEX
  5
3DC
330
3C3
100
AcDbEntity
  8
Livello 1
370
     0
100
AcDbVertex
100
AcDb2dVertex
 10
4.946190092014546
 20
25.73132665214008
 30
0.0
  0
VERTEX
  5
3DD
330
3C3
100
AcDbEntity
  8
Livello 1
370
     0
100
AcDbVertex
100
AcDb2dVertex
 10
5.491330697380931
 20
26.13290366908208
 30
0.0
  0
VERTEX
  5
3DE
330
3C3
100
AcDbEntity
  8
Livello 1
370
     0
100
AcDbVertex
100
AcDb2dVertex
 10
6.22347942927729
 20
25.82606408650369
 30
0.0
  0
VERTEX
  5
3DF
330
3C3
100
AcDbEntity
  8
Livello 1
370
     0
100
AcDbVertex
100
AcDb2dVertex
 10
6.961235861520123
 20
26.08887911685379
 30
0.0
  0
VERTEX
  5
3E0
330
3C3
100
AcDbEntity
  8
Livello 1
370
     0
100
AcDbVertex
100
AcDb2dVertex
 10
7.483427555437302
 20
25.6582960108145
 30
0.0
  0
VERTEX
  5
3E1
330
3C3
100
AcDbEntity
  8
Livello 1
370
     0
100
AcDbVertex
100
AcDb2dVertex
 10
8.306537574067675
 20
25.6962512737309
 30
0.0
  0
VERTEX
  5
3E2
330
3C3
100
AcDbEntity
  8
Livello 1
370
     0
100
AcDbVertex
100
AcDb2dVertex
 10
8.811388056882108
 20
25.05099565526699
 30
0.0
  0
VERTEX
  5
3E3
330
3C3
100
AcDbEntity
  8
Livello 1
370
     0
100
AcDbVertex
100
AcDb2dVertex
 10
9.591509743410583
 20
25.00851332156448
 30
0.0
  0
VERTEX
  5
3E4
330
3C3
100
AcDbEntity
  8
Livello 1
370
     0
100
AcDbVertex
100
AcDb2dVertex
 10
9.923888787754307
 20
24.17069839732199
 30
0.0
  0
VERTEX
  5
3E5
330
3C3
100
AcDbEntity
  8
Livello 1
370
     0
100
AcDbVertex
100
AcDb2dVertex
 10
10.5851183450502
 20
23.81818707623629
 30
0.0
  0
VERTEX
  5
3E6
330
3C3
100
AcDbEntity
  8
Livello 1
370
     0
100
AcDbVertex
100
AcDb2dVertex
 10
10.76309251611438
 20
23.00886416824909
 30
0.0
  0
VERTEX
  5
3E7
330
3C3
100
AcDbEntity
  8
Livello 1
370
     0
100
AcDbVertex
100
AcDb2dVertex
 10
11.26929546805489
 20
22.56614517506687
 30
0.0
  0
VERTEX
  5
3E8
330
3C3
100
AcDbEntity
  8
Livello 1
370
     0
100
AcDbVertex
100
AcDb2dVertex
 10
11.22433428049152
 20
21.75610095021239
 30
0.0
  0
VERTEX
  5
3E9
330
3C3
100
AcDbEntity
  8
Livello 1
370
     0
100
AcDbVertex
100
AcDb2dVertex
 10
11.6681298660129
 20
21.19220879777899
 30
0.0
  0
VERTEX
  5
3EA
330
3C3
100
AcDbEntity
  8
Livello 1
370
     0
100
AcDbVertex
100
AcDb2dVertex
 10
11.40147678397373
 20
20.4170380902702
 30
0.0
  0
VERTEX
  5
3EB
330
3C3
100
AcDbEntity
  8
Livello 1
370
     0
100
AcDbVertex
100
AcDb2dVertex
 10
11.65359317795364
 20
19.65266560392288
 30
0.0
  0
VERTEX
  5
3EC
330
3C3
100
AcDbEntity
  8
Livello 1
370
     0
100
AcDbVertex
100
AcDb2dVertex
 10
11.14894859342403
 20
19.11294564098408
 30
0.0
  0
VERTEX
  5
3ED
330
3C3
100
AcDbEntity
  8
Livello 1
370
     0
100
AcDbVertex
100
AcDb2dVertex
 10
11.19723106835366
 20
18.22575550058769
 30
0.0
  0
VERTEX
  5
3EE
330
3C3
100
AcDbEntity
  8
Livello 1
370
     0
100
AcDbVertex
100
AcDb2dVertex
 10
10.55168207847734
 20
17.84825108834889
 30
0.0
  0
VERTEX
  5
3EF
330
3C3
100
AcDbEntity
  8
Livello 1
370
     0
100
AcDbVertex
100
AcDb2dVertex
 10
10.49415705831622
 20
17.06433575956538
 30
0.0
  0
VERTEX
  5
3F0
330
3C3
100
AcDbEntity
  8
Livello 1
370
     0
100
AcDbVertex
100
AcDb2dVertex
 10
9.682053850613158
 20
16.80357702058299
 30
0.0
  0
VERTEX
  5
3F1
330
3C3
100
AcDbEntity
  8
Livello 1
370
     0
100
AcDbVertex
100
AcDb2dVertex
 10
9.347806918561033
 20
16.0489773011943
 30
0.0
  0
VERTEX
  5
3F2
330
3C3
100
AcDbEntity
  8
Livello 1
370
     0
100
AcDbVertex
100
AcDb2dVertex
 10
8.562389743464436
 20
15.98109007976887
 30
0.0
  0
VERTEX
  5
3F3
330
3C3
100
AcDbEntity
  8
Livello 1
370
     0
100
AcDbVertex
100
AcDb2dVertex
 10
8.115062935070653
 20
15.4274820756552
 30
0.0
  0
VERTEX
  5
3F4
330
3C3
100
AcDbEntity
  8
Livello 1
370
     0
100
AcDbVertex
100
AcDb2dVertex
 10
7.345740815444202
 20
15.4693480602435
 30
0.0
  0
VERTEX
  5
3F5
330
3C3
100
AcDbEntity
  8
Livello 1
370
     0
100
AcDbVertex
100
AcDb2dVertex
 10
6.67142931548733
 20
15.11961434739288
 30
0.0
  0
SEQEND
  5
3F6
330
3C3
100
AcDbEntity
  8
Livello 1
370
     0
  0
POLYLINE
  5
3F7
330
1F
100
AcDbEntity
  8
Livello 1
370
     0
100
AcDb2dPolyline
 66
     1
 10
0.0
 20
0.0
 30
0.0
  0
VERTEX
  5
3F8
330
3F7
100
AcDbEntity
  8
Livello 1
370
     0
100
AcDbVertex
100
AcDb2dVertex
 10
5.859741941575236
 20
15.4558745071192
 30
0.0
  0
VERTEX
  5
3F9
330
3F7
100
AcDbEntity
  8
Livello 1
370
     0
100
AcDbVertex
100
AcDb2dVertex
 10
6.024529202225366
 20
15.42511626398999
 30
0.0
  0
VERTEX
  5
3FA
330
3F7
100
AcDbEntity
  8
Livello 1
370
     0
100
AcDbVertex
100
AcDb2dVertex
 10
6.661252826401593
 20
15.23050066684348
 30
0.0
  0
VERTEX
  5
3FB
330
3F7
100
AcDbEntity
  8
Livello 1
370
     0
100
AcDbVertex
100
AcDb2dVertex
 10
7.322793249735397
 20
15.57365101754027
 30
0.0
  0
VERTEX
  5
3FC
330
3F7
100
AcDbEntity
  8
Livello 1
370
     0
100
AcDbVertex
100
AcDb2dVertex
 10
8.067402192216889
 20
15.53302042266119
 30
0.0
  0
VERTEX
  5
3FD
330
3F7
100
AcDbEntity
  8
Livello 1
370
     0
100
AcDbVertex
100
AcDb2dVertex
 10
8.509121300264169
 20
16.07973554432357
 30
0.0
  0
VERTEX
  5
3FE
330
3F7
100
AcDbEntity
  8
Livello 1
370
     0
100
AcDbVertex
100
AcDb2dVertex
 10
9.277405854023783
 20
16.14608054722308
 30
0.0
  0
VERTEX
  5
3FF
330
3F7
100
AcDbEntity
  8
Livello 1
370
     0
100
AcDbVertex
100
AcDb2dVertex
 10
9.605526975666222
 20
16.8872067134875
 30
0.0
  0
VERTEX
  5
400
330
3F7
100
AcDbEntity
  8
Livello 1
370
     0
100
AcDbVertex
100
AcDb2dVertex
 10
10.39561656151468
 20
17.14086532599319
 30
0.0
  0
VERTEX
  5
401
330
3F7
100
AcDbEntity
  8
Livello 1
370
     0
100
AcDbVertex
100
AcDb2dVertex
 10
10.45210267006853
 20
17.90945267134819
 30
0.0
  0
VERTEX
  5
402
330
3F7
100
AcDbEntity
  8
Livello 1
370
     0
100
AcDbVertex
100
AcDb2dVertex
 10
11.09017741763037
 20
18.28263994830699
 30
0.0
  0
VERTEX
  5
403
330
3F7
100
AcDbEntity
  8
Livello 1
370
     0
100
AcDbVertex
100
AcDb2dVertex
 10
11.04282888655497
 20
19.15090090390049
 30
0.0
  0
VERTEX
  5
404
330
3F7
100
AcDbEntity
  8
Livello 1
370
     0
100
AcDbVertex
100
AcDb2dVertex
 10
11.53594585861324
 20
19.67817545939887
 30
0.0
  0
VERTEX
  5
405
330
3F7
100
AcDbEntity
  8
Livello 1
370
     0
100
AcDbVertex
100
AcDb2dVertex
 10
11.29193082198532
 20
20.41775671565658
 30
0.0
  0
VERTEX
  5
406
330
3F7
100
AcDbEntity
  8
Livello 1
370
     0
100
AcDbVertex
100
AcDb2dVertex
 10
11.55162642603281
 20
21.172768231615
 30
0.0
  0
VERTEX
  5
407
330
3F7
100
AcDbEntity
  8
Livello 1
370
     0
100
AcDbVertex
100
AcDb2dVertex
 10
11.11852409391994
 20
21.72318683092399
 30
0.0
  0
VERTEX
  5
408
330
3F7
100
AcDbEntity
  8
Livello 1
370
     0
100
AcDbVertex
100
AcDb2dVertex
 10
11.16275858165437
 20
22.52201565508548
 30
0.0
  0
VERTEX
  5
409
330
3F7
100
AcDbEntity
  8
Livello 1
370
     0
100
AcDbVertex
100
AcDb2dVertex
 10
10.66870497426109
 20
22.9540387033783
 30
0.0
  0
VERTEX
  5
40A
330
3F7
100
AcDbEntity
  8
Livello 1
370
     0
100
AcDbVertex
100
AcDb2dVertex
 10
10.49384484653788
 20
23.7500926107857
 30
0.0
  0
VERTEX
  5
40B
330
3F7
100
AcDbEntity
  8
Livello 1
370
     0
100
AcDbVertex
100
AcDb2dVertex
 10
9.84113113464457
 20
24.09797458481299
 30
0.0
  0
VERTEX
  5
40C
330
3F7
100
AcDbEntity
  8
Livello 1
370
     0
100
AcDbVertex
100
AcDb2dVertex
 10
9.519343067437148
 20
24.90945606044019
 30
0.0
  0
VERTEX
  5
40D
330
3F7
100
AcDbEntity
  8
Livello 1
370
     0
100
AcDbVertex
100
AcDb2dVertex
 10
8.758328203447575
 20
24.95091024845879
 30
0.0
  0
VERTEX
  5
40E
330
3F7
100
AcDbEntity
  8
Livello 1
370
     0
100
AcDbVertex
100
AcDb2dVertex
 10
8.257525707828293
 20
25.59092017075029
 30
0.0
  0
VERTEX
  5
40F
330
3F7
100
AcDbEntity
  8
Livello 1
370
     0
100
AcDbVertex
100
AcDb2dVertex
 10
7.447916157130762
 20
25.55368353322029
 30
0.0
  0
VERTEX
  5
410
330
3F7
100
AcDbEntity
  8
Livello 1
370
     0
100
AcDbVertex
100
AcDb2dVertex
 10
6.940572017310756
 20
25.9721280606357
 30
0.0
  0
VERTEX
  5
411
330
3F7
100
AcDbEntity
  8
Livello 1
370
     0
100
AcDbVertex
100
AcDb2dVertex
 10
6.202608341042591
 20
25.70931572176637
 30
0.0
  0
VERTEX
  5
412
330
3F7
100
AcDbEntity
  8
Livello 1
370
     0
100
AcDbVertex
100
AcDb2dVertex
 10
6.183710108269423
 20
25.73101982332349
 30
0.0
  0
VERTEX
  5
413
330
3F7
100
AcDbEntity
  8
Livello 1
370
     0
100
AcDbVertex
100
AcDb2dVertex
 10
5.505556519402233
 20
26.01522943493319
 30
0.0
  0
VERTEX
  5
414
330
3F7
100
AcDbEntity
  8
Livello 1
370
     0
100
AcDbVertex
100
AcDb2dVertex
 10
4.975784269677106
 20
25.62486512720339
 30
0.0
  0
VERTEX
  5
415
330
3F7
100
AcDbEntity
  8
Livello 1
370
     0
100
AcDbVertex
100
AcDb2dVertex
 10
4.169288762320533
 20
25.70612631696169
 30
0.0
  0
VERTEX
  5
416
330
3F7
100
AcDbEntity
  8
Livello 1
370
     0
100
AcDbVertex
100
AcDb2dVertex
 10
3.633908812248904
 20
25.0941966143559
 30
0.0
  0
VERTEX
  5
417
330
3F7
100
AcDbEntity
  8
Livello 1
370
     0
100
AcDbVertex
100
AcDb2dVertex
 10
2.87175141463939
 20
25.0941966143559
 30
0.0
  0
VERTEX
  5
418
330
3F7
100
AcDbEntity
  8
Livello 1
370
     0
100
AcDbVertex
100
AcDb2dVertex
 10
2.50541664791919
 20
24.30153935577858
 30
0.0
  0
VERTEX
  5
419
330
3F7
100
AcDbEntity
  8
Livello 1
370
     0
100
AcDbVertex
100
AcDb2dVertex
 10
1.834531403081612
 20
23.98955635329989
 30
0.0
  0
VERTEX
  5
41A
330
3F7
100
AcDbEntity
  8
Livello 1
370
     0
100
AcDbVertex
100
AcDb2dVertex
 10
1.615852621414987
 20
23.20430335853499
 30
0.0
  0
VERTEX
  5
41B
330
3F7
100
AcDbEntity
  8
Livello 1
370
     0
100
AcDbVertex
100
AcDb2dVertex
 10
1.098540582274964
 20
22.79964190454137
 30
0.0
  0
VERTEX
  5
41C
330
3F7
100
AcDbEntity
  8
Livello 1
370
     0
100
AcDbVertex
100
AcDb2dVertex
 10
1.098540582274964
 20
21.9995776906707
 30
0.0
  0
VERTEX
  5
41D
330
3F7
100
AcDbEntity
  8
Livello 1
370
     0
100
AcDbVertex
100
AcDb2dVertex
 10
0.6354309301897274
 20
21.47364080115379
 30
0.0
  0
VERTEX
  5
41E
330
3F7
100
AcDbEntity
  8
Livello 1
370
     0
100
AcDbVertex
100
AcDb2dVertex
 10
0.8530721459895289
 20
20.70556752864069
 30
0.0
  0
VERTEX
  5
41F
330
3F7
100
AcDbEntity
  8
Livello 1
370
     0
100
AcDbVertex
100
AcDb2dVertex
 10
0.5684574665122142
 20
19.98038569491899
 30
0.0
  0
VERTEX
  5
420
330
3F7
100
AcDbEntity
  8
Livello 1
370
     0
100
AcDbVertex
100
AcDb2dVertex
 10
1.031669394869979
 20
19.42718948737499
 30
0.0
  0
VERTEX
  5
421
330
3F7
100
AcDbEntity
  8
Livello 1
370
     0
100
AcDbVertex
100
AcDb2dVertex
 10
0.9361406651371737
 20
18.56283656197257
 30
0.0
  0
VERTEX
  5
422
330
3F7
100
AcDbEntity
  8
Livello 1
370
     0
100
AcDbVertex
100
AcDb2dVertex
 10
1.552719900907348
 20
18.1554997760162
 30
0.0
  0
VERTEX
  5
423
330
3F7
100
AcDbEntity
  8
Livello 1
370
     0
100
AcDbVertex
100
AcDb2dVertex
 10
1.566529889137669
 20
17.3849584155657
 30
0.0
  0
VERTEX
  5
424
330
3F7
100
AcDbEntity
  8
Livello 1
370
     0
100
AcDbVertex
100
AcDb2dVertex
 10
2.341252465085361
 20
17.08881746935748
 30
0.0
  0
VERTEX
  5
425
330
3F7
100
AcDbEntity
  8
Livello 1
370
     0
100
AcDbVertex
100
AcDb2dVertex
 10
2.627943622036781
 20
16.33102834516398
 30
0.0
  0
VERTEX
  5
426
330
3F7
100
AcDbEntity
  8
Livello 1
370
     0
100
AcDbVertex
100
AcDb2dVertex
 10
3.391450797291469
 20
16.22302191022058
 30
0.0
  0
VERTEX
  5
427
330
3F7
100
AcDbEntity
  8
Livello 1
370
     0
100
AcDbVertex
100
AcDb2dVertex
 10
3.802330917784047
 20
15.65306046847527
 30
0.0
  0
VERTEX
  5
428
330
3F7
100
AcDbEntity
  8
Livello 1
370
     0
100
AcDbVertex
100
AcDb2dVertex
 10
4.547978771872806
 20
15.65306046847527
 30
0.0
  0
VERTEX
  5
429
330
3F7
100
AcDbEntity
  8
Livello 1
370
     0
100
AcDbVertex
100
AcDb2dVertex
 10
5.188958973009889
 20
15.27473246309708
 30
0.0
  0
VERTEX
  5
42A
330
3F7
100
AcDbEntity
  8
Livello 1
370
     0
100
AcDbVertex
100
AcDb2dVertex
 10
5.859741941575236
 20
15.4558745071192
 30
0.0
  0
SEQEND
  5
42B
330
3F7
100
AcDbEntity
  8
Livello 1
370
     0
  0
HATCH
  5
42C
330
1F
100
AcDbEntity
  8
Livello 1
100
AcDbHatch
 10
0.0
 20
0.0
 30
0.0
210
0.0
220
0.0
230
1.0
  2
SOLID
 70
     1
 71
     0
 91
        2
 92
        1
 93
       49
 72
     1
 10
6.67142931548733
 20
15.11961434739288
 11
5.99960878105513
 21
15.32544265375148
 72
     1
 10
5.99960878105513
 20
15.32544265375148
 11
5.864102140548766
 21
15.3504384363855
 72
     1
 10
5.864102140548766
 20
15.3504384363855
 11
5.173799207134365
 21
15.1640533876718
 72
     1
 10
5.173799207134365
 20
15.1640533876718
 11
4.519423505817528
 21
15.55019745343219
 72
     1
 10
4.519423505817528
 20
15.55019745343219
 11
3.748751608545859
 21
15.55019745343219
 72
     1
 10
3.748751608545859
 20
15.55019745343219
 11
3.33288821126348
 21
16.1273586064454
 72
     1
 10
3.33288821126348
 20
16.1273586064454
 11
2.552247068931393
 21
16.23783312932627
 72
     1
 10
2.552247068931393
 20
16.23783312932627
 11
2.260364045424424
 21
17.00940532694159
 72
     1
 10
2.260364045424424
 20
17.00940532694159
 11
1.463940059400542
 21
17.31387909785479
 72
     1
 10
1.463940059400542
 20
17.31387909785479
 11
1.449921481404516
 21
18.09985340948688
 72
     1
 10
1.449921481404516
 20
18.09985340948688
 11
0.8259702795920986
 21
18.5118168510208
 72
     1
 10
0.8259702795920986
 20
18.5118168510208
 11
0.9235768325394246
 21
19.39499399347299
 72
     1
 10
0.9235768325394246
 20
19.39499399347299
 11
0.449563991539236
 21
19.96125195757158
 72
     1
 10
0.449563991539236
 20
19.96125195757158
 11
0.7437320822860017
 21
20.71070825706009
 72
     1
 10
0.7437320822860017
 20
20.71070825706009
 11
0.5202772678548229
 21
21.4993552091742
 72
     1
 10
0.5202772678548229
 20
21.4993552091742
 11
0.9947045969056063
 21
22.03815199418209
 72
     1
 10
0.9947045969056063
 20
22.03815199418209
 11
0.9947045969056063
 21
22.84942622578409
 72
     1
 10
0.9947045969056063
 20
22.84942622578409
 11
1.524787712668342
 21
23.2641699670337
 72
     1
 10
1.524787712668342
 20
23.2641699670337
 11
1.747204961232668
 21
24.06258968610628
 72
     1
 10
1.747204961232668
 20
24.06258968610628
 11
2.426916917510752
 21
24.37858299504829
 72
     1
 10
2.426916917510752
 20
24.37858299504829
 11
2.804983849246752
 21
25.19705962939909
 72
     1
 10
2.804983849246752
 20
25.19705962939909
 11
3.586455313420415
 21
25.19705962939909
 72
     1
 10
3.586455313420415
 20
25.19705962939909
 11
4.126091840452943
 21
25.81392550787979
 72
     1
 10
4.126091840452943
 20
25.81392550787979
 11
4.946190092014546
 21
25.73132665214008
 72
     1
 10
4.946190092014546
 20
25.73132665214008
 11
5.491330697380931
 21
26.13290366908208
 72
     1
 10
5.491330697380931
 20
26.13290366908208
 11
6.22347942927729
 21
25.82606408650369
 72
     1
 10
6.22347942927729
 20
25.82606408650369
 11
6.961235861520123
 21
26.08887911685379
 72
     1
 10
6.961235861520123
 20
26.08887911685379
 11
7.483427555437302
 21
25.6582960108145
 72
     1
 10
7.483427555437302
 20
25.6582960108145
 11
8.306537574067675
 21
25.6962512737309
 72
     1
 10
8.306537574067675
 20
25.6962512737309
 11
8.811388056882108
 21
25.05099565526699
 72
     1
 10
8.811388056882108
 20
25.05099565526699
 11
9.591509743410583
 21
25.00851332156448
 72
     1
 10
9.591509743410583
 20
25.00851332156448
 11
9.923888787754307
 21
24.17069839732199
 72
     1
 10
9.923888787754307
 20
24.17069839732199
 11
10.5851183450502
 21
23.81818707623629
 72
     1
 10
10.5851183450502
 20
23.81818707623629
 11
10.76309251611438
 21
23.00886416824909
 72
     1
 10
10.76309251611438
 20
23.00886416824909
 11
11.26929546805489
 21
22.56614517506687
 72
     1
 10
11.26929546805489
 20
22.56614517506687
 11
11.22433428049152
 21
21.75610095021239
 72
     1
 10
11.22433428049152
 20
21.75610095021239
 11
11.6681298660129
 21
21.19220879777899
 72
     1
 10
11.6681298660129
 20
21.19220879777899
 11
11.40147678397373
 21
20.4170380902702
 72
     1
 10
11.40147678397373
 20
20.4170380902702
 11
11.65359317795364
 21
19.65266560392288
 72
     1
 10
11.65359317795364
 20
19.65266560392288
 11
11.14894859342403
 21
19.11294564098408
 72
     1
 10
11.14894859342403
 20
19.11294564098408
 11
11.19723106835366
 21
18.22575550058769
 72
     1
 10
11.19723106835366
 20
18.22575550058769
 11
10.55168207847734
 21
17.84825108834889
 72
     1
 10
10.55168207847734
 20
17.84825108834889
 11
10.49415705831622
 21
17.06433575956538
 72
     1
 10
10.49415705831622
 20
17.06433575956538
 11
9.682053850613158
 21
16.80357702058299
 72
     1
 10
9.682053850613158
 20
16.80357702058299
 11
9.347806918561033
 21
16.0489773011943
 72
     1
 10
9.347806918561033
 20
16.0489773011943
 11
8.562389743464436
 21
15.98109007976887
 72
     1
 10
8.562389743464436
 20
15.98109007976887
 11
8.115062935070653
 21
15.4274820756552
 72
     1
 10
8.115062935070653
 20
15.4274820756552
 11
7.345740815444202
 21
15.4693480602435
 72
     1
 10
7.345740815444202
 20
15.4693480602435
 11
6.67142931548733
 21
15.11961434739288
 97
        0
 92
        1
 93
       50
 72
     1
 10
5.859741941575236
 20
15.4558745071192
 11
6.024529202225366
 21
15.42511626398999
 72
     1
 10
6.024529202225366
 20
15.42511626398999
 11
6.661252826401593
 21
15.23050066684348
 72
     1
 10
6.661252826401593
 20
15.23050066684348
 11
7.322793249735397
 21
15.57365101754027
 72
     1
 10
7.322793249735397
 20
15.57365101754027
 11
8.067402192216889
 21
15.53302042266119
 72
     1
 10
8.067402192216889
 20
15.53302042266119
 11
8.509121300264169
 21
16.07973554432357
 72
     1
 10
8.509121300264169
 20
16.07973554432357
 11
9.277405854023783
 21
16.14608054722308
 72
     1
 10
9.277405854023783
 20
16.14608054722308
 11
9.605526975666222
 21
16.8872067134875
 72
     1
 10
9.605526975666222
 20
16.8872067134875
 11
10.39561656151468
 21
17.14086532599319
 72
     1
 10
10.39561656151468
 20
17.14086532599319
 11
10.45210267006853
 21
17.90945267134819
 72
     1
 10
10.45210267006853
 20
17.90945267134819
 11
11.09017741763037
 21
18.28263994830699
 72
     1
 10
11.09017741763037
 20
18.28263994830699
 11
11.04282888655497
 21
19.15090090390049
 72
     1
 10
11.04282888655497
 20
19.15090090390049
 11
11.53594585861324
 21
19.67817545939887
 72
     1
 10
11.53594585861324
 20
19.67817545939887
 11
11.29193082198532
 21
20.41775671565658
 72
     1
 10
11.29193082198532
 20
20.41775671565658
 11
11.55162642603281
 21
21.172768231615
 72
     1
 10
11.55162642603281
 20
21.172768231615
 11
11.11852409391994
 21
21.72318683092399
 72
     1
 10
11.11852409391994
 20
21.72318683092399
 11
11.16275858165437
 21
22.52201565508548
 72
     1
 10
11.16275858165437
 20
22.52201565508548
 11
10.66870497426109
 21
22.9540387033783
 72
     1
 10
10.66870497426109
 20
22.9540387033783
 11
10.49384484653788
 21
23.7500926107857
 72
     1
 10
10.49384484653788
 20
23.7500926107857
 11
9.84113113464457
 21
24.09797458481299
 72
     1
 10
9.84113113464457
 20
24.09797458481299
 11
9.519343067437148
 21
24.90945606044019
 72
     1
 10
9.519343067437148
 20
24.90945606044019
 11
8.758328203447575
 21
24.95091024845879
 72
     1
 10
8.758328203447575
 20
24.95091024845879
 11
8.257525707828293
 21
25.59092017075029
 72
     1
 10
8.257525707828293
 20
25.59092017075029
 11
7.447916157130762
 21
25.55368353322029
 72
     1
 10
7.447916157130762
 20
25.55368353322029
 11
6.940572017310756
 21
25.9721280606357
 72
     1
 10
6.940572017310756
 20
25.9721280606357
 11
6.202608341042591
 21
25.70931572176637
 72
     1
 10
6.202608341042591
 20
25.70931572176637
 11
6.183710108269423
 21
25.73101982332349
 72
     1
 10
6.183710108269423
 20
25.73101982332349
 11
5.505556519402233
 21
26.01522943493319
 72
     1
 10
5.505556519402233
 20
26.01522943493319
 11
4.975784269677106
 21
25.62486512720339
 72
     1
 10
4.975784269677106
 20
25.62486512720339
 11
4.169288762320533
 21
25.70612631696169
 72
     1
 10
4.169288762320533
 20
25.70612631696169
 11
3.633908812248904
 21
25.0941966143559
 72
     1
 10
3.633908812248904
 20
25.0941966143559
 11
2.87175141463939
 21
25.0941966143559
 72
     1
 10
2.87175141463939
 20
25.0941966143559
 11
2.50541664791919
 21
24.30153935577858
 72
     1
 10
2.50541664791919
 20
24.30153935577858
 11
1.834531403081612
 21
23.98955635329989
 72
     1
 10
1.834531403081612
 20
23.98955635329989
 11
1.615852621414987
 21
23.20430335853499
 72
     1
 10
1.615852621414987
 20
23.20430335853499
 11
1.098540582274964
 21
22.79964190454137
 72
     1
 10
1.098540582274964
 20
22.79964190454137
 11
1.098540582274964
 21
21.9995776906707
 72
     1
 10
1.098540582274964
 20
21.9995776906707
 11
0.6354309301897274
 21
21.47364080115379
 72
     1
 10
0.6354309301897274
 20
21.47364080115379
 11
0.8530721459895289
 21
20.70556752864069
 72
     1
 10
0.8530721459895289
 20
20.70556752864069
 11
0.5684574665122142
 21
19.98038569491899
 72
     1
 10
0.5684574665122142
 20
19.98038569491899
 11
1.031669394869979
 21
19.42718948737499
 72
     1
 10
1.031669394869979
 20
19.42718948737499
 11
0.9361406651371737
 21
18.56283656197257
 72
     1
 10
0.9361406651371737
 20
18.56283656197257
 11
1.552719900907348
 21
18.1554997760162
 72
     1
 10
1.552719900907348
 20
18.1554997760162
 11
1.566529889137669
 21
17.3849584155657
 72
     1
 10
1.566529889137669
 20
17.3849584155657
 11
2.341252465085361
 21
17.08881746935748
 72
     1
 10
2.341252465085361
 20
17.08881746935748
 11
2.627943622036781
 21
16.33102834516398
 72
     1
 10
2.627943622036781
 20
16.33102834516398
 11
3.391450797291469
 21
16.22302191022058
 72
     1
 10
3.391450797291469
 20
16.22302191022058
 11
3.802330917784047
 21
15.65306046847527
 72
     1
 10
3.802330917784047
 20
15.65306046847527
 11
4.547978771872806
 21
15.65306046847527
 72
     1
 10
4.547978771872806
 20
15.65306046847527
 11
5.188958973009889
 21
15.27473246309708
 72
     1
 10
5.188958973009889
 20
15.27473246309708
 11
5.859741941575236
 21
15.4558745071192
 97
        0
 75
     2
 76
     1
 98
        0
450
        0
451
        0
460
0.0
461
0.0
452
        0
462
0.0
453
        0
470

  0
POLYLINE
  5
42D
330
1F
100
AcDbEntity
  8
Livello 1
370
     0
100
AcDb2dPolyline
 66
     1
 10
0.0
 20
0.0
 30
0.0
  0
VERTEX
  5
42E
330
42D
100
AcDbEntity
  8
Livello 1
370
     0
100
AcDbVertex
100
AcDb2dVertex
 10
6.493519739963488
 20
16.77933485258637
 30
0.0
  0
VERTEX
  5
42F
330
42D
100
AcDbEntity
  8
Livello 1
370
     0
100
AcDbVertex
100
AcDb2dVertex
 10
6.022725910057317
 20
16.92293073878099
 30
0.0
  0
VERTEX
  5
430
330
42D
100
AcDbEntity
  8
Livello 1
370
     0
100
AcDbVertex
100
AcDb2dVertex
 10
5.934672768379428
 20
16.93907962386808
 30
0.0
  0
VERTEX
  5
431
330
42D
100
AcDbEntity
  8
Livello 1
370
     0
100
AcDbVertex
100
AcDb2dVertex
 10
5.454119628918959
 20
16.80978088393729
 30
0.0
  0
VERTEX
  5
432
330
42D
100
AcDbEntity
  8
Livello 1
370
     0
100
AcDbVertex
100
AcDb2dVertex
 10
4.99962809850821
 20
17.07691574104828
 30
0.0
  0
VERTEX
  5
433
330
42D
100
AcDbEntity
  8
Livello 1
370
     0
100
AcDbVertex
100
AcDb2dVertex
 10
4.463106960557084
 20
17.07691574104828
 30
0.0
  0
VERTEX
  5
434
330
42D
100
AcDbEntity
  8
Livello 1
370
     0
100
AcDbVertex
100
AcDb2dVertex
 10
4.174545224416377
 20
17.47509610916019
 30
0.0
  0
VERTEX
  5
435
330
42D
100
AcDbEntity
  8
Livello 1
370
     0
100
AcDbVertex
100
AcDb2dVertex
 10
3.632312764106117
 20
17.55142112304357
 30
0.0
  0
VERTEX
  5
436
330
42D
100
AcDbEntity
  8
Livello 1
370
     0
100
AcDbVertex
100
AcDb2dVertex
 10
3.429729037909609
 20
18.08435317128408
 30
0.0
  0
VERTEX
  5
437
330
42D
100
AcDbEntity
  8
Livello 1
370
     0
100
AcDbVertex
100
AcDb2dVertex
 10
2.875450855064798
 20
18.29521992978988
 30
0.0
  0
VERTEX
  5
438
330
42D
100
AcDbEntity
  8
Livello 1
370
     0
100
AcDbVertex
100
AcDb2dVertex
 10
2.865795167523117
 20
18.83833385007777
 30
0.0
  0
VERTEX
  5
439
330
42D
100
AcDbEntity
  8
Livello 1
370
     0
100
AcDbVertex
100
AcDb2dVertex
 10
2.433317258966965
 20
19.12264573795978
 30
0.0
  0
VERTEX
  5
43A
330
42D
100
AcDbEntity
  8
Livello 1
370
     0
100
AcDbVertex
100
AcDb2dVertex
 10
2.501122390226456
 20
19.73334274233728
 30
0.0
  0
VERTEX
  5
43B
330
42D
100
AcDbEntity
  8
Livello 1
370
     0
100
AcDbVertex
100
AcDb2dVertex
 10
2.171545177445352
 20
20.12493974829539
 30
0.0
  0
VERTEX
  5
43C
330
42D
100
AcDbEntity
  8
Livello 1
370
     0
100
AcDbVertex
100
AcDb2dVertex
 10
2.376518938634745
 20
20.64449782820299
 30
0.0
  0
VERTEX
  5
43D
330
42D
100
AcDbEntity
  8
Livello 1
370
     0
100
AcDbVertex
100
AcDb2dVertex
 10
2.221180121500992
 20
21.1902870804537
 30
0.0
  0
VERTEX
  5
43E
330
42D
100
AcDbEntity
  8
Livello 1
370
     0
100
AcDbVertex
100
AcDb2dVertex
 10
2.550859610554311
 20
21.563059869362
 30
0.0
  0
VERTEX
  5
43F
330
42D
100
AcDbEntity
  8
Livello 1
370
     0
100
AcDbVertex
100
AcDb2dVertex
 10
2.550859610554311
 20
22.12294171533199
 30
0.0
  0
VERTEX
  5
440
330
42D
100
AcDbEntity
  8
Livello 1
370
     0
100
AcDbVertex
100
AcDb2dVertex
 10
2.919581720786595
 20
22.40982396742359
 30
0.0
  0
VERTEX
  5
441
330
42D
100
AcDbEntity
  8
Livello 1
370
     0
100
AcDbVertex
100
AcDb2dVertex
 10
3.073881626313053
 20
22.96127071241649
 30
0.0
  0
VERTEX
  5
442
330
42D
100
AcDbEntity
  8
Livello 1
370
     0
100
AcDbVertex
100
AcDb2dVertex
 10
3.544987667997574
 20
23.17944214994339
 30
0.0
  0
VERTEX
  5
443
330
42D
100
AcDbEntity
  8
Livello 1
370
     0
100
AcDbVertex
100
AcDb2dVertex
 10
3.808315425449237
 20
23.74652370718138
 30
0.0
  0
VERTEX
  5
444
330
42D
100
AcDbEntity
  8
Livello 1
370
     0
100
AcDbVertex
100
AcDb2dVertex
 10
4.351690419379423
 20
23.74652370718138
 30
0.0
  0
VERTEX
  5
445
330
42D
100
AcDbEntity
  8
Livello 1
370
     0
100
AcDbVertex
100
AcDb2dVertex
 10
4.725397152141894
 20
24.17165387302288
 30
0.0
  0
VERTEX
  5
446
330
42D
100
AcDbEntity
  8
Livello 1
370
     0
100
AcDbVertex
100
AcDb2dVertex
 10
5.294730133109183
 20
24.11456756423999
 30
0.0
  0
VERTEX
  5
447
330
42D
100
AcDbEntity
  8
Livello 1
370
     0
100
AcDbVertex
100
AcDb2dVertex
 10
5.673835976452451
 20
24.39260291878479
 30
0.0
  0
VERTEX
  5
448
330
42D
100
AcDbEntity
  8
Livello 1
370
     0
100
AcDbVertex
100
AcDb2dVertex
 10
6.182842105696011
 20
24.18039849429758
 30
0.0
  0
VERTEX
  5
449
330
42D
100
AcDbEntity
  8
Livello 1
370
     0
100
AcDbVertex
100
AcDb2dVertex
 10
6.69558401035637
 20
24.36225916370609
 30
0.0
  0
VERTEX
  5
44A
330
42D
100
AcDbEntity
  8
Livello 1
370
     0
100
AcDbVertex
100
AcDb2dVertex
 10
7.0589070100078
 20
24.06416420240228
 30
0.0
  0
VERTEX
  5
44B
330
42D
100
AcDbEntity
  8
Livello 1
370
     0
100
AcDbVertex
100
AcDb2dVertex
 10
7.630214192177007
 20
24.09029040699238
 30
0.0
  0
VERTEX
  5
44C
330
42D
100
AcDbEntity
  8
Livello 1
370
     0
100
AcDbVertex
100
AcDb2dVertex
 10
7.979727203598159
 20
23.64551243096159
 30
0.0
  0
VERTEX
  5
44D
330
42D
100
AcDbEntity
  8
Livello 1
370
     0
100
AcDbVertex
100
AcDb2dVertex
 10
8.522270529946339
 20
23.61619682156679
 30
0.0
  0
VERTEX
  5
44E
330
42D
100
AcDbEntity
  8
Livello 1
370
     0
100
AcDbVertex
100
AcDb2dVertex
 10
8.753514489951214
 20
23.03564171120438
 30
0.0
  0
VERTEX
  5
44F
330
42D
100
AcDbEntity
  8
Livello 1
370
     0
100
AcDbVertex
100
AcDb2dVertex
 10
9.212158975310174
 20
22.79247449104349
 30
0.0
  0
VERTEX
  5
450
330
42D
100
AcDbEntity
  8
Livello 1
370
     0
100
AcDbVertex
100
AcDb2dVertex
 10
9.335514925528912
 20
22.23341623821287
 30
0.0
  0
VERTEX
  5
451
330
42D
100
AcDbEntity
  8
Livello 1
370
     0
100
AcDbVertex
100
AcDb2dVertex
 10
9.687832459993501
 20
21.92709072847637
 30
0.0
  0
VERTEX
  5
452
330
42D
100
AcDbEntity
  8
Livello 1
370
     0
100
AcDbVertex
100
AcDb2dVertex
 10
9.656369048882126
 20
21.36793019937359
 30
0.0
  0
VERTEX
  5
453
330
42D
100
AcDbEntity
  8
Livello 1
370
     0
100
AcDbVertex
100
AcDb2dVertex
 10
9.964968859935041
 20
20.97787541194119
 30
0.0
  0
VERTEX
  5
454
330
42D
100
AcDbEntity
  8
Livello 1
370
     0
100
AcDbVertex
100
AcDb2dVertex
 10
9.779622722828619
 20
20.44134485380708
 30
0.0
  0
VERTEX
  5
455
330
42D
100
AcDbEntity
  8
Livello 1
370
     0
100
AcDbVertex
100
AcDb2dVertex
 10
9.955209550380743
 20
19.91149993409908
 30
0.0
  0
VERTEX
  5
456
330
42D
100
AcDbEntity
  8
Livello 1
370
     0
100
AcDbVertex
100
AcDb2dVertex
 10
9.604243139301757
 20
19.53831534862108
 30
0.0
  0
VERTEX
  5
457
330
42D
100
AcDbEntity
  8
Livello 1
370
     0
100
AcDbVertex
100
AcDb2dVertex
 10
9.637988926172127
 20
18.92494570376169
 30
0.0
  0
VERTEX
  5
458
330
42D
100
AcDbEntity
  8
Livello 1
370
     0
100
AcDbVertex
100
AcDb2dVertex
 10
9.190352597480867
 20
18.66449648507678
 30
0.0
  0
VERTEX
  5
459
330
42D
100
AcDbEntity
  8
Livello 1
370
     0
100
AcDbVertex
100
AcDb2dVertex
 10
9.150583276473014
 20
18.12261795449798
 30
0.0
  0
VERTEX
  5
45A
330
42D
100
AcDbEntity
  8
Livello 1
370
     0
100
AcDbVertex
100
AcDb2dVertex
 10
8.585403250453964
 20
17.9420922595901
 30
0.0
  0
VERTEX
  5
45B
330
42D
100
AcDbEntity
  8
Livello 1
370
     0
100
AcDbVertex
100
AcDb2dVertex
 10
8.353225346594911
 20
17.42088968488448
 30
0.0
  0
VERTEX
  5
45C
330
42D
100
AcDbEntity
  8
Livello 1
370
     0
100
AcDbVertex
100
AcDb2dVertex
 10
7.807773875190605
 20
17.37398255666818
 30
0.0
  0
VERTEX
  5
45D
330
42D
100
AcDbEntity
  8
Livello 1
370
     0
100
AcDbVertex
100
AcDb2dVertex
 10
7.497512074714109
 20
16.99205334991549
 30
0.0
  0
VERTEX
  5
45E
330
42D
100
AcDbEntity
  8
Livello 1
370
     0
100
AcDbVertex
100
AcDb2dVertex
 10
6.961819912864115
 20
17.0210621304937
 30
0.0
  0
VERTEX
  5
45F
330
42D
100
AcDbEntity
  8
Livello 1
370
     0
100
AcDbVertex
100
AcDb2dVertex
 10
6.493519739963488
 20
16.77933485258637
 30
0.0
  0
SEQEND
  5
460
330
42D
100
AcDbEntity
  8
Livello 1
370
     0
  0
POLYLINE
  5
461
330
1F
100
AcDbEntity
  8
Livello 1
370
     0
100
AcDb2dPolyline
 66
     1
 10
0.0
 20
0.0
 30
0.0
  0
VERTEX
  5
462
330
461
100
AcDbEntity
  8
Livello 1
370
     0
100
AcDbVertex
100
AcDb2dVertex
 10
5.930312569405941
 20
17.04451569460178
 30
0.0
  0
VERTEX
  5
463
330
461
100
AcDbEntity
  8
Livello 1
370
     0
100
AcDbVertex
100
AcDb2dVertex
 10
6.047646331227568
 20
17.0226043490195
 30
0.0
  0
VERTEX
  5
464
330
461
100
AcDbEntity
  8
Livello 1
370
     0
100
AcDbVertex
100
AcDb2dVertex
 10
6.483343250877766
 20
16.89001392801177
 30
0.0
  0
VERTEX
  5
465
330
461
100
AcDbEntity
  8
Livello 1
370
     0
100
AcDbVertex
100
AcDb2dVertex
 10
6.939080936921044
 20
17.12536508779038
 30
0.0
  0
VERTEX
  5
466
330
461
100
AcDbEntity
  8
Livello 1
370
     0
100
AcDbVertex
100
AcDb2dVertex
 10
7.450058575885634
 20
17.09759169692148
 30
0.0
  0
VERTEX
  5
467
330
461
100
AcDbEntity
  8
Livello 1
370
     0
100
AcDbVertex
100
AcDb2dVertex
 10
7.754610399743427
 20
17.47262802122277
 30
0.0
  0
VERTEX
  5
468
330
461
100
AcDbEntity
  8
Livello 1
370
     0
100
AcDbVertex
100
AcDb2dVertex
 10
8.283032871823365
 20
17.51809251570469
 30
0.0
  0
VERTEX
  5
469
330
461
100
AcDbEntity
  8
Livello 1
370
     0
100
AcDbVertex
100
AcDb2dVertex
 10
8.509187241544935
 20
18.02592650503898
 30
0.0
  0
VERTEX
  5
46A
330
461
100
AcDbEntity
  8
Livello 1
370
     0
100
AcDbVertex
100
AcDb2dVertex
 10
9.051937811918435
 20
18.19935207347028
 30
0.0
  0
VERTEX
  5
46B
330
461
100
AcDbEntity
  8
Livello 1
370
     0
100
AcDbVertex
100
AcDb2dVertex
 10
9.090773189072081
 20
18.7258030358292
 30
0.0
  0
VERTEX
  5
46C
330
461
100
AcDbEntity
  8
Livello 1
370
     0
100
AcDbVertex
100
AcDb2dVertex
 10
9.530935275448854
 20
18.98182746000019
 30
0.0
  0
VERTEX
  5
46D
330
461
100
AcDbEntity
  8
Livello 1
370
     0
100
AcDbVertex
100
AcDb2dVertex
 10
9.498123432432677
 20
19.5763728878097
 30
0.0
  0
VERTEX
  5
46E
330
461
100
AcDbEntity
  8
Livello 1
370
     0
100
AcDbVertex
100
AcDb2dVertex
 10
9.837354987015032
 20
19.93711206584729
 30
0.0
  0
VERTEX
  5
46F
330
461
100
AcDbEntity
  8
Livello 1
370
     0
100
AcDbVertex
100
AcDb2dVertex
 10
9.670179037112447
 20
20.44206347919349
 30
0.0
  0
VERTEX
  5
470
330
461
100
AcDbEntity
  8
Livello 1
370
     0
100
AcDbVertex
100
AcDb2dVertex
 10
9.848570387708022
 20
20.95843484577719
 30
0.0
  0
VERTEX
  5
471
330
461
100
AcDbEntity
  8
Livello 1
370
     0
100
AcDbVertex
100
AcDb2dVertex
 10
9.550456586038308
 20
21.33501338860428
 30
0.0
  0
VERTEX
  5
472
330
461
100
AcDbEntity
  8
Livello 1
370
     0
100
AcDbVertex
100
AcDb2dVertex
 10
9.58129557359301
 20
21.88275665595059
 30
0.0
  0
VERTEX
  5
473
330
461
100
AcDbEntity
  8
Livello 1
370
     0
100
AcDbVertex
100
AcDb2dVertex
 10
9.241439595453954
 20
22.17848580558909
 30
0.0
  0
VERTEX
  5
474
330
461
100
AcDbEntity
  8
Livello 1
370
     0
100
AcDbVertex
100
AcDb2dVertex
 10
9.120990444550898
 20
22.72417278156759
 30
0.0
  0
VERTEX
  5
475
330
461
100
AcDbEntity
  8
Livello 1
370
     0
100
AcDbVertex
100
AcDb2dVertex
 10
8.671067702879398
 20
22.96281293094229
 30
0.0
  0
VERTEX
  5
476
330
461
100
AcDbEntity
  8
Livello 1
370
     0
100
AcDbVertex
100
AcDb2dVertex
 10
8.45010519971332
 20
23.51703728417019
 30
0.0
  0
VERTEX
  5
477
330
461
100
AcDbEntity
  8
Livello 1
370
     0
100
AcDbVertex
100
AcDb2dVertex
 10
7.926874594188888
 20
23.54532474788108
 30
0.0
  0
VERTEX
  5
478
330
461
100
AcDbEntity
  8
Livello 1
370
     0
100
AcDbVertex
100
AcDb2dVertex
 10
7.581307293690713
 20
23.98516385655618
 30
0.0
  0
VERTEX
  5
479
330
461
100
AcDbEntity
  8
Livello 1
370
     0
100
AcDbVertex
100
AcDb2dVertex
 10
7.023602855726565
 20
23.95955172480798
 30
0.0
  0
VERTEX
  5
47A
330
461
100
AcDbEntity
  8
Livello 1
370
     0
100
AcDbVertex
100
AcDb2dVertex
 10
6.674921511887404
 20
24.24561307524108
 30
0.0
  0
VERTEX
  5
47B
330
461
100
AcDbEntity
  8
Livello 1
370
     0
100
AcDbVertex
100
AcDb2dVertex
 10
6.161658805682961
 20
24.06354516180729
 30
0.0
  0
VERTEX
  5
47C
330
461
100
AcDbEntity
  8
Livello 1
370
     0
100
AcDbVertex
100
AcDb2dVertex
 10
6.144422562333318
 20
24.08473519052238
 30
0.0
  0
VERTEX
  5
47D
330
461
100
AcDbEntity
  8
Livello 1
370
     0
100
AcDbVertex
100
AcDb2dVertex
 10
5.688061798473754
 20
24.27503096090808
 30
0.0
  0
VERTEX
  5
47E
330
461
100
AcDbEntity
  8
Livello 1
370
     0
100
AcDbVertex
100
AcDb2dVertex
 10
5.324115721006037
 20
24.00820562409459
 30
0.0
  0
VERTEX
  5
47F
330
461
100
AcDbEntity
  8
Livello 1
370
     0
100
AcDbVertex
100
AcDb2dVertex
 10
4.768489106256424
 20
24.06395695837699
 30
0.0
  0
VERTEX
  5
480
330
461
100
AcDbEntity
  8
Livello 1
370
     0
100
AcDbVertex
100
AcDb2dVertex
 10
4.398935328442178
 20
23.6436606921382
 30
0.0
  0
VERTEX
  5
481
330
461
100
AcDbEntity
  8
Livello 1
370
     0
100
AcDbVertex
100
AcDb2dVertex
 10
3.874874401076183
 20
23.6436606921382
 30
0.0
  0
VERTEX
  5
482
330
461
100
AcDbEntity
  8
Livello 1
370
     0
100
AcDbVertex
100
AcDb2dVertex
 10
3.623487398406012
 20
23.10219395812919
 30
0.0
  0
VERTEX
  5
483
330
461
100
AcDbEntity
  8
Livello 1
370
     0
100
AcDbVertex
100
AcDb2dVertex
 10
3.161104446149366
 20
22.88813510333787
 30
0.0
  0
VERTEX
  5
484
330
461
100
AcDbEntity
  8
Livello 1
370
     0
100
AcDbVertex
100
AcDb2dVertex
 10
3.010438039767493
 20
22.34975280638038
 30
0.0
  0
VERTEX
  5
485
330
461
100
AcDbEntity
  8
Livello 1
370
     0
100
AcDbVertex
100
AcDb2dVertex
 10
2.65469559592401
 20
22.07284787379179
 30
0.0
  0
VERTEX
  5
486
330
461
100
AcDbEntity
  8
Livello 1
370
     0
100
AcDbVertex
100
AcDb2dVertex
 10
2.65469559592401
 20
21.52438328957828
 30
0.0
  0
VERTEX
  5
487
330
461
100
AcDbEntity
  8
Livello 1
370
     0
100
AcDbVertex
100
AcDb2dVertex
 10
2.336437405848542
 20
21.16446770468019
 30
0.0
  0
VERTEX
  5
488
330
461
100
AcDbEntity
  8
Livello 1
370
     0
100
AcDbVertex
100
AcDb2dVertex
 10
2.485857656597843
 20
20.63914985575829
 30
0.0
  0
VERTEX
  5
489
330
461
100
AcDbEntity
  8
Livello 1
370
     0
100
AcDbVertex
100
AcDb2dVertex
 10
2.290542274430976
 20
20.14407079416188
 30
0.0
  0
VERTEX
  5
48A
330
461
100
AcDbEntity
  8
Livello 1
370
     0
100
AcDbVertex
100
AcDb2dVertex
 10
2.60921495255701
 20
19.76553823623928
 30
0.0
  0
VERTEX
  5
48B
330
461
100
AcDbEntity
  8
Livello 1
370
     0
100
AcDbVertex
100
AcDb2dVertex
 10
2.543487644512069
 20
19.17366544891169
 30
0.0
  0
VERTEX
  5
48C
330
461
100
AcDbEntity
  8
Livello 1
370
     0
100
AcDbVertex
100
AcDb2dVertex
 10
2.968695863298165
 20
18.89418746063249
 30
0.0
  0
VERTEX
  5
48D
330
461
100
AcDbEntity
  8
Livello 1
370
     0
100
AcDbVertex
100
AcDb2dVertex
 10
2.978042030542312
 20
18.36629924750077
 30
0.0
  0
VERTEX
  5
48E
330
461
100
AcDbEntity
  8
Livello 1
370
     0
100
AcDbVertex
100
AcDb2dVertex
 10
3.510410213545227
 20
18.16386489849138
 30
0.0
  0
VERTEX
  5
48F
330
461
100
AcDbEntity
  8
Livello 1
370
     0
100
AcDbVertex
100
AcDb2dVertex
 10
3.707802073186229
 20
17.64461364740049
 30
0.0
  0
VERTEX
  5
490
330
461
100
AcDbEntity
  8
Livello 1
370
     0
100
AcDbVertex
100
AcDb2dVertex
 10
4.232901912159505
 20
17.57075941293537
 30
0.0
  0
VERTEX
  5
491
330
461
100
AcDbEntity
  8
Livello 1
370
     0
100
AcDbVertex
100
AcDb2dVertex
 10
4.516479025769953
 20
17.17977875609139
 30
0.0
  0
VERTEX
  5
492
330
461
100
AcDbEntity
  8
Livello 1
370
     0
100
AcDbVertex
100
AcDb2dVertex
 10
5.028079742550843
 20
17.17977875609139
 30
0.0
  0
VERTEX
  5
493
330
461
100
AcDbEntity
  8
Livello 1
370
     0
100
AcDbVertex
100
AcDb2dVertex
 10
5.469383016807114
 20
16.92046265084349
 30
0.0
  0
VERTEX
  5
494
330
461
100
AcDbEntity
  8
Livello 1
370
     0
100
AcDbVertex
100
AcDb2dVertex
 10
5.930312569405941
 20
17.04451569460178
 30
0.0
  0
SEQEND
  5
495
330
461
100
AcDbEntity
  8
Livello 1
370
     0
  0
HATCH
  5
496
330
1F
100
AcDbEntity
  8
Livello 1
100
AcDbHatch
 10
0.0
 20
0.0
 30
0.0
210
0.0
220
0.0
230
1.0
  2
SOLID
 70
     1
 71
     0
 91
        2
 92
        1
 93
       49
 72
     1
 10
6.493519739963488
 20
16.77933485258637
 11
6.022725910057317
 21
16.92293073878099
 72
     1
 10
6.022725910057317
 20
16.92293073878099
 11
5.934672768379428
 21
16.93907962386808
 72
     1
 10
5.934672768379428
 20
16.93907962386808
 11
5.454119628918959
 21
16.80978088393729
 72
     1
 10
5.454119628918959
 20
16.80978088393729
 11
4.99962809850821
 21
17.07691574104828
 72
     1
 10
4.99962809850821
 20
17.07691574104828
 11
4.463106960557084
 21
17.07691574104828
 72
     1
 10
4.463106960557084
 20
17.07691574104828
 11
4.174545224416377
 21
17.47509610916019
 72
     1
 10
4.174545224416377
 20
17.47509610916019
 11
3.632312764106117
 21
17.55142112304357
 72
     1
 10
3.632312764106117
 20
17.55142112304357
 11
3.429729037909609
 21
18.08435317128408
 72
     1
 10
3.429729037909609
 20
18.08435317128408
 11
2.875450855064798
 21
18.29521992978988
 72
     1
 10
2.875450855064798
 20
18.29521992978988
 11
2.865795167523117
 21
18.83833385007777
 72
     1
 10
2.865795167523117
 20
18.83833385007777
 11
2.433317258966965
 21
19.12264573795978
 72
     1
 10
2.433317258966965
 20
19.12264573795978
 11
2.501122390226456
 21
19.73334274233728
 72
     1
 10
2.501122390226456
 20
19.73334274233728
 11
2.171545177445352
 21
20.12493974829539
 72
     1
 10
2.171545177445352
 20
20.12493974829539
 11
2.376518938634745
 21
20.64449782820299
 72
     1
 10
2.376518938634745
 20
20.64449782820299
 11
2.221180121500992
 21
21.1902870804537
 72
     1
 10
2.221180121500992
 20
21.1902870804537
 11
2.550859610554311
 21
21.563059869362
 72
     1
 10
2.550859610554311
 20
21.563059869362
 11
2.550859610554311
 21
22.12294171533199
 72
     1
 10
2.550859610554311
 20
22.12294171533199
 11
2.919581720786595
 21
22.40982396742359
 72
     1
 10
2.919581720786595
 20
22.40982396742359
 11
3.073881626313053
 21
22.96127071241649
 72
     1
 10
3.073881626313053
 20
22.96127071241649
 11
3.544987667997574
 21
23.17944214994339
 72
     1
 10
3.544987667997574
 20
23.17944214994339
 11
3.808315425449237
 21
23.74652370718138
 72
     1
 10
3.808315425449237
 20
23.74652370718138
 11
4.351690419379423
 21
23.74652370718138
 72
     1
 10
4.351690419379423
 20
23.74652370718138
 11
4.725397152141894
 21
24.17165387302288
 72
     1
 10
4.725397152141894
 20
24.17165387302288
 11
5.294730133109183
 21
24.11456756423999
 72
     1
 10
5.294730133109183
 20
24.11456756423999
 11
5.673835976452451
 21
24.39260291878479
 72
     1
 10
5.673835976452451
 20
24.39260291878479
 11
6.182842105696011
 21
24.18039849429758
 72
     1
 10
6.182842105696011
 20
24.18039849429758
 11
6.69558401035637
 21
24.36225916370609
 72
     1
 10
6.69558401035637
 20
24.36225916370609
 11
7.0589070100078
 21
24.06416420240228
 72
     1
 10
7.0589070100078
 20
24.06416420240228
 11
7.630214192177007
 21
24.09029040699238
 72
     1
 10
7.630214192177007
 20
24.09029040699238
 11
7.979727203598159
 21
23.64551243096159
 72
     1
 10
7.979727203598159
 20
23.64551243096159
 11
8.522270529946339
 21
23.61619682156679
 72
     1
 10
8.522270529946339
 20
23.61619682156679
 11
8.753514489951214
 21
23.03564171120438
 72
     1
 10
8.753514489951214
 20
23.03564171120438
 11
9.212158975310174
 21
22.79247449104349
 72
     1
 10
9.212158975310174
 20
22.79247449104349
 11
9.335514925528912
 21
22.23341623821287
 72
     1
 10
9.335514925528912
 20
22.23341623821287
 11
9.687832459993501
 21
21.92709072847637
 72
     1
 10
9.687832459993501
 20
21.92709072847637
 11
9.656369048882126
 21
21.36793019937359
 72
     1
 10
9.656369048882126
 20
21.36793019937359
 11
9.964968859935041
 21
20.97787541194119
 72
     1
 10
9.964968859935041
 20
20.97787541194119
 11
9.779622722828619
 21
20.44134485380708
 72
     1
 10
9.779622722828619
 20
20.44134485380708
 11
9.955209550380743
 21
19.91149993409908
 72
     1
 10
9.955209550380743
 20
19.91149993409908
 11
9.604243139301757
 21
19.53831534862108
 72
     1
 10
9.604243139301757
 20
19.53831534862108
 11
9.637988926172127
 21
18.92494570376169
 72
     1
 10
9.637988926172127
 20
18.92494570376169
 11
9.190352597480867
 21
18.66449648507678
 72
     1
 10
9.190352597480867
 20
18.66449648507678
 11
9.150583276473014
 21
18.12261795449798
 72
     1
 10
9.150583276473014
 20
18.12261795449798
 11
8.585403250453964
 21
17.9420922595901
 72
     1
 10
8.585403250453964
 20
17.9420922595901
 11
8.353225346594911
 21
17.42088968488448
 72
     1
 10
8.353225346594911
 20
17.42088968488448
 11
7.807773875190605
 21
17.37398255666818
 72
     1
 10
7.807773875190605
 20
17.37398255666818
 11
7.497512074714109
 21
16.99205334991549
 72
     1
 10
7.497512074714109
 20
16.99205334991549
 11
6.961819912864115
 21
17.0210621304937
 72
     1
 10
6.961819912864115
 20
17.0210621304937
 11
6.493519739963488
 21
16.77933485258637
 97
        0
 92
        1
 93
       50
 72
     1
 10
5.930312569405941
 20
17.04451569460178
 11
6.047646331227568
 21
17.0226043490195
 72
     1
 10
6.047646331227568
 20
17.0226043490195
 11
6.483343250877766
 21
16.89001392801177
 72
     1
 10
6.483343250877766
 20
16.89001392801177
 11
6.939080936921044
 21
17.12536508779038
 72
     1
 10
6.939080936921044
 20
17.12536508779038
 11
7.450058575885634
 21
17.09759169692148
 72
     1
 10
7.450058575885634
 20
17.09759169692148
 11
7.754610399743427
 21
17.47262802122277
 72
     1
 10
7.754610399743427
 20
17.47262802122277
 11
8.283032871823365
 21
17.51809251570469
 72
     1
 10
8.283032871823365
 20
17.51809251570469
 11
8.509187241544935
 21
18.02592650503898
 72
     1
 10
8.509187241544935
 20
18.02592650503898
 11
9.051937811918435
 21
18.19935207347028
 72
     1
 10
9.051937811918435
 20
18.19935207347028
 11
9.090773189072081
 21
18.7258030358292
 72
     1
 10
9.090773189072081
 20
18.7258030358292
 11
9.530935275448854
 21
18.98182746000019
 72
     1
 10
9.530935275448854
 20
18.98182746000019
 11
9.498123432432677
 21
19.5763728878097
 72
     1
 10
9.498123432432677
 20
19.5763728878097
 11
9.837354987015032
 21
19.93711206584729
 72
     1
 10
9.837354987015032
 20
19.93711206584729
 11
9.670179037112447
 21
20.44206347919349
 72
     1
 10
9.670179037112447
 20
20.44206347919349
 11
9.848570387708022
 21
20.95843484577719
 72
     1
 10
9.848570387708022
 20
20.95843484577719
 11
9.550456586038308
 21
21.33501338860428
 72
     1
 10
9.550456586038308
 20
21.33501338860428
 11
9.58129557359301
 21
21.88275665595059
 72
     1
 10
9.58129557359301
 20
21.88275665595059
 11
9.241439595453954
 21
22.17848580558909
 72
     1
 10
9.241439595453954
 20
22.17848580558909
 11
9.120990444550898
 21
22.72417278156759
 72
     1
 10
9.120990444550898
 20
22.72417278156759
 11
8.671067702879398
 21
22.96281293094229
 72
     1
 10
8.671067702879398
 20
22.96281293094229
 11
8.45010519971332
 21
23.51703728417019
 72
     1
 10
8.45010519971332
 20
23.51703728417019
 11
7.926874594188888
 21
23.54532474788108
 72
     1
 10
7.926874594188888
 20
23.54532474788108
 11
7.581307293690713
 21
23.98516385655618
 72
     1
 10
7.581307293690713
 20
23.98516385655618
 11
7.023602855726565
 21
23.95955172480798
 72
     1
 10
7.023602855726565
 20
23.95955172480798
 11
6.674921511887404
 21
24.24561307524108
 72
     1
 10
6.674921511887404
 20
24.24561307524108
 11
6.161658805682961
 21
24.06354516180729
 72
     1
 10
6.161658805682961
 20
24.06354516180729
 11
6.144422562333318
 21
24.08473519052238
 72
     1
 10
6.144422562333318
 20
24.08473519052238
 11
5.688061798473754
 21
24.27503096090808
 72
     1
 10
5.688061798473754
 20
24.27503096090808
 11
5.324115721006037
 21
24.00820562409459
 72
     1
 10
5.324115721006037
 20
24.00820562409459
 11
4.768489106256424
 21
24.06395695837699
 72
     1
 10
4.768489106256424
 20
24.06395695837699
 11
4.398935328442178
 21
23.6436606921382
 72
     1
 10
4.398935328442178
 20
23.6436606921382
 11
3.874874401076183
 21
23.6436606921382
 72
     1
 10
3.874874401076183
 20
23.6436606921382
 11
3.623487398406012
 21
23.10219395812919
 72
     1
 10
3.623487398406012
 20
23.10219395812919
 11
3.161104446149366
 21
22.88813510333787
 72
     1
 10
3.161104446149366
 20
22.88813510333787
 11
3.010438039767493
 21
22.34975280638038
 72
     1
 10
3.010438039767493
 20
22.34975280638038
 11
2.65469559592401
 21
22.07284787379179
 72
     1
 10
2.65469559592401
 20
22.07284787379179
 11
2.65469559592401
 21
21.52438328957828
 72
     1
 10
2.65469559592401
 20
21.52438328957828
 11
2.336437405848542
 21
21.16446770468019
 72
     1
 10
2.336437405848542
 20
21.16446770468019
 11
2.485857656597843
 21
20.63914985575829
 72
     1
 10
2.485857656597843
 20
20.63914985575829
 11
2.290542274430976
 21
20.14407079416188
 72
     1
 10
2.290542274430976
 20
20.14407079416188
 11
2.60921495255701
 21
19.76553823623928
 72
     1
 10
2.60921495255701
 20
19.76553823623928
 11
2.543487644512069
 21
19.17366544891169
 72
     1
 10
2.543487644512069
 20
19.17366544891169
 11
2.968695863298165
 21
18.89418746063249
 72
     1
 10
2.968695863298165
 20
18.89418746063249
 11
2.978042030542312
 21
18.36629924750077
 72
     1
 10
2.978042030542312
 20
18.36629924750077
 11
3.510410213545227
 21
18.16386489849138
 72
     1
 10
3.510410213545227
 20
18.16386489849138
 11
3.707802073186229
 21
17.64461364740049
 72
     1
 10
3.707802073186229
 20
17.64461364740049
 11
4.232901912159505
 21
17.57075941293537
 72
     1
 10
4.232901912159505
 20
17.57075941293537
 11
4.516479025769953
 21
17.17977875609139
 72
     1
 10
4.516479025769953
 20
17.17977875609139
 11
5.028079742550843
 21
17.17977875609139
 72
     1
 10
5.028079742550843
 20
17.17977875609139
 11
5.469383016807114
 21
16.92046265084349
 72
     1
 10
5.469383016807114
 20
16.92046265084349
 11
5.930312569405941
 21
17.04451569460178
 97
        0
 75
     2
 76
     1
 98
        0
450
        0
451
        0
460
0.0
461
0.0
452
        0
462
0.0
453
        0
470

  0
SPLINE
  5
497
330
1F
100
AcDbEntity
  8
Livello 1
370
     0
100
AcDbSpline
210
0.0
220
0.0
230
1.0
 70
     9
 71
     3
 72
    38
 73
    34
 74
     0
 42
0.000000001
 43
0.0000000001
 40
0.0
 40
0.0
 40
0.0
 40
0.0
 40
1.0
 40
1.0
 40
1.0
 40
2.0
 40
2.0
 40
2.0
 40
3.0
 40
3.0
 40
3.0
 40
4.0
 40
4.0
 40
4.0
 40
5.0
 40
5.0
 40
5.0
 40
6.0
 40
6.0
 40
6.0
 40
7.0
 40
7.0
 40
7.0
 40
8.0
 40
8.0
 40
8.0
 40
9.0
 40
9.0
 40
9.0
 40
10.0
 40
10.0
 40
10.0
 40
11.0
 40
11.0
 40
11.0
 40
11.0
 10
10.22077499364819
 20
0.2338506403808935
 30
0.0
 10
10.22077499364819
 20
0.2338506403808935
 30
0.0
 10
1.841507440930072
 20
0.2338506403808935
 30
0.0
 10
1.841507440930072
 20
0.2338506403808935
 30
0.0
 10
1.408511422310709
 20
0.2338506403808935
 30
0.0
 10
0.511989917815086
 20
1.819271471029082
 30
0.0
 10
0.5074197833354362
 20
2.172603693773282
 30
0.0
 10
0.3743018320815565
 20
2.780315845890498
 30
0.0
 10
0.487794850733323
 20
3.27230777895437
 30
0.0
 10
0.5076283731011415
 20
3.349865491066083
 30
0.0
 10
0.5248646164507989
 20
3.690135957255677
 30
0.0
 10
1.411937677430003
 20
5.800566462268676
 30
0.0
 10
1.841507440930072
 20
5.800566462268676
 30
0.0
 10
1.923226182432529
 20
5.800772360553565
 30
0.0
 10
2.105874109989017
 20
5.801080535110571
 30
0.0
 10
2.406065734873266
 20
5.801080535110571
 30
0.0
 10
3.07476953448365
 20
5.801080535110571
 30
0.0
 10
4.246769486718847
 20
5.799126520015079
 30
0.0
 10
6.031401618061167
 20
5.789457375069162
 30
0.0
 10
7.822368149578878
 20
5.799126520015079
 30
0.0
 10
9.006098921089446
 20
5.801080535110571
 30
0.0
 10
9.683525810127719
 20
5.801080535110571
 30
0.0
 10
10.0054188450882
 20
5.801080535110571
 30
0.0
 10
10.17861832912831
 20
5.800566462268676
 30
0.0
 10
10.21412972743486
 20
5.800566462268676
 30
0.0
 10
10.65024382661649
 20
5.800566462268676
 30
0.0
 10
11.53721057410251
 20
3.69034050980008
 30
0.0
 10
11.55465675295828
 20
3.349865491066083
 30
0.0
 10
11.57459255159833
 20
3.27230777895437
 30
0.0
 10
11.68829146853497
 20
2.781241715302172
 30
0.0
 10
11.55392736164853
 20
2.162524097998073
 30
0.0
 10
11.55019158623169
 20
1.819271471029082
 30
0.0
 10
10.65356511398272
 20
0.2338506403808935
 30
0.0
 10
10.22077499364819
 20
0.2338506403808935
 30
0.0
  0
SPLINE
  5
498
330
1F
100
AcDbEntity
  8
Livello 1
370
     0
100
AcDbSpline
210
0.0
220
0.0
230
1.0
 70
     9
 71
     3
 72
    44
 73
    40
 74
     0
 42
0.000000001
 43
0.0000000001
 40
0.0
 40
0.0
 40
0.0
 40
0.0
 40
1.0
 40
1.0
 40
1.0
 40
2.0
 40
2.0
 40
2.0
 40
3.0
 40
3.0
 40
3.0
 40
4.0
 40
4.0
 40
4.0
 40
5.0
 40
5.0
 40
5.0
 40
6.0
 40
6.0
 40
6.0
 40
7.0
 40
7.0
 40
7.0
 40
8.0
 40
8.0
 40
8.0
 40
9.0
 40
9.0
 40
9.0
 40
10.0
 40
10.0
 40
10.0
 40
11.0
 40
11.0
 40
11.0
 40
12.0
 40
12.0
 40
12.0
 40
13.0
 40
13.0
 40
13.0
 40
13.0
 10
2.406065734873266
 20
5.698218865807888
 30
0.0
 10
2.106082699754708
 20
5.698218865807888
 30
0.0
 10
1.923538394210879
 20
5.697909345510367
 30
0.0
 10
1.84898437472539
 20
5.697703447225478
 30
0.0
 10
1.529790895055299
 20
5.697703447225478
 30
0.0
 10
0.6181096246841662
 20
3.722229174885484
 30
0.0
 10
0.6112571144455359
 20
3.341637634114164
 30
0.0
 10
0.6112571144455359
 20
3.341637634114164
 30
0.0
 10
0.6094915030093518
 20
3.329396779218171
 30
0.0
 10
0.6094915030093518
 20
3.329396779218171
 30
0.0
 10
0.5955778927663858
 20
3.276627605715162
 30
0.0
 10
0.477100251584389
 20
2.796054280148268
 30
0.0
 10
0.6101145808256377
 20
2.18412457754249
 30
0.0
 10
0.6155136914064201
 20
1.837786167781388
 30
0.0
 10
1.504351018081408
 20
0.3367136554240915
 30
0.0
 10
1.841507440930072
 20
0.3367136554240915
 30
0.0
 10
1.841507440930072
 20
0.3367136554240915
 30
0.0
 10
10.22077499364819
 20
0.3367136554240915
 30
0.0
 10
10.22077499364819
 20
0.3367136554240915
 30
0.0
 10
10.55772417247156
 20
0.3367136554240915
 30
0.0
 10
11.44666646689991
 20
1.837786167781388
 30
0.0
 10
11.45113163362653
 20
2.17404363602688
 30
0.0
 10
11.58788308402501
 20
2.807677440189792
 30
0.0
 10
11.45839863191572
 20
3.308412648787879
 30
0.0
 10
11.45279227730965
 20
3.329396779218171
 30
0.0
 10
11.45279227730965
 20
3.329396779218171
 30
0.0
 10
11.45102666587345
 20
3.341637634114164
 30
0.0
 10
11.45102666587345
 20
3.341637634114164
 30
0.0
 10
11.44417415563485
 20
3.722229174885484
 30
0.0
 10
10.53259650727604
 20
5.697703447225478
 30
0.0
 10
10.22077499364819
 20
5.697703447225478
 30
0.0
 10
10.17851336137524
 20
5.697703447225478
 30
0.0
 10
10.00531656881601
 20
5.698218865807888
 30
0.0
 10
9.683525810127719
 20
5.698218865807888
 30
0.0
 10
9.006203888842534
 20
5.698218865807888
 30
0.0
 10
7.822680361357242
 20
5.696263504971881
 30
0.0
 10
6.031401618061167
 20
5.686594360025992
 30
0.0
 10
4.24645727494051
 20
5.696263504971881
 30
0.0
 10
3.074665912471019
 20
5.698218865807888
 30
0.0
 10
2.406065734873266
 20
5.698218865807888
 30
0.0
  0
SPLINE
  5
499
330
1F
100
AcDbEntity
  8
Livello 1
370
     0
100
AcDbSpline
210
0.0
220
0.0
230
1.0
 70
     9
 71
     3
 72
    23
 73
    19
 74
     0
 42
0.000000001
 43
0.0000000001
 40
0.0
 40
0.0
 40
0.0
 40
0.0
 40
1.0
 40
1.0
 40
1.0
 40
2.0
 40
2.0
 40
2.0
 40
3.0
 40
3.0
 40
3.0
 40
4.0
 40
4.0
 40
4.0
 40
5.0
 40
5.0
 40
5.0
 40
6.0
 40
6.0
 40
6.0
 40
6.0
 10
2.484958421485487
 20
0.2654916892282699
 30
0.0
 10
1.297382869583771
 20
1.865209666140174
 30
0.0
 10
1.367887556133638
 20
3.278643524870176
 30
0.0
 10
1.636096314102886
 20
4.182908419765368
 30
0.0
 10
1.928395171400822
 20
5.168640402703772
 30
0.0
 10
2.470732599464156
 20
5.732738453421973
 30
0.0
 10
2.476235332057598
 20
5.73839594616416
 30
0.0
 10
2.476235332057598
 20
5.73839594616416
 30
0.0
 10
2.550997941308793
 20
5.666906177623985
 30
0.0
 10
2.550997941308793
 20
5.666906177623985
 30
0.0
 10
2.545702452740641
 20
5.661558205179261
 30
0.0
 10
2.018421168540186
 20
5.107333851951381
 30
0.0
 10
1.7356757225117
 20
4.153900984927673
 30
0.0
 10
1.474112230755793
 20
3.272060162716371
 30
0.0
 10
1.406203477483657
 20
1.89215946386966
 30
0.0
 10
2.568546396436772
 20
0.3263850976704816
 30
0.0
 10
2.568546396436772
 20
0.3263850976704816
 30
0.0
 10
2.484958421485487
 20
0.2654916892282699
 30
0.0
 10
2.484958421485487
 20
0.2654916892282699
 30
0.0
  0
SPLINE
  5
49A
330
1F
100
AcDbEntity
  8
Livello 1
370
     0
100
AcDbSpline
210
0.0
220
0.0
230
1.0
 70
     9
 71
     3
 72
    23
 73
    19
 74
     0
 42
0.000000001
 43
0.0000000001
 40
0.0
 40
0.0
 40
0.0
 40
0.0
 40
1.0
 40
1.0
 40
1.0
 40
2.0
 40
2.0
 40
2.0
 40
3.0
 40
3.0
 40
3.0
 40
4.0
 40
4.0
 40
4.0
 40
5.0
 40
5.0
 40
5.0
 40
6.0
 40
6.0
 40
6.0
 40
6.0
 10
3.506999826801802
 20
0.2699137922612635
 30
0.0
 10
2.533950101618501
 20
1.800507812298292
 30
0.0
 10
2.611205022134782
 20
3.203348002411189
 30
0.0
 10
2.847327291176384
 20
4.110595058085777
 30
0.0
 10
3.103075838560513
 20
5.092829461662375
 30
0.0
 10
3.58518734543189
 20
5.710108482453279
 30
0.0
 10
3.58985975618377
 20
5.715662353182779
 30
0.0
 10
3.58985975618377
 20
5.715662353182779
 30
0.0
 10
3.669710609977812
 20
5.65003597566968
 30
0.0
 10
3.669710609977812
 20
5.65003597566968
 30
0.0
 10
3.665557655029573
 20
5.644790279497158
 30
0.0
 10
3.196736680584876
 20
5.040266186444171
 30
0.0
 10
2.947945611192466
 20
4.084879304324999
 30
0.0
 10
2.716910240953325
 20
3.197175091086592
 30
0.0
 10
2.641524553885844
 20
1.824269550963492
 30
0.0
 10
3.594844378713972
 20
0.3248415334041681
 30
0.0
 10
3.594844378713972
 20
0.3248415334041681
 30
0.0
 10
3.506999826801802
 20
0.2699137922612635
 30
0.0
 10
3.506999826801802
 20
0.2699137922612635
 30
0.0
  0
SPLINE
  5
49B
330
1F
100
AcDbEntity
  8
Livello 1
370
     0
100
AcDbSpline
210
0.0
220
0.0
230
1.0
 70
     9
 71
     3
 72
    23
 73
    19
 74
     0
 42
0.000000001
 43
0.0000000001
 40
0.0
 40
0.0
 40
0.0
 40
0.0
 40
1.0
 40
1.0
 40
1.0
 40
2.0
 40
2.0
 40
2.0
 40
3.0
 40
3.0
 40
3.0
 40
4.0
 40
4.0
 40
4.0
 40
5.0
 40
5.0
 40
5.0
 40
6.0
 40
6.0
 40
6.0
 40
6.0
 10
9.602913267253725
 20
0.2516224884192582
 30
0.0
 10
9.602913267253725
 20
0.2516224884192582
 30
0.0
 10
9.51932394656201
 20
0.3125158968614698
 30
0.0
 10
9.51932394656201
 20
0.3125158968614698
 30
0.0
 10
10.67782343086439
 20
1.872838668603378
 30
0.0
 10
10.51324475997998
 20
3.238852672015582
 30
0.0
 10
10.1713109586264
 20
4.109996203597063
 30
0.0
 10
9.800303781154312
 20
5.054788071358785
 30
0.0
 10
9.146758401679022
 20
5.637299888297576
 30
0.0
 10
9.140218103218757
 20
5.643161933584167
 30
0.0
 10
9.140218103218757
 20
5.643161933584167
 30
0.0
 10
9.208853556319809
 20
5.720412816879274
 30
0.0
 10
9.208853556319809
 20
5.720412816879274
 30
0.0
 10
9.215603790286223
 20
5.714343527567365
 30
0.0
 10
9.890433400306307
 20
5.109305361672483
 30
0.0
 10
10.26798356771952
 20
4.147335117399364
 30
0.0
 10
10.61946943460211
 20
3.252123018335879
 30
0.0
 10
10.78934493979511
 20
1.84938645023567
 30
0.0
 10
9.602913267253725
 20
0.2516224884192582
 30
0.0
  0
SPLINE
  5
49C
330
1F
100
AcDbEntity
  8
Livello 1
370
     0
100
AcDbSpline
210
0.0
220
0.0
230
1.0
 70
     9
 71
     3
 72
    23
 73
    19
 74
     0
 42
0.000000001
 43
0.0000000001
 40
0.0
 40
0.0
 40
0.0
 40
0.0
 40
1.0
 40
1.0
 40
1.0
 40
2.0
 40
2.0
 40
2.0
 40
3.0
 40
3.0
 40
3.0
 40
4.0
 40
4.0
 40
4.0
 40
5.0
 40
5.0
 40
5.0
 40
6.0
 40
6.0
 40
6.0
 40
6.0
 10
8.57296967416812
 20
0.2590617414826681
 30
0.0
 10
8.57296967416812
 20
0.2590617414826681
 30
0.0
 10
8.485123776515536
 20
0.3137835843407686
 30
0.0
 10
8.485123776515536
 20
0.3137835843407686
 30
0.0
 10
9.438547223356295
 20
1.813417500184982
 30
0.0
 10
9.35039045966576
 20
3.186117142023164
 30
0.0
 10
9.108555522524625
 20
4.07371907898937
 30
0.0
 10
8.847615108585017
 20
5.032295365913284
 30
0.0
 10
8.353562846932106
 20
5.649675317235988
 30
0.0
 10
8.348579570142334
 20
5.655950504832787
 30
0.0
 10
8.348579570142334
 20
5.655950504832787
 30
0.0
 10
8.429467989803228
 20
5.720445114649493
 30
0.0
 10
8.429467989803228
 20
5.720445114649493
 30
0.0
 10
8.43455488860566
 20
5.714067650780492
 30
0.0
 10
8.940860116818399
 20
5.084651397106171
 30
0.0
 10
9.208756663009282
 20
4.100360702161765
 30
0.0
 10
9.455990710731214
 20
3.193010024474574
 30
0.0
 10
9.546432541661559
 20
1.790169834361677
 30
0.0
 10
8.57296967416812
 20
0.2590617414826681
 30
0.0
  0
SPLINE
  5
49D
330
1F
100
AcDbEntity
  8
Livello 1
370
     0
100
AcDbSpline
210
0.0
220
0.0
230
1.0
 70
     9
 71
     3
 72
    17
 73
    13
 74
     0
 42
0.000000001
 43
0.0000000001
 40
0.0
 40
0.0
 40
0.0
 40
0.0
 40
1.0
 40
1.0
 40
1.0
 40
2.0
 40
2.0
 40
2.0
 40
3.0
 40
3.0
 40
3.0
 40
4.0
 40
4.0
 40
4.0
 40
4.0
 10
4.579942517912684
 20
0.2655912740195845
 30
0.0
 10
3.755793587675086
 20
2.826765422362797
 30
0.0
 10
4.765497244784839
 20
5.625552920137181
 30
0.0
 10
4.775880977895852
 20
5.653530863550571
 30
0.0
 10
4.775880977895852
 20
5.653530863550571
 30
0.0
 10
4.873382563090117
 20
5.618351863128793
 30
0.0
 10
4.873382563090117
 20
5.618351863128793
 30
0.0
 10
4.863311041757455
 20
5.590579818000179
 30
0.0
 10
3.865444517416534
 20
2.824913683539364
 30
0.0
 10
4.678897502764783
 20
0.2966550002250585
 30
0.0
 10
4.678897502764783
 20
0.2966550002250585
 30
0.0
 10
4.579942517912684
 20
0.2655912740195845
 30
0.0
 10
4.579942517912684
 20
0.2655912740195845
 30
0.0
  0
SPLINE
  5
49E
330
1F
100
AcDbEntity
  8
Livello 1
370
     0
100
AcDbSpline
210
0.0
220
0.0
230
1.0
 70
     9
 71
     3
 72
    17
 73
    13
 74
     0
 42
0.000000001
 43
0.0000000001
 40
0.0
 40
0.0
 40
0.0
 40
0.0
 40
1.0
 40
1.0
 40
1.0
 40
2.0
 40
2.0
 40
2.0
 40
3.0
 40
3.0
 40
3.0
 40
4.0
 40
4.0
 40
4.0
 40
4.0
 10
7.504290288720227
 20
0.2875833640273981
 30
0.0
 10
7.504290288720227
 20
0.2875833640273981
 30
0.0
 10
7.405333958127684
 20
0.3189552647899916
 30
0.0
 10
7.405333958127684
 20
0.3189552647899916
 30
0.0
 10
8.316392150682901
 20
3.137183328728383
 30
0.0
 10
7.265154906869469
 20
5.617509429623368
 30
0.0
 10
7.254563929733166
 20
5.642297968232071
 30
0.0
 10
7.254563929733166
 20
5.642297968232071
 30
0.0
 10
7.349885415440681
 20
5.682724010566801
 30
0.0
 10
7.349885415440681
 20
5.682724010566801
 30
0.0
 10
7.36078860435532
 20
5.65783050420498
 30
0.0
 10
8.427081992031602
 20
3.142018574071585
 30
0.0
 10
7.504290288720227
 20
0.2875833640273981
 30
0.0
  0
SPLINE
  5
49F
330
1F
100
AcDbEntity
  8
Livello 1
370
     0
100
AcDbSpline
210
0.0
220
0.0
230
1.0
 70
     9
 71
     3
 72
    17
 73
    13
 74
     0
 42
0.000000001
 43
0.0000000001
 40
0.0
 40
0.0
 40
0.0
 40
0.0
 40
1.0
 40
1.0
 40
1.0
 40
2.0
 40
2.0
 40
2.0
 40
3.0
 40
3.0
 40
3.0
 40
4.0
 40
4.0
 40
4.0
 40
4.0
 10
5.690598238663667
 20
0.2882939149712627
 30
0.0
 10
5.446063746232113
 20
2.666063829639654
 30
0.0
 10
5.975732373944609
 20
5.679731083863998
 30
0.0
 10
5.981131484525405
 20
5.709972562670486
 30
0.0
 10
5.981131484525405
 20
5.709972562670486
 30
0.0
 10
6.083305480471537
 20
5.692074215032192
 30
0.0
 10
6.083305480471537
 20
5.692074215032192
 30
0.0
 10
6.077906369890754
 20
5.662038634510565
 30
0.0
 10
5.550730053443388
 20
2.662360351992987
 30
0.0
 10
5.79381114621708
 20
0.2986830310439927
 30
0.0
 10
5.79381114621708
 20
0.2986830310439927
 30
0.0
 10
5.690598238663667
 20
0.2882939149712627
 30
0.0
 10
5.690598238663667
 20
0.2882939149712627
 30
0.0
  0
SPLINE
  5
4A0
330
1F
100
AcDbEntity
  8
Livello 1
370
     0
100
AcDbSpline
210
0.0
220
0.0
230
1.0
 70
     9
 71
     3
 72
    20
 73
    16
 74
     0
 42
0.000000001
 43
0.0000000001
 40
0.0
 40
0.0
 40
0.0
 40
0.0
 40
1.0
 40
1.0
 40
1.0
 40
2.0
 40
2.0
 40
2.0
 40
3.0
 40
3.0
 40
3.0
 40
4.0
 40
4.0
 40
4.0
 40
5.0
 40
5.0
 40
5.0
 40
5.0
 10
6.374761904264119
 20
0.2775441404648973
 30
0.0
 10
6.374761904264119
 20
0.2775441404648973
 30
0.0
 10
6.276012817696866
 20
0.3094314598099004
 30
0.0
 10
6.276012817696866
 20
0.3094314598099004
 30
0.0
 10
6.716694359877294
 20
1.648803840049566
 30
0.0
 10
6.43405119012101
 20
5.206510883973493
 30
0.0
 10
6.4004090252633
 20
5.607880656890159
 30
0.0
 10
6.4004090252633
 20
5.607880656890159
 30
0.0
 10
6.451599645249018
 20
5.61796159840577
 30
0.0
 10
6.451599645249018
 20
5.61796159840577
 30
0.0
 10
6.451599645249018
 20
5.61796159840577
 30
0.0
 10
6.503311066778763
 20
5.621870974337269
 30
0.0
 10
6.503311066778763
 20
5.621870974337269
 30
0.0
 10
6.537679931465405
 20
5.212888347842493
 30
0.0
 10
6.821776500879522
 20
1.636152534324168
 30
0.0
 10
6.374761904264119
 20
0.2775441404648973
 30
0.0
  0
ENDSEC
  0
SECTION
  2
OBJECTS
  0
DICTIONARY
  5
C
330
0
100
AcDbDictionary
281
     1
  3
ACAD_CIP_PREVIOUS_PRODUCT_INFO
350
216
  3
ACAD_COLOR
350
6B
  3
ACAD_DETAILVIEWSTYLE
350
21B
  3
ACAD_GROUP
350
D
  3
ACAD_LAYOUT
350
1A
  3
ACAD_MATERIAL
350
6A
  3
ACAD_MLEADERSTYLE
350
12D
  3
ACAD_MLINESTYLE
350
17
  3
ACAD_PLOTSETTINGS
350
19
  3
ACAD_PLOTSTYLENAME
350
E
  3
ACAD_SCALELIST
350
10C
  3
ACAD_SECTIONVIEWSTYLE
350
219
  3
ACAD_TABLESTYLE
350
7E
  3
ACAD_VISUALSTYLE
350
EF
  3
ACDB_RECOMPOSE_DATA
350
4A2
  3
AcDbVariableDictionary
350
5E
  3
AcDsDecomposeData
350
4A8
  0
DICTIONARY
  5
1FF
330
2
100
AcDbDictionary
280
     1
281
     1
  3
ACAD_LAYERSTATES
360
200
  0
DICTIONARY
  5
13C
330
10
100
AcDbDictionary
280
     1
281
     1
  0
DICTIONARY
  5
1CE
330
1F
100
AcDbDictionary
280
     1
281
     1
  0
XRECORD
  5
216
102
{ACAD_REACTORS
330
C
102
}
330
C
100
AcDbXrecord
280
     1
300
ACD
300
2020
300

  0
DICTIONARY
  5
6B
102
{ACAD_REACTORS
330
C
102
}
330
C
100
AcDbDictionary
281
     1
  0
DICTIONARY
  5
21B
102
{ACAD_REACTORS
330
C
102
}
330
C
100
AcDbDictionary
281
     1
  3
Imperial24
350
28E
  3
Metric50
350
21C
  0
DICTIONARY
  5
D
102
{ACAD_REACTORS
330
C
102
}
330
C
100
AcDbDictionary
281
     1
  0
DICTIONARY
  5
1A
102
{ACAD_REACTORS
330
C
102
}
330
C
100
AcDbDictionary
281
     1
  3
Layout1
350
D3
  3
Layout2
350
D7
  3
Model
350
22
  0
DICTIONARY
  5
6A
102
{ACAD_REACTORS
330
C
102
}
330
C
100
AcDbDictionary
281
     1
  3
ByBlock
350
ED
  3
ByLayer
350
EC
  3
Global
350
EE
  0
DICTIONARY
  5
12D
102
{ACAD_REACTORS
330
C
102
}
330
C
100
AcDbDictionary
281
     1
  3
Annotativa
350
13B
  3
Standard
350
12E
  0
DICTIONARY
  5
17
102
{ACAD_REACTORS
330
C
102
}
330
C
100
AcDbDictionary
281
     1
  3
Standard
350
18
  0
DICTIONARY
  5
19
102
{ACAD_REACTORS
330
C
102
}
330
C
100
AcDbDictionary
281
     1
  0
ACDBDICTIONARYWDFLT
  5
E
102
{ACAD_REACTORS
330
C
102
}
330
C
100
AcDbDictionary
281
     1
  3
Normal
350
F
100
AcDbDictionaryWithDefault
340
F
  0
DICTIONARY
  5
10C
102
{ACAD_REACTORS
330
C
102
}
330
C
100
AcDbDictionary
281
     1
  3
A0
350
10D
  3
A1
350
1BE
  3
A2
350
1BF
  3
A3
350
1C0
  3
A4
350
1C1
  3
A5
350
1C2
  3
A6
350
1C3
  3
A7
350
1C4
  3
A8
350
1C5
  3
A9
350
1C6
  3
B0
350
1C7
  3
B1
350
1C8
  3
B2
350
1C9
  3
B3
350
1CA
  3
B4
350
1CB
  3
B5
350
1CC
  3
B6
350
1CD
  0
DICTIONARY
  5
219
102
{ACAD_REACTORS
330
C
102
}
330
C
100
AcDbDictionary
281
     1
  3
Imperial24
350
28D
  3
Metric50
350
21A
  0
DICTIONARY
  5
7E
102
{ACAD_REACTORS
330
C
102
}
330
C
100
AcDbDictionary
281
     1
  3
Standard
350
7F
  0
DICTIONARY
  5
EF
102
{ACAD_REACTORS
330
C
102
}
330
C
100
AcDbDictionary
281
     1
  3
2dWireframe
350
F5
  3
Basic
350
F4
  3
Brighten
350
FB
  3
ColorChange
350
FF
  3
Conceptual
350
F8
  3
Dim
350
FA
  3
EdgeColorOff
350
1E6
  3
Facepattern
350
FE
  3
Flat
350
F0
  3
FlatWithEdges
350
F1
  3
Gouraud
350
F2
  3
GouraudWithEdges
350
F3
  3
Hidden
350
F7
  3
JitterOff
350
1E4
  3
Linepattern
350
FD
  3
OverhangOff
350
1E5
  3
Realistic
350
F9
  3
Shaded
350
1F3
  3
Shaded with edges
350
1F2
  3
Shades of Gray
350
1EF
  3
Sketchy
350
1F0
  3
Thicken
350
FC
  3
Wireframe
350
F6
  3
X-Ray
350
1F1
  0
XRECORD
  5
4A2
102
{ACAD_REACTORS
330
C
102
}
330
C
100
AcDbXrecord
280
     1
 90
        1
330
7F
  0
DICTIONARY
  5
5E
102
{ACAD_REACTORS
330
C
102
}
330
C
100
AcDbDictionary
281
     1
  3
CANNOSCALE
350
146
  3
CENTEREXE
350
259
  3
CENTERLTYPEFILE
350
25A
  3
CMLEADERSTYLE
350
145
  3
CTABLESTYLE
350
84
  3
CVIEWDETAILSTYLE
350
227
  3
CVIEWSECTIONSTYLE
350
228
  3
DIMASSOC
350
5F
  3
HIDETEXT
350
63
  3
LAYEREVAL
350
1AE
  3
LAYERNOTIFY
350
1AF
  0
DICTIONARY
  5
4A8
102
{ACAD_REACTORS
330
C
102
}
330
C
100
AcDbDictionary
281
     1
  3
AcDsRecords
350
4AA
  3
AcDsSchemas
350
4A9
1001
ACAD
1070
     2
  0
DICTIONARY
  5
200
102
{ACAD_REACTORS
330
1FF
102
}
330
1FF
100
AcDbDictionary
281
     1
  0
ACDBDETAILVIEWSTYLE
  5
28E
102
{ACAD_XDICTIONARY
360
4B1
102
}
102
{ACAD_REACTORS
330
21B
102
}
330
21B
100
AcDbModelDocViewStyle
 70
     0
  3
Imperial24
290
     0
100
AcDbDetailViewStyle
 70
     0
 71
     0
 90
        3
 71
     1
340
11
 62
   256
 40
0.24
340
0
 62
   256
 40
0.24
300

 40
0.36
280
     3
 71
     2
340
16
 90
       25
 62
   256
 71
     3
340
11
 62
   256
 40
0.24
 90
        1
 40
0.75
 90
        1
300
%<\AcVar ViewType \f "%tc1">% %<\AcVar ViewDetailId>%\PSCALA %<\AcVar ViewScale \f "%sn">%
 71
     4
340
16
 90
       25
 62
   256
340
16
 90
       25
 62
   256
280
     0
  0
ACDBDETAILVIEWSTYLE
  5
21C
102
{ACAD_XDICTIONARY
360
4AD
102
}
102
{ACAD_REACTORS
330
21B
102
}
330
21B
100
AcDbModelDocViewStyle
 70
     0
  3
Metric50
290
     0
100
AcDbDetailViewStyle
 70
     0
 71
     0
 90
        3
 71
     1
340
11
 62
   256
 40
5.0
340
0
 62
   256
 40
5.0
300

 40
0.0
280
     1
 71
     2
340
16
 90
       25
 62
   256
 71
     3
340
11
 62
   256
 40
5.0
 90
        0
 40
15.0
 90
        1
300
%<\AcVar ViewDetailId>% (%<\AcVar ViewScale \f "%sn">%)
 71
     4
340
16
 90
       25
 62
   256
340
16
 90
       25
 62
   256
280
     0
  0
LAYOUT
  5
D3
102
{ACAD_REACTORS
330
1A
102
}
330
1A
100
AcDbPlotSettings
  1

  2
C:\Documents and Settings\basas\Application Data\Autodesk\AutoCAD 2005\R16.1\enu\plotters\Default Windows System Printer.pc3
  4

  6

 40
0.0
 41
0.0
 42
0.0
 43
0.0
 44
0.0
 45
0.0
 46
0.0
 47
0.0
 48
0.0
 49
0.0
140
0.0
141
0.0
142
1.0
143
1.0
 70
   688
 72
     0
 73
     0
 74
     5
  7

 75
    16
147
1.0
 76
     0
 77
     2
 78
   300
148
0.0
149
0.0
100
AcDbLayout
  1
Layout1
 70
     1
 71
     1
 10
0.0
 20
0.0
 11
12.0
 21
9.0
 12
0.0
 22
0.0
 32
0.0
 14
0.0
 24
0.0
 34
0.0
 15
0.0
 25
0.0
 35
0.0
146
0.0
 13
0.0
 23
0.0
 33
0.0
 16
1.0
 26
0.0
 36
0.0
 17
0.0
 27
1.0
 37
0.0
 76
     0
330
D2
  0
LAYOUT
  5
D7
102
{ACAD_REACTORS
330
1A
102
}
330
1A
100
AcDbPlotSettings
  1

  2
C:\Documents and Settings\basas\Application Data\Autodesk\AutoCAD 2005\R16.1\enu\plotters\Default Windows System Printer.pc3
  4

  6

 40
0.0
 41
0.0
 42
0.0
 43
0.0
 44
0.0
 45
0.0
 46
0.0
 47
0.0
 48
0.0
 49
0.0
140
0.0
141
0.0
142
1.0
143
1.0
 70
   688
 72
     0
 73
     0
 74
     5
  7

 75
    16
147
1.0
 76
     0
 77
     2
 78
   300
148
0.0
149
0.0
100
AcDbLayout
  1
Layout2
 70
     1
 71
     2
 10
0.0
 20
0.0
 11
12.0
 21
9.0
 12
0.0
 22
0.0
 32
0.0
 14
0.0
 24
0.0
 34
0.0
 15
0.0
 25
0.0
 35
0.0
146
0.0
 13
0.0
 23
0.0
 33
0.0
 16
1.0
 26
0.0
 36
0.0
 17
0.0
 27
1.0
 37
0.0
 76
     0
330
D6
  0
LAYOUT
  5
22
102
{ACAD_XDICTIONARY
360
205
102
}
102
{ACAD_REACTORS
330
1A
102
}
330
1A
100
AcDbPlotSettings
  1

  2
none_device
  4
ISO_A4_(210.00_x_297.00_MM)
  6

 40
7.5
 41
20.0
 42
7.5
 43
20.0
 44
210.0
 45
297.0
 46
11.54999923706054
 47
-13.65000009536743
 48
0.0
 49
0.0
140
0.0
141
0.0
142
1.0
143
8.704084754739808
 70
 11952
 72
     1
 73
     0
 74
     0
  7

 75
     0
147
0.1148885871608098
 76
     0
 77
     2
 78
   300
148
0.0
149
0.0
100
AcDbLayout
  1
Model
 70
     1
 71
     0
 10
0.0
 20
0.0
 11
12.0
 21
9.0
 12
0.0
 22
0.0
 32
0.0
 14
0.0
 24
0.0
 34
0.0
 15
0.0
 25
0.0
 35
0.0
146
0.0
 13
0.0
 23
0.0
 33
0.0
 16
1.0
 26
0.0
 36
0.0
 17
0.0
 27
1.0
 37
0.0
 76
     0
330
1F
331
EA
1001
ACAD_PSEXT
1000
None
1000
None
1000
Not applicable
1000
The layout will not be plotted unless a new plotter configuration name is selected.
1070
     0
  0
MATERIAL
  5
ED
102
{ACAD_XDICTIONARY
360
1F9
102
}
102
{ACAD_REACTORS
330
6A
102
}
330
6A
100
AcDbMaterial
  1
ByBlock
 94
       63
  0
MATERIAL
  5
EC
102
{ACAD_XDICTIONARY
360
1F7
102
}
102
{ACAD_REACTORS
330
6A
102
}
330
6A
100
AcDbMaterial
  1
ByLayer
 94
       63
  0
MATERIAL
  5
EE
102
{ACAD_XDICTIONARY
360
173
102
}
102
{ACAD_REACTORS
330
6A
102
}
330
6A
100
AcDbMaterial
  1
Global
 43
0.0007999999797903
 43
0.0
 43
0.0
 43
0.0
 43
0.0
 43
0.0007999999797903
 43
0.0
 43
0.0
 43
0.0
 43
0.0
 43
1.0
 43
0.0
 43
0.0
 43
0.0
 43
0.0
 43
1.0
 49
0.0007999999797903
 49
0.0
 49
0.0
 49
0.0
 49
0.0
 49
0.0007999999797903
 49
0.0
 49
0.0
 49
0.0
 49
0.0
 49
1.0
 49
0.0
 49
0.0
 49
0.0
 49
0.0
 49
1.0
142
0.0007999999797903
142
0.0
142
0.0
142
0.0
142
0.0
142
0.0007999999797903
142
0.0
142
0.0
142
0.0
142
0.0
142
1.0
142
0.0
142
0.0
142
0.0
142
0.0
142
1.0
144
0.0007999999797903
144
0.0
144
0.0
144
0.0
144
0.0
144
0.0007999999797903
144
0.0
144
0.0
144
0.0
144
0.0
144
1.0
144
0.0
144
0.0
144
0.0
144
0.0
144
1.0
 94
       63
1001
ACAD
1070
    -1
1070
     3
1070
     0
1000

1071
        0
1070
     0
  0
MLEADERSTYLE
  5
13B
102
{ACAD_REACTORS
330
12D
102
}
330
12D
100
AcDbMLeaderStyle
179
     2
170
     2
171
     1
172
     0
 90
        2
 40
0.0
 41
0.0
173
     1
 91
-1056964608
340
14
 92
       -2
290
     1
 42
2.0
291
     1
 43
8.0
  3
Standard
 44
4.0
300

342
11
174
     1
178
     1
175
     1
176
     0
 93
-1056964608
 45
4.0
292
     0
297
     0
 46
4.0
 94
-1056964608
 47
1.0
 49
1.0
140
1.0
293
     1
141
0.0
294
     1
177
     0
142
1.0
295
     0
296
     1
143
3.75
271
     0
272
     9
273
     9
298
     0
  0
MLEADERSTYLE
  5
12E
102
{ACAD_REACTORS
330
12D
102
}
330
12D
100
AcDbMLeaderStyle
179
     2
170
     2
171
     1
172
     0
 90
        2
 40
0.0
 41
0.0
173
     1
 91
-1056964608
340
14
 92
       -2
290
     1
 42
2.0
291
     1
 43
8.0
  3
Standard
 44
4.0
300

342
11
174
     1
178
     1
175
     1
176
     0
 93
-1056964608
 45
4.0
292
     0
297
     0
 46
4.0
 94
-1056964608
 47
1.0
 49
1.0
140
1.0
293
     1
141
0.0
294
     1
177
     0
142
1.0
295
     0
296
     0
143
3.75
271
     0
272
     9
273
     9
298
     0
  0
MLINESTYLE
  5
18
102
{ACAD_REACTORS
330
17
102
}
330
17
100
AcDbMlineStyle
  2
STANDARD
 70
     0
  3

 62
   256
 51
90.0
 52
90.0
 71
     2
 49
0.5
 62
   256
  6
BYLAYER
 49
-0.5
 62
   256
  6
BYLAYER
  0
ACDBPLACEHOLDER
  5
F
102
{ACAD_REACTORS
330
E
102
}
330
E
  0
SCALE
  5
10D
102
{ACAD_REACTORS
330
10C
102
}
330
10C
100
AcDbScale
 70
     0
300
1:1
140
1.0
141
1.0
290
     1
  0
SCALE
  5
1BE
102
{ACAD_REACTORS
330
10C
102
}
330
10C
100
AcDbScale
 70
     0
300
1:2
140
1.0
141
2.0
290
     0
  0
SCALE
  5
1BF
102
{ACAD_REACTORS
330
10C
102
}
330
10C
100
AcDbScale
 70
     0
300
1:4
140
1.0
141
4.0
290
     0
  0
SCALE
  5
1C0
102
{ACAD_REACTORS
330
10C
102
}
330
10C
100
AcDbScale
 70
     0
300
1:5
140
1.0
141
5.0
290
     0
  0
SCALE
  5
1C1
102
{ACAD_REACTORS
330
10C
102
}
330
10C
100
AcDbScale
 70
     0
300
1:8
140
1.0
141
8.0
290
     0
  0
SCALE
  5
1C2
102
{ACAD_REACTORS
330
10C
102
}
330
10C
100
AcDbScale
 70
     0
300
1:10
140
1.0
141
10.0
290
     0
  0
SCALE
  5
1C3
102
{ACAD_REACTORS
330
10C
102
}
330
10C
100
AcDbScale
 70
     0
300
1:16
140
1.0
141
16.0
290
     0
  0
SCALE
  5
1C4
102
{ACAD_REACTORS
330
10C
102
}
330
10C
100
AcDbScale
 70
     0
300
1:20
140
1.0
141
20.0
290
     0
  0
SCALE
  5
1C5
102
{ACAD_REACTORS
330
10C
102
}
330
10C
100
AcDbScale
 70
     0
300
1:30
140
1.0
141
30.0
290
     0
  0
SCALE
  5
1C6
102
{ACAD_REACTORS
330
10C
102
}
330
10C
100
AcDbScale
 70
     0
300
1:40
140
1.0
141
40.0
290
     0
  0
SCALE
  5
1C7
102
{ACAD_REACTORS
330
10C
102
}
330
10C
100
AcDbScale
 70
     0
300
1:50
140
1.0
141
50.0
290
     0
  0
SCALE
  5
1C8
102
{ACAD_REACTORS
330
10C
102
}
330
10C
100
AcDbScale
 70
     0
300
1:100
140
1.0
141
100.0
290
     0
  0
SCALE
  5
1C9
102
{ACAD_REACTORS
330
10C
102
}
330
10C
100
AcDbScale
 70
     0
300
2:1
140
2.0
141
1.0
290
     0
  0
SCALE
  5
1CA
102
{ACAD_REACTORS
330
10C
102
}
330
10C
100
AcDbScale
 70
     0
300
4:1
140
4.0
141
1.0
290
     0
  0
SCALE
  5
1CB
102
{ACAD_REACTORS
330
10C
102
}
330
10C
100
AcDbScale
 70
     0
300
8:1
140
8.0
141
1.0
290
     0
  0
SCALE
  5
1CC
102
{ACAD_REACTORS
330
10C
102
}
330
10C
100
AcDbScale
 70
     0
300
10:1
140
10.0
141
1.0
290
     0
  0
SCALE
  5
1CD
102
{ACAD_REACTORS
330
10C
102
}
330
10C
100
AcDbScale
 70
     0
300
100:1
140
100.0
141
1.0
290
     0
  0
ACDBSECTIONVIEWSTYLE
  5
28D
102
{ACAD_XDICTIONARY
360
4AF
102
}
102
{ACAD_REACTORS
330
219
102
}
330
219
100
AcDbModelDocViewStyle
 70
     0
  3
Imperial24
290
     0
100
AcDbSectionViewStyle
 70
     0
 71
     0
 90
       78
 71
     1
340
11
 62
   256
 40
0.24
340
0
340
0
 62
   256
 40
0.24
300
I, O, Q, S, X, Z
 40
0.48
 90
        3
 40
0.18
 90
        1
 71
     2
340
16
 90
       25
 62
   256
340
16
 90
       50
 62
   256
 40
0.24
 40
0.0
 40
0.24
 71
     3
340
11
 62
   256
 40
0.24
 90
        1
 40
0.75
 90
        1
300
%<\AcVar ViewType \f "%tc1">% %<\AcVar ViewSectionStartId>%-%<\AcVar ViewSectionEndId>%\PSCALA %<\AcVar ViewScale \f "%sn">%
 71
     4
 62
   256
 62
   257
300
ANSI31
 40
1.0
 90
        0
290
     0
290
     0
 90
        6
 40
0.0
 40
1.570796326794896
 40
0.2617993877991494
 40
1.308996938995747
 40
-0.2617993877991494
 40
1.832595714594046
  0
ACDBSECTIONVIEWSTYLE
  5
21A
102
{ACAD_XDICTIONARY
360
4AB
102
}
102
{ACAD_REACTORS
330
219
102
}
330
219
100
AcDbModelDocViewStyle
 70
     0
  3
Metric50
290
     0
100
AcDbSectionViewStyle
 70
     0
 71
     0
 90
      102
 71
     1
340
11
 62
   256
 40
5.0
340
0
340
0
 62
   256
 40
5.0
300
I, O, Q, S, X, Z
 40
10.0
 90
        0
 40
2.5
 90
        0
 71
     2
340
16
 90
       25
 62
   256
340
16
 90
       50
 62
   256
 40
5.0
 40
2.5
 40
5.0
 71
     3
340
11
 62
   256
 40
5.0
 90
        0
 40
15.0
 90
        1
300
%<\AcVar ViewSectionStartId>%-%<\AcVar ViewSectionEndId>% (%<\AcVar ViewScale \f "%sn">%)
 71
     4
 62
   256
 62
   257
300
ANSI31
 40
1.0
 90
        0
290
     0
290
     0
 90
        6
 40
0.0
 40
1.570796326794896
 40
0.2617993877991494
 40
1.308996938995747
 40
-0.2617993877991494
 40
1.832595714594046
  0
TABLESTYLE
  5
7F
102
{ACAD_XDICTIONARY
360
162
102
}
102
{ACAD_REACTORS
330
7E
102
}
330
7E
100
AcDbTableStyle
280
     0
  3
Standard
 70
     0
 71
     0
 40
1.5
 41
1.5
280
     0
281
     0
  7
Standard
140
4.5
170
     2
 62
     0
 63
     7
283
     0
 90
      512
 91
        0
  1

274
    -2
284
     1
 64
     0
275
    -2
285
     1
 65
     0
276
    -2
286
     1
 66
     0
277
    -2
287
     1
 67
     0
278
    -2
288
     1
 68
     0
279
    -2
289
     1
 69
     0
  7
Standard
140
6.0
170
     5
 62
     0
 63
     7
283
     0
 90
      512
 91
        0
  1

274
    -2
284
     1
 64
     0
275
    -2
285
     1
 65
     0
276
    -2
286
     1
 66
     0
277
    -2
287
     1
 67
     0
278
    -2
288
     1
 68
     0
279
    -2
289
     1
 69
     0
  7
Standard
140
4.5
170
     5
 62
     0
 63
     7
283
     0
 90
      512
 91
        0
  1

274
    -2
284
     1
 64
     0
275
    -2
285
     1
 65
     0
276
    -2
286
     1
 66
     0
277
    -2
287
     1
 67
     0
278
    -2
288
     1
 68
     0
279
    -2
289
     1
 69
     0
  0
VISUALSTYLE
  5
F5
102
{ACAD_REACTORS
330
EF
102
}
330
EF
100
AcDbVisualStyle
  2
2dWireframe
 70
     4
177
     3
291
     0
 70
    58
 90
        0
176
     1
 90
        2
176
     1
 90
        1
176
     1
 90
        0
176
     1
 40
0.6
176
     1
 40
30.0
176
     1
 62
     7
420
 16777215
176
     1
 90
        1
176
     1
 90
        4
176
     1
 62
     7
176
     1
 62
   257
176
     1
 90
        1
176
     1
 90
        1
176
     1
 40
1.0
176
     1
 90
        0
176
     1
 62
   257
176
     1
 40
1.0
176
     1
 90
        1
176
     1
 90
        6
176
     1
 90
        2
176
     1
 62
     7
176
     1
 90
        5
176
     1
 90
        0
176
     1
 90
        0
176
     1
290
     0
176
     1
 90
        1
176
     1
 40
0.0
176
     1
 90
        0
176
     1
290
     1
176
     1
290
     1
176
     1
290
     0
176
     1
290
     0
176
     1
290
     0
176
     1
290
     0
176
     1
290
     0
176
     1
290
     0
176
     1
290
     0
176
     1
 90
       50
176
     1
 40
0.0
176
     1
 40
1.0
176
     1
 90
        0
176
     1
 62
    18
420
        0
176
     1
 90
       50
176
     1
 90
        3
176
     1
 62
     5
420
      255
176
     1
290
     0
176
     1
 90
       50
176
     1
 90
       50
176
     1
 90
       50
176
     1
290
     0
176
     1
 90
       50
176
     1
 62
   256
176
     0
 40
1.0
176
     0
 90
        2
176
     1
  1
strokes_ogs.tif
176
     1
290
     0
176
     1
 40
1.0
176
     1
 40
1.0
176
     1
1001
ACAD
1000
AcDbSavedByObjectVersion
1070
     0
  0
VISUALSTYLE
  5
F4
102
{ACAD_REACTORS
330
EF
102
}
330
EF
100
AcDbVisualStyle
  2
Basic
 70
     7
177
     3
291
     1
 70
    58
 90
        1
176
     1
 90
        0
176
     1
 90
        1
176
     1
 90
        0
176
     1
 40
0.6
176
     1
 40
30.0
176
     1
 62
     7
420
 16777215
176
     1
 90
        0
176
     1
 90
        4
176
     1
 62
     7
176
     1
 62
   257
176
     1
 90
        1
176
     1
 90
        1
176
     1
 40
1.0
176
     1
 90
        8
176
     1
 62
     7
176
     1
 40
1.0
176
     1
 90
        1
176
     1
 90
        6
176
     1
 90
        2
176
     1
 62
     7
176
     1
 90
        5
176
     1
 90
        0
176
     1
 90
        0
176
     1
290
     0
176
     1
 90
        1
176
     1
 40
0.0
176
     1
 90
        0
176
     1
290
     0
176
     1
290
     1
176
     1
290
     1
176
     1
290
     0
176
     1
290
     0
176
     1
290
     0
176
     1
290
     0
176
     1
290
     0
176
     1
290
     0
176
     1
 90
       50
176
     1
 40
0.0
176
     1
 40
1.0
176
     1
 90
        0
176
     1
 62
    18
420
        0
176
     1
 90
       50
176
     1
 90
        3
176
     1
 62
     5
420
      255
176
     1
290
     0
176
     1
 90
       50
176
     1
 90
       50
176
     1
 90
       50
176
     1
290
     0
176
     1
 90
       50
176
     1
 62
   256
176
     0
 40
1.0
176
     0
 90
        2
176
     1
  1
strokes_ogs.tif
176
     1
290
     0
176
     1
 40
1.0
176
     1
 40
1.0
176
     1
1001
ACAD
1000
AcDbSavedByObjectVersion
1070
     0
  0
VISUALSTYLE
  5
FB
102
{ACAD_REACTORS
330
EF
102
}
330
EF
100
AcDbVisualStyle
  2
Brighten
 70
    12
177
     3
291
     1
 70
    58
 90
        2
176
     1
 90
        2
176
     1
 90
        1
176
     1
 90
        0
176
     1
 40
0.6
176
     1
 40
30.0
176
     1
 62
     7
420
 16777215
176
     1
 90
        1
176
     1
 90
        4
176
     1
 62
     7
176
     1
 62
   257
176
     1
 90
        1
176
     1
 90
        1
176
     1
 40
1.0
176
     1
 90
        8
176
     1
 62
     7
176
     1
 40
1.0
176
     1
 90
        1
176
     1
 90
        6
176
     1
 90
        2
176
     1
 62
     7
176
     1
 90
        5
176
     1
 90
        0
176
     1
 90
        0
176
     1
290
     0
176
     1
 90
        1
176
     1
 40
50.0
176
     1
 90
        0
176
     1
290
     0
176
     1
290
     1
176
     1
290
     1
176
     1
290
     0
176
     1
290
     0
176
     1
290
     0
176
     1
290
     0
176
     1
290
     0
176
     1
290
     0
176
     1
 90
       50
176
     1
 40
0.0
176
     1
 40
1.0
176
     1
 90
        0
176
     1
 62
    18
420
        0
176
     1
 90
       50
176
     1
 90
        3
176
     1
 62
     5
420
      255
176
     1
290
     0
176
     1
 90
       50
176
     1
 90
       50
176
     1
 90
       50
176
     1
290
     0
176
     1
 90
       50
176
     1
 62
   256
176
     0
 40
1.0
176
     0
 90
        2
176
     1
  1
strokes_ogs.tif
176
     1
290
     0
176
     1
 40
1.0
176
     1
 40
1.0
176
     1
1001
ACAD
1000
AcDbSavedByObjectVersion
1070
     0
  0
VISUALSTYLE
  5
FF
102
{ACAD_REACTORS
330
EF
102
}
330
EF
100
AcDbVisualStyle
  2
ColorChange
 70
    16
177
     3
291
     1
 70
    58
 90
        2
176
     1
 90
        2
176
     1
 90
        3
176
     1
 90
        0
176
     1
 40
0.6
176
     1
 40
30.0
176
     1
 62
     8
420
  8421504
176
     1
 90
        1
176
     1
 90
        4
176
     1
 62
     7
176
     1
 62
   257
176
     1
 90
        1
176
     1
 90
        1
176
     1
 40
1.0
176
     1
 90
        8
176
     1
 62
     8
420
  8421504
176
     1
 40
1.0
176
     1
 90
        1
176
     1
 90
        6
176
     1
 90
        2
176
     1
 62
     7
176
     1
 90
        5
176
     1
 90
        0
176
     1
 90
        0
176
     1
290
     0
176
     1
 90
        1
176
     1
 40
0.0
176
     1
 90
        0
176
     1
290
     0
176
     1
290
     1
176
     1
290
     1
176
     1
290
     0
176
     1
290
     0
176
     1
290
     0
176
     1
290
     0
176
     1
290
     0
176
     1
290
     0
176
     1
 90
       50
176
     1
 40
0.0
176
     1
 40
1.0
176
     1
 90
        0
176
     1
 62
    18
420
        0
176
     1
 90
       50
176
     1
 90
        3
176
     1
 62
     5
420
      255
176
     1
290
     0
176
     1
 90
       50
176
     1
 90
       50
176
     1
 90
       50
176
     1
290
     0
176
     1
 90
       50
176
     1
 62
   256
176
     0
 40
1.0
176
     0
 90
        2
176
     1
  1
strokes_ogs.tif
176
     1
290
     0
176
     1
 40
1.0
176
     1
 40
1.0
176
     1
1001
ACAD
1000
AcDbSavedByObjectVersion
1070
     0
  0
VISUALSTYLE
  5
F8
102
{ACAD_REACTORS
330
EF
102
}
330
EF
100
AcDbVisualStyle
  2
Conceptual
 70
     9
177
     3
291
     0
 70
    58
 90
        3
176
     1
 90
        2
176
     1
 90
        1
176
     1
 90
        0
176
     1
 40
0.6
176
     1
 40
30.0
176
     1
 62
     7
420
 16777215
176
     1
 90
        2
176
     1
 90
        2
176
     1
 62
     7
176
     1
 62
   257
176
     1
 90
        1
176
     1
 90
        1
176
     1
 40
40.0
176
     1
 90
        8
176
     1
 62
     7
176
     1
 40
1.0
176
     1
 90
        1
176
     1
 90
        6
176
     1
 90
        2
176
     1
 62
     7
176
     1
 90
        3
176
     1
 90
        0
176
     1
 90
        0
176
     1
290
     0
176
     1
 90
        1
176
     1
 40
0.0
176
     1
 90
        0
176
     1
290
     0
176
     1
290
     1
176
     1
290
     1
176
     1
290
     0
176
     1
290
     0
176
     1
290
     0
176
     1
290
     0
176
     1
290
     0
176
     1
290
     0
176
     1
 90
       50
176
     1
 40
0.0
176
     1
 40
1.0
176
     1
 90
        0
176
     1
 62
    18
420
        0
176
     1
 90
       50
176
     1
 90
        3
176
     1
 62
     5
420
      255
176
     1
290
     0
176
     1
 90
       50
176
     1
 90
       50
176
     1
 90
       50
176
     1
290
     0
176
     1
 90
       50
176
     1
 62
   256
176
     0
 40
1.0
176
     0
 90
        2
176
     1
  1
strokes_ogs.tif
176
     1
290
     0
176
     1
 40
1.0
176
     1
 40
1.0
176
     1
1001
ACAD
1000
AcDbSavedByObjectVersion
1070
     0
  0
VISUALSTYLE
  5
FA
102
{ACAD_REACTORS
330
EF
102
}
330
EF
100
AcDbVisualStyle
  2
Dim
 70
    11
177
     3
291
     1
 70
    58
 90
        2
176
     1
 90
        2
176
     1
 90
        1
176
     1
 90
        0
176
     1
 40
0.6
176
     1
 40
30.0
176
     1
 62
     7
420
 16777215
176
     1
 90
        1
176
     1
 90
        4
176
     1
 62
     7
176
     1
 62
   257
176
     1
 90
        1
176
     1
 90
        1
176
     1
 40
1.0
176
     1
 90
        8
176
     1
 62
     7
176
     1
 40
1.0
176
     1
 90
        1
176
     1
 90
        6
176
     1
 90
        2
176
     1
 62
     7
176
     1
 90
        5
176
     1
 90
        0
176
     1
 90
        0
176
     1
290
     0
176
     1
 90
        1
176
     1
 40
-50.0
176
     1
 90
        0
176
     1
290
     0
176
     1
290
     1
176
     1
290
     1
176
     1
290
     0
176
     1
290
     0
176
     1
290
     0
176
     1
290
     0
176
     1
290
     0
176
     1
290
     0
176
     1
 90
       50
176
     1
 40
0.0
176
     1
 40
1.0
176
     1
 90
        0
176
     1
 62
    18
420
        0
176
     1
 90
       50
176
     1
 90
        3
176
     1
 62
     5
420
      255
176
     1
290
     0
176
     1
 90
       50
176
     1
 90
       50
176
     1
 90
       50
176
     1
290
     0
176
     1
 90
       50
176
     1
 62
   256
176
     0
 40
1.0
176
     0
 90
        2
176
     1
  1
strokes_ogs.tif
176
     1
290
     0
176
     1
 40
1.0
176
     1
 40
1.0
176
     1
1001
ACAD
1000
AcDbSavedByObjectVersion
1070
     0
  0
VISUALSTYLE
  5
1E6
102
{ACAD_REACTORS
330
EF
102
}
330
EF
100
AcDbVisualStyle
  2
EdgeColorOff
 70
    22
177
     3
291
     1
 70
    58
 90
        2
176
     0
 90
        2
176
     0
 90
        0
176
     0
 90
        0
176
     0
 40
0.6
176
     0
 40
30.0
176
     0
 62
     7
420
 16777215
176
     0
 90
        1
176
     0
 90
        4
176
     0
 62
     7
176
     0
 62
   257
176
     0
 90
        1
176
     0
 90
        1
176
     0
 40
1.0
176
     0
 90
        8
176
     2
 62
     7
176
     0
 40
1.0
176
     0
 90
        1
176
     0
 90
        6
176
     0
 90
        2
176
     0
 62
     7
176
     0
 90
        5
176
     0
 90
        0
176
     0
 90
        0
176
     0
290
     0
176
     0
 90
        1
176
     0
 40
0.0
176
     0
 90
        0
176
     0
290
     0
176
     1
290
     1
176
     1
290
     1
176
     1
290
     0
176
     1
290
     0
176
     1
290
     0
176
     1
290
     0
176
     1
290
     0
176
     1
290
     0
176
     1
 90
       50
176
     1
 40
0.0
176
     1
 40
1.0
176
     1
 90
        0
176
     1
 62
    18
420
        0
176
     1
 90
       50
176
     1
 90
        3
176
     1
 62
     5
420
      255
176
     1
290
     0
176
     1
 90
       50
176
     1
 90
       50
176
     1
 90
       50
176
     1
290
     0
176
     1
 90
       50
176
     1
 62
   256
176
     0
 40
1.0
176
     0
 90
        2
176
     1
  1
strokes_ogs.tif
176
     1
290
     0
176
     1
 40
1.0
176
     1
 40
1.0
176
     1
1001
ACAD
1000
AcDbSavedByObjectVersion
1070
     0
  0
VISUALSTYLE
  5
FE
102
{ACAD_REACTORS
330
EF
102
}
330
EF
100
AcDbVisualStyle
  2
Facepattern
 70
    15
177
     3
291
     1
 70
    58
 90
        2
176
     1
 90
        2
176
     1
 90
        1
176
     1
 90
        0
176
     1
 40
0.6
176
     1
 40
30.0
176
     1
 62
     7
420
 16777215
176
     1
 90
        1
176
     1
 90
        4
176
     1
 62
     7
176
     1
 62
   257
176
     1
 90
        1
176
     1
 90
        1
176
     1
 40
1.0
176
     1
 90
        8
176
     1
 62
     7
176
     1
 40
1.0
176
     1
 90
        1
176
     1
 90
        6
176
     1
 90
        2
176
     1
 62
     7
176
     1
 90
        5
176
     1
 90
        0
176
     1
 90
        0
176
     1
290
     0
176
     1
 90
        1
176
     1
 40
0.0
176
     1
 90
        0
176
     1
290
     0
176
     1
290
     1
176
     1
290
     1
176
     1
290
     0
176
     1
290
     0
176
     1
290
     0
176
     1
290
     0
176
     1
290
     0
176
     1
290
     0
176
     1
 90
       50
176
     1
 40
0.0
176
     1
 40
1.0
176
     1
 90
        0
176
     1
 62
    18
420
        0
176
     1
 90
       50
176
     1
 90
        3
176
     1
 62
     5
420
      255
176
     1
290
     0
176
     1
 90
       50
176
     1
 90
       50
176
     1
 90
       50
176
     1
290
     0
176
     1
 90
       50
176
     1
 62
   256
176
     0
 40
1.0
176
     0
 90
        2
176
     1
  1
strokes_ogs.tif
176
     1
290
     0
176
     1
 40
1.0
176
     1
 40
1.0
176
     1
1001
ACAD
1000
AcDbSavedByObjectVersion
1070
     0
  0
VISUALSTYLE
  5
F0
102
{ACAD_REACTORS
330
EF
102
}
330
EF
100
AcDbVisualStyle
  2
Flat
 70
     0
177
     3
291
     1
 70
    58
 90
        2
176
     1
 90
        1
176
     1
 90
        1
176
     1
 90
        2
176
     1
 40
0.6
176
     1
 40
30.0
176
     1
 62
     7
420
 16777215
176
     1
 90
        0
176
     1
 90
        0
176
     1
 62
     7
176
     1
 62
   257
176
     1
 90
        1
176
     1
 90
        1
176
     1
 40
1.0
176
     1
 90
        8
176
     1
 62
     7
176
     1
 40
1.0
176
     1
 90
        1
176
     1
 90
        6
176
     1
 90
        2
176
     1
 62
     7
176
     1
 90
        5
176
     1
 90
        0
176
     1
 90
        0
176
     1
290
     0
176
     1
 90
       13
176
     1
 40
0.0
176
     1
 90
        0
176
     1
290
     0
176
     1
290
     1
176
     1
290
     1
176
     1
290
     0
176
     1
290
     0
176
     1
290
     0
176
     1
290
     0
176
     1
290
     0
176
     1
290
     0
176
     1
 90
       50
176
     1
 40
0.0
176
     1
 40
1.0
176
     1
 90
        0
176
     1
 62
    18
420
        0
176
     1
 90
       50
176
     1
 90
        3
176
     1
 62
     5
420
      255
176
     1
290
     0
176
     1
 90
       50
176
     1
 90
       50
176
     1
 90
       50
176
     1
290
     0
176
     1
 90
       50
176
     1
 62
   256
176
     0
 40
1.0
176
     0
 90
        2
176
     1
  1
strokes_ogs.tif
176
     1
290
     0
176
     1
 40
1.0
176
     1
 40
1.0
176
     1
1001
ACAD
1000
AcDbSavedByObjectVersion
1070
     0
  0
VISUALSTYLE
  5
F1
102
{ACAD_REACTORS
330
EF
102
}
330
EF
100
AcDbVisualStyle
  2
FlatWithEdges
 70
     1
177
     3
291
     1
 70
    58
 90
        2
176
     1
 90
        1
176
     1
 90
        1
176
     1
 90
        2
176
     1
 40
0.6
176
     1
 40
30.0
176
     1
 62
     7
420
 16777215
176
     1
 90
        1
176
     1
 90
        0
176
     1
 62
     7
176
     1
 62
   257
176
     1
 90
        1
176
     1
 90
        1
176
     1
 40
1.0
176
     1
 90
        0
176
     1
 62
   257
176
     1
 40
1.0
176
     1
 90
        1
176
     1
 90
        6
176
     1
 90
        2
176
     1
 62
     7
176
     1
 90
        5
176
     1
 90
        0
176
     1
 90
        0
176
     1
290
     0
176
     1
 90
       13
176
     1
 40
0.0
176
     1
 90
        0
176
     1
290
     0
176
     1
290
     1
176
     1
290
     1
176
     1
290
     0
176
     1
290
     0
176
     1
290
     0
176
     1
290
     0
176
     1
290
     0
176
     1
290
     0
176
     1
 90
       50
176
     1
 40
0.0
176
     1
 40
1.0
176
     1
 90
        0
176
     1
 62
    18
420
        0
176
     1
 90
       50
176
     1
 90
        3
176
     1
 62
     5
420
      255
176
     1
290
     0
176
     1
 90
       50
176
     1
 90
       50
176
     1
 90
       50
176
     1
290
     0
176
     1
 90
       50
176
     1
 62
   256
176
     0
 40
1.0
176
     0
 90
        2
176
     1
  1
strokes_ogs.tif
176
     1
290
     0
176
     1
 40
1.0
176
     1
 40
1.0
176
     1
1001
ACAD
1000
AcDbSavedByObjectVersion
1070
     0
  0
VISUALSTYLE
  5
F2
102
{ACAD_REACTORS
330
EF
102
}
330
EF
100
AcDbVisualStyle
  2
Gouraud
 70
     2
177
     3
291
     1
 70
    58
 90
        2
176
     1
 90
        2
176
     1
 90
        1
176
     1
 90
        2
176
     1
 40
0.6
176
     1
 40
30.0
176
     1
 62
     7
420
 16777215
176
     1
 90
        0
176
     1
 90
        0
176
     1
 62
     7
176
     1
 62
   257
176
     1
 90
        1
176
     1
 90
        1
176
     1
 40
1.0
176
     1
 90
        0
176
     1
 62
     7
176
     1
 40
1.0
176
     1
 90
        1
176
     1
 90
        6
176
     1
 90
        2
176
     1
 62
     7
176
     1
 90
        5
176
     1
 90
        0
176
     1
 90
        0
176
     1
290
     0
176
     1
 90
       13
176
     1
 40
0.0
176
     1
 90
        0
176
     1
290
     0
176
     1
290
     1
176
     1
290
     1
176
     1
290
     0
176
     1
290
     0
176
     1
290
     0
176
     1
290
     0
176
     1
290
     0
176
     1
290
     0
176
     1
 90
       50
176
     1
 40
0.0
176
     1
 40
1.0
176
     1
 90
        0
176
     1
 62
    18
420
        0
176
     1
 90
       50
176
     1
 90
        3
176
     1
 62
     5
420
      255
176
     1
290
     0
176
     1
 90
       50
176
     1
 90
       50
176
     1
 90
       50
176
     1
290
     0
176
     1
 90
       50
176
     1
 62
   256
176
     0
 40
1.0
176
     0
 90
        2
176
     1
  1
strokes_ogs.tif
176
     1
290
     0
176
     1
 40
1.0
176
     1
 40
1.0
176
     1
1001
ACAD
1000
AcDbSavedByObjectVersion
1070
     0
  0
VISUALSTYLE
  5
F3
102
{ACAD_REACTORS
330
EF
102
}
330
EF
100
AcDbVisualStyle
  2
GouraudWithEdges
 70
     3
177
     3
291
     1
 70
    58
 90
        2
176
     1
 90
        2
176
     1
 90
        1
176
     1
 90
        2
176
     1
 40
0.6
176
     1
 40
30.0
176
     1
 62
     7
420
 16777215
176
     1
 90
        1
176
     1
 90
        0
176
     1
 62
     7
176
     1
 62
   257
176
     1
 90
        1
176
     1
 90
        1
176
     1
 40
1.0
176
     1
 90
        0
176
     1
 62
   257
176
     1
 40
1.0
176
     1
 90
        1
176
     1
 90
        6
176
     1
 90
        2
176
     1
 62
     7
176
     1
 90
        5
176
     1
 90
        0
176
     1
 90
        0
176
     1
290
     0
176
     1
 90
       13
176
     1
 40
0.0
176
     1
 90
        0
176
     1
290
     0
176
     1
290
     1
176
     1
290
     1
176
     1
290
     0
176
     1
290
     0
176
     1
290
     0
176
     1
290
     0
176
     1
290
     0
176
     1
290
     0
176
     1
 90
       50
176
     1
 40
0.0
176
     1
 40
1.0
176
     1
 90
        0
176
     1
 62
    18
420
        0
176
     1
 90
       50
176
     1
 90
        3
176
     1
 62
     5
420
      255
176
     1
290
     0
176
     1
 90
       50
176
     1
 90
       50
176
     1
 90
       50
176
     1
290
     0
176
     1
 90
       50
176
     1
 62
   256
176
     0
 40
1.0
176
     0
 90
        2
176
     1
  1
strokes_ogs.tif
176
     1
290
     0
176
     1
 40
1.0
176
     1
 40
1.0
176
     1
1001
ACAD
1000
AcDbSavedByObjectVersion
1070
     0
  0
VISUALSTYLE
  5
F7
102
{ACAD_REACTORS
330
EF
102
}
330
EF
100
AcDbVisualStyle
  2
Hidden
 70
     6
177
     3
291
     0
 70
    58
 90
        1
176
     1
 90
        2
176
     1
 90
        2
176
     1
 90
        0
176
     1
 40
0.6
176
     1
 40
30.0
176
     1
 62
     7
420
 16777215
176
     1
 90
        2
176
     1
 90
        2
176
     1
 62
     7
176
     1
 62
   257
176
     1
 90
        2
176
     1
 90
        1
176
     1
 40
40.0
176
     1
 90
        0
176
     1
 62
   257
176
     1
 40
1.0
176
     1
 90
        1
176
     1
 90
        6
176
     1
 90
        2
176
     1
 62
     7
176
     1
 90
        3
176
     1
 90
        0
176
     1
 90
        0
176
     1
290
     0
176
     1
 90
        1
176
     1
 40
0.0
176
     1
 90
        0
176
     1
290
     0
176
     1
290
     1
176
     1
290
     1
176
     1
290
     0
176
     1
290
     0
176
     1
290
     0
176
     1
290
     0
176
     1
290
     0
176
     1
290
     0
176
     1
 90
       50
176
     1
 40
0.0
176
     1
 40
1.0
176
     1
 90
        0
176
     1
 62
    18
420
        0
176
     1
 90
       50
176
     1
 90
        3
176
     1
 62
     5
420
      255
176
     1
290
     0
176
     1
 90
       50
176
     1
 90
       50
176
     1
 90
       50
176
     1
290
     0
176
     1
 90
       50
176
     1
 62
   256
176
     0
 40
1.0
176
     0
 90
        2
176
     1
  1
strokes_ogs.tif
176
     1
290
     0
176
     1
 40
1.0
176
     1
 40
1.0
176
     1
1001
ACAD
1000
AcDbSavedByObjectVersion
1070
     0
  0
VISUALSTYLE
  5
1E4
102
{ACAD_REACTORS
330
EF
102
}
330
EF
100
AcDbVisualStyle
  2
JitterOff
 70
    20
177
     3
291
     1
 70
    58
 90
        2
176
     0
 90
        2
176
     0
 90
        0
176
     0
 90
        0
176
     0
 40
0.6
176
     0
 40
30.0
176
     0
 62
     7
420
 16777215
176
     0
 90
        1
176
     0
 90
        4
176
     0
 62
     7
176
     0
 62
   257
176
     0
 90
        1
176
     0
 90
        1
176
     0
 40
1.0
176
     0
 90
       10
176
     2
 62
     7
176
     0
 40
1.0
176
     0
 90
        1
176
     0
 90
        6
176
     0
 90
        2
176
     0
 62
     7
176
     0
 90
        5
176
     0
 90
        0
176
     0
 90
        0
176
     0
290
     0
176
     0
 90
        1
176
     0
 40
0.0
176
     0
 90
        0
176
     0
290
     0
176
     1
290
     1
176
     1
290
     1
176
     1
290
     0
176
     1
290
     0
176
     1
290
     0
176
     1
290
     0
176
     1
290
     0
176
     1
290
     0
176
     1
 90
       50
176
     1
 40
0.0
176
     1
 40
1.0
176
     1
 90
        0
176
     1
 62
    18
420
        0
176
     1
 90
       50
176
     1
 90
        3
176
     1
 62
     5
420
      255
176
     1
290
     0
176
     1
 90
       50
176
     1
 90
       50
176
     1
 90
       50
176
     1
290
     0
176
     1
 90
       50
176
     1
 62
   256
176
     0
 40
1.0
176
     0
 90
        2
176
     1
  1
strokes_ogs.tif
176
     1
290
     0
176
     1
 40
1.0
176
     1
 40
1.0
176
     1
1001
ACAD
1000
AcDbSavedByObjectVersion
1070
     0
  0
VISUALSTYLE
  5
FD
102
{ACAD_REACTORS
330
EF
102
}
330
EF
100
AcDbVisualStyle
  2
Linepattern
 70
    14
177
     3
291
     1
 70
    58
 90
        2
176
     1
 90
        2
176
     1
 90
        1
176
     1
 90
        0
176
     1
 40
0.6
176
     1
 40
30.0
176
     1
 62
     7
420
 16777215
176
     1
 90
        1
176
     1
 90
        4
176
     1
 62
     7
176
     1
 62
   257
176
     1
 90
        7
176
     1
 90
        7
176
     1
 40
1.0
176
     1
 90
        8
176
     1
 62
     7
176
     1
 40
1.0
176
     1
 90
        1
176
     1
 90
        6
176
     1
 90
        2
176
     1
 62
     7
176
     1
 90
        5
176
     1
 90
        0
176
     1
 90
        0
176
     1
290
     0
176
     1
 90
        1
176
     1
 40
0.0
176
     1
 90
        0
176
     1
290
     0
176
     1
290
     1
176
     1
290
     1
176
     1
290
     0
176
     1
290
     0
176
     1
290
     0
176
     1
290
     0
176
     1
290
     0
176
     1
290
     0
176
     1
 90
       50
176
     1
 40
0.0
176
     1
 40
1.0
176
     1
 90
        0
176
     1
 62
    18
420
        0
176
     1
 90
       50
176
     1
 90
        3
176
     1
 62
     5
420
      255
176
     1
290
     0
176
     1
 90
       50
176
     1
 90
       50
176
     1
 90
       50
176
     1
290
     0
176
     1
 90
       50
176
     1
 62
   256
176
     0
 40
1.0
176
     0
 90
        2
176
     1
  1
strokes_ogs.tif
176
     1
290
     0
176
     1
 40
1.0
176
     1
 40
1.0
176
     1
1001
ACAD
1000
AcDbSavedByObjectVersion
1070
     0
  0
VISUALSTYLE
  5
1E5
102
{ACAD_REACTORS
330
EF
102
}
330
EF
100
AcDbVisualStyle
  2
OverhangOff
 70
    21
177
     3
291
     1
 70
    58
 90
        2
176
     0
 90
        2
176
     0
 90
        0
176
     0
 90
        0
176
     0
 40
0.6
176
     0
 40
30.0
176
     0
 62
     7
420
 16777215
176
     0
 90
        1
176
     0
 90
        4
176
     0
 62
     7
176
     0
 62
   257
176
     0
 90
        1
176
     0
 90
        1
176
     0
 40
1.0
176
     0
 90
        9
176
     2
 62
     7
176
     0
 40
1.0
176
     0
 90
        1
176
     0
 90
        6
176
     0
 90
        2
176
     0
 62
     7
176
     0
 90
        5
176
     0
 90
        0
176
     0
 90
        0
176
     0
290
     0
176
     0
 90
        1
176
     0
 40
0.0
176
     0
 90
        0
176
     0
290
     0
176
     1
290
     1
176
     1
290
     1
176
     1
290
     0
176
     1
290
     0
176
     1
290
     0
176
     1
290
     0
176
     1
290
     0
176
     1
290
     0
176
     1
 90
       50
176
     1
 40
0.0
176
     1
 40
1.0
176
     1
 90
        0
176
     1
 62
    18
420
        0
176
     1
 90
       50
176
     1
 90
        3
176
     1
 62
     5
420
      255
176
     1
290
     0
176
     1
 90
       50
176
     1
 90
       50
176
     1
 90
       50
176
     1
290
     0
176
     1
 90
       50
176
     1
 62
   256
176
     0
 40
1.0
176
     0
 90
        2
176
     1
  1
strokes_ogs.tif
176
     1
290
     0
176
     1
 40
1.0
176
     1
 40
1.0
176
     1
1001
ACAD
1000
AcDbSavedByObjectVersion
1070
     0
  0
VISUALSTYLE
  5
F9
102
{ACAD_REACTORS
330
EF
102
}
330
EF
100
AcDbVisualStyle
  2
Realistic
 70
     8
177
     3
291
     0
 70
    58
 90
        2
176
     1
 90
        3
176
     1
 90
        0
176
     1
 90
        2
176
     1
 40
0.6
176
     1
 40
30.0
176
     1
 62
     7
420
 16777215
176
     1
 90
        0
176
     1
 90
        0
176
     1
 62
     7
176
     1
 62
   257
176
     1
 90
        1
176
     1
 90
        1
176
     1
 40
1.0
176
     1
 90
        8
176
     1
 62
   257
176
     1
 40
1.0
176
     1
 90
        1
176
     1
 90
        6
176
     1
 90
        2
176
     1
 62
     7
176
     1
 90
        3
176
     1
 90
        0
176
     1
 90
        0
176
     1
290
     0
176
     1
 90
       13
176
     1
 40
0.0
176
     1
 90
        0
176
     1
290
     0
176
     1
290
     1
176
     1
290
     1
176
     1
290
     0
176
     1
290
     0
176
     1
290
     0
176
     1
290
     0
176
     1
290
     0
176
     1
290
     0
176
     1
 90
       50
176
     1
 40
0.0
176
     1
 40
1.0
176
     1
 90
        0
176
     1
 62
    18
420
        0
176
     1
 90
       50
176
     1
 90
        3
176
     1
 62
     5
420
      255
176
     1
290
     0
176
     1
 90
       50
176
     1
 90
       50
176
     1
 90
       50
176
     1
290
     0
176
     1
 90
       50
176
     1
 62
   256
176
     0
 40
1.0
176
     0
 90
        2
176
     1
  1
strokes_ogs.tif
176
     1
290
     0
176
     1
 40
1.0
176
     1
 40
1.0
176
     1
1001
ACAD
1000
AcDbSavedByObjectVersion
1070
     0
  0
VISUALSTYLE
  5
1F3
102
{ACAD_REACTORS
330
EF
102
}
330
EF
100
AcDbVisualStyle
  2
Shaded
 70
    27
177
     3
291
     0
 70
    58
 90
        2
176
     1
 90
        2
176
     1
 90
        1
176
     1
 90
        2
176
     1
 40
0.6
176
     1
 40
30.0
176
     1
 62
     7
420
 16777215
176
     1
 90
        0
176
     1
 90
        4
176
     1
 62
     7
176
     1
 62
   257
176
     1
 90
        1
176
     1
 90
        1
176
     1
 40
1.0
176
     1
 90
        8
176
     1
 62
   257
176
     1
 40
1.0
176
     1
 90
        1
176
     1
 90
        6
176
     1
 90
        2
176
     1
 62
     8
420
  7895160
176
     1
 90
        3
176
     1
 90
        0
176
     1
 90
        0
176
     1
290
     0
176
     1
 90
        5
176
     1
 40
0.0
176
     1
 90
        0
176
     1
290
     0
176
     1
290
     1
176
     1
290
     1
176
     1
290
     0
176
     1
290
     0
176
     1
290
     0
176
     1
290
     0
176
     1
290
     0
176
     1
290
     0
176
     1
 90
       50
176
     1
 40
0.0
176
     1
 40
1.0
176
     1
 90
        0
176
     1
 62
    18
420
        0
176
     1
 90
       50
176
     1
 90
        3
176
     1
 62
     5
420
      255
176
     1
290
     0
176
     1
 90
       50
176
     1
 90
       50
176
     1
 90
       50
176
     1
290
     0
176
     1
 90
       50
176
     1
 62
   256
176
     0
 40
1.0
176
     0
 90
        2
176
     1
  1
strokes_ogs.tif
176
     1
290
     0
176
     1
 40
1.0
176
     1
 40
1.0
176
     1
1001
ACAD
1000
AcDbSavedByObjectVersion
1070
     0
  0
VISUALSTYLE
  5
1F2
102
{ACAD_REACTORS
330
EF
102
}
330
EF
100
AcDbVisualStyle
  2
Shaded with edges
 70
    26
177
     3
291
     0
 70
    58
 90
        2
176
     1
 90
        2
176
     1
 90
        1
176
     1
 90
        2
176
     1
 40
0.6
176
     1
 40
30.0
176
     1
 62
     7
420
 16777215
176
     1
 90
        1
176
     1
 90
        2
176
     1
 62
     7
176
     1
 62
   257
176
     1
 90
        2
176
     1
 90
        1
176
     1
 40
1.0
176
     1
 90
        8
176
     1
 62
   257
176
     1
 40
1.0
176
     1
 90
        1
176
     1
 90
        6
176
     1
 90
        2
176
     1
 62
     7
176
     1
 90
        3
176
     1
 90
        0
176
     1
 90
        0
176
     1
290
     0
176
     1
 90
        5
176
     1
 40
0.0
176
     1
 90
        0
176
     1
290
     0
176
     1
290
     1
176
     1
290
     1
176
     1
290
     0
176
     1
290
     0
176
     1
290
     0
176
     1
290
     0
176
     1
290
     0
176
     1
290
     0
176
     1
 90
       50
176
     1
 40
0.0
176
     1
 40
1.0
176
     1
 90
        0
176
     1
 62
    18
420
        0
176
     1
 90
       50
176
     1
 90
        3
176
     1
 62
     5
420
      255
176
     1
290
     0
176
     1
 90
       50
176
     1
 90
       50
176
     1
 90
       50
176
     1
290
     0
176
     1
 90
       50
176
     1
 62
   256
176
     0
 40
1.0
176
     0
 90
        2
176
     1
  1
strokes_ogs.tif
176
     1
290
     0
176
     1
 40
1.0
176
     1
 40
1.0
176
     1
1001
ACAD
1000
AcDbSavedByObjectVersion
1070
     0
  0
VISUALSTYLE
  5
1EF
102
{ACAD_REACTORS
330
EF
102
}
330
EF
100
AcDbVisualStyle
  2
Shades of Gray
 70
    23
177
     3
291
     0
 70
    58
 90
        2
176
     1
 90
        2
176
     1
 90
        3
176
     1
 90
        0
176
     1
 40
0.6
176
     1
 40
30.0
176
     1
 62
     7
420
 16777215
176
     1
 90
        2
176
     1
 90
        2
176
     1
 62
     7
176
     1
 62
     7
176
     1
 90
        1
176
     1
 90
        1
176
     1
 40
40.0
176
     1
 90
        8
176
     1
 62
     7
176
     1
 40
1.0
176
     1
 90
        1
176
     1
 90
        6
176
     1
 90
        2
176
     1
 62
     7
176
     1
 90
        3
176
     1
 90
        0
176
     1
 90
        0
176
     1
290
     0
176
     1
 90
        1
176
     1
 40
0.0
176
     1
 90
        0
176
     1
290
     0
176
     1
290
     1
176
     1
290
     1
176
     1
290
     0
176
     1
290
     0
176
     1
290
     0
176
     1
290
     0
176
     1
290
     0
176
     1
290
     0
176
     1
 90
       50
176
     1
 40
0.0
176
     1
 40
1.0
176
     1
 90
        0
176
     1
 62
    18
420
        0
176
     1
 90
       50
176
     1
 90
        3
176
     1
 62
     5
420
      255
176
     1
290
     0
176
     1
 90
       50
176
     1
 90
       50
176
     1
 90
       50
176
     1
290
     0
176
     1
 90
       50
176
     1
 62
   256
176
     0
 40
1.0
176
     0
 90
        2
176
     1
  1
strokes_ogs.tif
176
     1
290
     0
176
     1
 40
1.0
176
     1
 40
1.0
176
     1
1001
ACAD
1000
AcDbSavedByObjectVersion
1070
     0
  0
VISUALSTYLE
  5
1F0
102
{ACAD_REACTORS
330
EF
102
}
330
EF
100
AcDbVisualStyle
  2
Sketchy
 70
    24
177
     3
291
     0
 70
    58
 90
        1
176
     1
 90
        2
176
     1
 90
        2
176
     1
 90
        0
176
     1
 40
0.6
176
     1
 40
30.0
176
     1
 62
     7
420
 16777215
176
     1
 90
        2
176
     1
 90
        2
176
     1
 62
     7
176
     1
 62
     7
176
     1
 90
        1
176
     1
 90
        1
176
     1
 40
40.0
176
     1
 90
       11
176
     1
 62
     7
176
     1
 40
1.0
176
     1
 90
        1
176
     1
 90
        6
176
     1
 90
        2
176
     1
 62
     7
176
     1
 90
        6
176
     1
 90
        0
176
     1
 90
        0
176
     1
290
     0
176
     1
 90
        1
176
     1
 40
0.0
176
     1
 90
        0
176
     1
290
     0
176
     1
290
     1
176
     1
290
     1
176
     1
290
     0
176
     1
290
     0
176
     1
290
     0
176
     1
290
     0
176
     1
290
     0
176
     1
290
     0
176
     1
 90
       50
176
     1
 40
0.0
176
     1
 40
1.0
176
     1
 90
        0
176
     1
 62
    18
420
        0
176
     1
 90
       50
176
     1
 90
        3
176
     1
 62
     5
420
      255
176
     1
290
     0
176
     1
 90
       50
176
     1
 90
       50
176
     1
 90
       50
176
     1
290
     0
176
     1
 90
       50
176
     1
 62
   256
176
     0
 40
1.0
176
     0
 90
        2
176
     1
  1
strokes_ogs.tif
176
     1
290
     0
176
     1
 40
1.0
176
     1
 40
1.0
176
     1
1001
ACAD
1000
AcDbSavedByObjectVersion
1070
     0
  0
VISUALSTYLE
  5
FC
102
{ACAD_REACTORS
330
EF
102
}
330
EF
100
AcDbVisualStyle
  2
Thicken
 70
    13
177
     3
291
     1
 70
    58
 90
        2
176
     1
 90
        2
176
     1
 90
        1
176
     1
 90
        0
176
     1
 40
0.6
176
     1
 40
30.0
176
     1
 62
     7
420
 16777215
176
     1
 90
        1
176
     1
 90
        4
176
     1
 62
     7
176
     1
 62
   257
176
     1
 90
        1
176
     1
 90
        1
176
     1
 40
1.0
176
     1
 90
       12
176
     1
 62
     7
176
     1
 40
1.0
176
     1
 90
        1
176
     1
 90
        6
176
     1
 90
        2
176
     1
 62
     7
176
     1
 90
        5
176
     1
 90
        0
176
     1
 90
        0
176
     1
290
     0
176
     1
 90
        1
176
     1
 40
0.0
176
     1
 90
        0
176
     1
290
     0
176
     1
290
     1
176
     1
290
     1
176
     1
290
     0
176
     1
290
     0
176
     1
290
     0
176
     1
290
     0
176
     1
290
     0
176
     1
290
     0
176
     1
 90
       50
176
     1
 40
0.0
176
     1
 40
1.0
176
     1
 90
        0
176
     1
 62
    18
420
        0
176
     1
 90
       50
176
     1
 90
        3
176
     1
 62
     5
420
      255
176
     1
290
     0
176
     1
 90
       50
176
     1
 90
       50
176
     1
 90
       50
176
     1
290
     0
176
     1
 90
       50
176
     1
 62
   256
176
     0
 40
1.0
176
     0
 90
        2
176
     1
  1
strokes_ogs.tif
176
     1
290
     0
176
     1
 40
1.0
176
     1
 40
1.0
176
     1
1001
ACAD
1000
AcDbSavedByObjectVersion
1070
     0
  0
VISUALSTYLE
  5
F6
102
{ACAD_REACTORS
330
EF
102
}
330
EF
100
AcDbVisualStyle
  2
Wireframe
 70
     5
177
     3
291
     0
 70
    58
 90
        0
176
     1
 90
        2
176
     1
 90
        0
176
     1
 90
        0
176
     1
 40
0.6
176
     1
 40
30.0
176
     1
 62
     7
420
 16777215
176
     1
 90
        1
176
     1
 90
        4
176
     1
 62
     7
176
     1
 62
   257
176
     1
 90
        1
176
     1
 90
        1
176
     1
 40
1.0
176
     1
 90
        0
176
     1
 62
   257
176
     1
 40
1.0
176
     1
 90
        1
176
     1
 90
        6
176
     1
 90
        2
176
     1
 62
     7
176
     1
 90
        3
176
     1
 90
        0
176
     1
 90
        0
176
     1
290
     0
176
     1
 90
        1
176
     1
 40
0.0
176
     1
 90
        0
176
     1
290
     0
176
     1
290
     1
176
     1
290
     1
176
     1
290
     0
176
     1
290
     0
176
     1
290
     0
176
     1
290
     0
176
     1
290
     0
176
     1
290
     0
176
     1
 90
       50
176
     1
 40
0.0
176
     1
 40
1.0
176
     1
 90
        0
176
     1
 62
    18
420
        0
176
     1
 90
       50
176
     1
 90
        3
176
     1
 62
     5
420
      255
176
     1
290
     0
176
     1
 90
       50
176
     1
 90
       50
176
     1
 90
       50
176
     1
290
     0
176
     1
 90
       50
176
     1
 62
   256
176
     0
 40
1.0
176
     0
 90
        2
176
     1
  1
strokes_ogs.tif
176
     1
290
     0
176
     1
 40
1.0
176
     1
 40
1.0
176
     1
1001
ACAD
1000
AcDbSavedByObjectVersion
1070
     0
  0
VISUALSTYLE
  5
1F1
102
{ACAD_REACTORS
330
EF
102
}
330
EF
100
AcDbVisualStyle
  2
X-Ray
 70
    25
177
     3
291
     0
 70
    58
 90
        2
176
     1
 90
        2
176
     1
 90
        1
176
     1
 90
        1
176
     1
 40
0.5
176
     1
 40
30.0
176
     1
 62
     7
420
 16777215
176
     1
 90
        1
176
     1
 90
        0
176
     1
 62
     7
176
     1
 62
   257
176
     1
 90
        1
176
     1
 90
        1
176
     1
 40
1.0
176
     1
 90
        8
176
     1
 62
     7
176
     1
 40
1.0
176
     1
 90
        1
176
     1
 90
        6
176
     1
 90
        2
176
     1
 62
     7
176
     1
 90
        3
176
     1
 90
        0
176
     1
 90
        0
176
     1
290
     0
176
     1
 90
       13
176
     1
 40
0.0
176
     1
 90
        0
176
     1
290
     0
176
     1
290
     1
176
     1
290
     1
176
     1
290
     0
176
     1
290
     0
176
     1
290
     0
176
     1
290
     0
176
     1
290
     0
176
     1
290
     0
176
     1
 90
       50
176
     1
 40
0.0
176
     1
 40
1.0
176
     1
 90
        0
176
     1
 62
    18
420
        0
176
     1
 90
       50
176
     1
 90
        3
176
     1
 62
     5
420
      255
176
     1
290
     0
176
     1
 90
       50
176
     1
 90
       50
176
     1
 90
       50
176
     1
290
     0
176
     1
 90
       50
176
     1
 62
   256
176
     0
 40
1.0
176
     0
 90
        2
176
     1
  1
strokes_ogs.tif
176
     1
290
     0
176
     1
 40
1.0
176
     1
 40
1.0
176
     1
1001
ACAD
1000
AcDbSavedByObjectVersion
1070
     0
  0
DICTIONARYVAR
  5
146
102
{ACAD_REACTORS
330
5E
102
}
330
5E
100
DictionaryVariables
280
     0
  1
1:1
  0
DICTIONARYVAR
  5
259
102
{ACAD_REACTORS
330
5E
102
}
330
5E
100
DictionaryVariables
280
     0
  1
3.500000
  0
DICTIONARYVAR
  5
25A
102
{ACAD_REACTORS
330
5E
102
}
330
5E
100
DictionaryVariables
280
     0
  1
acadiso.lin
  0
DICTIONARYVAR
  5
145
102
{ACAD_REACTORS
330
5E
102
}
330
5E
100
DictionaryVariables
280
     0
  1
STANDARD
  0
DICTIONARYVAR
  5
84
102
{ACAD_REACTORS
330
5E
102
}
330
5E
100
DictionaryVariables
280
     0
  1
STANDARD
  0
DICTIONARYVAR
  5
227
102
{ACAD_REACTORS
330
5E
102
}
330
5E
100
DictionaryVariables
280
     0
  1
Metric50
  0
DICTIONARYVAR
  5
228
102
{ACAD_REACTORS
330
5E
102
}
330
5E
100
DictionaryVariables
280
     0
  1
Metric50
  0
DICTIONARYVAR
  5
5F
102
{ACAD_REACTORS
330
5E
102
}
330
5E
100
DictionaryVariables
280
     0
  1
2
  0
DICTIONARYVAR
  5
63
102
{ACAD_REACTORS
330
5E
102
}
330
5E
100
DictionaryVariables
280
     0
  1
1
  0
DICTIONARYVAR
  5
1AE
102
{ACAD_REACTORS
330
5E
102
}
330
5E
100
DictionaryVariables
280
     0
  1
0
  0
DICTIONARYVAR
  5
1AF
102
{ACAD_REACTORS
330
5E
102
}
330
5E
100
DictionaryVariables
280
     0
  1
0
  0
DICTIONARY
  5
4AA
102
{ACAD_REACTORS
330
4A8
102
}
330
4A8
100
AcDbDictionary
281
     1
  0
DICTIONARY
  5
4A9
102
{ACAD_REACTORS
330
4A8
102
}
330
4A8
100
AcDbDictionary
281
     1
  3
2406752927792
350
4A3
  3
2406752927808
350
4A4
  3
2406752927824
350
4A5
  3
2406752927840
350
4A6
  3
2406752927856
350
4A7
  0
DICTIONARY
  5
4B1
330
28E
100
AcDbDictionary
280
     1
281
     1
  3
ACAD_XREC_ROUNDTRIP
360
4B2
  0
DICTIONARY
  5
4AD
330
21C
100
AcDbDictionary
280
     1
281
     1
  3
ACAD_XREC_ROUNDTRIP
360
4AE
  0
DICTIONARY
  5
205
330
22
100
AcDbDictionary
280
     1
281
     1
  0
DICTIONARY
  5
1F9
330
ED
100
AcDbDictionary
280
     1
281
     1
  3
FBXASSET
360
1FA
  0
DICTIONARY
  5
1F7
330
EC
100
AcDbDictionary
280
     1
281
     1
  3
FBXASSET
360
1F8
  0
DICTIONARY
  5
173
330
EE
100
AcDbDictionary
280
     1
281
     1
  3
BUMPTILE
360
175
  3
DIFFUSETILE
360
174
  3
FBXASSET
360
1FB
  3
OPACITYTILE
360
176
  3
REFLECTIONTILE
360
177
  0
DICTIONARY
  5
4AF
330
28D
100
AcDbDictionary
280
     1
281
     1
  3
ACAD_XREC_ROUNDTRIP
360
4B0
  0
DICTIONARY
  5
4AB
330
21A
100
AcDbDictionary
280
     1
281
     1
  3
ACAD_XREC_ROUNDTRIP
360
4AC
  0
DICTIONARY
  5
162
330
7F
100
AcDbDictionary
280
     1
281
     1
  3
ACAD_ROUNDTRIP_2008_TABLESTYLE_CELLSTYLEMAP
360
4A1
  0
XRECORD
  5
4A3
102
{ACAD_REACTORS
330
4A9
102
}
330
4A9
100
AcDbXrecord
280
     1
  1
AcDb_Thumbnail_Schema
102
{ATTRRECORD
341
4A4
  2
AcDbDs::TreatedAsObjectData
280
     1
291
     1
102
ATTRRECORD}
102
{ATTRRECORD
341
4A5
  2
AcDbDs::Legacy
280
     1
291
     1
102
ATTRRECORD}
  2
AcDbDs::ID
280
    10
 91
        8
102
{ATTRRECORD
341
4A6
  2
AcDs:Indexable
280
     1
291
     1
102
ATTRRECORD}
102
{ATTRRECORD
341
4A7
  2
AcDbDs::HandleAttribute
280
     7
282
     1
102
ATTRRECORD}
  2
Thumbnail_Data
280
    15
 91
        0
  0
XRECORD
  5
4A4
102
{ACAD_REACTORS
330
4A9
102
}
330
4A9
100
AcDbXrecord
280
     1
  1
AcDbDs::TreatedAsObjectDataSchema
  2
AcDbDs::TreatedAsObjectData
280
     1
 91
        0
  0
XRECORD
  5
4A5
102
{ACAD_REACTORS
330
4A9
102
}
330
4A9
100
AcDbXrecord
280
     1
  1
AcDbDs::LegacySchema
  2
AcDbDs::Legacy
280
     1
 91
        0
  0
XRECORD
  5
4A6
102
{ACAD_REACTORS
330
4A9
102
}
330
4A9
100
AcDbXrecord
280
     1
  1
AcDbDs::IndexedPropertySchema
  2
AcDs:Indexable
280
     1
 91
        0
  0
XRECORD
  5
4A7
102
{ACAD_REACTORS
330
4A9
102
}
330
4A9
100
AcDbXrecord
280
     1
  1
AcDbDs::HandleAttributeSchema
  2
AcDbDs::HandleAttribute
280
     7
 91
        1
284
     1
  0
XRECORD
  5
4B2
102
{ACAD_REACTORS
330
4B1
102
}
330
4B1
100
AcDbXrecord
280
     1
102
DISPLAYNAME
  1
Imperial24
102
FLAGS
 90
        0
  0
XRECORD
  5
4AE
102
{ACAD_REACTORS
330
4AD
102
}
330
4AD
100
AcDbXrecord
280
     1
102
DISPLAYNAME
  1
Metric50
102
FLAGS
 90
        0
  0
XRECORD
  5
1FA
102
{ACAD_REACTORS
330
1F9
102
}
330
1F9
100
AcDbXrecord
280
     1
 70
     1
 90
429727718
  1
D62C5603-E3A1-4AEA-B7FB-FE5D8D0755AF
310
504B03040A0000080000CC70623B3DEE336E79000000790000001B0000006175746F6465736B2D64657369676E2D7061636B6167652E786D6C3C3F786D6C2076657273696F6E3D22312E302220656E636F64696E673D227574662D3822203F3E3C666F726D6174733E3C666F726D61743E687474703A2F2F736368656D612E
310
6175746F6465736B2E636F6D2F64657369676E2D7061636B6167652F323030393C2F666F726D61743E3C2F666F726D6174733E504B0304140006080800CC70623BD486FD9CA0000000F4000000130000005B436F6E74656E745F54797065735D2E786D6C7D8EC10E82300C865F65E91D8A1E8C310C0EEA1BF002731658846E
310
D98AC1B77784ABF1D8FE5FBFBF75BBCE937A534CCEB38643598122B6FEE978D0B0485F9C41B54DDD7D022595594E1A469170414C76A4D9A4D207E29CF43ECE46F218070CC6BECC4078ACAA135ACF422C856C0E68EA1BF5669944DDD7BCDE7B1F8E415D77AECB980613C2E4AC91FC167A2B244592486606FC29C8FD7F045B9A
310
EF7053A7E60B504B0304140006080800CC70623B853B8169EB0000007C01000008000000636F72652E786D6C8D90416EC3201045AF62CDB6C206821CC7C244919D9CA01740401C94182C03558F5F9C3852BBEB6A467FFE9B197D7EFC9E1EC5975982F5AE035262288C535E5B377690E21535501C055FBC8FBF6C503839990E
310
5619041F179FE64D52DE45E362569DD7661365082642A11EB9E920A89B99642953CC8E702F67A9EE7234257977194EC9EAE275C4EABCCF5EAD5940D4AC6F0E35A568B8F43562CD7046CD199FD07E60174276A7BE677B5EADB0E0D14EEFFB6A31321A0D82627C4084204C3F096B71DD52F6819B16635EADF63F509AF53FA164
310
5DDCD1EDDD17164090FCC8732078B56691CB33A85CD7DCC40F504B0304140006080800CC70623B55019EA25F0000007C00000007000000636E782E786D6C4DCB3B0E80201045D1AD90E915ED2CF8AC45050C11660C8261F98AB1B07AC9C97D42D718D865D3E909258CFD00CCE24AC6E326A164D74DC0B4128928FF32603847
310
2BA13128B1252AC747C6BAB984FC68F0B87FE8960A5C09FE86CFB69FBA01504B0304140006080800CC70623BDBABAAF470010000D40300000C0000006662782F636F72652E786D6CC553D16E823014FD95A6AF4B694182CC941A83FA05FB810A9511A125A5257EFE2E82712ECEB8A7F100CD39F7F69E734AF9FADC366850B6
310
AF8DCE7018308C942E4C59EB2AC3DE1D498AD15A706B8CFB56869196ADCAF00863C12B6B7C374385D14E6907A836A59A41D9F7CA615434B0C8705F7CAA5606D23BA8E84F41278B93AC54100640439DE0BDB320004D43C63716C7C399D30917DCFBBA9CD9BA8469F5B156168B24CED3F7248AC8769F27244EB73B92EED8862C
310
B7F13E0C179B3C8F979C8ECD82BBBABDAA2BAC924E9558448CBD9330242CFA08E3154B5651FCC6D215639C8EE5774DBE2B5F6CF2B5768B68963BB5F5588420E442FC700B1139D4CB01F450C1E918227C2E09DF070D8140C84E1E9AAB8F1340832A9CB13130A5F1376A908D57309505ECF2A0DF179C4E9D30F5B239B87E3823
310
7A79C6F31DE1A8A5AEC08474B03C7837EAE4938639B44E5932B833D2C6B6B279CDC613877FA26EE21F4A2A4C63EC7F29A2F301D1F9F7A0E37D145F504B0304140006080800CC70623B9C113CC27E0000009D0000000B0000006662782F636E782E786D6C4DCCDF0A83201C86E15B91DFB94BFB330DD428C8FB886521330DA7
310
6397BF1A1DECE883878F57749FCDA1B7892F1BBC047A23808C7F84D9FA55424E0BE6803A256208E9EF06C84F9B91703228B1C690F78B66B34CD9A5439DF5CF0BFBF65E35BCA1B8D6A5C6F540381E886698B5741C695F9503EBA150A2F8958E3DC3EA0B504B0304140006080800CC70623B7DF2F77C2A010000120200003100
310
00006662782F41393633353835312D344632462D344230382D423046372D3739314545314133324237412F636F72652E786D6C8D51DB8EC22014FC15C2939B0D2DB4B45643319AE817EC0F6041255A68B86CFCFC856D4D76DF7CE190393373060EDB3DC707F856CE6B6B7A480A0C81328395DA5C7B18C3057510EC3873D686
310
3F34088C18550F330C39BB3A1BA7051AAC09CA84841A2BD5020AEF55806078A44B0FFD7053A328440C89E1EFC52486BBB8AA8214A99D789CF9E05200300FC927E4FB4D5B375D43103D5527440FB843077C5AA3F5861C8F645F5787F59E95B390B318B55CE45AA638FAA2957BD7248B390B7A7CC51F9C124149C82B8C378810
310
84AB2F42B7B8DD56F413775B8C5999E9FF4471926F8AA236A1AE96B8B3CC434E5839373893369E1FAF30EA395917409EB7F26AF8801C171837A4A6AC9C89E9F9C9B1A58BA30FD6A5EF5DDDCF894B9AD9B6A59C957943A9FCAE2FD5BC4DFE03504B0304140006080800CC70623BAD7543B64E01000033030000300000006662
310
782F41393633353835312D344632462D344230382D423046372D3739314545314133324237412F636E782E786D6CD593CD6EC32010845F0571AD6CE3D48AD20813A9873E410FBD12D82434182C7EAAE6EDBB2424CD25871E7B41D6EC30B3FA84F9E67BB2E40B4234DE8DB46F1925E094D7C6ED479AD3AE5951B2113C789FEE
310
6C943839C1488B4C05DF079FE72A69D8C96C13AAD6B8631503449F83828872B949AC57D26200B826A308D316B4064D6E46FCDA41C05550DC9E483A00797BFD207EFB092A45DE9514C1BBD22178396BD39D891265658C238DEA00936C654E5E433CB65A26D9F6EDB5EBC14EBF49A45CB856E66048291F6939A9A81BB5C89177
310
38143CA680F4AA299D66A042CEB3354A2684DC9D8D178FE0D9B8B41CAAD720F880EE7EF93C0C18769E099ECC04D5A102C8049A8A05632F4DDF376CF1DE0F6BB65C2F8627B65A33C6BB62177CEBBDAD973006829F89F22E814B54F4BC2BE347F8AA8F681390B50FA73F804400B5F542E796F19FF974E7F78DB802FE05E20750
310
4B0304140006080800CC70623BE75B7789680500003C100000340000006662782F41393633353835312D344632462D344230382D423046372D3739314545314133324237412F6F626A656374732E786D6CAD575B8F9B3818FD2B887D06C22499CB8AA1CA655245D5B455A356FB305264C061D8018C6C3393D95FBFC7600890
310
A4CD5EF210B0B1BFEBF98E3F7B1FF6596ABC522E1296DF9BAE3D320D9A872C4AF2F8DE2CE5CEBA358D0FBEC719939D65A691938CDE9B6ADAF4BD98B3B2D05311DD91329583D9D5FC0F438434A7A611A644887B5384CF34233629258BA878B12322891DEFF6B66BD70BFB62634E8AE781D082709A4B588AF91C528CDA28B73F
310
1C998EEF39EABBEFA97FBD6A7C7E9553F9D3D79FE442923C3C523610337627CB87ABE99D359D4CC6D6E4FACAB5E6ABF9D2726FC6A3C5F56271377BB88362213924694B38DD99FE47C48627A1E7D49F5A8BB5E1A74C0A599ED3B0F21F1E56366B89112D681E218F0915D0D6F17AD41FBA2A369DCF6335D62ABBD39779D5DDD1
310
11D4D8DE3CBB96B2E04FB8202E41051754A1AA8E8F76B4C6DFE810B580B1547F4B84911149794252234D024EF8BBE963A95AE27B3D310A9D5C215C7960FAEE415ED75694C6AFB17BCACA5D99A60A9AA65F217B0BFC53292ACB92BF283FAD0D3621576592CB5BED907C2FA8E9DF794E35E97BEA31BED21FEB401ABB94C44839
310
DCACBF0E1C5DA8DA5B2F4DFFD32AD86F543D9E565E7056502E157C00AD2671CD534549AB752FCA9CDA00677A313F04E51B22FF19E57B300579E3C97EB29F682D92935CEC18CF901B7B54FD8C51F362B56FC72FE0B3C1EAE335EDCCBF5AEC39ADB17DC238973F804BA5E6F6BFE7AF1FB32E523BE9F3BD571418E3631DCA4D48
310
5250CF639223210A9446CA30052EDF057BD35F8329C1ECD84552BF0DC8D18BE7BCE23BFE6BD960AB4A7DE79923A103BEBD80F911CBAA2C60DB19B01CF164A5583B772EE6D3FFA56666CBCDA74DC97724A48F9A58967497E489C4D979006FD7A05E227A1EBDD0F737C623387A9C844D3709995625106D157315F8B8392CD4E0
310
A0B9A720C4BE9829CEF37EA1E13111214D53925356365ADA634861B52519DD27A00AEB808EAF0628E6F435519D446F45CF2C9CF5214F0A15B2F6D06B79DA3EE3CBF7F56780D2F4E7EF73A0F5E5B02A38D07DC852C6B7C1FBB6664213E0C39E3EBA7FF4E1AD23EA2829407C85E586727488B751B2DB9502BC7B228A3FD68B6E
310
A65A22397E690AA8D158D7E404EC8CDA235CC3B7D1898680131CEC2CDF2638C65196279577750F15884AEE19F94199155B92B13297978469D4F8D358DF0AEF7631E28DC8F0D9F437D5D39A83B2231A1D52D543813A824EF8D44BCFF2FA6A31BD1E8DAD87F1CCB526B3879935BF59CDADD5C37479BB1CDD4CA7B3556B516589
310
EF352754B706114D9C885EC9131DE6EFEB43D99AFE2391C2F958179413D7CFEF6B1B6DB1E7600F00DE6E5C67454A339A4BA2E0FBA85ED26F045D454F463DBFCE484C2F90F2E5E3666003662ED8F755951A7D1BECD5B30B550B2785C8E7320B7292A4838DDA71BBC863ED7613CAF659337A3354231D4FF4A182A54904C2898C
310
98B28C4AD0CE056CCF332A80986E571EE9DBC305BB5FEB7E509220A58D25CF042D712A806AC0AD0C657FDEF80D2D9CEAA2EE4D1C76F60BFE74219A06527D6F82DF6412526107381E55E353090704D085B52408A8913C4ED159D79BDA71BB4BC506F4831350EB6F975CD22D69BF7AC49B91A2C0A9DDA3D5CA36AD20FC478E37
310
E61844E2352865EBCB61A275A65283CAAA9DD27703B4102F5AF51EF5F573B75CBB5AD38BC845F7A49F82A0966A49C2E3EA5EA0ECD326CD965F1DB402C6FA8B51A4658C5C5E2EC9E214602E55810345408596591009A82E7E7FFACA19EEA299B14A0081A705CB3296EBC14CDF658DCD336EA6D1136881AAEB87B81AB9EE53D5
310
F5EB8BC8362082DA24122F98680A4E7930C01A0079749CEA14382A0783E5EBA5A10F8C098456A03D6A4AEB6BB881E2513747552A5DB22C7EDAF83BD5528081A365F7FF06504B0304140006080000CC70623B000000000000000000000000350000006662782F41393633353835312D344632462D344230382D423046372D37
310
39314545314133324237412F76657274696365732E62696E504B0304140006080800CC70623BF270F1330600000004000000360000006662782F41393633353835312D344632462D344230382D423046372D3739314545314133324237412F747269616E676C65732E62696E636660600000504B0304140006080000CC7062
310
3B000000000000000000000000370000006662782F41393633353835312D344632462D344230382D423046372D3739314545314133324237412F617474726962757465732E62696E504B0304140006080800CC70623B08DA0BD19000000041010000360000006662782F41393633353835312D344632462D344230382D4230
310
46372D3739314545314133324237412F6469726563746F72792E786D6C858F410AC3201045AF22B36F53E9A60B35CBEEBAE80D244E44489C6234F4F835464A48035D0DF398FF9F8AF63D0E6CC63039F212F8F9020C7D47C6792B21C5FE7403D62A1188E2E60C98D7234A5830286103A55745067B9D86B8A3CF9C7F90C11DE6
310
07FB144396D7B6A82D282E9A152AD114D5EF2CB866EEE831B8EEA07A7BB5A8D7D61A2BAAEB7FD5F70921FF497D00504B0304140006080800CC70623BEDD1DC58FD000000A00100003B0000006662782F41393633353835312D344632462D344230382D423046372D3739314545314133324237412F7265736F75726365732F
310
636F72652E786D6C8D504B6E833010BD0A9A6D65B00922041947112427E8052C33A156828DFCA97AFC9A40A576D7CDCCE87D344F8F9FBFE667F689CE6B6B3A6039850C8DB2A336530731DC4903D95970676DF82583CCC8193B5861107C72362E3BA4AC096842428D1D7107A5F7182053CF7474E0D507CE32973124857FE48B
310
540F3961CEF244279DE03EB81420DB9EAC1384436FA353E879B1B182C7A8C75DA3C7F453DF353A1075D537A7BA6464B8F535A99AE14A9A2BBD90E350DD183B5CFABE3AF262350B1EF4FC9351399401471025A527C218A1E53BAB5A5AB765F5469B96525EACF23FA6B88CFF34456DC2A1DCE36E360F82A5202F42F062ED2BAD
310
579969AFDD8A6F504B010214000A0000080000CC70623B3DEE336E79000000790000001B00000000000000000000000000000000006175746F6465736B2D64657369676E2D7061636B6167652E786D6C504B01021400140006080800CC70623BD486FD9CA0000000F40000001300000000000000000000000000B20000005B
310
436F6E74656E745F54797065735D2E786D6C504B01021400140006080800CC70623B853B8169EB0000007C010000080000000000000000000000000083010000636F72652E786D6C504B01021400140006080800CC70623B55019EA25F0000007C000000070000000000000000000000000094020000636E782E786D6C504B
310
01021400140006080800CC70623BDBABAAF470010000D40300000C00000000000000000000000000180300006662782F636F72652E786D6C504B01021400140006080800CC70623B9C113CC27E0000009D0000000B00000000000000000000000000B20400006662782F636E782E786D6C504B01021400140006080800CC70
310
623B7DF2F77C2A010000120200003100000000000000000000000000590500006662782F41393633353835312D344632462D344230382D423046372D3739314545314133324237412F636F72652E786D6C504B01021400140006080800CC70623BAD7543B64E010000330300003000000000000000000000000000D2060000
310
6662782F41393633353835312D344632462D344230382D423046372D3739314545314133324237412F636E782E786D6C504B01021400140006080800CC70623BE75B7789680500003C10000034000000000000000000000000006E0800006662782F41393633353835312D344632462D344230382D423046372D3739314545
310
314133324237412F6F626A656374732E786D6C504B01021400140006080000CC70623B0000000000000000000000003500000000000000000000000000280E00006662782F41393633353835312D344632462D344230382D423046372D3739314545314133324237412F76657274696365732E62696E504B01021400140006
310
080800CC70623BF270F133060000000400000036000000000000000000000000007B0E00006662782F41393633353835312D344632462D344230382D423046372D3739314545314133324237412F747269616E676C65732E62696E504B01021400140006080000CC70623B0000000000000000000000003700000000000000
310
000000000000D50E00006662782F41393633353835312D344632462D344230382D423046372D3739314545314133324237412F617474726962757465732E62696E504B01021400140006080800CC70623B08DA0BD1900000004101000036000000000000000000000000002A0F00006662782F41393633353835312D344632
310
462D344230382D423046372D3739314545314133324237412F6469726563746F72792E786D6C504B01021400140006080800CC70623BEDD1DC58FD000000A00100003B000000000000000000000000000E1000006662782F41393633353835312D344632462D344230382D423046372D3739314545314133324237412F7265
310
736F75726365732F636F72652E786D6C504B0506000000000E000E0080040000641100000000
  0
XRECORD
  5
1F8
102
{ACAD_REACTORS
330
1F7
102
}
330
1F7
100
AcDbXrecord
280
     1
 70
     1
 90
429727718
  1
30362254-06B7-45E0-A893-8CFA70E3D6BC
310
504B03040A0000080000CC70623B3DEE336E79000000790000001B0000006175746F6465736B2D64657369676E2D7061636B6167652E786D6C3C3F786D6C2076657273696F6E3D22312E302220656E636F64696E673D227574662D3822203F3E3C666F726D6174733E3C666F726D61743E687474703A2F2F736368656D612E
310
6175746F6465736B2E636F6D2F64657369676E2D7061636B6167652F323030393C2F666F726D61743E3C2F666F726D6174733E504B0304140006080800CC70623BD486FD9CA0000000F4000000130000005B436F6E74656E745F54797065735D2E786D6C7D8EC10E82300C865F65E91D8A1E8C310C0EEA1BF002731658846E
310
D98AC1B77784ABF1D8FE5FBFBF75BBCE937A534CCEB38643598122B6FEE978D0B0485F9C41B54DDD7D022595594E1A469170414C76A4D9A4D207E29CF43ECE46F218070CC6BECC4078ACAA135ACF422C856C0E68EA1BF5669944DDD7BCDE7B1F8E415D77AECB980613C2E4AC91FC167A2B244592486606FC29C8FD7F045B9A
310
EF7053A7E60B504B0304140006080800CC70623B1EC5D7A3EB0000007C01000008000000636F72652E786D6C8D90416EC3201045AF82665B6103C6756C6122AB4D4ED00B204C5C94182C03558F5F9C3852BBEB6A467FFE9B197D71FC9E6FE8CBACC17AD7032D0820E3B41FAD9B7A48F1820F808E52ACDEC75F36404ECDA687
310
4D0629A6D5A76597B477D1B89855E747B38B2A041301E95B6E7A08FAD3CCAA50296647B8168BD2573599823EBB0CA76447F43862C7BCCF5EAC59410E4DDD9C7973C2755553CCCFA4C603E3040F1565ED3B1FDE4E432BCA0D9622DAF9795FAF464533826484B498524CD807E51D79ED187F21878E10516EF63F505AC67F42C9
310
BA58B1FDDD071640D2FCC87D2045B96591CB3DA85CB7DCE40F504B0304140006080800CC70623B55019EA25F0000007C00000007000000636E782E786D6C4DCB3B0E80201045D1AD90E915ED2CF8AC45050C11660C8261F98AB1B07AC9C97D42D718D865D3E909258CFD00CCE24AC6E326A164D74DC0B4128928FF32603847
310
2BA13128B1252AC747C6BAB984FC68F0B87FE8960A5C09FE86CFB69FBA01504B0304140006080800CC70623B8C9102E971010000D40300000C0000006662782F636F72652E786D6CC5535B6E833010BC8AE5DF0A6C08340F1947A84D4ED00B38C6A128602363A31CBFCB234A53A551FA553EC09AD9F5CE8C31DB9E9B1AF5CA
310
7695D1198E428A91D2D214952E33ECDD315861B4E5CC1AE3BE9561A445A3323CC098B3D21ADFCE9034DA29ED00D5A6503328BA4E398C640D8B0C77F253352214DE4145770A5B214FA2546114020D759C75CE8200340D19DE981F0F6746269C33EFAB6266AB02A655C74A59CCF365BADC27CB5D902ED22848F6340DF238A141
310
BE88E2F57B92BFEDF23523433367AE6A2EEAA455C2A902F398D2751045018D3FA264435F3771F242571B4A1919CA6F9A7C5B3CD9E42BED16F12C776AEB308F40C848FC700B1139D4891EF410CEC810227CC6846F8386402064270EF5C5C709A05E49676C024C61FC95EA45ED154CA5211D1FF4FB8291A913A68E9B83EBBB33
310
E2A7673CDE118E5AE8124C0807CB8377834E366998436B950D7A7746DAD846D4CFD978E0F04FD455FC5D49D2D4C6FE9722321F10997F0F32DC47FE05504B0304140006080800CC70623BFFEA85907E0000009D0000000B0000006662782F636E782E786D6C4DCCD10A83201886E15B91FFDC95D95A811AB6F23E625948A6C3
310
E9D8E5AF46073BFAE0E1E365ED67B3E8ADC3CB78C7815C7240DA3DFC64DCC221C519D7805AC182F7F1EF06C88D9BE6703008B6049F9E274D7A1E938DBB5AE3D6131B2589BA0D3D965551E0B2EA732C9B9A624AAEB41E3A557677029960D9AFB4EF11165F504B0304140006080800CC70623B4FEEA4082C0100001202000031
310
0000006662782F39464131463745442D413632322D343644302D413938332D3331353338454246344243312F636F72652E786D6C8D515B6EC32010BC0AE2AB55850DD871ED0813254D72825EC00192A2C460F1A872FC42ED48ED5F7E00CDCECCCEB26C731F6FE05B39AFADE921293004CA082BB5B9F43086336A21D870E6AC
310
0D7F68109861543DCC30E4ECE26C9C164858139409093556AA051CBC570102714B8F1E7AF1A5C6A11862480C7F2DA6415C878B2A4891CA89C7990F2E050073937C42DE1DB7E4F87ED8A36D4329AA9B3D46DBAEAD504556557BD81DEBDD0761E52CE42C462D17B996298E3E6BE59E35C962CE821E1FF18553435012728A7187
310
0841987E927A8D9B35ADDF70BBC6989599FE4F1427F9A4286A132ABAC49D651EF234CD5CE04CDA78BA3DC2A8FB645D00B9DF8B57E215725C60BCA2A463E54C4CE327C7A65E1C7DB02E7DEFCBF594B864C5CA6CDBD49C957943E9FA5D5FBAF336F90F504B0304140006080800CC70623BAD7543B64E01000033030000300000
310
006662782F39464131463745442D413632322D343644302D413938332D3331353338454246344243312F636E782E786D6CD593CD6EC32010845F0571AD6CE3D48AD20813A9873E410FBD12D82434182C7EAAE6EDBB2424CD25871E7B41D6EC30B3FA84F9E67BB2E40B4234DE8DB46F1925E094D7C6ED479AD3AE5951B2113C
310
789FEE6C943839C1488B4C05DF079FE72A69D8C96C13AAD6B8631503449F83828872B949AC57D26200B826A308D316B4064D6E46FCDA41C05550DC9E483A00797BFD207EFB092A45DE9514C1BBD22178396BD39D891265658C238DEA00936C654E5E433CB65A26D9F6EDB5EBC14EBF49A45CB856E66048291F6939A9A81BB5
310
C8917738143CA680F4AA299D66A042CEB3354A2684DC9D8D178FE0D9B8B41CAAD720F880EE7EF93C0C18769E099ECC04D5A102C8049A8A05632F4DDF376CF1DE0F6BB65C2F8627B65A33C6BB62177CEBBDAD973006829F89F22E814B54F4BC2BE347F8AA8F681390B50FA73F804400B5F542E796F19FF974E7F78DB802FE05
310
E207504B0304140006080800CC70623B16AB87BA640500003C100000340000006662782F39464131463745442D413632322D343644302D413938332D3331353338454246344243312F6F626A656374732E786D6CAD575B6FA33818FD2B887DE6924B3BED8A326A92B68A663B534DD4D13E548A0C38942D60649B369D5FBFC7
310
600890A493BDE42160637FD7F31D7FF63E6FB3D478A55C242CBF3247B66B1A340F5994E4F19559CA8D75611A9F7D8F33263BCB4C232719BD32D5B4E97B316765A1A722BA21652A07B3B7B33F0D11D29C9A46981221AE4C113ED38CD8A4942CA2E2C58E882476BCD9DA23BB5ED8171B73523C0F841684D35CC252CCE79062D4
310
468DFA43D7747CCF51DF7D4FFDEB5593E3AB9CCA9FBEFE241792E4E19EB28198C968BAB8199F5D5A67D3E9C49A9E8F47D6EC76B6B0469F26EEFC7C3EBFBCBEB98462213924694B38DD98FE1D62C393D073EA4FADC5DAF04326852CCF6958F90F0F2B9BB5C48816348F90C7840A68EB78EDF68723159BCEE7891A6B95DDE9D3
310
BCEAEEE8086A6C6F9E5D4B59F0175C10A7A0820BAA5055C7473B5AE3CFDD452D602CD5DF12616444529E90D448938013FE6EFA58AA96F85E4F8C42275708571E98FE6827AF6B2B4AE3D7D83D64E5A64C53054DD3AF90BD06FEA9149565C94FCA0F6B834DC85599E4F2423B24DF0B6AFA979E534DFA9E7A4CC6FA631D486393
310
921829879BF5D781A373557BCB85E97FB90DB62B558F8795179C15944B051F40AB495CF35451D26A4727654E6D8033BD98EF82F21D91FF8AF2DD9982BCF1643BDD4EB516C9492E368C67C88DED563FC36D5EACF66DFF057C3658BDBFA69DF9578B3DA735B64F18C7F20770A9D45CFCF7FCF563D6456A277DBEF78A02637CA2
310
43B90A490AEAB94F72244481D24819A6C0E59B606BFA4B3025981DBB48EAB701D97BF19C577CC77F2D1B6C55A9EF3C732474C0B727303F625995056C3B02963D9EAC146BE78EC5FCEC7FA999EBC5EACBAAE41B12D27B4D2C0BBA49F244E2ECDC81B76B502F113D8F5EE8FB1BE3111CDD4FC2AA9B844CAB1288B68AB90A7CDC
310
1C166AB0D3DC5310625FCC14E779BFD0709F8890A629C9292B1B2DED31A4B0DA928CEE135085754027E3018A397D4D5427D15BD1330B677DC8934285AC3DF45A9EB68FF8F2B8FC0A509AFEECFD0FF2DE25CC6047F7214B195F07EFEB9A094D800F7BFAE8FED187B78EA8A3A400F115961BCAD1215E47C966530AF0EE8128FE
310
58CEBB996A8964FFA529A046635D9353B0336A8F700DDF46271A024E70B0B37C9DE01847591E54DED53D54202AB947E4076556AC49C6CA5C9E1226B7F1A7B1BE15DEED62C41B91E1B3E9AFAAA735036547343A925075041DF0A9979E893B391F8FCFA6967B3EFB644DCF6E5CEBFAE272625DCC6FAF3FB93793C5F90CE1EF57
310
407342756B10D1C489E8953CD1617E5CEECAD6F4EF8914CE5D5D504E5C3F1F9736DA62CFC11E00BCDDB8CC8A9466349744C1F75EBDA4DF09BA8A9E8C7A7E9991989E20E5DBDD6A6003664ED8F7A04A8DBE0DF6EAD9B9AA858342E47399053949D2C146EDB85DE4B176BB0965FBAC19BD19AA918E27FA50C1D22402E144464C
310
59462568E704B6E71915404CB72B8FF4EDE184DDAF753F284990D2C6926782963815403548A70C657FDEF80D2D9CEAA2AE4C1C76F60BFE74219A06527D6582DF6412526107381E55E353090704D085B52408D0933C4ED159D79BDA71BB4BC506F4831350EB6F979CD22D69BF7AC49B91A2C0A9DDA3D5CA36AD20FC478E37E6
310
1844E2352865EBCB6EA275A652E3836BE04EFB400BF1A2556F515F1FBB35B2AB35BD889C744FFA1004B5544B121E57F70215746DD2F5E2C1412B602CBF19455AC6C8E5E9922C4E01E65215385004546899059180EAFCF7A707CE7017CD8CDB0410789AB32C63B91E5CEBBBACB17AC6CD347A022D5075FD106377347AAABA7E
310
7D11590744509B44E205134DC1290F06580320F78E537D3D73540E06CB970B431F185308AD40BBD794D6D77003C5A36E8EAA54BA64597CD8F83BD552A080A365F7FF06504B0304140006080000CC70623B000000000000000000000000350000006662782F39464131463745442D413632322D343644302D413938332D3331
310
353338454246344243312F76657274696365732E62696E504B0304140006080800CC70623BF270F1330600000004000000360000006662782F39464131463745442D413632322D343644302D413938332D3331353338454246344243312F747269616E676C65732E62696E636660600000504B0304140006080000CC70623B
310
000000000000000000000000370000006662782F39464131463745442D413632322D343644302D413938332D3331353338454246344243312F617474726962757465732E62696E504B0304140006080800CC70623B08DA0BD19000000041010000360000006662782F39464131463745442D413632322D343644302D413938
310
332D3331353338454246344243312F6469726563746F72792E786D6C858F410AC3201045AF22B36F53E9A60B35CBEEBAE80D244E44489C6234F4F835464A48035D0DF398FF9F8AF63D0E6CC63039F212F8F9020C7D47C6792B21C5FE7403D62A1188E2E60C98D7234A5830286103A55745067B9D86B8A3CF9C7F90C11DE607
310
FB144396D7B6A82D282E9A152AD114D5EF2CB866EEE831B8EEA07A7BB5A8D7D61A2BAAEB7FD5F70921FF497D00504B0304140006080800CC70623B0D6EF93BFE000000A00100003B0000006662782F39464131463745442D413632322D343644302D413938332D3331353338454246344243312F7265736F75726365732F63
310
6F72652E786D6C8D50596E833010BD0A9ADFCA60B334011947A8694ED00B586642AC041B79A97AFC9A40A5F6AF3F33A3B7689E1E3F7DCD8FEC139DD7D6F4C0720A191A65476DA61E62B892236427C19DB5E1970C322367EC618541F0C9D9B8EC90B226A009093576C41D94DE63804C3DD2D18357379C652E63480A7FCF17A9
310
EE72C29CE5894E3AC17D702940B63D59270887DE46A7D0F36263058F518FBB468FE9A7BE6A7420864373B8D4873369AA8691FA421B3294352543C5CAF65C0F6FEF43CB8BD52C78D0F34F46E550061C419494B6843142CB0F5677F4B52BEB177AEC28E5C52AFF638ACBF84F53D42654E51E77B379102C05791282176B5F693D
310
CB4C7BED567C03504B010214000A0000080000CC70623B3DEE336E79000000790000001B00000000000000000000000000000000006175746F6465736B2D64657369676E2D7061636B6167652E786D6C504B01021400140006080800CC70623BD486FD9CA0000000F40000001300000000000000000000000000B20000005B
310
436F6E74656E745F54797065735D2E786D6C504B01021400140006080800CC70623B1EC5D7A3EB0000007C010000080000000000000000000000000083010000636F72652E786D6C504B01021400140006080800CC70623B55019EA25F0000007C000000070000000000000000000000000094020000636E782E786D6C504B
310
01021400140006080800CC70623B8C9102E971010000D40300000C00000000000000000000000000180300006662782F636F72652E786D6C504B01021400140006080800CC70623BFFEA85907E0000009D0000000B00000000000000000000000000B30400006662782F636E782E786D6C504B01021400140006080800CC70
310
623B4FEEA4082C0100001202000031000000000000000000000000005A0500006662782F39464131463745442D413632322D343644302D413938332D3331353338454246344243312F636F72652E786D6C504B01021400140006080800CC70623BAD7543B64E010000330300003000000000000000000000000000D5060000
310
6662782F39464131463745442D413632322D343644302D413938332D3331353338454246344243312F636E782E786D6C504B01021400140006080800CC70623B16AB87BA640500003C1000003400000000000000000000000000710800006662782F39464131463745442D413632322D343644302D413938332D3331353338
310
454246344243312F6F626A656374732E786D6C504B01021400140006080000CC70623B0000000000000000000000003500000000000000000000000000270E00006662782F39464131463745442D413632322D343644302D413938332D3331353338454246344243312F76657274696365732E62696E504B01021400140006
310
080800CC70623BF270F133060000000400000036000000000000000000000000007A0E00006662782F39464131463745442D413632322D343644302D413938332D3331353338454246344243312F747269616E676C65732E62696E504B01021400140006080000CC70623B0000000000000000000000003700000000000000
310
000000000000D40E00006662782F39464131463745442D413632322D343644302D413938332D3331353338454246344243312F617474726962757465732E62696E504B01021400140006080800CC70623B08DA0BD190000000410100003600000000000000000000000000290F00006662782F39464131463745442D413632
310
322D343644302D413938332D3331353338454246344243312F6469726563746F72792E786D6C504B01021400140006080800CC70623B0D6EF93BFE000000A00100003B000000000000000000000000000D1000006662782F39464131463745442D413632322D343644302D413938332D3331353338454246344243312F7265
310
736F75726365732F636F72652E786D6C504B0506000000000E000E0080040000641100000000
  0
XRECORD
  5
175
102
{ACAD_REACTORS
330
173
102
}
330
173
100
AcDbXrecord
280
     1
270
     1
271
     1
  0
XRECORD
  5
174
102
{ACAD_REACTORS
330
173
102
}
330
173
100
AcDbXrecord
280
     1
270
     1
271
     1
  0
XRECORD
  5
1FB
102
{ACAD_REACTORS
330
173
102
}
330
173
100
AcDbXrecord
280
     1
 70
     0
 90
1673772943
  1
ECE7A1D2-D628-4531-984C-D00F80459256
310
504B03040A0000080000CC70623B3DEE336E79000000790000001B0000006175746F6465736B2D64657369676E2D7061636B6167652E786D6C3C3F786D6C2076657273696F6E3D22312E302220656E636F64696E673D227574662D3822203F3E3C666F726D6174733E3C666F726D61743E687474703A2F2F736368656D612E
310
6175746F6465736B2E636F6D2F64657369676E2D7061636B6167652F323030393C2F666F726D61743E3C2F666F726D6174733E504B0304140006080800CC70623BD486FD9CA0000000F4000000130000005B436F6E74656E745F54797065735D2E786D6C7D8EC10E82300C865F65E91D8A1E8C310C0EEA1BF002731658846E
310
D98AC1B77784ABF1D8FE5FBFBF75BBCE937A534CCEB38643598122B6FEE978D0B0485F9C41B54DDD7D022595594E1A469170414C76A4D9A4D207E29CF43ECE46F218070CC6BECC4078ACAA135ACF422C856C0E68EA1BF5669944DDD7BCDE7B1F8E415D77AECB980613C2E4AC91FC167A2B244592486606FC29C8FD7F045B9A
310
EF7053A7E60B504B0304140006080800CC70623BD9DDAED0EC0000007C01000008000000636F72652E786D6C8D90416EC3201045AF82665B61836D9CD8C2444DD39CA01740405C94182C03558F5F9C3852BBEB6A467FFE9B197D7EF89E6EE8CB2CC17A37002D0820E394D7D68D03A478C17B4007C117EFE32F1B20272733C0
310
2A83E0E3E2D3BC49CABB685CCCAAF3DA6CA20CC14440EA969B0182FA34932C648AD911AEC52CD5558EA6A0CF2EC329598D1E47ACCEFBECC59A050463A7EA5833865FEBDD0E37353BE3EE8DBDE3F6786A48D375FBF6CC78B9C282473B3DEFABC5C86834888A900E538A49F5419B9EB47DD5BC907D4F082F57FB1F28CDFA9F50
310
B22ED6D5F6EE030B20687EE43E10BC5CB3C8E51E54AE6B6EE207504B0304140006080800CC70623B55019EA25F0000007C00000007000000636E782E786D6C4DCB3B0E80201045D1AD90E915ED2CF8AC45050C11660C8261F98AB1B07AC9C97D42D718D865D3E909258CFD00CCE24AC6E326A164D74DC0B4128928FF326038
310
472BA13128B1252AC747C6BAB984FC68F0B87FE8960A5C09FE86CFB69FBA01504B0304140006080800CC70623BA24EB22D72010000D40300000C0000006662782F636F72652E786D6CC5535B6E833010BC8AE5DF0A6C5E49888CA3A6694ED00B38E05014B091B1518EDFE511A5A9D228FD2A1F60CDEC7A67C6986DCE4D8D7A
310
69BA4AAB0C073EC548AA5C17952A33ECECD15B61B4E1CC686DBF9561A44423333CC098B3D268D7CE50AE9595CA02AA74216750749DB418E5352C32DCE59FB211BE70162ABA93DF8AFC244AE9073ED050C759670D0840D390E18DF9F1706664C23973AE2A66B62A605A75ACA4C13C4976E1364A12EF355A2EBD384AF65EFA96
310
BC7B8BED2EA6719AAE16FB8491A199335B351775B991C2CA02F390D2D40B028F861F41BCA68B7518BFD0D59A524686F29B26D7164F36B94AD9289CE54E6D1DE6010819891F6E21228B3AD1831EC219194284CF98F06DD01008846CC5A1BEF83801D4CBDC6A1303536877A57A513B0953A94FC707FDBE6064EA84A9E3E6E0FA
310
EE8CF0E9198F7784A316AA0413C2C2F2E0ECA0934D1AE6D05A69BCDE9E91D2A611F573361E38FC1375157F5752AE6B6DFE4B11990F88CCBF0719EE23FF02504B0304140006080800CC70623B408A7D3B7C0000009D0000000B0000006662782F636E782E786D6C4DCCD10A83201886E15B91FFDC552A92A0064DBC8F581632
310
D3703A76F9ABD1C18E3E78F878E5F0D9027ABBFCF2292AE86E2D20171F69F6715550CB827B40839639A5F2770314A7CD293819B45C73AAFB45B35BA61ACAA1C1C7E7855C58C15BC331339661262CC762340413D68D77DA5B42298546CBE6573AF60CEB2F504B0304140006080800CC70623B449FB9BD290100001202000031
310
0000006662782F36394639363044362D344446342D343946362D394244322D3234314243333846323333332F636F72652E786D6C8D515B6EC32010BC0AE22B55850D98B871848994463E412FE002495162B07854397EA176A4F62F3F2C9A9D991D587EB84F37F0AD7D30CEF6905418026DA553C65E7A98E219ED203808EE9D
310
8B7F6810D871D23D2C3014FCE25D9A57483A1BB58D19B54EE9151C43D0110279CB971E06F9A5A7B11A53CC8C70ADE6515EC78BAE4895DB992778883E0700CB907242D17643D7E2538BD869608875438BBAE38922CAC8F1BDD90DB4691A5E2F42C153326A951B95E398B3D1FE599322163C9AE9115F7A3D46ADA0A018778810
310
84E907617BDCEE297BC5BB3DC6BC2EF47FA234AB2745C9D8D8D035EE220B50105E2F0DC1954B9FB747187D9F9D8FA0CCDB042D5FA0C015C65B42DF78BD10F3F3B363CB56C7109DCFDFBBB97E662ED92EB62D13BC2E1BCAE5777DB9966D8A1F504B0304140006080800CC70623BAD7543B64E01000033030000300000006662
310
782F36394639363044362D344446342D343946362D394244322D3234314243333846323333332F636E782E786D6CD593CD6EC32010845F0571AD6CE3D48AD20813A9873E410FBD12D82434182C7EAAE6EDBB2424CD25871E7B41D6EC30B3FA84F9E67BB2E40B4234DE8DB46F1925E094D7C6ED479AD3AE5951B2113C789FEE
310
6C943839C1488B4C05DF079FE72A69D8C96C13AAD6B8631503449F83828872B949AC57D26200B826A308D316B4064D6E46FCDA41C05550DC9E483A00797BFD207EFB092A45DE9514C1BBD22178396BD39D891265658C238DEA00936C654E5E433CB65A26D9F6EDB5EBC14EBF49A45CB856E66048291F6939A9A81BB5C89177
310
38143CA680F4AA299D66A042CEB3354A2684DC9D8D178FE0D9B8B41CAAD720F880EE7EF93C0C18769E099ECC04D5A102C8049A8A05632F4DDF376CF1DE0F6BB65C2F8627B65A33C6BB62177CEBBDAD973006829F89F22E814B54F4BC2BE347F8AA8F681390B50FA73F804400B5F542E796F19FF974E7F78DB802FE05E20750
310
4B0304140006080800CC70623B8D05915C650500003B100000340000006662782F36394639363044362D344446342D343946362D394244322D3234314243333846323333332F6F626A656374732E786D6CAD575B6FA33814FE2B887D06429276DA1565D4266D158D3A339A6846FB502932E050B66023DB74D2FDF5FB190C01
310
9276B2973C046C8ECFF53B17071F77456EBD502133CEAE6CDF9DD81665314F32965ED995DA3A17B6F5310C04E7AA47665B8C14F4CAD6DB7618A48257A5D94AE89654B91AEDDEDDFC61C998326A5B714EA4BCB265FC440BE2924AF184CA6737218AB8E976E7FA6E4338649B0A523E8D98964450A6A029F619B8588D52FE7039
310
B1BD30F0F4F730D0FF866AF6369557DB33949F31A9088B0F848DD8CCFCF9F2767A76E99CCDE733677E3EF59D9BBB9BA5E37F984D16E78BC5E5F5ED25044B25C0C96822E8D60EEFE11B91C581D77CEA34368A1F5329E68CD1B8B61F16D63A1B8E092D294B10C78C4A48EB593D192E7DED9BDEE7995E1B91FDEDD3ACEA9FE831
310
6A756F9F7D4D79F4274C90A7A04248AA51D5F8C718DAE06FB2F75AC4796EBE65D22A88A22223B995679120E2D50E41AA49C260C046A35368846B0BECD0DFF3EBEB8AD4F835768F69B9ADF25C43D30E6B646F807FAA64AD59F61715C7A54127C4AACA98BA3006A9D792DAE165E0D59B61A01FB3A9F9D838D2DAE62445C86166
310
F37564E842E7DE6A69879FEEA2DD5AE7E371E1A5E025154AC307D06A03D73EB5978C58FFA4C8E9033066E0F3BD53BEC1F39F91BE7B55103791EDE6BBB991A2046172CB4581D8B893FA674DDA17A77B3B7C413D1B511FD2743BFF8A38F03A658705E3ADF8015C3A3417FF3D7E439FF591DA0B5F18BC20C1B8981957AE6392A3
310
F43C640C01D1A0B4728E2DD4F26DB4B3C3152A252A3B4E913CEC1C72F012782FF88EFF8637AA552DBEF76408E8A8DE9E50F9E1CB3A2DA0DB1B6039A893B56063DC5B3E3FFB5F72E67AB9FEB4AEC496C4F4C1149625DD662C53E89D7BF0F6151A046260D1337DFDC94502430F83B0EE07A130A224BCAD7DAE1D9FB6CD422FF6
310
920702629C4BB9AE79C12F243C6432A6794E18E5552BA56B431AAB5D91317302B2B071E86C3A42B1A02F999E24061403B5D0EB639195DA655DD3EBEAB4FB862DDF579F014AD0E73C22F99E28DA57FB98E75C6CA2D74D53086D600F4786E0FE3144B771A8A7B900F03594DB8A633CBC49B2EDB69228BB479CF863B5E807AAAB
310
23872F6DFEB4129B949CA33823F58830E86D65621E10047D9DB34D862E8EAC3C2ABC2F7B2C40D67CDFE01F5545B92105AF983AC54D93D69E56FB8E797F88913F898A9FEC705D3F9D1B54EC8426FB500D40A03BD0119B06E1B95DDC7EB8F6975367793EBD70E66733DFB9BC982F9CE564727731999F5D4ECFCE3B8D6A4DC2A0
310
6D50FD148437D110834A64C6CDDF57FBACB5C307A2A477DFE4939736CFEF2B175371E0E10CF0DD1D5C15654E0BCA14D1E87DD02FF93782A162C0A3D95F1524A52770F972BF1EE9809D13CE7DD599467F8ECE9ADD85CE85A34CD45355448C64F9E8A031DC2D596ACC6E5DD93D9B82DE2EF5CAF81363A8E47996A0DE24564A79
310
4115AACE09C55E14540231FDA13C319787134EBF34E3A022514E5B4D9E0826E25C02D5805B15ABE1BEF51B26383D445DD9E875EE33FE4C22DA16427D65A3BCA92CA6D28DD01DF5DC53330704308475351050232CCD31583787BA75774AFB06E5070DD0C8EF484E19968C5D83BA5B90B244D31E54D55A372320FE4786B7EA58
310
44E135AA5467CB7EA333A61683CC6A8C3257034C10CF46F40EF9F5BE59BE5BD30C3C72D235E95D10345C1D45445A5F0BB47E46A5EBE5570F9380B5FA629579952296A773720405982B9DE04011506178964401AA8BDF1FBF0A8EAB6861DD6580C0E38217056766716DAEB2D6FA0917D3E4116581EADB879C4E7CFFB11EFACD
310
3D641311495D92C8676CB409A72D18610D803CE8A626049E8EC1887CB5B44CC39883690DDA8399B4B9855B481E7D71D4A9D22F96E5BB73BF5793020C02137BF837504B0304140006080000CC70623B000000000000000000000000350000006662782F36394639363044362D344446342D343946362D394244322D32343142
310
43333846323333332F76657274696365732E62696E504B0304140006080800CC70623BF270F1330600000004000000360000006662782F36394639363044362D344446342D343946362D394244322D3234314243333846323333332F747269616E676C65732E62696E636660600000504B0304140006080000CC70623B0000
310
00000000000000000000370000006662782F36394639363044362D344446342D343946362D394244322D3234314243333846323333332F617474726962757465732E62696E504B0304140006080800CC70623B08DA0BD19000000041010000360000006662782F36394639363044362D344446342D343946362D394244322D
310
3234314243333846323333332F6469726563746F72792E786D6C858F410AC3201045AF22B36F53E9A60B35CBEEBAE80D244E44489C6234F4F835464A48035D0DF398FF9F8AF63D0E6CC63039F212F8F9020C7D47C6792B21C5FE7403D62A1188E2E60C98D7234A5830286103A55745067B9D86B8A3CF9C7F90C11DE607FB14
310
4396D7B6A82D282E9A152AD114D5EF2CB866EEE831B8EEA07A7BB5A8D7D61A2BAAEB7FD5F70921FF497D00504B0304140006080800CC70623BCA768048FE000000A00100003B0000006662782F36394639363044362D344446342D343946362D394244322D3234314243333846323333332F7265736F75726365732F636F72
310
652E786D6C8D50596E833010BD0A9ADFCA60D600328E9AA639412F609909B1126CE4A5EAF16B0295DABFFECC8CDEA2797AECF8353F924FB44E193D409E5248504B332A3D0D10FC95B4901C39B3C6F85F3248B49871801506CE266BC2B243D2688FDA47549B11775038871E12F988C7004EDE7016A9083E2ADC3D5D84BC8B09
310
D33C8D74D471E6BC8D0192EDC93A815B742658898E651BCB59086ADC356A8C3FD555A1055ED7E7E254D615792D0F075295F585746FF53B694EE78A565DD736979A65AB9933AFE69F8CD2A2F038022F28ED489E135A7CE4554F9BBEA85E68DB53CAB255FEC71496F19FA6A0B42F8B3DEE6673C0F318E4497096AD7DC5F52C33
310
EEB55BFE0D504B010214000A0000080000CC70623B3DEE336E79000000790000001B00000000000000000000000000000000006175746F6465736B2D64657369676E2D7061636B6167652E786D6C504B01021400140006080800CC70623BD486FD9CA0000000F40000001300000000000000000000000000B20000005B436F
310
6E74656E745F54797065735D2E786D6C504B01021400140006080800CC70623BD9DDAED0EC0000007C010000080000000000000000000000000083010000636F72652E786D6C504B01021400140006080800CC70623B55019EA25F0000007C000000070000000000000000000000000095020000636E782E786D6C504B0102
310
1400140006080800CC70623BA24EB22D72010000D40300000C00000000000000000000000000190300006662782F636F72652E786D6C504B01021400140006080800CC70623B408A7D3B7C0000009D0000000B00000000000000000000000000B50400006662782F636E782E786D6C504B01021400140006080800CC70623B
310
449FB9BD290100001202000031000000000000000000000000005A0500006662782F36394639363044362D344446342D343946362D394244322D3234314243333846323333332F636F72652E786D6C504B01021400140006080800CC70623BAD7543B64E010000330300003000000000000000000000000000D20600006662
310
782F36394639363044362D344446342D343946362D394244322D3234314243333846323333332F636E782E786D6C504B01021400140006080800CC70623B8D05915C650500003B10000034000000000000000000000000006E0800006662782F36394639363044362D344446342D343946362D394244322D32343142433338
310
46323333332F6F626A656374732E786D6C504B01021400140006080000CC70623B0000000000000000000000003500000000000000000000000000250E00006662782F36394639363044362D344446342D343946362D394244322D3234314243333846323333332F76657274696365732E62696E504B010214001400060808
310
00CC70623BF270F13306000000040000003600000000000000000000000000780E00006662782F36394639363044362D344446342D343946362D394244322D3234314243333846323333332F747269616E676C65732E62696E504B01021400140006080000CC70623B00000000000000000000000037000000000000000000
310
00000000D20E00006662782F36394639363044362D344446342D343946362D394244322D3234314243333846323333332F617474726962757465732E62696E504B01021400140006080800CC70623B08DA0BD190000000410100003600000000000000000000000000270F00006662782F36394639363044362D344446342D
310
343946362D394244322D3234314243333846323333332F6469726563746F72792E786D6C504B01021400140006080800CC70623BCA768048FE000000A00100003B000000000000000000000000000B1000006662782F36394639363044362D344446342D343946362D394244322D3234314243333846323333332F7265736F
310
75726365732F636F72652E786D6C504B0506000000000E000E0080040000621100000000
  0
XRECORD
  5
176
102
{ACAD_REACTORS
330
173
102
}
330
173
100
AcDbXrecord
280
     1
270
     1
271
     1
  0
XRECORD
  5
177
102
{ACAD_REACTORS
330
173
102
}
330
173
100
AcDbXrecord
280
     1
270
     1
271
     1
  0
XRECORD
  5
4B0
102
{ACAD_REACTORS
330
4AF
102
}
330
4AF
100
AcDbXrecord
280
     1
102
DISPLAYNAME
  1
Imperial24
102
FLAGS
 90
        0
  0
XRECORD
  5
4AC
102
{ACAD_REACTORS
330
4AB
102
}
330
4AB
100
AcDbXrecord
280
     1
102
DISPLAYNAME
  1
Metric50
102
FLAGS
 90
        0
  0
CELLSTYLEMAP
  5
4A1
102
{ACAD_REACTORS
330
162
102
}
330
162
100
AcDbCellStyleMap
 90
        3
300
CELLSTYLE
  1
TABLEFORMAT_BEGIN
 90
        5
170
     1
 91
        0
 92
    32768
 62
   257
 93
        1
300
CONTENTFORMAT
  1
CONTENTFORMAT_BEGIN
 90
        0
 91
        0
 92
      512
 93
        0
300

 40
0.0
140
1.0
 94
        5
 62
     0
340
11
144
6.0
309
CONTENTFORMAT_END
171
     1
301
MARGIN
  1
CELLMARGIN_BEGIN
 40
1.5
 40
1.5
 40
1.5
 40
1.5
 40
4.5
 40
4.5
309
CELLMARGIN_END
 94
        6
 95
        1
302
GRIDFORMAT
  1
GRIDFORMAT_BEGIN
 90
        0
 91
        1
 62
     0
 92
       -2
340
14
 93
        0
 40
1.125
309
GRIDFORMAT_END
 95
        2
302
GRIDFORMAT
  1
GRIDFORMAT_BEGIN
 90
        0
 91
        1
 62
     0
 92
       -2
340
14
 93
        0
 40
1.125
309
GRIDFORMAT_END
 95
        4
302
GRIDFORMAT
  1
GRIDFORMAT_BEGIN
 90
        0
 91
        1
 62
     0
 92
       -2
340
14
 93
        0
 40
1.125
309
GRIDFORMAT_END
 95
        8
302
GRIDFORMAT
  1
GRIDFORMAT_BEGIN
 90
        0
 91
        1
 62
     0
 92
       -2
340
14
 93
        0
 40
1.125
309
GRIDFORMAT_END
 95
       16
302
GRIDFORMAT
  1
GRIDFORMAT_BEGIN
 90
        0
 91
        1
 62
     0
 92
       -2
340
14
 93
        0
 40
1.125
309
GRIDFORMAT_END
 95
       32
302
GRIDFORMAT
  1
GRIDFORMAT_BEGIN
 90
        0
 91
        1
 62
     0
 92
       -2
340
14
 93
        0
 40
1.125
309
GRIDFORMAT_END
309
TABLEFORMAT_END
  1
CELLSTYLE_BEGIN
 90
        1
 91
        1
300
_TITLE
309
CELLSTYLE_END
300
CELLSTYLE
  1
TABLEFORMAT_BEGIN
 90
        5
170
     1
 91
        0
 92
        0
 62
   257
 93
        1
300
CONTENTFORMAT
  1
CONTENTFORMAT_BEGIN
 90
        0
 91
        0
 92
      512
 93
        0
300

 40
0.0
140
1.0
 94
        5
 62
     0
340
11
144
4.5
309
CONTENTFORMAT_END
171
     1
301
MARGIN
  1
CELLMARGIN_BEGIN
 40
1.5
 40
1.5
 40
1.5
 40
1.5
 40
4.5
 40
4.5
309
CELLMARGIN_END
 94
        6
 95
        1
302
GRIDFORMAT
  1
GRIDFORMAT_BEGIN
 90
        0
 91
        1
 62
     0
 92
       -2
340
14
 93
        0
 40
1.125
309
GRIDFORMAT_END
 95
        2
302
GRIDFORMAT
  1
GRIDFORMAT_BEGIN
 90
        0
 91
        1
 62
     0
 92
       -2
340
14
 93
        0
 40
1.125
309
GRIDFORMAT_END
 95
        4
302
GRIDFORMAT
  1
GRIDFORMAT_BEGIN
 90
        0
 91
        1
 62
     0
 92
       -2
340
14
 93
        0
 40
1.125
309
GRIDFORMAT_END
 95
        8
302
GRIDFORMAT
  1
GRIDFORMAT_BEGIN
 90
        0
 91
        1
 62
     0
 92
       -2
340
14
 93
        0
 40
1.125
309
GRIDFORMAT_END
 95
       16
302
GRIDFORMAT
  1
GRIDFORMAT_BEGIN
 90
        0
 91
        1
 62
     0
 92
       -2
340
14
 93
        0
 40
1.125
309
GRIDFORMAT_END
 95
       32
302
GRIDFORMAT
  1
GRIDFORMAT_BEGIN
 90
        0
 91
        1
 62
     0
 92
       -2
340
14
 93
        0
 40
1.125
309
GRIDFORMAT_END
309
TABLEFORMAT_END
  1
CELLSTYLE_BEGIN
 90
        2
 91
        1
300
_HEADER
309
CELLSTYLE_END
300
CELLSTYLE
  1
TABLEFORMAT_BEGIN
 90
        5
170
     1
 91
        0
 92
        0
 62
   257
 93
        1
300
CONTENTFORMAT
  1
CONTENTFORMAT_BEGIN
 90
        0
 91
        0
 92
      512
 93
        0
300

 40
0.0
140
1.0
 94
        2
 62
     0
340
11
144
4.5
309
CONTENTFORMAT_END
171
     1
301
MARGIN
  1
CELLMARGIN_BEGIN
 40
1.5
 40
1.5
 40
1.5
 40
1.5
 40
4.5
 40
4.5
309
CELLMARGIN_END
 94
        6
 95
        1
302
GRIDFORMAT
  1
GRIDFORMAT_BEGIN
 90
        0
 91
        1
 62
     0
 92
       -2
340
14
 93
        0
 40
1.125
309
GRIDFORMAT_END
 95
        2
302
GRIDFORMAT
  1
GRIDFORMAT_BEGIN
 90
        0
 91
        1
 62
     0
 92
       -2
340
14
 93
        0
 40
1.125
309
GRIDFORMAT_END
 95
        4
302
GRIDFORMAT
  1
GRIDFORMAT_BEGIN
 90
        0
 91
        1
 62
     0
 92
       -2
340
14
 93
        0
 40
1.125
309
GRIDFORMAT_END
 95
        8
302
GRIDFORMAT
  1
GRIDFORMAT_BEGIN
 90
        0
 91
        1
 62
     0
 92
       -2
340
14
 93
        0
 40
1.125
309
GRIDFORMAT_END
 95
       16
302
GRIDFORMAT
  1
GRIDFORMAT_BEGIN
 90
        0
 91
        1
 62
     0
 92
       -2
340
14
 93
        0
 40
1.125
309
GRIDFORMAT_END
 95
       32
302
GRIDFORMAT
  1
GRIDFORMAT_BEGIN
 90
        0
 91
        1
 62
     0
 92
       -2
340
14
 93
        0
 40
1.125
309
GRIDFORMAT_END
309
TABLEFORMAT_END
  1
CELLSTYLE_BEGIN
 90
        3
 91
        2
300
_DATA
309
CELLSTYLE_END
  0
ENDSEC
  0
SECTION
  2
ACDSDATA
 70
     2
 71
     8
  0
ACDSSCHEMA
 90
        0
  1
AcDb_Thumbnail_Schema
  2
AcDbDs::ID
280
    10
 91
        8
  2
Thumbnail_Data
280
    15
 91
        0
101
ACDSRECORD
 95
        0
 90
        1
  2
AcDbDs::TreatedAsObjectData
280
     1
291
     1
101
ACDSRECORD
 95
        0
 90
        2
  2
AcDbDs::Legacy
280
     1
291
     1
101
ACDSRECORD
  1
AcDbDs::ID
 90
        3
  2
AcDs:Indexable
280
     1
291
     1
101
ACDSRECORD
  1
AcDbDs::ID
 90
        4
  2
AcDbDs::HandleAttribute
280
     7
282
     1
  0
ACDSSCHEMA
 90
        1
  1
AcDbDs::TreatedAsObjectDataSchema
  2
AcDbDs::TreatedAsObjectData
280
     1
 91
        0
  0
ACDSSCHEMA
 90
        2
  1
AcDbDs::LegacySchema
  2
AcDbDs::Legacy
280
     1
 91
        0
  0
ACDSSCHEMA
 90
        3
  1
AcDbDs::IndexedPropertySchema
  2
AcDs:Indexable
280
     1
 91
        0
  0
ACDSSCHEMA
 90
        4
  1
AcDbDs::HandleAttributeSchema
  2
AcDbDs::HandleAttribute
280
     7
 91
        1
284
     1
  0
ACDSRECORD
 90
        0
  2
AcDbDs::ID
280
    10
320
22
  2
Thumbnail_Data
280
    15
 94
      896
310
89504E470D0A1A0A0000000D49484452000001000000009108030000001BE1960600000300504C5445212830FFFFFF2128300000000000000000000000000000000000000000000000000000330000660000990000CC0000FF0033000033330033660033990033CC0033FF0066000066330066660066990066CC0066FF0099
310
000099330099660099990099CC0099FF00CC0000CC3300CC6600CC9900CCCC00CCFF00FF0000FF3300FF6600FF9900FFCC00FFFF3300003300333300663300993300CC3300FF3333003333333333663333993333CC3333FF3366003366333366663366993366CC3366FF3399003399333399663399993399CC3399FF33CC00
310
33CC3333CC6633CC9933CCCC33CCFF33FF0033FF3333FF6633FF9933FFCC33FFFF6600006600336600666600996600CC6600FF6633006633336633666633996633CC6633FF6666006666336666666666996666CC6666FF6699006699336699666699996699CC6699FF66CC0066CC3366CC6666CC9966CCCC66CCFF66FF0066
310
FF3366FF6666FF9966FFCC66FFFF9900009900339900669900999900CC9900FF9933009933339933669933999933CC9933FF9966009966339966669966999966CC9966FF9999009999339999669999999999CC9999FF99CC0099CC3399CC6699CC9999CCCC99CCFF99FF0099FF3399FF6699FF9999FFCC99FFFFCC0000CC00
310
33CC0066CC0099CC00CCCC00FFCC3300CC3333CC3366CC3399CC33CCCC33FFCC6600CC6633CC6666CC6699CC66CCCC66FFCC9900CC9933CC9966CC9999CC99CCCC99FFCCCC00CCCC33CCCC66CCCC99CCCCCCCCCCFFCCFF00CCFF33CCFF66CCFF99CCFFCCCCFFFFFF0000FF0033FF0066FF0099FF00CCFF00FFFF3300FF3333
310
FF3366FF3399FF33CCFF33FFFF6600FF6633FF6666FF6699FF66CCFF66FFFF9900FF9933FF9966FF9999FF99CCFF99FFFFCC00FFCC33FFCC66FFCC99FFCCCCFFCCFFFFFF00FFFF33FFFF66FFFF99FFFFCCFFFFFF0000000D0D0D1A1A1A2828283535354343435050505D5D5D6B6B6B787878868686939393A1A1A1AEAEAEBB
310
BBBBC9C9C9D6D6D6E4E4E4F1F1F1FFFFFF0000000000000000000000000000000000000000000000000000000000002E4550F10000003B4944415478DAEDC13101000000C2A0F54F6D0B2FA0000000000000000000000000000000000000000000000000000000000000000000000000CE06919100016C9A5B1B0000000049
310
454E44AE426082
  0
ENDSEC
  0
EOF
