  0
SECTION
  2
HEADER
  9
$ACADVER
  1
AC1027
  9
$ACADMAINTVER
 70
   125
  9
$DWGCODEPAGE
  3
ANSI_1252
  9
$LASTSAVEDBY
  1
ufficio.tecnico
  9
$REQUIREDVERSIONS
160
                 0
  9
$INSBASE
 10
0.0
 20
0.0
 30
0.0
  9
$EXTMIN
 10
5.285720400608171
 20
-20.76944715192569
 30
0.0
  9
$EXTMAX
 10
12.19946207377305
 20
-9.331058347276609
 30
0.0
  9
$LIMMIN
 10
0.0
 20
0.0
  9
$LIMMAX
 10
12.0
 20
9.0
  9
$ORTHOMODE
 70
     0
  9
$REGENMODE
 70
     1
  9
$FILLMODE
 70
     1
  9
$QTEXTMODE
 70
     0
  9
$MIRRTEXT
 70
     1
  9
$LTSCALE
 40
1.0
  9
$ATTMODE
 70
     1
  9
$TEXTSIZE
 40
0.2
  9
$TRACEWID
 40
0.05
  9
$TEXTSTYLE
  7
Standard
  9
$CLAYER
  8
0
  9
$CELTYPE
  6
ByLayer
  9
$CECOLOR
 62
   256
  9
$CELTSCALE
 40
1.0
  9
$DISPSILH
 70
     0
  9
$DIMSCALE
 40
1.0
  9
$DIMASZ
 40
0.18
  9
$DIMEXO
 40
0.0625
  9
$DIMDLI
 40
0.38
  9
$DIMRND
 40
0.0
  9
$DIMDLE
 40
0.0
  9
$DIMEXE
 40
0.18
  9
$DIMTP
 40
0.0
  9
$DIMTM
 40
0.0
  9
$DIMTXT
 40
0.18
  9
$DIMCEN
 40
0.09
  9
$DIMTSZ
 40
0.0
  9
$DIMTOL
 70
     0
  9
$DIMLIM
 70
     0
  9
$DIMTIH
 70
     1
  9
$DIMTOH
 70
     1
  9
$DIMSE1
 70
     0
  9
$DIMSE2
 70
     0
  9
$DIMTAD
 70
     0
  9
$DIMZIN
 70
     0
  9
$DIMBLK
  1

  9
$DIMASO
 70
     1
  9
$DIMSHO
 70
     1
  9
$DIMPOST
  1

  9
$DIMAPOST
  1

  9
$DIMALT
 70
     0
  9
$DIMALTD
 70
     2
  9
$DIMALTF
 40
25.4
  9
$DIMLFAC
 40
1.0
  9
$DIMTOFL
 70
     0
  9
$DIMTVP
 40
0.0
  9
$DIMTIX
 70
     0
  9
$DIMSOXD
 70
     0
  9
$DIMSAH
 70
     0
  9
$DIMBLK1
  1

  9
$DIMBLK2
  1

  9
$DIMSTYLE
  2
Standard
  9
$DIMCLRD
 70
     0
  9
$DIMCLRE
 70
     0
  9
$DIMCLRT
 70
     0
  9
$DIMTFAC
 40
1.0
  9
$DIMGAP
 40
0.09
  9
$DIMJUST
 70
     0
  9
$DIMSD1
 70
     0
  9
$DIMSD2
 70
     0
  9
$DIMTOLJ
 70
     1
  9
$DIMTZIN
 70
     0
  9
$DIMALTZ
 70
     0
  9
$DIMALTTZ
 70
     0
  9
$DIMUPT
 70
     0
  9
$DIMDEC
 70
     4
  9
$DIMTDEC
 70
     4
  9
$DIMALTU
 70
     2
  9
$DIMALTTD
 70
     2
  9
$DIMTXSTY
  7
Standard
  9
$DIMAUNIT
 70
     0
  9
$DIMADEC
 70
     0
  9
$DIMALTRND
 40
0.0
  9
$DIMAZIN
 70
     0
  9
$DIMDSEP
 70
    46
  9
$DIMATFIT
 70
     3
  9
$DIMFRAC
 70
     0
  9
$DIMLDRBLK
  1

  9
$DIMLUNIT
 70
     2
  9
$DIMLWD
 70
    -2
  9
$DIMLWE
 70
    -2
  9
$DIMTMOVE
 70
     0
  9
$DIMFXL
 40
1.0
  9
$DIMFXLON
 70
     0
  9
$DIMJOGANG
 40
0.7853981633974483
  9
$DIMTFILL
 70
     0
  9
$DIMTFILLCLR
 70
     0
  9
$DIMARCSYM
 70
     0
  9
$DIMLTYPE
  6

  9
$DIMLTEX1
  6

  9
$DIMLTEX2
  6

  9
$DIMTXTDIRECTION
 70
     0
  9
$LUNITS
 70
     2
  9
$LUPREC
 70
     4
  9
$SKETCHINC
 40
0.1
  9
$FILLETRAD
 40
0.5
  9
$AUNITS
 70
     0
  9
$AUPREC
 70
     0
  9
$MENU
  1
.
  9
$ELEVATION
 40
0.0
  9
$PELEVATION
 40
0.0
  9
$THICKNESS
 40
0.0
  9
$LIMCHECK
 70
     0
  9
$CHAMFERA
 40
0.5
  9
$CHAMFERB
 40
0.5
  9
$CHAMFERC
 40
1.0
  9
$CHAMFERD
 40
0.0
  9
$SKPOLY
 70
     0
  9
$TDCREATE
 40
2459325.411608796
  9
$TDUCREATE
 40
2459325.328278715
  9
$TDUPDATE
 40
2459325.444953704
  9
$TDUUPDATE
 40
2459325.361620371
  9
$TDINDWG
 40
0.0009259375
  9
$TDUSRTIMER
 40
0.0009259375
  9
$USRTIMER
 70
     1
  9
$ANGBASE
 50
0.0
  9
$ANGDIR
 70
     0
  9
$PDMODE
 70
     0
  9
$PDSIZE
 40
0.0
  9
$PLINEWID
 40
0.0
  9
$SPLFRAME
 70
     0
  9
$SPLINETYPE
 70
     6
  9
$SPLINESEGS
 70
     8
  9
$HANDSEED
  5
1B3
  9
$SURFTAB1
 70
     6
  9
$SURFTAB2
 70
     6
  9
$SURFTYPE
 70
     6
  9
$SURFU
 70
     6
  9
$SURFV
 70
     6
  9
$UCSBASE
  2

  9
$UCSNAME
  2

  9
$UCSORG
 10
0.0
 20
0.0
 30
0.0
  9
$UCSXDIR
 10
1.0
 20
0.0
 30
0.0
  9
$UCSYDIR
 10
0.0
 20
1.0
 30
0.0
  9
$UCSORTHOREF
  2

  9
$UCSORTHOVIEW
 70
     0
  9
$UCSORGTOP
 10
0.0
 20
0.0
 30
0.0
  9
$UCSORGBOTTOM
 10
0.0
 20
0.0
 30
0.0
  9
$UCSORGLEFT
 10
0.0
 20
0.0
 30
0.0
  9
$UCSORGRIGHT
 10
0.0
 20
0.0
 30
0.0
  9
$UCSORGFRONT
 10
0.0
 20
0.0
 30
0.0
  9
$UCSORGBACK
 10
0.0
 20
0.0
 30
0.0
  9
$PUCSBASE
  2

  9
$PUCSNAME
  2

  9
$PUCSORG
 10
0.0
 20
0.0
 30
0.0
  9
$PUCSXDIR
 10
1.0
 20
0.0
 30
0.0
  9
$PUCSYDIR
 10
0.0
 20
1.0
 30
0.0
  9
$PUCSORTHOREF
  2

  9
$PUCSORTHOVIEW
 70
     0
  9
$PUCSORGTOP
 10
0.0
 20
0.0
 30
0.0
  9
$PUCSORGBOTTOM
 10
0.0
 20
0.0
 30
0.0
  9
$PUCSORGLEFT
 10
0.0
 20
0.0
 30
0.0
  9
$PUCSORGRIGHT
 10
0.0
 20
0.0
 30
0.0
  9
$PUCSORGFRONT
 10
0.0
 20
0.0
 30
0.0
  9
$PUCSORGBACK
 10
0.0
 20
0.0
 30
0.0
  9
$USERI1
 70
     0
  9
$USERI2
 70
     0
  9
$USERI3
 70
     0
  9
$USERI4
 70
     0
  9
$USERI5
 70
     0
  9
$USERR1
 40
0.0
  9
$USERR2
 40
0.0
  9
$USERR3
 40
0.0
  9
$USERR4
 40
0.0
  9
$USERR5
 40
0.0
  9
$WORLDVIEW
 70
     1
  9
$SHADEDGE
 70
     3
  9
$SHADEDIF
 70
    70
  9
$TILEMODE
 70
     1
  9
$MAXACTVP
 70
    64
  9
$PINSBASE
 10
0.0
 20
0.0
 30
0.0
  9
$PLIMCHECK
 70
     0
  9
$PEXTMIN
 10
1.000000000000000E+20
 20
1.000000000000000E+20
 30
1.000000000000000E+20
  9
$PEXTMAX
 10
-1.000000000000000E+20
 20
-1.000000000000000E+20
 30
-1.000000000000000E+20
  9
$PLIMMIN
 10
0.0
 20
0.0
  9
$PLIMMAX
 10
12.0
 20
9.0
  9
$UNITMODE
 70
     0
  9
$VISRETAIN
 70
     1
  9
$PLINEGEN
 70
     0
  9
$PSLTSCALE
 70
     1
  9
$TREEDEPTH
 70
  3020
  9
$CMLSTYLE
  2
Standard
  9
$CMLJUST
 70
     0
  9
$CMLSCALE
 40
1.0
  9
$PROXYGRAPHICS
 70
     1
  9
$MEASUREMENT
 70
     0
  9
$CELWEIGHT
370
    -1
  9
$ENDCAPS
280
     0
  9
$JOINSTYLE
280
     0
  9
$LWDISPLAY
290
     1
  9
$INSUNITS
 70
     5
  9
$HYPERLINKBASE
  1

  9
$STYLESHEET
  1

  9
$XEDIT
290
     1
  9
$CEPSNTYPE
380
     0
  9
$PSTYLEMODE
290
     1
  9
$FINGERPRINTGUID
  2
{D28BAC53-AF3B-47D9-B5D3-55B8CA9E6AED}
  9
$VERSIONGUID
  2
{25ECAC0C-35DF-FD48-A1B4-A692FA17A4B9}
  9
$EXTNAMES
290
     1
  9
$PSVPSCALE
 40
0.0
  9
$OLESTARTUP
290
     0
  9
$SORTENTS
280
   127
  9
$INDEXCTL
280
     0
  9
$HIDETEXT
280
     1
  9
$XCLIPFRAME
280
     2
  9
$HALOGAP
280
     0
  9
$OBSCOLOR
 70
   257
  9
$OBSLTYPE
280
     0
  9
$INTERSECTIONDISPLAY
280
     0
  9
$INTERSECTIONCOLOR
 70
   257
  9
$DIMASSOC
280
     2
  9
$PROJECTNAME
  1

  9
$CAMERADISPLAY
290
     0
  9
$LENSLENGTH
 40
50.0
  9
$CAMERAHEIGHT
 40
0.0
  9
$STEPSPERSEC
 40
2.0
  9
$STEPSIZE
 40
6.0
  9
$3DDWFPREC
 40
2.0
  9
$PSOLWIDTH
 40
0.25
  9
$PSOLHEIGHT
 40
4.0
  9
$LOFTANG1
 40
1.570796326794897
  9
$LOFTANG2
 40
1.570796326794897
  9
$LOFTMAG1
 40
0.0
  9
$LOFTMAG2
 40
0.0
  9
$LOFTPARAM
 70
     7
  9
$LOFTNORMALS
280
     1
  9
$LATITUDE
 40
37.795
  9
$LONGITUDE
 40
-122.394
  9
$NORTHDIRECTION
 40
0.0
  9
$TIMEZONE
 70
 -8000
  9
$LIGHTGLYPHDISPLAY
280
     1
  9
$TILEMODELIGHTSYNCH
280
     1
  9
$CMATERIAL
347
3C
  9
$SOLIDHIST
280
     1
  9
$SHOWHIST
280
     1
  9
$DWFFRAME
280
     2
  9
$DGNFRAME
280
     2
  9
$REALWORLDSCALE
290
     1
  9
$INTERFERECOLOR
 62
   256
  9
$INTERFEREOBJVS
345
33
  9
$INTERFEREVPVS
346
E8
  9
$CSHADOW
280
     0
  9
$SHADOWPLANELOCATION
 40
0.0
  0
ENDSEC
  0
SECTION
  2
CLASSES
  0
CLASS
  1
ACDBDICTIONARYWDFLT
  2
AcDbDictionaryWithDefault
  3
ObjectDBX Classes
 90
        0
 91
        1
280
     0
281
     0
  0
CLASS
  1
VISUALSTYLE
  2
AcDbVisualStyle
  3
ObjectDBX Classes
 90
     4095
 91
       26
280
     0
281
     0
  0
CLASS
  1
MATERIAL
  2
AcDbMaterial
  3
ObjectDBX Classes
 90
     1153
 91
        3
280
     0
281
     0
  0
CLASS
  1
SUN
  2
AcDbSun
  3
SCENEOE
 90
     1153
 91
        1
280
     0
281
     0
  0
CLASS
  1
TABLESTYLE
  2
AcDbTableStyle
  3
ObjectDBX Classes
 90
     4095
 91
        1
280
     0
281
     0
  0
CLASS
  1
SCALE
  2
AcDbScale
  3
ObjectDBX Classes
 90
     1153
 91
       21
280
     0
281
     0
  0
CLASS
  1
MLEADERSTYLE
  2
AcDbMLeaderStyle
  3
ACDB_MLEADERSTYLE_CLASS
 90
     4095
 91
        1
280
     0
281
     0
  0
CLASS
  1
ACDBSECTIONVIEWSTYLE
  2
AcDbSectionViewStyle
  3
ObjectDBX Classes
 90
     1025
 91
        1
280
     0
281
     0
  0
CLASS
  1
ACDBDETAILVIEWSTYLE
  2
AcDbDetailViewStyle
  3
ObjectDBX Classes
 90
     1025
 91
        1
280
     0
281
     0
  0
CLASS
  1
SORTENTSTABLE
  2
AcDbSortentsTable
  3
ObjectDBX Classes
 90
        0
 91
        1
280
     0
281
     0
  0
CLASS
  1
DICTIONARYVAR
  2
AcDbDictionaryVar
  3
ObjectDBX Classes
 90
        0
 91
        5
280
     0
281
     0
  0
CLASS
  1
CELLSTYLEMAP
  2
AcDbCellStyleMap
  3
ObjectDBX Classes
 90
     1152
 91
        1
280
     0
281
     0
  0
ENDSEC
  0
SECTION
  2
TABLES
  0
TABLE
  2
VPORT
  5
8
330
0
100
AcDbSymbolTable
 70
     1
1001
ACAD
1000
DbSaveVer
1071
      105
  0
VPORT
  5
29
330
8
100
AcDbSymbolTableRecord
100
AcDbViewportTableRecord
  2
*Active
 70
     0
 10
0.0
 20
0.0
 11
1.0
 21
1.0
 12
-4.258247137952423
 22
-7.334726476873857
 13
0.0
 23
0.0
 14
0.5
 24
0.5
 15
0.5
 25
0.5
 16
0.0
 26
0.0
 36
1.0
 17
10.50008306681941
 27
-14.84999710739862
 37
0.0
 40
28.63261106384609
 41
1.823776223776223
 42
50.0
 43
0.0
 44
0.0
 50
0.0
 51
0.0
 71
     0
 72
   100
 73
     1
 74
     3
 75
     0
 76
     0
 77
     0
 78
     0
281
     0
 65
     1
110
0.0
120
0.0
130
0.0
111
1.0
121
0.0
131
0.0
112
0.0
122
1.0
132
0.0
 79
     0
146
0.0
348
2F
 60
     3
 61
     5
292
     1
282
     1
141
0.0
142
0.0
 63
   250
361
3F
1001
ACAD_NAV_VCDISPLAY
1070
     3
  0
ENDTAB
  0
TABLE
  2
LTYPE
  5
5
330
0
100
AcDbSymbolTable
 70
     1
  0
LTYPE
  5
14
330
5
100
AcDbSymbolTableRecord
100
AcDbLinetypeTableRecord
  2
ByBlock
 70
     0
  3

 72
    65
 73
     0
 40
0.0
  0
LTYPE
  5
15
330
5
100
AcDbSymbolTableRecord
100
AcDbLinetypeTableRecord
  2
ByLayer
 70
     0
  3

 72
    65
 73
     0
 40
0.0
  0
LTYPE
  5
16
330
5
100
AcDbSymbolTableRecord
100
AcDbLinetypeTableRecord
  2
Continuous
 70
     0
  3
Solid line
 72
    65
 73
     0
 40
0.0
  0
ENDTAB
  0
TABLE
  2
LAYER
  5
2
330
0
100
AcDbSymbolTable
 70
     2
  0
LAYER
  5
10
330
2
100
AcDbSymbolTableRecord
100
AcDbLayerTableRecord
  2
0
 70
     0
 62
     7
  6
Continuous
370
    -3
390
F
347
3E
348
0
  0
LAYER
  5
40
330
2
100
AcDbSymbolTableRecord
100
AcDbLayerTableRecord
  2
Livello 3
 70
     0
 62
     7
  6
Continuous
370
    -3
390
F
347
3E
348
0
  0
ENDTAB
  0
TABLE
  2
STYLE
  5
3
330
0
100
AcDbSymbolTable
 70
     1
  0
STYLE
  5
11
330
3
100
AcDbSymbolTableRecord
100
AcDbTextStyleTableRecord
  2
Standard
 70
     0
 40
0.0
 41
1.0
 50
0.0
 71
     0
 42
0.2
  3
txt
  4

  0
ENDTAB
  0
TABLE
  2
VIEW
  5
6
330
0
100
AcDbSymbolTable
 70
     0
  0
ENDTAB
  0
TABLE
  2
UCS
  5
7
330
0
100
AcDbSymbolTable
 70
     0
  0
ENDTAB
  0
TABLE
  2
APPID
  5
9
330
0
100
AcDbSymbolTable
 70
     2
  0
APPID
  5
12
330
9
100
AcDbSymbolTableRecord
100
AcDbRegAppTableRecord
  2
ACAD
 70
     0
  0
APPID
  5
1AB
330
9
100
AcDbSymbolTableRecord
100
AcDbRegAppTableRecord
  2
ACAD_NAV_VCDISPLAY
 70
     0
  0
ENDTAB
  0
TABLE
  2
DIMSTYLE
  5
A
330
0
100
AcDbSymbolTable
 70
     1
100
AcDbDimStyleTable
 71
     0
  0
DIMSTYLE
105
27
330
A
100
AcDbSymbolTableRecord
100
AcDbDimStyleTableRecord
  2
Standard
 70
     0
340
11
  0
ENDTAB
  0
TABLE
  2
BLOCK_RECORD
  5
1
330
0
100
AcDbSymbolTable
 70
     4
  0
BLOCK_RECORD
  5
1F
102
{ACAD_XDICTIONARY
360
112
102
}
330
1
100
AcDbSymbolTableRecord
100
AcDbBlockTableRecord
  2
*Model_Space
340
22
 70
     0
280
     1
281
     0
  0
BLOCK_RECORD
  5
1B
330
1
100
AcDbSymbolTableRecord
100
AcDbBlockTableRecord
  2
*Paper_Space
340
1E
 70
     0
280
     1
281
     0
  0
BLOCK_RECORD
  5
23
330
1
100
AcDbSymbolTableRecord
100
AcDbBlockTableRecord
  2
*Paper_Space0
340
26
 70
     0
280
     1
281
     0
  0
BLOCK_RECORD
  5
A5
330
1
100
AcDbSymbolTableRecord
100
AcDbBlockTableRecord
  2
block 2
340
0
 70
     0
280
     1
281
     0
  0
BLOCK_RECORD
  5
BB
330
1
100
AcDbSymbolTableRecord
100
AcDbBlockTableRecord
  2
block 3
340
0
 70
     0
280
     1
281
     0
  0
BLOCK_RECORD
  5
CD
330
1
100
AcDbSymbolTableRecord
100
AcDbBlockTableRecord
  2
block 4
340
0
 70
     0
280
     1
281
     0
  0
ENDTAB
  0
ENDSEC
  0
SECTION
  2
BLOCKS
  0
BLOCK
  5
20
330
1F
100
AcDbEntity
  8
0
100
AcDbBlockBegin
  2
*Model_Space
 70
     0
 10
0.0
 20
0.0
 30
0.0
  3
*Model_Space
  1

  0
ENDBLK
  5
21
330
1F
100
AcDbEntity
  8
0
100
AcDbBlockEnd
  0
BLOCK
  5
1C
330
1B
100
AcDbEntity
 67
     1
  8
0
100
AcDbBlockBegin
  2
*Paper_Space
 70
     0
 10
0.0
 20
0.0
 30
0.0
  3
*Paper_Space
  1

  0
ENDBLK
  5
1D
330
1B
100
AcDbEntity
 67
     1
  8
0
100
AcDbBlockEnd
  0
BLOCK
  5
24
330
23
100
AcDbEntity
 67
     1
  8
0
100
AcDbBlockBegin
  2
*Paper_Space0
 70
     0
 10
0.0
 20
0.0
 30
0.0
  3
*Paper_Space0
  1

  0
ENDBLK
  5
25
330
23
100
AcDbEntity
 67
     1
  8
0
100
AcDbBlockEnd
  0
BLOCK
  5
A7
330
A5
100
AcDbEntity
  8
0
100
AcDbBlockBegin
  2
block 2
 70
     0
 10
0.0
 20
0.0
 30
0.0
  3
block 2
  1

  0
POLYLINE
  5
A9
330
A5
100
AcDbEntity
  8
Livello 3
370
     0
100
AcDb2dPolyline
 66
     1
 10
0.0
 20
0.0
 30
0.0
  0
VERTEX
  5
AA
330
A9
100
AcDbEntity
  8
Livello 3
370
     0
100
AcDbVertex
100
AcDb2dVertex
 10
8.972888995152608
 20
-9.435186358318286
 30
0.0
  0
VERTEX
  5
AB
330
A9
100
AcDbEntity
  8
Livello 3
370
     0
100
AcDbVertex
100
AcDb2dVertex
 10
8.970339624493524
 20
-9.435186358318286
 30
0.0
  0
VERTEX
  5
AC
330
A9
100
AcDbEntity
  8
Livello 3
370
     0
100
AcDbVertex
100
AcDb2dVertex
 10
8.82685139753287
 20
-9.512649330304126
 30
0.0
  0
VERTEX
  5
AD
330
A9
100
AcDbEntity
  8
Livello 3
370
     0
100
AcDbVertex
100
AcDb2dVertex
 10
8.805285099795206
 20
-9.427555471818456
 30
0.0
  0
VERTEX
  5
AE
330
A9
100
AcDbEntity
  8
Livello 3
370
     0
100
AcDbVertex
100
AcDb2dVertex
 10
8.98560139749318
 20
-9.331058347276609
 30
0.0
  0
VERTEX
  5
AF
330
A9
100
AcDbEntity
  8
Livello 3
370
     0
100
AcDbVertex
100
AcDb2dVertex
 10
9.080823836705487
 20
-9.331058347276609
 30
0.0
  0
VERTEX
  5
B0
330
A9
100
AcDbEntity
  8
Livello 3
370
     0
100
AcDbVertex
100
AcDb2dVertex
 10
9.080823836705487
 20
-10.15645154911019
 30
0.0
  0
VERTEX
  5
B1
330
A9
100
AcDbEntity
  8
Livello 3
370
     0
100
AcDbVertex
100
AcDb2dVertex
 10
8.972888995152608
 20
-10.15645154911019
 30
0.0
  0
VERTEX
  5
B2
330
A9
100
AcDbEntity
  8
Livello 3
370
     0
100
AcDbVertex
100
AcDb2dVertex
 10
8.972888995152608
 20
-9.435186358318286
 30
0.0
  0
SEQEND
  5
B3
330
A9
100
AcDbEntity
  8
Livello 3
370
     0
  0
HATCH
  5
B4
330
A5
100
AcDbEntity
  8
Livello 3
 62
   250
420
  1842203
100
AcDbHatch
 10
0.0
 20
0.0
 30
0.0
210
0.0
220
0.0
230
1.0
  2
SOLID
 70
     1
 71
     0
 91
        1
 92
        1
 93
        8
 72
     1
 10
8.972888995152608
 20
-9.435186358318286
 11
8.970339624493524
 21
-9.435186358318286
 72
     1
 10
8.970339624493524
 20
-9.435186358318286
 11
8.82685139753287
 21
-9.512649330304126
 72
     1
 10
8.82685139753287
 20
-9.512649330304126
 11
8.805285099795206
 21
-9.427555471818456
 72
     1
 10
8.805285099795206
 20
-9.427555471818456
 11
8.98560139749318
 21
-9.331058347276609
 72
     1
 10
8.98560139749318
 20
-9.331058347276609
 11
9.080823836705487
 21
-9.331058347276609
 72
     1
 10
9.080823836705487
 20
-9.331058347276609
 11
9.080823836705487
 21
-10.15645154911019
 72
     1
 10
9.080823836705487
 20
-10.15645154911019
 11
8.972888995152608
 21
-10.15645154911019
 72
     1
 10
8.972888995152608
 20
-10.15645154911019
 11
8.972888995152608
 21
-9.435186358318286
 97
        0
 75
     2
 76
     1
 98
        0
450
        0
451
        0
460
0.0
461
0.0
452
        0
462
0.0
453
        0
470

  0
SPLINE
  5
B5
330
A5
100
AcDbEntity
  8
Livello 3
370
     0
100
AcDbSpline
210
0.0
220
0.0
230
1.0
 70
    11
 71
     3
 72
    50
 73
    46
 74
     0
 42
0.000000001
 43
0.0000000001
 40
0.0
 40
0.0
 40
0.0
 40
0.0
 40
1.0
 40
1.0
 40
1.0
 40
2.0
 40
2.0
 40
2.0
 40
3.0
 40
3.0
 40
3.0
 40
4.0
 40
4.0
 40
4.0
 40
5.0
 40
5.0
 40
5.0
 40
6.0
 40
6.0
 40
6.0
 40
7.0
 40
7.0
 40
7.0
 40
8.0
 40
8.0
 40
8.0
 40
9.0
 40
9.0
 40
9.0
 40
10.0
 40
10.0
 40
10.0
 40
11.0
 40
11.0
 40
11.0
 40
12.0
 40
12.0
 40
12.0
 40
13.0
 40
13.0
 40
13.0
 40
14.0
 40
14.0
 40
14.0
 40
15.0
 40
15.0
 40
15.0
 40
15.0
 10
9.874539385552198
 20
-9.4250233266368
 30
0.0
 10
9.874539385552198
 20
-9.4250233266368
 30
0.0
 10
9.559623207245509
 20
-9.4250233266368
 30
0.0
 10
9.559623207245509
 20
-9.4250233266368
 30
0.0
 10
9.559623207245509
 20
-9.4250233266368
 30
0.0
 10
9.527859426871506
 20
-9.637086179231351
 30
0.0
 10
9.527859426871506
 20
-9.637086179231351
 30
0.0
 10
9.546910804904937
 20
-9.634554034049692
 30
0.0
 10
9.564687497608828
 20
-9.632004663390608
 30
0.0
 10
9.595176592653286
 20
-9.632004663390608
 30
0.0
 10
9.658669702446442
 20
-9.632004663390608
 30
0.0
 10
9.722162812239595
 20
-9.645974525583296
 30
0.0
 10
9.77294351969218
 20
-9.676446395150332
 30
0.0
 10
9.837711314814876
 20
-9.713274465887652
 30
0.0
 10
9.891041392926542
 20
-9.784381236703211
 30
0.0
 10
9.891041392926542
 20
-9.888509247744883
 30
0.0
 10
9.891041392926542
 20
-10.04979139288686
 30
0.0
 10
9.762780488010694
 20
-10.17042141130288
 30
0.0
 10
9.583738875642259
 20
-10.17042141130288
 30
0.0
 10
9.49358072679327
 20
-10.17042141130288
 30
0.0
 10
9.417375214659543
 20
-10.14503105757659
 30
0.0
 10
9.37803222421799
 20
-10.11962347837287
 30
0.0
 10
9.37803222421799
 20
-10.11962347837287
 30
0.0
 10
9.405971948603367
 20
-10.03454684536463
 30
0.0
 10
9.405971948603367
 20
-10.03454684536463
 30
0.0
 10
9.440250648681603
 20
-10.0548729087276
 30
0.0
 10
9.507533363508533
 20
-10.08026326245389
 30
0.0
 10
9.582464190312716
 20
-10.08026326245389
 30
0.0
 10
9.687884112161359
 20
-10.08026326245389
 30
0.0
 10
9.77804226101035
 20
-10.01168863681999
 30
0.0
 10
9.77804226101035
 20
-9.901221650085457
 30
0.0
 10
9.776767575680807
 20
-9.794544268384695
 30
0.0
 10
9.705660804865249
 20
-9.718355981728397
 30
0.0
 10
9.540571829212078
 20
-9.718355981728397
 30
0.0
 10
9.49358072679327
 20
-9.718355981728397
 30
0.0
 10
9.456752656055948
 20
-9.72343749756914
 30
0.0
 10
9.426263561011488
 20
-9.727244328080338
 30
0.0
 10
9.426263561011488
 20
-9.727244328080338
 30
0.0
 10
9.479628090078008
 20
-9.331058347276609
 30
0.0
 10
9.479628090078008
 20
-9.331058347276609
 30
0.0
 10
9.479628090078008
 20
-9.331058347276609
 30
0.0
 10
9.874539385552198
 20
-9.331058347276609
 30
0.0
 10
9.874539385552198
 20
-9.331058347276609
 30
0.0
 10
9.874539385552198
 20
-9.331058347276609
 30
0.0
 10
9.874539385552198
 20
-9.4250233266368
 30
0.0
 10
9.874539385552198
 20
-9.4250233266368
 30
0.0
  0
HATCH
  5
B6
330
A5
100
AcDbEntity
  8
Livello 3
 62
   250
420
  1842203
100
AcDbHatch
 10
0.0
 20
0.0
 30
0.0
210
0.0
220
0.0
230
1.0
  2
SOLID
 70
     1
 71
     0
 91
        1
 92
        1
 93
        1
 72
     4
 94
        3
 73
     0
 74
     0
 95
       50
 96
       46
 40
0.0
 40
0.0
 40
0.0
 40
0.0
 40
1.0
 40
1.0
 40
1.0
 40
2.0
 40
2.0
 40
2.0
 40
3.0
 40
3.0
 40
3.0
 40
4.0
 40
4.0
 40
4.0
 40
5.0
 40
5.0
 40
5.0
 40
6.0
 40
6.0
 40
6.0
 40
7.0
 40
7.0
 40
7.0
 40
8.0
 40
8.0
 40
8.0
 40
9.0
 40
9.0
 40
9.0
 40
10.0
 40
10.0
 40
10.0
 40
11.0
 40
11.0
 40
11.0
 40
12.0
 40
12.0
 40
12.0
 40
13.0
 40
13.0
 40
13.0
 40
14.0
 40
14.0
 40
14.0
 40
15.0
 40
15.0
 40
15.0
 40
15.0
 10
9.874539385552198
 20
-9.4250233266368
 10
9.874539385552198
 20
-9.4250233266368
 10
9.559623207245509
 20
-9.4250233266368
 10
9.559623207245509
 20
-9.4250233266368
 10
9.559623207245509
 20
-9.4250233266368
 10
9.527859426871506
 20
-9.637086179231351
 10
9.527859426871506
 20
-9.637086179231351
 10
9.546910804904937
 20
-9.634554034049692
 10
9.564687497608828
 20
-9.632004663390608
 10
9.595176592653286
 20
-9.632004663390608
 10
9.658669702446442
 20
-9.632004663390608
 10
9.722162812239595
 20
-9.645974525583296
 10
9.77294351969218
 20
-9.676446395150332
 10
9.837711314814876
 20
-9.713274465887652
 10
9.891041392926542
 20
-9.784381236703211
 10
9.891041392926542
 20
-9.888509247744883
 10
9.891041392926542
 20
-10.04979139288686
 10
9.762780488010694
 20
-10.17042141130288
 10
9.583738875642259
 20
-10.17042141130288
 10
9.49358072679327
 20
-10.17042141130288
 10
9.417375214659543
 20
-10.14503105757659
 10
9.37803222421799
 20
-10.11962347837287
 10
9.37803222421799
 20
-10.11962347837287
 10
9.405971948603367
 20
-10.03454684536463
 10
9.405971948603367
 20
-10.03454684536463
 10
9.440250648681603
 20
-10.0548729087276
 10
9.507533363508533
 20
-10.08026326245389
 10
9.582464190312716
 20
-10.08026326245389
 10
9.687884112161359
 20
-10.08026326245389
 10
9.77804226101035
 20
-10.01168863681999
 10
9.77804226101035
 20
-9.901221650085457
 10
9.776767575680807
 20
-9.794544268384695
 10
9.705660804865249
 20
-9.718355981728397
 10
9.540571829212078
 20
-9.718355981728397
 10
9.49358072679327
 20
-9.718355981728397
 10
9.456752656055948
 20
-9.72343749756914
 10
9.426263561011488
 20
-9.727244328080338
 10
9.426263561011488
 20
-9.727244328080338
 10
9.479628090078008
 20
-9.331058347276609
 10
9.479628090078008
 20
-9.331058347276609
 10
9.479628090078008
 20
-9.331058347276609
 10
9.874539385552198
 20
-9.331058347276609
 10
9.874539385552198
 20
-9.331058347276609
 10
9.874539385552198
 20
-9.331058347276609
 10
9.874539385552198
 20
-9.4250233266368
 10
9.874539385552198
 20
-9.4250233266368
 97
        0
 97
        0
 75
     2
 76
     1
 98
        0
450
        0
451
        0
460
0.0
461
0.0
452
        0
462
0.0
453
        0
470

  0
SPLINE
  5
B7
330
A5
100
AcDbEntity
  8
Livello 3
370
     0
100
AcDbSpline
210
0.0
220
0.0
230
1.0
 70
     9
 71
     3
 72
    17
 73
    13
 74
     0
 42
0.000000001
 43
0.0000000001
 40
0.0
 40
0.0
 40
0.0
 40
0.0
 40
1.0
 40
1.0
 40
1.0
 40
2.0
 40
2.0
 40
2.0
 40
3.0
 40
3.0
 40
3.0
 40
4.0
 40
4.0
 40
4.0
 40
4.0
 10
9.996495765730042
 20
-10.31263495293399
 30
0.0
 10
10.02443549011542
 20
-10.23772135160724
 30
0.0
 10
10.05874864114851
 20
-10.10184678566898
 30
0.0
 10
10.07270127786377
 20
-10.00915649163833
 30
0.0
 10
10.07270127786377
 20
-10.00915649163833
 30
0.0
 10
10.19713812679099
 20
-9.996444089297762
 30
0.0
 10
10.19713812679099
 20
-9.996444089297762
 30
0.0
 10
10.16795816803093
 20
-10.10439615632807
 30
0.0
 10
10.11207871926017
 20
-10.24533501262964
 30
0.0
 10
10.0765253338524
 20
-10.30502129191159
 30
0.0
 10
10.0765253338524
 20
-10.30502129191159
 30
0.0
 10
9.996495765730042
 20
-10.31263495293399
 30
0.0
 10
9.996495765730042
 20
-10.31263495293399
 30
0.0
  0
HATCH
  5
B8
330
A5
100
AcDbEntity
  8
Livello 3
 62
   250
420
  1842203
100
AcDbHatch
 10
0.0
 20
0.0
 30
0.0
210
0.0
220
0.0
230
1.0
  2
SOLID
 70
     1
 71
     0
 91
        1
 92
        1
 93
        1
 72
     4
 94
        3
 73
     0
 74
     0
 95
       17
 96
       13
 40
0.0
 40
0.0
 40
0.0
 40
0.0
 40
1.0
 40
1.0
 40
1.0
 40
2.0
 40
2.0
 40
2.0
 40
3.0
 40
3.0
 40
3.0
 40
4.0
 40
4.0
 40
4.0
 40
4.0
 10
9.996495765730042
 20
-10.31263495293399
 10
10.02443549011542
 20
-10.23772135160724
 10
10.05874864114851
 20
-10.10184678566898
 10
10.07270127786377
 20
-10.00915649163833
 10
10.07270127786377
 20
-10.00915649163833
 10
10.19713812679099
 20
-9.996444089297762
 10
10.19713812679099
 20
-9.996444089297762
 10
10.16795816803093
 20
-10.10439615632807
 10
10.11207871926017
 20
-10.24533501262964
 10
10.0765253338524
 20
-10.30502129191159
 10
10.0765253338524
 20
-10.30502129191159
 10
9.996495765730042
 20
-10.31263495293399
 10
9.996495765730042
 20
-10.31263495293399
 97
        0
 97
        0
 75
     2
 76
     1
 98
        0
450
        0
451
        0
460
0.0
461
0.0
452
        0
462
0.0
453
        0
470

  0
SPLINE
  5
B9
330
A5
100
AcDbEntity
  8
Livello 3
370
     0
100
AcDbSpline
210
0.0
220
0.0
230
1.0
 70
    11
 71
     3
 72
    50
 73
    46
 74
     0
 42
0.000000001
 43
0.0000000001
 40
0.0
 40
0.0
 40
0.0
 40
0.0
 40
1.0
 40
1.0
 40
1.0
 40
2.0
 40
2.0
 40
2.0
 40
3.0
 40
3.0
 40
3.0
 40
4.0
 40
4.0
 40
4.0
 40
5.0
 40
5.0
 40
5.0
 40
6.0
 40
6.0
 40
6.0
 40
7.0
 40
7.0
 40
7.0
 40
8.0
 40
8.0
 40
8.0
 40
9.0
 40
9.0
 40
9.0
 40
10.0
 40
10.0
 40
10.0
 40
11.0
 40
11.0
 40
11.0
 40
12.0
 40
12.0
 40
12.0
 40
13.0
 40
13.0
 40
13.0
 40
14.0
 40
14.0
 40
14.0
 40
15.0
 40
15.0
 40
15.0
 40
15.0
 10
10.78890217829236
 20
-9.4250233266368
 30
0.0
 10
10.78890217829236
 20
-9.4250233266368
 30
0.0
 10
10.47398599998567
 20
-9.4250233266368
 30
0.0
 10
10.47398599998567
 20
-9.4250233266368
 30
0.0
 10
10.47398599998567
 20
-9.4250233266368
 30
0.0
 10
10.44222221961167
 20
-9.637086179231351
 30
0.0
 10
10.44222221961167
 20
-9.637086179231351
 30
0.0
 10
10.4612735976451
 20
-9.634554034049692
 30
0.0
 10
10.47905029034899
 20
-9.632004663390608
 30
0.0
 10
10.50953938539345
 20
-9.632004663390608
 30
0.0
 10
10.5730324951866
 20
-9.632004663390608
 30
0.0
 10
10.63652560497976
 20
-9.645974525583296
 30
0.0
 10
10.68730631243234
 20
-9.676446395150332
 30
0.0
 10
10.75207410755504
 20
-9.713274465887652
 30
0.0
 10
10.8054041856667
 20
-9.784381236703211
 30
0.0
 10
10.8054041856667
 20
-9.888509247744883
 30
0.0
 10
10.8054041856667
 20
-10.04979139288686
 30
0.0
 10
10.67714328075085
 20
-10.17042141130288
 30
0.0
 10
10.49810166838242
 20
-10.17042141130288
 30
0.0
 10
10.40794351953343
 20
-10.17042141130288
 30
0.0
 10
10.3317380073997
 20
-10.14503105757659
 30
0.0
 10
10.29239501695815
 20
-10.11962347837287
 30
0.0
 10
10.29239501695815
 20
-10.11962347837287
 30
0.0
 10
10.32033474134353
 20
-10.03454684536463
 30
0.0
 10
10.32033474134353
 20
-10.03454684536463
 30
0.0
 10
10.35461344142176
 20
-10.0548729087276
 30
0.0
 10
10.42189615624869
 20
-10.08026326245389
 30
0.0
 10
10.49682698305288
 20
-10.08026326245389
 30
0.0
 10
10.60224690490152
 20
-10.08026326245389
 30
0.0
 10
10.69240505375051
 20
-10.01168863681999
 30
0.0
 10
10.69240505375051
 20
-9.901221650085457
 30
0.0
 10
10.69113036842097
 20
-9.794544268384695
 30
0.0
 10
10.62002359760541
 20
-9.718355981728397
 30
0.0
 10
10.45493462195224
 20
-9.718355981728397
 30
0.0
 10
10.40794351953343
 20
-9.718355981728397
 30
0.0
 10
10.37111544879611
 20
-9.72343749756914
 30
0.0
 10
10.34062635375165
 20
-9.727244328080338
 30
0.0
 10
10.34062635375165
 20
-9.727244328080338
 30
0.0
 10
10.39399088281817
 20
-9.331058347276609
 30
0.0
 10
10.39399088281817
 20
-9.331058347276609
 30
0.0
 10
10.39399088281817
 20
-9.331058347276609
 30
0.0
 10
10.78890217829236
 20
-9.331058347276609
 30
0.0
 10
10.78890217829236
 20
-9.331058347276609
 30
0.0
 10
10.78890217829236
 20
-9.331058347276609
 30
0.0
 10
10.78890217829236
 20
-9.4250233266368
 30
0.0
 10
10.78890217829236
 20
-9.4250233266368
 30
0.0
  0
HATCH
  5
BA
330
A5
100
AcDbEntity
  8
Livello 3
 62
   250
420
  1842203
100
AcDbHatch
 10
0.0
 20
0.0
 30
0.0
210
0.0
220
0.0
230
1.0
  2
SOLID
 70
     1
 71
     0
 91
        1
 92
        1
 93
        1
 72
     4
 94
        3
 73
     0
 74
     0
 95
       50
 96
       46
 40
0.0
 40
0.0
 40
0.0
 40
0.0
 40
1.0
 40
1.0
 40
1.0
 40
2.0
 40
2.0
 40
2.0
 40
3.0
 40
3.0
 40
3.0
 40
4.0
 40
4.0
 40
4.0
 40
5.0
 40
5.0
 40
5.0
 40
6.0
 40
6.0
 40
6.0
 40
7.0
 40
7.0
 40
7.0
 40
8.0
 40
8.0
 40
8.0
 40
9.0
 40
9.0
 40
9.0
 40
10.0
 40
10.0
 40
10.0
 40
11.0
 40
11.0
 40
11.0
 40
12.0
 40
12.0
 40
12.0
 40
13.0
 40
13.0
 40
13.0
 40
14.0
 40
14.0
 40
14.0
 40
15.0
 40
15.0
 40
15.0
 40
15.0
 10
10.78890217829236
 20
-9.4250233266368
 10
10.78890217829236
 20
-9.4250233266368
 10
10.47398599998567
 20
-9.4250233266368
 10
10.47398599998567
 20
-9.4250233266368
 10
10.47398599998567
 20
-9.4250233266368
 10
10.44222221961167
 20
-9.637086179231351
 10
10.44222221961167
 20
-9.637086179231351
 10
10.4612735976451
 20
-9.634554034049692
 10
10.47905029034899
 20
-9.632004663390608
 10
10.50953938539345
 20
-9.632004663390608
 10
10.5730324951866
 20
-9.632004663390608
 10
10.63652560497976
 20
-9.645974525583296
 10
10.68730631243234
 20
-9.676446395150332
 10
10.75207410755504
 20
-9.713274465887652
 10
10.8054041856667
 20
-9.784381236703211
 10
10.8054041856667
 20
-9.888509247744883
 10
10.8054041856667
 20
-10.04979139288686
 10
10.67714328075085
 20
-10.17042141130288
 10
10.49810166838242
 20
-10.17042141130288
 10
10.40794351953343
 20
-10.17042141130288
 10
10.3317380073997
 20
-10.14503105757659
 10
10.29239501695815
 20
-10.11962347837287
 10
10.29239501695815
 20
-10.11962347837287
 10
10.32033474134353
 20
-10.03454684536463
 10
10.32033474134353
 20
-10.03454684536463
 10
10.35461344142176
 20
-10.0548729087276
 10
10.42189615624869
 20
-10.08026326245389
 10
10.49682698305288
 20
-10.08026326245389
 10
10.60224690490152
 20
-10.08026326245389
 10
10.69240505375051
 20
-10.01168863681999
 10
10.69240505375051
 20
-9.901221650085457
 10
10.69113036842097
 20
-9.794544268384695
 10
10.62002359760541
 20
-9.718355981728397
 10
10.45493462195224
 20
-9.718355981728397
 10
10.40794351953343
 20
-9.718355981728397
 10
10.37111544879611
 20
-9.72343749756914
 10
10.34062635375165
 20
-9.727244328080338
 10
10.34062635375165
 20
-9.727244328080338
 10
10.39399088281817
 20
-9.331058347276609
 10
10.39399088281817
 20
-9.331058347276609
 10
10.39399088281817
 20
-9.331058347276609
 10
10.78890217829236
 20
-9.331058347276609
 10
10.78890217829236
 20
-9.331058347276609
 10
10.78890217829236
 20
-9.331058347276609
 10
10.78890217829236
 20
-9.4250233266368
 10
10.78890217829236
 20
-9.4250233266368
 97
        0
 97
        0
 75
     2
 76
     1
 98
        0
450
        0
451
        0
460
0.0
461
0.0
452
        0
462
0.0
453
        0
470

  0
ENDBLK
  5
A8
330
A5
100
AcDbEntity
  8
0
100
AcDbBlockEnd
  0
BLOCK
  5
BD
330
BB
100
AcDbEntity
  8
0
100
AcDbBlockBegin
  2
block 3
 70
     0
 10
0.0
 20
0.0
 30
0.0
  3
block 3
  1

  0
POLYLINE
  5
BF
330
BB
100
AcDbEntity
  8
Livello 3
370
     0
100
AcDb2dPolyline
 66
     1
 10
0.0
 20
0.0
 30
0.0
  0
VERTEX
  5
C0
330
BF
100
AcDbEntity
  8
Livello 3
370
     0
100
AcDbVertex
100
AcDb2dVertex
 10
7.478613279380346
 20
-20.03419487346367
 30
0.0
  0
VERTEX
  5
C1
330
BF
100
AcDbEntity
  8
Livello 3
370
     0
100
AcDbVertex
100
AcDb2dVertex
 10
7.476063908721262
 20
-20.03419487346367
 30
0.0
  0
VERTEX
  5
C2
330
BF
100
AcDbEntity
  8
Livello 3
370
     0
100
AcDbVertex
100
AcDb2dVertex
 10
7.332575681760606
 20
-20.11167507092694
 30
0.0
  0
VERTEX
  5
C3
330
BF
100
AcDbEntity
  8
Livello 3
370
     0
100
AcDbVertex
100
AcDb2dVertex
 10
7.310992158545514
 20
-20.02658121244127
 30
0.0
  0
VERTEX
  5
C4
330
BF
100
AcDbEntity
  8
Livello 3
370
     0
100
AcDbVertex
100
AcDb2dVertex
 10
7.491308456243491
 20
-19.93008408789942
 30
0.0
  0
VERTEX
  5
C5
330
BF
100
AcDbEntity
  8
Livello 3
370
     0
100
AcDbVertex
100
AcDb2dVertex
 10
7.586548120933223
 20
-19.93008408789942
 30
0.0
  0
VERTEX
  5
C6
330
BF
100
AcDbEntity
  8
Livello 3
370
     0
100
AcDbVertex
100
AcDb2dVertex
 10
7.586548120933223
 20
-20.75546006425558
 30
0.0
  0
VERTEX
  5
C7
330
BF
100
AcDbEntity
  8
Livello 3
370
     0
100
AcDbVertex
100
AcDb2dVertex
 10
7.478613279380346
 20
-20.75546006425558
 30
0.0
  0
VERTEX
  5
C8
330
BF
100
AcDbEntity
  8
Livello 3
370
     0
100
AcDbVertex
100
AcDb2dVertex
 10
7.478613279380346
 20
-20.03419487346367
 30
0.0
  0
SEQEND
  5
C9
330
BF
100
AcDbEntity
  8
Livello 3
370
     0
  0
HATCH
  5
CA
330
BB
100
AcDbEntity
  8
Livello 3
 62
   250
420
  1842203
100
AcDbHatch
 10
0.0
 20
0.0
 30
0.0
210
0.0
220
0.0
230
1.0
  2
SOLID
 70
     1
 71
     0
 91
        1
 92
        1
 93
        8
 72
     1
 10
7.478613279380346
 20
-20.03419487346367
 11
7.476063908721262
 21
-20.03419487346367
 72
     1
 10
7.476063908721262
 20
-20.03419487346367
 11
7.332575681760606
 21
-20.11167507092694
 72
     1
 10
7.332575681760606
 20
-20.11167507092694
 11
7.310992158545514
 21
-20.02658121244127
 72
     1
 10
7.310992158545514
 20
-20.02658121244127
 11
7.491308456243491
 21
-19.93008408789942
 72
     1
 10
7.491308456243491
 20
-19.93008408789942
 11
7.586548120933223
 21
-19.93008408789942
 72
     1
 10
7.586548120933223
 20
-19.93008408789942
 11
7.586548120933223
 21
-20.75546006425558
 72
     1
 10
7.586548120933223
 20
-20.75546006425558
 11
7.478613279380346
 21
-20.75546006425558
 72
     1
 10
7.478613279380346
 20
-20.75546006425558
 11
7.478613279380346
 21
-20.03419487346367
 97
        0
 75
     2
 76
     1
 98
        0
450
        0
451
        0
460
0.0
461
0.0
452
        0
462
0.0
453
        0
470

  0
SPLINE
  5
CB
330
BB
100
AcDbEntity
  8
Livello 3
370
     0
100
AcDbSpline
210
0.0
220
0.0
230
1.0
 70
    11
 71
     3
 72
    50
 73
    46
 74
     0
 42
0.000000001
 43
0.0000000001
 40
0.0
 40
0.0
 40
0.0
 40
0.0
 40
1.0
 40
1.0
 40
1.0
 40
2.0
 40
2.0
 40
2.0
 40
3.0
 40
3.0
 40
3.0
 40
4.0
 40
4.0
 40
4.0
 40
5.0
 40
5.0
 40
5.0
 40
6.0
 40
6.0
 40
6.0
 40
7.0
 40
7.0
 40
7.0
 40
8.0
 40
8.0
 40
8.0
 40
9.0
 40
9.0
 40
9.0
 40
10.0
 40
10.0
 40
10.0
 40
11.0
 40
11.0
 40
11.0
 40
12.0
 40
12.0
 40
12.0
 40
13.0
 40
13.0
 40
13.0
 40
14.0
 40
14.0
 40
14.0
 40
15.0
 40
15.0
 40
15.0
 40
15.0
 10
8.380246444302507
 20
-20.02403184178219
 30
0.0
 10
8.380246444302507
 20
-20.02403184178219
 30
0.0
 10
8.06533026599582
 20
-20.02403184178219
 30
0.0
 10
8.06533026599582
 20
-20.02403184178219
 30
0.0
 10
8.06533026599582
 20
-20.02403184178219
 30
0.0
 10
8.033583711099241
 20
-20.23611191985416
 30
0.0
 10
8.033583711099241
 20
-20.23611191985416
 30
0.0
 10
8.052635089132673
 20
-20.23356254919508
 30
0.0
 10
8.070411781836561
 20
-20.231013178536
 30
0.0
 10
8.100883651403597
 20
-20.231013178536
 30
0.0
 10
8.164376761196752
 20
-20.231013178536
 30
0.0
 10
8.227869870989906
 20
-20.24500026620611
 30
0.0
 10
8.278667803919915
 20
-20.27545491029572
 30
0.0
 10
8.343418373565185
 20
-20.31228298103304
 30
0.0
 10
8.396765677154279
 20
-20.3833897518486
 30
0.0
 10
8.396765677154279
 20
-20.4875349883677
 30
0.0
 10
8.396765677154279
 20
-20.64879990803224
 30
0.0
 10
8.268504772238427
 20
-20.76944715192569
 30
0.0
 10
8.089463159869994
 20
-20.76944715192569
 30
0.0
 10
7.999305011021006
 20
-20.76944715192569
 30
0.0
 10
7.92309949888728
 20
-20.7440567981994
 30
0.0
 10
7.8837392829683
 20
-20.71863199351826
 30
0.0
 10
7.8837392829683
 20
-20.71863199351826
 30
0.0
 10
7.911679007353678
 20
-20.63357258598744
 30
0.0
 10
7.911679007353678
 20
-20.63357258598744
 30
0.0
 10
7.945957707431912
 20
-20.65389864935041
 30
0.0
 10
8.013257647736267
 20
-20.6792890030767
 30
0.0
 10
8.088188474540451
 20
-20.6792890030767
 30
0.0
 10
8.19359117091167
 20
-20.6792890030767
 30
0.0
 10
8.283749319760659
 20
-20.61069715196538
 30
0.0
 10
8.283749319760659
 20
-20.50024739070827
 30
0.0
 10
8.282474634431116
 20
-20.39355278353008
 30
0.0
 10
8.211367863615558
 20
-20.31738172235121
 30
0.0
 10
8.046278887962387
 20
-20.31738172235121
 30
0.0
 10
7.999305011021006
 20
-20.31738172235121
 30
0.0
 10
7.962476940283687
 20
-20.32244601271453
 30
0.0
 10
7.931987845239224
 20
-20.32627006870315
 30
0.0
 10
7.931987845239224
 20
-20.32627006870315
 30
0.0
 10
7.985335148828317
 20
-19.93008408789942
 30
0.0
 10
7.985335148828317
 20
-19.93008408789942
 30
0.0
 10
7.985335148828317
 20
-19.93008408789942
 30
0.0
 10
8.380246444302507
 20
-19.93008408789942
 30
0.0
 10
8.380246444302507
 20
-19.93008408789942
 30
0.0
 10
8.380246444302507
 20
-19.93008408789942
 30
0.0
 10
8.380246444302507
 20
-20.02403184178219
 30
0.0
 10
8.380246444302507
 20
-20.02403184178219
 30
0.0
  0
HATCH
  5
CC
330
BB
100
AcDbEntity
  8
Livello 3
 62
   250
420
  1842203
100
AcDbHatch
 10
0.0
 20
0.0
 30
0.0
210
0.0
220
0.0
230
1.0
  2
SOLID
 70
     1
 71
     0
 91
        1
 92
        1
 93
        1
 72
     4
 94
        3
 73
     0
 74
     0
 95
       50
 96
       46
 40
0.0
 40
0.0
 40
0.0
 40
0.0
 40
1.0
 40
1.0
 40
1.0
 40
2.0
 40
2.0
 40
2.0
 40
3.0
 40
3.0
 40
3.0
 40
4.0
 40
4.0
 40
4.0
 40
5.0
 40
5.0
 40
5.0
 40
6.0
 40
6.0
 40
6.0
 40
7.0
 40
7.0
 40
7.0
 40
8.0
 40
8.0
 40
8.0
 40
9.0
 40
9.0
 40
9.0
 40
10.0
 40
10.0
 40
10.0
 40
11.0
 40
11.0
 40
11.0
 40
12.0
 40
12.0
 40
12.0
 40
13.0
 40
13.0
 40
13.0
 40
14.0
 40
14.0
 40
14.0
 40
15.0
 40
15.0
 40
15.0
 40
15.0
 10
8.380246444302507
 20
-20.02403184178219
 10
8.380246444302507
 20
-20.02403184178219
 10
8.06533026599582
 20
-20.02403184178219
 10
8.06533026599582
 20
-20.02403184178219
 10
8.06533026599582
 20
-20.02403184178219
 10
8.033583711099241
 20
-20.23611191985416
 10
8.033583711099241
 20
-20.23611191985416
 10
8.052635089132673
 20
-20.23356254919508
 10
8.070411781836561
 20
-20.231013178536
 10
8.100883651403597
 20
-20.231013178536
 10
8.164376761196752
 20
-20.231013178536
 10
8.227869870989906
 20
-20.24500026620611
 10
8.278667803919915
 20
-20.27545491029572
 10
8.343418373565185
 20
-20.31228298103304
 10
8.396765677154279
 20
-20.3833897518486
 10
8.396765677154279
 20
-20.4875349883677
 10
8.396765677154279
 20
-20.64879990803224
 10
8.268504772238427
 20
-20.76944715192569
 10
8.089463159869994
 20
-20.76944715192569
 10
7.999305011021006
 20
-20.76944715192569
 10
7.92309949888728
 20
-20.7440567981994
 10
7.8837392829683
 20
-20.71863199351826
 10
7.8837392829683
 20
-20.71863199351826
 10
7.911679007353678
 20
-20.63357258598744
 10
7.911679007353678
 20
-20.63357258598744
 10
7.945957707431912
 20
-20.65389864935041
 10
8.013257647736267
 20
-20.6792890030767
 10
8.088188474540451
 20
-20.6792890030767
 10
8.19359117091167
 20
-20.6792890030767
 10
8.283749319760659
 20
-20.61069715196538
 10
8.283749319760659
 20
-20.50024739070827
 10
8.282474634431116
 20
-20.39355278353008
 10
8.211367863615558
 20
-20.31738172235121
 10
8.046278887962387
 20
-20.31738172235121
 10
7.999305011021006
 20
-20.31738172235121
 10
7.962476940283687
 20
-20.32244601271453
 10
7.931987845239224
 20
-20.32627006870315
 10
7.931987845239224
 20
-20.32627006870315
 10
7.985335148828317
 20
-19.93008408789942
 10
7.985335148828317
 20
-19.93008408789942
 10
7.985335148828317
 20
-19.93008408789942
 10
8.380246444302507
 20
-19.93008408789942
 10
8.380246444302507
 20
-19.93008408789942
 10
8.380246444302507
 20
-19.93008408789942
 10
8.380246444302507
 20
-20.02403184178219
 10
8.380246444302507
 20
-20.02403184178219
 97
        0
 97
        0
 75
     2
 76
     1
 98
        0
450
        0
451
        0
460
0.0
461
0.0
452
        0
462
0.0
453
        0
470

  0
ENDBLK
  5
BE
330
BB
100
AcDbEntity
  8
0
100
AcDbBlockEnd
  0
BLOCK
  5
CF
330
CD
100
AcDbEntity
  8
0
100
AcDbBlockBegin
  2
block 4
 70
     0
 10
0.0
 20
0.0
 30
0.0
  3
block 4
  1

  0
POLYLINE
  5
D1
330
CD
100
AcDbEntity
  8
Livello 3
370
     0
100
AcDb2dPolyline
 66
     1
 10
0.0
 20
0.0
 30
0.0
  0
VERTEX
  5
D2
330
D1
100
AcDbEntity
  8
Livello 3
370
     0
100
AcDbVertex
100
AcDb2dVertex
 10
11.32199625367992
 20
-13.03865288302506
 30
0.0
  0
VERTEX
  5
D3
330
D1
100
AcDbEntity
  8
Livello 3
370
     0
100
AcDbVertex
100
AcDb2dVertex
 10
11.32199625367992
 20
-13.04120225368414
 30
0.0
  0
VERTEX
  5
D4
330
D1
100
AcDbEntity
  8
Livello 3
370
     0
100
AcDbVertex
100
AcDb2dVertex
 10
11.39947645114318
 20
-13.1846904806448
 30
0.0
  0
VERTEX
  5
D5
330
D1
100
AcDbEntity
  8
Livello 3
370
     0
100
AcDbVertex
100
AcDb2dVertex
 10
11.31438259265751
 20
-13.20627400385989
 30
0.0
  0
VERTEX
  5
D6
330
D1
100
AcDbEntity
  8
Livello 3
370
     0
100
AcDbVertex
100
AcDb2dVertex
 10
11.21788546811567
 20
-13.02595770616191
 30
0.0
  0
VERTEX
  5
D7
330
D1
100
AcDbEntity
  8
Livello 3
370
     0
100
AcDbVertex
100
AcDb2dVertex
 10
11.21788546811567
 20
-12.93071804147218
 30
0.0
  0
VERTEX
  5
D8
330
D1
100
AcDbEntity
  8
Livello 3
370
     0
100
AcDbVertex
100
AcDb2dVertex
 10
12.04326144447182
 20
-12.93071804147218
 30
0.0
  0
VERTEX
  5
D9
330
D1
100
AcDbEntity
  8
Livello 3
370
     0
100
AcDbVertex
100
AcDb2dVertex
 10
12.04326144447182
 20
-13.03865288302506
 30
0.0
  0
VERTEX
  5
DA
330
D1
100
AcDbEntity
  8
Livello 3
370
     0
100
AcDbVertex
100
AcDb2dVertex
 10
11.32199625367992
 20
-13.03865288302506
 30
0.0
  0
SEQEND
  5
DB
330
D1
100
AcDbEntity
  8
Livello 3
370
     0
  0
HATCH
  5
DC
330
CD
100
AcDbEntity
  8
Livello 3
 62
   250
420
  1842203
100
AcDbHatch
 10
0.0
 20
0.0
 30
0.0
210
0.0
220
0.0
230
1.0
  2
SOLID
 70
     1
 71
     0
 91
        1
 92
        1
 93
        8
 72
     1
 10
11.32199625367992
 20
-13.03865288302506
 11
11.32199625367992
 21
-13.04120225368414
 72
     1
 10
11.32199625367992
 20
-13.04120225368414
 11
11.39947645114318
 21
-13.1846904806448
 72
     1
 10
11.39947645114318
 20
-13.1846904806448
 11
11.31438259265751
 21
-13.20627400385989
 72
     1
 10
11.31438259265751
 20
-13.20627400385989
 11
11.21788546811567
 21
-13.02595770616191
 72
     1
 10
11.21788546811567
 20
-13.02595770616191
 11
11.21788546811567
 21
-12.93071804147218
 72
     1
 10
11.21788546811567
 20
-12.93071804147218
 11
12.04326144447182
 21
-12.93071804147218
 72
     1
 10
12.04326144447182
 20
-12.93071804147218
 11
12.04326144447182
 21
-13.03865288302506
 72
     1
 10
12.04326144447182
 20
-13.03865288302506
 11
11.32199625367992
 21
-13.03865288302506
 97
        0
 75
     2
 76
     1
 98
        0
450
        0
451
        0
460
0.0
461
0.0
452
        0
462
0.0
453
        0
470

  0
SPLINE
  5
DD
330
CD
100
AcDbEntity
  8
Livello 3
370
     0
100
AcDbSpline
210
0.0
220
0.0
230
1.0
 70
     9
 71
     3
 72
    38
 73
    34
 74
     0
 42
0.000000001
 43
0.0000000001
 40
0.0
 40
0.0
 40
0.0
 40
0.0
 40
1.0
 40
1.0
 40
1.0
 40
2.0
 40
2.0
 40
2.0
 40
3.0
 40
3.0
 40
3.0
 40
4.0
 40
4.0
 40
4.0
 40
5.0
 40
5.0
 40
5.0
 40
6.0
 40
6.0
 40
6.0
 40
7.0
 40
7.0
 40
7.0
 40
8.0
 40
8.0
 40
8.0
 40
9.0
 40
9.0
 40
9.0
 40
10.0
 40
10.0
 40
10.0
 40
11.0
 40
11.0
 40
11.0
 40
11.0
 10
11.29660589995363
 20
-12.15860324131799
 30
0.0
 10
11.29533121462408
 20
-12.18146144986262
 30
0.0
 10
11.29660589995363
 20
-12.21065863410011
 30
0.0
 10
11.30167019031694
 20
-12.24240518899669
 30
0.0
 10
11.33088460003186
 20
-12.41765719633135
 30
0.0
 10
11.45914550494771
 20
-12.510347490362
 30
0.0
 10
11.59502007088597
 20
-12.52939886839543
 30
0.0
 10
11.59502007088597
 20
-12.52939886839543
 30
0.0
 10
11.59502007088597
 20
-12.52559203788423
 30
0.0
 10
11.59502007088597
 20
-12.52559203788423
 30
0.0
 10
11.54296467810384
 20
-12.48621459648782
 30
0.0
 10
11.49976318071881
 20
-12.41765719633135
 30
0.0
 10
11.49976318071881
 20
-12.32622436215282
 30
0.0
 10
11.49976318071881
 20
-12.18018676453308
 30
0.0
 10
11.60518310256745
 20
-12.07733343882094
 30
0.0
 10
11.766448022232
 20
-12.07733343882094
 30
0.0
 10
11.91754991021506
 20
-12.07733343882094
 30
0.0
 10
12.05724853214194
 20
-12.18018676453308
 30
0.0
 10
12.05724853214194
 20
-12.35161471587911
 30
0.0
 10
12.05724853214194
 20
-12.52812418306588
 30
0.0
 10
11.92009928087414
 20
-12.64368991111859
 30
0.0
 10
11.70550428309793
 20
-12.64368991111859
 30
0.0
 10
11.54296467810384
 20
-12.64368991111859
 30
0.0
 10
11.41470377318799
 20
-12.58527831716618
 30
0.0
 10
11.33343397069095
 20
-12.50400851466914
 30
0.0
 10
11.26611680490916
 20
-12.43543388903524
 30
0.0
 10
11.22422444380853
 20
-12.34400105485671
 30
0.0
 10
11.21151204146796
 20
-12.23987304381503
 30
0.0
 10
11.20644775110464
 20
-12.20685180358891
 30
0.0
 10
11.20517306577509
 20
-12.17892930468096
 30
0.0
 10
11.20517306577509
 20
-12.15860324131799
 30
0.0
 10
11.20517306577509
 20
-12.15860324131799
 30
0.0
 10
11.29660589995363
 20
-12.15860324131799
 30
0.0
 10
11.29660589995363
 20
-12.15860324131799
 30
0.0
  0
SPLINE
  5
DE
330
CD
100
AcDbEntity
  8
Livello 3
370
     0
100
AcDbSpline
210
0.0
220
0.0
230
1.0
 70
    11
 71
     3
 72
    20
 73
    16
 74
     0
 42
0.000000001
 43
0.0000000001
 40
0.0
 40
0.0
 40
0.0
 40
0.0
 40
1.0
 40
1.0
 40
1.0
 40
2.0
 40
2.0
 40
2.0
 40
3.0
 40
3.0
 40
3.0
 40
4.0
 40
4.0
 40
4.0
 40
5.0
 40
5.0
 40
5.0
 40
5.0
 10
11.77278699792486
 20
-12.19034979621456
 30
0.0
 10
11.65468912469049
 20
-12.19034979621456
 30
0.0
 10
11.58358235387494
 20
-12.25764973651892
 30
0.0
 10
11.58358235387494
 20
-12.36050306223105
 30
0.0
 10
11.58358235387494
 20
-12.42780300253541
 30
0.0
 10
11.62550916593042
 20
-12.49003865247645
 30
0.0
 10
11.68517821973495
 20
-12.52051052204348
 30
0.0
 10
11.69789062207553
 20
-12.52812418306588
 30
0.0
 10
11.71439262944987
 20
-12.53320569890663
 30
0.0
 10
11.73468424185799
 20
-12.53320569890663
 30
0.0
 10
11.87055880779625
 20
-12.53067355372497
 30
0.0
 10
11.97087998832672
 20
-12.46843790378393
 30
0.0
 10
11.97087998832672
 20
-12.35161471587911
 30
0.0
 10
11.97087998832672
 20
-12.25511759133726
 30
0.0
 10
11.89088487115922
 20
-12.19034979621456
 30
0.0
 10
11.77278699792486
 20
-12.19034979621456
 30
0.0
  0
HATCH
  5
DF
330
CD
100
AcDbEntity
  8
Livello 3
 62
   250
420
  1842203
100
AcDbHatch
 10
0.0
 20
0.0
 30
0.0
210
0.0
220
0.0
230
1.0
  2
SOLID
 70
     1
 71
     0
 91
        2
 92
        1
 93
        1
 72
     4
 94
        3
 73
     0
 74
     0
 95
       38
 96
       34
 40
0.0
 40
0.0
 40
0.0
 40
0.0
 40
1.0
 40
1.0
 40
1.0
 40
2.0
 40
2.0
 40
2.0
 40
3.0
 40
3.0
 40
3.0
 40
4.0
 40
4.0
 40
4.0
 40
5.0
 40
5.0
 40
5.0
 40
6.0
 40
6.0
 40
6.0
 40
7.0
 40
7.0
 40
7.0
 40
8.0
 40
8.0
 40
8.0
 40
9.0
 40
9.0
 40
9.0
 40
10.0
 40
10.0
 40
10.0
 40
11.0
 40
11.0
 40
11.0
 40
11.0
 10
11.29660589995363
 20
-12.15860324131799
 10
11.29533121462408
 20
-12.18146144986262
 10
11.29660589995363
 20
-12.21065863410011
 10
11.30167019031694
 20
-12.24240518899669
 10
11.33088460003186
 20
-12.41765719633135
 10
11.45914550494771
 20
-12.510347490362
 10
11.59502007088597
 20
-12.52939886839543
 10
11.59502007088597
 20
-12.52939886839543
 10
11.59502007088597
 20
-12.52559203788423
 10
11.59502007088597
 20
-12.52559203788423
 10
11.54296467810384
 20
-12.48621459648782
 10
11.49976318071881
 20
-12.41765719633135
 10
11.49976318071881
 20
-12.32622436215282
 10
11.49976318071881
 20
-12.18018676453308
 10
11.60518310256745
 20
-12.07733343882094
 10
11.766448022232
 20
-12.07733343882094
 10
11.91754991021506
 20
-12.07733343882094
 10
12.05724853214194
 20
-12.18018676453308
 10
12.05724853214194
 20
-12.35161471587911
 10
12.05724853214194
 20
-12.52812418306588
 10
11.92009928087414
 20
-12.64368991111859
 10
11.70550428309793
 20
-12.64368991111859
 10
11.54296467810384
 20
-12.64368991111859
 10
11.41470377318799
 20
-12.58527831716618
 10
11.33343397069095
 20
-12.50400851466914
 10
11.26611680490916
 20
-12.43543388903524
 10
11.22422444380853
 20
-12.34400105485671
 10
11.21151204146796
 20
-12.23987304381503
 10
11.20644775110464
 20
-12.20685180358891
 10
11.20517306577509
 20
-12.17892930468096
 10
11.20517306577509
 20
-12.15860324131799
 10
11.20517306577509
 20
-12.15860324131799
 10
11.29660589995363
 20
-12.15860324131799
 10
11.29660589995363
 20
-12.15860324131799
 97
        0
 97
        0
 92
        1
 93
        1
 72
     4
 94
        3
 73
     0
 74
     0
 95
       20
 96
       16
 40
0.0
 40
0.0
 40
0.0
 40
0.0
 40
1.0
 40
1.0
 40
1.0
 40
2.0
 40
2.0
 40
2.0
 40
3.0
 40
3.0
 40
3.0
 40
4.0
 40
4.0
 40
4.0
 40
5.0
 40
5.0
 40
5.0
 40
5.0
 10
11.77278699792486
 20
-12.19034979621456
 10
11.65468912469049
 20
-12.19034979621456
 10
11.58358235387494
 20
-12.25764973651892
 10
11.58358235387494
 20
-12.36050306223105
 10
11.58358235387494
 20
-12.42780300253541
 10
11.62550916593042
 20
-12.49003865247645
 10
11.68517821973495
 20
-12.52051052204348
 10
11.69789062207553
 20
-12.52812418306588
 10
11.71439262944987
 20
-12.53320569890663
 10
11.73468424185799
 20
-12.53320569890663
 10
11.87055880779625
 20
-12.53067355372497
 10
11.97087998832672
 20
-12.46843790378393
 10
11.97087998832672
 20
-12.35161471587911
 10
11.97087998832672
 20
-12.25511759133726
 10
11.89088487115922
 20
-12.19034979621456
 10
11.77278699792486
 20
-12.19034979621456
 97
        0
 97
        0
 75
     2
 76
     1
 98
        0
450
        0
451
        0
460
0.0
461
0.0
452
        0
462
0.0
453
        0
470

  0
SPLINE
  5
E0
330
CD
100
AcDbEntity
  8
Livello 3
370
     0
100
AcDbSpline
210
0.0
220
0.0
230
1.0
 70
     9
 71
     3
 72
    17
 73
    13
 74
     0
 42
0.000000001
 43
0.0000000001
 40
0.0
 40
0.0
 40
0.0
 40
0.0
 40
1.0
 40
1.0
 40
1.0
 40
2.0
 40
2.0
 40
2.0
 40
3.0
 40
3.0
 40
3.0
 40
4.0
 40
4.0
 40
4.0
 40
4.0
 10
12.19946207377305
 20
-12.01504611244763
 30
0.0
 10
12.12453124696887
 20
-11.98710638806225
 30
0.0
 10
11.98865668103061
 20
-11.95281046250659
 30
0.0
 10
11.89598361247739
 20
-11.9388406003139
 30
0.0
 10
11.89598361247739
 20
-11.9388406003139
 30
0.0
 10
11.88327121013682
 20
-11.81440375138668
 30
0.0
 10
11.88327121013682
 20
-11.81440375138668
 30
0.0
 10
11.9912060516897
 20
-11.84360093562417
 30
0.0
 10
12.13214490799127
 20
-11.89948038439492
 30
0.0
 10
12.19184841275065
 20
-11.9350337698027
 30
0.0
 10
12.19184841275065
 20
-11.9350337698027
 30
0.0
 10
12.19946207377305
 20
-12.01504611244763
 30
0.0
 10
12.19946207377305
 20
-12.01504611244763
 30
0.0
  0
HATCH
  5
E1
330
CD
100
AcDbEntity
  8
Livello 3
 62
   250
420
  1842203
100
AcDbHatch
 10
0.0
 20
0.0
 30
0.0
210
0.0
220
0.0
230
1.0
  2
SOLID
 70
     1
 71
     0
 91
        1
 92
        1
 93
        1
 72
     4
 94
        3
 73
     0
 74
     0
 95
       17
 96
       13
 40
0.0
 40
0.0
 40
0.0
 40
0.0
 40
1.0
 40
1.0
 40
1.0
 40
2.0
 40
2.0
 40
2.0
 40
3.0
 40
3.0
 40
3.0
 40
4.0
 40
4.0
 40
4.0
 40
4.0
 10
12.19946207377305
 20
-12.01504611244763
 10
12.12453124696887
 20
-11.98710638806225
 10
11.98865668103061
 20
-11.95281046250659
 10
11.89598361247739
 20
-11.9388406003139
 10
11.89598361247739
 20
-11.9388406003139
 10
11.88327121013682
 20
-11.81440375138668
 10
11.88327121013682
 20
-11.81440375138668
 10
11.9912060516897
 20
-11.84360093562417
 10
12.13214490799127
 20
-11.89948038439492
 10
12.19184841275065
 20
-11.9350337698027
 10
12.19184841275065
 20
-11.9350337698027
 10
12.19946207377305
 20
-12.01504611244763
 10
12.19946207377305
 20
-12.01504611244763
 97
        0
 97
        0
 75
     2
 76
     1
 98
        0
450
        0
451
        0
460
0.0
461
0.0
452
        0
462
0.0
453
        0
470

  0
SPLINE
  5
E2
330
CD
100
AcDbEntity
  8
Livello 3
370
     0
100
AcDbSpline
210
0.0
220
0.0
230
1.0
 70
    11
 71
     3
 72
    50
 73
    46
 74
     0
 42
0.000000001
 43
0.0000000001
 40
0.0
 40
0.0
 40
0.0
 40
0.0
 40
1.0
 40
1.0
 40
1.0
 40
2.0
 40
2.0
 40
2.0
 40
3.0
 40
3.0
 40
3.0
 40
4.0
 40
4.0
 40
4.0
 40
5.0
 40
5.0
 40
5.0
 40
6.0
 40
6.0
 40
6.0
 40
7.0
 40
7.0
 40
7.0
 40
8.0
 40
8.0
 40
8.0
 40
9.0
 40
9.0
 40
9.0
 40
10.0
 40
10.0
 40
10.0
 40
11.0
 40
11.0
 40
11.0
 40
12.0
 40
12.0
 40
12.0
 40
13.0
 40
13.0
 40
13.0
 40
14.0
 40
14.0
 40
14.0
 40
15.0
 40
15.0
 40
15.0
 40
15.0
 10
11.31183322199843
 20
-11.22265692536274
 30
0.0
 10
11.31183322199843
 20
-11.22265692536274
 30
0.0
 10
11.31183322199843
 20
-11.53757310366943
 30
0.0
 10
11.31183322199843
 20
-11.53757310366943
 30
0.0
 10
11.31183322199843
 20
-11.53757310366943
 30
0.0
 10
11.52391330007041
 20
-11.569319658566
 30
0.0
 10
11.52391330007041
 20
-11.569319658566
 30
0.0
 10
11.52136392941133
 20
-11.55026828053257
 30
0.0
 10
11.51881455875224
 20
-11.53249158782868
 30
0.0
 10
11.51881455875224
 20
-11.50201971826165
 30
0.0
 10
11.51881455875224
 20
-11.43852660846849
 30
0.0
 10
11.53280164642235
 20
-11.37503349867534
 30
0.0
 10
11.56325629051196
 20
-11.32423556574533
 30
0.0
 10
11.60008436124928
 20
-11.25948499610006
 30
0.0
 10
11.67119113206484
 20
-11.20613769251096
 30
0.0
 10
11.77533636858394
 20
-11.20613769251096
 30
0.0
 10
11.93660128824849
 20
-11.20613769251096
 30
0.0
 10
12.05724853214194
 20
-11.33439859742682
 30
0.0
 10
12.05724853214194
 20
-11.51344020979525
 30
0.0
 10
12.05724853214194
 20
-11.60359835864424
 30
0.0
 10
12.03185817841565
 20
-11.67980387077797
 30
0.0
 10
12.0064333737345
 20
-11.71916408669694
 30
0.0
 10
12.0064333737345
 20
-11.71916408669694
 30
0.0
 10
11.92137396620368
 20
-11.69122436231157
 30
0.0
 10
11.92137396620368
 20
-11.69122436231157
 30
0.0
 10
11.94170002956666
 20
-11.65694566223333
 30
0.0
 10
11.96709038329295
 20
-11.58964572192898
 30
0.0
 10
11.96709038329295
 20
-11.51471489512479
 30
0.0
 10
11.96709038329295
 20
-11.40931219875357
 30
0.0
 10
11.89849853218163
 20
-11.31915404990459
 30
0.0
 10
11.78804877092452
 20
-11.31915404990459
 30
0.0
 10
11.68135416374633
 20
-11.32042873523413
 30
0.0
 10
11.60518310256745
 20
-11.39153550604969
 30
0.0
 10
11.60518310256745
 20
-11.55662448170286
 30
0.0
 10
11.60518310256745
 20
-11.60359835864424
 30
0.0
 10
11.61024739293077
 20
-11.64042642938156
 30
0.0
 10
11.6140714489194
 20
-11.67091552442602
 30
0.0
 10
11.6140714489194
 20
-11.67091552442602
 30
0.0
 10
11.21788546811567
 20
-11.61756822083693
 30
0.0
 10
11.21788546811567
 20
-11.61756822083693
 30
0.0
 10
11.21788546811567
 20
-11.61756822083693
 30
0.0
 10
11.21788546811567
 20
-11.22265692536274
 30
0.0
 10
11.21788546811567
 20
-11.22265692536274
 30
0.0
 10
11.21788546811567
 20
-11.22265692536274
 30
0.0
 10
11.31183322199843
 20
-11.22265692536274
 30
0.0
 10
11.31183322199843
 20
-11.22265692536274
 30
0.0
  0
HATCH
  5
E3
330
CD
100
AcDbEntity
  8
Livello 3
 62
   250
420
  1842203
100
AcDbHatch
 10
0.0
 20
0.0
 30
0.0
210
0.0
220
0.0
230
1.0
  2
SOLID
 70
     1
 71
     0
 91
        1
 92
        1
 93
        1
 72
     4
 94
        3
 73
     0
 74
     0
 95
       50
 96
       46
 40
0.0
 40
0.0
 40
0.0
 40
0.0
 40
1.0
 40
1.0
 40
1.0
 40
2.0
 40
2.0
 40
2.0
 40
3.0
 40
3.0
 40
3.0
 40
4.0
 40
4.0
 40
4.0
 40
5.0
 40
5.0
 40
5.0
 40
6.0
 40
6.0
 40
6.0
 40
7.0
 40
7.0
 40
7.0
 40
8.0
 40
8.0
 40
8.0
 40
9.0
 40
9.0
 40
9.0
 40
10.0
 40
10.0
 40
10.0
 40
11.0
 40
11.0
 40
11.0
 40
12.0
 40
12.0
 40
12.0
 40
13.0
 40
13.0
 40
13.0
 40
14.0
 40
14.0
 40
14.0
 40
15.0
 40
15.0
 40
15.0
 40
15.0
 10
11.31183322199843
 20
-11.22265692536274
 10
11.31183322199843
 20
-11.22265692536274
 10
11.31183322199843
 20
-11.53757310366943
 10
11.31183322199843
 20
-11.53757310366943
 10
11.31183322199843
 20
-11.53757310366943
 10
11.52391330007041
 20
-11.569319658566
 10
11.52391330007041
 20
-11.569319658566
 10
11.52136392941133
 20
-11.55026828053257
 10
11.51881455875224
 20
-11.53249158782868
 10
11.51881455875224
 20
-11.50201971826165
 10
11.51881455875224
 20
-11.43852660846849
 10
11.53280164642235
 20
-11.37503349867534
 10
11.56325629051196
 20
-11.32423556574533
 10
11.60008436124928
 20
-11.25948499610006
 10
11.67119113206484
 20
-11.20613769251096
 10
11.77533636858394
 20
-11.20613769251096
 10
11.93660128824849
 20
-11.20613769251096
 10
12.05724853214194
 20
-11.33439859742682
 10
12.05724853214194
 20
-11.51344020979525
 10
12.05724853214194
 20
-11.60359835864424
 10
12.03185817841565
 20
-11.67980387077797
 10
12.0064333737345
 20
-11.71916408669694
 10
12.0064333737345
 20
-11.71916408669694
 10
11.92137396620368
 20
-11.69122436231157
 10
11.92137396620368
 20
-11.69122436231157
 10
11.94170002956666
 20
-11.65694566223333
 10
11.96709038329295
 20
-11.58964572192898
 10
11.96709038329295
 20
-11.51471489512479
 10
11.96709038329295
 20
-11.40931219875357
 10
11.89849853218163
 20
-11.31915404990459
 10
11.78804877092452
 20
-11.31915404990459
 10
11.68135416374633
 20
-11.32042873523413
 10
11.60518310256745
 20
-11.39153550604969
 10
11.60518310256745
 20
-11.55662448170286
 10
11.60518310256745
 20
-11.60359835864424
 10
11.61024739293077
 20
-11.64042642938156
 10
11.6140714489194
 20
-11.67091552442602
 10
11.6140714489194
 20
-11.67091552442602
 10
11.21788546811567
 20
-11.61756822083693
 10
11.21788546811567
 20
-11.61756822083693
 10
11.21788546811567
 20
-11.61756822083693
 10
11.21788546811567
 20
-11.22265692536274
 10
11.21788546811567
 20
-11.22265692536274
 10
11.21788546811567
 20
-11.22265692536274
 10
11.31183322199843
 20
-11.22265692536274
 10
11.31183322199843
 20
-11.22265692536274
 97
        0
 97
        0
 75
     2
 76
     1
 98
        0
450
        0
451
        0
460
0.0
461
0.0
452
        0
462
0.0
453
        0
470

  0
ENDBLK
  5
D0
330
CD
100
AcDbEntity
  8
0
100
AcDbBlockEnd
  0
ENDSEC
  0
SECTION
  2
ENTITIES
  0
HATCH
  5
42
330
1F
100
AcDbEntity
  8
Livello 3
100
AcDbHatch
 10
0.0
 20
0.0
 30
0.0
210
0.0
220
0.0
230
1.0
  2
SOLID
 70
     1
 71
     0
 91
        1
 92
        1
 93
        1
 72
     4
 94
        3
 73
     0
 74
     0
 95
       41
 96
       37
 40
0.0
 40
0.0
 40
0.0
 40
0.0
 40
1.0
 40
1.0
 40
1.0
 40
2.0
 40
2.0
 40
2.0
 40
3.0
 40
3.0
 40
3.0
 40
4.0
 40
4.0
 40
4.0
 40
5.0
 40
5.0
 40
5.0
 40
6.0
 40
6.0
 40
6.0
 40
7.0
 40
7.0
 40
7.0
 40
8.0
 40
8.0
 40
8.0
 40
9.0
 40
9.0
 40
9.0
 40
10.0
 40
10.0
 40
10.0
 40
11.0
 40
11.0
 40
11.0
 40
12.0
 40
12.0
 40
12.0
 40
12.0
 10
7.173475678944917
 20
-18.54856518980728
 10
7.173475678944917
 20
-18.54856518980728
 10
7.173475678944917
 20
-18.34902702319052
 10
7.173475678944917
 20
-18.34902702319052
 10
7.173475678944917
 20
-18.34902702319052
 10
7.113168319372374
 20
-18.34902702319052
 10
7.113168319372374
 20
-18.34902702319052
 10
7.113168319372374
 20
-18.34902702319052
 10
7.07606315365234
 20
-18.25624999543594
 10
7.136370513224883
 20
-18.2006134121165
 10
7.136370513224883
 20
-18.2006134121165
 10
7.173475678944917
 20
-18.2006134121165
 10
7.173475678944917
 20
-18.2006134121165
 10
7.173475678944917
 20
-18.2006134121165
 10
7.196660233908986
 20
-18.22610513433238
 10
7.196660233908986
 20
-18.22610513433238
 10
7.196660233908986
 20
-18.22610513433238
 10
7.224498083250627
 20
-18.21683766211244
 10
7.224498083250627
 20
-18.21683766211244
 10
7.224498083250627
 20
-18.21683766211244
 10
7.227133177575999
 20
-18.24233291210607
 10
7.291917287034331
 20
-18.24233291210607
 10
7.356719194328702
 20
-18.24233291210607
 10
7.354429507661733
 20
-18.21453049544636
 10
7.359079118654223
 20
-18.21218805100251
 10
7.363696979647522
 20
-18.20988088433638
 10
7.389223978996275
 20
-18.22610513433238
 10
7.389223978996275
 20
-18.22610513433238
 10
7.389223978996275
 20
-18.22610513433238
 10
7.412408533960343
 20
-18.53926596758737
 10
7.412408533960343
 20
-18.53926596758737
 10
7.412408533960343
 20
-18.53926596758737
 10
7.398491450982064
 20
-18.57402516202314
 10
7.303371981186542
 20
-18.57402516202314
 10
7.303371981186542
 20
-18.57402516202314
 10
7.173475678944917
 20
-18.57636760646698
 10
7.173475678944917
 20
-18.54856518980728
 97
        0
 97
        0
 75
     2
 76
     1
 98
        0
450
        0
451
        0
460
0.0
461
0.0
452
        0
462
0.0
453
        0
470

  0
SPLINE
  5
44
330
1F
100
AcDbEntity
  8
Livello 3
100
AcDbSpline
210
0.0
220
0.0
230
1.0
 70
     9
 71
     3
 72
    17
 73
    13
 74
     0
 42
0.000000001
 43
0.0000000001
 40
0.0
 40
0.0
 40
0.0
 40
0.0
 40
1.0
 40
1.0
 40
1.0
 40
2.0
 40
2.0
 40
2.0
 40
3.0
 40
3.0
 40
3.0
 40
4.0
 40
4.0
 40
4.0
 40
4.0
 10
7.746376192106784
 20
-17.4672907178554
 30
0.0
 10
7.746376192106784
 20
-17.4965042456259
 30
0.0
 10
7.722623664934985
 20
-17.52027441228657
 30
0.0
 10
7.693321943460313
 20
-17.52027441228657
 30
0.0
 10
7.664020221985637
 20
-17.52027441228657
 30
0.0
 10
7.640250055925397
 20
-17.4965042456259
 30
0.0
 10
7.640250055925397
 20
-17.4672907178554
 30
0.0
 10
7.640250055925397
 20
-17.43790080119609
 30
0.0
 10
7.664020221985637
 20
-17.41416591231311
 30
0.0
 10
7.693321943460313
 20
-17.41416591231311
 30
0.0
 10
7.722623664934985
 20
-17.41416591231311
 30
0.0
 10
7.746376192106784
 20
-17.43790080119609
 30
0.0
 10
7.746376192106784
 20
-17.4672907178554
 30
0.0
  0
HATCH
  5
45
330
1F
100
AcDbEntity
  8
Livello 3
100
AcDbHatch
 10
0.0
 20
0.0
 30
0.0
210
0.0
220
0.0
230
1.0
  2
SOLID
 70
     1
 71
     0
 91
        1
 92
        1
 93
        1
 72
     4
 94
        3
 73
     0
 74
     0
 95
       17
 96
       13
 40
0.0
 40
0.0
 40
0.0
 40
0.0
 40
1.0
 40
1.0
 40
1.0
 40
2.0
 40
2.0
 40
2.0
 40
3.0
 40
3.0
 40
3.0
 40
4.0
 40
4.0
 40
4.0
 40
4.0
 10
7.746376192106784
 20
-17.4672907178554
 10
7.746376192106784
 20
-17.4965042456259
 10
7.722623664934985
 20
-17.52027441228657
 10
7.693321943460313
 20
-17.52027441228657
 10
7.664020221985637
 20
-17.52027441228657
 10
7.640250055925397
 20
-17.4965042456259
 10
7.640250055925397
 20
-17.4672907178554
 10
7.640250055925397
 20
-17.43790080119609
 10
7.664020221985637
 20
-17.41416591231311
 10
7.693321943460313
 20
-17.41416591231311
 10
7.722623664934985
 20
-17.41416591231311
 10
7.746376192106784
 20
-17.43790080119609
 10
7.746376192106784
 20
-17.4672907178554
 97
        0
 97
        0
 75
     2
 76
     1
 98
        0
450
        0
451
        0
460
0.0
461
0.0
452
        0
462
0.0
453
        0
470

  0
SPLINE
  5
46
330
1F
100
AcDbEntity
  8
Livello 3
100
AcDbSpline
210
0.0
220
0.0
230
1.0
 70
     9
 71
     3
 72
    17
 73
    13
 74
     0
 42
0.000000001
 43
0.0000000001
 40
0.0
 40
0.0
 40
0.0
 40
0.0
 40
1.0
 40
1.0
 40
1.0
 40
2.0
 40
2.0
 40
2.0
 40
3.0
 40
3.0
 40
3.0
 40
4.0
 40
4.0
 40
4.0
 40
4.0
 10
6.732641051302655
 20
-16.374607412573
 30
0.0
 10
6.732641051302655
 20
-16.40392677367676
 30
0.0
 10
6.708884996353168
 20
-16.42766166255972
 30
0.0
 10
6.679586802656182
 20
-16.42766166255972
 30
0.0
 10
6.650285081181511
 20
-16.42766166255972
 30
0.0
 10
6.62653255400971
 20
-16.40392677367676
 30
0.0
 10
6.62653255400971
 20
-16.374607412573
 30
0.0
 10
6.62653255400971
 20
-16.34532332924701
 30
0.0
 10
6.650285081181511
 20
-16.32155316258627
 30
0.0
 10
6.679586802656182
 20
-16.32155316258627
 30
0.0
 10
6.708884996353168
 20
-16.32155316258627
 30
0.0
 10
6.732641051302655
 20
-16.34532332924701
 30
0.0
 10
6.732641051302655
 20
-16.374607412573
 30
0.0
  0
HATCH
  5
47
330
1F
100
AcDbEntity
  8
Livello 3
100
AcDbHatch
 10
0.0
 20
0.0
 30
0.0
210
0.0
220
0.0
230
1.0
  2
SOLID
 70
     1
 71
     0
 91
        1
 92
        1
 93
        1
 72
     4
 94
        3
 73
     0
 74
     0
 95
       17
 96
       13
 40
0.0
 40
0.0
 40
0.0
 40
0.0
 40
1.0
 40
1.0
 40
1.0
 40
2.0
 40
2.0
 40
2.0
 40
3.0
 40
3.0
 40
3.0
 40
4.0
 40
4.0
 40
4.0
 40
4.0
 10
6.732641051302655
 20
-16.374607412573
 10
6.732641051302655
 20
-16.40392677367676
 10
6.708884996353168
 20
-16.42766166255972
 10
6.679586802656182
 20
-16.42766166255972
 10
6.650285081181511
 20
-16.42766166255972
 10
6.62653255400971
 20
-16.40392677367676
 10
6.62653255400971
 20
-16.374607412573
 10
6.62653255400971
 20
-16.34532332924701
 10
6.650285081181511
 20
-16.32155316258627
 10
6.679586802656182
 20
-16.32155316258627
 10
6.708884996353168
 20
-16.32155316258627
 10
6.732641051302655
 20
-16.34532332924701
 10
6.732641051302655
 20
-16.374607412573
 97
        0
 97
        0
 75
     2
 76
     1
 98
        0
450
        0
451
        0
460
0.0
461
0.0
452
        0
462
0.0
453
        0
470

  0
SPLINE
  5
48
330
1F
100
AcDbEntity
  8
Livello 3
100
AcDbSpline
210
0.0
220
0.0
230
1.0
 70
     9
 71
     3
 72
    17
 73
    13
 74
     0
 42
0.000000001
 43
0.0000000001
 40
0.0
 40
0.0
 40
0.0
 40
0.0
 40
1.0
 40
1.0
 40
1.0
 40
2.0
 40
2.0
 40
2.0
 40
3.0
 40
3.0
 40
3.0
 40
4.0
 40
4.0
 40
4.0
 40
4.0
 10
7.394374534420427
 20
-17.75784907889389
 30
0.0
 10
7.394374534420427
 20
-17.78213782888776
 30
0.0
 10
7.374633090479631
 20
-17.80184399554951
 30
0.0
 10
7.350312591100097
 20
-17.80184399554951
 30
0.0
 10
7.325988563942877
 20
-17.80184399554951
 30
0.0
 10
7.306282397778956
 20
-17.78213782888776
 30
0.0
 10
7.306282397778956
 20
-17.75784907889389
 30
0.0
 10
7.306282397778956
 20
-17.73352505112218
 30
0.0
 10
7.325988563942877
 20
-17.71381888446043
 30
0.0
 10
7.350312591100097
 20
-17.71381888446043
 30
0.0
 10
7.374633090479631
 20
-17.71381888446043
 30
0.0
 10
7.394374534420427
 20
-17.73352505112218
 30
0.0
 10
7.394374534420427
 20
-17.75784907889389
 30
0.0
  0
SPLINE
  5
49
330
1F
100
AcDbEntity
  8
Livello 3
100
AcDbSpline
210
0.0
220
0.0
230
1.0
 70
     9
 71
     3
 72
    17
 73
    13
 74
     0
 42
0.000000001
 43
0.0000000001
 40
0.0
 40
0.0
 40
0.0
 40
0.0
 40
1.0
 40
1.0
 40
1.0
 40
2.0
 40
2.0
 40
2.0
 40
3.0
 40
3.0
 40
3.0
 40
4.0
 40
4.0
 40
4.0
 40
4.0
 10
5.394202196560188
 20
-14.40074166306645
 30
0.0
 10
5.394202196560188
 20
-14.42503041306038
 30
0.0
 10
5.374481919285516
 20
-14.44473305194438
 30
0.0
 10
5.350157892128295
 20
-14.44473305194438
 30
0.0
 10
5.325833864971076
 20
-14.44473305194438
 30
0.0
 10
5.306131226584843
 20
-14.42503041306038
 30
0.0
 10
5.306131226584843
 20
-14.40074166306645
 30
0.0
 10
5.306131226584843
 20
-14.37638235751703
 30
0.0
 10
5.325833864971076
 20
-14.35664444085525
 30
0.0
 10
5.350157892128295
 20
-14.35664444085525
 30
0.0
 10
5.374481919285516
 20
-14.35664444085525
 30
0.0
 10
5.394202196560188
 20
-14.37638235751703
 30
0.0
 10
5.394202196560188
 20
-14.40074166306645
 30
0.0
  0
SPLINE
  5
4A
330
1F
100
AcDbEntity
  8
Livello 3
100
AcDbSpline
210
0.0
220
0.0
230
1.0
 70
     9
 71
     3
 72
    17
 73
    13
 74
     0
 42
0.000000001
 43
0.0000000001
 40
0.0
 40
0.0
 40
0.0
 40
0.0
 40
1.0
 40
1.0
 40
1.0
 40
2.0
 40
2.0
 40
2.0
 40
3.0
 40
3.0
 40
3.0
 40
4.0
 40
4.0
 40
4.0
 40
4.0
 10
5.707225438574299
 20
-14.67228177410969
 30
0.0
 10
5.707225438574299
 20
-14.69664107965918
 30
0.0
 10
5.687519272410379
 20
-14.71631196854316
 30
0.0
 10
5.663195245253159
 20
-14.71631196854316
 30
0.0
 10
5.638839468096748
 20
-14.71631196854316
 30
0.0
 10
5.619133301932829
 20
-14.69664107965918
 30
0.0
 10
5.619133301932829
 20
-14.67228177410969
 30
0.0
 10
5.619133301932829
 20
-14.64799655189358
 30
0.0
 10
5.638839468096748
 20
-14.62825510745405
 30
0.0
 10
5.663195245253159
 20
-14.62825510745405
 30
0.0
 10
5.687519272410379
 20
-14.62825510745405
 30
0.0
 10
5.707225438574299
 20
-14.64799655189358
 30
0.0
 10
5.707225438574299
 20
-14.67228177410969
 30
0.0
  0
SPLINE
  5
4B
330
1F
100
AcDbEntity
  8
Livello 3
100
AcDbSpline
210
0.0
220
0.0
230
1.0
 70
     9
 71
     3
 72
    17
 73
    13
 74
     0
 42
0.000000001
 43
0.0000000001
 40
0.0
 40
0.0
 40
0.0
 40
0.0
 40
1.0
 40
1.0
 40
1.0
 40
2.0
 40
2.0
 40
2.0
 40
3.0
 40
3.0
 40
3.0
 40
4.0
 40
4.0
 40
4.0
 40
4.0
 10
8.717238250671364
 20
-11.98152571922683
 30
0.0
 10
8.717238250671364
 20
-12.00581446922076
 30
0.0
 10
8.697500334508253
 20
-12.02552063588251
 30
0.0
 10
8.67321158512791
 20
-12.02552063588251
 30
0.0
 10
8.64888755797069
 20
-12.02552063588251
 30
0.0
 10
8.629163752918332
 20
-12.00581446922076
 30
0.0
 10
8.629163752918332
 20
-11.98152571922683
 30
0.0
 10
8.629163752918332
 20
-11.95716994145515
 30
0.0
 10
8.64888755797069
 20
-11.93742849701563
 30
0.0
 10
8.67321158512791
 20
-11.93742849701563
 30
0.0
 10
8.697500334508253
 20
-11.93742849701563
 30
0.0
 10
8.717238250671364
 20
-11.95716994145515
 30
0.0
 10
8.717238250671364
 20
-11.98152571922683
 30
0.0
  0
SPLINE
  5
4C
330
1F
100
AcDbEntity
  8
Livello 3
100
AcDbSpline
210
0.0
220
0.0
230
1.0
 70
     9
 71
     3
 72
    17
 73
    13
 74
     0
 42
0.000000001
 43
0.0000000001
 40
0.0
 40
0.0
 40
0.0
 40
0.0
 40
1.0
 40
1.0
 40
1.0
 40
2.0
 40
2.0
 40
2.0
 40
3.0
 40
3.0
 40
3.0
 40
4.0
 40
4.0
 40
4.0
 40
4.0
 10
8.892544107310051
 20
-11.66685146930553
 30
0.0
 10
8.892544107310051
 20
-11.69117196929943
 30
0.0
 10
8.872837941146128
 20
-11.71087813596118
 30
0.0
 10
8.848513913988909
 20
-11.71087813596118
 30
0.0
 10
8.824193414609377
 20
-11.71087813596118
 30
0.0
 10
8.804451970668578
 20
-11.69117196929943
 30
0.0
 10
8.804451970668578
 20
-11.66685146930553
 30
0.0
 10
8.804451970668578
 20
-11.64246041375602
 30
0.0
 10
8.824193414609377
 20
-11.62275424709433
 30
0.0
 10
8.848513913988909
 20
-11.62275424709433
 30
0.0
 10
8.872837941146128
 20
-11.62275424709433
 30
0.0
 10
8.892544107310051
 20
-11.64246041375602
 30
0.0
 10
8.892544107310051
 20
-11.66685146930553
 30
0.0
  0
SPLINE
  5
4D
330
1F
100
AcDbEntity
  8
Livello 3
100
AcDbSpline
210
0.0
220
0.0
230
1.0
 70
     9
 71
     3
 72
    17
 73
    13
 74
     0
 42
0.000000001
 43
0.0000000001
 40
0.0
 40
0.0
 40
0.0
 40
0.0
 40
1.0
 40
1.0
 40
1.0
 40
2.0
 40
2.0
 40
2.0
 40
3.0
 40
3.0
 40
3.0
 40
4.0
 40
4.0
 40
4.0
 40
4.0
 10
9.074390463781872
 20
-11.9764280803392
 30
0.0
 10
9.074390463781872
 20
-12.00074858033316
 30
0.0
 10
9.054652547618763
 20
-12.02049002477262
 30
0.0
 10
9.030346159349981
 20
-12.02049002477262
 30
0.0
 10
9.00600802108201
 20
-12.02049002477262
 30
0.0
 10
8.986284216029652
 20
-12.00074858033316
 30
0.0
 10
8.986284216029652
 20
-11.9764280803392
 30
0.0
 10
8.986284216029652
 20
-11.95206877478978
 30
0.0
 10
9.00600802108201
 20
-11.93236260812803
 30
0.0
 10
9.030346159349981
 20
-11.93236260812803
 30
0.0
 10
9.054652547618763
 20
-11.93236260812803
 30
0.0
 10
9.074390463781872
 20
-11.95206877478978
 30
0.0
 10
9.074390463781872
 20
-11.9764280803392
 30
0.0
  0
SPLINE
  5
4E
330
1F
100
AcDbEntity
  8
Livello 3
100
AcDbSpline
210
0.0
220
0.0
230
1.0
 70
     9
 71
     3
 72
    17
 73
    13
 74
     0
 42
0.000000001
 43
0.0000000001
 40
0.0
 40
0.0
 40
0.0
 40
0.0
 40
1.0
 40
1.0
 40
1.0
 40
2.0
 40
2.0
 40
2.0
 40
3.0
 40
3.0
 40
3.0
 40
4.0
 40
4.0
 40
4.0
 40
4.0
 10
5.869986517755253
 20
-14.62153821856686
 30
0.0
 10
5.869986517755253
 20
-14.64585871856075
 30
0.0
 10
5.850283879369019
 20
-14.6655648852225
 30
0.0
 10
5.82594221332336
 20
-14.6655648852225
 30
0.0
 10
5.801621713943827
 20
-14.6655648852225
 30
0.0
 10
5.781915547779907
 20
-14.64585871856075
 30
0.0
 10
5.781915547779907
 20
-14.62153821856686
 30
0.0
 10
5.781915547779907
 20
-14.59724946857292
 30
0.0
 10
5.801621713943827
 20
-14.57750802413339
 30
0.0
 10
5.82594221332336
 20
-14.57750802413339
 30
0.0
 10
5.850283879369019
 20
-14.57750802413339
 30
0.0
 10
5.869986517755253
 20
-14.59724946857292
 30
0.0
 10
5.869986517755253
 20
-14.62153821856686
 30
0.0
  0
SPLINE
  5
4F
330
1F
100
AcDbEntity
  8
Livello 3
100
AcDbSpline
210
0.0
220
0.0
230
1.0
 70
     9
 71
     3
 72
    17
 73
    13
 74
     0
 42
0.000000001
 43
0.0000000001
 40
0.0
 40
0.0
 40
0.0
 40
0.0
 40
1.0
 40
1.0
 40
1.0
 40
2.0
 40
2.0
 40
2.0
 40
3.0
 40
3.0
 40
3.0
 40
4.0
 40
4.0
 40
4.0
 40
4.0
 10
7.72834219256687
 20
-17.99810838438936
 30
0.0
 10
7.72834219256687
 20
-18.02246768993879
 30
0.0
 10
7.708618387514512
 20
-18.04217385660054
 30
0.0
 10
7.68429436035729
 20
-18.04217385660054
 30
0.0
 10
7.659991499866197
 20
-18.04217385660054
 30
0.0
 10
7.640250055925397
 20
-18.02246768993879
 30
0.0
 10
7.640250055925397
 20
-17.99810838438936
 30
0.0
 10
7.640250055925397
 20
-17.97382316217318
 30
0.0
 10
7.659991499866197
 20
-17.95408171773372
 30
0.0
 10
7.68429436035729
 20
-17.95408171773372
 30
0.0
 10
7.708618387514512
 20
-17.95408171773372
 30
0.0
 10
7.72834219256687
 20
-17.97382316217318
 30
0.0
 10
7.72834219256687
 20
-17.99810838438936
 30
0.0
  0
SPLINE
  5
5A
330
1F
100
AcDbEntity
  8
Livello 3
100
AcDbSpline
210
0.0
220
0.0
230
1.0
 70
     9
 71
     3
 72
    17
 73
    13
 74
     0
 42
0.000000001
 43
0.0000000001
 40
0.0
 40
0.0
 40
0.0
 40
0.0
 40
1.0
 40
1.0
 40
1.0
 40
2.0
 40
2.0
 40
2.0
 40
3.0
 40
3.0
 40
3.0
 40
4.0
 40
4.0
 40
4.0
 40
4.0
 10
5.9579410710669
 20
-14.2284873297762
 30
0.0
 10
5.9579410710669
 20
-14.25783844087999
 30
0.0
 10
5.934188543895099
 20
-14.28160860754073
 30
0.0
 10
5.904869183531987
 20
-14.28160860754073
 30
0.0
 10
5.875535712058124
 20
-14.28160860754073
 30
0.0
 10
5.851779657108637
 20
-14.25783844087999
 30
0.0
 10
5.851779657108637
 20
-14.2284873297762
 30
0.0
 10
5.851779657108637
 20
-14.19923852422793
 30
0.0
 10
5.875535712058124
 20
-14.17543307978947
 30
0.0
 10
5.904869183531987
 20
-14.17543307978947
 30
0.0
 10
5.934188543895099
 20
-14.17543307978947
 30
0.0
 10
5.9579410710669
 20
-14.19923852422793
 30
0.0
 10
5.9579410710669
 20
-14.2284873297762
 30
0.0
  0
HATCH
  5
5B
330
1F
100
AcDbEntity
  8
Livello 3
100
AcDbHatch
 10
0.0
 20
0.0
 30
0.0
210
0.0
220
0.0
230
1.0
  2
SOLID
 70
     1
 71
     0
 91
        1
 92
        1
 93
        1
 72
     4
 94
        3
 73
     0
 74
     0
 95
       17
 96
       13
 40
0.0
 40
0.0
 40
0.0
 40
0.0
 40
1.0
 40
1.0
 40
1.0
 40
2.0
 40
2.0
 40
2.0
 40
3.0
 40
3.0
 40
3.0
 40
4.0
 40
4.0
 40
4.0
 40
4.0
 10
5.9579410710669
 20
-14.2284873297762
 10
5.9579410710669
 20
-14.25783844087999
 10
5.934188543895099
 20
-14.28160860754073
 10
5.904869183531987
 20
-14.28160860754073
 10
5.875535712058124
 20
-14.28160860754073
 10
5.851779657108637
 20
-14.25783844087999
 10
5.851779657108637
 20
-14.2284873297762
 10
5.851779657108637
 20
-14.19923852422793
 10
5.875535712058124
 20
-14.17543307978947
 10
5.904869183531987
 20
-14.17543307978947
 10
5.934188543895099
 20
-14.17543307978947
 10
5.9579410710669
 20
-14.19923852422793
 10
5.9579410710669
 20
-14.2284873297762
 97
        0
 97
        0
 75
     2
 76
     1
 98
        0
450
        0
451
        0
460
0.0
461
0.0
452
        0
462
0.0
453
        0
470

  0
SPLINE
  5
5C
330
1F
100
AcDbEntity
  8
Livello 3
100
AcDbSpline
210
0.0
220
0.0
230
1.0
 70
     9
 71
     3
 72
    17
 73
    13
 74
     0
 42
0.000000001
 43
0.0000000001
 40
0.0
 40
0.0
 40
0.0
 40
0.0
 40
1.0
 40
1.0
 40
1.0
 40
2.0
 40
2.0
 40
2.0
 40
3.0
 40
3.0
 40
3.0
 40
4.0
 40
4.0
 40
4.0
 40
4.0
 10
7.285076926097732
 20
-13.32184138555844
 30
0.0
 10
7.285076926097732
 20
-13.35115721888445
 30
0.0
 10
7.261306760037492
 20
-13.37489563554517
 30
0.0
 10
7.232005038562819
 20
-13.37489563554517
 30
0.0
 10
7.202689205977394
 20
-13.37489563554517
 30
0.0
 10
7.178936678805596
 20
-13.35115721888445
 30
0.0
 10
7.178936678805596
 20
-13.32184138555844
 30
0.0
 10
7.178936678805596
 20
-13.29248674667684
 30
0.0
 10
7.202689205977394
 20
-13.26878713557165
 30
0.0
 10
7.232005038562819
 20
-13.26878713557165
 30
0.0
 10
7.261306760037492
 20
-13.26878713557165
 30
0.0
 10
7.285076926097732
 20
-13.29248674667684
 30
0.0
 10
7.285076926097732
 20
-13.32184138555844
 30
0.0
  0
HATCH
  5
5D
330
1F
100
AcDbEntity
  8
Livello 3
100
AcDbHatch
 10
0.0
 20
0.0
 30
0.0
210
0.0
220
0.0
230
1.0
  2
SOLID
 70
     1
 71
     0
 91
        1
 92
        1
 93
        1
 72
     4
 94
        3
 73
     0
 74
     0
 95
       17
 96
       13
 40
0.0
 40
0.0
 40
0.0
 40
0.0
 40
1.0
 40
1.0
 40
1.0
 40
2.0
 40
2.0
 40
2.0
 40
3.0
 40
3.0
 40
3.0
 40
4.0
 40
4.0
 40
4.0
 40
4.0
 10
7.285076926097732
 20
-13.32184138555844
 10
7.285076926097732
 20
-13.35115721888445
 10
7.261306760037492
 20
-13.37489563554517
 10
7.232005038562819
 20
-13.37489563554517
 10
7.202689205977394
 20
-13.37489563554517
 10
7.178936678805596
 20
-13.35115721888445
 10
7.178936678805596
 20
-13.32184138555844
 10
7.178936678805596
 20
-13.29248674667684
 10
7.202689205977394
 20
-13.26878713557165
 10
7.232005038562819
 20
-13.26878713557165
 10
7.261306760037492
 20
-13.26878713557165
 10
7.285076926097732
 20
-13.29248674667684
 10
7.285076926097732
 20
-13.32184138555844
 97
        0
 97
        0
 75
     2
 76
     1
 98
        0
450
        0
451
        0
460
0.0
461
0.0
452
        0
462
0.0
453
        0
470

  0
HATCH
  5
89
330
1F
100
AcDbEntity
  8
Livello 3
100
AcDbHatch
 10
0.0
 20
0.0
 30
0.0
210
0.0
220
0.0
230
1.0
  2
SOLID
 70
     1
 71
     0
 91
        1
 92
        1
 93
        4
 72
     1
 10
9.390980289038328
 20
-11.55567708044441
 11
9.343436429140162
 21
-11.55567708044441
 72
     1
 10
9.343436429140162
 20
-11.55567708044441
 11
9.343436429140162
 21
-11.43620183047425
 72
     1
 10
9.343436429140162
 20
-11.43620183047425
 11
9.390980289038328
 21
-11.43620183047425
 72
     1
 10
9.390980289038328
 20
-11.43620183047425
 11
9.390980289038328
 21
-11.55567708044441
 97
        0
 75
     2
 76
     1
 98
        0
450
        0
451
        0
460
0.0
461
0.0
452
        0
462
0.0
453
        0
470

  0
HATCH
  5
92
330
1F
100
AcDbEntity
  8
Livello 3
100
AcDbHatch
 10
0.0
 20
0.0
 30
0.0
210
0.0
220
0.0
230
1.0
  2
SOLID
 70
     1
 71
     0
 91
        1
 92
        1
 93
        4
 72
     1
 10
8.77565119362557
 20
-11.61048816376406
 11
8.773135888134184
 21
-11.64783321931022
 72
     1
 10
8.773135888134184
 20
-11.64783321931022
 11
8.804451970668578
 21
-11.61004013598635
 72
     1
 10
8.804451970668578
 20
-11.61004013598635
 11
8.783627498977633
 21
-11.60008474709996
 72
     1
 10
8.783627498977633
 20
-11.60008474709996
 11
8.77565119362557
 21
-11.61048816376406
 97
        0
 75
     2
 76
     1
 98
        0
450
        0
451
        0
460
0.0
461
0.0
452
        0
462
0.0
453
        0
470

  0
SPLINE
  5
94
330
1F
100
AcDbEntity
  8
Livello 3
100
AcDbSpline
210
0.0
220
0.0
230
1.0
 70
     9
 71
     3
 72
    17
 73
    13
 74
     0
 42
0.000000001
 43
0.0000000001
 40
0.0
 40
0.0
 40
0.0
 40
0.0
 40
1.0
 40
1.0
 40
1.0
 40
2.0
 40
2.0
 40
2.0
 40
3.0
 40
3.0
 40
3.0
 40
4.0
 40
4.0
 40
4.0
 40
4.0
 10
9.026885409438273
 20
-18.57406043980091
 30
0.0
 10
9.026885409438273
 20
-18.7534479397561
 30
0.0
 10
8.523090533402262
 20
-18.8988311897197
 30
0.0
 10
7.901647799256588
 20
-18.8988311897197
 30
0.0
 10
7.280187426222473
 20
-18.8988311897197
 30
0.0
 10
6.776392550186462
 20
-18.7534479397561
 30
0.0
 10
6.776392550186462
 20
-18.57406043980091
 30
0.0
 10
6.776392550186462
 20
-18.3947082176235
 30
0.0
 10
7.280187426222473
 20
-18.2493249676599
 30
0.0
 10
7.901647799256588
 20
-18.2493249676599
 30
0.0
 10
8.523090533402262
 20
-18.2493249676599
 30
0.0
 10
9.026885409438273
 20
-18.3947082176235
 30
0.0
 10
9.026885409438273
 20
-18.57406043980091
 30
0.0
  0
SPLINE
  5
97
330
1F
100
AcDbEntity
  8
Livello 3
100
AcDbSpline
210
0.0
220
0.0
230
1.0
 70
     9
 71
     3
 72
    17
 73
    13
 74
     0
 42
0.000000001
 43
0.0000000001
 40
0.0
 40
0.0
 40
0.0
 40
0.0
 40
1.0
 40
1.0
 40
1.0
 40
2.0
 40
2.0
 40
2.0
 40
3.0
 40
3.0
 40
3.0
 40
4.0
 40
4.0
 40
4.0
 40
4.0
 10
8.616573114350655
 20
-18.56665210646946
 30
0.0
 10
8.616573114350655
 20
-18.64623524533846
 30
0.0
 10
8.417740508312187
 20
-18.71072655087785
 30
0.0
 10
8.172464709014139
 20
-18.71072655087785
 30
0.0
 10
7.927174798605339
 20
-18.71072655087785
 30
0.0
 10
7.72834219256687
 20
-18.64623524533846
 30
0.0
 10
7.72834219256687
 20
-18.56665210646946
 30
0.0
 10
7.72834219256687
 20
-18.48710777315599
 30
0.0
 10
7.927174798605339
 20
-18.42261293983879
 30
0.0
 10
8.172464709014139
 20
-18.42261293983879
 30
0.0
 10
8.417740508312187
 20
-18.42261293983879
 30
0.0
 10
8.616573114350655
 20
-18.48710777315599
 30
0.0
 10
8.616573114350655
 20
-18.56665210646946
 30
0.0
  0
SPLINE
  5
98
330
1F
100
AcDbEntity
  8
Livello 3
100
AcDbSpline
210
0.0
220
0.0
230
1.0
 70
     8
 71
     3
 72
     8
 73
     4
 74
     0
 42
0.000000001
 43
0.0000000001
 40
0.0
 40
0.0
 40
0.0
 40
0.0
 40
1.0
 40
1.0
 40
1.0
 40
1.0
 10
7.746376192106784
 20
-18.60730621757038
 30
0.0
 10
7.746376192106784
 20
-18.60730621757038
 30
0.0
 10
8.106061349597119
 20
-18.42416516206062
 30
0.0
 10
8.604155336889682
 20
-18.60730621757038
 30
0.0
  0
SPLINE
  5
114
330
1F
100
AcDbEntity
  8
Livello 3
100
AcDbSpline
210
0.0
220
0.0
230
1.0
 70
    24
 71
     3
 72
     8
 73
     4
 74
     0
 42
0.000000001
 43
0.0000000001
 40
0.0
 40
0.0
 40
0.0
 40
0.0
 40
1.0
 40
1.0
 40
1.0
 40
1.0
 10
7.173475678944917
 20
-18.54856518980728
 30
0.0
 10
7.173475678944917
 20
-18.54856518980728
 30
0.0
 10
7.173475678944917
 20
-18.34902702319052
 30
0.0
 10
7.173475678944917
 20
-18.34902702319052
 30
0.0
  0
SPLINE
  5
115
330
1F
100
AcDbEntity
  8
Livello 3
100
AcDbSpline
210
0.0
220
0.0
230
1.0
 70
    24
 71
     3
 72
     8
 73
     4
 74
     0
 42
0.000000001
 43
0.0000000001
 40
1.0
 40
1.0
 40
1.0
 40
1.0
 40
2.0
 40
2.0
 40
2.0
 40
2.0
 10
7.173475678944917
 20
-18.34902702319052
 30
0.0
 10
7.173475678944917
 20
-18.34902702319052
 30
0.0
 10
7.113168319372374
 20
-18.34902702319052
 30
0.0
 10
7.113168319372374
 20
-18.34902702319052
 30
0.0
  0
SPLINE
  5
116
330
1F
100
AcDbEntity
  8
Livello 3
100
AcDbSpline
210
0.0
220
0.0
230
1.0
 70
     8
 71
     3
 72
     8
 73
     4
 74
     0
 42
0.000000001
 43
0.0000000001
 40
2.0
 40
2.0
 40
2.0
 40
2.0
 40
3.0
 40
3.0
 40
3.0
 40
3.0
 10
7.113168319372374
 20
-18.34902702319052
 30
0.0
 10
7.113168319372374
 20
-18.34902702319052
 30
0.0
 10
7.07606315365234
 20
-18.25624999543594
 30
0.0
 10
7.136370513224883
 20
-18.2006134121165
 30
0.0
  0
SPLINE
  5
117
330
1F
100
AcDbEntity
  8
Livello 3
100
AcDbSpline
210
0.0
220
0.0
230
1.0
 70
    24
 71
     3
 72
     8
 73
     4
 74
     0
 42
0.000000001
 43
0.0000000001
 40
3.0
 40
3.0
 40
3.0
 40
3.0
 40
4.0
 40
4.0
 40
4.0
 40
4.0
 10
7.136370513224883
 20
-18.2006134121165
 30
0.0
 10
7.136370513224883
 20
-18.2006134121165
 30
0.0
 10
7.173475678944917
 20
-18.2006134121165
 30
0.0
 10
7.173475678944917
 20
-18.2006134121165
 30
0.0
  0
SPLINE
  5
118
330
1F
100
AcDbEntity
  8
Livello 3
100
AcDbSpline
210
0.0
220
0.0
230
1.0
 70
    24
 71
     3
 72
     8
 73
     4
 74
     0
 42
0.000000001
 43
0.0000000001
 40
4.0
 40
4.0
 40
4.0
 40
4.0
 40
5.0
 40
5.0
 40
5.0
 40
5.0
 10
7.173475678944917
 20
-18.2006134121165
 30
0.0
 10
7.173475678944917
 20
-18.2006134121165
 30
0.0
 10
7.196660233908986
 20
-18.22610513433238
 30
0.0
 10
7.196660233908986
 20
-18.22610513433238
 30
0.0
  0
SPLINE
  5
119
330
1F
100
AcDbEntity
  8
Livello 3
100
AcDbSpline
210
0.0
220
0.0
230
1.0
 70
    24
 71
     3
 72
     8
 73
     4
 74
     0
 42
0.000000001
 43
0.0000000001
 40
5.0
 40
5.0
 40
5.0
 40
5.0
 40
6.0
 40
6.0
 40
6.0
 40
6.0
 10
7.196660233908986
 20
-18.22610513433238
 30
0.0
 10
7.196660233908986
 20
-18.22610513433238
 30
0.0
 10
7.224498083250627
 20
-18.21683766211244
 30
0.0
 10
7.224498083250627
 20
-18.21683766211244
 30
0.0
  0
SPLINE
  5
11A
330
1F
100
AcDbEntity
  8
Livello 3
100
AcDbSpline
210
0.0
220
0.0
230
1.0
 70
     8
 71
     3
 72
    11
 73
     7
 74
     0
 42
0.000000001
 43
0.0000000001
 40
6.0
 40
6.0
 40
6.0
 40
6.0
 40
7.0
 40
7.0
 40
7.0
 40
8.0
 40
8.0
 40
8.0
 40
8.0
 10
7.224498083250627
 20
-18.21683766211244
 30
0.0
 10
7.224498083250627
 20
-18.21683766211244
 30
0.0
 10
7.227133177575999
 20
-18.24233291210607
 30
0.0
 10
7.291917287034331
 20
-18.24233291210607
 30
0.0
 10
7.356719194328702
 20
-18.24233291210607
 30
0.0
 10
7.354429507661733
 20
-18.21453049544636
 30
0.0
 10
7.359079118654223
 20
-18.21218805100251
 30
0.0
  0
SPLINE
  5
11B
330
1F
100
AcDbEntity
  8
Livello 3
100
AcDbSpline
210
0.0
220
0.0
230
1.0
 70
     8
 71
     3
 72
     8
 73
     4
 74
     0
 42
0.000000001
 43
0.0000000001
 40
8.0
 40
8.0
 40
8.0
 40
8.0
 40
9.0
 40
9.0
 40
9.0
 40
9.0
 10
7.359079118654223
 20
-18.21218805100251
 30
0.0
 10
7.363696979647522
 20
-18.20988088433638
 30
0.0
 10
7.389223978996275
 20
-18.22610513433238
 30
0.0
 10
7.389223978996275
 20
-18.22610513433238
 30
0.0
  0
SPLINE
  5
11C
330
1F
100
AcDbEntity
  8
Livello 3
100
AcDbSpline
210
0.0
220
0.0
230
1.0
 70
    24
 71
     3
 72
     8
 73
     4
 74
     0
 42
0.000000001
 43
0.0000000001
 40
9.0
 40
9.0
 40
9.0
 40
9.0
 40
10.0
 40
10.0
 40
10.0
 40
10.0
 10
7.389223978996275
 20
-18.22610513433238
 30
0.0
 10
7.389223978996275
 20
-18.22610513433238
 30
0.0
 10
7.412408533960343
 20
-18.53926596758737
 30
0.0
 10
7.412408533960343
 20
-18.53926596758737
 30
0.0
  0
SPLINE
  5
11D
330
1F
100
AcDbEntity
  8
Livello 3
100
AcDbSpline
210
0.0
220
0.0
230
1.0
 70
     8
 71
     3
 72
     8
 73
     4
 74
     0
 42
0.000000001
 43
0.0000000001
 40
10.0
 40
10.0
 40
10.0
 40
10.0
 40
11.0
 40
11.0
 40
11.0
 40
11.0
 10
7.412408533960343
 20
-18.53926596758737
 30
0.0
 10
7.412408533960343
 20
-18.53926596758737
 30
0.0
 10
7.398491450982064
 20
-18.57402516202314
 30
0.0
 10
7.303371981186542
 20
-18.57402516202314
 30
0.0
  0
SPLINE
  5
11E
330
1F
100
AcDbEntity
  8
Livello 3
100
AcDbSpline
210
0.0
220
0.0
230
1.0
 70
     8
 71
     3
 72
     8
 73
     4
 74
     0
 42
0.000000001
 43
0.0000000001
 40
11.0
 40
11.0
 40
11.0
 40
11.0
 40
12.0
 40
12.0
 40
12.0
 40
12.0
 10
7.303371981186542
 20
-18.57402516202314
 30
0.0
 10
7.303371981186542
 20
-18.57402516202314
 30
0.0
 10
7.173475678944917
 20
-18.57636760646698
 30
0.0
 10
7.173475678944917
 20
-18.54856518980728
 30
0.0
  0
SPLINE
  5
11F
330
1F
100
AcDbEntity
  8
Livello 3
100
AcDbSpline
210
0.0
220
0.0
230
1.0
 70
    24
 71
     3
 72
     8
 73
     4
 74
     0
 42
0.000000001
 43
0.0000000001
 40
0.0
 40
0.0
 40
0.0
 40
0.0
 40
1.0
 40
1.0
 40
1.0
 40
1.0
 10
7.224498083250627
 20
-18.21683766211244
 30
0.0
 10
7.224498083250627
 20
-18.21683766211244
 30
0.0
 10
7.224498083250627
 20
-17.84738760664927
 30
0.0
 10
7.224498083250627
 20
-17.84738760664927
 30
0.0
  0
SPLINE
  5
120
330
1F
100
AcDbEntity
  8
Livello 3
100
AcDbSpline
210
0.0
220
0.0
230
1.0
 70
     8
 71
     3
 72
     8
 73
     4
 74
     0
 42
0.000000001
 43
0.0000000001
 40
1.0
 40
1.0
 40
1.0
 40
1.0
 40
2.0
 40
2.0
 40
2.0
 40
2.0
 10
7.224498083250627
 20
-17.84738760664927
 30
0.0
 10
7.224498083250627
 20
-17.84738760664927
 30
0.0
 10
7.223926427657812
 20
-17.82998860665359
 30
0.0
 10
7.284819398326523
 20
-17.82654549554337
 30
0.0
  0
SPLINE
  5
121
330
1F
100
AcDbEntity
  8
Livello 3
100
AcDbSpline
210
0.0
220
0.0
230
1.0
 70
    24
 71
     3
 72
     8
 73
     4
 74
     0
 42
0.000000001
 43
0.0000000001
 40
2.0
 40
2.0
 40
2.0
 40
2.0
 40
3.0
 40
3.0
 40
3.0
 40
3.0
 10
7.284819398326523
 20
-17.82654549554337
 30
0.0
 10
7.284819398326523
 20
-17.82654549554337
 30
0.0
 10
7.284819398326523
 20
-17.74996096778471
 30
0.0
 10
7.284819398326523
 20
-17.74996096778471
 30
0.0
  0
SPLINE
  5
122
330
1F
100
AcDbEntity
  8
Livello 3
100
AcDbSpline
210
0.0
220
0.0
230
1.0
 70
     8
 71
     3
 72
     8
 73
     4
 74
     0
 42
0.000000001
 43
0.0000000001
 40
3.0
 40
3.0
 40
3.0
 40
3.0
 40
4.0
 40
4.0
 40
4.0
 40
4.0
 10
7.284819398326523
 20
-17.74996096778471
 30
0.0
 10
7.284819398326523
 20
-17.74996096778471
 30
0.0
 10
7.281341009526375
 20
-17.70475955112938
 30
0.0
 10
7.356168702061808
 20
-17.6803332178021
 30
0.0
  0
SPLINE
  5
123
330
1F
100
AcDbEntity
  8
Livello 3
100
AcDbSpline
210
0.0
220
0.0
230
1.0
 70
    24
 71
     3
 72
     8
 73
     4
 74
     0
 42
0.000000001
 43
0.0000000001
 40
4.0
 40
4.0
 40
4.0
 40
4.0
 40
5.0
 40
5.0
 40
5.0
 40
5.0
 10
7.356168702061808
 20
-17.6803332178021
 30
0.0
 10
7.356168702061808
 20
-17.6803332178021
 30
0.0
 10
7.664108416427831
 20
-17.40548405120417
 30
0.0
 10
7.664108416427831
 20
-17.40548405120417
 30
0.0
  0
SPLINE
  5
124
330
1F
100
AcDbEntity
  8
Livello 3
100
AcDbSpline
210
0.0
220
0.0
230
1.0
 70
     8
 71
     3
 72
     8
 73
     4
 74
     0
 42
0.000000001
 43
0.0000000001
 40
5.0
 40
5.0
 40
5.0
 40
5.0
 40
6.0
 40
6.0
 40
6.0
 40
6.0
 10
7.664108416427831
 20
-17.40548405120417
 30
0.0
 10
7.664108416427831
 20
-17.40548405120417
 30
0.0
 10
7.70586336090808
 20
-17.36369399565903
 30
0.0
 10
7.744136053275047
 20
-17.39332380120722
 30
0.0
  0
SPLINE
  5
125
330
1F
100
AcDbEntity
  8
Livello 3
100
AcDbSpline
210
0.0
220
0.0
230
1.0
 70
     8
 71
     3
 72
     8
 73
     4
 74
     0
 42
0.000000001
 43
0.0000000001
 40
6.0
 40
6.0
 40
6.0
 40
6.0
 40
7.0
 40
7.0
 40
7.0
 40
7.0
 10
7.744136053275047
 20
-17.39332380120722
 30
0.0
 10
7.744136053275047
 20
-17.39332380120722
 30
0.0
 10
7.787630024387646
 20
-17.39855902342814
 30
0.0
 10
7.744136053275047
 20
-17.53243466228352
 30
0.0
  0
SPLINE
  5
126
330
1F
100
AcDbEntity
  8
Livello 3
100
AcDbSpline
210
0.0
220
0.0
230
1.0
 70
    24
 71
     3
 72
     8
 73
     4
 74
     0
 42
0.000000001
 43
0.0000000001
 40
7.0
 40
7.0
 40
7.0
 40
7.0
 40
8.0
 40
8.0
 40
8.0
 40
8.0
 10
7.744136053275047
 20
-17.53243466228352
 30
0.0
 10
7.744136053275047
 20
-17.53243466228352
 30
0.0
 10
7.669325999628054
 20
-17.87346493997608
 30
0.0
 10
7.669325999628054
 20
-17.87346493997608
 30
0.0
  0
SPLINE
  5
127
330
1F
100
AcDbEntity
  8
Livello 3
100
AcDbSpline
210
0.0
220
0.0
230
1.0
 70
    24
 71
     3
 72
     8
 73
     4
 74
     0
 42
0.000000001
 43
0.0000000001
 40
8.0
 40
8.0
 40
8.0
 40
8.0
 40
9.0
 40
9.0
 40
9.0
 40
9.0
 10
7.669325999628054
 20
-17.87346493997608
 30
0.0
 10
7.669325999628054
 20
-17.87346493997608
 30
0.0
 10
7.745878775452808
 20
-17.9639700788423
 30
0.0
 10
7.745878775452808
 20
-17.9639700788423
 30
0.0
  0
SPLINE
  5
128
330
1F
100
AcDbEntity
  8
Livello 3
100
AcDbSpline
210
0.0
220
0.0
230
1.0
 70
    24
 71
     3
 72
     8
 73
     4
 74
     0
 42
0.000000001
 43
0.0000000001
 40
9.0
 40
9.0
 40
9.0
 40
9.0
 40
10.0
 40
10.0
 40
10.0
 40
10.0
 10
7.745878775452808
 20
-17.9639700788423
 30
0.0
 10
7.745878775452808
 20
-17.9639700788423
 30
0.0
 10
7.752853360896311
 20
-18.02832380104847
 30
0.0
 10
7.752853360896311
 20
-18.02832380104847
 30
0.0
  0
SPLINE
  5
129
330
1F
100
AcDbEntity
  8
Livello 3
100
AcDbSpline
210
0.0
220
0.0
230
1.0
 70
    24
 71
     3
 72
     8
 73
     4
 74
     0
 42
0.000000001
 43
0.0000000001
 40
10.0
 40
10.0
 40
10.0
 40
10.0
 40
11.0
 40
11.0
 40
11.0
 40
11.0
 10
7.752853360896311
 20
-18.02832380104847
 30
0.0
 10
7.752853360896311
 20
-18.02832380104847
 30
0.0
 10
7.676286305006036
 20
-18.0561579677082
 30
0.0
 10
7.676286305006036
 20
-18.0561579677082
 30
0.0
  0
SPLINE
  5
12A
330
1F
100
AcDbEntity
  8
Livello 3
100
AcDbSpline
210
0.0
220
0.0
230
1.0
 70
    24
 71
     3
 72
     8
 73
     4
 74
     0
 42
0.000000001
 43
0.0000000001
 40
11.0
 40
11.0
 40
11.0
 40
11.0
 40
12.0
 40
12.0
 40
12.0
 40
12.0
 10
7.676286305006036
 20
-18.0561579677082
 30
0.0
 10
7.676286305006036
 20
-18.0561579677082
 30
0.0
 10
7.357890257573442
 20
-18.07703535659181
 30
0.0
 10
7.357890257573442
 20
-18.07703535659181
 30
0.0
  0
SPLINE
  5
12B
330
1F
100
AcDbEntity
  8
Livello 3
100
AcDbSpline
210
0.0
220
0.0
230
1.0
 70
    24
 71
     3
 72
     8
 73
     4
 74
     0
 42
0.000000001
 43
0.0000000001
 40
12.0
 40
12.0
 40
12.0
 40
12.0
 40
13.0
 40
13.0
 40
13.0
 40
13.0
 10
7.357890257573442
 20
-18.07703535659181
 30
0.0
 10
7.357890257573442
 20
-18.07703535659181
 30
0.0
 10
7.359079118654223
 20
-18.21218805100251
 30
0.0
 10
7.359079118654223
 20
-18.21218805100251
 30
0.0
  0
LINE
  5
12C
330
1F
100
AcDbEntity
  8
Livello 3
100
AcDbLine
 10
6.679586802656182
 20
-16.374607412573
 30
0.0
 11
7.693321943460313
 21
-17.4672907178554
 31
0.0
  0
LINE
  5
12D
330
1F
100
AcDbEntity
  8
Livello 3
100
AcDbLine
 10
7.284819398326523
 20
-17.74996096778471
 30
0.0
 11
5.364057336218136
 21
-14.51208538526088
 31
0.0
  0
SPLINE
  5
12E
330
1F
100
AcDbEntity
  8
Livello 3
100
AcDbSpline
210
0.0
220
0.0
230
1.0
 70
     8
 71
     3
 72
     8
 73
     4
 74
     0
 42
0.000000001
 43
0.0000000001
 40
0.0
 40
0.0
 40
0.0
 40
0.0
 40
1.0
 40
1.0
 40
1.0
 40
1.0
 10
5.937063682710638
 20
-14.16767902423583
 30
0.0
 10
5.905729961287804
 20
-14.13636294091035
 30
0.0
 10
5.803653713891987
 20
-14.18159963534345
 30
0.0
 10
5.803653713891987
 20
-14.18159963534345
 30
0.0
  0
SPLINE
  5
12F
330
1F
100
AcDbEntity
  8
Livello 3
100
AcDbSpline
210
0.0
220
0.0
230
1.0
 70
    24
 71
     3
 72
     8
 73
     4
 74
     0
 42
0.000000001
 43
0.0000000001
 40
1.0
 40
1.0
 40
1.0
 40
1.0
 40
2.0
 40
2.0
 40
2.0
 40
2.0
 10
5.803653713891987
 20
-14.18159963534345
 30
0.0
 10
5.803653713891987
 20
-14.18159963534345
 30
0.0
 10
5.358271780810183
 20
-14.32656660752943
 30
0.0
 10
5.358271780810183
 20
-14.32656660752943
 30
0.0
  0
SPLINE
  5
130
330
1F
100
AcDbEntity
  8
Livello 3
100
AcDbSpline
210
0.0
220
0.0
230
1.0
 70
     8
 71
     3
 72
     8
 73
     4
 74
     0
 42
0.000000001
 43
0.0000000001
 40
2.0
 40
2.0
 40
2.0
 40
2.0
 40
3.0
 40
3.0
 40
3.0
 40
3.0
 10
5.358271780810183
 20
-14.32656660752943
 30
0.0
 10
5.314192198601413
 20
-14.3404872186371
 30
0.0
 10
5.300289226733885
 20
-14.35209713530084
 30
0.0
 10
5.300289226733885
 20
-14.35209713530084
 30
0.0
  0
SPLINE
  5
131
330
1F
100
AcDbEntity
  8
Livello 3
100
AcDbSpline
210
0.0
220
0.0
230
1.0
 70
     8
 71
     3
 72
     8
 73
     4
 74
     0
 42
0.000000001
 43
0.0000000001
 40
3.0
 40
3.0
 40
3.0
 40
3.0
 40
4.0
 40
4.0
 40
4.0
 40
4.0
 10
5.300289226733885
 20
-14.35209713530084
 30
0.0
 10
5.246942172539327
 20
-14.40773371862028
 30
0.0
 10
5.31768822629
 20
-14.46571627416132
 30
0.0
 10
5.31768822629
 20
-14.46571627416132
 30
0.0
  0
SPLINE
  5
132
330
1F
100
AcDbEntity
  8
Livello 3
100
AcDbSpline
210
0.0
220
0.0
230
1.0
 70
    24
 71
     3
 72
     8
 73
     4
 74
     0
 42
0.000000001
 43
0.0000000001
 40
4.0
 40
4.0
 40
4.0
 40
4.0
 40
5.0
 40
5.0
 40
5.0
 40
5.0
 10
5.31768822629
 20
-14.46571627416132
 30
0.0
 10
5.31768822629
 20
-14.46571627416132
 30
0.0
 10
5.577480830773249
 20
-14.69664107965918
 30
0.0
 10
5.577480830773249
 20
-14.69664107965918
 30
0.0
  0
SPLINE
  5
133
330
1F
100
AcDbEntity
  8
Livello 3
100
AcDbSpline
210
0.0
220
0.0
230
1.0
 70
     8
 71
     3
 72
     8
 73
     4
 74
     0
 42
0.000000001
 43
0.0000000001
 40
5.0
 40
5.0
 40
5.0
 40
5.0
 40
6.0
 40
6.0
 40
6.0
 40
6.0
 10
5.577480830773249
 20
-14.69664107965918
 30
0.0
 10
5.577480830773249
 20
-14.69664107965918
 30
0.0
 10
5.634309801545644
 20
-14.75803146853273
 30
0.0
 10
5.736386048941462
 20
-14.72096157965308
 30
0.0
  0
SPLINE
  5
134
330
1F
100
AcDbEntity
  8
Livello 3
100
AcDbSpline
210
0.0
220
0.0
230
1.0
 70
    24
 71
     3
 72
     8
 73
     4
 74
     0
 42
0.000000001
 43
0.0000000001
 40
6.0
 40
6.0
 40
6.0
 40
6.0
 40
7.0
 40
7.0
 40
7.0
 40
7.0
 10
5.736386048941462
 20
-14.72096157965308
 30
0.0
 10
5.736386048941462
 20
-14.72096157965308
 30
0.0
 10
5.832659102040888
 20
-14.68265344077376
 30
0.0
 10
5.832659102040888
 20
-14.68265344077376
 30
0.0
  0
SPLINE
  5
135
330
1F
100
AcDbEntity
  8
Livello 3
100
AcDbSpline
210
0.0
220
0.0
230
1.0
 70
     8
 71
     3
 72
     8
 73
     4
 74
     0
 42
0.000000001
 43
0.0000000001
 40
7.0
 40
7.0
 40
7.0
 40
7.0
 40
8.0
 40
8.0
 40
8.0
 40
8.0
 10
5.832659102040888
 20
-14.68265344077376
 30
0.0
 10
5.832659102040888
 20
-14.68265344077376
 30
0.0
 10
5.887180906205476
 20
-14.67335069077611
 30
0.0
 10
5.903405155791559
 20
-14.58636274635341
 30
0.0
  0
SPLINE
  5
136
330
1F
100
AcDbEntity
  8
Livello 3
100
AcDbSpline
210
0.0
220
0.0
230
1.0
 70
    24
 71
     3
 72
     8
 73
     4
 74
     0
 42
0.000000001
 43
0.0000000001
 40
8.0
 40
8.0
 40
8.0
 40
8.0
 40
9.0
 40
9.0
 40
9.0
 40
9.0
 10
5.903405155791559
 20
-14.58636274635341
 30
0.0
 10
5.903405155791559
 20
-14.58636274635341
 30
0.0
 10
5.9579410710669
 20
-14.25005263532638
 30
0.0
 10
5.9579410710669
 20
-14.25005263532638
 30
0.0
  0
SPLINE
  5
137
330
1F
100
AcDbEntity
  8
Livello 3
100
AcDbSpline
210
0.0
220
0.0
230
1.0
 70
    24
 71
     3
 72
     8
 73
     4
 74
     0
 42
0.000000001
 43
0.0000000001
 40
9.0
 40
9.0
 40
9.0
 40
9.0
 40
10.0
 40
10.0
 40
10.0
 40
10.0
 10
5.9579410710669
 20
-14.25005263532638
 30
0.0
 10
5.9579410710669
 20
-14.25005263532638
 30
0.0
 10
8.616573114350655
 20
-11.93236260812803
 30
0.0
 10
8.616573114350655
 20
-11.93236260812803
 30
0.0
  0
SPLINE
  5
138
330
1F
100
AcDbEntity
  8
Livello 3
100
AcDbSpline
210
0.0
220
0.0
230
1.0
 70
    24
 71
     3
 72
     8
 73
     4
 74
     0
 42
0.000000001
 43
0.0000000001
 40
0.0
 40
0.0
 40
0.0
 40
0.0
 40
1.0
 40
1.0
 40
1.0
 40
1.0
 10
5.500931694792631
 20
-14.47615496860319
 30
0.0
 10
5.500931694792631
 20
-14.47615496860319
 30
0.0
 10
5.619133301932829
 20
-14.57816419079988
 30
0.0
 10
5.619133301932829
 20
-14.57816419079988
 30
0.0
  0
SPLINE
  5
139
330
1F
100
AcDbEntity
  8
Livello 3
100
AcDbSpline
210
0.0
220
0.0
230
1.0
 70
     8
 71
     3
 72
     8
 73
     4
 74
     0
 42
0.000000001
 43
0.0000000001
 40
1.0
 40
1.0
 40
1.0
 40
1.0
 40
2.0
 40
2.0
 40
2.0
 40
2.0
 10
5.619133301932829
 20
-14.57816419079988
 30
0.0
 10
5.619133301932829
 20
-14.57816419079988
 30
0.0
 10
5.655204828790345
 20
-14.61416516301312
 30
0.0
 10
5.698113188806772
 20
-14.60021280190548
 30
0.0
  0
SPLINE
  5
13A
330
1F
100
AcDbEntity
  8
Livello 3
100
AcDbSpline
210
0.0
220
0.0
230
1.0
 70
    24
 71
     3
 72
     8
 73
     4
 74
     0
 42
0.000000001
 43
0.0000000001
 40
2.0
 40
2.0
 40
2.0
 40
2.0
 40
3.0
 40
3.0
 40
3.0
 40
3.0
 10
5.698113188806772
 20
-14.60021280190548
 30
0.0
 10
5.698113188806772
 20
-14.60021280190548
 30
0.0
 10
5.765394964868048
 20
-14.57241038524577
 30
0.0
 10
5.765394964868048
 20
-14.57241038524577
 30
0.0
  0
SPLINE
  5
13B
330
1F
100
AcDbEntity
  8
Livello 3
100
AcDbSpline
210
0.0
220
0.0
230
1.0
 70
     8
 71
     3
 72
     8
 73
     4
 74
     0
 42
0.000000001
 43
0.0000000001
 40
3.0
 40
3.0
 40
3.0
 40
3.0
 40
4.0
 40
4.0
 40
4.0
 40
4.0
 10
5.765394964868048
 20
-14.57241038524577
 30
0.0
 10
5.765394964868048
 20
-14.57241038524577
 30
0.0
 10
5.797864750273967
 20
-14.56197169080396
 30
0.0
 10
5.803653713891987
 20
-14.50402441304064
 30
0.0
  0
SPLINE
  5
13C
330
1F
100
AcDbEntity
  8
Livello 3
100
AcDbSpline
210
0.0
220
0.0
230
1.0
 70
    24
 71
     3
 72
     8
 73
     4
 74
     0
 42
0.000000001
 43
0.0000000001
 40
4.0
 40
4.0
 40
4.0
 40
4.0
 40
5.0
 40
5.0
 40
5.0
 40
5.0
 10
5.803653713891987
 20
-14.50402441304064
 30
0.0
 10
5.803653713891987
 20
-14.50402441304064
 30
0.0
 10
5.825702324440591
 20
-14.35785094085495
 30
0.0
 10
5.825702324440591
 20
-14.35785094085495
 30
0.0
  0
SPLINE
  5
13D
330
1F
100
AcDbEntity
  8
Livello 3
100
AcDbSpline
210
0.0
220
0.0
230
1.0
 70
     8
 71
     3
 72
     8
 73
     4
 74
     0
 42
0.000000001
 43
0.0000000001
 40
5.0
 40
5.0
 40
5.0
 40
5.0
 40
6.0
 40
6.0
 40
6.0
 40
6.0
 10
5.825702324440591
 20
-14.35785094085495
 30
0.0
 10
5.825702324440591
 20
-14.35785094085495
 30
0.0
 10
5.832659102040888
 20
-14.29869716309199
 30
0.0
 10
5.772355270246032
 20
-14.31726738530959
 30
0.0
  0
SPLINE
  5
13E
330
1F
100
AcDbEntity
  8
Livello 3
100
AcDbSpline
210
0.0
220
0.0
230
1.0
 70
    24
 71
     3
 72
     8
 73
     4
 74
     0
 42
0.000000001
 43
0.0000000001
 40
6.0
 40
6.0
 40
6.0
 40
6.0
 40
7.0
 40
7.0
 40
7.0
 40
7.0
 10
5.772355270246032
 20
-14.31726738530959
 30
0.0
 10
5.772355270246032
 20
-14.31726738530959
 30
0.0
 10
5.513680971289808
 20
-14.39843096862263
 30
0.0
 10
5.513680971289808
 20
-14.39843096862263
 30
0.0
  0
SPLINE
  5
13F
330
1F
100
AcDbEntity
  8
Livello 3
100
AcDbSpline
210
0.0
220
0.0
230
1.0
 70
     8
 71
     3
 72
     8
 73
     4
 74
     0
 42
0.000000001
 43
0.0000000001
 40
7.0
 40
7.0
 40
7.0
 40
7.0
 40
8.0
 40
8.0
 40
8.0
 40
8.0
 10
5.513680971289808
 20
-14.39843096862263
 30
0.0
 10
5.513680971289808
 20
-14.39843096862263
 30
0.0
 10
5.434288334426394
 20
-14.41855341306199
 30
0.0
 10
5.500931694792631
 20
-14.47615496860319
 30
0.0
  0
LINE
  5
140
330
1F
100
AcDbEntity
  8
Livello 3
100
AcDbLine
 10
5.904869183531987
 20
-14.2284873297762
 30
0.0
 11
7.232005038562819
 21
-13.33834080222096
 31
0.0
  0
LINE
  5
141
330
1F
100
AcDbEntity
  8
Livello 3
100
AcDbLine
 10
5.604990441182532
 20
-14.71631196854316
 30
0.0
 11
7.377494118184417
 21
-17.66135024558463
 31
0.0
  0
LINE
  5
142
330
1F
100
AcDbEntity
  8
Livello 3
100
AcDbLine
 10
5.627504718385921
 20
-14.72578405187413
 30
0.0
 11
7.404019478618809
 21
-17.63768238447947
 31
0.0
  0
LINE
  5
143
330
1F
100
AcDbEntity
  8
Livello 3
100
AcDbLine
 10
7.499519948404612
 20
-17.55238424561189
 30
0.0
 11
5.759503576129462
 21
-14.71172938521097
 31
0.0
  0
LINE
  5
144
330
1F
100
AcDbEntity
  8
Livello 3
100
AcDbLine
 10
5.893414489379777
 20
-14.62153821856686
 30
0.0
 11
8.67321158512791
 21
-12.04684605254383
 31
0.0
  0
SPLINE
  5
145
330
1F
100
AcDbEntity
  8
Livello 3
100
AcDbSpline
210
0.0
220
0.0
230
1.0
 70
    24
 71
     3
 72
     8
 73
     4
 74
     0
 42
0.000000001
 43
0.0000000001
 40
0.0
 40
0.0
 40
0.0
 40
0.0
 40
1.0
 40
1.0
 40
1.0
 40
1.0
 10
8.78107691570937
 20
-11.63970521931231
 30
0.0
 10
8.78107691570937
 20
-11.63970521931231
 30
0.0
 10
8.622757308637329
 20
-11.92154644146407
 30
0.0
 10
8.622757308637329
 20
-11.92154644146407
 30
0.0
  0
SPLINE
  5
146
330
1F
100
AcDbEntity
  8
Livello 3
100
AcDbSpline
210
0.0
220
0.0
230
1.0
 70
     8
 71
     3
 72
     8
 73
     4
 74
     0
 42
0.000000001
 43
0.0000000001
 40
1.0
 40
1.0
 40
1.0
 40
1.0
 40
2.0
 40
2.0
 40
2.0
 40
2.0
 10
8.622757308637329
 20
-11.92154644146407
 30
0.0
 10
8.622757308637329
 20
-11.92154644146407
 30
0.0
 10
8.584449170725763
 20
-11.97901041367191
 30
0.0
 10
8.614057808859271
 20
-12.01552996921835
 30
0.0
  0
SPLINE
  5
147
330
1F
100
AcDbEntity
  8
Livello 3
100
AcDbSpline
210
0.0
220
0.0
230
1.0
 70
     8
 71
     3
 72
     8
 73
     4
 74
     0
 42
0.000000001
 43
0.0000000001
 40
2.0
 40
2.0
 40
2.0
 40
2.0
 40
3.0
 40
3.0
 40
3.0
 40
3.0
 10
8.614057808859271
 20
-12.01552996921835
 30
0.0
 10
8.614057808859271
 20
-12.01552996921835
 30
0.0
 10
8.633196002815459
 20
-12.04684605254383
 30
0.0
 10
8.714966361840433
 20
-12.04684605254383
 30
0.0
  0
SPLINE
  5
148
330
1F
100
AcDbEntity
  8
Livello 3
100
AcDbSpline
210
0.0
220
0.0
230
1.0
 70
    24
 71
     3
 72
     8
 73
     4
 74
     0
 42
0.000000001
 43
0.0000000001
 40
3.0
 40
3.0
 40
3.0
 40
3.0
 40
4.0
 40
4.0
 40
4.0
 40
4.0
 10
8.714966361840433
 20
-12.04684605254383
 30
0.0
 10
8.714966361840433
 20
-12.04684605254383
 30
0.0
 10
9.01594577082848
 20
-12.04684605254383
 30
0.0
 10
9.01594577082848
 20
-12.04684605254383
 30
0.0
  0
SPLINE
  5
149
330
1F
100
AcDbEntity
  8
Livello 3
100
AcDbSpline
210
0.0
220
0.0
230
1.0
 70
     8
 71
     3
 72
     8
 73
     4
 74
     0
 42
0.000000001
 43
0.0000000001
 40
4.0
 40
4.0
 40
4.0
 40
4.0
 40
5.0
 40
5.0
 40
5.0
 40
5.0
 10
9.01594577082848
 20
-12.04684605254383
 30
0.0
 10
9.01594577082848
 20
-12.04684605254383
 30
0.0
 10
9.092512657763984
 20
-12.04684605254383
 30
0.0
 10
9.106429740742264
 20
-12.00509127477648
 30
0.0
  0
SPLINE
  5
14A
330
1F
100
AcDbEntity
  8
Livello 3
100
AcDbSpline
210
0.0
220
0.0
230
1.0
 70
     8
 71
     3
 72
     8
 73
     4
 74
     0
 42
0.000000001
 43
0.0000000001
 40
5.0
 40
5.0
 40
5.0
 40
5.0
 40
6.0
 40
6.0
 40
6.0
 40
6.0
 10
9.106429740742264
 20
-12.00509127477648
 30
0.0
 10
9.106429740742264
 20
-12.00509127477648
 30
0.0
 10
9.129032212387844
 20
-11.977253580339
 30
0.0
 10
9.094234213275617
 20
-11.91634296924311
 30
0.0
  0
SPLINE
  5
14B
330
1F
100
AcDbEntity
  8
Livello 3
100
AcDbSpline
210
0.0
220
0.0
230
1.0
 70
    24
 71
     3
 72
     8
 73
     4
 74
     0
 42
0.000000001
 43
0.0000000001
 40
6.0
 40
6.0
 40
6.0
 40
6.0
 40
7.0
 40
7.0
 40
7.0
 40
7.0
 10
9.094234213275617
 20
-11.91634296924311
 30
0.0
 10
9.094234213275617
 20
-11.91634296924311
 30
0.0
 10
8.928957828603278
 20
-11.65710069153017
 30
0.0
 10
8.928957828603278
 20
-11.65710069153017
 30
0.0
  0
SPLINE
  5
14C
330
1F
100
AcDbEntity
  8
Livello 3
100
AcDbSpline
210
0.0
220
0.0
230
1.0
 70
     8
 71
     3
 72
     8
 73
     4
 74
     0
 42
0.000000001
 43
0.0000000001
 40
7.0
 40
7.0
 40
7.0
 40
7.0
 40
8.0
 40
8.0
 40
8.0
 40
8.0
 10
8.928957828603278
 20
-11.65710069153017
 30
0.0
 10
8.928957828603278
 20
-11.65710069153017
 30
0.0
 10
8.904101107015206
 20
-11.59622535821206
 30
0.0
 10
8.858229413741048
 20
-11.59795044154496
 30
0.0
  0
SPLINE
  5
14D
330
1F
100
AcDbEntity
  8
Livello 3
100
AcDbSpline
210
0.0
220
0.0
230
1.0
 70
     8
 71
     3
 72
     8
 73
     4
 74
     0
 42
0.000000001
 43
0.0000000001
 40
8.0
 40
8.0
 40
8.0
 40
8.0
 40
9.0
 40
9.0
 40
9.0
 40
9.0
 10
8.858229413741048
 20
-11.59795044154496
 30
0.0
 10
8.858229413741048
 20
-11.59795044154496
 30
0.0
 10
8.815236387060112
 20
-11.57893219154971
 30
0.0
 10
8.78107691570937
 20
-11.63970521931231
 30
0.0
  0
LINE
  5
14E
330
1F
100
AcDbEntity
  8
Livello 3
100
AcDbLine
 10
8.604155336889682
 20
-11.96795083034134
 30
0.0
 11
5.929295516242153
 21
-14.42661438528224
 31
0.0
  0
LINE
  5
14F
330
1F
100
AcDbEntity
  8
Livello 3
100
AcDbLine
 10
8.773135888134184
 20
-11.65389746930875
 30
0.0
 11
5.904869183531987
 21
-14.15665471868303
 31
0.0
  0
LINE
  5
150
330
1F
100
AcDbEntity
  8
Livello 3
100
AcDbLine
 10
9.113633462780699
 20
-11.96795083034134
 30
0.0
 11
9.390980289038328
 21
-11.96795083034134
 31
0.0
  0
LINE
  5
151
330
1F
100
AcDbEntity
  8
Livello 3
100
AcDbLine
 10
9.390980289038328
 20
-11.96795083034134
 30
0.0
 11
9.391202539032658
 21
-12.05325249698667
 31
0.0
  0
LINE
  5
152
330
1F
100
AcDbEntity
  8
Livello 3
100
AcDbLine
 10
9.391202539032658
 20
-12.05325249698667
 30
0.0
 11
9.113633462780699
 21
-12.05325249698667
 31
0.0
  0
LINE
  5
153
330
1F
100
AcDbEntity
  8
Livello 3
100
AcDbLine
 10
9.113633462780699
 20
-12.05325249698667
 30
0.0
 11
9.113633462780699
 21
-11.96795083034134
 31
0.0
  0
SPLINE
  5
154
330
1F
100
AcDbEntity
  8
Livello 3
100
AcDbSpline
210
0.0
220
0.0
230
1.0
 70
     8
 71
     3
 72
     8
 73
     4
 74
     0
 42
0.000000001
 43
0.0000000001
 40
0.0
 40
0.0
 40
0.0
 40
0.0
 40
1.0
 40
1.0
 40
1.0
 40
1.0
 10
8.795011637576088
 20
-11.61534591376282
 30
0.0
 10
8.795011637576088
 20
-11.61534591376282
 30
0.0
 10
8.814544942633306
 20
-11.48374569157348
 30
0.0
 10
8.770775804861063
 20
-11.39555124715109
 30
0.0
  0
SPLINE
  5
155
330
1F
100
AcDbEntity
  8
Livello 3
100
AcDbSpline
210
0.0
220
0.0
230
1.0
 70
     8
 71
     3
 72
     8
 73
     4
 74
     0
 42
0.000000001
 43
0.0000000001
 40
1.0
 40
1.0
 40
1.0
 40
1.0
 40
2.0
 40
2.0
 40
2.0
 40
2.0
 10
8.770775804861063
 20
-11.39555124715109
 30
0.0
 10
8.770775804861063
 20
-11.39555124715109
 30
0.0
 10
8.675758640618486
 20
-11.21812871941766
 30
0.0
 10
8.791307471003923
 20
-11.1044743027794
 30
0.0
  0
SPLINE
  5
156
330
1F
100
AcDbEntity
  8
Livello 3
100
AcDbSpline
210
0.0
220
0.0
230
1.0
 70
     8
 71
     3
 72
     8
 73
     4
 74
     0
 42
0.000000001
 43
0.0000000001
 40
2.0
 40
2.0
 40
2.0
 40
2.0
 40
3.0
 40
3.0
 40
3.0
 40
3.0
 10
8.791307471003923
 20
-11.1044743027794
 30
0.0
 10
8.791307471003923
 20
-11.1044743027794
 30
0.0
 10
8.869772302335453
 20
-11.00821888613683
 30
0.0
 10
8.97986013286021
 20
-11.01627985835701
 30
0.0
  0
SPLINE
  5
157
330
1F
100
AcDbEntity
  8
Livello 3
100
AcDbSpline
210
0.0
220
0.0
230
1.0
 70
     8
 71
     3
 72
     8
 73
     4
 74
     0
 42
0.000000001
 43
0.0000000001
 40
3.0
 40
3.0
 40
3.0
 40
3.0
 40
4.0
 40
4.0
 40
4.0
 40
4.0
 10
8.97986013286021
 20
-11.01627985835701
 30
0.0
 10
8.97986013286021
 20
-11.01627985835701
 30
0.0
 10
9.111788638334376
 20
-11.01627985835701
 30
0.0
 10
9.156453628354935
 20
-11.16479577498654
 30
0.0
  0
SPLINE
  5
158
330
1F
100
AcDbEntity
  8
Livello 3
100
AcDbSpline
210
0.0
220
0.0
230
1.0
 70
     8
 71
     3
 72
     8
 73
     4
 74
     0
 42
0.000000001
 43
0.0000000001
 40
4.0
 40
4.0
 40
4.0
 40
4.0
 40
5.0
 40
5.0
 40
5.0
 40
5.0
 10
9.156453628354935
 20
-11.16479577498654
 30
0.0
 10
9.156453628354935
 20
-11.16479577498654
 30
0.0
 10
9.217484182353473
 20
-11.48143499712966
 30
0.0
 10
9.370120539570503
 20
-11.49304491379339
 30
0.0
  0
LINE
  5
159
330
1F
100
AcDbEntity
  8
Livello 3
100
AcDbLine
 10
9.390980289038328
 20
-11.55567708044441
 30
0.0
 11
9.343436429140162
 21
-11.55567708044441
 31
0.0
  0
LINE
  5
15A
330
1F
100
AcDbEntity
  8
Livello 3
100
AcDbLine
 10
9.343436429140162
 20
-11.55567708044441
 30
0.0
 11
9.343436429140162
 21
-11.43620183047425
 31
0.0
  0
LINE
  5
15B
330
1F
100
AcDbEntity
  8
Livello 3
100
AcDbLine
 10
9.343436429140162
 20
-11.43620183047425
 30
0.0
 11
9.390980289038328
 21
-11.43620183047425
 31
0.0
  0
LINE
  5
15C
330
1F
100
AcDbEntity
  8
Livello 3
100
AcDbLine
 10
9.390980289038328
 20
-11.43620183047425
 30
0.0
 11
9.390980289038328
 21
-11.55567708044441
 31
0.0
  0
SPLINE
  5
15D
330
1F
100
AcDbEntity
  8
Livello 3
100
AcDbSpline
210
0.0
220
0.0
230
1.0
 70
     8
 71
     3
 72
     8
 73
     4
 74
     0
 42
0.000000001
 43
0.0000000001
 40
0.0
 40
0.0
 40
0.0
 40
0.0
 40
1.0
 40
1.0
 40
1.0
 40
1.0
 10
9.390807427931626
 20
-12.21096885805834
 30
0.0
 10
9.390807427931626
 20
-12.21096885805834
 30
0.0
 10
8.988746604855721
 20
-12.40347969134356
 30
0.0
 10
8.858229413741048
 20
-12.96489377453654
 30
0.0
  0
SPLINE
  5
15E
330
1F
100
AcDbEntity
  8
Livello 3
100
AcDbSpline
210
0.0
220
0.0
230
1.0
 70
     8
 71
     3
 72
     8
 73
     4
 74
     0
 42
0.000000001
 43
0.0000000001
 40
1.0
 40
1.0
 40
1.0
 40
1.0
 40
2.0
 40
2.0
 40
2.0
 40
2.0
 10
8.858229413741048
 20
-12.96489377453654
 30
0.0
 10
8.858229413741048
 20
-12.96489377453654
 30
0.0
 10
8.839073580896419
 20
-13.00661327452611
 30
0.0
 10
8.936486106188995
 20
-13.04144302451743
 30
0.0
  0
SPLINE
  5
15F
330
1F
100
AcDbEntity
  8
Livello 3
100
AcDbSpline
210
0.0
220
0.0
230
1.0
 70
     8
 71
     3
 72
     8
 73
     4
 74
     0
 42
0.000000001
 43
0.0000000001
 40
2.0
 40
2.0
 40
2.0
 40
2.0
 40
3.0
 40
3.0
 40
3.0
 40
3.0
 10
8.936486106188995
 20
-13.04144302451743
 30
0.0
 10
8.936486106188995
 20
-13.04144302451743
 30
0.0
 10
9.142949295366127
 20
-13.12026769116437
 30
0.0
 10
9.807561445077123
 20
-13.12026769116437
 30
0.0
  0
SPLINE
  5
160
330
1F
100
AcDbEntity
  8
Livello 3
100
AcDbSpline
210
0.0
220
0.0
230
1.0
 70
     8
 71
     3
 72
     8
 73
     4
 74
     0
 42
0.000000001
 43
0.0000000001
 40
3.0
 40
3.0
 40
3.0
 40
3.0
 40
4.0
 40
4.0
 40
4.0
 40
4.0
 10
9.807561445077123
 20
-13.12026769116437
 30
0.0
 10
9.807561445077123
 20
-13.12026769116437
 30
0.0
 10
10.47911273349998
 20
-13.1063506078345
 30
0.0
 10
10.65081697128293
 20
-13.01591602452377
 30
0.0
  0
SPLINE
  5
161
330
1F
100
AcDbEntity
  8
Livello 3
100
AcDbSpline
210
0.0
220
0.0
230
1.0
 70
     8
 71
     3
 72
     8
 73
     4
 74
     0
 42
0.000000001
 43
0.0000000001
 40
4.0
 40
4.0
 40
4.0
 40
4.0
 40
5.0
 40
5.0
 40
5.0
 40
5.0
 10
10.65081697128293
 20
-13.01591602452377
 30
0.0
 10
10.65081697128293
 20
-13.01591602452377
 30
0.0
 10
10.70412850553713
 20
-12.98346399675414
 30
0.0
 10
10.69255386694353
 20
-12.93705608009906
 30
0.0
  0
SPLINE
  5
162
330
1F
100
AcDbEntity
  8
Livello 3
100
AcDbSpline
210
0.0
220
0.0
230
1.0
 70
     8
 71
     3
 72
     8
 73
     4
 74
     0
 42
0.000000001
 43
0.0000000001
 40
5.0
 40
5.0
 40
5.0
 40
5.0
 40
6.0
 40
6.0
 40
6.0
 40
6.0
 10
10.69255386694353
 20
-12.93705608009906
 30
0.0
 10
10.69255386694353
 20
-12.93705608009906
 30
0.0
 10
10.60205225814131
 20
-12.48009949687994
 30
0.0
 10
10.14393857538432
 20
-12.20053016361654
 30
0.0
  0
LINE
  5
163
330
1F
100
AcDbEntity
  8
Livello 3
100
AcDbLine
 10
8.77565119362557
 20
-11.61048816376406
 30
0.0
 11
8.773135888134184
 21
-11.64783321931022
 31
0.0
  0
LINE
  5
164
330
1F
100
AcDbEntity
  8
Livello 3
100
AcDbLine
 10
8.773135888134184
 20
-11.64783321931022
 30
0.0
 11
8.804451970668578
 21
-11.61004013598635
 31
0.0
  0
LINE
  5
165
330
1F
100
AcDbEntity
  8
Livello 3
100
AcDbLine
 10
8.804451970668578
 20
-11.61004013598635
 30
0.0
 11
8.783627498977633
 21
-11.60008474709996
 31
0.0
  0
LINE
  5
166
330
1F
100
AcDbEntity
  8
Livello 3
100
AcDbLine
 10
8.783627498977633
 20
-11.60008474709996
 30
0.0
 11
8.77565119362557
 21
-11.61048816376406
 31
0.0
  0
SPLINE
  5
167
330
1F
100
AcDbEntity
  8
Livello 3
100
AcDbSpline
210
0.0
220
0.0
230
1.0
 70
    24
 71
     3
 72
     8
 73
     4
 74
     0
 42
0.000000001
 43
0.0000000001
 40
0.0
 40
0.0
 40
0.0
 40
0.0
 40
1.0
 40
1.0
 40
1.0
 40
1.0
 10
9.026867770549836
 20
-18.58215668979887
 30
0.0
 10
9.026867770549836
 20
-18.58215668979887
 30
0.0
 10
9.026867770549836
 20
-18.93710405082124
 30
0.0
 10
9.026867770549836
 20
-18.93710405082124
 30
0.0
  0
SPLINE
  5
168
330
1F
100
AcDbEntity
  8
Livello 3
100
AcDbSpline
210
0.0
220
0.0
230
1.0
 70
     8
 71
     3
 72
    11
 73
     7
 74
     0
 42
0.000000001
 43
0.0000000001
 40
1.0
 40
1.0
 40
1.0
 40
1.0
 40
2.0
 40
2.0
 40
2.0
 40
3.0
 40
3.0
 40
3.0
 40
3.0
 10
9.026867770549836
 20
-18.93710405082124
 30
0.0
 10
9.026867770549836
 20
-18.93710405082124
 30
0.0
 10
8.993466971697282
 20
-19.21550216186278
 30
0.0
 10
7.901630160368148
 20
-19.21550216186278
 30
0.0
 10
6.809793549334331
 20
-19.21550216186278
 30
0.0
 10
6.776392550186462
 20
-18.93710405082124
 30
0.0
 10
6.776392550186462
 20
-18.93710405082124
 30
0.0
  0
SPLINE
  5
169
330
1F
100
AcDbEntity
  8
Livello 3
100
AcDbSpline
210
0.0
220
0.0
230
1.0
 70
    24
 71
     3
 72
     8
 73
     4
 74
     0
 42
0.000000001
 43
0.0000000001
 40
3.0
 40
3.0
 40
3.0
 40
3.0
 40
4.0
 40
4.0
 40
4.0
 40
4.0
 10
6.776392550186462
 20
-18.93710405082124
 30
0.0
 10
6.776392550186462
 20
-18.93710405082124
 30
0.0
 10
6.776392550186462
 20
-18.58215668979887
 30
0.0
 10
6.776392550186462
 20
-18.58215668979887
 30
0.0
  0
SPLINE
  5
16A
330
1F
100
AcDbEntity
  8
Livello 3
100
AcDbSpline
210
0.0
220
0.0
230
1.0
 70
    24
 71
     3
 72
     8
 73
     4
 74
     0
 42
0.000000001
 43
0.0000000001
 40
0.0
 40
0.0
 40
0.0
 40
0.0
 40
1.0
 40
1.0
 40
1.0
 40
1.0
 10
10.14274971430354
 20
-12.20456241361551
 30
0.0
 10
10.14274971430354
 20
-12.20456241361551
 30
0.0
 10
10.14147641585474
 20
-11.54451519155833
 30
0.0
 10
10.14147641585474
 20
-11.54451519155833
 30
0.0
  0
SPLINE
  5
16B
330
1F
100
AcDbEntity
  8
Livello 3
100
AcDbSpline
210
0.0
220
0.0
230
1.0
 70
     8
 71
     3
 72
     8
 73
     4
 74
     0
 42
0.000000001
 43
0.0000000001
 40
1.0
 40
1.0
 40
1.0
 40
1.0
 40
2.0
 40
2.0
 40
2.0
 40
2.0
 10
10.14147641585474
 20
-11.54451519155833
 30
0.0
 10
10.14147641585474
 20
-11.54451519155833
 30
0.0
 10
10.15456776955759
 20
-11.24051952496764
 30
0.0
 10
9.765651446146337
 20
-11.24127799718969
 30
0.0
  0
SPLINE
  5
16C
330
1F
100
AcDbEntity
  8
Livello 3
100
AcDbSpline
210
0.0
220
0.0
230
1.0
 70
     8
 71
     3
 72
     8
 73
     4
 74
     0
 42
0.000000001
 43
0.0000000001
 40
2.0
 40
2.0
 40
2.0
 40
2.0
 40
3.0
 40
3.0
 40
3.0
 40
3.0
 10
9.765651446146337
 20
-11.24127799718969
 30
0.0
 10
9.376784511622718
 20
-11.24203646941169
 30
0.0
 10
9.39104752715346
 20
-11.5459968582246
 30
0.0
 10
9.39104752715346
 20
-11.5459968582246
 30
0.0
  0
SPLINE
  5
16D
330
1F
100
AcDbEntity
  8
Livello 3
100
AcDbSpline
210
0.0
220
0.0
230
1.0
 70
    24
 71
     3
 72
     8
 73
     4
 74
     0
 42
0.000000001
 43
0.0000000001
 40
3.0
 40
3.0
 40
3.0
 40
3.0
 40
4.0
 40
4.0
 40
4.0
 40
4.0
 10
9.39104752715346
 20
-11.5459968582246
 30
0.0
 10
9.39104752715346
 20
-11.5459968582246
 30
0.0
 10
9.392356122336563
 20
-12.21868763583421
 30
0.0
 10
9.392356122336563
 20
-12.21868763583421
 30
0.0
  0
SPLINE
  5
16E
330
1F
100
AcDbEntity
  8
Livello 3
100
AcDbSpline
210
0.0
220
0.0
230
1.0
 70
     8
 71
     3
 72
     8
 73
     4
 74
     0
 42
0.000000001
 43
0.0000000001
 40
4.0
 40
4.0
 40
4.0
 40
4.0
 40
5.0
 40
5.0
 40
5.0
 40
5.0
 10
9.392356122336563
 20
-12.21868763583421
 30
0.0
 10
9.392356122336563
 20
-12.21868763583421
 30
0.0
 10
9.828008444555477
 20
-12.40968152467538
 30
0.0
 10
10.14274971430354
 20
-12.20456241361551
 30
0.0
  0
LINE
  5
16F
330
1F
100
AcDbEntity
  8
Livello 3
100
AcDbLine
 10
6.732641051302655
 20
-19.7163580197622
 30
0.0
 11
9.074390463781872
 21
-19.7163580197622
 31
0.0
  0
LINE
  5
170
330
1F
100
AcDbEntity
  8
Livello 3
100
AcDbLine
 10
10.95570987380425
 20
-11.24127658025
 30
0.0
 11
10.95570987380425
 21
-13.12026769116437
 31
0.0
  0
LINE
  5
171
330
1F
100
AcDbEntity
  8
Livello 3
100
AcDbLine
 10
8.773135888134184
 20
-10.49709876280776
 30
0.0
 11
10.69419855788805
 21
-10.49709876280776
 31
0.0
  0
POLYLINE
  5
172
330
1F
100
AcDbEntity
  8
Livello 3
100
AcDb2dPolyline
 66
     1
 10
0.0
 20
0.0
 30
0.0
  0
VERTEX
  5
173
330
172
100
AcDbEntity
  8
Livello 3
100
AcDbVertex
100
AcDb2dVertex
 10
8.972888995152608
 20
-9.435186358318286
 30
0.0
  0
VERTEX
  5
174
330
172
100
AcDbEntity
  8
Livello 3
100
AcDbVertex
100
AcDb2dVertex
 10
8.970339624493524
 20
-9.435186358318286
 30
0.0
  0
VERTEX
  5
175
330
172
100
AcDbEntity
  8
Livello 3
100
AcDbVertex
100
AcDb2dVertex
 10
8.82685139753287
 20
-9.512649330304126
 30
0.0
  0
VERTEX
  5
176
330
172
100
AcDbEntity
  8
Livello 3
100
AcDbVertex
100
AcDb2dVertex
 10
8.805285099795206
 20
-9.427555471818456
 30
0.0
  0
VERTEX
  5
177
330
172
100
AcDbEntity
  8
Livello 3
100
AcDbVertex
100
AcDb2dVertex
 10
8.98560139749318
 20
-9.331058347276609
 30
0.0
  0
VERTEX
  5
178
330
172
100
AcDbEntity
  8
Livello 3
100
AcDbVertex
100
AcDb2dVertex
 10
9.080823836705487
 20
-9.331058347276609
 30
0.0
  0
VERTEX
  5
179
330
172
100
AcDbEntity
  8
Livello 3
100
AcDbVertex
100
AcDb2dVertex
 10
9.080823836705487
 20
-10.15645154911019
 30
0.0
  0
VERTEX
  5
17A
330
172
100
AcDbEntity
  8
Livello 3
100
AcDbVertex
100
AcDb2dVertex
 10
8.972888995152608
 20
-10.15645154911019
 30
0.0
  0
VERTEX
  5
17B
330
172
100
AcDbEntity
  8
Livello 3
100
AcDbVertex
100
AcDb2dVertex
 10
8.972888995152608
 20
-9.435186358318286
 30
0.0
  0
SEQEND
  5
17C
330
172
100
AcDbEntity
  8
Livello 3
  0
HATCH
  5
17D
330
1F
100
AcDbEntity
  8
Livello 3
100
AcDbHatch
 10
0.0
 20
0.0
 30
0.0
210
0.0
220
0.0
230
1.0
  2
SOLID
 70
     1
 71
     0
 91
        1
 92
        1
 93
        8
 72
     1
 10
8.972888995152608
 20
-9.435186358318286
 11
8.970339624493524
 21
-9.435186358318286
 72
     1
 10
8.970339624493524
 20
-9.435186358318286
 11
8.82685139753287
 21
-9.512649330304126
 72
     1
 10
8.82685139753287
 20
-9.512649330304126
 11
8.805285099795206
 21
-9.427555471818456
 72
     1
 10
8.805285099795206
 20
-9.427555471818456
 11
8.98560139749318
 21
-9.331058347276609
 72
     1
 10
8.98560139749318
 20
-9.331058347276609
 11
9.080823836705487
 21
-9.331058347276609
 72
     1
 10
9.080823836705487
 20
-9.331058347276609
 11
9.080823836705487
 21
-10.15645154911019
 72
     1
 10
9.080823836705487
 20
-10.15645154911019
 11
8.972888995152608
 21
-10.15645154911019
 72
     1
 10
8.972888995152608
 20
-10.15645154911019
 11
8.972888995152608
 21
-9.435186358318286
 97
        0
 75
     2
 76
     1
 98
        0
450
        0
451
        0
460
0.0
461
0.0
452
        0
462
0.0
453
        0
470

  0
SPLINE
  5
17E
330
1F
100
AcDbEntity
  8
Livello 3
100
AcDbSpline
210
0.0
220
0.0
230
1.0
 70
    11
 71
     3
 72
    50
 73
    46
 74
     0
 42
0.000000001
 43
0.0000000001
 40
0.0
 40
0.0
 40
0.0
 40
0.0
 40
1.0
 40
1.0
 40
1.0
 40
2.0
 40
2.0
 40
2.0
 40
3.0
 40
3.0
 40
3.0
 40
4.0
 40
4.0
 40
4.0
 40
5.0
 40
5.0
 40
5.0
 40
6.0
 40
6.0
 40
6.0
 40
7.0
 40
7.0
 40
7.0
 40
8.0
 40
8.0
 40
8.0
 40
9.0
 40
9.0
 40
9.0
 40
10.0
 40
10.0
 40
10.0
 40
11.0
 40
11.0
 40
11.0
 40
12.0
 40
12.0
 40
12.0
 40
13.0
 40
13.0
 40
13.0
 40
14.0
 40
14.0
 40
14.0
 40
15.0
 40
15.0
 40
15.0
 40
15.0
 10
9.874539385552198
 20
-9.4250233266368
 30
0.0
 10
9.874539385552198
 20
-9.4250233266368
 30
0.0
 10
9.559623207245509
 20
-9.4250233266368
 30
0.0
 10
9.559623207245509
 20
-9.4250233266368
 30
0.0
 10
9.559623207245509
 20
-9.4250233266368
 30
0.0
 10
9.527859426871506
 20
-9.637086179231351
 30
0.0
 10
9.527859426871506
 20
-9.637086179231351
 30
0.0
 10
9.546910804904937
 20
-9.634554034049692
 30
0.0
 10
9.564687497608828
 20
-9.632004663390608
 30
0.0
 10
9.595176592653286
 20
-9.632004663390608
 30
0.0
 10
9.658669702446442
 20
-9.632004663390608
 30
0.0
 10
9.722162812239595
 20
-9.645974525583296
 30
0.0
 10
9.77294351969218
 20
-9.676446395150332
 30
0.0
 10
9.837711314814876
 20
-9.713274465887652
 30
0.0
 10
9.891041392926542
 20
-9.784381236703211
 30
0.0
 10
9.891041392926542
 20
-9.888509247744883
 30
0.0
 10
9.891041392926542
 20
-10.04979139288686
 30
0.0
 10
9.762780488010694
 20
-10.17042141130288
 30
0.0
 10
9.583738875642259
 20
-10.17042141130288
 30
0.0
 10
9.49358072679327
 20
-10.17042141130288
 30
0.0
 10
9.417375214659543
 20
-10.14503105757659
 30
0.0
 10
9.37803222421799
 20
-10.11962347837287
 30
0.0
 10
9.37803222421799
 20
-10.11962347837287
 30
0.0
 10
9.405971948603367
 20
-10.03454684536463
 30
0.0
 10
9.405971948603367
 20
-10.03454684536463
 30
0.0
 10
9.440250648681603
 20
-10.0548729087276
 30
0.0
 10
9.507533363508533
 20
-10.08026326245389
 30
0.0
 10
9.582464190312716
 20
-10.08026326245389
 30
0.0
 10
9.687884112161359
 20
-10.08026326245389
 30
0.0
 10
9.77804226101035
 20
-10.01168863681999
 30
0.0
 10
9.77804226101035
 20
-9.901221650085457
 30
0.0
 10
9.776767575680807
 20
-9.794544268384695
 30
0.0
 10
9.705660804865249
 20
-9.718355981728397
 30
0.0
 10
9.540571829212078
 20
-9.718355981728397
 30
0.0
 10
9.49358072679327
 20
-9.718355981728397
 30
0.0
 10
9.456752656055948
 20
-9.72343749756914
 30
0.0
 10
9.426263561011488
 20
-9.727244328080338
 30
0.0
 10
9.426263561011488
 20
-9.727244328080338
 30
0.0
 10
9.479628090078008
 20
-9.331058347276609
 30
0.0
 10
9.479628090078008
 20
-9.331058347276609
 30
0.0
 10
9.479628090078008
 20
-9.331058347276609
 30
0.0
 10
9.874539385552198
 20
-9.331058347276609
 30
0.0
 10
9.874539385552198
 20
-9.331058347276609
 30
0.0
 10
9.874539385552198
 20
-9.331058347276609
 30
0.0
 10
9.874539385552198
 20
-9.4250233266368
 30
0.0
 10
9.874539385552198
 20
-9.4250233266368
 30
0.0
  0
HATCH
  5
17F
330
1F
100
AcDbEntity
  8
Livello 3
100
AcDbHatch
 10
0.0
 20
0.0
 30
0.0
210
0.0
220
0.0
230
1.0
  2
SOLID
 70
     1
 71
     0
 91
        1
 92
        1
 93
        1
 72
     4
 94
        3
 73
     0
 74
     0
 95
       50
 96
       46
 40
0.0
 40
0.0
 40
0.0
 40
0.0
 40
1.0
 40
1.0
 40
1.0
 40
2.0
 40
2.0
 40
2.0
 40
3.0
 40
3.0
 40
3.0
 40
4.0
 40
4.0
 40
4.0
 40
5.0
 40
5.0
 40
5.0
 40
6.0
 40
6.0
 40
6.0
 40
7.0
 40
7.0
 40
7.0
 40
8.0
 40
8.0
 40
8.0
 40
9.0
 40
9.0
 40
9.0
 40
10.0
 40
10.0
 40
10.0
 40
11.0
 40
11.0
 40
11.0
 40
12.0
 40
12.0
 40
12.0
 40
13.0
 40
13.0
 40
13.0
 40
14.0
 40
14.0
 40
14.0
 40
15.0
 40
15.0
 40
15.0
 40
15.0
 10
9.874539385552198
 20
-9.4250233266368
 10
9.874539385552198
 20
-9.4250233266368
 10
9.559623207245509
 20
-9.4250233266368
 10
9.559623207245509
 20
-9.4250233266368
 10
9.559623207245509
 20
-9.4250233266368
 10
9.527859426871506
 20
-9.637086179231351
 10
9.527859426871506
 20
-9.637086179231351
 10
9.546910804904937
 20
-9.634554034049692
 10
9.564687497608828
 20
-9.632004663390608
 10
9.595176592653286
 20
-9.632004663390608
 10
9.658669702446442
 20
-9.632004663390608
 10
9.722162812239595
 20
-9.645974525583296
 10
9.77294351969218
 20
-9.676446395150332
 10
9.837711314814876
 20
-9.713274465887652
 10
9.891041392926542
 20
-9.784381236703211
 10
9.891041392926542
 20
-9.888509247744883
 10
9.891041392926542
 20
-10.04979139288686
 10
9.762780488010694
 20
-10.17042141130288
 10
9.583738875642259
 20
-10.17042141130288
 10
9.49358072679327
 20
-10.17042141130288
 10
9.417375214659543
 20
-10.14503105757659
 10
9.37803222421799
 20
-10.11962347837287
 10
9.37803222421799
 20
-10.11962347837287
 10
9.405971948603367
 20
-10.03454684536463
 10
9.405971948603367
 20
-10.03454684536463
 10
9.440250648681603
 20
-10.0548729087276
 10
9.507533363508533
 20
-10.08026326245389
 10
9.582464190312716
 20
-10.08026326245389
 10
9.687884112161359
 20
-10.08026326245389
 10
9.77804226101035
 20
-10.01168863681999
 10
9.77804226101035
 20
-9.901221650085457
 10
9.776767575680807
 20
-9.794544268384695
 10
9.705660804865249
 20
-9.718355981728397
 10
9.540571829212078
 20
-9.718355981728397
 10
9.49358072679327
 20
-9.718355981728397
 10
9.456752656055948
 20
-9.72343749756914
 10
9.426263561011488
 20
-9.727244328080338
 10
9.426263561011488
 20
-9.727244328080338
 10
9.479628090078008
 20
-9.331058347276609
 10
9.479628090078008
 20
-9.331058347276609
 10
9.479628090078008
 20
-9.331058347276609
 10
9.874539385552198
 20
-9.331058347276609
 10
9.874539385552198
 20
-9.331058347276609
 10
9.874539385552198
 20
-9.331058347276609
 10
9.874539385552198
 20
-9.4250233266368
 10
9.874539385552198
 20
-9.4250233266368
 97
        0
 97
        0
 75
     2
 76
     1
 98
        0
450
        0
451
        0
460
0.0
461
0.0
452
        0
462
0.0
453
        0
470

  0
SPLINE
  5
180
330
1F
100
AcDbEntity
  8
Livello 3
100
AcDbSpline
210
0.0
220
0.0
230
1.0
 70
     9
 71
     3
 72
    17
 73
    13
 74
     0
 42
0.000000001
 43
0.0000000001
 40
0.0
 40
0.0
 40
0.0
 40
0.0
 40
1.0
 40
1.0
 40
1.0
 40
2.0
 40
2.0
 40
2.0
 40
3.0
 40
3.0
 40
3.0
 40
4.0
 40
4.0
 40
4.0
 40
4.0
 10
9.996495765730042
 20
-10.31263495293399
 30
0.0
 10
10.02443549011542
 20
-10.23772135160724
 30
0.0
 10
10.05874864114851
 20
-10.10184678566898
 30
0.0
 10
10.07270127786377
 20
-10.00915649163833
 30
0.0
 10
10.07270127786377
 20
-10.00915649163833
 30
0.0
 10
10.19713812679099
 20
-9.996444089297762
 30
0.0
 10
10.19713812679099
 20
-9.996444089297762
 30
0.0
 10
10.16795816803093
 20
-10.10439615632807
 30
0.0
 10
10.11207871926017
 20
-10.24533501262964
 30
0.0
 10
10.0765253338524
 20
-10.30502129191159
 30
0.0
 10
10.0765253338524
 20
-10.30502129191159
 30
0.0
 10
9.996495765730042
 20
-10.31263495293399
 30
0.0
 10
9.996495765730042
 20
-10.31263495293399
 30
0.0
  0
HATCH
  5
181
330
1F
100
AcDbEntity
  8
Livello 3
100
AcDbHatch
 10
0.0
 20
0.0
 30
0.0
210
0.0
220
0.0
230
1.0
  2
SOLID
 70
     1
 71
     0
 91
        1
 92
        1
 93
        1
 72
     4
 94
        3
 73
     0
 74
     0
 95
       17
 96
       13
 40
0.0
 40
0.0
 40
0.0
 40
0.0
 40
1.0
 40
1.0
 40
1.0
 40
2.0
 40
2.0
 40
2.0
 40
3.0
 40
3.0
 40
3.0
 40
4.0
 40
4.0
 40
4.0
 40
4.0
 10
9.996495765730042
 20
-10.31263495293399
 10
10.02443549011542
 20
-10.23772135160724
 10
10.05874864114851
 20
-10.10184678566898
 10
10.07270127786377
 20
-10.00915649163833
 10
10.07270127786377
 20
-10.00915649163833
 10
10.19713812679099
 20
-9.996444089297762
 10
10.19713812679099
 20
-9.996444089297762
 10
10.16795816803093
 20
-10.10439615632807
 10
10.11207871926017
 20
-10.24533501262964
 10
10.0765253338524
 20
-10.30502129191159
 10
10.0765253338524
 20
-10.30502129191159
 10
9.996495765730042
 20
-10.31263495293399
 10
9.996495765730042
 20
-10.31263495293399
 97
        0
 97
        0
 75
     2
 76
     1
 98
        0
450
        0
451
        0
460
0.0
461
0.0
452
        0
462
0.0
453
        0
470

  0
SPLINE
  5
182
330
1F
100
AcDbEntity
  8
Livello 3
100
AcDbSpline
210
0.0
220
0.0
230
1.0
 70
    11
 71
     3
 72
    50
 73
    46
 74
     0
 42
0.000000001
 43
0.0000000001
 40
0.0
 40
0.0
 40
0.0
 40
0.0
 40
1.0
 40
1.0
 40
1.0
 40
2.0
 40
2.0
 40
2.0
 40
3.0
 40
3.0
 40
3.0
 40
4.0
 40
4.0
 40
4.0
 40
5.0
 40
5.0
 40
5.0
 40
6.0
 40
6.0
 40
6.0
 40
7.0
 40
7.0
 40
7.0
 40
8.0
 40
8.0
 40
8.0
 40
9.0
 40
9.0
 40
9.0
 40
10.0
 40
10.0
 40
10.0
 40
11.0
 40
11.0
 40
11.0
 40
12.0
 40
12.0
 40
12.0
 40
13.0
 40
13.0
 40
13.0
 40
14.0
 40
14.0
 40
14.0
 40
15.0
 40
15.0
 40
15.0
 40
15.0
 10
10.78890217829236
 20
-9.4250233266368
 30
0.0
 10
10.78890217829236
 20
-9.4250233266368
 30
0.0
 10
10.47398599998567
 20
-9.4250233266368
 30
0.0
 10
10.47398599998567
 20
-9.4250233266368
 30
0.0
 10
10.47398599998567
 20
-9.4250233266368
 30
0.0
 10
10.44222221961167
 20
-9.637086179231351
 30
0.0
 10
10.44222221961167
 20
-9.637086179231351
 30
0.0
 10
10.4612735976451
 20
-9.634554034049692
 30
0.0
 10
10.47905029034899
 20
-9.632004663390608
 30
0.0
 10
10.50953938539345
 20
-9.632004663390608
 30
0.0
 10
10.5730324951866
 20
-9.632004663390608
 30
0.0
 10
10.63652560497976
 20
-9.645974525583296
 30
0.0
 10
10.68730631243234
 20
-9.676446395150332
 30
0.0
 10
10.75207410755504
 20
-9.713274465887652
 30
0.0
 10
10.8054041856667
 20
-9.784381236703211
 30
0.0
 10
10.8054041856667
 20
-9.888509247744883
 30
0.0
 10
10.8054041856667
 20
-10.04979139288686
 30
0.0
 10
10.67714328075085
 20
-10.17042141130288
 30
0.0
 10
10.49810166838242
 20
-10.17042141130288
 30
0.0
 10
10.40794351953343
 20
-10.17042141130288
 30
0.0
 10
10.3317380073997
 20
-10.14503105757659
 30
0.0
 10
10.29239501695815
 20
-10.11962347837287
 30
0.0
 10
10.29239501695815
 20
-10.11962347837287
 30
0.0
 10
10.32033474134353
 20
-10.03454684536463
 30
0.0
 10
10.32033474134353
 20
-10.03454684536463
 30
0.0
 10
10.35461344142176
 20
-10.0548729087276
 30
0.0
 10
10.42189615624869
 20
-10.08026326245389
 30
0.0
 10
10.49682698305288
 20
-10.08026326245389
 30
0.0
 10
10.60224690490152
 20
-10.08026326245389
 30
0.0
 10
10.69240505375051
 20
-10.01168863681999
 30
0.0
 10
10.69240505375051
 20
-9.901221650085457
 30
0.0
 10
10.69113036842097
 20
-9.794544268384695
 30
0.0
 10
10.62002359760541
 20
-9.718355981728397
 30
0.0
 10
10.45493462195224
 20
-9.718355981728397
 30
0.0
 10
10.40794351953343
 20
-9.718355981728397
 30
0.0
 10
10.37111544879611
 20
-9.72343749756914
 30
0.0
 10
10.34062635375165
 20
-9.727244328080338
 30
0.0
 10
10.34062635375165
 20
-9.727244328080338
 30
0.0
 10
10.39399088281817
 20
-9.331058347276609
 30
0.0
 10
10.39399088281817
 20
-9.331058347276609
 30
0.0
 10
10.39399088281817
 20
-9.331058347276609
 30
0.0
 10
10.78890217829236
 20
-9.331058347276609
 30
0.0
 10
10.78890217829236
 20
-9.331058347276609
 30
0.0
 10
10.78890217829236
 20
-9.331058347276609
 30
0.0
 10
10.78890217829236
 20
-9.4250233266368
 30
0.0
 10
10.78890217829236
 20
-9.4250233266368
 30
0.0
  0
HATCH
  5
183
330
1F
100
AcDbEntity
  8
Livello 3
100
AcDbHatch
 10
0.0
 20
0.0
 30
0.0
210
0.0
220
0.0
230
1.0
  2
SOLID
 70
     1
 71
     0
 91
        1
 92
        1
 93
        1
 72
     4
 94
        3
 73
     0
 74
     0
 95
       50
 96
       46
 40
0.0
 40
0.0
 40
0.0
 40
0.0
 40
1.0
 40
1.0
 40
1.0
 40
2.0
 40
2.0
 40
2.0
 40
3.0
 40
3.0
 40
3.0
 40
4.0
 40
4.0
 40
4.0
 40
5.0
 40
5.0
 40
5.0
 40
6.0
 40
6.0
 40
6.0
 40
7.0
 40
7.0
 40
7.0
 40
8.0
 40
8.0
 40
8.0
 40
9.0
 40
9.0
 40
9.0
 40
10.0
 40
10.0
 40
10.0
 40
11.0
 40
11.0
 40
11.0
 40
12.0
 40
12.0
 40
12.0
 40
13.0
 40
13.0
 40
13.0
 40
14.0
 40
14.0
 40
14.0
 40
15.0
 40
15.0
 40
15.0
 40
15.0
 10
10.78890217829236
 20
-9.4250233266368
 10
10.78890217829236
 20
-9.4250233266368
 10
10.47398599998567
 20
-9.4250233266368
 10
10.47398599998567
 20
-9.4250233266368
 10
10.47398599998567
 20
-9.4250233266368
 10
10.44222221961167
 20
-9.637086179231351
 10
10.44222221961167
 20
-9.637086179231351
 10
10.4612735976451
 20
-9.634554034049692
 10
10.47905029034899
 20
-9.632004663390608
 10
10.50953938539345
 20
-9.632004663390608
 10
10.5730324951866
 20
-9.632004663390608
 10
10.63652560497976
 20
-9.645974525583296
 10
10.68730631243234
 20
-9.676446395150332
 10
10.75207410755504
 20
-9.713274465887652
 10
10.8054041856667
 20
-9.784381236703211
 10
10.8054041856667
 20
-9.888509247744883
 10
10.8054041856667
 20
-10.04979139288686
 10
10.67714328075085
 20
-10.17042141130288
 10
10.49810166838242
 20
-10.17042141130288
 10
10.40794351953343
 20
-10.17042141130288
 10
10.3317380073997
 20
-10.14503105757659
 10
10.29239501695815
 20
-10.11962347837287
 10
10.29239501695815
 20
-10.11962347837287
 10
10.32033474134353
 20
-10.03454684536463
 10
10.32033474134353
 20
-10.03454684536463
 10
10.35461344142176
 20
-10.0548729087276
 10
10.42189615624869
 20
-10.08026326245389
 10
10.49682698305288
 20
-10.08026326245389
 10
10.60224690490152
 20
-10.08026326245389
 10
10.69240505375051
 20
-10.01168863681999
 10
10.69240505375051
 20
-9.901221650085457
 10
10.69113036842097
 20
-9.794544268384695
 10
10.62002359760541
 20
-9.718355981728397
 10
10.45493462195224
 20
-9.718355981728397
 10
10.40794351953343
 20
-9.718355981728397
 10
10.37111544879611
 20
-9.72343749756914
 10
10.34062635375165
 20
-9.727244328080338
 10
10.34062635375165
 20
-9.727244328080338
 10
10.39399088281817
 20
-9.331058347276609
 10
10.39399088281817
 20
-9.331058347276609
 10
10.39399088281817
 20
-9.331058347276609
 10
10.78890217829236
 20
-9.331058347276609
 10
10.78890217829236
 20
-9.331058347276609
 10
10.78890217829236
 20
-9.331058347276609
 10
10.78890217829236
 20
-9.4250233266368
 10
10.78890217829236
 20
-9.4250233266368
 97
        0
 97
        0
 75
     2
 76
     1
 98
        0
450
        0
451
        0
460
0.0
461
0.0
452
        0
462
0.0
453
        0
470

  0
POLYLINE
  5
184
330
1F
100
AcDbEntity
  8
Livello 3
100
AcDb2dPolyline
 66
     1
 10
0.0
 20
0.0
 30
0.0
  0
VERTEX
  5
185
330
184
100
AcDbEntity
  8
Livello 3
100
AcDbVertex
100
AcDb2dVertex
 10
7.478613279380346
 20
-20.03419487346367
 30
0.0
  0
VERTEX
  5
186
330
184
100
AcDbEntity
  8
Livello 3
100
AcDbVertex
100
AcDb2dVertex
 10
7.476063908721262
 20
-20.03419487346367
 30
0.0
  0
VERTEX
  5
187
330
184
100
AcDbEntity
  8
Livello 3
100
AcDbVertex
100
AcDb2dVertex
 10
7.332575681760606
 20
-20.11167507092694
 30
0.0
  0
VERTEX
  5
188
330
184
100
AcDbEntity
  8
Livello 3
100
AcDbVertex
100
AcDb2dVertex
 10
7.310992158545514
 20
-20.02658121244127
 30
0.0
  0
VERTEX
  5
189
330
184
100
AcDbEntity
  8
Livello 3
100
AcDbVertex
100
AcDb2dVertex
 10
7.491308456243491
 20
-19.93008408789942
 30
0.0
  0
VERTEX
  5
18A
330
184
100
AcDbEntity
  8
Livello 3
100
AcDbVertex
100
AcDb2dVertex
 10
7.586548120933223
 20
-19.93008408789942
 30
0.0
  0
VERTEX
  5
18B
330
184
100
AcDbEntity
  8
Livello 3
100
AcDbVertex
100
AcDb2dVertex
 10
7.586548120933223
 20
-20.75546006425558
 30
0.0
  0
VERTEX
  5
18C
330
184
100
AcDbEntity
  8
Livello 3
100
AcDbVertex
100
AcDb2dVertex
 10
7.478613279380346
 20
-20.75546006425558
 30
0.0
  0
VERTEX
  5
18D
330
184
100
AcDbEntity
  8
Livello 3
100
AcDbVertex
100
AcDb2dVertex
 10
7.478613279380346
 20
-20.03419487346367
 30
0.0
  0
SEQEND
  5
18E
330
184
100
AcDbEntity
  8
Livello 3
  0
HATCH
  5
18F
330
1F
100
AcDbEntity
  8
Livello 3
100
AcDbHatch
 10
0.0
 20
0.0
 30
0.0
210
0.0
220
0.0
230
1.0
  2
SOLID
 70
     1
 71
     0
 91
        1
 92
        1
 93
        8
 72
     1
 10
7.478613279380346
 20
-20.03419487346367
 11
7.476063908721262
 21
-20.03419487346367
 72
     1
 10
7.476063908721262
 20
-20.03419487346367
 11
7.332575681760606
 21
-20.11167507092694
 72
     1
 10
7.332575681760606
 20
-20.11167507092694
 11
7.310992158545514
 21
-20.02658121244127
 72
     1
 10
7.310992158545514
 20
-20.02658121244127
 11
7.491308456243491
 21
-19.93008408789942
 72
     1
 10
7.491308456243491
 20
-19.93008408789942
 11
7.586548120933223
 21
-19.93008408789942
 72
     1
 10
7.586548120933223
 20
-19.93008408789942
 11
7.586548120933223
 21
-20.75546006425558
 72
     1
 10
7.586548120933223
 20
-20.75546006425558
 11
7.478613279380346
 21
-20.75546006425558
 72
     1
 10
7.478613279380346
 20
-20.75546006425558
 11
7.478613279380346
 21
-20.03419487346367
 97
        0
 75
     2
 76
     1
 98
        0
450
        0
451
        0
460
0.0
461
0.0
452
        0
462
0.0
453
        0
470

  0
SPLINE
  5
190
330
1F
100
AcDbEntity
  8
Livello 3
100
AcDbSpline
210
0.0
220
0.0
230
1.0
 70
    11
 71
     3
 72
    50
 73
    46
 74
     0
 42
0.000000001
 43
0.0000000001
 40
0.0
 40
0.0
 40
0.0
 40
0.0
 40
1.0
 40
1.0
 40
1.0
 40
2.0
 40
2.0
 40
2.0
 40
3.0
 40
3.0
 40
3.0
 40
4.0
 40
4.0
 40
4.0
 40
5.0
 40
5.0
 40
5.0
 40
6.0
 40
6.0
 40
6.0
 40
7.0
 40
7.0
 40
7.0
 40
8.0
 40
8.0
 40
8.0
 40
9.0
 40
9.0
 40
9.0
 40
10.0
 40
10.0
 40
10.0
 40
11.0
 40
11.0
 40
11.0
 40
12.0
 40
12.0
 40
12.0
 40
13.0
 40
13.0
 40
13.0
 40
14.0
 40
14.0
 40
14.0
 40
15.0
 40
15.0
 40
15.0
 40
15.0
 10
8.380246444302507
 20
-20.02403184178219
 30
0.0
 10
8.380246444302507
 20
-20.02403184178219
 30
0.0
 10
8.06533026599582
 20
-20.02403184178219
 30
0.0
 10
8.06533026599582
 20
-20.02403184178219
 30
0.0
 10
8.06533026599582
 20
-20.02403184178219
 30
0.0
 10
8.033583711099241
 20
-20.23611191985416
 30
0.0
 10
8.033583711099241
 20
-20.23611191985416
 30
0.0
 10
8.052635089132673
 20
-20.23356254919508
 30
0.0
 10
8.070411781836561
 20
-20.231013178536
 30
0.0
 10
8.100883651403597
 20
-20.231013178536
 30
0.0
 10
8.164376761196752
 20
-20.231013178536
 30
0.0
 10
8.227869870989906
 20
-20.24500026620611
 30
0.0
 10
8.278667803919915
 20
-20.27545491029572
 30
0.0
 10
8.343418373565185
 20
-20.31228298103304
 30
0.0
 10
8.396765677154279
 20
-20.3833897518486
 30
0.0
 10
8.396765677154279
 20
-20.4875349883677
 30
0.0
 10
8.396765677154279
 20
-20.64879990803224
 30
0.0
 10
8.268504772238427
 20
-20.76944715192569
 30
0.0
 10
8.089463159869994
 20
-20.76944715192569
 30
0.0
 10
7.999305011021006
 20
-20.76944715192569
 30
0.0
 10
7.92309949888728
 20
-20.7440567981994
 30
0.0
 10
7.8837392829683
 20
-20.71863199351826
 30
0.0
 10
7.8837392829683
 20
-20.71863199351826
 30
0.0
 10
7.911679007353678
 20
-20.63357258598744
 30
0.0
 10
7.911679007353678
 20
-20.63357258598744
 30
0.0
 10
7.945957707431912
 20
-20.65389864935041
 30
0.0
 10
8.013257647736267
 20
-20.6792890030767
 30
0.0
 10
8.088188474540451
 20
-20.6792890030767
 30
0.0
 10
8.19359117091167
 20
-20.6792890030767
 30
0.0
 10
8.283749319760659
 20
-20.61069715196538
 30
0.0
 10
8.283749319760659
 20
-20.50024739070827
 30
0.0
 10
8.282474634431116
 20
-20.39355278353008
 30
0.0
 10
8.211367863615558
 20
-20.31738172235121
 30
0.0
 10
8.046278887962387
 20
-20.31738172235121
 30
0.0
 10
7.999305011021006
 20
-20.31738172235121
 30
0.0
 10
7.962476940283687
 20
-20.32244601271453
 30
0.0
 10
7.931987845239224
 20
-20.32627006870315
 30
0.0
 10
7.931987845239224
 20
-20.32627006870315
 30
0.0
 10
7.985335148828317
 20
-19.93008408789942
 30
0.0
 10
7.985335148828317
 20
-19.93008408789942
 30
0.0
 10
7.985335148828317
 20
-19.93008408789942
 30
0.0
 10
8.380246444302507
 20
-19.93008408789942
 30
0.0
 10
8.380246444302507
 20
-19.93008408789942
 30
0.0
 10
8.380246444302507
 20
-19.93008408789942
 30
0.0
 10
8.380246444302507
 20
-20.02403184178219
 30
0.0
 10
8.380246444302507
 20
-20.02403184178219
 30
0.0
  0
HATCH
  5
191
330
1F
100
AcDbEntity
  8
Livello 3
100
AcDbHatch
 10
0.0
 20
0.0
 30
0.0
210
0.0
220
0.0
230
1.0
  2
SOLID
 70
     1
 71
     0
 91
        1
 92
        1
 93
        1
 72
     4
 94
        3
 73
     0
 74
     0
 95
       50
 96
       46
 40
0.0
 40
0.0
 40
0.0
 40
0.0
 40
1.0
 40
1.0
 40
1.0
 40
2.0
 40
2.0
 40
2.0
 40
3.0
 40
3.0
 40
3.0
 40
4.0
 40
4.0
 40
4.0
 40
5.0
 40
5.0
 40
5.0
 40
6.0
 40
6.0
 40
6.0
 40
7.0
 40
7.0
 40
7.0
 40
8.0
 40
8.0
 40
8.0
 40
9.0
 40
9.0
 40
9.0
 40
10.0
 40
10.0
 40
10.0
 40
11.0
 40
11.0
 40
11.0
 40
12.0
 40
12.0
 40
12.0
 40
13.0
 40
13.0
 40
13.0
 40
14.0
 40
14.0
 40
14.0
 40
15.0
 40
15.0
 40
15.0
 40
15.0
 10
8.380246444302507
 20
-20.02403184178219
 10
8.380246444302507
 20
-20.02403184178219
 10
8.06533026599582
 20
-20.02403184178219
 10
8.06533026599582
 20
-20.02403184178219
 10
8.06533026599582
 20
-20.02403184178219
 10
8.033583711099241
 20
-20.23611191985416
 10
8.033583711099241
 20
-20.23611191985416
 10
8.052635089132673
 20
-20.23356254919508
 10
8.070411781836561
 20
-20.231013178536
 10
8.100883651403597
 20
-20.231013178536
 10
8.164376761196752
 20
-20.231013178536
 10
8.227869870989906
 20
-20.24500026620611
 10
8.278667803919915
 20
-20.27545491029572
 10
8.343418373565185
 20
-20.31228298103304
 10
8.396765677154279
 20
-20.3833897518486
 10
8.396765677154279
 20
-20.4875349883677
 10
8.396765677154279
 20
-20.64879990803224
 10
8.268504772238427
 20
-20.76944715192569
 10
8.089463159869994
 20
-20.76944715192569
 10
7.999305011021006
 20
-20.76944715192569
 10
7.92309949888728
 20
-20.7440567981994
 10
7.8837392829683
 20
-20.71863199351826
 10
7.8837392829683
 20
-20.71863199351826
 10
7.911679007353678
 20
-20.63357258598744
 10
7.911679007353678
 20
-20.63357258598744
 10
7.945957707431912
 20
-20.65389864935041
 10
8.013257647736267
 20
-20.6792890030767
 10
8.088188474540451
 20
-20.6792890030767
 10
8.19359117091167
 20
-20.6792890030767
 10
8.283749319760659
 20
-20.61069715196538
 10
8.283749319760659
 20
-20.50024739070827
 10
8.282474634431116
 20
-20.39355278353008
 10
8.211367863615558
 20
-20.31738172235121
 10
8.046278887962387
 20
-20.31738172235121
 10
7.999305011021006
 20
-20.31738172235121
 10
7.962476940283687
 20
-20.32244601271453
 10
7.931987845239224
 20
-20.32627006870315
 10
7.931987845239224
 20
-20.32627006870315
 10
7.985335148828317
 20
-19.93008408789942
 10
7.985335148828317
 20
-19.93008408789942
 10
7.985335148828317
 20
-19.93008408789942
 10
8.380246444302507
 20
-19.93008408789942
 10
8.380246444302507
 20
-19.93008408789942
 10
8.380246444302507
 20
-19.93008408789942
 10
8.380246444302507
 20
-20.02403184178219
 10
8.380246444302507
 20
-20.02403184178219
 97
        0
 97
        0
 75
     2
 76
     1
 98
        0
450
        0
451
        0
460
0.0
461
0.0
452
        0
462
0.0
453
        0
470

  0
POLYLINE
  5
192
330
1F
100
AcDbEntity
  8
Livello 3
100
AcDb2dPolyline
 66
     1
 10
0.0
 20
0.0
 30
0.0
  0
VERTEX
  5
193
330
192
100
AcDbEntity
  8
Livello 3
100
AcDbVertex
100
AcDb2dVertex
 10
11.32199625367992
 20
-13.03865288302506
 30
0.0
  0
VERTEX
  5
194
330
192
100
AcDbEntity
  8
Livello 3
100
AcDbVertex
100
AcDb2dVertex
 10
11.32199625367992
 20
-13.04120225368414
 30
0.0
  0
VERTEX
  5
195
330
192
100
AcDbEntity
  8
Livello 3
100
AcDbVertex
100
AcDb2dVertex
 10
11.39947645114318
 20
-13.1846904806448
 30
0.0
  0
VERTEX
  5
196
330
192
100
AcDbEntity
  8
Livello 3
100
AcDbVertex
100
AcDb2dVertex
 10
11.31438259265751
 20
-13.20627400385989
 30
0.0
  0
VERTEX
  5
197
330
192
100
AcDbEntity
  8
Livello 3
100
AcDbVertex
100
AcDb2dVertex
 10
11.21788546811567
 20
-13.02595770616191
 30
0.0
  0
VERTEX
  5
198
330
192
100
AcDbEntity
  8
Livello 3
100
AcDbVertex
100
AcDb2dVertex
 10
11.21788546811567
 20
-12.93071804147218
 30
0.0
  0
VERTEX
  5
199
330
192
100
AcDbEntity
  8
Livello 3
100
AcDbVertex
100
AcDb2dVertex
 10
12.04326144447182
 20
-12.93071804147218
 30
0.0
  0
VERTEX
  5
19A
330
192
100
AcDbEntity
  8
Livello 3
100
AcDbVertex
100
AcDb2dVertex
 10
12.04326144447182
 20
-13.03865288302506
 30
0.0
  0
VERTEX
  5
19B
330
192
100
AcDbEntity
  8
Livello 3
100
AcDbVertex
100
AcDb2dVertex
 10
11.32199625367992
 20
-13.03865288302506
 30
0.0
  0
SEQEND
  5
19C
330
192
100
AcDbEntity
  8
Livello 3
  0
HATCH
  5
19D
330
1F
100
AcDbEntity
  8
Livello 3
100
AcDbHatch
 10
0.0
 20
0.0
 30
0.0
210
0.0
220
0.0
230
1.0
  2
SOLID
 70
     1
 71
     0
 91
        1
 92
        1
 93
        8
 72
     1
 10
11.32199625367992
 20
-13.03865288302506
 11
11.32199625367992
 21
-13.04120225368414
 72
     1
 10
11.32199625367992
 20
-13.04120225368414
 11
11.39947645114318
 21
-13.1846904806448
 72
     1
 10
11.39947645114318
 20
-13.1846904806448
 11
11.31438259265751
 21
-13.20627400385989
 72
     1
 10
11.31438259265751
 20
-13.20627400385989
 11
11.21788546811567
 21
-13.02595770616191
 72
     1
 10
11.21788546811567
 20
-13.02595770616191
 11
11.21788546811567
 21
-12.93071804147218
 72
     1
 10
11.21788546811567
 20
-12.93071804147218
 11
12.04326144447182
 21
-12.93071804147218
 72
     1
 10
12.04326144447182
 20
-12.93071804147218
 11
12.04326144447182
 21
-13.03865288302506
 72
     1
 10
12.04326144447182
 20
-13.03865288302506
 11
11.32199625367992
 21
-13.03865288302506
 97
        0
 75
     2
 76
     1
 98
        0
450
        0
451
        0
460
0.0
461
0.0
452
        0
462
0.0
453
        0
470

  0
SPLINE
  5
19E
330
1F
100
AcDbEntity
  8
Livello 3
100
AcDbSpline
210
0.0
220
0.0
230
1.0
 70
     9
 71
     3
 72
    38
 73
    34
 74
     0
 42
0.000000001
 43
0.0000000001
 40
0.0
 40
0.0
 40
0.0
 40
0.0
 40
1.0
 40
1.0
 40
1.0
 40
2.0
 40
2.0
 40
2.0
 40
3.0
 40
3.0
 40
3.0
 40
4.0
 40
4.0
 40
4.0
 40
5.0
 40
5.0
 40
5.0
 40
6.0
 40
6.0
 40
6.0
 40
7.0
 40
7.0
 40
7.0
 40
8.0
 40
8.0
 40
8.0
 40
9.0
 40
9.0
 40
9.0
 40
10.0
 40
10.0
 40
10.0
 40
11.0
 40
11.0
 40
11.0
 40
11.0
 10
11.29660589995363
 20
-12.15860324131799
 30
0.0
 10
11.29533121462408
 20
-12.18146144986262
 30
0.0
 10
11.29660589995363
 20
-12.21065863410011
 30
0.0
 10
11.30167019031694
 20
-12.24240518899669
 30
0.0
 10
11.33088460003186
 20
-12.41765719633135
 30
0.0
 10
11.45914550494771
 20
-12.510347490362
 30
0.0
 10
11.59502007088597
 20
-12.52939886839543
 30
0.0
 10
11.59502007088597
 20
-12.52939886839543
 30
0.0
 10
11.59502007088597
 20
-12.52559203788423
 30
0.0
 10
11.59502007088597
 20
-12.52559203788423
 30
0.0
 10
11.54296467810384
 20
-12.48621459648782
 30
0.0
 10
11.49976318071881
 20
-12.41765719633135
 30
0.0
 10
11.49976318071881
 20
-12.32622436215282
 30
0.0
 10
11.49976318071881
 20
-12.18018676453308
 30
0.0
 10
11.60518310256745
 20
-12.07733343882094
 30
0.0
 10
11.766448022232
 20
-12.07733343882094
 30
0.0
 10
11.91754991021506
 20
-12.07733343882094
 30
0.0
 10
12.05724853214194
 20
-12.18018676453308
 30
0.0
 10
12.05724853214194
 20
-12.35161471587911
 30
0.0
 10
12.05724853214194
 20
-12.52812418306588
 30
0.0
 10
11.92009928087414
 20
-12.64368991111859
 30
0.0
 10
11.70550428309793
 20
-12.64368991111859
 30
0.0
 10
11.54296467810384
 20
-12.64368991111859
 30
0.0
 10
11.41470377318799
 20
-12.58527831716618
 30
0.0
 10
11.33343397069095
 20
-12.50400851466914
 30
0.0
 10
11.26611680490916
 20
-12.43543388903524
 30
0.0
 10
11.22422444380853
 20
-12.34400105485671
 30
0.0
 10
11.21151204146796
 20
-12.23987304381503
 30
0.0
 10
11.20644775110464
 20
-12.20685180358891
 30
0.0
 10
11.20517306577509
 20
-12.17892930468096
 30
0.0
 10
11.20517306577509
 20
-12.15860324131799
 30
0.0
 10
11.20517306577509
 20
-12.15860324131799
 30
0.0
 10
11.29660589995363
 20
-12.15860324131799
 30
0.0
 10
11.29660589995363
 20
-12.15860324131799
 30
0.0
  0
SPLINE
  5
19F
330
1F
100
AcDbEntity
  8
Livello 3
100
AcDbSpline
210
0.0
220
0.0
230
1.0
 70
    11
 71
     3
 72
    20
 73
    16
 74
     0
 42
0.000000001
 43
0.0000000001
 40
0.0
 40
0.0
 40
0.0
 40
0.0
 40
1.0
 40
1.0
 40
1.0
 40
2.0
 40
2.0
 40
2.0
 40
3.0
 40
3.0
 40
3.0
 40
4.0
 40
4.0
 40
4.0
 40
5.0
 40
5.0
 40
5.0
 40
5.0
 10
11.77278699792486
 20
-12.19034979621456
 30
0.0
 10
11.65468912469049
 20
-12.19034979621456
 30
0.0
 10
11.58358235387494
 20
-12.25764973651892
 30
0.0
 10
11.58358235387494
 20
-12.36050306223105
 30
0.0
 10
11.58358235387494
 20
-12.42780300253541
 30
0.0
 10
11.62550916593042
 20
-12.49003865247645
 30
0.0
 10
11.68517821973495
 20
-12.52051052204348
 30
0.0
 10
11.69789062207553
 20
-12.52812418306588
 30
0.0
 10
11.71439262944987
 20
-12.53320569890663
 30
0.0
 10
11.73468424185799
 20
-12.53320569890663
 30
0.0
 10
11.87055880779625
 20
-12.53067355372497
 30
0.0
 10
11.97087998832672
 20
-12.46843790378393
 30
0.0
 10
11.97087998832672
 20
-12.35161471587911
 30
0.0
 10
11.97087998832672
 20
-12.25511759133726
 30
0.0
 10
11.89088487115922
 20
-12.19034979621456
 30
0.0
 10
11.77278699792486
 20
-12.19034979621456
 30
0.0
  0
HATCH
  5
1A0
330
1F
100
AcDbEntity
  8
Livello 3
100
AcDbHatch
 10
0.0
 20
0.0
 30
0.0
210
0.0
220
0.0
230
1.0
  2
SOLID
 70
     1
 71
     0
 91
        2
 92
        1
 93
        1
 72
     4
 94
        3
 73
     0
 74
     0
 95
       38
 96
       34
 40
0.0
 40
0.0
 40
0.0
 40
0.0
 40
1.0
 40
1.0
 40
1.0
 40
2.0
 40
2.0
 40
2.0
 40
3.0
 40
3.0
 40
3.0
 40
4.0
 40
4.0
 40
4.0
 40
5.0
 40
5.0
 40
5.0
 40
6.0
 40
6.0
 40
6.0
 40
7.0
 40
7.0
 40
7.0
 40
8.0
 40
8.0
 40
8.0
 40
9.0
 40
9.0
 40
9.0
 40
10.0
 40
10.0
 40
10.0
 40
11.0
 40
11.0
 40
11.0
 40
11.0
 10
11.29660589995363
 20
-12.15860324131799
 10
11.29533121462408
 20
-12.18146144986262
 10
11.29660589995363
 20
-12.21065863410011
 10
11.30167019031694
 20
-12.24240518899669
 10
11.33088460003186
 20
-12.41765719633135
 10
11.45914550494771
 20
-12.510347490362
 10
11.59502007088597
 20
-12.52939886839543
 10
11.59502007088597
 20
-12.52939886839543
 10
11.59502007088597
 20
-12.52559203788423
 10
11.59502007088597
 20
-12.52559203788423
 10
11.54296467810384
 20
-12.48621459648782
 10
11.49976318071881
 20
-12.41765719633135
 10
11.49976318071881
 20
-12.32622436215282
 10
11.49976318071881
 20
-12.18018676453308
 10
11.60518310256745
 20
-12.07733343882094
 10
11.766448022232
 20
-12.07733343882094
 10
11.91754991021506
 20
-12.07733343882094
 10
12.05724853214194
 20
-12.18018676453308
 10
12.05724853214194
 20
-12.35161471587911
 10
12.05724853214194
 20
-12.52812418306588
 10
11.92009928087414
 20
-12.64368991111859
 10
11.70550428309793
 20
-12.64368991111859
 10
11.54296467810384
 20
-12.64368991111859
 10
11.41470377318799
 20
-12.58527831716618
 10
11.33343397069095
 20
-12.50400851466914
 10
11.26611680490916
 20
-12.43543388903524
 10
11.22422444380853
 20
-12.34400105485671
 10
11.21151204146796
 20
-12.23987304381503
 10
11.20644775110464
 20
-12.20685180358891
 10
11.20517306577509
 20
-12.17892930468096
 10
11.20517306577509
 20
-12.15860324131799
 10
11.20517306577509
 20
-12.15860324131799
 10
11.29660589995363
 20
-12.15860324131799
 10
11.29660589995363
 20
-12.15860324131799
 97
        0
 97
        0
 92
        1
 93
        1
 72
     4
 94
        3
 73
     0
 74
     0
 95
       20
 96
       16
 40
0.0
 40
0.0
 40
0.0
 40
0.0
 40
1.0
 40
1.0
 40
1.0
 40
2.0
 40
2.0
 40
2.0
 40
3.0
 40
3.0
 40
3.0
 40
4.0
 40
4.0
 40
4.0
 40
5.0
 40
5.0
 40
5.0
 40
5.0
 10
11.77278699792486
 20
-12.19034979621456
 10
11.65468912469049
 20
-12.19034979621456
 10
11.58358235387494
 20
-12.25764973651892
 10
11.58358235387494
 20
-12.36050306223105
 10
11.58358235387494
 20
-12.42780300253541
 10
11.62550916593042
 20
-12.49003865247645
 10
11.68517821973495
 20
-12.52051052204348
 10
11.69789062207553
 20
-12.52812418306588
 10
11.71439262944987
 20
-12.53320569890663
 10
11.73468424185799
 20
-12.53320569890663
 10
11.87055880779625
 20
-12.53067355372497
 10
11.97087998832672
 20
-12.46843790378393
 10
11.97087998832672
 20
-12.35161471587911
 10
11.97087998832672
 20
-12.25511759133726
 10
11.89088487115922
 20
-12.19034979621456
 10
11.77278699792486
 20
-12.19034979621456
 97
        0
 97
        0
 75
     2
 76
     1
 98
        0
450
        0
451
        0
460
0.0
461
0.0
452
        0
462
0.0
453
        0
470

  0
SPLINE
  5
1A1
330
1F
100
AcDbEntity
  8
Livello 3
100
AcDbSpline
210
0.0
220
0.0
230
1.0
 70
     9
 71
     3
 72
    17
 73
    13
 74
     0
 42
0.000000001
 43
0.0000000001
 40
0.0
 40
0.0
 40
0.0
 40
0.0
 40
1.0
 40
1.0
 40
1.0
 40
2.0
 40
2.0
 40
2.0
 40
3.0
 40
3.0
 40
3.0
 40
4.0
 40
4.0
 40
4.0
 40
4.0
 10
12.19946207377305
 20
-12.01504611244763
 30
0.0
 10
12.12453124696887
 20
-11.98710638806225
 30
0.0
 10
11.98865668103061
 20
-11.95281046250659
 30
0.0
 10
11.89598361247739
 20
-11.9388406003139
 30
0.0
 10
11.89598361247739
 20
-11.9388406003139
 30
0.0
 10
11.88327121013682
 20
-11.81440375138668
 30
0.0
 10
11.88327121013682
 20
-11.81440375138668
 30
0.0
 10
11.9912060516897
 20
-11.84360093562417
 30
0.0
 10
12.13214490799127
 20
-11.89948038439492
 30
0.0
 10
12.19184841275065
 20
-11.9350337698027
 30
0.0
 10
12.19184841275065
 20
-11.9350337698027
 30
0.0
 10
12.19946207377305
 20
-12.01504611244763
 30
0.0
 10
12.19946207377305
 20
-12.01504611244763
 30
0.0
  0
HATCH
  5
1A2
330
1F
100
AcDbEntity
  8
Livello 3
100
AcDbHatch
 10
0.0
 20
0.0
 30
0.0
210
0.0
220
0.0
230
1.0
  2
SOLID
 70
     1
 71
     0
 91
        1
 92
        1
 93
        1
 72
     4
 94
        3
 73
     0
 74
     0
 95
       17
 96
       13
 40
0.0
 40
0.0
 40
0.0
 40
0.0
 40
1.0
 40
1.0
 40
1.0
 40
2.0
 40
2.0
 40
2.0
 40
3.0
 40
3.0
 40
3.0
 40
4.0
 40
4.0
 40
4.0
 40
4.0
 10
12.19946207377305
 20
-12.01504611244763
 10
12.12453124696887
 20
-11.98710638806225
 10
11.98865668103061
 20
-11.95281046250659
 10
11.89598361247739
 20
-11.9388406003139
 10
11.89598361247739
 20
-11.9388406003139
 10
11.88327121013682
 20
-11.81440375138668
 10
11.88327121013682
 20
-11.81440375138668
 10
11.9912060516897
 20
-11.84360093562417
 10
12.13214490799127
 20
-11.89948038439492
 10
12.19184841275065
 20
-11.9350337698027
 10
12.19184841275065
 20
-11.9350337698027
 10
12.19946207377305
 20
-12.01504611244763
 10
12.19946207377305
 20
-12.01504611244763
 97
        0
 97
        0
 75
     2
 76
     1
 98
        0
450
        0
451
        0
460
0.0
461
0.0
452
        0
462
0.0
453
        0
470

  0
SPLINE
  5
1A3
330
1F
100
AcDbEntity
  8
Livello 3
100
AcDbSpline
210
0.0
220
0.0
230
1.0
 70
    11
 71
     3
 72
    50
 73
    46
 74
     0
 42
0.000000001
 43
0.0000000001
 40
0.0
 40
0.0
 40
0.0
 40
0.0
 40
1.0
 40
1.0
 40
1.0
 40
2.0
 40
2.0
 40
2.0
 40
3.0
 40
3.0
 40
3.0
 40
4.0
 40
4.0
 40
4.0
 40
5.0
 40
5.0
 40
5.0
 40
6.0
 40
6.0
 40
6.0
 40
7.0
 40
7.0
 40
7.0
 40
8.0
 40
8.0
 40
8.0
 40
9.0
 40
9.0
 40
9.0
 40
10.0
 40
10.0
 40
10.0
 40
11.0
 40
11.0
 40
11.0
 40
12.0
 40
12.0
 40
12.0
 40
13.0
 40
13.0
 40
13.0
 40
14.0
 40
14.0
 40
14.0
 40
15.0
 40
15.0
 40
15.0
 40
15.0
 10
11.31183322199843
 20
-11.22265692536274
 30
0.0
 10
11.31183322199843
 20
-11.22265692536274
 30
0.0
 10
11.31183322199843
 20
-11.53757310366943
 30
0.0
 10
11.31183322199843
 20
-11.53757310366943
 30
0.0
 10
11.31183322199843
 20
-11.53757310366943
 30
0.0
 10
11.52391330007041
 20
-11.569319658566
 30
0.0
 10
11.52391330007041
 20
-11.569319658566
 30
0.0
 10
11.52136392941133
 20
-11.55026828053257
 30
0.0
 10
11.51881455875224
 20
-11.53249158782868
 30
0.0
 10
11.51881455875224
 20
-11.50201971826165
 30
0.0
 10
11.51881455875224
 20
-11.43852660846849
 30
0.0
 10
11.53280164642235
 20
-11.37503349867534
 30
0.0
 10
11.56325629051196
 20
-11.32423556574533
 30
0.0
 10
11.60008436124928
 20
-11.25948499610006
 30
0.0
 10
11.67119113206484
 20
-11.20613769251096
 30
0.0
 10
11.77533636858394
 20
-11.20613769251096
 30
0.0
 10
11.93660128824849
 20
-11.20613769251096
 30
0.0
 10
12.05724853214194
 20
-11.33439859742682
 30
0.0
 10
12.05724853214194
 20
-11.51344020979525
 30
0.0
 10
12.05724853214194
 20
-11.60359835864424
 30
0.0
 10
12.03185817841565
 20
-11.67980387077797
 30
0.0
 10
12.0064333737345
 20
-11.71916408669694
 30
0.0
 10
12.0064333737345
 20
-11.71916408669694
 30
0.0
 10
11.92137396620368
 20
-11.69122436231157
 30
0.0
 10
11.92137396620368
 20
-11.69122436231157
 30
0.0
 10
11.94170002956666
 20
-11.65694566223333
 30
0.0
 10
11.96709038329295
 20
-11.58964572192898
 30
0.0
 10
11.96709038329295
 20
-11.51471489512479
 30
0.0
 10
11.96709038329295
 20
-11.40931219875357
 30
0.0
 10
11.89849853218163
 20
-11.31915404990459
 30
0.0
 10
11.78804877092452
 20
-11.31915404990459
 30
0.0
 10
11.68135416374633
 20
-11.32042873523413
 30
0.0
 10
11.60518310256745
 20
-11.39153550604969
 30
0.0
 10
11.60518310256745
 20
-11.55662448170286
 30
0.0
 10
11.60518310256745
 20
-11.60359835864424
 30
0.0
 10
11.61024739293077
 20
-11.64042642938156
 30
0.0
 10
11.6140714489194
 20
-11.67091552442602
 30
0.0
 10
11.6140714489194
 20
-11.67091552442602
 30
0.0
 10
11.21788546811567
 20
-11.61756822083693
 30
0.0
 10
11.21788546811567
 20
-11.61756822083693
 30
0.0
 10
11.21788546811567
 20
-11.61756822083693
 30
0.0
 10
11.21788546811567
 20
-11.22265692536274
 30
0.0
 10
11.21788546811567
 20
-11.22265692536274
 30
0.0
 10
11.21788546811567
 20
-11.22265692536274
 30
0.0
 10
11.31183322199843
 20
-11.22265692536274
 30
0.0
 10
11.31183322199843
 20
-11.22265692536274
 30
0.0
  0
HATCH
  5
1A4
330
1F
100
AcDbEntity
  8
Livello 3
100
AcDbHatch
 10
0.0
 20
0.0
 30
0.0
210
0.0
220
0.0
230
1.0
  2
SOLID
 70
     1
 71
     0
 91
        1
 92
        1
 93
        1
 72
     4
 94
        3
 73
     0
 74
     0
 95
       50
 96
       46
 40
0.0
 40
0.0
 40
0.0
 40
0.0
 40
1.0
 40
1.0
 40
1.0
 40
2.0
 40
2.0
 40
2.0
 40
3.0
 40
3.0
 40
3.0
 40
4.0
 40
4.0
 40
4.0
 40
5.0
 40
5.0
 40
5.0
 40
6.0
 40
6.0
 40
6.0
 40
7.0
 40
7.0
 40
7.0
 40
8.0
 40
8.0
 40
8.0
 40
9.0
 40
9.0
 40
9.0
 40
10.0
 40
10.0
 40
10.0
 40
11.0
 40
11.0
 40
11.0
 40
12.0
 40
12.0
 40
12.0
 40
13.0
 40
13.0
 40
13.0
 40
14.0
 40
14.0
 40
14.0
 40
15.0
 40
15.0
 40
15.0
 40
15.0
 10
11.31183322199843
 20
-11.22265692536274
 10
11.31183322199843
 20
-11.22265692536274
 10
11.31183322199843
 20
-11.53757310366943
 10
11.31183322199843
 20
-11.53757310366943
 10
11.31183322199843
 20
-11.53757310366943
 10
11.52391330007041
 20
-11.569319658566
 10
11.52391330007041
 20
-11.569319658566
 10
11.52136392941133
 20
-11.55026828053257
 10
11.51881455875224
 20
-11.53249158782868
 10
11.51881455875224
 20
-11.50201971826165
 10
11.51881455875224
 20
-11.43852660846849
 10
11.53280164642235
 20
-11.37503349867534
 10
11.56325629051196
 20
-11.32423556574533
 10
11.60008436124928
 20
-11.25948499610006
 10
11.67119113206484
 20
-11.20613769251096
 10
11.77533636858394
 20
-11.20613769251096
 10
11.93660128824849
 20
-11.20613769251096
 10
12.05724853214194
 20
-11.33439859742682
 10
12.05724853214194
 20
-11.51344020979525
 10
12.05724853214194
 20
-11.60359835864424
 10
12.03185817841565
 20
-11.67980387077797
 10
12.0064333737345
 20
-11.71916408669694
 10
12.0064333737345
 20
-11.71916408669694
 10
11.92137396620368
 20
-11.69122436231157
 10
11.92137396620368
 20
-11.69122436231157
 10
11.94170002956666
 20
-11.65694566223333
 10
11.96709038329295
 20
-11.58964572192898
 10
11.96709038329295
 20
-11.51471489512479
 10
11.96709038329295
 20
-11.40931219875357
 10
11.89849853218163
 20
-11.31915404990459
 10
11.78804877092452
 20
-11.31915404990459
 10
11.68135416374633
 20
-11.32042873523413
 10
11.60518310256745
 20
-11.39153550604969
 10
11.60518310256745
 20
-11.55662448170286
 10
11.60518310256745
 20
-11.60359835864424
 10
11.61024739293077
 20
-11.64042642938156
 10
11.6140714489194
 20
-11.67091552442602
 10
11.6140714489194
 20
-11.67091552442602
 10
11.21788546811567
 20
-11.61756822083693
 10
11.21788546811567
 20
-11.61756822083693
 10
11.21788546811567
 20
-11.61756822083693
 10
11.21788546811567
 20
-11.22265692536274
 10
11.21788546811567
 20
-11.22265692536274
 10
11.21788546811567
 20
-11.22265692536274
 10
11.31183322199843
 20
-11.22265692536274
 10
11.31183322199843
 20
-11.22265692536274
 97
        0
 97
        0
 75
     2
 76
     1
 98
        0
450
        0
451
        0
460
0.0
461
0.0
452
        0
462
0.0
453
        0
470

  0
ENDSEC
  0
SECTION
  2
OBJECTS
  0
DICTIONARY
  5
C
330
0
100
AcDbDictionary
281
     1
  3
ACAD_CIP_PREVIOUS_PRODUCT_INFO
350
111
  3
ACAD_COLOR
350
F2
  3
ACAD_DETAILVIEWSTYLE
350
10D
  3
ACAD_GROUP
350
D
  3
ACAD_LAYOUT
350
1A
  3
ACAD_MATERIAL
350
3B
  3
ACAD_MLEADERSTYLE
350
E5
  3
ACAD_MLINESTYLE
350
17
  3
ACAD_PLOTSETTINGS
350
19
  3
ACAD_PLOTSTYLENAME
350
E
  3
ACAD_SCALELIST
350
F4
  3
ACAD_SECTIONVIEWSTYLE
350
10B
  3
ACAD_TABLESTYLE
350
E4
  3
ACAD_VISUALSTYLE
350
2A
  3
ACDB_RECOMPOSE_DATA
350
1AE
  3
AcDbVariableDictionary
350
1A5
  0
SUN
  5
3F
330
29
100
AcDbSun
 90
        1
290
     1
 63
     7
421
 16777215
 40
1.0
291
     1
 91
  2455826
 92
 54000000
292
     0
 70
     0
 71
   256
280
     1
1001
ACAD
1000
AcDbSavedByObjectVersion
1070
     0
  0
DICTIONARY
  5
112
330
1F
100
AcDbDictionary
280
     1
281
     1
  3
ACAD_SORTENTS
360
113
  0
XRECORD
  5
111
102
{ACAD_REACTORS
330
C
102
}
330
C
100
AcDbXrecord
280
     1
300
ACD
300
2019
300
ACD_F_S
  0
DICTIONARY
  5
F2
102
{ACAD_REACTORS
330
C
102
}
330
C
100
AcDbDictionary
281
     1
  0
DICTIONARY
  5
10D
102
{ACAD_REACTORS
330
C
102
}
330
C
100
AcDbDictionary
281
     1
  3
Imperial24
350
10E
  0
DICTIONARY
  5
D
102
{ACAD_REACTORS
330
C
102
}
330
C
100
AcDbDictionary
281
     1
  0
DICTIONARY
  5
1A
102
{ACAD_REACTORS
330
C
102
}
330
C
100
AcDbDictionary
281
     1
  3
Layout1
350
1E
  3
Layout2
350
26
  3
Model
350
22
  0
DICTIONARY
  5
3B
102
{ACAD_REACTORS
330
C
102
}
330
C
100
AcDbDictionary
281
     1
  3
ByBlock
350
3D
  3
ByLayer
350
3C
  3
Global
350
3E
  0
DICTIONARY
  5
E5
102
{ACAD_REACTORS
330
C
102
}
330
C
100
AcDbDictionary
281
     1
  3
Standard
350
10A
  0
DICTIONARY
  5
17
102
{ACAD_REACTORS
330
C
102
}
330
C
100
AcDbDictionary
281
     1
  3
Standard
350
18
  0
DICTIONARY
  5
19
102
{ACAD_REACTORS
330
C
102
}
330
C
100
AcDbDictionary
281
     1
  0
ACDBDICTIONARYWDFLT
  5
E
102
{ACAD_REACTORS
330
C
102
}
330
C
100
AcDbDictionary
281
     1
  3
Normal
350
F
100
AcDbDictionaryWithDefault
340
F
  0
DICTIONARY
  5
F4
102
{ACAD_REACTORS
330
C
102
}
330
C
100
AcDbDictionary
281
     1
  3
A0
350
F5
  3
A1
350
F6
  3
A2
350
F7
  3
A3
350
F8
  3
A4
350
F9
  3
A5
350
FA
  3
A6
350
FB
  3
A7
350
FC
  3
A8
350
FD
  3
A9
350
FE
  3
B0
350
FF
  3
B1
350
100
  3
B2
350
101
  3
B3
350
102
  3
B4
350
103
  3
B5
350
104
  3
B6
350
105
  3
B7
350
106
  3
B8
350
107
  3
B9
350
108
  3
C0
350
109
  0
DICTIONARY
  5
10B
102
{ACAD_REACTORS
330
C
102
}
330
C
100
AcDbDictionary
281
     1
  3
Imperial24
350
10C
  0
DICTIONARY
  5
E4
102
{ACAD_REACTORS
330
C
102
}
330
C
100
AcDbDictionary
281
     1
  3
Standard
350
F3
  0
DICTIONARY
  5
2A
102
{ACAD_REACTORS
330
C
102
}
330
C
100
AcDbDictionary
281
     1
  3
2dWireframe
350
2F
  3
3D Hidden
350
31
  3
3dWireframe
350
30
  3
Basic
350
32
  3
Brighten
350
36
  3
ColorChange
350
3A
  3
Conceptual
350
34
  3
Dim
350
35
  3
EdgeColorOff
350
F1
  3
Facepattern
350
39
  3
Flat
350
2B
  3
FlatWithEdges
350
2C
  3
Gouraud
350
2D
  3
GouraudWithEdges
350
2E
  3
Hidden
350
E9
  3
JitterOff
350
EF
  3
Linepattern
350
38
  3
OverhangOff
350
F0
  3
Realistic
350
33
  3
Shaded
350
EE
  3
Shaded with edges
350
ED
  3
Shades of Gray
350
EA
  3
Sketchy
350
EB
  3
Thicken
350
37
  3
Wireframe
350
E8
  3
X-Ray
350
EC
  0
XRECORD
  5
1AE
102
{ACAD_REACTORS
330
C
102
}
330
C
100
AcDbXrecord
280
     1
 90
        1
330
F3
  0
DICTIONARY
  5
1A5
102
{ACAD_REACTORS
330
C
102
}
330
C
100
AcDbDictionary
281
     1
  3
CANNOSCALE
350
1AA
  3
CMLEADERSTYLE
350
1A7
  3
CTABLESTYLE
350
1A6
  3
CVIEWDETAILSTYLE
350
1A8
  3
CVIEWSECTIONSTYLE
350
1A9
  0
SORTENTSTABLE
  5
113
102
{ACAD_REACTORS
330
112
102
}
330
112
100
AcDbSortentsTable
330
1F
  0
ACDBDETAILVIEWSTYLE
  5
10E
102
{ACAD_XDICTIONARY
360
1B1
102
}
102
{ACAD_REACTORS
330
10D
102
}
330
10D
100
AcDbModelDocViewStyle
 70
     0
  3
Imperial24
290
     0
100
AcDbDetailViewStyle
 70
     0
 71
     0
 90
        3
 71
     1
340
11
 62
   256
 40
0.24
340
0
 62
   256
 40
0.24
300

 40
0.36
280
     3
 71
     2
340
16
 90
       25
 62
   256
 71
     3
340
11
 62
   256
 40
0.24
 90
        1
 40
0.75
 90
        1
300
%<\AcVar ViewType \f "%tc1">% %<\AcVar ViewDetailId>%\PSCALA %<\AcVar ViewScale \f "%sn">%
 71
     4
340
16
 90
       25
 62
   256
340
16
 90
       25
 62
   256
280
     0
  0
LAYOUT
  5
1E
102
{ACAD_REACTORS
330
1A
102
}
330
1A
100
AcDbPlotSettings
  1

  2
none_device
  4

  6

 40
0.0
 41
0.0
 42
0.0
 43
0.0
 44
0.0
 45
0.0
 46
0.0
 47
0.0
 48
0.0
 49
0.0
140
0.0
141
0.0
142
1.0
143
1.0
 70
   688
 72
     0
 73
     0
 74
     5
  7

 75
    16
147
1.0
 76
     0
 77
     2
 78
   300
148
0.0
149
0.0
100
AcDbLayout
  1
Layout1
 70
     1
 71
     1
 10
0.0
 20
0.0
 11
12.0
 21
9.0
 12
0.0
 22
0.0
 32
0.0
 14
1.000000000000000E+20
 24
1.000000000000000E+20
 34
1.000000000000000E+20
 15
-1.000000000000000E+20
 25
-1.000000000000000E+20
 35
-1.000000000000000E+20
146
0.0
 13
0.0
 23
0.0
 33
0.0
 16
1.0
 26
0.0
 36
0.0
 17
0.0
 27
1.0
 37
0.0
 76
     0
330
1B
  0
LAYOUT
  5
26
102
{ACAD_REACTORS
330
1A
102
}
330
1A
100
AcDbPlotSettings
  1

  2
none_device
  4

  6

 40
0.0
 41
0.0
 42
0.0
 43
0.0
 44
0.0
 45
0.0
 46
0.0
 47
0.0
 48
0.0
 49
0.0
140
0.0
141
0.0
142
1.0
143
1.0
 70
   688
 72
     0
 73
     0
 74
     5
  7

 75
    16
147
1.0
 76
     0
 77
     2
 78
   300
148
0.0
149
0.0
100
AcDbLayout
  1
Layout2
 70
     1
 71
     2
 10
0.0
 20
0.0
 11
0.0
 21
0.0
 12
0.0
 22
0.0
 32
0.0
 14
0.0
 24
0.0
 34
0.0
 15
0.0
 25
0.0
 35
0.0
146
0.0
 13
0.0
 23
0.0
 33
0.0
 16
1.0
 26
0.0
 36
0.0
 17
0.0
 27
1.0
 37
0.0
 76
     0
330
23
  0
LAYOUT
  5
22
102
{ACAD_REACTORS
330
1A
102
}
330
1A
100
AcDbPlotSettings
  1

  2
none_device
  4

  6

 40
0.0
 41
0.0
 42
0.0
 43
0.0
 44
0.0
 45
0.0
 46
0.0
 47
0.0
 48
0.0
 49
0.0
140
0.0
141
0.0
142
1.0
143
1.0
 70
  1712
 72
     0
 73
     0
 74
     0
  7

 75
     0
147
1.0
 76
     0
 77
     2
 78
   300
148
0.0
149
0.0
100
AcDbLayout
  1
Model
 70
     1
 71
     0
 10
0.0
 20
0.0
 11
12.0
 21
9.0
 12
0.0
 22
0.0
 32
0.0
 14
1.000000000000000E+20
 24
1.000000000000000E+20
 34
1.000000000000000E+20
 15
-1.000000000000000E+20
 25
-1.000000000000000E+20
 35
-1.000000000000000E+20
146
0.0
 13
0.0
 23
0.0
 33
0.0
 16
1.0
 26
0.0
 36
0.0
 17
0.0
 27
1.0
 37
0.0
 76
     0
330
1F
331
29
  0
MATERIAL
  5
3D
102
{ACAD_REACTORS
330
3B
102
}
330
3B
100
AcDbMaterial
  1
ByBlock
  0
MATERIAL
  5
3C
102
{ACAD_REACTORS
330
3B
102
}
330
3B
100
AcDbMaterial
  1
ByLayer
  0
MATERIAL
  5
3E
102
{ACAD_REACTORS
330
3B
102
}
330
3B
100
AcDbMaterial
  1
Global
  0
MLEADERSTYLE
  5
10A
102
{ACAD_REACTORS
330
E5
102
}
330
E5
100
AcDbMLeaderStyle
179
     2
170
     2
171
     1
172
     0
 90
        2
 40
0.0
 41
0.0
173
     1
 91
-1056964608
340
14
 92
       -2
290
     1
 42
0.09
291
     1
 43
0.36
  3
Standard
 44
0.18
300

342
11
174
     1
178
     6
175
     1
176
     0
 93
-1056964608
 45
0.18
292
     0
297
     0
 46
0.18
 94
-1056964608
 47
1.0
 49
1.0
140
1.0
293
     1
141
0.0
294
     1
177
     0
142
1.0
295
     0
296
     0
143
0.125
271
     0
272
     9
273
     9
298
     0
  0
MLINESTYLE
  5
18
102
{ACAD_REACTORS
330
17
102
}
330
17
100
AcDbMlineStyle
  2
STANDARD
 70
     0
  3

 62
   256
 51
90.0
 52
90.0
 71
     2
 49
0.5
 62
   256
  6
BYLAYER
 49
-0.5
 62
   256
  6
BYLAYER
  0
ACDBPLACEHOLDER
  5
F
102
{ACAD_REACTORS
330
E
102
}
330
E
  0
SCALE
  5
F5
102
{ACAD_REACTORS
330
F4
102
}
330
F4
100
AcDbScale
 70
     0
300
1:1
140
1.0
141
1.0
290
     1
  0
SCALE
  5
F6
102
{ACAD_REACTORS
330
F4
102
}
330
F4
100
AcDbScale
 70
     0
300
1.10
140
1.0
141
10.0
290
     0
  0
SCALE
  5
F7
102
{ACAD_REACTORS
330
F4
102
}
330
F4
100
AcDbScale
 70
     0
300
1.50
140
1.0
141
50.0
290
     0
  0
SCALE
  5
F8
102
{ACAD_REACTORS
330
F4
102
}
330
F4
100
AcDbScale
 70
     0
300
1:100
140
1.0
141
100.0
290
     0
  0
SCALE
  5
F9
102
{ACAD_REACTORS
330
F4
102
}
330
F4
100
AcDbScale
 70
     0
300
1.200
140
1.0
141
200.0
290
     0
  0
SCALE
  5
FA
102
{ACAD_REACTORS
330
F4
102
}
330
F4
100
AcDbScale
 70
     0
300
1/128" = 1'-0"
140
0.0078125
141
12.0
290
     0
  0
SCALE
  5
FB
102
{ACAD_REACTORS
330
F4
102
}
330
F4
100
AcDbScale
 70
     0
300
1/64" = 1'-0"
140
0.015625
141
12.0
290
     0
  0
SCALE
  5
FC
102
{ACAD_REACTORS
330
F4
102
}
330
F4
100
AcDbScale
 70
     0
300
1/32" = 1'-0"
140
0.03125
141
12.0
290
     0
  0
SCALE
  5
FD
102
{ACAD_REACTORS
330
F4
102
}
330
F4
100
AcDbScale
 70
     0
300
1/16" = 1'-0"
140
0.0625
141
12.0
290
     0
  0
SCALE
  5
FE
102
{ACAD_REACTORS
330
F4
102
}
330
F4
100
AcDbScale
 70
     0
300
3/32" = 1'-0"
140
0.09375
141
12.0
290
     0
  0
SCALE
  5
FF
102
{ACAD_REACTORS
330
F4
102
}
330
F4
100
AcDbScale
 70
     0
300
1/8" = 1'-0"
140
0.125
141
12.0
290
     0
  0
SCALE
  5
100
102
{ACAD_REACTORS
330
F4
102
}
330
F4
100
AcDbScale
 70
     0
300
3/16" = 1'-0"
140
0.1875
141
12.0
290
     0
  0
SCALE
  5
101
102
{ACAD_REACTORS
330
F4
102
}
330
F4
100
AcDbScale
 70
     0
300
1/4" = 1'-0"
140
0.25
141
12.0
290
     0
  0
SCALE
  5
102
102
{ACAD_REACTORS
330
F4
102
}
330
F4
100
AcDbScale
 70
     0
300
3/8" = 1'-0"
140
0.375
141
12.0
290
     0
  0
SCALE
  5
103
102
{ACAD_REACTORS
330
F4
102
}
330
F4
100
AcDbScale
 70
     0
300
1/2" = 1'-0"
140
0.5
141
12.0
290
     0
  0
SCALE
  5
104
102
{ACAD_REACTORS
330
F4
102
}
330
F4
100
AcDbScale
 70
     0
300
3/4" = 1'-0"
140
0.75
141
12.0
290
     0
  0
SCALE
  5
105
102
{ACAD_REACTORS
330
F4
102
}
330
F4
100
AcDbScale
 70
     0
300
1" = 1'-0"
140
1.0
141
12.0
290
     0
  0
SCALE
  5
106
102
{ACAD_REACTORS
330
F4
102
}
330
F4
100
AcDbScale
 70
     0
300
1-1/2" = 1'-0"
140
1.5
141
12.0
290
     0
  0
SCALE
  5
107
102
{ACAD_REACTORS
330
F4
102
}
330
F4
100
AcDbScale
 70
     0
300
3" = 1'-0"
140
3.0
141
12.0
290
     0
  0
SCALE
  5
108
102
{ACAD_REACTORS
330
F4
102
}
330
F4
100
AcDbScale
 70
     0
300
6" = 1'-0"
140
6.0
141
12.0
290
     0
  0
SCALE
  5
109
102
{ACAD_REACTORS
330
F4
102
}
330
F4
100
AcDbScale
 70
     0
300
1'-0" = 1'-0"
140
12.0
141
12.0
290
     0
  0
ACDBSECTIONVIEWSTYLE
  5
10C
102
{ACAD_XDICTIONARY
360
1AF
102
}
102
{ACAD_REACTORS
330
10B
102
}
330
10B
100
AcDbModelDocViewStyle
 70
     0
  3
Imperial24
290
     0
100
AcDbSectionViewStyle
 70
     0
 71
     0
 90
       78
 71
     1
340
11
 62
   256
 40
0.24
340
0
340
0
 62
   256
 40
0.24
300
I, O, Q, S, X, Z
 40
0.48
 90
        3
 40
0.18
 90
        1
 71
     2
340
16
 90
       25
 62
   256
340
16
 90
       50
 62
   256
 40
0.24
 40
0.0
 40
0.24
 71
     3
340
11
 62
   256
 40
0.24
 90
        1
 40
0.75
 90
        1
300
%<\AcVar ViewType \f "%tc1">% %<\AcVar ViewSectionStartId>%-%<\AcVar ViewSectionEndId>%\PSCALA %<\AcVar ViewScale \f "%sn">%
 71
     4
 62
   256
 62
   257
300
ANSI31
 40
1.0
 90
        0
290
     0
290
     0
 90
        6
 40
0.0
 40
1.570796326794896
 40
0.2617993877991494
 40
1.308996938995747
 40
-0.2617993877991494
 40
1.832595714594046
  0
TABLESTYLE
  5
F3
102
{ACAD_XDICTIONARY
360
1AC
102
}
102
{ACAD_REACTORS
330
E4
102
}
330
E4
100
AcDbTableStyle
280
     0
  3
Standard
 70
     0
 71
     0
 40
0.06
 41
0.06
280
     0
281
     0
  7
Standard
140
0.18
170
     2
 62
     0
 63
     7
283
     0
 90
      512
 91
        0
  1

274
    -2
284
     1
 64
     0
275
    -2
285
     1
 65
     0
276
    -2
286
     1
 66
     0
277
    -2
287
     1
 67
     0
278
    -2
288
     1
 68
     0
279
    -2
289
     1
 69
     0
  7
Standard
140
0.25
170
     5
 62
     0
 63
     7
283
     0
 90
      512
 91
        0
  1

274
    -2
284
     1
 64
     0
275
    -2
285
     1
 65
     0
276
    -2
286
     1
 66
     0
277
    -2
287
     1
 67
     0
278
    -2
288
     1
 68
     0
279
    -2
289
     1
 69
     0
  7
Standard
140
0.18
170
     5
 62
     0
 63
     7
283
     0
 90
      512
 91
        0
  1

274
    -2
284
     1
 64
     0
275
    -2
285
     1
 65
     0
276
    -2
286
     1
 66
     0
277
    -2
287
     1
 67
     0
278
    -2
288
     1
 68
     0
279
    -2
289
     1
 69
     0
  0
VISUALSTYLE
  5
2F
102
{ACAD_REACTORS
330
2A
102
}
330
2A
100
AcDbVisualStyle
  2
2dWireframe
 70
     4
177
     3
291
     0
 70
    58
 90
        0
176
     1
 90
        2
176
     1
 90
        0
176
     1
 90
        0
176
     1
 40
0.6
176
     1
 40
30.0
176
     1
 62
     7
420
 16777215
176
     1
 90
        1
176
     1
 90
        4
176
     1
 62
     7
176
     1
 62
   257
176
     1
 90
        1
176
     1
 90
        1
176
     1
 40
1.0
176
     1
 90
        0
176
     1
 62
   257
176
     1
 40
1.0
176
     1
 90
        1
176
     1
 90
        6
176
     1
 90
        2
176
     1
 62
     7
176
     1
 90
        5
176
     1
 90
        0
176
     1
 90
        0
176
     1
290
     0
176
     1
 90
        1
176
     1
 40
0.0
176
     1
 90
        0
176
     1
290
     1
176
     1
290
     1
176
     1
290
     0
176
     1
290
     0
176
     1
290
     0
176
     1
290
     0
176
     1
290
     0
176
     1
290
     0
176
     1
290
     0
176
     1
 90
       50
176
     1
 40
0.0
176
     1
 40
1.0
176
     1
 90
        0
176
     1
 62
    18
420
        0
176
     1
 90
       50
176
     1
 90
        3
176
     1
 62
     5
420
      255
176
     1
290
     0
176
     1
 90
       50
176
     1
 90
       50
176
     1
 90
       50
176
     1
290
     0
176
     1
 90
       50
176
     1
 62
   256
176
     0
 40
1.0
176
     0
 90
        2
176
     1
  1
strokes_ogs.tif
176
     1
290
     0
176
     1
 40
1.0
176
     1
 40
1.0
176
     1
1001
ACAD
1000
AcDbSavedByObjectVersion
1070
     0
  0
VISUALSTYLE
  5
31
102
{ACAD_REACTORS
330
2A
102
}
330
2A
100
AcDbVisualStyle
  2
3D Hidden
 70
     6
177
     3
291
     0
 70
    58
 90
        1
176
     1
 90
        2
176
     1
 90
        2
176
     1
 90
        0
176
     1
 40
0.6
176
     1
 40
30.0
176
     1
 62
     7
420
 16777215
176
     1
 90
        2
176
     1
 90
        2
176
     1
 62
     7
176
     1
 62
   257
176
     1
 90
        2
176
     1
 90
        1
176
     1
 40
40.0
176
     1
 90
        0
176
     1
 62
   257
176
     1
 40
1.0
176
     1
 90
        1
176
     1
 90
        6
176
     1
 90
        2
176
     1
 62
     7
176
     1
 90
        3
176
     1
 90
        0
176
     1
 90
        0
176
     1
290
     0
176
     1
 90
        1
176
     1
 40
0.0
176
     1
 90
        0
176
     1
290
     0
176
     1
290
     1
176
     1
290
     1
176
     1
290
     0
176
     1
290
     0
176
     1
290
     0
176
     1
290
     0
176
     1
290
     0
176
     1
290
     0
176
     1
 90
       50
176
     1
 40
0.0
176
     1
 40
1.0
176
     1
 90
        0
176
     1
 62
    18
420
        0
176
     1
 90
       50
176
     1
 90
        3
176
     1
 62
     5
420
      255
176
     1
290
     0
176
     1
 90
       50
176
     1
 90
       50
176
     1
 90
       50
176
     1
290
     0
176
     1
 90
       50
176
     1
 62
   256
176
     0
 40
1.0
176
     0
 90
        2
176
     1
  1
strokes_ogs.tif
176
     1
290
     0
176
     1
 40
1.0
176
     1
 40
1.0
176
     1
1001
ACAD
1000
AcDbSavedByObjectVersion
1070
     0
  0
VISUALSTYLE
  5
30
102
{ACAD_REACTORS
330
2A
102
}
330
2A
100
AcDbVisualStyle
  2
3dWireframe
 70
     5
177
     3
291
     0
 70
    58
 90
        0
176
     1
 90
        2
176
     1
 90
        0
176
     1
 90
        0
176
     1
 40
0.6
176
     1
 40
30.0
176
     1
 62
     7
420
 16777215
176
     1
 90
        1
176
     1
 90
        4
176
     1
 62
     7
176
     1
 62
   257
176
     1
 90
        1
176
     1
 90
        1
176
     1
 40
1.0
176
     1
 90
        0
176
     1
 62
   257
176
     1
 40
1.0
176
     1
 90
        1
176
     1
 90
        6
176
     1
 90
        2
176
     1
 62
     7
176
     1
 90
        5
176
     1
 90
        0
176
     1
 90
        0
176
     1
290
     0
176
     1
 90
        1
176
     1
 40
0.0
176
     1
 90
        0
176
     1
290
     0
176
     1
290
     1
176
     1
290
     1
176
     1
290
     0
176
     1
290
     0
176
     1
290
     0
176
     1
290
     0
176
     1
290
     0
176
     1
290
     0
176
     1
 90
       50
176
     1
 40
0.0
176
     1
 40
1.0
176
     1
 90
        0
176
     1
 62
    18
420
        0
176
     1
 90
       50
176
     1
 90
        3
176
     1
 62
     5
420
      255
176
     1
290
     0
176
     1
 90
       50
176
     1
 90
       50
176
     1
 90
       50
176
     1
290
     0
176
     1
 90
       50
176
     1
 62
   256
176
     0
 40
1.0
176
     0
 90
        2
176
     1
  1
strokes_ogs.tif
176
     1
290
     0
176
     1
 40
1.0
176
     1
 40
1.0
176
     1
1001
ACAD
1000
AcDbSavedByObjectVersion
1070
     0
  0
VISUALSTYLE
  5
32
102
{ACAD_REACTORS
330
2A
102
}
330
2A
100
AcDbVisualStyle
  2
Basic
 70
     7
177
     3
291
     1
 70
    58
 90
        1
176
     1
 90
        0
176
     1
 90
        1
176
     1
 90
        0
176
     1
 40
0.6
176
     1
 40
30.0
176
     1
 62
     7
420
 16777215
176
     1
 90
        0
176
     1
 90
        4
176
     1
 62
     7
176
     1
 62
   257
176
     1
 90
        1
176
     1
 90
        1
176
     1
 40
1.0
176
     1
 90
        8
176
     1
 62
     7
176
     1
 40
1.0
176
     1
 90
        1
176
     1
 90
        6
176
     1
 90
        2
176
     1
 62
     7
176
     1
 90
        5
176
     1
 90
        0
176
     1
 90
        0
176
     1
290
     0
176
     1
 90
        1
176
     1
 40
0.0
176
     1
 90
        0
176
     1
290
     0
176
     1
290
     1
176
     1
290
     1
176
     1
290
     0
176
     1
290
     0
176
     1
290
     0
176
     1
290
     0
176
     1
290
     0
176
     1
290
     0
176
     1
 90
       50
176
     1
 40
0.0
176
     1
 40
1.0
176
     1
 90
        0
176
     1
 62
    18
420
        0
176
     1
 90
       50
176
     1
 90
        3
176
     1
 62
     5
420
      255
176
     1
290
     0
176
     1
 90
       50
176
     1
 90
       50
176
     1
 90
       50
176
     1
290
     0
176
     1
 90
       50
176
     1
 62
   256
176
     0
 40
1.0
176
     0
 90
        2
176
     1
  1
strokes_ogs.tif
176
     1
290
     0
176
     1
 40
1.0
176
     1
 40
1.0
176
     1
1001
ACAD
1000
AcDbSavedByObjectVersion
1070
     0
  0
VISUALSTYLE
  5
36
102
{ACAD_REACTORS
330
2A
102
}
330
2A
100
AcDbVisualStyle
  2
Brighten
 70
    12
177
     3
291
     1
 70
    58
 90
        2
176
     1
 90
        2
176
     1
 90
        0
176
     1
 90
        0
176
     1
 40
0.6
176
     1
 40
30.0
176
     1
 62
     7
420
 16777215
176
     1
 90
        1
176
     1
 90
        4
176
     1
 62
     7
176
     1
 62
   257
176
     1
 90
        1
176
     1
 90
        1
176
     1
 40
1.0
176
     1
 90
        8
176
     1
 62
     7
176
     1
 40
1.0
176
     1
 90
        1
176
     1
 90
        6
176
     1
 90
        2
176
     1
 62
     7
176
     1
 90
        5
176
     1
 90
        0
176
     1
 90
        0
176
     1
290
     0
176
     1
 90
        1
176
     1
 40
50.0
176
     1
 90
        0
176
     1
290
     0
176
     1
290
     1
176
     1
290
     1
176
     1
290
     0
176
     1
290
     0
176
     1
290
     0
176
     1
290
     0
176
     1
290
     0
176
     1
290
     0
176
     1
 90
       50
176
     1
 40
0.0
176
     1
 40
1.0
176
     1
 90
        0
176
     1
 62
    18
420
        0
176
     1
 90
       50
176
     1
 90
        3
176
     1
 62
     5
420
      255
176
     1
290
     0
176
     1
 90
       50
176
     1
 90
       50
176
     1
 90
       50
176
     1
290
     0
176
     1
 90
       50
176
     1
 62
   256
176
     0
 40
1.0
176
     0
 90
        2
176
     1
  1
strokes_ogs.tif
176
     1
290
     0
176
     1
 40
1.0
176
     1
 40
1.0
176
     1
1001
ACAD
1000
AcDbSavedByObjectVersion
1070
     0
  0
VISUALSTYLE
  5
3A
102
{ACAD_REACTORS
330
2A
102
}
330
2A
100
AcDbVisualStyle
  2
ColorChange
 70
    16
177
     3
291
     1
 70
    58
 90
        2
176
     1
 90
        2
176
     1
 90
        3
176
     1
 90
        0
176
     1
 40
0.6
176
     1
 40
30.0
176
     1
 62
     8
420
  8421504
176
     1
 90
        1
176
     1
 90
        4
176
     1
 62
     7
176
     1
 62
   257
176
     1
 90
        1
176
     1
 90
        1
176
     1
 40
1.0
176
     1
 90
        8
176
     1
 62
     8
420
  8421504
176
     1
 40
1.0
176
     1
 90
        1
176
     1
 90
        6
176
     1
 90
        2
176
     1
 62
     7
176
     1
 90
        5
176
     1
 90
        0
176
     1
 90
        0
176
     1
290
     0
176
     1
 90
        1
176
     1
 40
0.0
176
     1
 90
        0
176
     1
290
     0
176
     1
290
     1
176
     1
290
     1
176
     1
290
     0
176
     1
290
     0
176
     1
290
     0
176
     1
290
     0
176
     1
290
     0
176
     1
290
     0
176
     1
 90
       50
176
     1
 40
0.0
176
     1
 40
1.0
176
     1
 90
        0
176
     1
 62
    18
420
        0
176
     1
 90
       50
176
     1
 90
        3
176
     1
 62
     5
420
      255
176
     1
290
     0
176
     1
 90
       50
176
     1
 90
       50
176
     1
 90
       50
176
     1
290
     0
176
     1
 90
       50
176
     1
 62
   256
176
     0
 40
1.0
176
     0
 90
        2
176
     1
  1
strokes_ogs.tif
176
     1
290
     0
176
     1
 40
1.0
176
     1
 40
1.0
176
     1
1001
ACAD
1000
AcDbSavedByObjectVersion
1070
     0
  0
VISUALSTYLE
  5
34
102
{ACAD_REACTORS
330
2A
102
}
330
2A
100
AcDbVisualStyle
  2
Conceptual
 70
     9
177
     3
291
     0
 70
    58
 90
        3
176
     1
 90
        2
176
     1
 90
        0
176
     1
 90
        0
176
     1
 40
0.6
176
     1
 40
30.0
176
     1
 62
     7
420
 16777215
176
     1
 90
        2
176
     1
 90
        2
176
     1
 62
     7
176
     1
 62
   257
176
     1
 90
        1
176
     1
 90
        1
176
     1
 40
40.0
176
     1
 90
        8
176
     1
 62
     7
176
     1
 40
1.0
176
     1
 90
        1
176
     1
 90
        6
176
     1
 90
        2
176
     1
 62
     7
176
     1
 90
        3
176
     1
 90
        0
176
     1
 90
        0
176
     1
290
     0
176
     1
 90
        1
176
     1
 40
0.0
176
     1
 90
        0
176
     1
290
     0
176
     1
290
     1
176
     1
290
     1
176
     1
290
     0
176
     1
290
     0
176
     1
290
     0
176
     1
290
     0
176
     1
290
     0
176
     1
290
     0
176
     1
 90
       50
176
     1
 40
0.0
176
     1
 40
1.0
176
     1
 90
        0
176
     1
 62
    18
420
        0
176
     1
 90
       50
176
     1
 90
        3
176
     1
 62
     5
420
      255
176
     1
290
     0
176
     1
 90
       50
176
     1
 90
       50
176
     1
 90
       50
176
     1
290
     0
176
     1
 90
       50
176
     1
 62
   256
176
     0
 40
1.0
176
     0
 90
        2
176
     1
  1
strokes_ogs.tif
176
     1
290
     0
176
     1
 40
1.0
176
     1
 40
1.0
176
     1
1001
ACAD
1000
AcDbSavedByObjectVersion
1070
     0
  0
VISUALSTYLE
  5
35
102
{ACAD_REACTORS
330
2A
102
}
330
2A
100
AcDbVisualStyle
  2
Dim
 70
    11
177
     3
291
     1
 70
    58
 90
        2
176
     1
 90
        2
176
     1
 90
        0
176
     1
 90
        0
176
     1
 40
0.6
176
     1
 40
30.0
176
     1
 62
     7
420
 16777215
176
     1
 90
        1
176
     1
 90
        4
176
     1
 62
     7
176
     1
 62
   257
176
     1
 90
        1
176
     1
 90
        1
176
     1
 40
1.0
176
     1
 90
        8
176
     1
 62
     7
176
     1
 40
1.0
176
     1
 90
        1
176
     1
 90
        6
176
     1
 90
        2
176
     1
 62
     7
176
     1
 90
        5
176
     1
 90
        0
176
     1
 90
        0
176
     1
290
     0
176
     1
 90
        1
176
     1
 40
-50.0
176
     1
 90
        0
176
     1
290
     0
176
     1
290
     1
176
     1
290
     1
176
     1
290
     0
176
     1
290
     0
176
     1
290
     0
176
     1
290
     0
176
     1
290
     0
176
     1
290
     0
176
     1
 90
       50
176
     1
 40
0.0
176
     1
 40
1.0
176
     1
 90
        0
176
     1
 62
    18
420
        0
176
     1
 90
       50
176
     1
 90
        3
176
     1
 62
     5
420
      255
176
     1
290
     0
176
     1
 90
       50
176
     1
 90
       50
176
     1
 90
       50
176
     1
290
     0
176
     1
 90
       50
176
     1
 62
   256
176
     0
 40
1.0
176
     0
 90
        2
176
     1
  1
strokes_ogs.tif
176
     1
290
     0
176
     1
 40
1.0
176
     1
 40
1.0
176
     1
1001
ACAD
1000
AcDbSavedByObjectVersion
1070
     0
  0
VISUALSTYLE
  5
F1
102
{ACAD_REACTORS
330
2A
102
}
330
2A
100
AcDbVisualStyle
  2
EdgeColorOff
 70
    22
177
     3
291
     1
 70
    58
 90
        2
176
     0
 90
        2
176
     0
 90
        0
176
     0
 90
        0
176
     0
 40
0.6
176
     0
 40
30.0
176
     0
 62
     7
420
 16777215
176
     0
 90
        1
176
     0
 90
        4
176
     0
 62
     7
176
     0
 62
   257
176
     0
 90
        1
176
     0
 90
        1
176
     0
 40
1.0
176
     0
 90
        8
176
     2
 62
     7
176
     0
 40
1.0
176
     0
 90
        1
176
     0
 90
        6
176
     0
 90
        2
176
     0
 62
     7
176
     0
 90
        5
176
     0
 90
        0
176
     0
 90
        0
176
     0
290
     0
176
     0
 90
        1
176
     0
 40
0.0
176
     0
 90
        0
176
     0
290
     0
176
     1
290
     1
176
     1
290
     1
176
     1
290
     0
176
     1
290
     0
176
     1
290
     0
176
     1
290
     0
176
     1
290
     0
176
     1
290
     0
176
     1
 90
       50
176
     0
 40
0.0
176
     0
 40
1.0
176
     0
 90
        0
176
     0
 62
    18
420
        0
176
     0
 90
       50
176
     0
 90
        3
176
     0
 62
     5
420
      255
176
     0
290
     0
176
     1
 90
       50
176
     0
 90
       50
176
     0
 90
       50
176
     0
290
     0
176
     1
 90
       50
176
     0
 62
   256
176
     0
 40
1.0
176
     0
 90
        2
176
     0
  1
strokes_ogs.tif
176
     0
290
     0
176
     1
 40
1.0
176
     0
 40
1.0
176
     0
1001
ACAD
1000
AcDbSavedByObjectVersion
1070
     0
  0
VISUALSTYLE
  5
39
102
{ACAD_REACTORS
330
2A
102
}
330
2A
100
AcDbVisualStyle
  2
Facepattern
 70
    15
177
     3
291
     1
 70
    58
 90
        2
176
     1
 90
        2
176
     1
 90
        0
176
     1
 90
        0
176
     1
 40
0.6
176
     1
 40
30.0
176
     1
 62
     7
420
 16777215
176
     1
 90
        1
176
     1
 90
        4
176
     1
 62
     7
176
     1
 62
   257
176
     1
 90
        1
176
     1
 90
        1
176
     1
 40
1.0
176
     1
 90
        8
176
     1
 62
     7
176
     1
 40
1.0
176
     1
 90
        1
176
     1
 90
        6
176
     1
 90
        2
176
     1
 62
     7
176
     1
 90
        5
176
     1
 90
        0
176
     1
 90
        0
176
     1
290
     0
176
     1
 90
        1
176
     1
 40
0.0
176
     1
 90
        0
176
     1
290
     0
176
     1
290
     1
176
     1
290
     1
176
     1
290
     0
176
     1
290
     0
176
     1
290
     0
176
     1
290
     0
176
     1
290
     0
176
     1
290
     0
176
     1
 90
       50
176
     1
 40
0.0
176
     1
 40
1.0
176
     1
 90
        0
176
     1
 62
    18
420
        0
176
     1
 90
       50
176
     1
 90
        3
176
     1
 62
     5
420
      255
176
     1
290
     0
176
     1
 90
       50
176
     1
 90
       50
176
     1
 90
       50
176
     1
290
     0
176
     1
 90
       50
176
     1
 62
   256
176
     0
 40
1.0
176
     0
 90
        2
176
     1
  1
strokes_ogs.tif
176
     1
290
     0
176
     1
 40
1.0
176
     1
 40
1.0
176
     1
1001
ACAD
1000
AcDbSavedByObjectVersion
1070
     0
  0
VISUALSTYLE
  5
2B
102
{ACAD_REACTORS
330
2A
102
}
330
2A
100
AcDbVisualStyle
  2
Flat
 70
     0
177
     3
291
     1
 70
    58
 90
        2
176
     1
 90
        1
176
     1
 90
        1
176
     1
 90
        2
176
     1
 40
0.6
176
     1
 40
30.0
176
     1
 62
     7
420
 16777215
176
     1
 90
        0
176
     1
 90
        4
176
     1
 62
     7
176
     1
 62
   257
176
     1
 90
        1
176
     1
 90
        1
176
     1
 40
1.0
176
     1
 90
        8
176
     1
 62
     7
176
     1
 40
1.0
176
     1
 90
        1
176
     1
 90
        6
176
     1
 90
        2
176
     1
 62
     7
176
     1
 90
        5
176
     1
 90
        0
176
     1
 90
        0
176
     1
290
     0
176
     1
 90
       13
176
     1
 40
0.0
176
     1
 90
        0
176
     1
290
     0
176
     1
290
     1
176
     1
290
     1
176
     1
290
     0
176
     1
290
     0
176
     1
290
     0
176
     1
290
     0
176
     1
290
     0
176
     1
290
     0
176
     1
 90
       50
176
     1
 40
0.0
176
     1
 40
1.0
176
     1
 90
        0
176
     1
 62
    18
420
        0
176
     1
 90
       50
176
     1
 90
        3
176
     1
 62
     5
420
      255
176
     1
290
     0
176
     1
 90
       50
176
     1
 90
       50
176
     1
 90
       50
176
     1
290
     0
176
     1
 90
       50
176
     1
 62
   256
176
     0
 40
1.0
176
     0
 90
        2
176
     1
  1
strokes_ogs.tif
176
     1
290
     0
176
     1
 40
1.0
176
     1
 40
1.0
176
     1
1001
ACAD
1000
AcDbSavedByObjectVersion
1070
     0
  0
VISUALSTYLE
  5
2C
102
{ACAD_REACTORS
330
2A
102
}
330
2A
100
AcDbVisualStyle
  2
FlatWithEdges
 70
     1
177
     3
291
     1
 70
    58
 90
        2
176
     1
 90
        1
176
     1
 90
        1
176
     1
 90
        2
176
     1
 40
0.6
176
     1
 40
30.0
176
     1
 62
     7
420
 16777215
176
     1
 90
        1
176
     1
 90
        4
176
     1
 62
     7
176
     1
 62
   257
176
     1
 90
        1
176
     1
 90
        1
176
     1
 40
1.0
176
     1
 90
        0
176
     1
 62
   257
176
     1
 40
1.0
176
     1
 90
        1
176
     1
 90
        6
176
     1
 90
        2
176
     1
 62
     7
176
     1
 90
        5
176
     1
 90
        0
176
     1
 90
        0
176
     1
290
     0
176
     1
 90
       13
176
     1
 40
0.0
176
     1
 90
        0
176
     1
290
     0
176
     1
290
     1
176
     1
290
     1
176
     1
290
     0
176
     1
290
     0
176
     1
290
     0
176
     1
290
     0
176
     1
290
     0
176
     1
290
     0
176
     1
 90
       50
176
     1
 40
0.0
176
     1
 40
1.0
176
     1
 90
        0
176
     1
 62
    18
420
        0
176
     1
 90
       50
176
     1
 90
        3
176
     1
 62
     5
420
      255
176
     1
290
     0
176
     1
 90
       50
176
     1
 90
       50
176
     1
 90
       50
176
     1
290
     0
176
     1
 90
       50
176
     1
 62
   256
176
     0
 40
1.0
176
     0
 90
        2
176
     1
  1
strokes_ogs.tif
176
     1
290
     0
176
     1
 40
1.0
176
     1
 40
1.0
176
     1
1001
ACAD
1000
AcDbSavedByObjectVersion
1070
     0
  0
VISUALSTYLE
  5
2D
102
{ACAD_REACTORS
330
2A
102
}
330
2A
100
AcDbVisualStyle
  2
Gouraud
 70
     2
177
     3
291
     1
 70
    58
 90
        2
176
     1
 90
        2
176
     1
 90
        1
176
     1
 90
        2
176
     1
 40
0.6
176
     1
 40
30.0
176
     1
 62
     7
420
 16777215
176
     1
 90
        0
176
     1
 90
        4
176
     1
 62
     7
176
     1
 62
   257
176
     1
 90
        1
176
     1
 90
        1
176
     1
 40
1.0
176
     1
 90
        0
176
     1
 62
     7
176
     1
 40
1.0
176
     1
 90
        1
176
     1
 90
        6
176
     1
 90
        2
176
     1
 62
     7
176
     1
 90
        5
176
     1
 90
        0
176
     1
 90
        0
176
     1
290
     0
176
     1
 90
       13
176
     1
 40
0.0
176
     1
 90
        0
176
     1
290
     0
176
     1
290
     1
176
     1
290
     1
176
     1
290
     0
176
     1
290
     0
176
     1
290
     0
176
     1
290
     0
176
     1
290
     0
176
     1
290
     0
176
     1
 90
       50
176
     1
 40
0.0
176
     1
 40
1.0
176
     1
 90
        0
176
     1
 62
    18
420
        0
176
     1
 90
       50
176
     1
 90
        3
176
     1
 62
     5
420
      255
176
     1
290
     0
176
     1
 90
       50
176
     1
 90
       50
176
     1
 90
       50
176
     1
290
     0
176
     1
 90
       50
176
     1
 62
   256
176
     0
 40
1.0
176
     0
 90
        2
176
     1
  1
strokes_ogs.tif
176
     1
290
     0
176
     1
 40
1.0
176
     1
 40
1.0
176
     1
1001
ACAD
1000
AcDbSavedByObjectVersion
1070
     0
  0
VISUALSTYLE
  5
2E
102
{ACAD_REACTORS
330
2A
102
}
330
2A
100
AcDbVisualStyle
  2
GouraudWithEdges
 70
     3
177
     3
291
     1
 70
    58
 90
        2
176
     1
 90
        2
176
     1
 90
        1
176
     1
 90
        2
176
     1
 40
0.6
176
     1
 40
30.0
176
     1
 62
     7
420
 16777215
176
     1
 90
        1
176
     1
 90
        4
176
     1
 62
     7
176
     1
 62
   257
176
     1
 90
        1
176
     1
 90
        1
176
     1
 40
1.0
176
     1
 90
        0
176
     1
 62
   257
176
     1
 40
1.0
176
     1
 90
        1
176
     1
 90
        6
176
     1
 90
        2
176
     1
 62
     7
176
     1
 90
        5
176
     1
 90
        0
176
     1
 90
        0
176
     1
290
     0
176
     1
 90
       13
176
     1
 40
0.0
176
     1
 90
        0
176
     1
290
     0
176
     1
290
     1
176
     1
290
     1
176
     1
290
     0
176
     1
290
     0
176
     1
290
     0
176
     1
290
     0
176
     1
290
     0
176
     1
290
     0
176
     1
 90
       50
176
     1
 40
0.0
176
     1
 40
1.0
176
     1
 90
        0
176
     1
 62
    18
420
        0
176
     1
 90
       50
176
     1
 90
        3
176
     1
 62
     5
420
      255
176
     1
290
     0
176
     1
 90
       50
176
     1
 90
       50
176
     1
 90
       50
176
     1
290
     0
176
     1
 90
       50
176
     1
 62
   256
176
     0
 40
1.0
176
     0
 90
        2
176
     1
  1
strokes_ogs.tif
176
     1
290
     0
176
     1
 40
1.0
176
     1
 40
1.0
176
     1
1001
ACAD
1000
AcDbSavedByObjectVersion
1070
     0
  0
VISUALSTYLE
  5
E9
102
{ACAD_REACTORS
330
2A
102
}
330
2A
100
AcDbVisualStyle
  2
Hidden
 70
     6
177
     3
291
     0
 70
    58
 90
        1
176
     1
 90
        2
176
     1
 90
        2
176
     1
 90
        0
176
     1
 40
0.6
176
     1
 40
30.0
176
     1
 62
     7
420
 16777215
176
     1
 90
        2
176
     1
 90
        2
176
     1
 62
     7
176
     1
 62
   257
176
     1
 90
        2
176
     1
 90
        1
176
     1
 40
40.0
176
     1
 90
        0
176
     1
 62
   257
176
     1
 40
1.0
176
     1
 90
        1
176
     1
 90
        6
176
     1
 90
        2
176
     1
 62
     7
176
     1
 90
        3
176
     1
 90
        0
176
     1
 90
        0
176
     1
290
     0
176
     1
 90
        1
176
     1
 40
0.0
176
     1
 90
        0
176
     1
290
     0
176
     1
290
     1
176
     1
290
     1
176
     1
290
     0
176
     1
290
     0
176
     1
290
     0
176
     1
290
     0
176
     1
290
     0
176
     1
290
     0
176
     1
 90
       50
176
     1
 40
0.0
176
     1
 40
1.0
176
     1
 90
        0
176
     1
 62
    18
420
        0
176
     1
 90
       50
176
     1
 90
        3
176
     1
 62
     5
420
      255
176
     1
290
     0
176
     1
 90
       50
176
     1
 90
       50
176
     1
 90
       50
176
     1
290
     0
176
     1
 90
       50
176
     1
 62
   256
176
     0
 40
1.0
176
     0
 90
        2
176
     1
  1
strokes_ogs.tif
176
     1
290
     0
176
     1
 40
1.0
176
     1
 40
1.0
176
     1
1001
ACAD
1000
AcDbSavedByObjectVersion
1070
     0
  0
VISUALSTYLE
  5
EF
102
{ACAD_REACTORS
330
2A
102
}
330
2A
100
AcDbVisualStyle
  2
JitterOff
 70
    20
177
     3
291
     1
 70
    58
 90
        2
176
     0
 90
        2
176
     0
 90
        0
176
     0
 90
        0
176
     0
 40
0.6
176
     0
 40
30.0
176
     0
 62
     7
420
 16777215
176
     0
 90
        1
176
     0
 90
        4
176
     0
 62
     7
176
     0
 62
   257
176
     0
 90
        1
176
     0
 90
        1
176
     0
 40
1.0
176
     0
 90
       10
176
     2
 62
     7
176
     0
 40
1.0
176
     0
 90
        1
176
     0
 90
        6
176
     0
 90
        2
176
     0
 62
     7
176
     0
 90
        5
176
     0
 90
        0
176
     0
 90
        0
176
     0
290
     0
176
     0
 90
        1
176
     0
 40
0.0
176
     0
 90
        0
176
     0
290
     0
176
     1
290
     1
176
     1
290
     1
176
     1
290
     0
176
     1
290
     0
176
     1
290
     0
176
     1
290
     0
176
     1
290
     0
176
     1
290
     0
176
     1
 90
       50
176
     0
 40
0.0
176
     0
 40
1.0
176
     0
 90
        0
176
     0
 62
    18
420
        0
176
     0
 90
       50
176
     0
 90
        3
176
     0
 62
     5
420
      255
176
     0
290
     0
176
     1
 90
       50
176
     0
 90
       50
176
     0
 90
       50
176
     0
290
     0
176
     1
 90
       50
176
     0
 62
   256
176
     0
 40
1.0
176
     0
 90
        2
176
     0
  1
strokes_ogs.tif
176
     0
290
     0
176
     1
 40
1.0
176
     0
 40
1.0
176
     0
1001
ACAD
1000
AcDbSavedByObjectVersion
1070
     0
  0
VISUALSTYLE
  5
38
102
{ACAD_REACTORS
330
2A
102
}
330
2A
100
AcDbVisualStyle
  2
Linepattern
 70
    14
177
     3
291
     1
 70
    58
 90
        2
176
     1
 90
        2
176
     1
 90
        0
176
     1
 90
        0
176
     1
 40
0.6
176
     1
 40
30.0
176
     1
 62
     7
420
 16777215
176
     1
 90
        1
176
     1
 90
        4
176
     1
 62
     7
176
     1
 62
   257
176
     1
 90
        7
176
     1
 90
        7
176
     1
 40
1.0
176
     1
 90
        8
176
     1
 62
     7
176
     1
 40
1.0
176
     1
 90
        1
176
     1
 90
        6
176
     1
 90
        2
176
     1
 62
     7
176
     1
 90
        5
176
     1
 90
        0
176
     1
 90
        0
176
     1
290
     0
176
     1
 90
        1
176
     1
 40
0.0
176
     1
 90
        0
176
     1
290
     0
176
     1
290
     1
176
     1
290
     1
176
     1
290
     0
176
     1
290
     0
176
     1
290
     0
176
     1
290
     0
176
     1
290
     0
176
     1
290
     0
176
     1
 90
       50
176
     1
 40
0.0
176
     1
 40
1.0
176
     1
 90
        0
176
     1
 62
    18
420
        0
176
     1
 90
       50
176
     1
 90
        3
176
     1
 62
     5
420
      255
176
     1
290
     0
176
     1
 90
       50
176
     1
 90
       50
176
     1
 90
       50
176
     1
290
     0
176
     1
 90
       50
176
     1
 62
   256
176
     0
 40
1.0
176
     0
 90
        2
176
     1
  1
strokes_ogs.tif
176
     1
290
     0
176
     1
 40
1.0
176
     1
 40
1.0
176
     1
1001
ACAD
1000
AcDbSavedByObjectVersion
1070
     0
  0
VISUALSTYLE
  5
F0
102
{ACAD_REACTORS
330
2A
102
}
330
2A
100
AcDbVisualStyle
  2
OverhangOff
 70
    21
177
     3
291
     1
 70
    58
 90
        2
176
     0
 90
        2
176
     0
 90
        0
176
     0
 90
        0
176
     0
 40
0.6
176
     0
 40
30.0
176
     0
 62
     7
420
 16777215
176
     0
 90
        1
176
     0
 90
        4
176
     0
 62
     7
176
     0
 62
   257
176
     0
 90
        1
176
     0
 90
        1
176
     0
 40
1.0
176
     0
 90
        9
176
     2
 62
     7
176
     0
 40
1.0
176
     0
 90
        1
176
     0
 90
        6
176
     0
 90
        2
176
     0
 62
     7
176
     0
 90
        5
176
     0
 90
        0
176
     0
 90
        0
176
     0
290
     0
176
     0
 90
        1
176
     0
 40
0.0
176
     0
 90
        0
176
     0
290
     0
176
     1
290
     1
176
     1
290
     1
176
     1
290
     0
176
     1
290
     0
176
     1
290
     0
176
     1
290
     0
176
     1
290
     0
176
     1
290
     0
176
     1
 90
       50
176
     0
 40
0.0
176
     0
 40
1.0
176
     0
 90
        0
176
     0
 62
    18
420
        0
176
     0
 90
       50
176
     0
 90
        3
176
     0
 62
     5
420
      255
176
     0
290
     0
176
     1
 90
       50
176
     0
 90
       50
176
     0
 90
       50
176
     0
290
     0
176
     1
 90
       50
176
     0
 62
   256
176
     0
 40
1.0
176
     0
 90
        2
176
     0
  1
strokes_ogs.tif
176
     0
290
     0
176
     1
 40
1.0
176
     0
 40
1.0
176
     0
1001
ACAD
1000
AcDbSavedByObjectVersion
1070
     0
  0
VISUALSTYLE
  5
33
102
{ACAD_REACTORS
330
2A
102
}
330
2A
100
AcDbVisualStyle
  2
Realistic
 70
     8
177
     3
291
     0
 70
    58
 90
        2
176
     1
 90
        2
176
     1
 90
        0
176
     1
 90
        0
176
     1
 40
0.6
176
     1
 40
30.0
176
     1
 62
     7
420
 16777215
176
     1
 90
        1
176
     1
 90
        0
176
     1
 62
     7
176
     1
 62
   257
176
     1
 90
        1
176
     1
 90
        1
176
     1
 40
1.0
176
     1
 90
        8
176
     1
 62
     8
420
  7895160
176
     1
 40
1.0
176
     1
 90
        1
176
     1
 90
        6
176
     1
 90
        2
176
     1
 62
     7
176
     1
 90
        5
176
     1
 90
        0
176
     1
 90
        0
176
     1
290
     0
176
     1
 90
       13
176
     1
 40
0.0
176
     1
 90
        0
176
     1
290
     0
176
     1
290
     1
176
     1
290
     1
176
     1
290
     0
176
     1
290
     0
176
     1
290
     0
176
     1
290
     0
176
     1
290
     0
176
     1
290
     0
176
     1
 90
       50
176
     1
 40
0.0
176
     1
 40
1.0
176
     1
 90
        0
176
     1
 62
    18
420
        0
176
     1
 90
       50
176
     1
 90
        3
176
     1
 62
     5
420
      255
176
     1
290
     0
176
     1
 90
       50
176
     1
 90
       50
176
     1
 90
       50
176
     1
290
     0
176
     1
 90
       50
176
     1
 62
   256
176
     0
 40
1.0
176
     0
 90
        2
176
     1
  1
strokes_ogs.tif
176
     1
290
     0
176
     1
 40
1.0
176
     1
 40
1.0
176
     1
1001
ACAD
1000
AcDbSavedByObjectVersion
1070
     0
  0
VISUALSTYLE
  5
EE
102
{ACAD_REACTORS
330
2A
102
}
330
2A
100
AcDbVisualStyle
  2
Shaded
 70
    27
177
     3
291
     0
 70
    58
 90
        2
176
     1
 90
        2
176
     1
 90
        1
176
     1
 90
        2
176
     1
 40
0.6
176
     1
 40
30.0
176
     1
 62
     7
420
 16777215
176
     1
 90
        0
176
     1
 90
        4
176
     1
 62
     7
176
     1
 62
   257
176
     1
 90
        1
176
     1
 90
        1
176
     1
 40
1.0
176
     1
 90
        8
176
     1
 62
   257
176
     1
 40
1.0
176
     1
 90
        1
176
     1
 90
        6
176
     1
 90
        2
176
     1
 62
     8
420
  7895160
176
     1
 90
        3
176
     1
 90
        0
176
     1
 90
        0
176
     1
290
     0
176
     1
 90
        5
176
     1
 40
0.0
176
     1
 90
        0
176
     1
290
     0
176
     1
290
     1
176
     1
290
     1
176
     1
290
     0
176
     1
290
     0
176
     1
290
     0
176
     1
290
     0
176
     1
290
     0
176
     1
290
     0
176
     1
 90
       50
176
     1
 40
0.0
176
     1
 40
1.0
176
     1
 90
        0
176
     1
 62
    18
420
        0
176
     1
 90
       50
176
     1
 90
        3
176
     1
 62
     5
420
      255
176
     1
290
     0
176
     1
 90
       50
176
     1
 90
       50
176
     1
 90
       50
176
     1
290
     0
176
     1
 90
       50
176
     1
 62
   256
176
     0
 40
1.0
176
     0
 90
        2
176
     1
  1
strokes_ogs.tif
176
     1
290
     0
176
     1
 40
1.0
176
     1
 40
1.0
176
     1
1001
ACAD
1000
AcDbSavedByObjectVersion
1070
     0
  0
VISUALSTYLE
  5
ED
102
{ACAD_REACTORS
330
2A
102
}
330
2A
100
AcDbVisualStyle
  2
Shaded with edges
 70
    26
177
     3
291
     0
 70
    58
 90
        2
176
     1
 90
        2
176
     1
 90
        1
176
     1
 90
        2
176
     1
 40
0.6
176
     1
 40
30.0
176
     1
 62
     7
420
 16777215
176
     1
 90
        1
176
     1
 90
        2
176
     1
 62
     7
176
     1
 62
   257
176
     1
 90
        2
176
     1
 90
        1
176
     1
 40
1.0
176
     1
 90
        8
176
     1
 62
   257
176
     1
 40
1.0
176
     1
 90
        1
176
     1
 90
        6
176
     1
 90
        2
176
     1
 62
     7
176
     1
 90
        3
176
     1
 90
        0
176
     1
 90
        0
176
     1
290
     0
176
     1
 90
        5
176
     1
 40
0.0
176
     1
 90
        0
176
     1
290
     0
176
     1
290
     1
176
     1
290
     1
176
     1
290
     0
176
     1
290
     0
176
     1
290
     0
176
     1
290
     0
176
     1
290
     0
176
     1
290
     0
176
     1
 90
       50
176
     1
 40
0.0
176
     1
 40
1.0
176
     1
 90
        0
176
     1
 62
    18
420
        0
176
     1
 90
       50
176
     1
 90
        3
176
     1
 62
     5
420
      255
176
     1
290
     0
176
     1
 90
       50
176
     1
 90
       50
176
     1
 90
       50
176
     1
290
     0
176
     1
 90
       50
176
     1
 62
   256
176
     0
 40
1.0
176
     0
 90
        2
176
     1
  1
strokes_ogs.tif
176
     1
290
     0
176
     1
 40
1.0
176
     1
 40
1.0
176
     1
1001
ACAD
1000
AcDbSavedByObjectVersion
1070
     0
  0
VISUALSTYLE
  5
EA
102
{ACAD_REACTORS
330
2A
102
}
330
2A
100
AcDbVisualStyle
  2
Shades of Gray
 70
    23
177
     3
291
     0
 70
    58
 90
        2
176
     1
 90
        2
176
     1
 90
        3
176
     1
 90
        0
176
     1
 40
0.6
176
     1
 40
30.0
176
     1
 62
     7
420
 16777215
176
     1
 90
        2
176
     1
 90
        2
176
     1
 62
     7
176
     1
 62
     7
176
     1
 90
        1
176
     1
 90
        1
176
     1
 40
40.0
176
     1
 90
        8
176
     1
 62
     7
176
     1
 40
1.0
176
     1
 90
        1
176
     1
 90
        6
176
     1
 90
        2
176
     1
 62
     7
176
     1
 90
        3
176
     1
 90
        0
176
     1
 90
        0
176
     1
290
     0
176
     1
 90
        1
176
     1
 40
0.0
176
     1
 90
        0
176
     1
290
     0
176
     1
290
     1
176
     1
290
     1
176
     1
290
     0
176
     1
290
     0
176
     1
290
     0
176
     1
290
     0
176
     1
290
     0
176
     1
290
     0
176
     1
 90
       50
176
     1
 40
0.0
176
     1
 40
1.0
176
     1
 90
        0
176
     1
 62
    18
420
        0
176
     1
 90
       50
176
     1
 90
        3
176
     1
 62
     5
420
      255
176
     1
290
     0
176
     1
 90
       50
176
     1
 90
       50
176
     1
 90
       50
176
     1
290
     0
176
     1
 90
       50
176
     1
 62
   256
176
     0
 40
1.0
176
     0
 90
        2
176
     1
  1
strokes_ogs.tif
176
     1
290
     0
176
     1
 40
1.0
176
     1
 40
1.0
176
     1
1001
ACAD
1000
AcDbSavedByObjectVersion
1070
     0
  0
VISUALSTYLE
  5
EB
102
{ACAD_REACTORS
330
2A
102
}
330
2A
100
AcDbVisualStyle
  2
Sketchy
 70
    24
177
     3
291
     0
 70
    58
 90
        1
176
     1
 90
        2
176
     1
 90
        2
176
     1
 90
        0
176
     1
 40
0.6
176
     1
 40
30.0
176
     1
 62
     7
420
 16777215
176
     1
 90
        2
176
     1
 90
        2
176
     1
 62
     7
176
     1
 62
     7
176
     1
 90
        1
176
     1
 90
        1
176
     1
 40
40.0
176
     1
 90
       11
176
     1
 62
     7
176
     1
 40
1.0
176
     1
 90
        1
176
     1
 90
        6
176
     1
 90
        2
176
     1
 62
     7
176
     1
 90
        6
176
     1
 90
        0
176
     1
 90
        0
176
     1
290
     0
176
     1
 90
        1
176
     1
 40
0.0
176
     1
 90
        0
176
     1
290
     0
176
     1
290
     1
176
     1
290
     1
176
     1
290
     0
176
     1
290
     0
176
     1
290
     0
176
     1
290
     0
176
     1
290
     0
176
     1
290
     0
176
     1
 90
       50
176
     1
 40
0.0
176
     1
 40
1.0
176
     1
 90
        0
176
     1
 62
    18
420
        0
176
     1
 90
       50
176
     1
 90
        3
176
     1
 62
     5
420
      255
176
     1
290
     0
176
     1
 90
       50
176
     1
 90
       50
176
     1
 90
       50
176
     1
290
     0
176
     1
 90
       50
176
     1
 62
   256
176
     0
 40
1.0
176
     0
 90
        2
176
     1
  1
strokes_ogs.tif
176
     1
290
     0
176
     1
 40
1.0
176
     1
 40
1.0
176
     1
1001
ACAD
1000
AcDbSavedByObjectVersion
1070
     0
  0
VISUALSTYLE
  5
37
102
{ACAD_REACTORS
330
2A
102
}
330
2A
100
AcDbVisualStyle
  2
Thicken
 70
    13
177
     3
291
     1
 70
    58
 90
        2
176
     1
 90
        2
176
     1
 90
        0
176
     1
 90
        0
176
     1
 40
0.6
176
     1
 40
30.0
176
     1
 62
     7
420
 16777215
176
     1
 90
        1
176
     1
 90
        4
176
     1
 62
     7
176
     1
 62
   257
176
     1
 90
        1
176
     1
 90
        1
176
     1
 40
1.0
176
     1
 90
       12
176
     1
 62
     7
176
     1
 40
1.0
176
     1
 90
        1
176
     1
 90
        6
176
     1
 90
        2
176
     1
 62
     7
176
     1
 90
        5
176
     1
 90
        0
176
     1
 90
        0
176
     1
290
     0
176
     1
 90
        1
176
     1
 40
0.0
176
     1
 90
        0
176
     1
290
     0
176
     1
290
     1
176
     1
290
     1
176
     1
290
     0
176
     1
290
     0
176
     1
290
     0
176
     1
290
     0
176
     1
290
     0
176
     1
290
     0
176
     1
 90
       50
176
     1
 40
0.0
176
     1
 40
1.0
176
     1
 90
        0
176
     1
 62
    18
420
        0
176
     1
 90
       50
176
     1
 90
        3
176
     1
 62
     5
420
      255
176
     1
290
     0
176
     1
 90
       50
176
     1
 90
       50
176
     1
 90
       50
176
     1
290
     0
176
     1
 90
       50
176
     1
 62
   256
176
     0
 40
1.0
176
     0
 90
        2
176
     1
  1
strokes_ogs.tif
176
     1
290
     0
176
     1
 40
1.0
176
     1
 40
1.0
176
     1
1001
ACAD
1000
AcDbSavedByObjectVersion
1070
     0
  0
VISUALSTYLE
  5
E8
102
{ACAD_REACTORS
330
2A
102
}
330
2A
100
AcDbVisualStyle
  2
Wireframe
 70
     5
177
     3
291
     0
 70
    58
 90
        0
176
     1
 90
        2
176
     1
 90
        0
176
     1
 90
        0
176
     1
 40
0.6
176
     1
 40
30.0
176
     1
 62
     7
420
 16777215
176
     1
 90
        1
176
     1
 90
        4
176
     1
 62
     7
176
     1
 62
   257
176
     1
 90
        1
176
     1
 90
        1
176
     1
 40
1.0
176
     1
 90
        0
176
     1
 62
   257
176
     1
 40
1.0
176
     1
 90
        1
176
     1
 90
        6
176
     1
 90
        2
176
     1
 62
     7
176
     1
 90
        3
176
     1
 90
        0
176
     1
 90
        0
176
     1
290
     0
176
     1
 90
        1
176
     1
 40
0.0
176
     1
 90
        0
176
     1
290
     0
176
     1
290
     1
176
     1
290
     1
176
     1
290
     0
176
     1
290
     0
176
     1
290
     0
176
     1
290
     0
176
     1
290
     0
176
     1
290
     0
176
     1
 90
       50
176
     1
 40
0.0
176
     1
 40
1.0
176
     1
 90
        0
176
     1
 62
    18
420
        0
176
     1
 90
       50
176
     1
 90
        3
176
     1
 62
     5
420
      255
176
     1
290
     0
176
     1
 90
       50
176
     1
 90
       50
176
     1
 90
       50
176
     1
290
     0
176
     1
 90
       50
176
     1
 62
   256
176
     0
 40
1.0
176
     0
 90
        2
176
     1
  1
strokes_ogs.tif
176
     1
290
     0
176
     1
 40
1.0
176
     1
 40
1.0
176
     1
1001
ACAD
1000
AcDbSavedByObjectVersion
1070
     0
  0
VISUALSTYLE
  5
EC
102
{ACAD_REACTORS
330
2A
102
}
330
2A
100
AcDbVisualStyle
  2
X-Ray
 70
    25
177
     3
291
     0
 70
    58
 90
        2
176
     1
 90
        2
176
     1
 90
        1
176
     1
 90
        1
176
     1
 40
0.5
176
     1
 40
30.0
176
     1
 62
     7
420
 16777215
176
     1
 90
        1
176
     1
 90
        0
176
     1
 62
     7
176
     1
 62
   257
176
     1
 90
        1
176
     1
 90
        1
176
     1
 40
1.0
176
     1
 90
        8
176
     1
 62
     7
176
     1
 40
1.0
176
     1
 90
        1
176
     1
 90
        6
176
     1
 90
        2
176
     1
 62
     7
176
     1
 90
        3
176
     1
 90
        0
176
     1
 90
        0
176
     1
290
     0
176
     1
 90
       13
176
     1
 40
0.0
176
     1
 90
        0
176
     1
290
     0
176
     1
290
     1
176
     1
290
     1
176
     1
290
     0
176
     1
290
     0
176
     1
290
     0
176
     1
290
     0
176
     1
290
     0
176
     1
290
     0
176
     1
 90
       50
176
     1
 40
0.0
176
     1
 40
1.0
176
     1
 90
        0
176
     1
 62
    18
420
        0
176
     1
 90
       50
176
     1
 90
        3
176
     1
 62
     5
420
      255
176
     1
290
     0
176
     1
 90
       50
176
     1
 90
       50
176
     1
 90
       50
176
     1
290
     0
176
     1
 90
       50
176
     1
 62
   256
176
     0
 40
1.0
176
     0
 90
        2
176
     1
  1
strokes_ogs.tif
176
     1
290
     0
176
     1
 40
1.0
176
     1
 40
1.0
176
     1
1001
ACAD
1000
AcDbSavedByObjectVersion
1070
     0
  0
DICTIONARYVAR
  5
1AA
102
{ACAD_REACTORS
330
1A5
102
}
330
1A5
100
DictionaryVariables
280
     0
  1
1:1
  0
DICTIONARYVAR
  5
1A7
102
{ACAD_REACTORS
330
1A5
102
}
330
1A5
100
DictionaryVariables
280
     0
  1
STANDARD
  0
DICTIONARYVAR
  5
1A6
102
{ACAD_REACTORS
330
1A5
102
}
330
1A5
100
DictionaryVariables
280
     0
  1
STANDARD
  0
DICTIONARYVAR
  5
1A8
102
{ACAD_REACTORS
330
1A5
102
}
330
1A5
100
DictionaryVariables
280
     0
  1
Imperial24
  0
DICTIONARYVAR
  5
1A9
102
{ACAD_REACTORS
330
1A5
102
}
330
1A5
100
DictionaryVariables
280
     0
  1
Imperial24
  0
DICTIONARY
  5
1B1
330
10E
100
AcDbDictionary
280
     1
281
     1
  3
ACAD_XREC_ROUNDTRIP
360
1B2
  0
DICTIONARY
  5
1AF
330
10C
100
AcDbDictionary
280
     1
281
     1
  3
ACAD_XREC_ROUNDTRIP
360
1B0
  0
DICTIONARY
  5
1AC
330
F3
100
AcDbDictionary
280
     1
281
     1
  3
ACAD_ROUNDTRIP_2008_TABLESTYLE_CELLSTYLEMAP
360
1AD
  0
XRECORD
  5
1B2
102
{ACAD_REACTORS
330
1B1
102
}
330
1B1
100
AcDbXrecord
280
     1
102
DISPLAYNAME
  1
Imperial24
102
FLAGS
 90
        0
  0
XRECORD
  5
1B0
102
{ACAD_REACTORS
330
1AF
102
}
330
1AF
100
AcDbXrecord
280
     1
102
DISPLAYNAME
  1
Imperial24
102
FLAGS
 90
        0
  0
CELLSTYLEMAP
  5
1AD
102
{ACAD_REACTORS
330
1AC
102
}
330
1AC
100
AcDbCellStyleMap
 90
        3
300
CELLSTYLE
  1
TABLEFORMAT_BEGIN
 90
        5
170
     1
 91
        0
 92
    32768
 62
   257
 93
        1
300
CONTENTFORMAT
  1
CONTENTFORMAT_BEGIN
 90
        0
 91
        0
 92
      512
 93
        0
300

 40
0.0
140
1.0
 94
        5
 62
     0
340
11
144
0.25
309
CONTENTFORMAT_END
171
     0
 94
        0
309
TABLEFORMAT_END
  1
CELLSTYLE_BEGIN
 90
        1
 91
        1
300
_TITLE
309
CELLSTYLE_END
300
CELLSTYLE
  1
TABLEFORMAT_BEGIN
 90
        5
170
     1
 91
        0
 92
        0
 62
   257
 93
        1
300
CONTENTFORMAT
  1
CONTENTFORMAT_BEGIN
 90
        0
 91
        0
 92
      512
 93
        0
300

 40
0.0
140
1.0
 94
        5
 62
     0
340
11
144
0.18
309
CONTENTFORMAT_END
171
     0
 94
        0
309
TABLEFORMAT_END
  1
CELLSTYLE_BEGIN
 90
        2
 91
        1
300
_HEADER
309
CELLSTYLE_END
300
CELLSTYLE
  1
TABLEFORMAT_BEGIN
 90
        5
170
     1
 91
        0
 92
        0
 62
   257
 93
        1
300
CONTENTFORMAT
  1
CONTENTFORMAT_BEGIN
 90
        0
 91
        0
 92
      512
 93
        0
300

 40
0.0
140
1.0
 94
        2
 62
     0
340
11
144
0.18
309
CONTENTFORMAT_END
171
     0
 94
        0
309
TABLEFORMAT_END
  1
CELLSTYLE_BEGIN
 90
        3
 91
        2
300
_DATA
309
CELLSTYLE_END
  0
ENDSEC
  0
EOF
