  0
SECTION
  2
HEADER
  9
$ACADVER
  1
AC1027
  9
$ACADMAINTVER
 70
   125
  9
$DWGCODEPAGE
  3
ANSI_1252
  9
$LASTSAVEDBY
  1
ufficio.tecnico
  9
$REQUIREDVERSIONS
160
                 0
  9
$INSBASE
 10
0.0
 20
0.0
 30
0.0
  9
$EXTMIN
 10
5.281880476359113
 20
-19.69974500375562
 30
0.0
  9
$EXTMAX
 10
22.10652316070601
 20
-4.638814346062519
 30
0.0
  9
$LIMMIN
 10
0.0
 20
0.0
  9
$LIMMAX
 10
12.0
 20
9.0
  9
$ORTHOMODE
 70
     0
  9
$REGENMODE
 70
     1
  9
$FILLMODE
 70
     1
  9
$QTEXTMODE
 70
     0
  9
$MIRRTEXT
 70
     1
  9
$LTSCALE
 40
1.0
  9
$ATTMODE
 70
     1
  9
$TEXTSIZE
 40
0.2
  9
$TRACEWID
 40
0.05
  9
$TEXTSTYLE
  7
Standard
  9
$CLAYER
  8
0
  9
$CELTYPE
  6
ByLayer
  9
$CECOLOR
 62
   256
  9
$CELTSCALE
 40
1.0
  9
$DISPSILH
 70
     0
  9
$DIMSCALE
 40
1.0
  9
$DIMASZ
 40
0.18
  9
$DIMEXO
 40
0.0625
  9
$DIMDLI
 40
0.38
  9
$DIMRND
 40
0.0
  9
$DIMDLE
 40
0.0
  9
$DIMEXE
 40
0.18
  9
$DIMTP
 40
0.0
  9
$DIMTM
 40
0.0
  9
$DIMTXT
 40
0.18
  9
$DIMCEN
 40
0.09
  9
$DIMTSZ
 40
0.0
  9
$DIMTOL
 70
     0
  9
$DIMLIM
 70
     0
  9
$DIMTIH
 70
     1
  9
$DIMTOH
 70
     1
  9
$DIMSE1
 70
     0
  9
$DIMSE2
 70
     0
  9
$DIMTAD
 70
     0
  9
$DIMZIN
 70
     0
  9
$DIMBLK
  1

  9
$DIMASO
 70
     1
  9
$DIMSHO
 70
     1
  9
$DIMPOST
  1

  9
$DIMAPOST
  1

  9
$DIMALT
 70
     0
  9
$DIMALTD
 70
     2
  9
$DIMALTF
 40
25.4
  9
$DIMLFAC
 40
1.0
  9
$DIMTOFL
 70
     0
  9
$DIMTVP
 40
0.0
  9
$DIMTIX
 70
     0
  9
$DIMSOXD
 70
     0
  9
$DIMSAH
 70
     0
  9
$DIMBLK1
  1

  9
$DIMBLK2
  1

  9
$DIMSTYLE
  2
Standard
  9
$DIMCLRD
 70
     0
  9
$DIMCLRE
 70
     0
  9
$DIMCLRT
 70
     0
  9
$DIMTFAC
 40
1.0
  9
$DIMGAP
 40
0.09
  9
$DIMJUST
 70
     0
  9
$DIMSD1
 70
     0
  9
$DIMSD2
 70
     0
  9
$DIMTOLJ
 70
     1
  9
$DIMTZIN
 70
     0
  9
$DIMALTZ
 70
     0
  9
$DIMALTTZ
 70
     0
  9
$DIMUPT
 70
     0
  9
$DIMDEC
 70
     4
  9
$DIMTDEC
 70
     4
  9
$DIMALTU
 70
     2
  9
$DIMALTTD
 70
     2
  9
$DIMTXSTY
  7
Standard
  9
$DIMAUNIT
 70
     0
  9
$DIMADEC
 70
     0
  9
$DIMALTRND
 40
0.0
  9
$DIMAZIN
 70
     0
  9
$DIMDSEP
 70
    46
  9
$DIMATFIT
 70
     3
  9
$DIMFRAC
 70
     0
  9
$DIMLDRBLK
  1

  9
$DIMLUNIT
 70
     2
  9
$DIMLWD
 70
    -2
  9
$DIMLWE
 70
    -2
  9
$DIMTMOVE
 70
     0
  9
$DIMFXL
 40
1.0
  9
$DIMFXLON
 70
     0
  9
$DIMJOGANG
 40
0.7853981633974483
  9
$DIMTFILL
 70
     0
  9
$DIMTFILLCLR
 70
     0
  9
$DIMARCSYM
 70
     0
  9
$DIMLTYPE
  6

  9
$DIMLTEX1
  6

  9
$DIMLTEX2
  6

  9
$DIMTXTDIRECTION
 70
     0
  9
$LUNITS
 70
     2
  9
$LUPREC
 70
     4
  9
$SKETCHINC
 40
0.1
  9
$FILLETRAD
 40
0.5
  9
$AUNITS
 70
     0
  9
$AUPREC
 70
     0
  9
$MENU
  1
.
  9
$ELEVATION
 40
0.0
  9
$PELEVATION
 40
0.0
  9
$THICKNESS
 40
0.0
  9
$LIMCHECK
 70
     0
  9
$CHAMFERA
 40
0.5
  9
$CHAMFERB
 40
0.5
  9
$CHAMFERC
 40
1.0
  9
$CHAMFERD
 40
0.0
  9
$SKPOLY
 70
     0
  9
$TDCREATE
 40
2459325.648773148
  9
$TDUCREATE
 40
2459325.565449965
  9
$TDUPDATE
 40
2459328.484108796
  9
$TDUUPDATE
 40
2459328.400775463
  9
$TDINDWG
 40
0.0011689931
  9
$TDUSRTIMER
 40
0.0011689931
  9
$USRTIMER
 70
     1
  9
$ANGBASE
 50
0.0
  9
$ANGDIR
 70
     0
  9
$PDMODE
 70
     0
  9
$PDSIZE
 40
0.0
  9
$PLINEWID
 40
0.0
  9
$SPLFRAME
 70
     0
  9
$SPLINETYPE
 70
     6
  9
$SPLINESEGS
 70
     8
  9
$HANDSEED
  5
4F1
  9
$SURFTAB1
 70
     6
  9
$SURFTAB2
 70
     6
  9
$SURFTYPE
 70
     6
  9
$SURFU
 70
     6
  9
$SURFV
 70
     6
  9
$UCSBASE
  2

  9
$UCSNAME
  2

  9
$UCSORG
 10
0.0
 20
0.0
 30
0.0
  9
$UCSXDIR
 10
1.0
 20
0.0
 30
0.0
  9
$UCSYDIR
 10
0.0
 20
1.0
 30
0.0
  9
$UCSORTHOREF
  2

  9
$UCSORTHOVIEW
 70
     0
  9
$UCSORGTOP
 10
0.0
 20
0.0
 30
0.0
  9
$UCSORGBOTTOM
 10
0.0
 20
0.0
 30
0.0
  9
$UCSORGLEFT
 10
0.0
 20
0.0
 30
0.0
  9
$UCSORGRIGHT
 10
0.0
 20
0.0
 30
0.0
  9
$UCSORGFRONT
 10
0.0
 20
0.0
 30
0.0
  9
$UCSORGBACK
 10
0.0
 20
0.0
 30
0.0
  9
$PUCSBASE
  2

  9
$PUCSNAME
  2

  9
$PUCSORG
 10
0.0
 20
0.0
 30
0.0
  9
$PUCSXDIR
 10
1.0
 20
0.0
 30
0.0
  9
$PUCSYDIR
 10
0.0
 20
1.0
 30
0.0
  9
$PUCSORTHOREF
  2

  9
$PUCSORTHOVIEW
 70
     0
  9
$PUCSORGTOP
 10
0.0
 20
0.0
 30
0.0
  9
$PUCSORGBOTTOM
 10
0.0
 20
0.0
 30
0.0
  9
$PUCSORGLEFT
 10
0.0
 20
0.0
 30
0.0
  9
$PUCSORGRIGHT
 10
0.0
 20
0.0
 30
0.0
  9
$PUCSORGFRONT
 10
0.0
 20
0.0
 30
0.0
  9
$PUCSORGBACK
 10
0.0
 20
0.0
 30
0.0
  9
$USERI1
 70
     0
  9
$USERI2
 70
     0
  9
$USERI3
 70
     0
  9
$USERI4
 70
     0
  9
$USERI5
 70
     0
  9
$USERR1
 40
0.0
  9
$USERR2
 40
0.0
  9
$USERR3
 40
0.0
  9
$USERR4
 40
0.0
  9
$USERR5
 40
0.0
  9
$WORLDVIEW
 70
     1
  9
$SHADEDGE
 70
     3
  9
$SHADEDIF
 70
    70
  9
$TILEMODE
 70
     1
  9
$MAXACTVP
 70
    64
  9
$PINSBASE
 10
0.0
 20
0.0
 30
0.0
  9
$PLIMCHECK
 70
     0
  9
$PEXTMIN
 10
1.000000000000000E+20
 20
1.000000000000000E+20
 30
1.000000000000000E+20
  9
$PEXTMAX
 10
-1.000000000000000E+20
 20
-1.000000000000000E+20
 30
-1.000000000000000E+20
  9
$PLIMMIN
 10
0.0
 20
0.0
  9
$PLIMMAX
 10
12.0
 20
9.0
  9
$UNITMODE
 70
     0
  9
$VISRETAIN
 70
     1
  9
$PLINEGEN
 70
     0
  9
$PSLTSCALE
 70
     1
  9
$TREEDEPTH
 70
  3020
  9
$CMLSTYLE
  2
Standard
  9
$CMLJUST
 70
     0
  9
$CMLSCALE
 40
1.0
  9
$PROXYGRAPHICS
 70
     1
  9
$MEASUREMENT
 70
     0
  9
$CELWEIGHT
370
    -1
  9
$ENDCAPS
280
     0
  9
$JOINSTYLE
280
     0
  9
$LWDISPLAY
290
     1
  9
$INSUNITS
 70
     5
  9
$HYPERLINKBASE
  1

  9
$STYLESHEET
  1

  9
$XEDIT
290
     1
  9
$CEPSNTYPE
380
     0
  9
$PSTYLEMODE
290
     1
  9
$FINGERPRINTGUID
  2
{4C93E878-48F2-4F18-A2ED-63C04FFE5654}
  9
$VERSIONGUID
  2
{A7B2AC96-0661-EC43-BE0B-5EBA2D5E7B2E}
  9
$EXTNAMES
290
     1
  9
$PSVPSCALE
 40
0.0
  9
$OLESTARTUP
290
     0
  9
$SORTENTS
280
   127
  9
$INDEXCTL
280
     0
  9
$HIDETEXT
280
     1
  9
$XCLIPFRAME
280
     2
  9
$HALOGAP
280
     0
  9
$OBSCOLOR
 70
   257
  9
$OBSLTYPE
280
     0
  9
$INTERSECTIONDISPLAY
280
     0
  9
$INTERSECTIONCOLOR
 70
   257
  9
$DIMASSOC
280
     2
  9
$PROJECTNAME
  1

  9
$CAMERADISPLAY
290
     0
  9
$LENSLENGTH
 40
50.0
  9
$CAMERAHEIGHT
 40
0.0
  9
$STEPSPERSEC
 40
2.0
  9
$STEPSIZE
 40
6.0
  9
$3DDWFPREC
 40
2.0
  9
$PSOLWIDTH
 40
0.25
  9
$PSOLHEIGHT
 40
4.0
  9
$LOFTANG1
 40
1.570796326794897
  9
$LOFTANG2
 40
1.570796326794897
  9
$LOFTMAG1
 40
0.0
  9
$LOFTMAG2
 40
0.0
  9
$LOFTPARAM
 70
     7
  9
$LOFTNORMALS
280
     1
  9
$LATITUDE
 40
37.795
  9
$LONGITUDE
 40
-122.394
  9
$NORTHDIRECTION
 40
0.0
  9
$TIMEZONE
 70
 -8000
  9
$LIGHTGLYPHDISPLAY
280
     1
  9
$TILEMODELIGHTSYNCH
280
     1
  9
$CMATERIAL
347
3C
  9
$SOLIDHIST
280
     1
  9
$SHOWHIST
280
     1
  9
$DWFFRAME
280
     2
  9
$DGNFRAME
280
     2
  9
$REALWORLDSCALE
290
     1
  9
$INTERFERECOLOR
 62
   256
  9
$INTERFEREOBJVS
345
33
  9
$INTERFEREVPVS
346
2A3
  9
$CSHADOW
280
     0
  9
$SHADOWPLANELOCATION
 40
0.0
  0
ENDSEC
  0
SECTION
  2
CLASSES
  0
CLASS
  1
ACDBDICTIONARYWDFLT
  2
AcDbDictionaryWithDefault
  3
ObjectDBX Classes
 90
        0
 91
        1
280
     0
281
     0
  0
CLASS
  1
VISUALSTYLE
  2
AcDbVisualStyle
  3
ObjectDBX Classes
 90
     4095
 91
       26
280
     0
281
     0
  0
CLASS
  1
MATERIAL
  2
AcDbMaterial
  3
ObjectDBX Classes
 90
     1153
 91
        3
280
     0
281
     0
  0
CLASS
  1
SUN
  2
AcDbSun
  3
SCENEOE
 90
     1153
 91
        1
280
     0
281
     0
  0
CLASS
  1
TABLESTYLE
  2
AcDbTableStyle
  3
ObjectDBX Classes
 90
     4095
 91
        1
280
     0
281
     0
  0
CLASS
  1
SCALE
  2
AcDbScale
  3
ObjectDBX Classes
 90
     1153
 91
       21
280
     0
281
     0
  0
CLASS
  1
MLEADERSTYLE
  2
AcDbMLeaderStyle
  3
ACDB_MLEADERSTYLE_CLASS
 90
     4095
 91
        1
280
     0
281
     0
  0
CLASS
  1
ACDBSECTIONVIEWSTYLE
  2
AcDbSectionViewStyle
  3
ObjectDBX Classes
 90
     1025
 91
        1
280
     0
281
     0
  0
CLASS
  1
ACDBDETAILVIEWSTYLE
  2
AcDbDetailViewStyle
  3
ObjectDBX Classes
 90
     1025
 91
        1
280
     0
281
     0
  0
CLASS
  1
SORTENTSTABLE
  2
AcDbSortentsTable
  3
ObjectDBX Classes
 90
        0
 91
        1
280
     0
281
     0
  0
CLASS
  1
DICTIONARYVAR
  2
AcDbDictionaryVar
  3
ObjectDBX Classes
 90
        0
 91
        5
280
     0
281
     0
  0
CLASS
  1
CELLSTYLEMAP
  2
AcDbCellStyleMap
  3
ObjectDBX Classes
 90
     1152
 91
        1
280
     0
281
     0
  0
ENDSEC
  0
SECTION
  2
TABLES
  0
TABLE
  2
VPORT
  5
8
330
0
100
AcDbSymbolTable
 70
     1
1001
ACAD
1000
DbSaveVer
1071
      105
  0
VPORT
  5
29
330
8
100
AcDbSymbolTableRecord
100
AcDbViewportTableRecord
  2
*Active
 70
     0
 10
0.0
 20
0.0
 11
1.0
 21
1.0
 12
-8.992102314754923
 22
0.527479018352377
 13
0.0
 23
0.0
 14
0.5
 24
0.5
 15
0.5
 25
0.5
 16
0.0
 26
0.0
 36
1.0
 17
14.84999673225613
 27
-10.50008306681943
 37
0.0
 40
51.61256489181951
 41
1.932867132867133
 42
50.0
 43
0.0
 44
0.0
 50
0.0
 51
0.0
 71
     0
 72
   100
 73
     1
 74
     3
 75
     0
 76
     0
 77
     0
 78
     0
281
     0
 65
     1
110
0.0
120
0.0
130
0.0
111
1.0
121
0.0
131
0.0
112
0.0
122
1.0
132
0.0
 79
     0
146
0.0
348
2F
 60
     3
 61
     5
292
     1
282
     1
141
0.0
142
0.0
 63
   250
361
3F
1001
ACAD_NAV_VCDISPLAY
1070
     3
  0
ENDTAB
  0
TABLE
  2
LTYPE
  5
5
330
0
100
AcDbSymbolTable
 70
     1
  0
LTYPE
  5
14
330
5
100
AcDbSymbolTableRecord
100
AcDbLinetypeTableRecord
  2
ByBlock
 70
     0
  3

 72
    65
 73
     0
 40
0.0
  0
LTYPE
  5
15
330
5
100
AcDbSymbolTableRecord
100
AcDbLinetypeTableRecord
  2
ByLayer
 70
     0
  3

 72
    65
 73
     0
 40
0.0
  0
LTYPE
  5
16
330
5
100
AcDbSymbolTableRecord
100
AcDbLinetypeTableRecord
  2
Continuous
 70
     0
  3
Solid line
 72
    65
 73
     0
 40
0.0
  0
ENDTAB
  0
TABLE
  2
LAYER
  5
2
330
0
100
AcDbSymbolTable
 70
     2
  0
LAYER
  5
10
330
2
100
AcDbSymbolTableRecord
100
AcDbLayerTableRecord
  2
0
 70
     0
 62
     7
  6
Continuous
370
    -3
390
F
347
3E
348
0
  0
LAYER
  5
40
330
2
100
AcDbSymbolTableRecord
100
AcDbLayerTableRecord
  2
Livello 3
 70
     0
 62
     7
  6
Continuous
370
    -3
390
F
347
3E
348
0
  0
ENDTAB
  0
TABLE
  2
STYLE
  5
3
330
0
100
AcDbSymbolTable
 70
     1
  0
STYLE
  5
11
330
3
100
AcDbSymbolTableRecord
100
AcDbTextStyleTableRecord
  2
Standard
 70
     0
 40
0.0
 41
1.0
 50
0.0
 71
     0
 42
0.2
  3
txt
  4

  0
ENDTAB
  0
TABLE
  2
VIEW
  5
6
330
0
100
AcDbSymbolTable
 70
     0
  0
ENDTAB
  0
TABLE
  2
UCS
  5
7
330
0
100
AcDbSymbolTable
 70
     0
  0
ENDTAB
  0
TABLE
  2
APPID
  5
9
330
0
100
AcDbSymbolTable
 70
     2
  0
APPID
  5
12
330
9
100
AcDbSymbolTableRecord
100
AcDbRegAppTableRecord
  2
ACAD
 70
     0
  0
APPID
  5
4E3
330
9
100
AcDbSymbolTableRecord
100
AcDbRegAppTableRecord
  2
ACAD_NAV_VCDISPLAY
 70
     0
  0
ENDTAB
  0
TABLE
  2
DIMSTYLE
  5
A
330
0
100
AcDbSymbolTable
 70
     1
100
AcDbDimStyleTable
 71
     0
  0
DIMSTYLE
105
27
330
A
100
AcDbSymbolTableRecord
100
AcDbDimStyleTableRecord
  2
Standard
 70
     0
340
11
  0
ENDTAB
  0
TABLE
  2
BLOCK_RECORD
  5
1
330
0
100
AcDbSymbolTable
 70
     7
  0
BLOCK_RECORD
  5
1F
102
{ACAD_XDICTIONARY
360
2CD
102
}
330
1
100
AcDbSymbolTableRecord
100
AcDbBlockTableRecord
  2
*Model_Space
340
22
 70
     0
280
     1
281
     0
  0
BLOCK_RECORD
  5
1B
330
1
100
AcDbSymbolTableRecord
100
AcDbBlockTableRecord
  2
*Paper_Space
340
1E
 70
     0
280
     1
281
     0
  0
BLOCK_RECORD
  5
23
330
1
100
AcDbSymbolTableRecord
100
AcDbBlockTableRecord
  2
*Paper_Space0
340
26
 70
     0
280
     1
281
     0
  0
BLOCK_RECORD
  5
223
330
1
100
AcDbSymbolTableRecord
100
AcDbBlockTableRecord
  2
block 2
340
0
 70
     0
280
     1
281
     0
  0
BLOCK_RECORD
  5
22F
330
1
100
AcDbSymbolTableRecord
100
AcDbBlockTableRecord
  2
block 3
340
0
 70
     0
280
     1
281
     0
  0
BLOCK_RECORD
  5
24F
330
1
100
AcDbSymbolTableRecord
100
AcDbBlockTableRecord
  2
block 4
340
0
 70
     0
280
     1
281
     0
  0
BLOCK_RECORD
  5
256
330
1
100
AcDbSymbolTableRecord
100
AcDbBlockTableRecord
  2
block 5
340
0
 70
     0
280
     1
281
     0
  0
BLOCK_RECORD
  5
27A
330
1
100
AcDbSymbolTableRecord
100
AcDbBlockTableRecord
  2
block 6
340
0
 70
     0
280
     1
281
     0
  0
BLOCK_RECORD
  5
28C
330
1
100
AcDbSymbolTableRecord
100
AcDbBlockTableRecord
  2
block 7
340
0
 70
     0
280
     1
281
     0
  0
ENDTAB
  0
ENDSEC
  0
SECTION
  2
BLOCKS
  0
BLOCK
  5
20
330
1F
100
AcDbEntity
  8
0
100
AcDbBlockBegin
  2
*Model_Space
 70
     0
 10
0.0
 20
0.0
 30
0.0
  3
*Model_Space
  1

  0
ENDBLK
  5
21
330
1F
100
AcDbEntity
  8
0
100
AcDbBlockEnd
  0
BLOCK
  5
1C
330
1B
100
AcDbEntity
 67
     1
  8
0
100
AcDbBlockBegin
  2
*Paper_Space
 70
     0
 10
0.0
 20
0.0
 30
0.0
  3
*Paper_Space
  1

  0
ENDBLK
  5
1D
330
1B
100
AcDbEntity
 67
     1
  8
0
100
AcDbBlockEnd
  0
BLOCK
  5
24
330
23
100
AcDbEntity
 67
     1
  8
0
100
AcDbBlockBegin
  2
*Paper_Space0
 70
     0
 10
0.0
 20
0.0
 30
0.0
  3
*Paper_Space0
  1

  0
ENDBLK
  5
25
330
23
100
AcDbEntity
 67
     1
  8
0
100
AcDbBlockEnd
  0
BLOCK
  5
225
330
223
100
AcDbEntity
  8
0
100
AcDbBlockBegin
  2
block 2
 70
     0
 10
0.0
 20
0.0
 30
0.0
  3
block 2
  1

  0
SPLINE
  5
227
330
223
100
AcDbEntity
  8
Livello 3
370
     0
100
AcDbSpline
210
0.0
220
0.0
230
1.0
 70
     9
 71
     3
 72
    35
 73
    31
 74
     0
 42
0.000000001
 43
0.0000000001
 40
0.0
 40
0.0
 40
0.0
 40
0.0
 40
1.0
 40
1.0
 40
1.0
 40
2.0
 40
2.0
 40
2.0
 40
3.0
 40
3.0
 40
3.0
 40
4.0
 40
4.0
 40
4.0
 40
5.0
 40
5.0
 40
5.0
 40
6.0
 40
6.0
 40
6.0
 40
7.0
 40
7.0
 40
7.0
 40
8.0
 40
8.0
 40
8.0
 40
9.0
 40
9.0
 40
9.0
 40
10.0
 40
10.0
 40
10.0
 40
10.0
 10
6.430391301560804
 20
-19.45586669435478
 30
0.0
 10
6.430391301560804
 20
-19.386448020327
 30
0.0
 10
6.471870251203212
 20
-19.33732095870732
 30
0.0
 10
6.539618053920651
 20
-19.3085544114055
 30
0.0
 10
6.539618053920651
 20
-19.3085544114055
 30
0.0
 10
6.538774005526763
 20
-19.30600504074641
 30
0.0
 10
6.538774005526763
 20
-19.30600504074641
 30
0.0
 10
6.477813040915268
 20
-19.27720404248972
 30
0.0
 10
6.451561413317663
 20
-19.22979952861269
 30
0.0
 10
6.451561413317663
 20
-19.18239501473564
 30
0.0
 10
6.451561413317663
 20
-19.09516519704912
 30
0.0
 10
6.525217554792306
 20
-19.03590955470283
 30
0.0
 10
6.621749130289007
 20
-19.03590955470283
 30
0.0
 10
6.728443737467193
 20
-19.03590955470283
 30
0.0
 10
6.781791041056287
 20
-19.10277885807153
 30
0.0
 10
6.781791041056287
 20
-19.17137070918285
 30
0.0
 10
6.781791041056287
 20
-19.21794840014343
 30
0.0
 10
6.758915607034229
 20
-19.26790228467955
 30
0.0
 10
6.691185029794217
 20
-19.30007947651178
 30
0.0
 10
6.691185029794217
 20
-19.30007947651178
 30
0.0
 10
6.691185029794217
 20
-19.30262884717087
 30
0.0
 10
6.691185029794217
 20
-19.30262884717087
 30
0.0
 10
6.75977688090554
 20
-19.32970729768493
 30
0.0
 10
6.802099878941836
 20
-19.37797308543328
 30
0.0
 10
6.802099878941836
 20
-19.44487683975683
 30
0.0
 10
6.802099878941836
 20
-19.54054714138222
 30
0.0
 10
6.719968802573478
 20
-19.60490152504669
 30
0.0
 10
6.61497951766049
 20
-19.60490152504669
 30
0.0
 10
6.499827201066015
 20
-19.60490152504669
 30
0.0
 10
6.430391301560804
 20
-19.53630967393537
 30
0.0
 10
6.430391301560804
 20
-19.45586669435478
 30
0.0
  0
SPLINE
  5
228
330
223
100
AcDbEntity
  8
Livello 3
370
     0
100
AcDbSpline
210
0.0
220
0.0
230
1.0
 70
     9
 71
     3
 72
    17
 73
    13
 74
     0
 42
0.000000001
 43
0.0000000001
 40
0.0
 40
0.0
 40
0.0
 40
0.0
 40
1.0
 40
1.0
 40
1.0
 40
2.0
 40
2.0
 40
2.0
 40
3.0
 40
3.0
 40
3.0
 40
4.0
 40
4.0
 40
4.0
 40
4.0
 10
6.726738415201996
 20
-19.45249050077924
 30
0.0
 10
6.726738415201996
 20
-19.38558674645569
 30
0.0
 10
6.680177949718843
 20
-19.35340955462345
 30
0.0
 10
6.60566053437289
 20
-19.33225666834402
 30
0.0
 10
6.541306150708422
 20
-19.35089463491921
 30
0.0
 10
6.50659681369453
 20
-19.39323485843294
 30
0.0
 10
6.50659681369453
 20
-19.4457036626733
 30
0.0
 10
6.504047443035446
 20
-19.5016175623989
 30
0.0
 10
6.546387666549166
 20
-19.55071017306371
 30
0.0
 10
6.616667614448262
 20
-19.55071017306371
 30
0.0
 10
6.683571368771815
 20
-19.55071017306371
 30
0.0
 10
6.726738415201996
 20
-19.5092312234213
 30
0.0
 10
6.726738415201996
 20
-19.45249050077924
 30
0.0
  0
SPLINE
  5
229
330
223
100
AcDbEntity
  8
Livello 3
370
     0
100
AcDbSpline
210
0.0
220
0.0
230
1.0
 70
     9
 71
     3
 72
    17
 73
    13
 74
     0
 42
0.000000001
 43
0.0000000001
 40
0.0
 40
0.0
 40
0.0
 40
0.0
 40
1.0
 40
1.0
 40
1.0
 40
2.0
 40
2.0
 40
2.0
 40
3.0
 40
3.0
 40
3.0
 40
4.0
 40
4.0
 40
4.0
 40
4.0
 10
6.521841361216763
 20
-19.17729627341748
 30
0.0
 10
6.521841361216763
 20
-19.23234889927177
 30
0.0
 10
6.563320310859169
 20
-19.26197672044492
 30
0.0
 10
6.626830646129751
 20
-19.27892659023235
 30
0.0
 10
6.674252385484213
 20
-19.26283799431623
 30
0.0
 10
6.710649819285878
 20
-19.22893825474138
 30
0.0
 10
6.710649819285878
 20
-19.17898437020525
 30
0.0
 10
6.710649819285878
 20
-19.13495604990376
 30
0.0
 10
6.684415417165702
 20
-19.08923963281449
 30
0.0
 10
6.617511662842151
 20
-19.08923963281449
 30
0.0
 10
6.555706649836768
 20
-19.08923963281449
 30
0.0
 10
6.521841361216763
 20
-19.12989175954044
 30
0.0
 10
6.521841361216763
 20
-19.17729627341748
 30
0.0
  0
HATCH
  5
22A
330
223
100
AcDbEntity
  8
Livello 3
 62
   250
420
  1842203
100
AcDbHatch
 10
0.0
 20
0.0
 30
0.0
210
0.0
220
0.0
230
1.0
  2
SOLID
 70
     1
 71
     0
 91
        3
 92
        1
 93
        1
 72
     4
 94
        3
 73
     0
 74
     0
 95
       35
 96
       31
 40
0.0
 40
0.0
 40
0.0
 40
0.0
 40
1.0
 40
1.0
 40
1.0
 40
2.0
 40
2.0
 40
2.0
 40
3.0
 40
3.0
 40
3.0
 40
4.0
 40
4.0
 40
4.0
 40
5.0
 40
5.0
 40
5.0
 40
6.0
 40
6.0
 40
6.0
 40
7.0
 40
7.0
 40
7.0
 40
8.0
 40
8.0
 40
8.0
 40
9.0
 40
9.0
 40
9.0
 40
10.0
 40
10.0
 40
10.0
 40
10.0
 10
6.430391301560804
 20
-19.45586669435478
 10
6.430391301560804
 20
-19.386448020327
 10
6.471870251203212
 20
-19.33732095870732
 10
6.539618053920651
 20
-19.3085544114055
 10
6.539618053920651
 20
-19.3085544114055
 10
6.538774005526763
 20
-19.30600504074641
 10
6.538774005526763
 20
-19.30600504074641
 10
6.477813040915268
 20
-19.27720404248972
 10
6.451561413317663
 20
-19.22979952861269
 10
6.451561413317663
 20
-19.18239501473564
 10
6.451561413317663
 20
-19.09516519704912
 10
6.525217554792306
 20
-19.03590955470283
 10
6.621749130289007
 20
-19.03590955470283
 10
6.728443737467193
 20
-19.03590955470283
 10
6.781791041056287
 20
-19.10277885807153
 10
6.781791041056287
 20
-19.17137070918285
 10
6.781791041056287
 20
-19.21794840014343
 10
6.758915607034229
 20
-19.26790228467955
 10
6.691185029794217
 20
-19.30007947651178
 10
6.691185029794217
 20
-19.30007947651178
 10
6.691185029794217
 20
-19.30262884717087
 10
6.691185029794217
 20
-19.30262884717087
 10
6.75977688090554
 20
-19.32970729768493
 10
6.802099878941836
 20
-19.37797308543328
 10
6.802099878941836
 20
-19.44487683975683
 10
6.802099878941836
 20
-19.54054714138222
 10
6.719968802573478
 20
-19.60490152504669
 10
6.61497951766049
 20
-19.60490152504669
 10
6.499827201066015
 20
-19.60490152504669
 10
6.430391301560804
 20
-19.53630967393537
 10
6.430391301560804
 20
-19.45586669435478
 97
        0
 97
        0
 92
        1
 93
        1
 72
     4
 94
        3
 73
     0
 74
     0
 95
       17
 96
       13
 40
0.0
 40
0.0
 40
0.0
 40
0.0
 40
1.0
 40
1.0
 40
1.0
 40
2.0
 40
2.0
 40
2.0
 40
3.0
 40
3.0
 40
3.0
 40
4.0
 40
4.0
 40
4.0
 40
4.0
 10
6.726738415201996
 20
-19.45249050077924
 10
6.726738415201996
 20
-19.38558674645569
 10
6.680177949718843
 20
-19.35340955462345
 10
6.60566053437289
 20
-19.33225666834402
 10
6.541306150708422
 20
-19.35089463491921
 10
6.50659681369453
 20
-19.39323485843294
 10
6.50659681369453
 20
-19.4457036626733
 10
6.504047443035446
 20
-19.5016175623989
 10
6.546387666549166
 20
-19.55071017306371
 10
6.616667614448262
 20
-19.55071017306371
 10
6.683571368771815
 20
-19.55071017306371
 10
6.726738415201996
 20
-19.5092312234213
 10
6.726738415201996
 20
-19.45249050077924
 97
        0
 97
        0
 92
        1
 93
        1
 72
     4
 94
        3
 73
     0
 74
     0
 95
       17
 96
       13
 40
0.0
 40
0.0
 40
0.0
 40
0.0
 40
1.0
 40
1.0
 40
1.0
 40
2.0
 40
2.0
 40
2.0
 40
3.0
 40
3.0
 40
3.0
 40
4.0
 40
4.0
 40
4.0
 40
4.0
 10
6.521841361216763
 20
-19.17729627341748
 10
6.521841361216763
 20
-19.23234889927177
 10
6.563320310859169
 20
-19.26197672044492
 10
6.626830646129751
 20
-19.27892659023235
 10
6.674252385484213
 20
-19.26283799431623
 10
6.710649819285878
 20
-19.22893825474138
 10
6.710649819285878
 20
-19.17898437020525
 10
6.710649819285878
 20
-19.13495604990376
 10
6.684415417165702
 20
-19.08923963281449
 10
6.617511662842151
 20
-19.08923963281449
 10
6.555706649836768
 20
-19.08923963281449
 10
6.521841361216763
 20
-19.12989175954044
 10
6.521841361216763
 20
-19.17729627341748
 97
        0
 97
        0
 75
     2
 76
     1
 98
        0
450
        0
451
        0
460
0.0
461
0.0
452
        0
462
0.0
453
        0
470

  0
SPLINE
  5
22B
330
223
100
AcDbEntity
  8
Livello 3
370
     0
100
AcDbSpline
210
0.0
220
0.0
230
1.0
 70
     9
 71
     3
 72
    17
 73
    13
 74
     0
 42
0.000000001
 43
0.0000000001
 40
0.0
 40
0.0
 40
0.0
 40
0.0
 40
1.0
 40
1.0
 40
1.0
 40
2.0
 40
2.0
 40
2.0
 40
3.0
 40
3.0
 40
3.0
 40
4.0
 40
4.0
 40
4.0
 40
4.0
 10
6.846937796682362
 20
-19.69974500375562
 30
0.0
 10
6.865558537780138
 20
-19.6497911192195
 30
0.0
 10
6.888416746324769
 20
-19.55918510795743
 30
0.0
 10
6.89773572961237
 20
-19.49738009495204
 30
0.0
 10
6.89773572961237
 20
-19.49738009495204
 30
0.0
 10
6.980710854374612
 20
-19.48890516005833
 30
0.0
 10
6.980710854374612
 20
-19.48890516005833
 30
0.0
 10
6.961246064882952
 20
-19.5608732047452
 30
0.0
 10
6.923987357209974
 20
-19.65485540958281
 30
0.0
 10
6.90026787479403
 20
-19.69464626243745
 30
0.0
 10
6.90026787479403
 20
-19.69464626243745
 30
0.0
 10
6.846937796682362
 20
-19.69974500375562
 30
0.0
 10
6.846937796682362
 20
-19.69974500375562
 30
0.0
  0
HATCH
  5
22C
330
223
100
AcDbEntity
  8
Livello 3
 62
   250
420
  1842203
100
AcDbHatch
 10
0.0
 20
0.0
 30
0.0
210
0.0
220
0.0
230
1.0
  2
SOLID
 70
     1
 71
     0
 91
        1
 92
        1
 93
        1
 72
     4
 94
        3
 73
     0
 74
     0
 95
       17
 96
       13
 40
0.0
 40
0.0
 40
0.0
 40
0.0
 40
1.0
 40
1.0
 40
1.0
 40
2.0
 40
2.0
 40
2.0
 40
3.0
 40
3.0
 40
3.0
 40
4.0
 40
4.0
 40
4.0
 40
4.0
 10
6.846937796682362
 20
-19.69974500375562
 10
6.865558537780138
 20
-19.6497911192195
 10
6.888416746324769
 20
-19.55918510795743
 10
6.89773572961237
 20
-19.49738009495204
 10
6.89773572961237
 20
-19.49738009495204
 10
6.980710854374612
 20
-19.48890516005833
 10
6.980710854374612
 20
-19.48890516005833
 10
6.961246064882952
 20
-19.5608732047452
 10
6.923987357209974
 20
-19.65485540958281
 10
6.90026787479403
 20
-19.69464626243745
 10
6.90026787479403
 20
-19.69464626243745
 10
6.846937796682362
 20
-19.69974500375562
 10
6.846937796682362
 20
-19.69974500375562
 97
        0
 97
        0
 75
     2
 76
     1
 98
        0
450
        0
451
        0
460
0.0
461
0.0
452
        0
462
0.0
453
        0
470

  0
SPLINE
  5
22D
330
223
100
AcDbEntity
  8
Livello 3
370
     0
100
AcDbSpline
210
0.0
220
0.0
230
1.0
 70
    11
 71
     3
 72
    50
 73
    46
 74
     0
 42
0.000000001
 43
0.0000000001
 40
0.0
 40
0.0
 40
0.0
 40
0.0
 40
1.0
 40
1.0
 40
1.0
 40
2.0
 40
2.0
 40
2.0
 40
3.0
 40
3.0
 40
3.0
 40
4.0
 40
4.0
 40
4.0
 40
5.0
 40
5.0
 40
5.0
 40
6.0
 40
6.0
 40
6.0
 40
7.0
 40
7.0
 40
7.0
 40
8.0
 40
8.0
 40
8.0
 40
9.0
 40
9.0
 40
9.0
 40
10.0
 40
10.0
 40
10.0
 40
11.0
 40
11.0
 40
11.0
 40
12.0
 40
12.0
 40
12.0
 40
13.0
 40
13.0
 40
13.0
 40
14.0
 40
14.0
 40
14.0
 40
15.0
 40
15.0
 40
15.0
 40
15.0
 10
7.375277640300277
 20
-19.1078775993897
 30
0.0
 10
7.375277640300277
 20
-19.1078775993897
 30
0.0
 10
7.165281844996874
 20
-19.1078775993897
 30
0.0
 10
7.165281844996874
 20
-19.1078775993897
 30
0.0
 10
7.165281844996874
 20
-19.1078775993897
 30
0.0
 10
7.144111733240013
 20
-19.24926431810435
 30
0.0
 10
7.144111733240013
 20
-19.24926431810435
 30
0.0
 10
7.156806910103158
 20
-19.24757622131657
 30
0.0
 10
7.168675264049844
 20
-19.2458881245288
 30
0.0
 10
7.188984101935393
 20
-19.2458881245288
 30
0.0
 10
7.231324325449112
 20
-19.2458881245288
 30
0.0
 10
7.273664548962833
 20
-19.25518988233898
 30
0.0
 10
7.307529837582838
 20
-19.27551594570195
 30
0.0
 10
7.350714109490446
 20
-19.30007947651178
 30
0.0
 10
7.386284720375651
 20
-19.34748399038882
 30
0.0
 10
7.386284720375651
 20
-19.41693711537146
 30
0.0
 10
7.386284720375651
 20
-19.52445854546611
 30
0.0
 10
7.300760224954322
 20
-19.60490152504669
 30
0.0
 10
7.18137044091299
 20
-19.60490152504669
 30
0.0
 10
7.12125352469538
 20
-19.60490152504669
 30
0.0
 10
7.070438366287945
 20
-19.58798610621411
 30
0.0
 10
7.044203964167767
 20
-19.57103623642669
 30
0.0
 10
7.044203964167767
 20
-19.57103623642669
 30
0.0
 10
7.062824705265543
 20
-19.51429551378462
 30
0.0
 10
7.062824705265543
 20
-19.51429551378462
 30
0.0
 10
7.085682913810175
 20
-19.5278691899965
 30
0.0
 10
7.13057250798298
 20
-19.54478460882908
 30
0.0
 10
7.180526392519102
 20
-19.54478460882908
 30
0.0
 10
7.250806340418201
 20
-19.54478460882908
 30
0.0
 10
7.31092325663581
 20
-19.49906819173982
 30
0.0
 10
7.31092325663581
 20
-19.42541205026517
 30
0.0
 10
7.310079208241924
 20
-19.35427082849477
 30
0.0
 10
7.26265746888746
 20
-19.30345567008733
 30
0.0
 10
7.152586668133727
 20
-19.30345567008733
 30
0.0
 10
7.12125352469538
 20
-19.30345567008733
 30
0.0
 10
7.096689993885549
 20
-19.30686631461773
 30
0.0
 10
7.076381156000002
 20
-19.30938123432196
 30
0.0
 10
7.076381156000002
 20
-19.30938123432196
 30
0.0
 10
7.11193454140778
 20
-19.045211312513
 30
0.0
 10
7.11193454140778
 20
-19.045211312513
 30
0.0
 10
7.11193454140778
 20
-19.045211312513
 30
0.0
 10
7.375277640300277
 20
-19.045211312513
 30
0.0
 10
7.375277640300277
 20
-19.045211312513
 30
0.0
 10
7.375277640300277
 20
-19.045211312513
 30
0.0
 10
7.375277640300277
 20
-19.1078775993897
 30
0.0
 10
7.375277640300277
 20
-19.1078775993897
 30
0.0
  0
HATCH
  5
22E
330
223
100
AcDbEntity
  8
Livello 3
 62
   250
420
  1842203
100
AcDbHatch
 10
0.0
 20
0.0
 30
0.0
210
0.0
220
0.0
230
1.0
  2
SOLID
 70
     1
 71
     0
 91
        1
 92
        1
 93
        1
 72
     4
 94
        3
 73
     0
 74
     0
 95
       50
 96
       46
 40
0.0
 40
0.0
 40
0.0
 40
0.0
 40
1.0
 40
1.0
 40
1.0
 40
2.0
 40
2.0
 40
2.0
 40
3.0
 40
3.0
 40
3.0
 40
4.0
 40
4.0
 40
4.0
 40
5.0
 40
5.0
 40
5.0
 40
6.0
 40
6.0
 40
6.0
 40
7.0
 40
7.0
 40
7.0
 40
8.0
 40
8.0
 40
8.0
 40
9.0
 40
9.0
 40
9.0
 40
10.0
 40
10.0
 40
10.0
 40
11.0
 40
11.0
 40
11.0
 40
12.0
 40
12.0
 40
12.0
 40
13.0
 40
13.0
 40
13.0
 40
14.0
 40
14.0
 40
14.0
 40
15.0
 40
15.0
 40
15.0
 40
15.0
 10
7.375277640300277
 20
-19.1078775993897
 10
7.375277640300277
 20
-19.1078775993897
 10
7.165281844996874
 20
-19.1078775993897
 10
7.165281844996874
 20
-19.1078775993897
 10
7.165281844996874
 20
-19.1078775993897
 10
7.144111733240013
 20
-19.24926431810435
 10
7.144111733240013
 20
-19.24926431810435
 10
7.156806910103158
 20
-19.24757622131657
 10
7.168675264049844
 20
-19.2458881245288
 10
7.188984101935393
 20
-19.2458881245288
 10
7.231324325449112
 20
-19.2458881245288
 10
7.273664548962833
 20
-19.25518988233898
 10
7.307529837582838
 20
-19.27551594570195
 10
7.350714109490446
 20
-19.30007947651178
 10
7.386284720375651
 20
-19.34748399038882
 10
7.386284720375651
 20
-19.41693711537146
 10
7.386284720375651
 20
-19.52445854546611
 10
7.300760224954322
 20
-19.60490152504669
 10
7.18137044091299
 20
-19.60490152504669
 10
7.12125352469538
 20
-19.60490152504669
 10
7.070438366287945
 20
-19.58798610621411
 10
7.044203964167767
 20
-19.57103623642669
 10
7.044203964167767
 20
-19.57103623642669
 10
7.062824705265543
 20
-19.51429551378462
 10
7.062824705265543
 20
-19.51429551378462
 10
7.085682913810175
 20
-19.5278691899965
 10
7.13057250798298
 20
-19.54478460882908
 10
7.180526392519102
 20
-19.54478460882908
 10
7.250806340418201
 20
-19.54478460882908
 10
7.31092325663581
 20
-19.49906819173982
 10
7.31092325663581
 20
-19.42541205026517
 10
7.310079208241924
 20
-19.35427082849477
 10
7.26265746888746
 20
-19.30345567008733
 10
7.152586668133727
 20
-19.30345567008733
 10
7.12125352469538
 20
-19.30345567008733
 10
7.096689993885549
 20
-19.30686631461773
 10
7.076381156000002
 20
-19.30938123432196
 10
7.076381156000002
 20
-19.30938123432196
 10
7.11193454140778
 20
-19.045211312513
 10
7.11193454140778
 20
-19.045211312513
 10
7.11193454140778
 20
-19.045211312513
 10
7.375277640300277
 20
-19.045211312513
 10
7.375277640300277
 20
-19.045211312513
 10
7.375277640300277
 20
-19.045211312513
 10
7.375277640300277
 20
-19.1078775993897
 10
7.375277640300277
 20
-19.1078775993897
 97
        0
 97
        0
 75
     2
 76
     1
 98
        0
450
        0
451
        0
460
0.0
461
0.0
452
        0
462
0.0
453
        0
470

  0
ENDBLK
  5
226
330
223
100
AcDbEntity
  8
0
100
AcDbBlockEnd
  0
BLOCK
  5
231
330
22F
100
AcDbEntity
  8
0
100
AcDbBlockBegin
  2
block 3
 70
     0
 10
0.0
 20
0.0
 30
0.0
  3
block 3
  1

  0
POLYLINE
  5
233
330
22F
100
AcDbEntity
  8
Livello 3
370
     0
100
AcDb2dPolyline
 66
     1
 10
0.0
 20
0.0
 30
0.0
  0
VERTEX
  5
234
330
233
100
AcDbEntity
  8
Livello 3
370
     0
100
AcDbVertex
100
AcDb2dVertex
 10
10.10289753979198
 20
-15.64032009157603
 30
0.0
  0
VERTEX
  5
235
330
233
100
AcDbEntity
  8
Livello 3
370
     0
100
AcDbVertex
100
AcDb2dVertex
 10
10.10289753979198
 20
-15.6420081883638
 30
0.0
  0
VERTEX
  5
236
330
233
100
AcDbEntity
  8
Livello 3
370
     0
100
AcDbVertex
100
AcDb2dVertex
 10
10.1545567465933
 20
-15.73767848998919
 30
0.0
  0
VERTEX
  5
237
330
233
100
AcDbEntity
  8
Livello 3
370
     0
100
AcDbVertex
100
AcDb2dVertex
 10
10.09781602395124
 20
-15.75207898911754
 30
0.0
  0
VERTEX
  5
238
330
233
100
AcDbEntity
  8
Livello 3
370
     0
100
AcDbVertex
100
AcDb2dVertex
 10
10.03346164028677
 20
-15.63184515668232
 30
0.0
  0
VERTEX
  5
239
330
233
100
AcDbEntity
  8
Livello 3
370
     0
100
AcDbVertex
100
AcDb2dVertex
 10
10.03346164028677
 20
-15.56835204688916
 30
0.0
  0
VERTEX
  5
23A
330
233
100
AcDbEntity
  8
Livello 3
370
     0
100
AcDbVertex
100
AcDb2dVertex
 10
10.58385009501029
 20
-15.56835204688916
 30
0.0
  0
VERTEX
  5
23B
330
233
100
AcDbEntity
  8
Livello 3
370
     0
100
AcDbVertex
100
AcDb2dVertex
 10
10.58385009501029
 20
-15.64032009157603
 30
0.0
  0
VERTEX
  5
23C
330
233
100
AcDbEntity
  8
Livello 3
370
     0
100
AcDbVertex
100
AcDb2dVertex
 10
10.10289753979198
 20
-15.64032009157603
 30
0.0
  0
SEQEND
  5
23D
330
233
100
AcDbEntity
  8
Livello 3
370
     0
  0
HATCH
  5
23E
330
22F
100
AcDbEntity
  8
Livello 3
 62
   250
420
  1842203
100
AcDbHatch
 10
0.0
 20
0.0
 30
0.0
210
0.0
220
0.0
230
1.0
  2
SOLID
 70
     1
 71
     0
 91
        1
 92
        1
 93
        8
 72
     1
 10
10.10289753979198
 20
-15.64032009157603
 11
10.10289753979198
 21
-15.6420081883638
 72
     1
 10
10.10289753979198
 20
-15.6420081883638
 11
10.1545567465933
 21
-15.73767848998919
 72
     1
 10
10.1545567465933
 20
-15.73767848998919
 11
10.09781602395124
 21
-15.75207898911754
 72
     1
 10
10.09781602395124
 20
-15.75207898911754
 11
10.03346164028677
 21
-15.63184515668232
 72
     1
 10
10.03346164028677
 20
-15.63184515668232
 11
10.03346164028677
 21
-15.56835204688916
 72
     1
 10
10.03346164028677
 20
-15.56835204688916
 11
10.58385009501029
 21
-15.56835204688916
 72
     1
 10
10.58385009501029
 20
-15.56835204688916
 11
10.58385009501029
 21
-15.64032009157603
 72
     1
 10
10.58385009501029
 20
-15.64032009157603
 11
10.10289753979198
 21
-15.64032009157603
 97
        0
 75
     2
 76
     1
 98
        0
450
        0
451
        0
460
0.0
461
0.0
452
        0
462
0.0
453
        0
470

  0
POLYLINE
  5
23F
330
22F
100
AcDbEntity
  8
Livello 3
370
     0
100
AcDb2dPolyline
 66
     1
 10
0.0
 20
0.0
 30
0.0
  0
VERTEX
  5
240
330
23F
100
AcDbEntity
  8
Livello 3
370
     0
100
AcDbVertex
100
AcDb2dVertex
 10
10.58385009501029
 20
-15.13740505263926
 30
0.0
  0
VERTEX
  5
241
330
23F
100
AcDbEntity
  8
Livello 3
370
     0
100
AcDbVertex
100
AcDb2dVertex
 10
10.43397121592449
 20
-15.13740505263926
 30
0.0
  0
VERTEX
  5
242
330
23F
100
AcDbEntity
  8
Livello 3
370
     0
100
AcDbVertex
100
AcDb2dVertex
 10
10.43397121592449
 20
-15.39313449050935
 30
0.0
  0
VERTEX
  5
243
330
23F
100
AcDbEntity
  8
Livello 3
370
     0
100
AcDbVertex
100
AcDb2dVertex
 10
10.38486137978226
 20
-15.39313449050935
 30
0.0
  0
VERTEX
  5
244
330
23F
100
AcDbEntity
  8
Livello 3
370
     0
100
AcDbVertex
100
AcDb2dVertex
 10
10.03346164028677
 20
-15.14756808432075
 30
0.0
  0
VERTEX
  5
245
330
23F
100
AcDbEntity
  8
Livello 3
370
     0
100
AcDbVertex
100
AcDb2dVertex
 10
10.03346164028677
 20
-15.06712510474016
 30
0.0
  0
VERTEX
  5
246
330
23F
100
AcDbEntity
  8
Livello 3
370
     0
100
AcDbVertex
100
AcDb2dVertex
 10
10.37555962197208
 20
-15.06712510474016
 30
0.0
  0
VERTEX
  5
247
330
23F
100
AcDbEntity
  8
Livello 3
370
     0
100
AcDbVertex
100
AcDb2dVertex
 10
10.37555962197208
 20
-14.99009276968998
 30
0.0
  0
VERTEX
  5
248
330
23F
100
AcDbEntity
  8
Livello 3
370
     0
100
AcDbVertex
100
AcDb2dVertex
 10
10.43397121592449
 20
-14.99009276968998
 30
0.0
  0
VERTEX
  5
249
330
23F
100
AcDbEntity
  8
Livello 3
370
     0
100
AcDbVertex
100
AcDb2dVertex
 10
10.43397121592449
 20
-15.06712510474016
 30
0.0
  0
VERTEX
  5
24A
330
23F
100
AcDbEntity
  8
Livello 3
370
     0
100
AcDbVertex
100
AcDb2dVertex
 10
10.58385009501029
 20
-15.06712510474016
 30
0.0
  0
VERTEX
  5
24B
330
23F
100
AcDbEntity
  8
Livello 3
370
     0
100
AcDbVertex
100
AcDb2dVertex
 10
10.58385009501029
 20
-15.13740505263926
 30
0.0
  0
SEQEND
  5
24C
330
23F
100
AcDbEntity
  8
Livello 3
370
     0
  0
SPLINE
  5
24D
330
22F
100
AcDbEntity
  8
Livello 3
370
     0
100
AcDbSpline
210
0.0
220
0.0
230
1.0
 70
    11
 71
     3
 72
    26
 73
    22
 74
     0
 42
0.000000001
 43
0.0000000001
 40
0.0
 40
0.0
 40
0.0
 40
0.0
 40
1.0
 40
1.0
 40
1.0
 40
2.0
 40
2.0
 40
2.0
 40
3.0
 40
3.0
 40
3.0
 40
4.0
 40
4.0
 40
4.0
 40
5.0
 40
5.0
 40
5.0
 40
6.0
 40
6.0
 40
6.0
 40
7.0
 40
7.0
 40
7.0
 40
7.0
 10
10.37555962197208
 20
-15.13740505263926
 30
0.0
 10
10.37555962197208
 20
-15.13740505263926
 30
0.0
 10
10.19181545426627
 20
-15.13740505263926
 30
0.0
 10
10.19181545426627
 20
-15.13740505263926
 30
0.0
 10
10.16301445600959
 20
-15.13740505263926
 30
0.0
 10
10.13423068323033
 20
-15.1365782297228
 30
0.0
 10
10.10544691045107
 20
-15.13485568198017
 30
0.0
 10
10.10544691045107
 20
-15.13485568198017
 30
0.0
 10
10.10544691045107
 20
-15.13740505263926
 30
0.0
 10
10.10544691045107
 20
-15.13740505263926
 30
0.0
 10
10.1376241022833
 20
-15.15435492242669
 30
0.0
 10
10.16132635922182
 20
-15.16789414768372
 30
0.0
 10
10.18673393842554
 20
-15.18315592068338
 30
0.0
 10
10.18673393842554
 20
-15.18315592068338
 30
0.0
 10
10.37385429970688
 20
-15.31779025224694
 30
0.0
 10
10.37385429970688
 20
-15.31779025224694
 30
0.0
 10
10.37385429970688
 20
-15.31779025224694
 30
0.0
 10
10.37555962197208
 20
-15.31779025224694
 30
0.0
 10
10.37555962197208
 20
-15.31779025224694
 30
0.0
 10
10.37555962197208
 20
-15.31779025224694
 30
0.0
 10
10.37555962197208
 20
-15.13740505263926
 30
0.0
 10
10.37555962197208
 20
-15.13740505263926
 30
0.0
  0
HATCH
  5
24E
330
22F
100
AcDbEntity
  8
Livello 3
 62
   250
420
  1842203
100
AcDbHatch
 10
0.0
 20
0.0
 30
0.0
210
0.0
220
0.0
230
1.0
  2
SOLID
 70
     1
 71
     0
 91
        2
 92
        1
 93
       11
 72
     1
 10
10.58385009501029
 20
-15.13740505263926
 11
10.43397121592449
 21
-15.13740505263926
 72
     1
 10
10.43397121592449
 20
-15.13740505263926
 11
10.43397121592449
 21
-15.39313449050935
 72
     1
 10
10.43397121592449
 20
-15.39313449050935
 11
10.38486137978226
 21
-15.39313449050935
 72
     1
 10
10.38486137978226
 20
-15.39313449050935
 11
10.03346164028677
 21
-15.14756808432075
 72
     1
 10
10.03346164028677
 20
-15.14756808432075
 11
10.03346164028677
 21
-15.06712510474016
 72
     1
 10
10.03346164028677
 20
-15.06712510474016
 11
10.37555962197208
 21
-15.06712510474016
 72
     1
 10
10.37555962197208
 20
-15.06712510474016
 11
10.37555962197208
 21
-14.99009276968998
 72
     1
 10
10.37555962197208
 20
-14.99009276968998
 11
10.43397121592449
 21
-14.99009276968998
 72
     1
 10
10.43397121592449
 20
-14.99009276968998
 11
10.43397121592449
 21
-15.06712510474016
 72
     1
 10
10.43397121592449
 20
-15.06712510474016
 11
10.58385009501029
 21
-15.06712510474016
 72
     1
 10
10.58385009501029
 20
-15.06712510474016
 11
10.58385009501029
 21
-15.13740505263926
 97
        0
 92
        1
 93
        1
 72
     4
 94
        3
 73
     0
 74
     0
 95
       26
 96
       22
 40
0.0
 40
0.0
 40
0.0
 40
0.0
 40
1.0
 40
1.0
 40
1.0
 40
2.0
 40
2.0
 40
2.0
 40
3.0
 40
3.0
 40
3.0
 40
4.0
 40
4.0
 40
4.0
 40
5.0
 40
5.0
 40
5.0
 40
6.0
 40
6.0
 40
6.0
 40
7.0
 40
7.0
 40
7.0
 40
7.0
 10
10.37555962197208
 20
-15.13740505263926
 10
10.37555962197208
 20
-15.13740505263926
 10
10.19181545426627
 20
-15.13740505263926
 10
10.19181545426627
 20
-15.13740505263926
 10
10.16301445600959
 20
-15.13740505263926
 10
10.13423068323033
 20
-15.1365782297228
 10
10.10544691045107
 20
-15.13485568198017
 10
10.10544691045107
 20
-15.13485568198017
 10
10.10544691045107
 20
-15.13740505263926
 10
10.10544691045107
 20
-15.13740505263926
 10
10.1376241022833
 20
-15.15435492242669
 10
10.16132635922182
 20
-15.16789414768372
 10
10.18673393842554
 20
-15.18315592068338
 10
10.18673393842554
 20
-15.18315592068338
 10
10.37385429970688
 20
-15.31779025224694
 10
10.37385429970688
 20
-15.31779025224694
 10
10.37385429970688
 20
-15.31779025224694
 10
10.37555962197208
 20
-15.31779025224694
 10
10.37555962197208
 20
-15.31779025224694
 10
10.37555962197208
 20
-15.31779025224694
 10
10.37555962197208
 20
-15.13740505263926
 10
10.37555962197208
 20
-15.13740505263926
 97
        0
 97
        0
 75
     2
 76
     1
 98
        0
450
        0
451
        0
460
0.0
461
0.0
452
        0
462
0.0
453
        0
470

  0
ENDBLK
  5
232
330
22F
100
AcDbEntity
  8
0
100
AcDbBlockEnd
  0
BLOCK
  5
251
330
24F
100
AcDbEntity
  8
0
100
AcDbBlockBegin
  2
block 4
 70
     0
 10
0.0
 20
0.0
 30
0.0
  3
block 4
  1

  0
SPLINE
  5
253
330
24F
100
AcDbEntity
  8
Livello 3
370
     0
100
AcDbSpline
210
0.0
220
0.0
230
1.0
 70
     9
 71
     3
 72
    41
 73
    37
 74
     0
 42
0.000000001
 43
0.0000000001
 40
0.0
 40
0.0
 40
0.0
 40
0.0
 40
1.0
 40
1.0
 40
1.0
 40
2.0
 40
2.0
 40
2.0
 40
3.0
 40
3.0
 40
3.0
 40
4.0
 40
4.0
 40
4.0
 40
5.0
 40
5.0
 40
5.0
 40
6.0
 40
6.0
 40
6.0
 40
7.0
 40
7.0
 40
7.0
 40
8.0
 40
8.0
 40
8.0
 40
9.0
 40
9.0
 40
9.0
 40
10.0
 40
10.0
 40
10.0
 40
11.0
 40
11.0
 40
11.0
 40
12.0
 40
12.0
 40
12.0
 40
12.0
 10
10.30124891235524
 20
-7.610422632646004
 30
0.0
 10
10.30295423462044
 20
-7.594334036729887
 30
0.0
 10
10.30124891235524
 20
-7.575713295632112
 30
0.0
 10
10.29871676717358
 20
-7.550305716428396
 30
0.0
 10
10.29279120293895
 20
-7.507121444520789
 30
0.0
 10
10.27499728475764
 20
-7.46646931779484
 30
0.0
 10
10.24536946358449
 20
-7.435153399833918
 30
0.0
 10
10.21234822335837
 20
-7.398738740554828
 30
0.0
 10
10.16408243561002
 20
-7.372487112957223
 30
0.0
 10
10.09888400355167
 20
-7.362324081275737
 30
0.0
 10
10.09888400355167
 20
-7.362324081275737
 30
0.0
 10
10.09888400355167
 20
-7.364873451934823
 30
0.0
 10
10.09888400355167
 20
-7.364873451934823
 30
0.0
 10
10.13614271122464
 20
-7.395345321501856
 30
0.0
 10
10.15815687137539
 20
-7.439373641803351
 30
0.0
 10
10.15815687137539
 20
-7.494426267657642
 30
0.0
 10
10.15815687137539
 20
-7.593489988336003
 30
0.0
 10
10.08363945602944
 20
-7.657000323606581
 30
0.0
 10
9.98965725119182
 20
-7.657000323606581
 30
0.0
 10
9.885512014672716
 20
-7.657000323606581
 30
0.0
 10
9.794061955016761
 20
-7.581638859866742
 30
0.0
 10
9.794061955016761
 20
-7.469018688453924
 30
0.0
 10
9.794061955016761
 20
-7.356398517041107
 30
0.0
 10
9.885512014672716
 20
-7.286962617535897
 30
0.0
 10
10.02607191047091
 20
-7.286962617535897
 30
0.0
 10
10.14714979130002
 20
-7.286962617535897
 30
0.0
 10
10.23183023832746
 20
-7.327614744261846
 30
0.0
 10
10.28431626804524
 20
-7.381806096244826
 30
0.0
 10
10.32581244316507
 20
-7.424146319758546
 30
0.0
 10
10.35122002236879
 20
-7.482557913710956
 30
0.0
 10
10.35798963499731
 20
-7.541830781534681
 30
0.0
 10
10.36222710244416
 20
-7.56892645752617
 30
0.0
 10
10.36307115083805
 20
-7.592645939942115
 30
0.0
 10
10.36222710244416
 20
-7.610422632646004
 30
0.0
 10
10.36222710244416
 20
-7.610422632646004
 30
0.0
 10
10.30124891235524
 20
-7.610422632646004
 30
0.0
 10
10.30124891235524
 20
-7.610422632646004
 30
0.0
  0
SPLINE
  5
254
330
24F
100
AcDbEntity
  8
Livello 3
370
     0
100
AcDbSpline
210
0.0
220
0.0
230
1.0
 70
     9
 71
     3
 72
    20
 73
    16
 74
     0
 42
0.000000001
 43
0.0000000001
 40
0.0
 40
0.0
 40
0.0
 40
0.0
 40
1.0
 40
1.0
 40
1.0
 40
2.0
 40
2.0
 40
2.0
 40
3.0
 40
3.0
 40
3.0
 40
4.0
 40
4.0
 40
4.0
 40
5.0
 40
5.0
 40
5.0
 40
5.0
 10
9.984575735351075
 20
-7.583326956654514
 30
0.0
 10
10.0531675864624
 20
-7.583326956654514
 30
0.0
 10
10.10141614873333
 20
-7.541830781534681
 30
0.0
 10
10.10141614873333
 20
-7.477476397870212
 30
0.0
 10
10.10141614873333
 20
-7.42752251333409
 30
0.0
 10
10.07686984340092
 20
-7.388575708873342
 30
0.0
 10
10.0438486031748
 20
-7.369093693904254
 30
0.0
 10
10.03707899054628
 20
-7.364873451934823
 30
0.0
 10
10.02860405565257
 20
-7.362324081275737
 30
0.0
 10
10.01675292718331
 20
-7.362324081275737
 30
0.0
 10
9.922753496868269
 20
-7.362324081275737
 30
0.0
 10
9.8507854521814
 20
-7.397050643767057
 30
0.0
 10
9.8507854521814
 20
-7.474944252688554
 30
0.0
 10
9.8507854521814
 20
-7.538454587959134
 30
0.0
 10
9.906682126429577
 20
-7.583326956654514
 30
0.0
 10
9.984575735351075
 20
-7.583326956654514
 30
0.0
  0
HATCH
  5
255
330
24F
100
AcDbEntity
  8
Livello 3
 62
   250
420
  1842203
100
AcDbHatch
 10
0.0
 20
0.0
 30
0.0
210
0.0
220
0.0
230
1.0
  2
SOLID
 70
     1
 71
     0
 91
        2
 92
        1
 93
        1
 72
     4
 94
        3
 73
     0
 74
     0
 95
       41
 96
       37
 40
0.0
 40
0.0
 40
0.0
 40
0.0
 40
1.0
 40
1.0
 40
1.0
 40
2.0
 40
2.0
 40
2.0
 40
3.0
 40
3.0
 40
3.0
 40
4.0
 40
4.0
 40
4.0
 40
5.0
 40
5.0
 40
5.0
 40
6.0
 40
6.0
 40
6.0
 40
7.0
 40
7.0
 40
7.0
 40
8.0
 40
8.0
 40
8.0
 40
9.0
 40
9.0
 40
9.0
 40
10.0
 40
10.0
 40
10.0
 40
11.0
 40
11.0
 40
11.0
 40
12.0
 40
12.0
 40
12.0
 40
12.0
 10
10.30124891235524
 20
-7.610422632646004
 10
10.30295423462044
 20
-7.594334036729887
 10
10.30124891235524
 20
-7.575713295632112
 10
10.29871676717358
 20
-7.550305716428396
 10
10.29279120293895
 20
-7.507121444520789
 10
10.27499728475764
 20
-7.46646931779484
 10
10.24536946358449
 20
-7.435153399833918
 10
10.21234822335837
 20
-7.398738740554828
 10
10.16408243561002
 20
-7.372487112957223
 10
10.09888400355167
 20
-7.362324081275737
 10
10.09888400355167
 20
-7.362324081275737
 10
10.09888400355167
 20
-7.364873451934823
 10
10.09888400355167
 20
-7.364873451934823
 10
10.13614271122464
 20
-7.395345321501856
 10
10.15815687137539
 20
-7.439373641803351
 10
10.15815687137539
 20
-7.494426267657642
 10
10.15815687137539
 20
-7.593489988336003
 10
10.08363945602944
 20
-7.657000323606581
 10
9.98965725119182
 20
-7.657000323606581
 10
9.885512014672716
 20
-7.657000323606581
 10
9.794061955016761
 20
-7.581638859866742
 10
9.794061955016761
 20
-7.469018688453924
 10
9.794061955016761
 20
-7.356398517041107
 10
9.885512014672716
 20
-7.286962617535897
 10
10.02607191047091
 20
-7.286962617535897
 10
10.14714979130002
 20
-7.286962617535897
 10
10.23183023832746
 20
-7.327614744261846
 10
10.28431626804524
 20
-7.381806096244826
 10
10.32581244316507
 20
-7.424146319758546
 10
10.35122002236879
 20
-7.482557913710956
 10
10.35798963499731
 20
-7.541830781534681
 10
10.36222710244416
 20
-7.56892645752617
 10
10.36307115083805
 20
-7.592645939942115
 10
10.36222710244416
 20
-7.610422632646004
 10
10.36222710244416
 20
-7.610422632646004
 10
10.30124891235524
 20
-7.610422632646004
 10
10.30124891235524
 20
-7.610422632646004
 97
        0
 97
        0
 92
        1
 93
        1
 72
     4
 94
        3
 73
     0
 74
     0
 95
       20
 96
       16
 40
0.0
 40
0.0
 40
0.0
 40
0.0
 40
1.0
 40
1.0
 40
1.0
 40
2.0
 40
2.0
 40
2.0
 40
3.0
 40
3.0
 40
3.0
 40
4.0
 40
4.0
 40
4.0
 40
5.0
 40
5.0
 40
5.0
 40
5.0
 10
9.984575735351075
 20
-7.583326956654514
 10
10.0531675864624
 20
-7.583326956654514
 10
10.10141614873333
 20
-7.541830781534681
 10
10.10141614873333
 20
-7.477476397870212
 10
10.10141614873333
 20
-7.42752251333409
 10
10.07686984340092
 20
-7.388575708873342
 10
10.0438486031748
 20
-7.369093693904254
 10
10.03707899054628
 20
-7.364873451934823
 10
10.02860405565257
 20
-7.362324081275737
 10
10.01675292718331
 20
-7.362324081275737
 10
9.922753496868269
 20
-7.362324081275737
 10
9.8507854521814
 20
-7.397050643767057
 10
9.8507854521814
 20
-7.474944252688554
 10
9.8507854521814
 20
-7.538454587959134
 10
9.906682126429577
 20
-7.583326956654514
 10
9.984575735351075
 20
-7.583326956654514
 97
        0
 97
        0
 75
     2
 76
     1
 98
        0
450
        0
451
        0
460
0.0
461
0.0
452
        0
462
0.0
453
        0
470

  0
ENDBLK
  5
252
330
24F
100
AcDbEntity
  8
0
100
AcDbBlockEnd
  0
BLOCK
  5
258
330
256
100
AcDbEntity
  8
0
100
AcDbBlockBegin
  2
block 5
 70
     0
 10
0.0
 20
0.0
 30
0.0
  3
block 5
  1

  0
POLYLINE
  5
25A
330
256
100
AcDbEntity
  8
Livello 3
370
     0
100
AcDb2dPolyline
 66
     1
 10
0.0
 20
0.0
 30
0.0
  0
VERTEX
  5
25B
330
25A
100
AcDbEntity
  8
Livello 3
370
     0
100
AcDbVertex
100
AcDb2dVertex
 10
17.17135497617591
 20
-19.11149494964921
 30
0.0
  0
VERTEX
  5
25C
330
25A
100
AcDbEntity
  8
Livello 3
370
     0
100
AcDbVertex
100
AcDb2dVertex
 10
17.16966687938814
 20
-19.11149494964921
 30
0.0
  0
VERTEX
  5
25D
330
25A
100
AcDbEntity
  8
Livello 3
370
     0
100
AcDbVertex
100
AcDb2dVertex
 10
17.0739621268079
 20
-19.16317138192796
 30
0.0
  0
VERTEX
  5
25E
330
25A
100
AcDbEntity
  8
Livello 3
370
     0
100
AcDbVertex
100
AcDb2dVertex
 10
17.05956162767955
 20
-19.10643065928589
 30
0.0
  0
VERTEX
  5
25F
330
25A
100
AcDbEntity
  8
Livello 3
370
     0
100
AcDbVertex
100
AcDb2dVertex
 10
17.17979546011477
 20
-19.04207627562142
 30
0.0
  0
VERTEX
  5
260
330
25A
100
AcDbEntity
  8
Livello 3
370
     0
100
AcDbVertex
100
AcDb2dVertex
 10
17.24332302086278
 20
-19.04207627562142
 30
0.0
  0
VERTEX
  5
261
330
25A
100
AcDbEntity
  8
Livello 3
370
     0
100
AcDbVertex
100
AcDb2dVertex
 10
17.24332302086278
 20
-19.59246473034494
 30
0.0
  0
VERTEX
  5
262
330
25A
100
AcDbEntity
  8
Livello 3
370
     0
100
AcDbVertex
100
AcDb2dVertex
 10
17.17135497617591
 20
-19.59246473034494
 30
0.0
  0
VERTEX
  5
263
330
25A
100
AcDbEntity
  8
Livello 3
370
     0
100
AcDbVertex
100
AcDb2dVertex
 10
17.17135497617591
 20
-19.11149494964921
 30
0.0
  0
SEQEND
  5
264
330
25A
100
AcDbEntity
  8
Livello 3
370
     0
  0
HATCH
  5
265
330
256
100
AcDbEntity
  8
Livello 3
 62
   250
420
  1842203
100
AcDbHatch
 10
0.0
 20
0.0
 30
0.0
210
0.0
220
0.0
230
1.0
  2
SOLID
 70
     1
 71
     0
 91
        1
 92
        1
 93
        8
 72
     1
 10
17.17135497617591
 20
-19.11149494964921
 11
17.16966687938814
 21
-19.11149494964921
 72
     1
 10
17.16966687938814
 20
-19.11149494964921
 11
17.0739621268079
 21
-19.16317138192796
 72
     1
 10
17.0739621268079
 20
-19.16317138192796
 11
17.05956162767955
 21
-19.10643065928589
 72
     1
 10
17.05956162767955
 20
-19.10643065928589
 11
17.17979546011477
 21
-19.04207627562142
 72
     1
 10
17.17979546011477
 20
-19.04207627562142
 11
17.24332302086278
 21
-19.04207627562142
 72
     1
 10
17.24332302086278
 20
-19.04207627562142
 11
17.24332302086278
 21
-19.59246473034494
 72
     1
 10
17.24332302086278
 20
-19.59246473034494
 11
17.17135497617591
 21
-19.59246473034494
 72
     1
 10
17.17135497617591
 20
-19.59246473034494
 11
17.17135497617591
 21
-19.11149494964921
 97
        0
 75
     2
 76
     1
 98
        0
450
        0
451
        0
460
0.0
461
0.0
452
        0
462
0.0
453
        0
470

  0
POLYLINE
  5
266
330
256
100
AcDbEntity
  8
Livello 3
370
     0
100
AcDb2dPolyline
 66
     1
 10
0.0
 20
0.0
 30
0.0
  0
VERTEX
  5
267
330
266
100
AcDbEntity
  8
Livello 3
370
     0
100
AcDbVertex
100
AcDb2dVertex
 10
17.67427001511268
 20
-19.59246473034494
 30
0.0
  0
VERTEX
  5
268
330
266
100
AcDbEntity
  8
Livello 3
370
     0
100
AcDbVertex
100
AcDb2dVertex
 10
17.67427001511268
 20
-19.44256862578172
 30
0.0
  0
VERTEX
  5
269
330
266
100
AcDbEntity
  8
Livello 3
370
     0
100
AcDbVertex
100
AcDb2dVertex
 10
17.41854057724258
 20
-19.44256862578172
 30
0.0
  0
VERTEX
  5
26A
330
266
100
AcDbEntity
  8
Livello 3
370
     0
100
AcDbVertex
100
AcDb2dVertex
 10
17.41854057724258
 20
-19.39347601511691
 30
0.0
  0
VERTEX
  5
26B
330
266
100
AcDbEntity
  8
Livello 3
370
     0
100
AcDbVertex
100
AcDb2dVertex
 10
17.66410698343119
 20
-19.04207627562142
 30
0.0
  0
VERTEX
  5
26C
330
266
100
AcDbEntity
  8
Livello 3
370
     0
100
AcDbVertex
100
AcDb2dVertex
 10
17.74454996301178
 20
-19.04207627562142
 30
0.0
  0
VERTEX
  5
26D
330
266
100
AcDbEntity
  8
Livello 3
370
     0
100
AcDbVertex
100
AcDb2dVertex
 10
17.74454996301178
 20
-19.38417425730673
 30
0.0
  0
VERTEX
  5
26E
330
266
100
AcDbEntity
  8
Livello 3
370
     0
100
AcDbVertex
100
AcDb2dVertex
 10
17.82158229806197
 20
-19.38417425730673
 30
0.0
  0
VERTEX
  5
26F
330
266
100
AcDbEntity
  8
Livello 3
370
     0
100
AcDbVertex
100
AcDb2dVertex
 10
17.82158229806197
 20
-19.44256862578172
 30
0.0
  0
VERTEX
  5
270
330
266
100
AcDbEntity
  8
Livello 3
370
     0
100
AcDbVertex
100
AcDb2dVertex
 10
17.74454996301178
 20
-19.44256862578172
 30
0.0
  0
VERTEX
  5
271
330
266
100
AcDbEntity
  8
Livello 3
370
     0
100
AcDbVertex
100
AcDb2dVertex
 10
17.74454996301178
 20
-19.59246473034494
 30
0.0
  0
VERTEX
  5
272
330
266
100
AcDbEntity
  8
Livello 3
370
     0
100
AcDbVertex
100
AcDb2dVertex
 10
17.67427001511268
 20
-19.59246473034494
 30
0.0
  0
SEQEND
  5
273
330
266
100
AcDbEntity
  8
Livello 3
370
     0
  0
SPLINE
  5
274
330
256
100
AcDbEntity
  8
Livello 3
370
     0
100
AcDbSpline
210
0.0
220
0.0
230
1.0
 70
    11
 71
     3
 72
    26
 73
    22
 74
     0
 42
0.000000001
 43
0.0000000001
 40
0.0
 40
0.0
 40
0.0
 40
0.0
 40
1.0
 40
1.0
 40
1.0
 40
2.0
 40
2.0
 40
2.0
 40
3.0
 40
3.0
 40
3.0
 40
4.0
 40
4.0
 40
4.0
 40
5.0
 40
5.0
 40
5.0
 40
6.0
 40
6.0
 40
6.0
 40
7.0
 40
7.0
 40
7.0
 40
7.0
 10
17.67427001511268
 20
-19.38417425730673
 30
0.0
 10
17.67427001511268
 20
-19.38417425730673
 30
0.0
 10
17.67427001511268
 20
-19.20041286412351
 30
0.0
 10
17.67427001511268
 20
-19.20041286412351
 30
0.0
 10
17.67427001511268
 20
-19.17161186586682
 30
0.0
 10
17.67509683802914
 20
-19.14284531856498
 30
0.0
 10
17.67678493481692
 20
-19.11404432030829
 30
0.0
 10
17.67678493481692
 20
-19.11404432030829
 30
0.0
 10
17.67427001511268
 20
-19.11404432030829
 30
0.0
 10
17.67427001511268
 20
-19.11404432030829
 30
0.0
 10
17.65732014532525
 20
-19.14622151214053
 30
0.0
 10
17.64378092006822
 20
-19.16992376907904
 30
0.0
 10
17.62851914706856
 20
-19.19534857376019
 30
0.0
 10
17.62851914706856
 20
-19.19534857376019
 30
0.0
 10
17.493884815505
 20
-19.38245170956411
 30
0.0
 10
17.493884815505
 20
-19.38245170956411
 30
0.0
 10
17.493884815505
 20
-19.38245170956411
 30
0.0
 10
17.493884815505
 20
-19.38417425730673
 30
0.0
 10
17.493884815505
 20
-19.38417425730673
 30
0.0
 10
17.493884815505
 20
-19.38417425730673
 30
0.0
 10
17.67427001511268
 20
-19.38417425730673
 30
0.0
 10
17.67427001511268
 20
-19.38417425730673
 30
0.0
  0
HATCH
  5
275
330
256
100
AcDbEntity
  8
Livello 3
 62
   250
420
  1842203
100
AcDbHatch
 10
0.0
 20
0.0
 30
0.0
210
0.0
220
0.0
230
1.0
  2
SOLID
 70
     1
 71
     0
 91
        2
 92
        1
 93
       11
 72
     1
 10
17.67427001511268
 20
-19.59246473034494
 11
17.67427001511268
 21
-19.44256862578172
 72
     1
 10
17.67427001511268
 20
-19.44256862578172
 11
17.41854057724258
 21
-19.44256862578172
 72
     1
 10
17.41854057724258
 20
-19.44256862578172
 11
17.41854057724258
 21
-19.39347601511691
 72
     1
 10
17.41854057724258
 20
-19.39347601511691
 11
17.66410698343119
 21
-19.04207627562142
 72
     1
 10
17.66410698343119
 20
-19.04207627562142
 11
17.74454996301178
 21
-19.04207627562142
 72
     1
 10
17.74454996301178
 20
-19.04207627562142
 11
17.74454996301178
 21
-19.38417425730673
 72
     1
 10
17.74454996301178
 20
-19.38417425730673
 11
17.82158229806197
 21
-19.38417425730673
 72
     1
 10
17.82158229806197
 20
-19.38417425730673
 11
17.82158229806197
 21
-19.44256862578172
 72
     1
 10
17.82158229806197
 20
-19.44256862578172
 11
17.74454996301178
 21
-19.44256862578172
 72
     1
 10
17.74454996301178
 20
-19.44256862578172
 11
17.74454996301178
 21
-19.59246473034494
 72
     1
 10
17.74454996301178
 20
-19.59246473034494
 11
17.67427001511268
 21
-19.59246473034494
 97
        0
 92
        1
 93
        1
 72
     4
 94
        3
 73
     0
 74
     0
 95
       26
 96
       22
 40
0.0
 40
0.0
 40
0.0
 40
0.0
 40
1.0
 40
1.0
 40
1.0
 40
2.0
 40
2.0
 40
2.0
 40
3.0
 40
3.0
 40
3.0
 40
4.0
 40
4.0
 40
4.0
 40
5.0
 40
5.0
 40
5.0
 40
6.0
 40
6.0
 40
6.0
 40
7.0
 40
7.0
 40
7.0
 40
7.0
 10
17.67427001511268
 20
-19.38417425730673
 10
17.67427001511268
 20
-19.38417425730673
 10
17.67427001511268
 20
-19.20041286412351
 10
17.67427001511268
 20
-19.20041286412351
 10
17.67427001511268
 20
-19.17161186586682
 10
17.67509683802914
 20
-19.14284531856498
 10
17.67678493481692
 20
-19.11404432030829
 10
17.67678493481692
 20
-19.11404432030829
 10
17.67427001511268
 20
-19.11404432030829
 10
17.67427001511268
 20
-19.11404432030829
 10
17.65732014532525
 20
-19.14622151214053
 10
17.64378092006822
 20
-19.16992376907904
 10
17.62851914706856
 20
-19.19534857376019
 10
17.62851914706856
 20
-19.19534857376019
 10
17.493884815505
 20
-19.38245170956411
 10
17.493884815505
 20
-19.38245170956411
 10
17.493884815505
 20
-19.38245170956411
 10
17.493884815505
 20
-19.38417425730673
 10
17.493884815505
 20
-19.38417425730673
 10
17.493884815505
 20
-19.38417425730673
 10
17.67427001511268
 20
-19.38417425730673
 10
17.67427001511268
 20
-19.38417425730673
 97
        0
 97
        0
 75
     2
 76
     1
 98
        0
450
        0
451
        0
460
0.0
461
0.0
452
        0
462
0.0
453
        0
470

  0
SPLINE
  5
276
330
256
100
AcDbEntity
  8
Livello 3
370
     0
100
AcDbSpline
210
0.0
220
0.0
230
1.0
 70
     9
 71
     3
 72
    17
 73
    13
 74
     0
 42
0.000000001
 43
0.0000000001
 40
0.0
 40
0.0
 40
0.0
 40
0.0
 40
1.0
 40
1.0
 40
1.0
 40
2.0
 40
2.0
 40
2.0
 40
3.0
 40
3.0
 40
3.0
 40
4.0
 40
4.0
 40
4.0
 40
4.0
 10
17.85372503893934
 20
-19.69660996686403
 30
0.0
 10
17.87232855455969
 20
-19.64665608232792
 30
0.0
 10
17.89520398858175
 20
-19.55605007106585
 30
0.0
 10
17.90450574639193
 20
-19.49424505806046
 30
0.0
 10
17.90450574639193
 20
-19.49424505806046
 30
0.0
 10
17.9874980966316
 20
-19.48577012316675
 30
0.0
 10
17.9874980966316
 20
-19.48577012316675
 30
0.0
 10
17.96803330713993
 20
-19.55773816785362
 30
0.0
 10
17.93075737398953
 20
-19.65172037269123
 30
0.0
 10
17.90705511705101
 20
-19.69151122554587
 30
0.0
 10
17.90705511705101
 20
-19.69151122554587
 30
0.0
 10
17.85372503893934
 20
-19.69660996686403
 30
0.0
 10
17.85372503893934
 20
-19.69660996686403
 30
0.0
  0
HATCH
  5
277
330
256
100
AcDbEntity
  8
Livello 3
 62
   250
420
  1842203
100
AcDbHatch
 10
0.0
 20
0.0
 30
0.0
210
0.0
220
0.0
230
1.0
  2
SOLID
 70
     1
 71
     0
 91
        1
 92
        1
 93
        1
 72
     4
 94
        3
 73
     0
 74
     0
 95
       17
 96
       13
 40
0.0
 40
0.0
 40
0.0
 40
0.0
 40
1.0
 40
1.0
 40
1.0
 40
2.0
 40
2.0
 40
2.0
 40
3.0
 40
3.0
 40
3.0
 40
4.0
 40
4.0
 40
4.0
 40
4.0
 10
17.85372503893934
 20
-19.69660996686403
 10
17.87232855455969
 20
-19.64665608232792
 10
17.89520398858175
 20
-19.55605007106585
 10
17.90450574639193
 20
-19.49424505806046
 10
17.90450574639193
 20
-19.49424505806046
 10
17.9874980966316
 20
-19.48577012316675
 10
17.9874980966316
 20
-19.48577012316675
 10
17.96803330713993
 20
-19.55773816785362
 10
17.93075737398953
 20
-19.65172037269123
 10
17.90705511705101
 20
-19.69151122554587
 10
17.90705511705101
 20
-19.69151122554587
 10
17.85372503893934
 20
-19.69660996686403
 10
17.85372503893934
 20
-19.69660996686403
 97
        0
 97
        0
 75
     2
 76
     1
 98
        0
450
        0
451
        0
460
0.0
461
0.0
452
        0
462
0.0
453
        0
470

  0
SPLINE
  5
278
330
256
100
AcDbEntity
  8
Livello 3
370
     0
100
AcDbSpline
210
0.0
220
0.0
230
1.0
 70
    11
 71
     3
 72
    50
 73
    46
 74
     0
 42
0.000000001
 43
0.0000000001
 40
0.0
 40
0.0
 40
0.0
 40
0.0
 40
1.0
 40
1.0
 40
1.0
 40
2.0
 40
2.0
 40
2.0
 40
3.0
 40
3.0
 40
3.0
 40
4.0
 40
4.0
 40
4.0
 40
5.0
 40
5.0
 40
5.0
 40
6.0
 40
6.0
 40
6.0
 40
7.0
 40
7.0
 40
7.0
 40
8.0
 40
8.0
 40
8.0
 40
9.0
 40
9.0
 40
9.0
 40
10.0
 40
10.0
 40
10.0
 40
11.0
 40
11.0
 40
11.0
 40
12.0
 40
12.0
 40
12.0
 40
13.0
 40
13.0
 40
13.0
 40
14.0
 40
14.0
 40
14.0
 40
15.0
 40
15.0
 40
15.0
 40
15.0
 10
18.38206488255726
 20
-19.10474256249812
 30
0.0
 10
18.38206488255726
 20
-19.10474256249812
 30
0.0
 10
18.17205186177643
 20
-19.10474256249812
 30
0.0
 10
18.17205186177643
 20
-19.10474256249812
 30
0.0
 10
18.17205186177643
 20
-19.10474256249812
 30
0.0
 10
18.150898975497
 20
-19.24612928121277
 30
0.0
 10
18.150898975497
 20
-19.24612928121277
 30
0.0
 10
18.16357692688272
 20
-19.244441184425
 30
0.0
 10
18.17546250630682
 20
-19.24275308763723
 30
0.0
 10
18.19575411871495
 20
-19.24275308763723
 30
0.0
 10
18.23809434222867
 20
-19.24275308763723
 30
0.0
 10
18.28043456574239
 20
-19.2520548454474
 30
0.0
 10
18.3142998543624
 20
-19.27238090881038
 30
0.0
 10
18.35750135174743
 20
-19.29694443962021
 30
0.0
 10
18.39305473715521
 20
-19.34434895349725
 30
0.0
 10
18.39305473715521
 20
-19.41380207847988
 30
0.0
 10
18.39305473715521
 20
-19.52132350857453
 30
0.0
 10
18.30754746721131
 20
-19.60176648815511
 30
0.0
 10
18.18814045769255
 20
-19.60176648815511
 30
0.0
 10
18.12802354147494
 20
-19.60176648815511
 30
0.0
 10
18.0772083830675
 20
-19.58485106932254
 30
0.0
 10
18.05099120642475
 20
-19.56790119953511
 30
0.0
 10
18.05099120642475
 20
-19.56790119953511
 30
0.0
 10
18.0695947220451
 20
-19.51116047689304
 30
0.0
 10
18.0695947220451
 20
-19.51116047689304
 30
0.0
 10
18.09247015606716
 20
-19.52473415310493
 30
0.0
 10
18.13735975023996
 20
-19.5416495719375
 30
0.0
 10
18.18731363477609
 20
-19.5416495719375
 30
0.0
 10
18.25759358267518
 20
-19.5416495719375
 30
0.0
 10
18.31771049889279
 20
-19.49593315484824
 30
0.0
 10
18.31771049889279
 20
-19.42227701337358
 30
0.0
 10
18.31684922502148
 20
-19.35113579160319
 30
0.0
 10
18.26944471114444
 20
-19.30032063319575
 30
0.0
 10
18.15937391039071
 20
-19.30032063319575
 30
0.0
 10
18.12802354147494
 20
-19.30032063319575
 30
0.0
 10
18.10346001066511
 20
-19.30373127772615
 30
0.0
 10
18.08316839825698
 20
-19.30624619743038
 30
0.0
 10
18.08316839825698
 20
-19.30624619743038
 30
0.0
 10
18.11872178366476
 20
-19.04207627562142
 30
0.0
 10
18.11872178366476
 20
-19.04207627562142
 30
0.0
 10
18.11872178366476
 20
-19.04207627562142
 30
0.0
 10
18.38206488255726
 20
-19.04207627562142
 30
0.0
 10
18.38206488255726
 20
-19.04207627562142
 30
0.0
 10
18.38206488255726
 20
-19.04207627562142
 30
0.0
 10
18.38206488255726
 20
-19.10474256249812
 30
0.0
 10
18.38206488255726
 20
-19.10474256249812
 30
0.0
  0
HATCH
  5
279
330
256
100
AcDbEntity
  8
Livello 3
 62
   250
420
  1842203
100
AcDbHatch
 10
0.0
 20
0.0
 30
0.0
210
0.0
220
0.0
230
1.0
  2
SOLID
 70
     1
 71
     0
 91
        1
 92
        1
 93
        1
 72
     4
 94
        3
 73
     0
 74
     0
 95
       50
 96
       46
 40
0.0
 40
0.0
 40
0.0
 40
0.0
 40
1.0
 40
1.0
 40
1.0
 40
2.0
 40
2.0
 40
2.0
 40
3.0
 40
3.0
 40
3.0
 40
4.0
 40
4.0
 40
4.0
 40
5.0
 40
5.0
 40
5.0
 40
6.0
 40
6.0
 40
6.0
 40
7.0
 40
7.0
 40
7.0
 40
8.0
 40
8.0
 40
8.0
 40
9.0
 40
9.0
 40
9.0
 40
10.0
 40
10.0
 40
10.0
 40
11.0
 40
11.0
 40
11.0
 40
12.0
 40
12.0
 40
12.0
 40
13.0
 40
13.0
 40
13.0
 40
14.0
 40
14.0
 40
14.0
 40
15.0
 40
15.0
 40
15.0
 40
15.0
 10
18.38206488255726
 20
-19.10474256249812
 10
18.38206488255726
 20
-19.10474256249812
 10
18.17205186177643
 20
-19.10474256249812
 10
18.17205186177643
 20
-19.10474256249812
 10
18.17205186177643
 20
-19.10474256249812
 10
18.150898975497
 20
-19.24612928121277
 10
18.150898975497
 20
-19.24612928121277
 10
18.16357692688272
 20
-19.244441184425
 10
18.17546250630682
 20
-19.24275308763723
 10
18.19575411871495
 20
-19.24275308763723
 10
18.23809434222867
 20
-19.24275308763723
 10
18.28043456574239
 20
-19.2520548454474
 10
18.3142998543624
 20
-19.27238090881038
 10
18.35750135174743
 20
-19.29694443962021
 10
18.39305473715521
 20
-19.34434895349725
 10
18.39305473715521
 20
-19.41380207847988
 10
18.39305473715521
 20
-19.52132350857453
 10
18.30754746721131
 20
-19.60176648815511
 10
18.18814045769255
 20
-19.60176648815511
 10
18.12802354147494
 20
-19.60176648815511
 10
18.0772083830675
 20
-19.58485106932254
 10
18.05099120642475
 20
-19.56790119953511
 10
18.05099120642475
 20
-19.56790119953511
 10
18.0695947220451
 20
-19.51116047689304
 10
18.0695947220451
 20
-19.51116047689304
 10
18.09247015606716
 20
-19.52473415310493
 10
18.13735975023996
 20
-19.5416495719375
 10
18.18731363477609
 20
-19.5416495719375
 10
18.25759358267518
 20
-19.5416495719375
 10
18.31771049889279
 20
-19.49593315484824
 10
18.31771049889279
 20
-19.42227701337358
 10
18.31684922502148
 20
-19.35113579160319
 10
18.26944471114444
 20
-19.30032063319575
 10
18.15937391039071
 20
-19.30032063319575
 10
18.12802354147494
 20
-19.30032063319575
 10
18.10346001066511
 20
-19.30373127772615
 10
18.08316839825698
 20
-19.30624619743038
 10
18.08316839825698
 20
-19.30624619743038
 10
18.11872178366476
 20
-19.04207627562142
 10
18.11872178366476
 20
-19.04207627562142
 10
18.11872178366476
 20
-19.04207627562142
 10
18.38206488255726
 20
-19.04207627562142
 10
18.38206488255726
 20
-19.04207627562142
 10
18.38206488255726
 20
-19.04207627562142
 10
18.38206488255726
 20
-19.10474256249812
 10
18.38206488255726
 20
-19.10474256249812
 97
        0
 97
        0
 75
     2
 76
     1
 98
        0
450
        0
451
        0
460
0.0
461
0.0
452
        0
462
0.0
453
        0
470

  0
ENDBLK
  5
259
330
256
100
AcDbEntity
  8
0
100
AcDbBlockEnd
  0
BLOCK
  5
27C
330
27A
100
AcDbEntity
  8
0
100
AcDbBlockBegin
  2
block 6
 70
     0
 10
0.0
 20
0.0
 30
0.0
  3
block 6
  1

  0
POLYLINE
  5
27E
330
27A
100
AcDbEntity
  8
Livello 3
370
     0
100
AcDb2dPolyline
 66
     1
 10
0.0
 20
0.0
 30
0.0
  0
VERTEX
  5
27F
330
27E
100
AcDbEntity
  8
Livello 3
370
     0
100
AcDbVertex
100
AcDb2dVertex
 10
21.6162516222001
 20
-15.41270263286557
 30
0.0
  0
VERTEX
  5
280
330
27E
100
AcDbEntity
  8
Livello 3
370
     0
100
AcDbVertex
100
AcDb2dVertex
 10
21.6162516222001
 20
-15.41439072965334
 30
0.0
  0
VERTEX
  5
281
330
27E
100
AcDbEntity
  8
Livello 3
370
     0
100
AcDbVertex
100
AcDb2dVertex
 10
21.667893603524
 20
-15.51009548223358
 30
0.0
  0
VERTEX
  5
282
330
27E
100
AcDbEntity
  8
Livello 3
370
     0
100
AcDbVertex
100
AcDb2dVertex
 10
21.61115288088193
 20
-15.52449598136193
 30
0.0
  0
VERTEX
  5
283
330
27E
100
AcDbEntity
  8
Livello 3
370
     0
100
AcDbVertex
100
AcDb2dVertex
 10
21.54679849721747
 20
-15.40426214892671
 30
0.0
  0
VERTEX
  5
284
330
27E
100
AcDbEntity
  8
Livello 3
370
     0
100
AcDbVertex
100
AcDb2dVertex
 10
21.54679849721747
 20
-15.3407345881787
 30
0.0
  0
VERTEX
  5
285
330
27E
100
AcDbEntity
  8
Livello 3
370
     0
100
AcDbVertex
100
AcDb2dVertex
 10
22.09718695194098
 20
-15.3407345881787
 30
0.0
  0
VERTEX
  5
286
330
27E
100
AcDbEntity
  8
Livello 3
370
     0
100
AcDbVertex
100
AcDb2dVertex
 10
22.09718695194098
 20
-15.41270263286557
 30
0.0
  0
VERTEX
  5
287
330
27E
100
AcDbEntity
  8
Livello 3
370
     0
100
AcDbVertex
100
AcDb2dVertex
 10
21.6162516222001
 20
-15.41270263286557
 30
0.0
  0
SEQEND
  5
288
330
27E
100
AcDbEntity
  8
Livello 3
370
     0
  0
HATCH
  5
289
330
27A
100
AcDbEntity
  8
Livello 3
 62
   250
420
  1842203
100
AcDbHatch
 10
0.0
 20
0.0
 30
0.0
210
0.0
220
0.0
230
1.0
  2
SOLID
 70
     1
 71
     0
 91
        1
 92
        1
 93
        8
 72
     1
 10
21.6162516222001
 20
-15.41270263286557
 11
21.6162516222001
 21
-15.41439072965334
 72
     1
 10
21.6162516222001
 20
-15.41439072965334
 11
21.667893603524
 21
-15.51009548223358
 72
     1
 10
21.667893603524
 20
-15.51009548223358
 11
21.61115288088193
 21
-15.52449598136193
 72
     1
 10
21.61115288088193
 20
-15.52449598136193
 11
21.54679849721747
 21
-15.40426214892671
 72
     1
 10
21.54679849721747
 20
-15.40426214892671
 11
21.54679849721747
 21
-15.3407345881787
 72
     1
 10
21.54679849721747
 20
-15.3407345881787
 11
22.09718695194098
 21
-15.3407345881787
 72
     1
 10
22.09718695194098
 20
-15.3407345881787
 11
22.09718695194098
 21
-15.41270263286557
 72
     1
 10
22.09718695194098
 20
-15.41270263286557
 11
21.6162516222001
 21
-15.41270263286557
 97
        0
 75
     2
 76
     1
 98
        0
450
        0
451
        0
460
0.0
461
0.0
452
        0
462
0.0
453
        0
470

  0
SPLINE
  5
28A
330
27A
100
AcDbEntity
  8
Livello 3
370
     0
100
AcDbSpline
210
0.0
220
0.0
230
1.0
 70
    11
 71
     3
 72
    47
 73
    43
 74
     0
 42
0.000000001
 43
0.0000000001
 40
0.0
 40
0.0
 40
0.0
 40
0.0
 40
1.0
 40
1.0
 40
1.0
 40
2.0
 40
2.0
 40
2.0
 40
3.0
 40
3.0
 40
3.0
 40
4.0
 40
4.0
 40
4.0
 40
5.0
 40
5.0
 40
5.0
 40
6.0
 40
6.0
 40
6.0
 40
7.0
 40
7.0
 40
7.0
 40
8.0
 40
8.0
 40
8.0
 40
9.0
 40
9.0
 40
9.0
 40
10.0
 40
10.0
 40
10.0
 40
11.0
 40
11.0
 40
11.0
 40
12.0
 40
12.0
 40
12.0
 40
13.0
 40
13.0
 40
13.0
 40
14.0
 40
14.0
 40
14.0
 40
14.0
 10
22.09718695194098
 20
-15.14009222711775
 30
0.0
 10
22.09718695194098
 20
-15.14009222711775
 30
0.0
 10
22.05147053485172
 20
-15.14009222711775
 30
0.0
 10
22.05147053485172
 20
-15.14009222711775
 30
0.0
 10
22.05147053485172
 20
-15.14009222711775
 30
0.0
 10
21.99472981220965
 20
-15.08166340768792
 30
0.0
 10
21.99472981220965
 20
-15.08166340768792
 30
0.0
 10
21.8609567545174
 20
-14.94110351188972
 30
0.0
 10
21.78981553274699
 20
-14.87764485305142
 30
0.0
 10
21.70685763346217
 20
-14.87674912822526
 30
0.0
 10
21.65097818469142
 20
-14.87674912822526
 30
0.0
 10
21.59930175241267
 20
-14.90386202969417
 30
0.0
 10
21.59930175241267
 20
-14.98602755701738
 30
0.0
 10
21.59930175241267
 20
-15.0359814415535
 30
0.0
 10
21.62472655709382
 20
-15.07746039119591
 30
0.0
 10
21.64587944337325
 20
-15.1028507449222
 30
0.0
 10
21.64587944337325
 20
-15.1028507449222
 30
0.0
 10
21.59337618817804
 20
-15.12655300186072
 30
0.0
 10
21.59337618817804
 20
-15.12655300186072
 30
0.0
 10
21.56119899634581
 20
-15.08845024579386
 30
0.0
 10
21.53749673940729
 20
-15.03425889381088
 30
0.0
 10
21.53749673940729
 20
-14.97076578401772
 30
0.0
 10
21.53749673940729
 20
-14.85222004837028
 30
0.0
 10
21.61880099285919
 20
-14.80226616383415
 30
0.0
 10
21.69752142469715
 20
-14.80226616383415
 30
0.0
 10
21.79915174151202
 20
-14.80226616383415
 30
0.0
 10
21.88128281788037
 20
-14.8759223053088
 30
0.0
 10
21.99304171542188
 20
-14.99195312125201
 30
0.0
 10
21.99304171542188
 20
-14.99195312125201
 30
0.0
 10
22.03369384214783
 20
-15.0359814415535
 30
0.0
 10
22.03369384214783
 20
-15.0359814415535
 30
0.0
 10
22.03369384214783
 20
-15.0359814415535
 30
0.0
 10
22.0353819389356
 20
-15.0359814415535
 30
0.0
 10
22.0353819389356
 20
-15.0359814415535
 30
0.0
 10
22.0353819389356
 20
-15.0359814415535
 30
0.0
 10
22.0353819389356
 20
-14.78869248762227
 30
0.0
 10
22.0353819389356
 20
-14.78869248762227
 30
0.0
 10
22.0353819389356
 20
-14.78869248762227
 30
0.0
 10
22.09718695194098
 20
-14.78869248762227
 30
0.0
 10
22.09718695194098
 20
-14.78869248762227
 30
0.0
 10
22.09718695194098
 20
-14.78869248762227
 30
0.0
 10
22.09718695194098
 20
-15.14009222711775
 30
0.0
 10
22.09718695194098
 20
-15.14009222711775
 30
0.0
  0
HATCH
  5
28B
330
27A
100
AcDbEntity
  8
Livello 3
 62
   250
420
  1842203
100
AcDbHatch
 10
0.0
 20
0.0
 30
0.0
210
0.0
220
0.0
230
1.0
  2
SOLID
 70
     1
 71
     0
 91
        1
 92
        1
 93
        1
 72
     4
 94
        3
 73
     0
 74
     0
 95
       47
 96
       43
 40
0.0
 40
0.0
 40
0.0
 40
0.0
 40
1.0
 40
1.0
 40
1.0
 40
2.0
 40
2.0
 40
2.0
 40
3.0
 40
3.0
 40
3.0
 40
4.0
 40
4.0
 40
4.0
 40
5.0
 40
5.0
 40
5.0
 40
6.0
 40
6.0
 40
6.0
 40
7.0
 40
7.0
 40
7.0
 40
8.0
 40
8.0
 40
8.0
 40
9.0
 40
9.0
 40
9.0
 40
10.0
 40
10.0
 40
10.0
 40
11.0
 40
11.0
 40
11.0
 40
12.0
 40
12.0
 40
12.0
 40
13.0
 40
13.0
 40
13.0
 40
14.0
 40
14.0
 40
14.0
 40
14.0
 10
22.09718695194098
 20
-15.14009222711775
 10
22.09718695194098
 20
-15.14009222711775
 10
22.05147053485172
 20
-15.14009222711775
 10
22.05147053485172
 20
-15.14009222711775
 10
22.05147053485172
 20
-15.14009222711775
 10
21.99472981220965
 20
-15.08166340768792
 10
21.99472981220965
 20
-15.08166340768792
 10
21.8609567545174
 20
-14.94110351188972
 10
21.78981553274699
 20
-14.87764485305142
 10
21.70685763346217
 20
-14.87674912822526
 10
21.65097818469142
 20
-14.87674912822526
 10
21.59930175241267
 20
-14.90386202969417
 10
21.59930175241267
 20
-14.98602755701738
 10
21.59930175241267
 20
-15.0359814415535
 10
21.62472655709382
 20
-15.07746039119591
 10
21.64587944337325
 20
-15.1028507449222
 10
21.64587944337325
 20
-15.1028507449222
 10
21.59337618817804
 20
-15.12655300186072
 10
21.59337618817804
 20
-15.12655300186072
 10
21.56119899634581
 20
-15.08845024579386
 10
21.53749673940729
 20
-15.03425889381088
 10
21.53749673940729
 20
-14.97076578401772
 10
21.53749673940729
 20
-14.85222004837028
 10
21.61880099285919
 20
-14.80226616383415
 10
21.69752142469715
 20
-14.80226616383415
 10
21.79915174151202
 20
-14.80226616383415
 10
21.88128281788037
 20
-14.8759223053088
 10
21.99304171542188
 20
-14.99195312125201
 10
21.99304171542188
 20
-14.99195312125201
 10
22.03369384214783
 20
-15.0359814415535
 10
22.03369384214783
 20
-15.0359814415535
 10
22.03369384214783
 20
-15.0359814415535
 10
22.0353819389356
 20
-15.0359814415535
 10
22.0353819389356
 20
-15.0359814415535
 10
22.0353819389356
 20
-15.0359814415535
 10
22.0353819389356
 20
-14.78869248762227
 10
22.0353819389356
 20
-14.78869248762227
 10
22.0353819389356
 20
-14.78869248762227
 10
22.09718695194098
 20
-14.78869248762227
 10
22.09718695194098
 20
-14.78869248762227
 10
22.09718695194098
 20
-14.78869248762227
 10
22.09718695194098
 20
-15.14009222711775
 10
22.09718695194098
 20
-15.14009222711775
 97
        0
 97
        0
 75
     2
 76
     1
 98
        0
450
        0
451
        0
460
0.0
461
0.0
452
        0
462
0.0
453
        0
470

  0
ENDBLK
  5
27D
330
27A
100
AcDbEntity
  8
0
100
AcDbBlockEnd
  0
BLOCK
  5
28E
330
28C
100
AcDbEntity
  8
0
100
AcDbBlockBegin
  2
block 7
 70
     0
 10
0.0
 20
0.0
 30
0.0
  3
block 7
  1

  0
POLYLINE
  5
290
330
28C
100
AcDbEntity
  8
Livello 3
370
     0
100
AcDb2dPolyline
 66
     1
 10
0.0
 20
0.0
 30
0.0
  0
VERTEX
  5
291
330
290
100
AcDbEntity
  8
Livello 3
370
     0
100
AcDbVertex
100
AcDb2dVertex
 10
21.6162516222001
 20
-7.438167858383512
 30
0.0
  0
VERTEX
  5
292
330
290
100
AcDbEntity
  8
Livello 3
370
     0
100
AcDbVertex
100
AcDb2dVertex
 10
21.6162516222001
 20
-7.439855955171285
 30
0.0
  0
VERTEX
  5
293
330
290
100
AcDbEntity
  8
Livello 3
370
     0
100
AcDbVertex
100
AcDb2dVertex
 10
21.667893603524
 20
-7.535543482274098
 30
0.0
  0
VERTEX
  5
294
330
290
100
AcDbEntity
  8
Livello 3
370
     0
100
AcDbVertex
100
AcDb2dVertex
 10
21.61115288088193
 20
-7.549943981402443
 30
0.0
  0
VERTEX
  5
295
330
290
100
AcDbEntity
  8
Livello 3
370
     0
100
AcDbVertex
100
AcDb2dVertex
 10
21.54679849721747
 20
-7.429710148967223
 30
0.0
  0
VERTEX
  5
296
330
290
100
AcDbEntity
  8
Livello 3
370
     0
100
AcDbVertex
100
AcDb2dVertex
 10
21.54679849721747
 20
-7.366199813696643
 30
0.0
  0
VERTEX
  5
297
330
290
100
AcDbEntity
  8
Livello 3
370
     0
100
AcDbVertex
100
AcDb2dVertex
 10
22.09718695194098
 20
-7.366199813696643
 30
0.0
  0
VERTEX
  5
298
330
290
100
AcDbEntity
  8
Livello 3
370
     0
100
AcDbVertex
100
AcDb2dVertex
 10
22.09718695194098
 20
-7.438167858383512
 30
0.0
  0
VERTEX
  5
299
330
290
100
AcDbEntity
  8
Livello 3
370
     0
100
AcDbVertex
100
AcDb2dVertex
 10
21.6162516222001
 20
-7.438167858383512
 30
0.0
  0
SEQEND
  5
29A
330
290
100
AcDbEntity
  8
Livello 3
370
     0
  0
HATCH
  5
29B
330
28C
100
AcDbEntity
  8
Livello 3
 62
   250
420
  1842203
100
AcDbHatch
 10
0.0
 20
0.0
 30
0.0
210
0.0
220
0.0
230
1.0
  2
SOLID
 70
     1
 71
     0
 91
        1
 92
        1
 93
        8
 72
     1
 10
21.6162516222001
 20
-7.438167858383512
 11
21.6162516222001
 21
-7.439855955171285
 72
     1
 10
21.6162516222001
 20
-7.439855955171285
 11
21.667893603524
 21
-7.535543482274098
 72
     1
 10
21.667893603524
 20
-7.535543482274098
 11
21.61115288088193
 21
-7.549943981402443
 72
     1
 10
21.61115288088193
 20
-7.549943981402443
 11
21.54679849721747
 21
-7.429710148967223
 72
     1
 10
21.54679849721747
 20
-7.429710148967223
 11
21.54679849721747
 21
-7.366199813696643
 72
     1
 10
21.54679849721747
 20
-7.366199813696643
 11
22.09718695194098
 21
-7.366199813696643
 72
     1
 10
22.09718695194098
 20
-7.366199813696643
 11
22.09718695194098
 21
-7.438167858383512
 72
     1
 10
22.09718695194098
 20
-7.438167858383512
 11
21.6162516222001
 21
-7.438167858383512
 97
        0
 75
     2
 76
     1
 98
        0
450
        0
451
        0
460
0.0
461
0.0
452
        0
462
0.0
453
        0
470

  0
SPLINE
  5
29C
330
28C
100
AcDbEntity
  8
Livello 3
370
     0
100
AcDbSpline
210
0.0
220
0.0
230
1.0
 70
     9
 71
     3
 72
    38
 73
    34
 74
     0
 42
0.000000001
 43
0.0000000001
 40
0.0
 40
0.0
 40
0.0
 40
0.0
 40
1.0
 40
1.0
 40
1.0
 40
2.0
 40
2.0
 40
2.0
 40
3.0
 40
3.0
 40
3.0
 40
4.0
 40
4.0
 40
4.0
 40
5.0
 40
5.0
 40
5.0
 40
6.0
 40
6.0
 40
6.0
 40
7.0
 40
7.0
 40
7.0
 40
8.0
 40
8.0
 40
8.0
 40
9.0
 40
9.0
 40
9.0
 40
10.0
 40
10.0
 40
10.0
 40
11.0
 40
11.0
 40
11.0
 40
11.0
 10
21.59930175241267
 20
-6.851433646290612
 30
0.0
 10
21.59847492949621
 20
-6.866678193812843
 30
0.0
 10
21.59930175241267
 20
-6.886142983304504
 30
0.0
 10
21.60271239694307
 20
-6.907313095061365
 30
0.0
 10
21.62217718643473
 20
-7.02417073392104
 30
0.0
 10
21.70768445637863
 20
-7.085975746926423
 30
0.0
 10
21.7982904676407
 20
-7.098688149266994
 30
0.0
 10
21.7982904676407
 20
-7.098688149266994
 30
0.0
 10
21.7982904676407
 20
-7.096138778607909
 30
0.0
 10
21.7982904676407
 20
-7.096138778607909
 30
0.0
 10
21.76356390514939
 20
-7.069887151010304
 30
0.0
 10
21.73479735784755
 20
-7.02417073392104
 30
0.0
 10
21.73479735784755
 20
-6.963209769309543
 30
0.0
 10
21.73479735784755
 20
-6.865834145418957
 30
0.0
 10
21.80507730574665
 20
-6.797242294307632
 30
0.0
 10
21.91259873584129
 20
-6.797242294307632
 30
0.0
 10
22.01336777878485
 20
-6.797242294307632
 30
0.0
 10
22.10652316070601
 20
-6.865834145418957
 30
0.0
 10
22.10652316070601
 20
-6.980142413619548
 30
0.0
 10
22.10652316070601
 20
-7.097826875395683
 30
0.0
 10
22.01505587557262
 20
-7.174893661400722
 30
0.0
 10
21.87194660911534
 20
-7.174893661400722
 30
0.0
 10
21.76356390514939
 20
-7.174893661400722
 30
0.0
 10
21.67805663520548
 20
-7.135929631462544
 30
0.0
 10
21.6238652832225
 20
-7.081738279479565
 30
0.0
 10
21.57897568904969
 20
-7.036021862390298
 30
0.0
 10
21.55103596466432
 20
-6.975060897778803
 30
0.0
 10
21.54259548072546
 20
-6.905624998273593
 30
0.0
 10
21.53918483619506
 20
-6.883610838122846
 30
0.0
 10
21.5383580132786
 20
-6.864972871547644
 30
0.0
 10
21.5383580132786
 20
-6.851433646290612
 30
0.0
 10
21.5383580132786
 20
-6.851433646290612
 30
0.0
 10
21.59930175241267
 20
-6.851433646290612
 30
0.0
 10
21.59930175241267
 20
-6.851433646290612
 30
0.0
  0
SPLINE
  5
29D
330
28C
100
AcDbEntity
  8
Livello 3
370
     0
100
AcDbSpline
210
0.0
220
0.0
230
1.0
 70
    11
 71
     3
 72
    20
 73
    16
 74
     0
 42
0.000000001
 43
0.0000000001
 40
0.0
 40
0.0
 40
0.0
 40
0.0
 40
1.0
 40
1.0
 40
1.0
 40
2.0
 40
2.0
 40
2.0
 40
3.0
 40
3.0
 40
3.0
 40
4.0
 40
4.0
 40
4.0
 40
5.0
 40
5.0
 40
5.0
 40
5.0
 10
21.91683620328815
 20
-6.872603758047472
 30
0.0
 10
21.83808132049534
 20
-6.872603758047472
 30
0.0
 10
21.7906768066183
 20
-6.917476126742853
 30
0.0
 10
21.7906768066183
 20
-6.986067977854178
 30
0.0
 10
21.7906768066183
 20
-7.030940346549556
 30
0.0
 10
21.81861653100368
 20
-7.07243652166939
 30
0.0
 10
21.85840738385831
 20
-7.092762585032362
 30
0.0
 10
21.86688231875203
 20
-7.097826875395683
 30
0.0
 10
21.87790662430483
 20
-7.101220294448652
 30
0.0
 10
21.89144584956186
 20
-7.101220294448652
 30
0.0
 10
21.98205186082393
 20
-7.099532197660881
 30
0.0
 10
22.04892116419263
 20
-7.058036022541045
 30
0.0
 10
22.04892116419263
 20
-6.980142413619548
 30
0.0
 10
22.04892116419263
 20
-6.915788029955079
 30
0.0
 10
21.99559108608096
 20
-6.872603758047472
 30
0.0
 10
21.91683620328815
 20
-6.872603758047472
 30
0.0
  0
HATCH
  5
29E
330
28C
100
AcDbEntity
  8
Livello 3
 62
   250
420
  1842203
100
AcDbHatch
 10
0.0
 20
0.0
 30
0.0
210
0.0
220
0.0
230
1.0
  2
SOLID
 70
     1
 71
     0
 91
        2
 92
        1
 93
        1
 72
     4
 94
        3
 73
     0
 74
     0
 95
       38
 96
       34
 40
0.0
 40
0.0
 40
0.0
 40
0.0
 40
1.0
 40
1.0
 40
1.0
 40
2.0
 40
2.0
 40
2.0
 40
3.0
 40
3.0
 40
3.0
 40
4.0
 40
4.0
 40
4.0
 40
5.0
 40
5.0
 40
5.0
 40
6.0
 40
6.0
 40
6.0
 40
7.0
 40
7.0
 40
7.0
 40
8.0
 40
8.0
 40
8.0
 40
9.0
 40
9.0
 40
9.0
 40
10.0
 40
10.0
 40
10.0
 40
11.0
 40
11.0
 40
11.0
 40
11.0
 10
21.59930175241267
 20
-6.851433646290612
 10
21.59847492949621
 20
-6.866678193812843
 10
21.59930175241267
 20
-6.886142983304504
 10
21.60271239694307
 20
-6.907313095061365
 10
21.62217718643473
 20
-7.02417073392104
 10
21.70768445637863
 20
-7.085975746926423
 10
21.7982904676407
 20
-7.098688149266994
 10
21.7982904676407
 20
-7.098688149266994
 10
21.7982904676407
 20
-7.096138778607909
 10
21.7982904676407
 20
-7.096138778607909
 10
21.76356390514939
 20
-7.069887151010304
 10
21.73479735784755
 20
-7.02417073392104
 10
21.73479735784755
 20
-6.963209769309543
 10
21.73479735784755
 20
-6.865834145418957
 10
21.80507730574665
 20
-6.797242294307632
 10
21.91259873584129
 20
-6.797242294307632
 10
22.01336777878485
 20
-6.797242294307632
 10
22.10652316070601
 20
-6.865834145418957
 10
22.10652316070601
 20
-6.980142413619548
 10
22.10652316070601
 20
-7.097826875395683
 10
22.01505587557262
 20
-7.174893661400722
 10
21.87194660911534
 20
-7.174893661400722
 10
21.76356390514939
 20
-7.174893661400722
 10
21.67805663520548
 20
-7.135929631462544
 10
21.6238652832225
 20
-7.081738279479565
 10
21.57897568904969
 20
-7.036021862390298
 10
21.55103596466432
 20
-6.975060897778803
 10
21.54259548072546
 20
-6.905624998273593
 10
21.53918483619506
 20
-6.883610838122846
 10
21.5383580132786
 20
-6.864972871547644
 10
21.5383580132786
 20
-6.851433646290612
 10
21.5383580132786
 20
-6.851433646290612
 10
21.59930175241267
 20
-6.851433646290612
 10
21.59930175241267
 20
-6.851433646290612
 97
        0
 97
        0
 92
        1
 93
        1
 72
     4
 94
        3
 73
     0
 74
     0
 95
       20
 96
       16
 40
0.0
 40
0.0
 40
0.0
 40
0.0
 40
1.0
 40
1.0
 40
1.0
 40
2.0
 40
2.0
 40
2.0
 40
3.0
 40
3.0
 40
3.0
 40
4.0
 40
4.0
 40
4.0
 40
5.0
 40
5.0
 40
5.0
 40
5.0
 10
21.91683620328815
 20
-6.872603758047472
 10
21.83808132049534
 20
-6.872603758047472
 10
21.7906768066183
 20
-6.917476126742853
 10
21.7906768066183
 20
-6.986067977854178
 10
21.7906768066183
 20
-7.030940346549556
 10
21.81861653100368
 20
-7.07243652166939
 10
21.85840738385831
 20
-7.092762585032362
 10
21.86688231875203
 20
-7.097826875395683
 10
21.87790662430483
 20
-7.101220294448652
 10
21.89144584956186
 20
-7.101220294448652
 10
21.98205186082393
 20
-7.099532197660881
 10
22.04892116419263
 20
-7.058036022541045
 10
22.04892116419263
 20
-6.980142413619548
 10
22.04892116419263
 20
-6.915788029955079
 10
21.99559108608096
 20
-6.872603758047472
 10
21.91683620328815
 20
-6.872603758047472
 97
        0
 97
        0
 75
     2
 76
     1
 98
        0
450
        0
451
        0
460
0.0
461
0.0
452
        0
462
0.0
453
        0
470

  0
ENDBLK
  5
28F
330
28C
100
AcDbEntity
  8
0
100
AcDbBlockEnd
  0
ENDSEC
  0
SECTION
  2
ENTITIES
  0
SPLINE
  5
5A
330
1F
100
AcDbEntity
  8
Livello 3
100
AcDbSpline
210
0.0
220
0.0
230
1.0
 70
     8
 71
     3
 72
     8
 73
     4
 74
     0
 42
0.000000001
 43
0.0000000001
 40
0.0
 40
0.0
 40
0.0
 40
0.0
 40
1.0
 40
1.0
 40
1.0
 40
1.0
 10
8.805816414233795
 20
-13.28187342723506
 30
0.0
 10
8.838797607836818
 20
-13.28187342723506
 30
0.0
 10
8.865852134924377
 20
-13.25556326057502
 30
0.0
 10
8.866741134901698
 20
-13.22258206613881
 30
0.0
  0
SPLINE
  5
5B
330
1F
100
AcDbEntity
  8
Livello 3
100
AcDbSpline
210
0.0
220
0.0
230
1.0
 70
     8
 71
     3
 72
     8
 73
     4
 74
     0
 42
0.000000001
 43
0.0000000001
 40
0.0
 40
0.0
 40
0.0
 40
0.0
 40
1.0
 40
1.0
 40
1.0
 40
1.0
 10
5.456353777463483
 20
-13.22258206613881
 30
0.0
 10
5.457242777440804
 20
-13.25556326057502
 30
0.0
 10
5.484149137865476
 20
-13.28187695501288
 30
0.0
 10
5.517056248137056
 20
-13.28187695501288
 30
0.0
  0
SPLINE
  5
69
330
1F
100
AcDbEntity
  8
Livello 3
100
AcDbSpline
210
0.0
220
0.0
230
1.0
 70
     8
 71
     3
 72
     8
 73
     4
 74
     0
 42
0.000000001
 43
0.0000000001
 40
0.0
 40
0.0
 40
0.0
 40
0.0
 40
1.0
 40
1.0
 40
1.0
 40
1.0
 10
5.956500931370333
 20
-16.06337098209526
 30
0.0
 10
5.957760497890813
 20
-16.107175398751
 30
0.0
 10
5.993486152648983
 20
-16.14223445429779
 30
0.0
 10
6.037438734860993
 20
-16.14223445429779
 30
0.0
  0
SPLINE
  5
6A
330
1F
100
AcDbEntity
  8
Livello 3
100
AcDbSpline
210
0.0
220
0.0
230
1.0
 70
     8
 71
     3
 72
     8
 73
     4
 74
     0
 42
0.000000001
 43
0.0000000001
 40
0.0
 40
0.0
 40
0.0
 40
0.0
 40
1.0
 40
1.0
 40
1.0
 40
1.0
 10
8.285508010841301
 20
-16.14223092651998
 30
0.0
 10
8.329534676384755
 20
-16.14223092651998
 30
0.0
 10
8.365405119914067
 20
-16.107175398751
 30
0.0
 10
8.366516369885717
 20
-16.06337098209526
 30
0.0
  0
SPLINE
  5
7F
330
1F
100
AcDbEntity
  8
Livello 3
100
AcDbSpline
210
0.0
220
0.0
230
1.0
 70
     8
 71
     3
 72
     8
 73
     4
 74
     0
 42
0.000000001
 43
0.0000000001
 40
0.0
 40
0.0
 40
0.0
 40
0.0
 40
1.0
 40
1.0
 40
1.0
 40
1.0
 10
6.157284398470142
 20
-17.469684315077
 30
0.0
 10
6.158840148430452
 20
-17.52460828728548
 30
0.0
 10
6.203755813951223
 20
-17.56833509283016
 30
0.0
 10
6.258753868103661
 20
-17.56833509283016
 30
0.0
  0
SPLINE
  5
80
330
1F
100
AcDbEntity
  8
Livello 3
100
AcDbSpline
210
0.0
220
0.0
230
1.0
 70
     8
 71
     3
 72
     8
 73
     4
 74
     0
 42
0.000000001
 43
0.0000000001
 40
0.0
 40
0.0
 40
0.0
 40
0.0
 40
1.0
 40
1.0
 40
1.0
 40
1.0
 10
8.064337719586388
 20
-17.56833509283016
 30
0.0
 10
8.119183876195695
 20
-17.56833509283016
 30
0.0
 10
8.164173830672538
 20
-17.52460475950773
 30
0.0
 10
8.165584941783327
 20
-17.469684315077
 30
0.0
  0
SPLINE
  5
9D
330
1F
100
AcDbEntity
  8
Livello 3
100
AcDbSpline
210
0.0
220
0.0
230
1.0
 70
     8
 71
     3
 72
     8
 73
     4
 74
     0
 42
0.000000001
 43
0.0000000001
 40
0.0
 40
0.0
 40
0.0
 40
0.0
 40
1.0
 40
1.0
 40
1.0
 40
1.0
 10
6.169589287045107
 20
-17.46968078729925
 30
0.0
 10
6.171070953673972
 20
-17.52460123172997
 30
0.0
 10
6.21606070252619
 20
-17.56833156505234
 30
0.0
 10
6.270984673347184
 20
-17.56833156505234
 30
0.0
  0
SPLINE
  5
9E
330
1F
100
AcDbEntity
  8
Livello 3
100
AcDbSpline
210
0.0
220
0.0
230
1.0
 70
     8
 71
     3
 72
     8
 73
     4
 74
     0
 42
0.000000001
 43
0.0000000001
 40
0.0
 40
0.0
 40
0.0
 40
0.0
 40
1.0
 40
1.0
 40
1.0
 40
1.0
 10
8.076642405058796
 20
-17.56833156505234
 30
0.0
 10
8.131414681439217
 20
-17.56833156505234
 30
0.0
 10
8.176404430291432
 20
-17.52460123172997
 30
0.0
 10
8.177812013588855
 20
-17.46968078729925
 30
0.0
  0
SPLINE
  5
A4
330
1F
100
AcDbEntity
  8
Livello 3
100
AcDbSpline
210
0.0
220
0.0
230
1.0
 70
     8
 71
     3
 72
     8
 73
     4
 74
     0
 42
0.000000001
 43
0.0000000001
 40
0.0
 40
0.0
 40
0.0
 40
0.0
 40
1.0
 40
1.0
 40
1.0
 40
1.0
 10
6.057300123243175
 20
-12.03157606643656
 30
0.0
 10
6.03714240153522
 20
-12.03565417754662
 30
0.0
 10
6.02224459635974
 20
-12.05292264976452
 30
0.0
 10
6.02113334638809
 20
-12.07345431642606
 30
0.0
  0
SPLINE
  5
102
330
1F
100
AcDbEntity
  8
Livello 3
100
AcDbSpline
210
0.0
220
0.0
230
1.0
 70
     8
 71
     3
 72
     8
 73
     4
 74
     0
 42
0.000000001
 43
0.0000000001
 40
0.0
 40
0.0
 40
0.0
 40
0.0
 40
1.0
 40
1.0
 40
1.0
 40
1.0
 10
5.336726836070976
 20
-12.27380034415373
 30
0.0
 10
5.326422197444981
 20
-12.27921195526353
 30
0.0
 10
5.316269386940101
 20
-12.28462356637326
 30
0.0
 10
5.306412642399911
 20
-12.29017981637191
 30
0.0
  0
SPLINE
  5
169
330
1F
100
AcDbEntity
  8
Livello 3
100
AcDbSpline
210
0.0
220
0.0
230
1.0
 70
     8
 71
     3
 72
     8
 73
     4
 74
     0
 42
0.000000001
 43
0.0000000001
 40
0.0
 40
0.0
 40
0.0
 40
0.0
 40
1.0
 40
1.0
 40
1.0
 40
1.0
 10
5.336726836070976
 20
-12.27380387193155
 30
0.0
 10
5.326422197444981
 20
-12.27921548304128
 30
0.0
 10
5.316269386940101
 20
-12.28462709415107
 30
0.0
 10
5.306412642399911
 20
-12.29018334414966
 30
0.0
  0
SPLINE
  5
16A
330
1F
100
AcDbEntity
  8
Livello 3
100
AcDbSpline
210
0.0
220
0.0
230
1.0
 70
     8
 71
     3
 72
     8
 73
     4
 74
     0
 42
0.000000001
 43
0.0000000001
 40
0.0
 40
0.0
 40
0.0
 40
0.0
 40
1.0
 40
1.0
 40
1.0
 40
1.0
 10
9.023572019789497
 20
-12.28321598304029
 30
0.0
 10
9.012526547849068
 20
-12.27988223304115
 30
0.0
 10
9.001558687017773
 20
-12.27647439970864
 30
0.0
 10
8.990664909517917
 20
-12.27343345526496
 30
0.0
  0
SPLINE
  5
203
330
1F
100
AcDbEntity
  8
Livello 3
100
AcDbSpline
210
0.0
220
0.0
230
1.0
 70
     9
 71
     3
 72
    17
 73
    13
 74
     0
 42
0.000000001
 43
0.0000000001
 40
0.0
 40
0.0
 40
0.0
 40
0.0
 40
1.0
 40
1.0
 40
1.0
 40
2.0
 40
2.0
 40
2.0
 40
3.0
 40
3.0
 40
3.0
 40
4.0
 40
4.0
 40
4.0
 40
4.0
 10
9.312666571701939
 20
-7.463984025911761
 30
0.0
 10
9.312666571701939
 20
-6.420146331728271
 30
0.0
 10
8.466412450670489
 20
-5.573744248606558
 30
0.0
 10
7.422571255078874
 20
-5.573744248606558
 30
0.0
 10
6.378652448378129
 20
-5.573744248606558
 30
0.0
 10
5.532398553301198
 20
-6.420146331728271
 30
0.0
 10
5.532398553301198
 20
-7.463984025911761
 30
0.0
 10
5.532398553301198
 20
-8.507828775650786
 30
0.0
 10
6.378652448378129
 20
-9.354008608772618
 30
0.0
 10
7.422571255078874
 20
-9.354008608772618
 30
0.0
 10
8.466412450670489
 20
-9.354008608772618
 30
0.0
 10
9.312666571701939
 20
-8.507828775650786
 30
0.0
 10
9.312666571701939
 20
-7.463984025911761
 30
0.0
  0
SPLINE
  5
204
330
1F
100
AcDbEntity
  8
Livello 3
100
AcDbSpline
210
0.0
220
0.0
230
1.0
 70
     9
 71
     3
 72
    17
 73
    13
 74
     0
 42
0.000000001
 43
0.0000000001
 40
0.0
 40
0.0
 40
0.0
 40
0.0
 40
1.0
 40
1.0
 40
1.0
 40
2.0
 40
2.0
 40
2.0
 40
3.0
 40
3.0
 40
3.0
 40
4.0
 40
4.0
 40
4.0
 40
4.0
 10
9.297387540581659
 20
-7.463984025911761
 30
0.0
 10
9.297387540581659
 20
-6.428641220615053
 30
0.0
 10
8.457991849693357
 20
-5.589023054158302
 30
0.0
 10
7.422571255078874
 20
-5.589023054158302
 30
0.0
 10
6.387076781496539
 20
-5.589023054158302
 30
0.0
 10
5.547681017087626
 20
-6.428641220615053
 30
0.0
 10
5.547681017087626
 20
-7.463984025911761
 30
0.0
 10
5.547681017087626
 20
-8.499333886764036
 30
0.0
 10
6.387076781496539
 20
-9.338726275443056
 30
0.0
 10
7.422571255078874
 20
-9.338726275443056
 30
0.0
 10
8.457991849693357
 20
-9.338726275443056
 30
0.0
 10
9.297387540581659
 20
-8.499333886764036
 30
0.0
 10
9.297387540581659
 20
-7.463984025911761
 30
0.0
  0
SPLINE
  5
2CF
330
1F
100
AcDbEntity
  8
Livello 3
100
AcDbSpline
210
0.0
220
0.0
230
1.0
 70
    24
 71
     3
 72
     8
 73
     4
 74
     0
 42
0.000000001
 43
0.0000000001
 40
0.0
 40
0.0
 40
0.0
 40
0.0
 40
1.0
 40
1.0
 40
1.0
 40
1.0
 10
6.153061648577873
 20
-12.03269437199182
 30
0.0
 10
6.153061648577873
 20
-12.03269437199182
 30
0.0
 10
6.156621331174454
 20
-12.03291662199173
 30
0.0
 10
6.156621331174454
 20
-12.03291662199173
 30
0.0
  0
SPLINE
  5
2D0
330
1F
100
AcDbEntity
  8
Livello 3
100
AcDbSpline
210
0.0
220
0.0
230
1.0
 70
    24
 71
     3
 72
     8
 73
     4
 74
     0
 42
0.000000001
 43
0.0000000001
 40
1.0
 40
1.0
 40
1.0
 40
1.0
 40
2.0
 40
2.0
 40
2.0
 40
2.0
 10
6.156621331174454
 20
-12.03291662199173
 30
0.0
 10
6.156621331174454
 20
-12.03291662199173
 30
0.0
 10
6.161066331173317
 20
-12.03313887199171
 30
0.0
 10
6.161066331173317
 20
-12.03313887199171
 30
0.0
  0
SPLINE
  5
2D1
330
1F
100
AcDbEntity
  8
Livello 3
100
AcDbSpline
210
0.0
220
0.0
230
1.0
 70
    24
 71
     3
 72
     8
 73
     4
 74
     0
 42
0.000000001
 43
0.0000000001
 40
2.0
 40
2.0
 40
2.0
 40
2.0
 40
3.0
 40
3.0
 40
3.0
 40
3.0
 10
6.161066331173317
 20
-12.03313887199171
 30
0.0
 10
6.161066331173317
 20
-12.03313887199171
 30
0.0
 10
6.164922037164179
 20
-12.03380562199151
 30
0.0
 10
6.164922037164179
 20
-12.03380562199151
 30
0.0
  0
SPLINE
  5
2D2
330
1F
100
AcDbEntity
  8
Livello 3
100
AcDbSpline
210
0.0
220
0.0
230
1.0
 70
    24
 71
     3
 72
     8
 73
     4
 74
     0
 42
0.000000001
 43
0.0000000001
 40
3.0
 40
3.0
 40
3.0
 40
3.0
 40
4.0
 40
4.0
 40
4.0
 40
4.0
 10
6.164922037164179
 20
-12.03380562199151
 30
0.0
 10
6.164922037164179
 20
-12.03380562199151
 30
0.0
 10
6.167292703770365
 20
-12.03476870532466
 30
0.0
 10
6.167292703770365
 20
-12.03476870532466
 30
0.0
  0
SPLINE
  5
2D3
330
1F
100
AcDbEntity
  8
Livello 3
100
AcDbSpline
210
0.0
220
0.0
230
1.0
 70
    24
 71
     3
 72
     8
 73
     4
 74
     0
 42
0.000000001
 43
0.0000000001
 40
4.0
 40
4.0
 40
4.0
 40
4.0
 40
5.0
 40
5.0
 40
5.0
 40
5.0
 10
6.167292703770365
 20
-12.03476870532466
 30
0.0
 10
6.167292703770365
 20
-12.03476870532466
 30
0.0
 10
6.168626203736344
 20
-12.0357353164355
 30
0.0
 10
6.168626203736344
 20
-12.0357353164355
 30
0.0
  0
SPLINE
  5
2D4
330
1F
100
AcDbEntity
  8
Livello 3
100
AcDbSpline
210
0.0
220
0.0
230
1.0
 70
    24
 71
     3
 72
     8
 73
     4
 74
     0
 42
0.000000001
 43
0.0000000001
 40
5.0
 40
5.0
 40
5.0
 40
5.0
 40
6.0
 40
6.0
 40
6.0
 40
6.0
 10
6.168626203736344
 20
-12.0357353164355
 30
0.0
 10
6.168626203736344
 20
-12.0357353164355
 30
0.0
 10
6.168626203736344
 20
-12.03729106643514
 30
0.0
 10
6.168626203736344
 20
-12.03729106643514
 30
0.0
  0
SPLINE
  5
2D5
330
1F
100
AcDbEntity
  8
Livello 3
100
AcDbSpline
210
0.0
220
0.0
230
1.0
 70
    24
 71
     3
 72
     8
 73
     4
 74
     0
 42
0.000000001
 43
0.0000000001
 40
6.0
 40
6.0
 40
6.0
 40
6.0
 40
7.0
 40
7.0
 40
7.0
 40
7.0
 10
6.168626203736344
 20
-12.03729106643514
 30
0.0
 10
6.168626203736344
 20
-12.03729106643514
 30
0.0
 10
6.167292703770365
 20
-12.03899498310133
 30
0.0
 10
6.167292703770365
 20
-12.03899498310133
 30
0.0
  0
SPLINE
  5
2D6
330
1F
100
AcDbEntity
  8
Livello 3
100
AcDbSpline
210
0.0
220
0.0
230
1.0
 70
    24
 71
     3
 72
     8
 73
     4
 74
     0
 42
0.000000001
 43
0.0000000001
 40
7.0
 40
7.0
 40
7.0
 40
7.0
 40
8.0
 40
8.0
 40
8.0
 40
8.0
 10
6.167292703770365
 20
-12.03899498310133
 30
0.0
 10
6.167292703770365
 20
-12.03899498310133
 30
0.0
 10
6.164922037164179
 20
-12.04092114976756
 30
0.0
 10
6.164922037164179
 20
-12.04092114976756
 30
0.0
  0
SPLINE
  5
2D7
330
1F
100
AcDbEntity
  8
Livello 3
100
AcDbSpline
210
0.0
220
0.0
230
1.0
 70
    24
 71
     3
 72
     8
 73
     4
 74
     0
 42
0.000000001
 43
0.0000000001
 40
8.0
 40
8.0
 40
8.0
 40
8.0
 40
9.0
 40
9.0
 40
9.0
 40
9.0
 10
6.164922037164179
 20
-12.04092114976756
 30
0.0
 10
6.164922037164179
 20
-12.04092114976756
 30
0.0
 10
6.161066331173317
 20
-12.04299548310034
 30
0.0
 10
6.161066331173317
 20
-12.04299548310034
 30
0.0
  0
SPLINE
  5
2D8
330
1F
100
AcDbEntity
  8
Livello 3
100
AcDbSpline
210
0.0
220
0.0
230
1.0
 70
    24
 71
     3
 72
     8
 73
     4
 74
     0
 42
0.000000001
 43
0.0000000001
 40
9.0
 40
9.0
 40
9.0
 40
9.0
 40
10.0
 40
10.0
 40
10.0
 40
10.0
 10
6.161066331173317
 20
-12.04299548310034
 30
0.0
 10
6.161066331173317
 20
-12.04299548310034
 30
0.0
 10
6.156547092933397
 20
-12.04536967754421
 30
0.0
 10
6.156547092933397
 20
-12.04536967754421
 30
0.0
  0
SPLINE
  5
2D9
330
1F
100
AcDbEntity
  8
Livello 3
100
AcDbSpline
210
0.0
220
0.0
230
1.0
 70
    24
 71
     3
 72
     8
 73
     4
 74
     0
 42
0.000000001
 43
0.0000000001
 40
10.0
 40
10.0
 40
10.0
 40
10.0
 40
11.0
 40
11.0
 40
11.0
 40
11.0
 10
6.156547092933397
 20
-12.04536967754421
 30
0.0
 10
6.156547092933397
 20
-12.04536967754421
 30
0.0
 10
6.150542815308803
 20
-12.04803667754355
 30
0.0
 10
6.150542815308803
 20
-12.04803667754355
 30
0.0
  0
SPLINE
  5
2DA
330
1F
100
AcDbEntity
  8
Livello 3
100
AcDbSpline
210
0.0
220
0.0
230
1.0
 70
    24
 71
     3
 72
     8
 73
     4
 74
     0
 42
0.000000001
 43
0.0000000001
 40
11.0
 40
11.0
 40
11.0
 40
11.0
 40
12.0
 40
12.0
 40
12.0
 40
12.0
 10
6.150542815308803
 20
-12.04803667754355
 30
0.0
 10
6.150542815308803
 20
-12.04803667754355
 30
0.0
 10
6.143797704369772
 20
-12.0509259275428
 30
0.0
 10
6.143797704369772
 20
-12.0509259275428
 30
0.0
  0
SPLINE
  5
2DB
330
1F
100
AcDbEntity
  8
Livello 3
100
AcDbSpline
210
0.0
220
0.0
230
1.0
 70
    24
 71
     3
 72
     8
 73
     4
 74
     0
 42
0.000000001
 43
0.0000000001
 40
12.0
 40
12.0
 40
12.0
 40
12.0
 40
13.0
 40
13.0
 40
13.0
 40
13.0
 10
6.143797704369772
 20
-12.0509259275428
 30
0.0
 10
6.143797704369772
 20
-12.0509259275428
 30
0.0
 10
6.136015426790536
 20
-12.05389278865317
 30
0.0
 10
6.136015426790536
 20
-12.05389278865317
 30
0.0
  0
SPLINE
  5
2DC
330
1F
100
AcDbEntity
  8
Livello 3
100
AcDbSpline
210
0.0
220
0.0
230
1.0
 70
    24
 71
     3
 72
     8
 73
     4
 74
     0
 42
0.000000001
 43
0.0000000001
 40
13.0
 40
13.0
 40
13.0
 40
13.0
 40
14.0
 40
14.0
 40
14.0
 40
14.0
 10
6.136015426790536
 20
-12.05389278865317
 30
0.0
 10
6.136015426790536
 20
-12.05389278865317
 30
0.0
 10
6.129788899171611
 20
-12.05515220531953
 30
0.0
 10
6.129788899171611
 20
-12.05515220531953
 30
0.0
  0
SPLINE
  5
2DD
330
1F
100
AcDbEntity
  8
Livello 3
100
AcDbSpline
210
0.0
220
0.0
230
1.0
 70
    24
 71
     3
 72
     8
 73
     4
 74
     0
 42
0.000000001
 43
0.0000000001
 40
14.0
 40
14.0
 40
14.0
 40
14.0
 40
15.0
 40
15.0
 40
15.0
 40
15.0
 10
6.129788899171611
 20
-12.05515220531953
 30
0.0
 10
6.129788899171611
 20
-12.05515220531953
 30
0.0
 10
6.128973982525734
 20
-12.05530037198614
 30
0.0
 10
6.128973982525734
 20
-12.05530037198614
 30
0.0
  0
SPLINE
  5
2DE
330
1F
100
AcDbEntity
  8
Livello 3
100
AcDbSpline
210
0.0
220
0.0
230
1.0
 70
    24
 71
     3
 72
     8
 73
     4
 74
     0
 42
0.000000001
 43
0.0000000001
 40
15.0
 40
15.0
 40
15.0
 40
15.0
 40
16.0
 40
16.0
 40
16.0
 40
16.0
 10
6.128973982525734
 20
-12.05530037198614
 30
0.0
 10
6.128973982525734
 20
-12.05530037198614
 30
0.0
 10
6.129788899171611
 20
-12.05507812198623
 30
0.0
 10
6.129788899171611
 20
-12.05507812198623
 30
0.0
  0
SPLINE
  5
2DF
330
1F
100
AcDbEntity
  8
Livello 3
100
AcDbSpline
210
0.0
220
0.0
230
1.0
 70
    24
 71
     3
 72
     8
 73
     4
 74
     0
 42
0.000000001
 43
0.0000000001
 40
16.0
 40
16.0
 40
16.0
 40
16.0
 40
17.0
 40
17.0
 40
17.0
 40
17.0
 10
6.129788899171611
 20
-12.05507812198623
 30
0.0
 10
6.129788899171611
 20
-12.05507812198623
 30
0.0
 10
6.135126426813217
 20
-12.05322603865337
 30
0.0
 10
6.135126426813217
 20
-12.05322603865337
 30
0.0
  0
SPLINE
  5
2E0
330
1F
100
AcDbEntity
  8
Livello 3
100
AcDbSpline
210
0.0
220
0.0
230
1.0
 70
    24
 71
     3
 72
     8
 73
     4
 74
     0
 42
0.000000001
 43
0.0000000001
 40
17.0
 40
17.0
 40
17.0
 40
17.0
 40
18.0
 40
18.0
 40
18.0
 40
18.0
 10
6.135126426813217
 20
-12.05322603865337
 30
0.0
 10
6.135126426813217
 20
-12.05322603865337
 30
0.0
 10
6.139275093374042
 20
-12.05137395532051
 30
0.0
 10
6.139275093374042
 20
-12.05137395532051
 30
0.0
  0
SPLINE
  5
2E1
330
1F
100
AcDbEntity
  8
Livello 3
100
AcDbSpline
210
0.0
220
0.0
230
1.0
 70
    24
 71
     3
 72
     8
 73
     4
 74
     0
 42
0.000000001
 43
0.0000000001
 40
18.0
 40
18.0
 40
18.0
 40
18.0
 40
19.0
 40
19.0
 40
19.0
 40
19.0
 10
6.139275093374042
 20
-12.05137395532051
 30
0.0
 10
6.139275093374042
 20
-12.05137395532051
 30
0.0
 10
6.142390121072349
 20
-12.05018862198744
 30
0.0
 10
6.142390121072349
 20
-12.05018862198744
 30
0.0
  0
SPLINE
  5
2E2
330
1F
100
AcDbEntity
  8
Livello 3
100
AcDbSpline
210
0.0
220
0.0
230
1.0
 70
    24
 71
     3
 72
     8
 73
     4
 74
     0
 42
0.000000001
 43
0.0000000001
 40
19.0
 40
19.0
 40
19.0
 40
19.0
 40
20.0
 40
20.0
 40
20.0
 40
20.0
 10
6.142390121072349
 20
-12.05018862198744
 30
0.0
 10
6.142390121072349
 20
-12.05018862198744
 30
0.0
 10
6.144834871009978
 20
-12.04907384420994
 30
0.0
 10
6.144834871009978
 20
-12.04907384420994
 30
0.0
  0
SPLINE
  5
2E3
330
1F
100
AcDbEntity
  8
Livello 3
100
AcDbSpline
210
0.0
220
0.0
230
1.0
 70
    24
 71
     3
 72
     8
 73
     4
 74
     0
 42
0.000000001
 43
0.0000000001
 40
20.0
 40
20.0
 40
20.0
 40
20.0
 40
21.0
 40
21.0
 40
21.0
 40
21.0
 10
6.144834871009978
 20
-12.04907384420994
 30
0.0
 10
6.144834871009978
 20
-12.04907384420994
 30
0.0
 10
6.146316537638844
 20
-12.04825892754346
 30
0.0
 10
6.146316537638844
 20
-12.04825892754346
 30
0.0
  0
SPLINE
  5
2E4
330
1F
100
AcDbEntity
  8
Livello 3
100
AcDbSpline
210
0.0
220
0.0
230
1.0
 70
    24
 71
     3
 72
     8
 73
     4
 74
     0
 42
0.000000001
 43
0.0000000001
 40
21.0
 40
21.0
 40
21.0
 40
21.0
 40
22.0
 40
22.0
 40
22.0
 40
22.0
 10
6.146316537638844
 20
-12.04825892754346
 30
0.0
 10
6.146316537638844
 20
-12.04825892754346
 30
0.0
 10
6.147427787610495
 20
-12.04781442754357
 30
0.0
 10
6.147427787610495
 20
-12.04781442754357
 30
0.0
  0
SPLINE
  5
2E5
330
1F
100
AcDbEntity
  8
Livello 3
100
AcDbSpline
210
0.0
220
0.0
230
1.0
 70
    24
 71
     3
 72
     8
 73
     4
 74
     0
 42
0.000000001
 43
0.0000000001
 40
22.0
 40
22.0
 40
22.0
 40
22.0
 40
23.0
 40
23.0
 40
23.0
 40
23.0
 10
6.147427787610495
 20
-12.04781442754357
 30
0.0
 10
6.147427787610495
 20
-12.04781442754357
 30
0.0
 10
6.147872442287735
 20
-12.04744401087705
 30
0.0
 10
6.147872442287735
 20
-12.04744401087705
 30
0.0
  0
SPLINE
  5
2E6
330
1F
100
AcDbEntity
  8
Livello 3
100
AcDbSpline
210
0.0
220
0.0
230
1.0
 70
    24
 71
     3
 72
     8
 73
     4
 74
     0
 42
0.000000001
 43
0.0000000001
 40
23.0
 40
23.0
 40
23.0
 40
23.0
 40
24.0
 40
24.0
 40
24.0
 40
24.0
 10
6.147872442287735
 20
-12.04744401087705
 30
0.0
 10
6.147872442287735
 20
-12.04744401087705
 30
0.0
 10
6.148098065371172
 20
-12.04744401087705
 30
0.0
 10
6.148098065371172
 20
-12.04744401087705
 30
0.0
  0
SPLINE
  5
2E7
330
1F
100
AcDbEntity
  8
Livello 3
100
AcDbSpline
210
0.0
220
0.0
230
1.0
 70
    24
 71
     3
 72
     8
 73
     4
 74
     0
 42
0.000000001
 43
0.0000000001
 40
24.0
 40
24.0
 40
24.0
 40
24.0
 40
25.0
 40
25.0
 40
25.0
 40
25.0
 10
6.148098065371172
 20
-12.04744401087705
 30
0.0
 10
6.148098065371172
 20
-12.04744401087705
 30
0.0
 10
6.147872442287735
 20
-12.04744401087705
 30
0.0
 10
6.147872442287735
 20
-12.04744401087705
 30
0.0
  0
SPLINE
  5
2E8
330
1F
100
AcDbEntity
  8
Livello 3
100
AcDbSpline
210
0.0
220
0.0
230
1.0
 70
    24
 71
     3
 72
     8
 73
     4
 74
     0
 42
0.000000001
 43
0.0000000001
 40
25.0
 40
25.0
 40
25.0
 40
25.0
 40
26.0
 40
26.0
 40
26.0
 40
26.0
 10
6.147872442287735
 20
-12.04744401087705
 30
0.0
 10
6.147872442287735
 20
-12.04744401087705
 30
0.0
 10
6.147427787610495
 20
-12.04781442754357
 30
0.0
 10
6.147427787610495
 20
-12.04781442754357
 30
0.0
  0
SPLINE
  5
2E9
330
1F
100
AcDbEntity
  8
Livello 3
100
AcDbSpline
210
0.0
220
0.0
230
1.0
 70
    24
 71
     3
 72
     8
 73
     4
 74
     0
 42
0.000000001
 43
0.0000000001
 40
26.0
 40
26.0
 40
26.0
 40
26.0
 40
27.0
 40
27.0
 40
27.0
 40
27.0
 10
6.147427787610495
 20
-12.04781442754357
 30
0.0
 10
6.147427787610495
 20
-12.04781442754357
 30
0.0
 10
6.146316537638844
 20
-12.04825892754346
 30
0.0
 10
6.146316537638844
 20
-12.04825892754346
 30
0.0
  0
SPLINE
  5
2EA
330
1F
100
AcDbEntity
  8
Livello 3
100
AcDbSpline
210
0.0
220
0.0
230
1.0
 70
    24
 71
     3
 72
     8
 73
     4
 74
     0
 42
0.000000001
 43
0.0000000001
 40
27.0
 40
27.0
 40
27.0
 40
27.0
 40
28.0
 40
28.0
 40
28.0
 40
28.0
 10
6.146316537638844
 20
-12.04825892754346
 30
0.0
 10
6.146316537638844
 20
-12.04825892754346
 30
0.0
 10
6.144834871009978
 20
-12.04907384420994
 30
0.0
 10
6.144834871009978
 20
-12.04907384420994
 30
0.0
  0
SPLINE
  5
2EB
330
1F
100
AcDbEntity
  8
Livello 3
100
AcDbSpline
210
0.0
220
0.0
230
1.0
 70
    24
 71
     3
 72
     8
 73
     4
 74
     0
 42
0.000000001
 43
0.0000000001
 40
28.0
 40
28.0
 40
28.0
 40
28.0
 40
29.0
 40
29.0
 40
29.0
 40
29.0
 10
6.144834871009978
 20
-12.04907384420994
 30
0.0
 10
6.144834871009978
 20
-12.04907384420994
 30
0.0
 10
6.142390121072349
 20
-12.05018862198744
 30
0.0
 10
6.142390121072349
 20
-12.05018862198744
 30
0.0
  0
SPLINE
  5
2EC
330
1F
100
AcDbEntity
  8
Livello 3
100
AcDbSpline
210
0.0
220
0.0
230
1.0
 70
    24
 71
     3
 72
     8
 73
     4
 74
     0
 42
0.000000001
 43
0.0000000001
 40
29.0
 40
29.0
 40
29.0
 40
29.0
 40
30.0
 40
30.0
 40
30.0
 40
30.0
 10
6.142390121072349
 20
-12.05018862198744
 30
0.0
 10
6.142390121072349
 20
-12.05018862198744
 30
0.0
 10
6.139275093374042
 20
-12.05137395532051
 30
0.0
 10
6.139275093374042
 20
-12.05137395532051
 30
0.0
  0
SPLINE
  5
2ED
330
1F
100
AcDbEntity
  8
Livello 3
100
AcDbSpline
210
0.0
220
0.0
230
1.0
 70
    24
 71
     3
 72
     8
 73
     4
 74
     0
 42
0.000000001
 43
0.0000000001
 40
30.0
 40
30.0
 40
30.0
 40
30.0
 40
31.0
 40
31.0
 40
31.0
 40
31.0
 10
6.139275093374042
 20
-12.05137395532051
 30
0.0
 10
6.139275093374042
 20
-12.05137395532051
 30
0.0
 10
6.135126426813217
 20
-12.05322603865337
 30
0.0
 10
6.135126426813217
 20
-12.05322603865337
 30
0.0
  0
SPLINE
  5
2EE
330
1F
100
AcDbEntity
  8
Livello 3
100
AcDbSpline
210
0.0
220
0.0
230
1.0
 70
    24
 71
     3
 72
     8
 73
     4
 74
     0
 42
0.000000001
 43
0.0000000001
 40
31.0
 40
31.0
 40
31.0
 40
31.0
 40
32.0
 40
32.0
 40
32.0
 40
32.0
 10
6.135126426813217
 20
-12.05322603865337
 30
0.0
 10
6.135126426813217
 20
-12.05322603865337
 30
0.0
 10
6.129788899171611
 20
-12.05507812198623
 30
0.0
 10
6.129788899171611
 20
-12.05507812198623
 30
0.0
  0
SPLINE
  5
2EF
330
1F
100
AcDbEntity
  8
Livello 3
100
AcDbSpline
210
0.0
220
0.0
230
1.0
 70
    24
 71
     3
 72
     8
 73
     4
 74
     0
 42
0.000000001
 43
0.0000000001
 40
32.0
 40
32.0
 40
32.0
 40
32.0
 40
33.0
 40
33.0
 40
33.0
 40
33.0
 10
6.129788899171611
 20
-12.05507812198623
 30
0.0
 10
6.129788899171611
 20
-12.05507812198623
 30
0.0
 10
6.128825815862847
 20
-12.05530037198614
 30
0.0
 10
6.128825815862847
 20
-12.05530037198614
 30
0.0
  0
SPLINE
  5
2F0
330
1F
100
AcDbEntity
  8
Livello 3
100
AcDbSpline
210
0.0
220
0.0
230
1.0
 70
    24
 71
     3
 72
     8
 73
     4
 74
     0
 42
0.000000001
 43
0.0000000001
 40
33.0
 40
33.0
 40
33.0
 40
33.0
 40
34.0
 40
34.0
 40
34.0
 40
34.0
 10
6.128825815862847
 20
-12.05530037198614
 30
0.0
 10
6.128825815862847
 20
-12.05530037198614
 30
0.0
 10
6.129788899171611
 20
-12.05515220531953
 30
0.0
 10
6.129788899171611
 20
-12.05515220531953
 30
0.0
  0
SPLINE
  5
2F1
330
1F
100
AcDbEntity
  8
Livello 3
100
AcDbSpline
210
0.0
220
0.0
230
1.0
 70
    24
 71
     3
 72
     8
 73
     4
 74
     0
 42
0.000000001
 43
0.0000000001
 40
34.0
 40
34.0
 40
34.0
 40
34.0
 40
35.0
 40
35.0
 40
35.0
 40
35.0
 10
6.129788899171611
 20
-12.05515220531953
 30
0.0
 10
6.129788899171611
 20
-12.05515220531953
 30
0.0
 10
6.136015426790536
 20
-12.05389278865317
 30
0.0
 10
6.136015426790536
 20
-12.05389278865317
 30
0.0
  0
SPLINE
  5
2F2
330
1F
100
AcDbEntity
  8
Livello 3
100
AcDbSpline
210
0.0
220
0.0
230
1.0
 70
    24
 71
     3
 72
     8
 73
     4
 74
     0
 42
0.000000001
 43
0.0000000001
 40
35.0
 40
35.0
 40
35.0
 40
35.0
 40
36.0
 40
36.0
 40
36.0
 40
36.0
 10
6.136015426790536
 20
-12.05389278865317
 30
0.0
 10
6.136015426790536
 20
-12.05389278865317
 30
0.0
 10
6.084799150319395
 20
-12.07279109420401
 30
0.0
 10
6.084799150319395
 20
-12.07279109420401
 30
0.0
  0
SPLINE
  5
2F3
330
1F
100
AcDbEntity
  8
Livello 3
100
AcDbSpline
210
0.0
220
0.0
230
1.0
 70
     8
 71
     3
 72
     8
 73
     4
 74
     0
 42
0.000000001
 43
0.0000000001
 40
36.0
 40
36.0
 40
36.0
 40
36.0
 40
37.0
 40
37.0
 40
37.0
 40
37.0
 10
6.084799150319395
 20
-12.07279109420401
 30
0.0
 10
5.931672432003761
 20
-12.13045614974513
 30
0.0
 10
5.781064546957201
 20
-12.19568123306219
 30
0.0
 10
5.637349939512553
 20
-12.27417076082032
 30
0.0
  0
SPLINE
  5
2F4
330
1F
100
AcDbEntity
  8
Livello 3
100
AcDbSpline
210
0.0
220
0.0
230
1.0
 70
    24
 71
     3
 72
     8
 73
     4
 74
     0
 42
0.000000001
 43
0.0000000001
 40
37.0
 40
37.0
 40
37.0
 40
37.0
 40
38.0
 40
38.0
 40
38.0
 40
38.0
 10
5.637349939512553
 20
-12.27417076082032
 30
0.0
 10
5.637349939512553
 20
-12.27417076082032
 30
0.0
 10
5.631716078545174
 20
-12.2751338441534
 30
0.0
 10
5.631716078545174
 20
-12.2751338441534
 30
0.0
  0
SPLINE
  5
2F5
330
1F
100
AcDbEntity
  8
Livello 3
100
AcDbSpline
210
0.0
220
0.0
230
1.0
 70
    24
 71
     3
 72
     8
 73
     4
 74
     0
 42
0.000000001
 43
0.0000000001
 40
38.0
 40
38.0
 40
38.0
 40
38.0
 40
39.0
 40
39.0
 40
39.0
 40
39.0
 10
5.631716078545174
 20
-12.2751338441534
 30
0.0
 10
5.631716078545174
 20
-12.2751338441534
 30
0.0
 10
5.637349939512553
 20
-12.27417076082032
 30
0.0
 10
5.637349939512553
 20
-12.27417076082032
 30
0.0
  0
SPLINE
  5
2F6
330
1F
100
AcDbEntity
  8
Livello 3
100
AcDbSpline
210
0.0
220
0.0
230
1.0
 70
    24
 71
     3
 72
     8
 73
     4
 74
     0
 42
0.000000001
 43
0.0000000001
 40
39.0
 40
39.0
 40
39.0
 40
39.0
 40
40.0
 40
40.0
 40
40.0
 40
40.0
 10
5.637349939512553
 20
-12.27417076082032
 30
0.0
 10
5.637349939512553
 20
-12.27417076082032
 30
0.0
 10
5.634016331305093
 20
-12.27372626082043
 30
0.0
 10
5.634016331305093
 20
-12.27372626082043
 30
0.0
  0
SPLINE
  5
2F7
330
1F
100
AcDbEntity
  8
Livello 3
100
AcDbSpline
210
0.0
220
0.0
230
1.0
 70
    24
 71
     3
 72
     8
 73
     4
 74
     0
 42
0.000000001
 43
0.0000000001
 40
40.0
 40
40.0
 40
40.0
 40
40.0
 40
41.0
 40
41.0
 40
41.0
 40
41.0
 10
5.634016331305093
 20
-12.27372626082043
 30
0.0
 10
5.634016331305093
 20
-12.27372626082043
 30
0.0
 10
5.632160578533834
 20
-12.27372626082043
 30
0.0
 10
5.632160578533834
 20
-12.27372626082043
 30
0.0
  0
SPLINE
  5
2F8
330
1F
100
AcDbEntity
  8
Livello 3
100
AcDbSpline
210
0.0
220
0.0
230
1.0
 70
    24
 71
     3
 72
     8
 73
     4
 74
     0
 42
0.000000001
 43
0.0000000001
 40
41.0
 40
41.0
 40
41.0
 40
41.0
 40
42.0
 40
42.0
 40
42.0
 40
42.0
 10
5.632160578533834
 20
-12.27372626082043
 30
0.0
 10
5.632160578533834
 20
-12.27372626082043
 30
0.0
 10
5.632605220194337
 20
-12.27365217748712
 30
0.0
 10
5.632605220194337
 20
-12.27365217748712
 30
0.0
  0
SPLINE
  5
2F9
330
1F
100
AcDbEntity
  8
Livello 3
100
AcDbSpline
210
0.0
220
0.0
230
1.0
 70
    24
 71
     3
 72
     8
 73
     4
 74
     0
 42
0.000000001
 43
0.0000000001
 40
42.0
 40
42.0
 40
42.0
 40
42.0
 40
43.0
 40
43.0
 40
43.0
 40
43.0
 10
5.632605220194337
 20
-12.27365217748712
 30
0.0
 10
5.632605220194337
 20
-12.27365217748712
 30
0.0
 10
5.63297549517971
 20
-12.27342992748721
 30
0.0
 10
5.63297549517971
 20
-12.27342992748721
 30
0.0
  0
SPLINE
  5
2FA
330
1F
100
AcDbEntity
  8
Livello 3
100
AcDbSpline
210
0.0
220
0.0
230
1.0
 70
    24
 71
     3
 72
     8
 73
     4
 74
     0
 42
0.000000001
 43
0.0000000001
 40
43.0
 40
43.0
 40
43.0
 40
43.0
 40
44.0
 40
44.0
 40
44.0
 40
44.0
 10
5.63297549517971
 20
-12.27342992748721
 30
0.0
 10
5.63297549517971
 20
-12.27342992748721
 30
0.0
 10
5.633790411825588
 20
-12.27305951082063
 30
0.0
 10
5.633790411825588
 20
-12.27305951082063
 30
0.0
  0
SPLINE
  5
2FB
330
1F
100
AcDbEntity
  8
Livello 3
100
AcDbSpline
210
0.0
220
0.0
230
1.0
 70
    24
 71
     3
 72
     8
 73
     4
 74
     0
 42
0.000000001
 43
0.0000000001
 40
44.0
 40
44.0
 40
44.0
 40
44.0
 40
45.0
 40
45.0
 40
45.0
 40
45.0
 10
5.633790411825588
 20
-12.27305951082063
 30
0.0
 10
5.633790411825588
 20
-12.27305951082063
 30
0.0
 10
5.634979272906368
 20
-12.27276317748735
 30
0.0
 10
5.634979272906368
 20
-12.27276317748735
 30
0.0
  0
SPLINE
  5
2FC
330
1F
100
AcDbEntity
  8
Livello 3
100
AcDbSpline
210
0.0
220
0.0
230
1.0
 70
    24
 71
     3
 72
     8
 73
     4
 74
     0
 42
0.000000001
 43
0.0000000001
 40
45.0
 40
45.0
 40
45.0
 40
45.0
 40
46.0
 40
46.0
 40
46.0
 40
46.0
 10
5.634979272906368
 20
-12.27276317748735
 30
0.0
 10
5.634979272906368
 20
-12.27276317748735
 30
0.0
 10
5.636460939535234
 20
-12.27231867748745
 30
0.0
 10
5.636460939535234
 20
-12.27231867748745
 30
0.0
  0
SPLINE
  5
2FD
330
1F
100
AcDbEntity
  8
Livello 3
100
AcDbSpline
210
0.0
220
0.0
230
1.0
 70
    24
 71
     3
 72
     8
 73
     4
 74
     0
 42
0.000000001
 43
0.0000000001
 40
46.0
 40
46.0
 40
46.0
 40
46.0
 40
47.0
 40
47.0
 40
47.0
 40
47.0
 10
5.636460939535234
 20
-12.27231867748745
 30
0.0
 10
5.636460939535234
 20
-12.27231867748745
 30
0.0
 10
5.637794439501213
 20
-12.27202234415418
 30
0.0
 10
5.637794439501213
 20
-12.27202234415418
 30
0.0
  0
SPLINE
  5
2FE
330
1F
100
AcDbEntity
  8
Livello 3
100
AcDbSpline
210
0.0
220
0.0
230
1.0
 70
    24
 71
     3
 72
     8
 73
     4
 74
     0
 42
0.000000001
 43
0.0000000001
 40
47.0
 40
47.0
 40
47.0
 40
47.0
 40
48.0
 40
48.0
 40
48.0
 40
48.0
 10
5.637794439501213
 20
-12.27202234415418
 30
0.0
 10
5.637794439501213
 20
-12.27202234415418
 30
0.0
 10
5.636460939535234
 20
-12.27231867748745
 30
0.0
 10
5.636460939535234
 20
-12.27231867748745
 30
0.0
  0
SPLINE
  5
2FF
330
1F
100
AcDbEntity
  8
Livello 3
100
AcDbSpline
210
0.0
220
0.0
230
1.0
 70
     8
 71
     3
 72
     8
 73
     4
 74
     0
 42
0.000000001
 43
0.0000000001
 40
48.0
 40
48.0
 40
48.0
 40
48.0
 40
49.0
 40
49.0
 40
49.0
 40
49.0
 10
5.636460939535234
 20
-12.27231867748745
 30
0.0
 10
5.63371985627183
 20
-12.27291134415395
 30
0.0
 10
5.63253099519105
 20
-12.27380034415373
 30
0.0
 10
5.62986399525909
 20
-12.2744670941536
 30
0.0
  0
SPLINE
  5
300
330
1F
100
AcDbEntity
  8
Livello 3
100
AcDbSpline
210
0.0
220
0.0
230
1.0
 70
    24
 71
     3
 72
     8
 73
     4
 74
     0
 42
0.000000001
 43
0.0000000001
 40
49.0
 40
49.0
 40
49.0
 40
49.0
 40
50.0
 40
50.0
 40
50.0
 40
50.0
 10
5.62986399525909
 20
-12.2744670941536
 30
0.0
 10
5.62986399525909
 20
-12.2744670941536
 30
0.0
 10
5.627789661978678
 20
-12.27535609415338
 30
0.0
 10
5.627789661978678
 20
-12.27535609415338
 30
0.0
  0
SPLINE
  5
301
330
1F
100
AcDbEntity
  8
Livello 3
100
AcDbSpline
210
0.0
220
0.0
230
1.0
 70
    24
 71
     3
 72
     8
 73
     4
 74
     0
 42
0.000000001
 43
0.0000000001
 40
50.0
 40
50.0
 40
50.0
 40
50.0
 40
51.0
 40
51.0
 40
51.0
 40
51.0
 10
5.627789661978678
 20
-12.27535609415338
 30
0.0
 10
5.627789661978678
 20
-12.27535609415338
 30
0.0
 10
5.631716078545174
 20
-12.2751338441534
 30
0.0
 10
5.631716078545174
 20
-12.2751338441534
 30
0.0
  0
SPLINE
  5
302
330
1F
100
AcDbEntity
  8
Livello 3
100
AcDbSpline
210
0.0
220
0.0
230
1.0
 70
    24
 71
     3
 72
     8
 73
     4
 74
     0
 42
0.000000001
 43
0.0000000001
 40
51.0
 40
51.0
 40
51.0
 40
51.0
 40
52.0
 40
52.0
 40
52.0
 40
52.0
 10
5.631716078545174
 20
-12.2751338441534
 30
0.0
 10
5.631716078545174
 20
-12.2751338441534
 30
0.0
 10
5.632382828528164
 20
-12.27461526082021
 30
0.0
 10
5.632382828528164
 20
-12.27461526082021
 30
0.0
  0
SPLINE
  5
303
330
1F
100
AcDbEntity
  8
Livello 3
100
AcDbSpline
210
0.0
220
0.0
230
1.0
 70
    24
 71
     3
 72
     8
 73
     4
 74
     0
 42
0.000000001
 43
0.0000000001
 40
52.0
 40
52.0
 40
52.0
 40
52.0
 40
53.0
 40
53.0
 40
53.0
 40
53.0
 10
5.632382828528164
 20
-12.27461526082021
 30
0.0
 10
5.632382828528164
 20
-12.27461526082021
 30
0.0
 10
5.634016331305093
 20
-12.27372626082043
 30
0.0
 10
5.634016331305093
 20
-12.27372626082043
 30
0.0
  0
SPLINE
  5
304
330
1F
100
AcDbEntity
  8
Livello 3
100
AcDbSpline
210
0.0
220
0.0
230
1.0
 70
    24
 71
     3
 72
     8
 73
     4
 74
     0
 42
0.000000001
 43
0.0000000001
 40
53.0
 40
53.0
 40
53.0
 40
53.0
 40
54.0
 40
54.0
 40
54.0
 40
54.0
 10
5.634016331305093
 20
-12.27372626082043
 30
0.0
 10
5.634016331305093
 20
-12.27372626082043
 30
0.0
 10
5.636460939535234
 20
-12.27283726082065
 30
0.0
 10
5.636460939535234
 20
-12.27283726082065
 30
0.0
  0
SPLINE
  5
305
330
1F
100
AcDbEntity
  8
Livello 3
100
AcDbSpline
210
0.0
220
0.0
230
1.0
 70
    24
 71
     3
 72
     8
 73
     4
 74
     0
 42
0.000000001
 43
0.0000000001
 40
54.0
 40
54.0
 40
54.0
 40
54.0
 40
55.0
 40
55.0
 40
55.0
 40
55.0
 10
5.636460939535234
 20
-12.27283726082065
 30
0.0
 10
5.636460939535234
 20
-12.27283726082065
 30
0.0
 10
5.637127689518224
 20
-12.27276317748735
 30
0.0
 10
5.637127689518224
 20
-12.27276317748735
 30
0.0
  0
SPLINE
  5
306
330
1F
100
AcDbEntity
  8
Livello 3
100
AcDbSpline
210
0.0
220
0.0
230
1.0
 70
    24
 71
     3
 72
     8
 73
     4
 74
     0
 42
0.000000001
 43
0.0000000001
 40
55.0
 40
55.0
 40
55.0
 40
55.0
 40
56.0
 40
56.0
 40
56.0
 40
56.0
 10
5.637127689518224
 20
-12.27276317748735
 30
0.0
 10
5.637127689518224
 20
-12.27276317748735
 30
0.0
 10
5.637349939512553
 20
-12.27417076082032
 30
0.0
 10
5.637349939512553
 20
-12.27417076082032
 30
0.0
  0
SPLINE
  5
307
330
1F
100
AcDbEntity
  8
Livello 3
100
AcDbSpline
210
0.0
220
0.0
230
1.0
 70
    24
 71
     3
 72
     8
 73
     4
 74
     0
 42
0.000000001
 43
0.0000000001
 40
56.0
 40
56.0
 40
56.0
 40
56.0
 40
57.0
 40
57.0
 40
57.0
 40
57.0
 10
5.637349939512553
 20
-12.27417076082032
 30
0.0
 10
5.637349939512553
 20
-12.27417076082032
 30
0.0
 10
5.638090772826987
 20
-12.27202234415418
 30
0.0
 10
5.638090772826987
 20
-12.27202234415418
 30
0.0
  0
SPLINE
  5
308
330
1F
100
AcDbEntity
  8
Livello 3
100
AcDbSpline
210
0.0
220
0.0
230
1.0
 70
     8
 71
     3
 72
     8
 73
     4
 74
     0
 42
0.000000001
 43
0.0000000001
 40
57.0
 40
57.0
 40
57.0
 40
57.0
 40
58.0
 40
58.0
 40
58.0
 40
58.0
 10
5.638090772826987
 20
-12.27202234415418
 30
0.0
 10
5.788698657873548
 20
-12.18952878861929
 30
0.0
 10
5.947385153825119
 20
-12.12282203863595
 30
0.0
 10
6.108220220075431
 20
-12.06300856642869
 30
0.0
  0
SPLINE
  5
309
330
1F
100
AcDbEntity
  8
Livello 3
100
AcDbSpline
210
0.0
220
0.0
230
1.0
 70
    24
 71
     3
 72
     8
 73
     4
 74
     0
 42
0.000000001
 43
0.0000000001
 40
58.0
 40
58.0
 40
58.0
 40
58.0
 40
59.0
 40
59.0
 40
59.0
 40
59.0
 10
6.108220220075431
 20
-12.06300856642869
 30
0.0
 10
6.108220220075431
 20
-12.06300856642869
 30
0.0
 10
6.129048065857177
 20
-12.05530037198614
 30
0.0
 10
6.129048065857177
 20
-12.05530037198614
 30
0.0
  0
SPLINE
  5
30A
330
1F
100
AcDbEntity
  8
Livello 3
100
AcDbSpline
210
0.0
220
0.0
230
1.0
 70
    24
 71
     3
 72
     8
 73
     4
 74
     0
 42
0.000000001
 43
0.0000000001
 40
59.0
 40
59.0
 40
59.0
 40
59.0
 40
60.0
 40
60.0
 40
60.0
 40
60.0
 10
6.129048065857177
 20
-12.05530037198614
 30
0.0
 10
6.129048065857177
 20
-12.05530037198614
 30
0.0
 10
6.108220220075431
 20
-12.06300856642869
 30
0.0
 10
6.108220220075431
 20
-12.06300856642869
 30
0.0
  0
SPLINE
  5
30B
330
1F
100
AcDbEntity
  8
Livello 3
100
AcDbSpline
210
0.0
220
0.0
230
1.0
 70
     8
 71
     3
 72
     8
 73
     4
 74
     0
 42
0.000000001
 43
0.0000000001
 40
60.0
 40
60.0
 40
60.0
 40
60.0
 40
61.0
 40
61.0
 40
61.0
 40
61.0
 10
6.108220220075431
 20
-12.06300856642869
 30
0.0
 10
5.959167931302293
 20
-12.11844759419261
 30
0.0
 10
5.811971407279812
 20
-12.17982034417727
 30
0.0
 10
5.671297744202028
 20
-12.25415767749203
 30
0.0
  0
SPLINE
  5
30C
330
1F
100
AcDbEntity
  8
Livello 3
100
AcDbSpline
210
0.0
220
0.0
230
1.0
 70
    24
 71
     3
 72
     8
 73
     4
 74
     0
 42
0.000000001
 43
0.0000000001
 40
61.0
 40
61.0
 40
61.0
 40
61.0
 40
62.0
 40
62.0
 40
62.0
 40
62.0
 10
5.671297744202028
 20
-12.25415767749203
 30
0.0
 10
5.671297744202028
 20
-12.25415767749203
 30
0.0
 10
5.638090772826987
 20
-12.27202234415418
 30
0.0
 10
5.638090772826987
 20
-12.27202234415418
 30
0.0
  0
SPLINE
  5
30D
330
1F
100
AcDbEntity
  8
Livello 3
100
AcDbSpline
210
0.0
220
0.0
230
1.0
 70
    24
 71
     3
 72
     8
 73
     4
 74
     0
 42
0.000000001
 43
0.0000000001
 40
62.0
 40
62.0
 40
62.0
 40
62.0
 40
63.0
 40
63.0
 40
63.0
 40
63.0
 10
5.638090772826987
 20
-12.27202234415418
 30
0.0
 10
5.638090772826987
 20
-12.27202234415418
 30
0.0
 10
5.637868522832657
 20
-12.27187417748757
 30
0.0
 10
5.637868522832657
 20
-12.27187417748757
 30
0.0
  0
SPLINE
  5
30E
330
1F
100
AcDbEntity
  8
Livello 3
100
AcDbSpline
210
0.0
220
0.0
230
1.0
 70
    24
 71
     3
 72
     8
 73
     4
 74
     0
 42
0.000000001
 43
0.0000000001
 40
63.0
 40
63.0
 40
63.0
 40
63.0
 40
64.0
 40
64.0
 40
64.0
 40
64.0
 10
5.637868522832657
 20
-12.27187417748757
 30
0.0
 10
5.637868522832657
 20
-12.27187417748757
 30
0.0
 10
5.637572189506883
 20
-12.27217051082085
 30
0.0
 10
5.637572189506883
 20
-12.27217051082085
 30
0.0
  0
SPLINE
  5
30F
330
1F
100
AcDbEntity
  8
Livello 3
100
AcDbSpline
210
0.0
220
0.0
230
1.0
 70
    24
 71
     3
 72
     8
 73
     4
 74
     0
 42
0.000000001
 43
0.0000000001
 40
64.0
 40
64.0
 40
64.0
 40
64.0
 40
65.0
 40
65.0
 40
65.0
 40
65.0
 10
5.637572189506883
 20
-12.27217051082085
 30
0.0
 10
5.637572189506883
 20
-12.27217051082085
 30
0.0
 10
5.637349939512553
 20
-12.27217051082085
 30
0.0
 10
5.637349939512553
 20
-12.27217051082085
 30
0.0
  0
SPLINE
  5
310
330
1F
100
AcDbEntity
  8
Livello 3
100
AcDbSpline
210
0.0
220
0.0
230
1.0
 70
    24
 71
     3
 72
     8
 73
     4
 74
     0
 42
0.000000001
 43
0.0000000001
 40
65.0
 40
65.0
 40
65.0
 40
65.0
 40
66.0
 40
66.0
 40
66.0
 40
66.0
 10
5.637349939512553
 20
-12.27217051082085
 30
0.0
 10
5.637349939512553
 20
-12.27217051082085
 30
0.0
 10
5.637275856181111
 20
-12.27231867748745
 30
0.0
 10
5.637275856181111
 20
-12.27231867748745
 30
0.0
  0
SPLINE
  5
311
330
1F
100
AcDbEntity
  8
Livello 3
100
AcDbSpline
210
0.0
220
0.0
230
1.0
 70
    24
 71
     3
 72
     8
 73
     4
 74
     0
 42
0.000000001
 43
0.0000000001
 40
66.0
 40
66.0
 40
66.0
 40
66.0
 40
67.0
 40
67.0
 40
67.0
 40
67.0
 10
5.637275856181111
 20
-12.27231867748745
 30
0.0
 10
5.637275856181111
 20
-12.27231867748745
 30
0.0
 10
5.637127689518224
 20
-12.27254092748743
 30
0.0
 10
5.637127689518224
 20
-12.27254092748743
 30
0.0
  0
SPLINE
  5
312
330
1F
100
AcDbEntity
  8
Livello 3
100
AcDbSpline
210
0.0
220
0.0
230
1.0
 70
    24
 71
     3
 72
     8
 73
     4
 74
     0
 42
0.000000001
 43
0.0000000001
 40
67.0
 40
67.0
 40
67.0
 40
67.0
 40
68.0
 40
68.0
 40
68.0
 40
68.0
 10
5.637127689518224
 20
-12.27254092748743
 30
0.0
 10
5.637127689518224
 20
-12.27254092748743
 30
0.0
 10
5.637127689518224
 20
-12.27276317748735
 30
0.0
 10
5.637127689518224
 20
-12.27276317748735
 30
0.0
  0
SPLINE
  5
313
330
1F
100
AcDbEntity
  8
Livello 3
100
AcDbSpline
210
0.0
220
0.0
230
1.0
 70
    24
 71
     3
 72
     8
 73
     4
 74
     0
 42
0.000000001
 43
0.0000000001
 40
68.0
 40
68.0
 40
68.0
 40
68.0
 40
69.0
 40
69.0
 40
69.0
 40
69.0
 10
5.637127689518224
 20
-12.27276317748735
 30
0.0
 10
5.637127689518224
 20
-12.27276317748735
 30
0.0
 10
5.637349939512553
 20
-12.27417076082032
 30
0.0
 10
5.637349939512553
 20
-12.27417076082032
 30
0.0
  0
SPLINE
  5
314
330
1F
100
AcDbEntity
  8
Livello 3
100
AcDbSpline
210
0.0
220
0.0
230
1.0
 70
    24
 71
     3
 72
     8
 73
     4
 74
     0
 42
0.000000001
 43
0.0000000001
 40
69.0
 40
69.0
 40
69.0
 40
69.0
 40
70.0
 40
70.0
 40
70.0
 40
70.0
 10
5.637349939512553
 20
-12.27417076082032
 30
0.0
 10
5.637349939512553
 20
-12.27417076082032
 30
0.0
 10
5.634016331305093
 20
-12.27372626082043
 30
0.0
 10
5.634016331305093
 20
-12.27372626082043
 30
0.0
  0
SPLINE
  5
315
330
1F
100
AcDbEntity
  8
Livello 3
100
AcDbSpline
210
0.0
220
0.0
230
1.0
 70
    24
 71
     3
 72
     8
 73
     4
 74
     0
 42
0.000000001
 43
0.0000000001
 40
70.0
 40
70.0
 40
70.0
 40
70.0
 40
71.0
 40
71.0
 40
71.0
 40
71.0
 10
5.634016331305093
 20
-12.27372626082043
 30
0.0
 10
5.634016331305093
 20
-12.27372626082043
 30
0.0
 10
5.632382828528164
 20
-12.27461526082021
 30
0.0
 10
5.632382828528164
 20
-12.27461526082021
 30
0.0
  0
SPLINE
  5
316
330
1F
100
AcDbEntity
  8
Livello 3
100
AcDbSpline
210
0.0
220
0.0
230
1.0
 70
    24
 71
     3
 72
     8
 73
     4
 74
     0
 42
0.000000001
 43
0.0000000001
 40
71.0
 40
71.0
 40
71.0
 40
71.0
 40
72.0
 40
72.0
 40
72.0
 40
72.0
 10
5.632382828528164
 20
-12.27461526082021
 30
0.0
 10
5.632382828528164
 20
-12.27461526082021
 30
0.0
 10
5.631716078545174
 20
-12.2751338441534
 30
0.0
 10
5.631716078545174
 20
-12.2751338441534
 30
0.0
  0
SPLINE
  5
317
330
1F
100
AcDbEntity
  8
Livello 3
100
AcDbSpline
210
0.0
220
0.0
230
1.0
 70
    24
 71
     3
 72
     8
 73
     4
 74
     0
 42
0.000000001
 43
0.0000000001
 40
72.0
 40
72.0
 40
72.0
 40
72.0
 40
73.0
 40
73.0
 40
73.0
 40
73.0
 10
5.631716078545174
 20
-12.2751338441534
 30
0.0
 10
5.631716078545174
 20
-12.2751338441534
 30
0.0
 10
5.627789661978678
 20
-12.27535609415338
 30
0.0
 10
5.627789661978678
 20
-12.27535609415338
 30
0.0
  0
SPLINE
  5
318
330
1F
100
AcDbEntity
  8
Livello 3
100
AcDbSpline
210
0.0
220
0.0
230
1.0
 70
    24
 71
     3
 72
     8
 73
     4
 74
     0
 42
0.000000001
 43
0.0000000001
 40
73.0
 40
73.0
 40
73.0
 40
73.0
 40
74.0
 40
74.0
 40
74.0
 40
74.0
 10
5.627789661978678
 20
-12.27535609415338
 30
0.0
 10
5.627789661978678
 20
-12.27535609415338
 30
0.0
 10
5.62986399525909
 20
-12.2744670941536
 30
0.0
 10
5.62986399525909
 20
-12.2744670941536
 30
0.0
  0
SPLINE
  5
319
330
1F
100
AcDbEntity
  8
Livello 3
100
AcDbSpline
210
0.0
220
0.0
230
1.0
 70
    24
 71
     3
 72
     8
 73
     4
 74
     0
 42
0.000000001
 43
0.0000000001
 40
74.0
 40
74.0
 40
74.0
 40
74.0
 40
75.0
 40
75.0
 40
75.0
 40
75.0
 10
5.62986399525909
 20
-12.2744670941536
 30
0.0
 10
5.62986399525909
 20
-12.2744670941536
 30
0.0
 10
5.632160578533834
 20
-12.27372626082043
 30
0.0
 10
5.632160578533834
 20
-12.27372626082043
 30
0.0
  0
SPLINE
  5
31A
330
1F
100
AcDbEntity
  8
Livello 3
100
AcDbSpline
210
0.0
220
0.0
230
1.0
 70
    24
 71
     3
 72
     8
 73
     4
 74
     0
 42
0.000000001
 43
0.0000000001
 40
75.0
 40
75.0
 40
75.0
 40
75.0
 40
76.0
 40
76.0
 40
76.0
 40
76.0
 10
5.632160578533834
 20
-12.27372626082043
 30
0.0
 10
5.632160578533834
 20
-12.27372626082043
 30
0.0
 10
5.634016331305093
 20
-12.27372626082043
 30
0.0
 10
5.634016331305093
 20
-12.27372626082043
 30
0.0
  0
SPLINE
  5
31B
330
1F
100
AcDbEntity
  8
Livello 3
100
AcDbSpline
210
0.0
220
0.0
230
1.0
 70
    24
 71
     3
 72
     8
 73
     4
 74
     0
 42
0.000000001
 43
0.0000000001
 40
76.0
 40
76.0
 40
76.0
 40
76.0
 40
77.0
 40
77.0
 40
77.0
 40
77.0
 10
5.634016331305093
 20
-12.27372626082043
 30
0.0
 10
5.634016331305093
 20
-12.27372626082043
 30
0.0
 10
5.636460939535234
 20
-12.27283726082065
 30
0.0
 10
5.636460939535234
 20
-12.27283726082065
 30
0.0
  0
SPLINE
  5
31C
330
1F
100
AcDbEntity
  8
Livello 3
100
AcDbSpline
210
0.0
220
0.0
230
1.0
 70
    24
 71
     3
 72
     8
 73
     4
 74
     0
 42
0.000000001
 43
0.0000000001
 40
77.0
 40
77.0
 40
77.0
 40
77.0
 40
78.0
 40
78.0
 40
78.0
 40
78.0
 10
5.636460939535234
 20
-12.27283726082065
 30
0.0
 10
5.636460939535234
 20
-12.27283726082065
 30
0.0
 10
5.637127689518224
 20
-12.27276317748735
 30
0.0
 10
5.637127689518224
 20
-12.27276317748735
 30
0.0
  0
SPLINE
  5
31D
330
1F
100
AcDbEntity
  8
Livello 3
100
AcDbSpline
210
0.0
220
0.0
230
1.0
 70
    24
 71
     3
 72
     8
 73
     4
 74
     0
 42
0.000000001
 43
0.0000000001
 40
78.0
 40
78.0
 40
78.0
 40
78.0
 40
79.0
 40
79.0
 40
79.0
 40
79.0
 10
5.637127689518224
 20
-12.27276317748735
 30
0.0
 10
5.637127689518224
 20
-12.27276317748735
 30
0.0
 10
5.637127689518224
 20
-12.27254092748743
 30
0.0
 10
5.637127689518224
 20
-12.27254092748743
 30
0.0
  0
SPLINE
  5
31E
330
1F
100
AcDbEntity
  8
Livello 3
100
AcDbSpline
210
0.0
220
0.0
230
1.0
 70
    24
 71
     3
 72
     8
 73
     4
 74
     0
 42
0.000000001
 43
0.0000000001
 40
79.0
 40
79.0
 40
79.0
 40
79.0
 40
80.0
 40
80.0
 40
80.0
 40
80.0
 10
5.637127689518224
 20
-12.27254092748743
 30
0.0
 10
5.637127689518224
 20
-12.27254092748743
 30
0.0
 10
5.637275856181111
 20
-12.27231867748745
 30
0.0
 10
5.637275856181111
 20
-12.27231867748745
 30
0.0
  0
SPLINE
  5
31F
330
1F
100
AcDbEntity
  8
Livello 3
100
AcDbSpline
210
0.0
220
0.0
230
1.0
 70
    24
 71
     3
 72
     8
 73
     4
 74
     0
 42
0.000000001
 43
0.0000000001
 40
80.0
 40
80.0
 40
80.0
 40
80.0
 40
81.0
 40
81.0
 40
81.0
 40
81.0
 10
5.637275856181111
 20
-12.27231867748745
 30
0.0
 10
5.637275856181111
 20
-12.27231867748745
 30
0.0
 10
5.637349939512553
 20
-12.27217051082085
 30
0.0
 10
5.637349939512553
 20
-12.27217051082085
 30
0.0
  0
SPLINE
  5
320
330
1F
100
AcDbEntity
  8
Livello 3
100
AcDbSpline
210
0.0
220
0.0
230
1.0
 70
    24
 71
     3
 72
     8
 73
     4
 74
     0
 42
0.000000001
 43
0.0000000001
 40
81.0
 40
81.0
 40
81.0
 40
81.0
 40
82.0
 40
82.0
 40
82.0
 40
82.0
 10
5.637349939512553
 20
-12.27217051082085
 30
0.0
 10
5.637349939512553
 20
-12.27217051082085
 30
0.0
 10
5.637572189506883
 20
-12.27217051082085
 30
0.0
 10
5.637572189506883
 20
-12.27217051082085
 30
0.0
  0
SPLINE
  5
321
330
1F
100
AcDbEntity
  8
Livello 3
100
AcDbSpline
210
0.0
220
0.0
230
1.0
 70
    24
 71
     3
 72
     8
 73
     4
 74
     0
 42
0.000000001
 43
0.0000000001
 40
82.0
 40
82.0
 40
82.0
 40
82.0
 40
83.0
 40
83.0
 40
83.0
 40
83.0
 10
5.637572189506883
 20
-12.27217051082085
 30
0.0
 10
5.637572189506883
 20
-12.27217051082085
 30
0.0
 10
5.637868522832657
 20
-12.27187417748757
 30
0.0
 10
5.637868522832657
 20
-12.27187417748757
 30
0.0
  0
SPLINE
  5
322
330
1F
100
AcDbEntity
  8
Livello 3
100
AcDbSpline
210
0.0
220
0.0
230
1.0
 70
    24
 71
     3
 72
     8
 73
     4
 74
     0
 42
0.000000001
 43
0.0000000001
 40
83.0
 40
83.0
 40
83.0
 40
83.0
 40
84.0
 40
84.0
 40
84.0
 40
84.0
 10
5.637868522832657
 20
-12.27187417748757
 30
0.0
 10
5.637868522832657
 20
-12.27187417748757
 30
0.0
 10
5.636609106198121
 20
-12.27254092748743
 30
0.0
 10
5.636609106198121
 20
-12.27254092748743
 30
0.0
  0
SPLINE
  5
323
330
1F
100
AcDbEntity
  8
Livello 3
100
AcDbSpline
210
0.0
220
0.0
230
1.0
 70
    24
 71
     3
 72
     8
 73
     4
 74
     0
 42
0.000000001
 43
0.0000000001
 40
84.0
 40
84.0
 40
84.0
 40
84.0
 40
85.0
 40
85.0
 40
85.0
 40
85.0
 10
5.636609106198121
 20
-12.27254092748743
 30
0.0
 10
5.636609106198121
 20
-12.27254092748743
 30
0.0
 10
5.637868522832657
 20
-12.27187417748757
 30
0.0
 10
5.637868522832657
 20
-12.27187417748757
 30
0.0
  0
SPLINE
  5
324
330
1F
100
AcDbEntity
  8
Livello 3
100
AcDbSpline
210
0.0
220
0.0
230
1.0
 70
    24
 71
     3
 72
     8
 73
     4
 74
     0
 42
0.000000001
 43
0.0000000001
 40
85.0
 40
85.0
 40
85.0
 40
85.0
 40
86.0
 40
86.0
 40
86.0
 40
86.0
 10
5.637868522832657
 20
-12.27187417748757
 30
0.0
 10
5.637868522832657
 20
-12.27187417748757
 30
0.0
 10
5.666775133206298
 20
-12.25660595526914
 30
0.0
 10
5.666775133206298
 20
-12.25660595526914
 30
0.0
  0
SPLINE
  5
325
330
1F
100
AcDbEntity
  8
Livello 3
100
AcDbSpline
210
0.0
220
0.0
230
1.0
 70
    24
 71
     3
 72
     8
 73
     4
 74
     0
 42
0.000000001
 43
0.0000000001
 40
86.0
 40
86.0
 40
86.0
 40
86.0
 40
87.0
 40
87.0
 40
87.0
 40
87.0
 10
5.666775133206298
 20
-12.25660595526914
 30
0.0
 10
5.666775133206298
 20
-12.25660595526914
 30
0.0
 10
5.609480495779118
 20
-12.25756903860229
 30
0.0
 10
5.609480495779118
 20
-12.25756903860229
 30
0.0
  0
SPLINE
  5
326
330
1F
100
AcDbEntity
  8
Livello 3
100
AcDbSpline
210
0.0
220
0.0
230
1.0
 70
     8
 71
     3
 72
     8
 73
     4
 74
     0
 42
0.000000001
 43
0.0000000001
 40
87.0
 40
87.0
 40
87.0
 40
87.0
 40
88.0
 40
88.0
 40
88.0
 40
88.0
 10
5.609480495779118
 20
-12.25756903860229
 30
0.0
 10
5.517278498131386
 20
-12.26016195526826
 30
0.0
 10
5.423002167203243
 20
-12.26208812193449
 30
0.0
 10
5.331389308429371
 20
-12.27372626082043
 30
0.0
  0
SPLINE
  5
327
330
1F
100
AcDbEntity
  8
Livello 3
100
AcDbSpline
210
0.0
220
0.0
230
1.0
 70
    24
 71
     3
 72
     8
 73
     4
 74
     0
 42
0.000000001
 43
0.0000000001
 40
88.0
 40
88.0
 40
88.0
 40
88.0
 40
89.0
 40
89.0
 40
89.0
 40
89.0
 10
5.331389308429371
 20
-12.27372626082043
 30
0.0
 10
5.331389308429371
 20
-12.27372626082043
 30
0.0
 10
5.326425725222668
 20
-12.27535609415338
 30
0.0
 10
5.326425725222668
 20
-12.27535609415338
 30
0.0
  0
SPLINE
  5
328
330
1F
100
AcDbEntity
  8
Livello 3
100
AcDbSpline
210
0.0
220
0.0
230
1.0
 70
    24
 71
     3
 72
     8
 73
     4
 74
     0
 42
0.000000001
 43
0.0000000001
 40
89.0
 40
89.0
 40
89.0
 40
89.0
 40
90.0
 40
90.0
 40
90.0
 40
90.0
 10
5.326425725222668
 20
-12.27535609415338
 30
0.0
 10
5.326425725222668
 20
-12.27535609415338
 30
0.0
 10
5.331389308429371
 20
-12.27372626082043
 30
0.0
 10
5.331389308429371
 20
-12.27372626082043
 30
0.0
  0
SPLINE
  5
329
330
1F
100
AcDbEntity
  8
Livello 3
100
AcDbSpline
210
0.0
220
0.0
230
1.0
 70
    24
 71
     3
 72
     8
 73
     4
 74
     0
 42
0.000000001
 43
0.0000000001
 40
90.0
 40
90.0
 40
90.0
 40
90.0
 40
91.0
 40
91.0
 40
91.0
 40
91.0
 10
5.331389308429371
 20
-12.27372626082043
 30
0.0
 10
5.331389308429371
 20
-12.27372626082043
 30
0.0
 10
5.326425725222668
 20
-12.27535609415338
 30
0.0
 10
5.326425725222668
 20
-12.27535609415338
 30
0.0
  0
SPLINE
  5
32A
330
1F
100
AcDbEntity
  8
Livello 3
100
AcDbSpline
210
0.0
220
0.0
230
1.0
 70
    24
 71
     3
 72
     8
 73
     4
 74
     0
 42
0.000000001
 43
0.0000000001
 40
91.0
 40
91.0
 40
91.0
 40
91.0
 40
92.0
 40
92.0
 40
92.0
 40
92.0
 10
5.326425725222668
 20
-12.27535609415338
 30
0.0
 10
5.326425725222668
 20
-12.27535609415338
 30
0.0
 10
5.296407998056174
 20
-12.29166148303819
 30
0.0
 10
5.296407998056174
 20
-12.29166148303819
 30
0.0
  0
SPLINE
  5
32B
330
1F
100
AcDbEntity
  8
Livello 3
100
AcDbSpline
210
0.0
220
0.0
230
1.0
 70
     8
 71
     3
 72
     8
 73
     4
 74
     0
 42
0.000000001
 43
0.0000000001
 40
92.0
 40
92.0
 40
92.0
 40
92.0
 40
93.0
 40
93.0
 40
93.0
 40
93.0
 10
5.296407998056174
 20
-12.29166148303819
 30
0.0
 10
5.306560809062798
 20
-12.28610170526179
 30
0.0
 10
5.316643197694463
 20
-12.2806936219298
 30
0.0
 10
5.326722058548443
 20
-12.2751338441534
 30
0.0
  0
SPLINE
  5
32C
330
1F
100
AcDbEntity
  8
Livello 3
100
AcDbSpline
210
0.0
220
0.0
230
1.0
 70
     8
 71
     3
 72
     8
 73
     4
 74
     0
 42
0.000000001
 43
0.0000000001
 40
93.0
 40
93.0
 40
93.0
 40
93.0
 40
94.0
 40
94.0
 40
94.0
 40
94.0
 10
5.326722058548443
 20
-12.2751338441534
 30
0.0
 10
5.316643197694463
 20
-12.2806936219298
 30
0.0
 10
5.306560809062798
 20
-12.28610170526179
 30
0.0
 10
5.296407998056174
 20
-12.29166148303819
 30
0.0
  0
SPLINE
  5
32D
330
1F
100
AcDbEntity
  8
Livello 3
100
AcDbSpline
210
0.0
220
0.0
230
1.0
 70
    24
 71
     3
 72
     8
 73
     4
 74
     0
 42
0.000000001
 43
0.0000000001
 40
94.0
 40
94.0
 40
94.0
 40
94.0
 40
95.0
 40
95.0
 40
95.0
 40
95.0
 10
5.296407998056174
 20
-12.29166148303819
 30
0.0
 10
5.296407998056174
 20
-12.29166148303819
 30
0.0
 10
5.296111531551603
 20
-12.29173909414924
 30
0.0
 10
5.296111531551603
 20
-12.29173909414924
 30
0.0
  0
SPLINE
  5
32E
330
1F
100
AcDbEntity
  8
Livello 3
100
AcDbSpline
210
0.0
220
0.0
230
1.0
 70
    24
 71
     3
 72
     8
 73
     4
 74
     0
 42
0.000000001
 43
0.0000000001
 40
95.0
 40
95.0
 40
95.0
 40
95.0
 40
96.0
 40
96.0
 40
96.0
 40
96.0
 10
5.296111531551603
 20
-12.29173909414924
 30
0.0
 10
5.296111531551603
 20
-12.29173909414924
 30
0.0
 10
9.035728741701577
 20
-12.29173909414924
 30
0.0
 10
9.035728741701577
 20
-12.29173909414924
 30
0.0
  0
SPLINE
  5
32F
330
1F
100
AcDbEntity
  8
Livello 3
100
AcDbSpline
210
0.0
220
0.0
230
1.0
 70
    24
 71
     3
 72
     8
 73
     4
 74
     0
 42
0.000000001
 43
0.0000000001
 40
96.0
 40
96.0
 40
96.0
 40
96.0
 40
97.0
 40
97.0
 40
97.0
 40
97.0
 10
9.035728741701577
 20
-12.29173909414924
 30
0.0
 10
9.035728741701577
 20
-12.29173909414924
 30
0.0
 10
9.005118214704738
 20
-12.27535609415338
 30
0.0
 10
9.005118214704738
 20
-12.27535609415338
 30
0.0
  0
SPLINE
  5
330
330
1F
100
AcDbEntity
  8
Livello 3
100
AcDbSpline
210
0.0
220
0.0
230
1.0
 70
     8
 71
     3
 72
     8
 73
     4
 74
     0
 42
0.000000001
 43
0.0000000001
 40
97.0
 40
97.0
 40
97.0
 40
97.0
 40
98.0
 40
98.0
 40
98.0
 40
98.0
 10
9.005118214704738
 20
-12.27535609415338
 30
0.0
 10
9.015567719348579
 20
-12.2806936219298
 30
0.0
 10
9.025723964179043
 20
-12.28632748303951
 30
0.0
 10
9.035950991695905
 20
-12.29195781637147
 30
0.0
  0
SPLINE
  5
331
330
1F
100
AcDbEntity
  8
Livello 3
100
AcDbSpline
210
0.0
220
0.0
230
1.0
 70
     8
 71
     3
 72
     8
 73
     4
 74
     0
 42
0.000000001
 43
0.0000000001
 40
98.0
 40
98.0
 40
98.0
 40
98.0
 40
99.0
 40
99.0
 40
99.0
 40
99.0
 10
9.035950991695905
 20
-12.29195781637147
 30
0.0
 10
9.025723964179043
 20
-12.28632748303951
 30
0.0
 10
9.015567719348579
 20
-12.2806936219298
 30
0.0
 10
9.005118214704738
 20
-12.27535609415338
 30
0.0
  0
SPLINE
  5
332
330
1F
100
AcDbEntity
  8
Livello 3
100
AcDbSpline
210
0.0
220
0.0
230
1.0
 70
    24
 71
     3
 72
     8
 73
     4
 74
     0
 42
0.000000001
 43
0.0000000001
 40
99.0
 40
99.0
 40
99.0
 40
99.0
 40
100.0
 40
100.0
 40
100.0
 40
100.0
 10
9.005118214704738
 20
-12.27535609415338
 30
0.0
 10
9.005118214704738
 20
-12.27535609415338
 30
0.0
 10
9.000447437046121
 20
-12.27372626082043
 30
0.0
 10
9.000447437046121
 20
-12.27372626082043
 30
0.0
  0
SPLINE
  5
333
330
1F
100
AcDbEntity
  8
Livello 3
100
AcDbSpline
210
0.0
220
0.0
230
1.0
 70
    24
 71
     3
 72
     8
 73
     4
 74
     0
 42
0.000000001
 43
0.0000000001
 40
100.0
 40
100.0
 40
100.0
 40
100.0
 40
101.0
 40
101.0
 40
101.0
 40
101.0
 10
9.000447437046121
 20
-12.27372626082043
 30
0.0
 10
9.000447437046121
 20
-12.27372626082043
 30
0.0
 10
9.005562714693398
 20
-12.27535609415338
 30
0.0
 10
9.005562714693398
 20
-12.27535609415338
 30
0.0
  0
SPLINE
  5
334
330
1F
100
AcDbEntity
  8
Livello 3
100
AcDbSpline
210
0.0
220
0.0
230
1.0
 70
    24
 71
     3
 72
     8
 73
     4
 74
     0
 42
0.000000001
 43
0.0000000001
 40
101.0
 40
101.0
 40
101.0
 40
101.0
 40
102.0
 40
102.0
 40
102.0
 40
102.0
 10
9.005562714693398
 20
-12.27535609415338
 30
0.0
 10
9.005562714693398
 20
-12.27535609415338
 30
0.0
 10
9.000447437046121
 20
-12.27372626082043
 30
0.0
 10
9.000447437046121
 20
-12.27372626082043
 30
0.0
  0
SPLINE
  5
335
330
1F
100
AcDbEntity
  8
Livello 3
100
AcDbSpline
210
0.0
220
0.0
230
1.0
 70
     8
 71
     3
 72
     8
 73
     4
 74
     0
 42
0.000000001
 43
0.0000000001
 40
102.0
 40
102.0
 40
102.0
 40
102.0
 40
103.0
 40
103.0
 40
103.0
 40
103.0
 10
9.000447437046121
 20
-12.27372626082043
 30
0.0
 10
8.903800439511792
 20
-12.26186587193451
 30
0.0
 10
8.803886719838581
 20
-12.25971745526837
 30
0.0
 10
8.706572972321261
 20
-12.25719862193571
 30
0.0
  0
SPLINE
  5
336
330
1F
100
AcDbEntity
  8
Livello 3
100
AcDbSpline
210
0.0
220
0.0
230
1.0
 70
    24
 71
     3
 72
     8
 73
     4
 74
     0
 42
0.000000001
 43
0.0000000001
 40
103.0
 40
103.0
 40
103.0
 40
103.0
 40
104.0
 40
104.0
 40
104.0
 40
104.0
 10
8.706572972321261
 20
-12.25719862193571
 30
0.0
 10
8.706572972321261
 20
-12.25719862193571
 30
0.0
 10
8.664991056715436
 20
-12.25660595526914
 30
0.0
 10
8.664991056715436
 20
-12.25660595526914
 30
0.0
  0
SPLINE
  5
337
330
1F
100
AcDbEntity
  8
Livello 3
100
AcDbSpline
210
0.0
220
0.0
230
1.0
 70
    24
 71
     3
 72
     8
 73
     4
 74
     0
 42
0.000000001
 43
0.0000000001
 40
104.0
 40
104.0
 40
104.0
 40
104.0
 40
105.0
 40
105.0
 40
105.0
 40
105.0
 10
8.664991056715436
 20
-12.25660595526914
 30
0.0
 10
8.664991056715436
 20
-12.25660595526914
 30
0.0
 10
8.693823583757636
 20
-12.27202234415418
 30
0.0
 10
8.693823583757636
 20
-12.27202234415418
 30
0.0
  0
SPLINE
  5
338
330
1F
100
AcDbEntity
  8
Livello 3
100
AcDbSpline
210
0.0
220
0.0
230
1.0
 70
    24
 71
     3
 72
     8
 73
     4
 74
     0
 42
0.000000001
 43
0.0000000001
 40
105.0
 40
105.0
 40
105.0
 40
105.0
 40
106.0
 40
106.0
 40
106.0
 40
106.0
 10
8.693823583757636
 20
-12.27202234415418
 30
0.0
 10
8.693823583757636
 20
-12.27202234415418
 30
0.0
 10
8.689523222756236
 20
-12.26957406637706
 30
0.0
 10
8.689523222756236
 20
-12.26957406637706
 30
0.0
  0
SPLINE
  5
339
330
1F
100
AcDbEntity
  8
Livello 3
100
AcDbSpline
210
0.0
220
0.0
230
1.0
 70
    24
 71
     3
 72
     8
 73
     4
 74
     0
 42
0.000000001
 43
0.0000000001
 40
106.0
 40
106.0
 40
106.0
 40
106.0
 40
107.0
 40
107.0
 40
107.0
 40
107.0
 10
8.689523222756236
 20
-12.26957406637706
 30
0.0
 10
8.689523222756236
 20
-12.26957406637706
 30
0.0
 10
8.6523898348147
 20
-12.24971267749313
 30
0.0
 10
8.6523898348147
 20
-12.24971267749313
 30
0.0
  0
SPLINE
  5
33A
330
1F
100
AcDbEntity
  8
Livello 3
100
AcDbSpline
210
0.0
220
0.0
230
1.0
 70
     8
 71
     3
 72
     8
 73
     4
 74
     0
 42
0.000000001
 43
0.0000000001
 40
107.0
 40
107.0
 40
107.0
 40
107.0
 40
108.0
 40
108.0
 40
108.0
 40
108.0
 10
8.6523898348147
 20
-12.24971267749313
 30
0.0
 10
8.528391976867036
 20
-12.18522842750925
 30
0.0
 10
8.399056591277769
 20
-12.12949306641205
 30
0.0
 10
8.268387705722521
 20
-12.07983253864669
 30
0.0
  0
SPLINE
  5
33B
330
1F
100
AcDbEntity
  8
Livello 3
100
AcDbSpline
210
0.0
220
0.0
230
1.0
 70
    24
 71
     3
 72
     8
 73
     4
 74
     0
 42
0.000000001
 43
0.0000000001
 40
108.0
 40
108.0
 40
108.0
 40
108.0
 40
109.0
 40
109.0
 40
109.0
 40
109.0
 10
8.268387705722521
 20
-12.07983253864669
 30
0.0
 10
8.268387705722521
 20
-12.07983253864669
 30
0.0
 10
8.241777678623622
 20
-12.06982776087139
 30
0.0
 10
8.241777678623622
 20
-12.06982776087139
 30
0.0
  0
SPLINE
  5
33C
330
1F
100
AcDbEntity
  8
Livello 3
100
AcDbSpline
210
0.0
220
0.0
230
1.0
 70
    24
 71
     3
 72
     8
 73
     4
 74
     0
 42
0.000000001
 43
0.0000000001
 40
109.0
 40
109.0
 40
109.0
 40
109.0
 40
110.0
 40
110.0
 40
110.0
 40
110.0
 10
8.241777678623622
 20
-12.06982776087139
 30
0.0
 10
8.241777678623622
 20
-12.06982776087139
 30
0.0
 10
8.216430595936946
 20
-12.06041564976266
 30
0.0
 10
8.216430595936946
 20
-12.06041564976266
 30
0.0
  0
SPLINE
  5
33D
330
1F
100
AcDbEntity
  8
Livello 3
100
AcDbSpline
210
0.0
220
0.0
230
1.0
 70
    24
 71
     3
 72
     8
 73
     4
 74
     0
 42
0.000000001
 43
0.0000000001
 40
110.0
 40
110.0
 40
110.0
 40
110.0
 40
111.0
 40
111.0
 40
111.0
 40
111.0
 10
8.216430595936946
 20
-12.06041564976266
 30
0.0
 10
8.216430595936946
 20
-12.06041564976266
 30
0.0
 10
8.202866290727445
 20
-12.05530037198614
 30
0.0
 10
8.202866290727445
 20
-12.05530037198614
 30
0.0
  0
SPLINE
  5
33E
330
1F
100
AcDbEntity
  8
Livello 3
100
AcDbSpline
210
0.0
220
0.0
230
1.0
 70
    24
 71
     3
 72
     8
 73
     4
 74
     0
 42
0.000000001
 43
0.0000000001
 40
111.0
 40
111.0
 40
111.0
 40
111.0
 40
112.0
 40
112.0
 40
112.0
 40
112.0
 10
8.202866290727445
 20
-12.05530037198614
 30
0.0
 10
8.202866290727445
 20
-12.05530037198614
 30
0.0
 10
8.196047096456972
 20
-12.05389278865317
 30
0.0
 10
8.196047096456972
 20
-12.05389278865317
 30
0.0
  0
SPLINE
  5
33F
330
1F
100
AcDbEntity
  8
Livello 3
100
AcDbSpline
210
0.0
220
0.0
230
1.0
 70
    24
 71
     3
 72
     8
 73
     4
 74
     0
 42
0.000000001
 43
0.0000000001
 40
112.0
 40
112.0
 40
112.0
 40
112.0
 40
113.0
 40
113.0
 40
113.0
 40
113.0
 10
8.196047096456972
 20
-12.05389278865317
 30
0.0
 10
8.196047096456972
 20
-12.05389278865317
 30
0.0
 10
8.187894402220521
 20
-12.0509259275428
 30
0.0
 10
8.187894402220521
 20
-12.0509259275428
 30
0.0
  0
SPLINE
  5
340
330
1F
100
AcDbEntity
  8
Livello 3
100
AcDbSpline
210
0.0
220
0.0
230
1.0
 70
    24
 71
     3
 72
     8
 73
     4
 74
     0
 42
0.000000001
 43
0.0000000001
 40
113.0
 40
113.0
 40
113.0
 40
113.0
 40
114.0
 40
114.0
 40
114.0
 40
114.0
 10
8.187894402220521
 20
-12.0509259275428
 30
0.0
 10
8.187894402220521
 20
-12.0509259275428
 30
0.0
 10
8.181149291281492
 20
-12.04803667754355
 30
0.0
 10
8.181149291281492
 20
-12.04803667754355
 30
0.0
  0
SPLINE
  5
341
330
1F
100
AcDbEntity
  8
Livello 3
100
AcDbSpline
210
0.0
220
0.0
230
1.0
 70
    24
 71
     3
 72
     8
 73
     4
 74
     0
 42
0.000000001
 43
0.0000000001
 40
114.0
 40
114.0
 40
114.0
 40
114.0
 40
115.0
 40
115.0
 40
115.0
 40
115.0
 10
8.181149291281492
 20
-12.04803667754355
 30
0.0
 10
8.181149291281492
 20
-12.04803667754355
 30
0.0
 10
8.175663596976999
 20
-12.04536967754421
 30
0.0
 10
8.175663596976999
 20
-12.04536967754421
 30
0.0
  0
SPLINE
  5
342
330
1F
100
AcDbEntity
  8
Livello 3
100
AcDbSpline
210
0.0
220
0.0
230
1.0
 70
    24
 71
     3
 72
     8
 73
     4
 74
     0
 42
0.000000001
 43
0.0000000001
 40
115.0
 40
115.0
 40
115.0
 40
115.0
 40
116.0
 40
116.0
 40
116.0
 40
116.0
 10
8.175663596976999
 20
-12.04536967754421
 30
0.0
 10
8.175663596976999
 20
-12.04536967754421
 30
0.0
 10
8.170996347096071
 20
-12.04322126087807
 30
0.0
 10
8.170996347096071
 20
-12.04322126087807
 30
0.0
  0
SPLINE
  5
343
330
1F
100
AcDbEntity
  8
Livello 3
100
AcDbSpline
210
0.0
220
0.0
230
1.0
 70
    24
 71
     3
 72
     8
 73
     4
 74
     0
 42
0.000000001
 43
0.0000000001
 40
116.0
 40
116.0
 40
116.0
 40
116.0
 40
117.0
 40
117.0
 40
117.0
 40
117.0
 10
8.170996347096071
 20
-12.04322126087807
 30
0.0
 10
8.170996347096071
 20
-12.04322126087807
 30
0.0
 10
8.167288652746217
 20
-12.04114339976748
 30
0.0
 10
8.167288652746217
 20
-12.04114339976748
 30
0.0
  0
SPLINE
  5
344
330
1F
100
AcDbEntity
  8
Livello 3
100
AcDbSpline
210
0.0
220
0.0
230
1.0
 70
     8
 71
     3
 72
     8
 73
     4
 74
     0
 42
0.000000001
 43
0.0000000001
 40
117.0
 40
117.0
 40
117.0
 40
117.0
 40
118.0
 40
118.0
 40
118.0
 40
118.0
 10
8.167288652746217
 20
-12.04114339976748
 30
0.0
 10
8.164399402819928
 20
-12.03877273310142
 30
0.0
 10
8.160469664006814
 20
-12.03595403865766
 30
0.0
 10
8.166325775116467
 20
-12.03402787199149
 30
0.0
  0
SPLINE
  5
345
330
1F
100
AcDbEntity
  8
Livello 3
100
AcDbSpline
210
0.0
220
0.0
230
1.0
 70
    24
 71
     3
 72
     8
 73
     4
 74
     0
 42
0.000000001
 43
0.0000000001
 40
118.0
 40
118.0
 40
118.0
 40
118.0
 40
119.0
 40
119.0
 40
119.0
 40
119.0
 10
8.166325775116467
 20
-12.03402787199149
 30
0.0
 10
8.166325775116467
 20
-12.03402787199149
 30
0.0
 10
8.169366513804318
 20
-12.03321295532501
 30
0.0
 10
8.169366513804318
 20
-12.03321295532501
 30
0.0
  0
SPLINE
  5
346
330
1F
100
AcDbEntity
  8
Livello 3
100
AcDbSpline
210
0.0
220
0.0
230
1.0
 70
    24
 71
     3
 72
     8
 73
     4
 74
     0
 42
0.000000001
 43
0.0000000001
 40
119.0
 40
119.0
 40
119.0
 40
119.0
 40
120.0
 40
120.0
 40
120.0
 40
120.0
 10
8.169366513804318
 20
-12.03321295532501
 30
0.0
 10
8.169366513804318
 20
-12.03321295532501
 30
0.0
 10
8.173663552892397
 20
-12.03291662199173
 30
0.0
 10
8.173663552892397
 20
-12.03291662199173
 30
0.0
  0
SPLINE
  5
347
330
1F
100
AcDbEntity
  8
Livello 3
100
AcDbSpline
210
0.0
220
0.0
230
1.0
 70
    24
 71
     3
 72
     8
 73
     4
 74
     0
 42
0.000000001
 43
0.0000000001
 40
120.0
 40
120.0
 40
120.0
 40
120.0
 40
121.0
 40
121.0
 40
121.0
 40
121.0
 10
8.173663552892397
 20
-12.03291662199173
 30
0.0
 10
8.173663552892397
 20
-12.03291662199173
 30
0.0
 10
8.17877883066891
 20
-12.03269437199182
 30
0.0
 10
8.17877883066891
 20
-12.03269437199182
 30
0.0
  0
SPLINE
  5
348
330
1F
100
AcDbEntity
  8
Livello 3
100
AcDbSpline
210
0.0
220
0.0
230
1.0
 70
    24
 71
     3
 72
     8
 73
     4
 74
     0
 42
0.000000001
 43
0.0000000001
 40
121.0
 40
121.0
 40
121.0
 40
121.0
 40
122.0
 40
122.0
 40
122.0
 40
122.0
 10
8.17877883066891
 20
-12.03269437199182
 30
0.0
 10
8.17877883066891
 20
-12.03269437199182
 30
0.0
 10
8.173663552892397
 20
-12.03291662199173
 30
0.0
 10
8.173663552892397
 20
-12.03291662199173
 30
0.0
  0
SPLINE
  5
349
330
1F
100
AcDbEntity
  8
Livello 3
100
AcDbSpline
210
0.0
220
0.0
230
1.0
 70
    24
 71
     3
 72
     8
 73
     4
 74
     0
 42
0.000000001
 43
0.0000000001
 40
122.0
 40
122.0
 40
122.0
 40
122.0
 40
123.0
 40
123.0
 40
123.0
 40
123.0
 10
8.173663552892397
 20
-12.03291662199173
 30
0.0
 10
8.173663552892397
 20
-12.03291662199173
 30
0.0
 10
8.169366513804318
 20
-12.03321295532501
 30
0.0
 10
8.169366513804318
 20
-12.03321295532501
 30
0.0
  0
SPLINE
  5
34A
330
1F
100
AcDbEntity
  8
Livello 3
100
AcDbSpline
210
0.0
220
0.0
230
1.0
 70
    24
 71
     3
 72
     8
 73
     4
 74
     0
 42
0.000000001
 43
0.0000000001
 40
123.0
 40
123.0
 40
123.0
 40
123.0
 40
124.0
 40
124.0
 40
124.0
 40
124.0
 10
8.169366513804318
 20
-12.03321295532501
 30
0.0
 10
8.169366513804318
 20
-12.03321295532501
 30
0.0
 10
8.166325775116467
 20
-12.03402787199149
 30
0.0
 10
8.166325775116467
 20
-12.03402787199149
 30
0.0
  0
SPLINE
  5
34B
330
1F
100
AcDbEntity
  8
Livello 3
100
AcDbSpline
210
0.0
220
0.0
230
1.0
 70
    24
 71
     3
 72
     8
 73
     4
 74
     0
 42
0.000000001
 43
0.0000000001
 40
124.0
 40
124.0
 40
124.0
 40
124.0
 40
125.0
 40
125.0
 40
125.0
 40
125.0
 10
8.166325775116467
 20
-12.03402787199149
 30
0.0
 10
8.166325775116467
 20
-12.03402787199149
 30
0.0
 10
8.164251236157042
 20
-12.03499095532457
 30
0.0
 10
8.164251236157042
 20
-12.03499095532457
 30
0.0
  0
SPLINE
  5
34C
330
1F
100
AcDbEntity
  8
Livello 3
100
AcDbSpline
210
0.0
220
0.0
230
1.0
 70
    24
 71
     3
 72
     8
 73
     4
 74
     0
 42
0.000000001
 43
0.0000000001
 40
125.0
 40
125.0
 40
125.0
 40
125.0
 40
126.0
 40
126.0
 40
126.0
 40
126.0
 10
8.164251236157042
 20
-12.03499095532457
 30
0.0
 10
8.164251236157042
 20
-12.03499095532457
 30
0.0
 10
8.163362441783879
 20
-12.03603164976878
 30
0.0
 10
8.163362441783879
 20
-12.03603164976878
 30
0.0
  0
SPLINE
  5
34D
330
1F
100
AcDbEntity
  8
Livello 3
100
AcDbSpline
210
0.0
220
0.0
230
1.0
 70
    24
 71
     3
 72
     8
 73
     4
 74
     0
 42
0.000000001
 43
0.0000000001
 40
126.0
 40
126.0
 40
126.0
 40
126.0
 40
127.0
 40
127.0
 40
127.0
 40
127.0
 10
8.163362441783879
 20
-12.03603164976878
 30
0.0
 10
8.163362441783879
 20
-12.03603164976878
 30
0.0
 10
8.163584486174052
 20
-12.03751331643505
 30
0.0
 10
8.163584486174052
 20
-12.03751331643505
 30
0.0
  0
SPLINE
  5
34E
330
1F
100
AcDbEntity
  8
Livello 3
100
AcDbSpline
210
0.0
220
0.0
230
1.0
 70
    24
 71
     3
 72
     8
 73
     4
 74
     0
 42
0.000000001
 43
0.0000000001
 40
127.0
 40
127.0
 40
127.0
 40
127.0
 40
128.0
 40
128.0
 40
128.0
 40
128.0
 10
8.163584486174052
 20
-12.03751331643505
 30
0.0
 10
8.163584486174052
 20
-12.03751331643505
 30
0.0
 10
8.164992069471475
 20
-12.03921723310131
 30
0.0
 10
8.164992069471475
 20
-12.03921723310131
 30
0.0
  0
SPLINE
  5
34F
330
1F
100
AcDbEntity
  8
Livello 3
100
AcDbSpline
210
0.0
220
0.0
230
1.0
 70
    24
 71
     3
 72
     8
 73
     4
 74
     0
 42
0.000000001
 43
0.0000000001
 40
128.0
 40
128.0
 40
128.0
 40
128.0
 40
129.0
 40
129.0
 40
129.0
 40
129.0
 10
8.164992069471475
 20
-12.03921723310131
 30
0.0
 10
8.164992069471475
 20
-12.03921723310131
 30
0.0
 10
8.167288652746217
 20
-12.04114339976748
 30
0.0
 10
8.167288652746217
 20
-12.04114339976748
 30
0.0
  0
SPLINE
  5
350
330
1F
100
AcDbEntity
  8
Livello 3
100
AcDbSpline
210
0.0
220
0.0
230
1.0
 70
     8
 71
     3
 72
     8
 73
     4
 74
     0
 42
0.000000001
 43
0.0000000001
 40
129.0
 40
129.0
 40
129.0
 40
129.0
 40
130.0
 40
130.0
 40
130.0
 40
130.0
 10
8.167288652746217
 20
-12.04114339976748
 30
0.0
 10
8.176111624743347
 20
-12.04596234421071
 30
0.0
 10
8.186560902254541
 20
-12.05078128865394
 30
0.0
 10
8.196047096456972
 20
-12.05389278865317
 30
0.0
  0
SPLINE
  5
351
330
1F
100
AcDbEntity
  8
Livello 3
100
AcDbSpline
210
0.0
220
0.0
230
1.0
 70
    24
 71
     3
 72
     8
 73
     4
 74
     0
 42
0.000000001
 43
0.0000000001
 40
130.0
 40
130.0
 40
130.0
 40
130.0
 40
131.0
 40
131.0
 40
131.0
 40
131.0
 10
8.196047096456972
 20
-12.05389278865317
 30
0.0
 10
8.196047096456972
 20
-12.05389278865317
 30
0.0
 10
8.202125457413012
 20
-12.05515220531953
 30
0.0
 10
8.202125457413012
 20
-12.05515220531953
 30
0.0
  0
SPLINE
  5
352
330
1F
100
AcDbEntity
  8
Livello 3
100
AcDbSpline
210
0.0
220
0.0
230
1.0
 70
    24
 71
     3
 72
     8
 73
     4
 74
     0
 42
0.000000001
 43
0.0000000001
 40
131.0
 40
131.0
 40
131.0
 40
131.0
 40
132.0
 40
132.0
 40
132.0
 40
132.0
 10
8.202125457413012
 20
-12.05515220531953
 30
0.0
 10
8.202125457413012
 20
-12.05515220531953
 30
0.0
 10
8.203088540721775
 20
-12.05530037198614
 30
0.0
 10
8.203088540721775
 20
-12.05530037198614
 30
0.0
  0
SPLINE
  5
353
330
1F
100
AcDbEntity
  8
Livello 3
100
AcDbSpline
210
0.0
220
0.0
230
1.0
 70
    24
 71
     3
 72
     8
 73
     4
 74
     0
 42
0.000000001
 43
0.0000000001
 40
132.0
 40
132.0
 40
132.0
 40
132.0
 40
133.0
 40
133.0
 40
133.0
 40
133.0
 10
8.203088540721775
 20
-12.05530037198614
 30
0.0
 10
8.203088540721775
 20
-12.05530037198614
 30
0.0
 10
8.202125457413012
 20
-12.05515220531953
 30
0.0
 10
8.202125457413012
 20
-12.05515220531953
 30
0.0
  0
SPLINE
  5
354
330
1F
100
AcDbEntity
  8
Livello 3
100
AcDbSpline
210
0.0
220
0.0
230
1.0
 70
    24
 71
     3
 72
     8
 73
     4
 74
     0
 42
0.000000001
 43
0.0000000001
 40
133.0
 40
133.0
 40
133.0
 40
133.0
 40
134.0
 40
134.0
 40
134.0
 40
134.0
 10
8.202125457413012
 20
-12.05515220531953
 30
0.0
 10
8.202125457413012
 20
-12.05515220531953
 30
0.0
 10
8.196047096456972
 20
-12.05389278865317
 30
0.0
 10
8.196047096456972
 20
-12.05389278865317
 30
0.0
  0
SPLINE
  5
355
330
1F
100
AcDbEntity
  8
Livello 3
100
AcDbSpline
210
0.0
220
0.0
230
1.0
 70
    24
 71
     3
 72
     8
 73
     4
 74
     0
 42
0.000000001
 43
0.0000000001
 40
134.0
 40
134.0
 40
134.0
 40
134.0
 40
135.0
 40
135.0
 40
135.0
 40
135.0
 10
8.196047096456972
 20
-12.05389278865317
 30
0.0
 10
8.196047096456972
 20
-12.05389278865317
 30
0.0
 10
8.320563537724737
 20
-12.07494303864791
 30
0.0
 10
8.320563537724737
 20
-12.07494303864791
 30
0.0
  0
SPLINE
  5
356
330
1F
100
AcDbEntity
  8
Livello 3
100
AcDbSpline
210
0.0
220
0.0
230
1.0
 70
    24
 71
     3
 72
     8
 73
     4
 74
     0
 42
0.000000001
 43
0.0000000001
 40
135.0
 40
135.0
 40
135.0
 40
135.0
 40
136.0
 40
136.0
 40
136.0
 40
136.0
 10
8.320563537724737
 20
-12.07494303864791
 30
0.0
 10
8.320563537724737
 20
-12.07494303864791
 30
0.0
 10
8.321900775077567
 20
-12.10058645530815
 30
0.0
 10
8.321900775077567
 20
-12.10058645530815
 30
0.0
  0
SPLINE
  5
357
330
1F
100
AcDbEntity
  8
Livello 3
100
AcDbSpline
210
0.0
220
0.0
230
1.0
 70
    24
 71
     3
 72
     8
 73
     4
 74
     0
 42
0.000000001
 43
0.0000000001
 40
136.0
 40
136.0
 40
136.0
 40
136.0
 40
137.0
 40
137.0
 40
137.0
 40
137.0
 10
8.321900775077567
 20
-12.10058645530815
 30
0.0
 10
8.321900775077567
 20
-12.10058645530815
 30
0.0
 10
8.320563537724737
 20
-12.07494303864791
 30
0.0
 10
8.320563537724737
 20
-12.07494303864791
 30
0.0
  0
SPLINE
  5
358
330
1F
100
AcDbEntity
  8
Livello 3
100
AcDbSpline
210
0.0
220
0.0
230
1.0
 70
     8
 71
     3
 72
     8
 73
     4
 74
     0
 42
0.000000001
 43
0.0000000001
 40
137.0
 40
137.0
 40
137.0
 40
137.0
 40
138.0
 40
138.0
 40
138.0
 40
138.0
 10
8.320563537724737
 20
-12.07494303864791
 30
0.0
 10
8.319452287753088
 20
-12.05441137198636
 30
0.0
 10
8.304628565909048
 20
-12.03692064976856
 30
0.0
 10
8.284322677538206
 20
-12.03269437199182
 30
0.0
  0
SPLINE
  5
359
330
1F
100
AcDbEntity
  8
Livello 3
100
AcDbSpline
210
0.0
220
0.0
230
1.0
 70
    24
 71
     3
 72
     8
 73
     4
 74
     0
 42
0.000000001
 43
0.0000000001
 40
138.0
 40
138.0
 40
138.0
 40
138.0
 40
139.0
 40
139.0
 40
139.0
 40
139.0
 10
8.284322677538206
 20
-12.03269437199182
 30
0.0
 10
8.284322677538206
 20
-12.03269437199182
 30
0.0
 10
8.283730219531543
 20
-12.03269437199182
 30
0.0
 10
8.283730219531543
 20
-12.03269437199182
 30
0.0
  0
SPLINE
  5
35A
330
1F
100
AcDbEntity
  8
Livello 3
100
AcDbSpline
210
0.0
220
0.0
230
1.0
 70
     8
 71
     3
 72
     8
 73
     4
 74
     0
 42
0.000000001
 43
0.0000000001
 40
139.0
 40
139.0
 40
139.0
 40
139.0
 40
140.0
 40
140.0
 40
140.0
 40
140.0
 10
8.283730219531543
 20
-12.03269437199182
 30
0.0
 10
7.581610528799222
 20
-11.89290970536009
 30
0.0
 10
6.750155661122514
 20
-11.89290970536009
 30
0.0
 10
6.048184345697963
 20
-12.03269437199182
 30
0.0
  0
SPLINE
  5
35B
330
1F
100
AcDbEntity
  8
Livello 3
100
AcDbSpline
210
0.0
220
0.0
230
1.0
 70
    24
 71
     3
 72
     8
 73
     4
 74
     0
 42
0.000000001
 43
0.0000000001
 40
140.0
 40
140.0
 40
140.0
 40
140.0
 40
141.0
 40
141.0
 40
141.0
 40
141.0
 10
6.048184345697963
 20
-12.03269437199182
 30
0.0
 10
6.048184345697963
 20
-12.03269437199182
 30
0.0
 10
6.047739845709302
 20
-12.03269437199182
 30
0.0
 10
6.047739845709302
 20
-12.03269437199182
 30
0.0
  0
SPLINE
  5
35C
330
1F
100
AcDbEntity
  8
Livello 3
100
AcDbSpline
210
0.0
220
0.0
230
1.0
 70
     8
 71
     3
 72
     8
 73
     4
 74
     0
 42
0.000000001
 43
0.0000000001
 40
141.0
 40
141.0
 40
141.0
 40
141.0
 40
142.0
 40
142.0
 40
142.0
 40
142.0
 10
6.047739845709302
 20
-12.03269437199182
 30
0.0
 10
6.027434108984519
 20
-12.03692064976856
 30
0.0
 10
6.01253262438529
 20
-12.05441137198636
 30
0.0
 10
6.011498985522772
 20
-12.07494303864791
 30
0.0
  0
SPLINE
  5
35D
330
1F
100
AcDbEntity
  8
Livello 3
100
AcDbSpline
210
0.0
220
0.0
230
1.0
 70
    24
 71
     3
 72
     8
 73
     4
 74
     0
 42
0.000000001
 43
0.0000000001
 40
142.0
 40
142.0
 40
142.0
 40
142.0
 40
143.0
 40
143.0
 40
143.0
 40
143.0
 10
6.011498985522772
 20
-12.07494303864791
 30
0.0
 10
6.011498985522772
 20
-12.07494303864791
 30
0.0
 10
6.010161957779105
 20
-12.10058645530815
 30
0.0
 10
6.010161957779105
 20
-12.10058645530815
 30
0.0
  0
LINE
  5
35E
330
1F
100
AcDbEntity
  8
Livello 3
100
AcDbLine
 10
9.025872130841927
 20
-12.28951306637205
 30
0.0
 11
5.297074614860367
 21
-12.28951306637205
 31
0.0
  0
LINE
  5
35F
330
1F
100
AcDbEntity
  8
Livello 3
100
AcDbLine
 10
9.041066269343179
 20
-12.43411667744701
 30
0.0
 11
5.281880476359113
 21
-12.43411667744701
 31
0.0
  0
LINE
  5
360
330
1F
100
AcDbEntity
  8
Livello 3
100
AcDbLine
 10
9.041066269343179
 20
-12.43411667744701
 30
0.0
 11
9.025872130841927
 21
-12.28951306637205
 31
0.0
  0
LINE
  5
361
330
1F
100
AcDbEntity
  8
Livello 3
100
AcDbLine
 10
5.297074614860367
 20
-12.28951306637205
 30
0.0
 11
5.281880476359113
 21
-12.43411667744701
 31
0.0
  0
LINE
  5
362
330
1F
100
AcDbEntity
  8
Livello 3
100
AcDbLine
 10
5.435751555766868
 20
-12.43411667744701
 30
0.0
 11
5.456353777463483
 21
-13.22258206613881
 31
0.0
  0
LINE
  5
363
330
1F
100
AcDbEntity
  8
Livello 3
100
AcDbLine
 10
8.866741134901698
 20
-13.22258206613881
 30
0.0
 11
8.887346884376
 21
-12.43411667744701
 31
0.0
  0
LINE
  5
364
330
1F
100
AcDbEntity
  8
Livello 3
100
AcDbLine
 10
8.805816414233795
 20
-13.28187342723506
 30
0.0
 11
5.998675513627701
 21
-13.28187342723506
 31
0.0
  0
LINE
  5
365
330
1F
100
AcDbEntity
  8
Livello 3
100
AcDbLine
 10
5.998675513627701
 20
-13.28187342723506
 30
0.0
 11
5.517056248137056
 21
-13.28187342723506
 31
0.0
  0
LINE
  5
366
330
1F
100
AcDbEntity
  8
Livello 3
100
AcDbLine
 10
5.883645266562369
 20
-13.28187342723506
 30
0.0
 11
5.956500931370333
 21
-16.06337098209526
 31
0.0
  0
LINE
  5
367
330
1F
100
AcDbEntity
  8
Livello 3
100
AcDbLine
 10
8.366519897663405
 20
-16.06337098209526
 30
0.0
 11
8.439449645802811
 21
-13.28187695501288
 31
0.0
  0
LINE
  5
368
330
1F
100
AcDbEntity
  8
Livello 3
100
AcDbLine
 10
8.285508010841301
 20
-16.14223092651998
 30
0.0
 11
6.037438734860993
 21
-16.14223092651998
 31
0.0
  0
LINE
  5
369
330
1F
100
AcDbEntity
  8
Livello 3
100
AcDbLine
 10
6.157287926247831
 20
-17.469684315077
 30
0.0
 11
7.161582733959467
 21
-17.469684315077
 31
0.0
  0
LINE
  5
36A
330
1F
100
AcDbEntity
  8
Livello 3
100
AcDbLine
 10
6.122599288243923
 20
-16.14223092651998
 30
0.0
 11
6.157284398470142
 21
-17.469684315077
 31
0.0
  0
LINE
  5
36B
330
1F
100
AcDbEntity
  8
Livello 3
100
AcDbLine
 10
8.165584941783327
 20
-17.469684315077
 30
0.0
 11
8.200269846349241
 21
-16.14223445429779
 31
0.0
  0
LINE
  5
36C
330
1F
100
AcDbEntity
  8
Livello 3
100
AcDbLine
 10
7.161582733959467
 20
-17.469684315077
 30
0.0
 11
8.165584941783327
 21
-17.469684315077
 31
0.0
  0
LINE
  5
36D
330
1F
100
AcDbEntity
  8
Livello 3
100
AcDbLine
 10
8.064337719586388
 20
-17.56833509283016
 30
0.0
 11
6.258753868103661
 21
-17.56833509283016
 31
0.0
  0
LINE
  5
36E
330
1F
100
AcDbEntity
  8
Livello 3
100
AcDbLine
 10
9.041062741565495
 20
-12.43411314966926
 30
0.0
 11
5.281880476359113
 21
-12.43411314966926
 31
0.0
  0
LINE
  5
36F
330
1F
100
AcDbEntity
  8
Livello 3
100
AcDbLine
 10
8.818043691699628
 20
-13.28187342723506
 30
0.0
 11
5.556930719341997
 21
-13.28187342723506
 31
0.0
  0
LINE
  5
370
330
1F
100
AcDbEntity
  8
Livello 3
100
AcDbLine
 10
8.297809371638578
 20
-16.14222739874223
 30
0.0
 11
6.049740095658271
 21
-16.14222739874223
 31
0.0
  0
LINE
  5
371
330
1F
100
AcDbEntity
  8
Livello 3
100
AcDbLine
 10
6.169589287045107
 20
-17.46968078729925
 30
0.0
 11
7.173813539202991
 21
-17.46968078729925
 31
0.0
  0
LINE
  5
372
330
1F
100
AcDbEntity
  8
Livello 3
100
AcDbLine
 10
6.134830093487443
 20
-16.14222739874223
 30
0.0
 11
6.169589287045107
 21
-17.46968078729925
 31
0.0
  0
LINE
  5
373
330
1F
100
AcDbEntity
  8
Livello 3
100
AcDbLine
 10
7.173813539202991
 20
-17.46968078729925
 30
0.0
 11
8.177812013588855
 21
-17.46968078729925
 31
0.0
  0
SPLINE
  5
374
330
1F
100
AcDbEntity
  8
Livello 3
100
AcDbSpline
210
0.0
220
0.0
230
1.0
 70
    24
 71
     3
 72
     8
 73
     4
 74
     0
 42
0.000000001
 43
0.0000000001
 40
0.0
 40
0.0
 40
0.0
 40
0.0
 40
1.0
 40
1.0
 40
1.0
 40
1.0
 10
8.331016343013621
 20
-12.09917181641961
 30
0.0
 10
8.331016343013621
 20
-12.09917181641961
 30
0.0
 10
8.329682843047638
 20
-12.07345431642606
 30
0.0
 10
8.329682843047638
 20
-12.07345431642606
 30
0.0
  0
SPLINE
  5
375
330
1F
100
AcDbEntity
  8
Livello 3
100
AcDbSpline
210
0.0
220
0.0
230
1.0
 70
     8
 71
     3
 72
     8
 73
     4
 74
     0
 42
0.000000001
 43
0.0000000001
 40
1.0
 40
1.0
 40
1.0
 40
1.0
 40
2.0
 40
2.0
 40
2.0
 40
2.0
 10
8.329682843047638
 20
-12.07345431642606
 30
0.0
 10
8.328493981966859
 20
-12.05292264976452
 30
0.0
 10
8.313747871231951
 20
-12.03565417754662
 30
0.0
 10
8.293438455083423
 20
-12.03157606643656
 30
0.0
  0
LINE
  5
376
330
1F
100
AcDbEntity
  8
Livello 3
100
AcDbLine
 10
6.02113334638809
 20
-12.07345431642606
 30
0.0
 11
6.019944485307309
 21
-12.09917181641961
 31
0.0
  0
LINE
  5
377
330
1F
100
AcDbEntity
  8
Livello 3
100
AcDbLine
 10
6.157954676230821
 20
-12.04610345532181
 30
0.0
 11
6.157880592899377
 21
-12.04610345532181
 31
0.0
  0
LINE
  5
378
330
1F
100
AcDbEntity
  8
Livello 3
100
AcDbLine
 10
6.157880592899377
 20
-12.04610345532181
 30
0.0
 11
6.157658342905047
 21
-12.04618106643287
 31
0.0
  0
LINE
  5
379
330
1F
100
AcDbEntity
  8
Livello 3
100
AcDbLine
 10
6.157658342905047
 20
-12.04618106643287
 30
0.0
 11
6.157213842916386
 21
-12.04655148309945
 31
0.0
  0
LINE
  5
37A
330
1F
100
AcDbEntity
  8
Livello 3
100
AcDbLine
 10
6.157213842916386
 20
-12.04655148309945
 30
0.0
 11
6.156247231829936
 21
-12.04699598309934
 31
0.0
  0
LINE
  5
37B
330
1F
100
AcDbEntity
  8
Livello 3
100
AcDbLine
 10
6.156247231829936
 20
-12.04699598309934
 30
0.0
 11
6.154617398538183
 21
-12.04773681643251
 31
0.0
  0
LINE
  5
37C
330
1F
100
AcDbEntity
  8
Livello 3
100
AcDbLine
 10
6.154617398538183
 20
-12.04773681643251
 30
0.0
 11
6.152098565269111
 21
-12.04892214976551
 31
0.0
  0
LINE
  5
37D
330
1F
100
AcDbEntity
  8
Livello 3
100
AcDbLine
 10
6.152098565269111
 20
-12.04892214976551
 30
0.0
 11
6.149057620902247
 21
-12.05010748309857
 31
0.0
  0
LINE
  5
37E
330
1F
100
AcDbEntity
  8
Livello 3
100
AcDbLine
 10
6.149057620902247
 20
-12.05010748309857
 30
0.0
 11
6.145057121004308
 21
-12.05173731643152
 31
0.0
  0
LINE
  5
37F
330
1F
100
AcDbEntity
  8
Livello 3
100
AcDbLine
 10
6.145057121004308
 20
-12.05173731643152
 30
0.0
 11
6.139571426699816
 21
-12.05366701087544
 31
0.0
  0
LINE
  5
380
330
1F
100
AcDbEntity
  8
Livello 3
100
AcDbLine
 10
6.139571426699816
 20
-12.05366701087544
 30
0.0
 11
6.138830593385383
 21
-12.05403742754203
 31
0.0
  0
LINE
  5
381
330
1F
100
AcDbEntity
  8
Livello 3
100
AcDbLine
 10
5.341397613729592
 20
-12.27238570526526
 30
0.0
 11
5.336430502745203
 21
-12.27387089970929
 31
0.0
  0
LINE
  5
382
330
1F
100
AcDbEntity
  8
Livello 3
100
AcDbLine
 10
5.647802744801436
 20
-12.27016320526581
 30
0.0
 11
5.646465717057767
 21
-12.27105573304334
 31
0.0
  0
LINE
  5
383
330
1F
100
AcDbEntity
  8
Livello 3
100
AcDbLine
 10
5.641798467176839
 20
-12.27238570526526
 30
0.0
 11
5.639720606118739
 21
-12.2729078163762
 31
0.0
  0
LINE
  5
384
330
1F
100
AcDbEntity
  8
Livello 3
100
AcDbLine
 10
5.639720606118739
 20
-12.2729078163762
 30
0.0
 11
5.63772049797082
 21
-12.27387089970929
 31
0.0
  0
LINE
  5
385
330
1F
100
AcDbEntity
  8
Livello 3
100
AcDbLine
 10
5.641798467176839
 20
-12.27238570526526
 30
0.0
 11
5.643576609080473
 21
-12.27238570526526
 31
0.0
  0
LINE
  5
386
330
1F
100
AcDbEntity
  8
Livello 3
100
AcDbLine
 10
8.70901772225889
 20
-12.27238570526526
 30
0.0
 11
9.009566742369024
 21
-12.27238570526526
 31
0.0
  0
SPLINE
  5
387
330
1F
100
AcDbEntity
  8
Livello 3
100
AcDbSpline
210
0.0
220
0.0
230
1.0
 70
    24
 71
     3
 72
     8
 73
     4
 74
     0
 42
0.000000001
 43
0.0000000001
 40
0.0
 40
0.0
 40
0.0
 40
0.0
 40
1.0
 40
1.0
 40
1.0
 40
1.0
 10
9.009270409043251
 20
-12.27238570526526
 30
0.0
 10
9.009270409043251
 20
-12.27238570526526
 30
0.0
 10
8.989257326220494
 20
-12.26964462193255
 30
0.0
 10
8.989257326220494
 20
-12.26964462193255
 30
0.0
  0
SPLINE
  5
388
330
1F
100
AcDbEntity
  8
Livello 3
100
AcDbSpline
210
0.0
220
0.0
230
1.0
 70
     8
 71
     3
 72
     8
 73
     4
 74
     0
 42
0.000000001
 43
0.0000000001
 40
1.0
 40
1.0
 40
1.0
 40
1.0
 40
2.0
 40
2.0
 40
2.0
 40
2.0
 10
8.989257326220494
 20
-12.26964462193255
 30
0.0
 10
8.898092719377951
 20
-12.26104742749029
 30
0.0
 10
8.807076052734041
 20
-12.25749142749117
 30
0.0
 10
8.715537055425903
 20
-12.25571342749161
 30
0.0
  0
SPLINE
  5
389
330
1F
100
AcDbEntity
  8
Livello 3
100
AcDbSpline
210
0.0
220
0.0
230
1.0
 70
    24
 71
     3
 72
     8
 73
     4
 74
     0
 42
0.000000001
 43
0.0000000001
 40
2.0
 40
2.0
 40
2.0
 40
2.0
 40
3.0
 40
3.0
 40
3.0
 40
3.0
 10
8.715537055425903
 20
-12.25571342749161
 30
0.0
 10
8.715537055425903
 20
-12.25571342749161
 30
0.0
 10
8.673884584266323
 20
-12.25519131638067
 30
0.0
 10
8.673884584266323
 20
-12.25519131638067
 30
0.0
  0
LINE
  5
38A
330
1F
100
AcDbEntity
  8
Livello 3
100
AcDbLine
 10
8.205162874002187
 20
-12.0526263164313
 30
0.0
 11
8.211167151626783
 21
-12.05381517754211
 31
0.0
  0
LINE
  5
38B
330
1F
100
AcDbEntity
  8
Livello 3
100
AcDbLine
 10
8.211167151626783
 20
-12.05381517754211
 30
0.0
 11
8.212352484929876
 21
-12.05403742754203
 31
0.0
  0
LINE
  5
38C
330
1F
100
AcDbEntity
  8
Livello 3
100
AcDbLine
 10
6.145872037650184
 20
-12.0526263164313
 30
0.0
 11
6.139571426699816
 21
-12.05381517754211
 31
0.0
  0
LINE
  5
38D
330
1F
100
AcDbEntity
  8
Livello 3
100
AcDbLine
 10
6.139571426699816
 20
-12.05381517754211
 30
0.0
 11
6.138830593385383
 21
-12.05403742754203
 31
0.0
  0
SPLINE
  5
38E
330
1F
100
AcDbEntity
  8
Livello 3
100
AcDbSpline
210
0.0
220
0.0
230
1.0
 70
    24
 71
     3
 72
     8
 73
     4
 74
     0
 42
0.000000001
 43
0.0000000001
 40
0.0
 40
0.0
 40
0.0
 40
0.0
 40
1.0
 40
1.0
 40
1.0
 40
1.0
 10
6.139056371157401
 20
-12.05403742754203
 30
0.0
 10
6.139056371157401
 20
-12.05403742754203
 30
0.0
 10
6.118006121694437
 20
-12.06174562198457
 30
0.0
 10
6.118006121694437
 20
-12.06174562198457
 30
0.0
  0
SPLINE
  5
38F
330
1F
100
AcDbEntity
  8
Livello 3
100
AcDbSpline
210
0.0
220
0.0
230
1.0
 70
     8
 71
     3
 72
     8
 73
     4
 74
     0
 42
0.000000001
 43
0.0000000001
 40
1.0
 40
1.0
 40
1.0
 40
1.0
 40
2.0
 40
2.0
 40
2.0
 40
2.0
 10
6.118006121694437
 20
-12.06174562198457
 30
0.0
 10
5.969842986585504
 20
-12.11659551085975
 30
0.0
 10
5.820939018162138
 20
-12.17915006639965
 30
0.0
 10
5.681228438393119
 20
-12.25282064971455
 30
0.0
  0
SPLINE
  5
390
330
1F
100
AcDbEntity
  8
Livello 3
100
AcDbSpline
210
0.0
220
0.0
230
1.0
 70
    24
 71
     3
 72
     8
 73
     4
 74
     0
 42
0.000000001
 43
0.0000000001
 40
2.0
 40
2.0
 40
2.0
 40
2.0
 40
3.0
 40
3.0
 40
3.0
 40
3.0
 10
5.681228438393119
 20
-12.25282064971455
 30
0.0
 10
5.681228438393119
 20
-12.25282064971455
 30
0.0
 10
5.648024994795767
 20
-12.27038898304354
 30
0.0
 10
5.648024994795767
 20
-12.27038898304354
 30
0.0
  0
LINE
  5
391
330
1F
100
AcDbEntity
  8
Livello 3
100
AcDbLine
 10
5.647802744801436
 20
-12.27038898304354
 30
0.0
 11
5.647576967029417
 21
-12.27061123304345
 31
0.0
  0
LINE
  5
392
330
1F
100
AcDbEntity
  8
Livello 3
100
AcDbLine
 10
5.647576967029417
 20
-12.27061123304345
 30
0.0
 11
5.647206550372202
 21
-12.27075939971006
 31
0.0
  0
LINE
  5
393
330
1F
100
AcDbEntity
  8
Livello 3
100
AcDbLine
 10
5.647206550372202
 20
-12.27075939971006
 30
0.0
 11
5.647206550372202
 21
-12.27083348304336
 31
0.0
  0
LINE
  5
394
330
1F
100
AcDbEntity
  8
Livello 3
100
AcDbLine
 10
5.647206550372202
 20
-12.27083348304336
 30
0.0
 11
5.646984300377871
 21
-12.27105573304334
 31
0.0
  0
LINE
  5
395
330
1F
100
AcDbEntity
  8
Livello 3
100
AcDbLine
 10
5.646984300377871
 20
-12.27105573304334
 30
0.0
 11
5.646984300377871
 21
-12.27112981637664
 31
0.0
  0
LINE
  5
396
330
1F
100
AcDbEntity
  8
Livello 3
100
AcDbLine
 10
5.643576609080473
 20
-12.27238923304301
 30
0.0
 11
5.642017189393482
 21
-12.27313006637618
 31
0.0
  0
LINE
  5
397
330
1F
100
AcDbEntity
  8
Livello 3
100
AcDbLine
 10
5.642017189393482
 20
-12.27313006637618
 30
0.0
 11
5.641350439410492
 21
-12.27365217748712
 31
0.0
  0
LINE
  5
398
330
1F
100
AcDbEntity
  8
Livello 3
100
AcDbLine
 10
5.643576609080473
 20
-12.27238923304301
 30
0.0
 11
5.646391633726325
 21
-12.27150023304323
 31
0.0
  0
LINE
  5
399
330
1F
100
AcDbEntity
  8
Livello 3
100
AcDbLine
 10
5.646391633726325
 20
-12.27150023304323
 30
0.0
 11
5.646984300377871
 21
-12.27112981637664
 31
0.0
  0
LINE
  5
39A
330
1F
100
AcDbEntity
  8
Livello 3
100
AcDbLine
 10
5.647206550372202
 20
-12.27268556637629
 30
0.0
 11
5.643572939353792
 21
-12.27238923304301
 31
0.0
  0
LINE
  5
39B
330
1F
100
AcDbEntity
  8
Livello 3
100
AcDbLine
 10
5.646984300377871
 20
-12.27112981637664
 30
0.0
 11
5.647206550372202
 21
-12.27268909415404
 31
0.0
  0
LINE
  5
39C
330
1F
100
AcDbEntity
  8
Livello 3
100
AcDbLine
 10
5.641794939399152
 20
-12.27238923304301
 30
0.0
 11
5.642091272724925
 21
-12.27216698304303
 31
0.0
  0
LINE
  5
39D
330
1F
100
AcDbEntity
  8
Livello 3
100
AcDbLine
 10
5.642091272724925
 20
-12.27216698304303
 30
0.0
 11
5.642683939376472
 21
-12.27194473304312
 31
0.0
  0
LINE
  5
39E
330
1F
100
AcDbEntity
  8
Livello 3
100
AcDbLine
 10
5.642683939376472
 20
-12.27194473304312
 30
0.0
 11
5.643424772690905
 21
-12.27157431637653
 31
0.0
  0
LINE
  5
39F
330
1F
100
AcDbEntity
  8
Livello 3
100
AcDbLine
 10
5.643424772690905
 20
-12.27157431637653
 30
0.0
 11
5.644758272656884
 21
-12.27127798304325
 31
0.0
  0
LINE
  5
3A0
330
1F
100
AcDbEntity
  8
Livello 3
100
AcDbLine
 10
5.644758272656884
 20
-12.27127798304325
 30
0.0
 11
5.646391633726325
 21
-12.27083348304336
 31
0.0
  0
LINE
  5
3A1
330
1F
100
AcDbEntity
  8
Livello 3
100
AcDbLine
 10
5.646391633726325
 20
-12.27083348304336
 30
0.0
 11
5.647799217023746
 21
-12.27061123304345
 31
0.0
  0
SPLINE
  5
3A2
330
1F
100
AcDbEntity
  8
Livello 3
100
AcDbSpline
210
0.0
220
0.0
230
1.0
 70
    24
 71
     3
 72
     8
 73
     4
 74
     0
 42
0.000000001
 43
0.0000000001
 40
0.0
 40
0.0
 40
0.0
 40
0.0
 40
1.0
 40
1.0
 40
1.0
 40
1.0
 10
5.676557660734503
 20
-12.25519484415842
 30
0.0
 10
5.676557660734503
 20
-12.25519484415842
 30
0.0
 10
5.619411331308753
 20
-12.25608737193595
 30
0.0
 10
5.619411331308753
 20
-12.25608737193595
 30
0.0
  0
SPLINE
  5
3A3
330
1F
100
AcDbEntity
  8
Livello 3
100
AcDbSpline
210
0.0
220
0.0
230
1.0
 70
     8
 71
     3
 72
     8
 73
     4
 74
     0
 42
0.000000001
 43
0.0000000001
 40
1.0
 40
1.0
 40
1.0
 40
1.0
 40
2.0
 40
2.0
 40
2.0
 40
2.0
 10
5.619411331308753
 20
-12.25608737193595
 30
0.0
 10
5.53128377555186
 20
-12.25823578860209
 30
0.0
 10
5.441974555608107
 20
-12.26127320526802
 30
0.0
 10
5.354217557846973
 20
-12.27061123304345
 30
0.0
  0
SPLINE
  5
3A4
330
1F
100
AcDbEntity
  8
Livello 3
100
AcDbSpline
210
0.0
220
0.0
230
1.0
 70
    24
 71
     3
 72
     8
 73
     4
 74
     0
 42
0.000000001
 43
0.0000000001
 40
2.0
 40
2.0
 40
2.0
 40
2.0
 40
3.0
 40
3.0
 40
3.0
 40
3.0
 10
5.354217557846973
 20
-12.27061123304345
 30
0.0
 10
5.354217557846973
 20
-12.27061123304345
 30
0.0
 10
5.341394085951905
 20
-12.27239276082076
 30
0.0
 10
5.341394085951905
 20
-12.27239276082076
 30
0.0
  0
SPLINE
  5
3A5
330
1F
100
AcDbEntity
  8
Livello 3
100
AcDbSpline
210
0.0
220
0.0
230
1.0
 70
    24
 71
     3
 72
     8
 73
     4
 74
     0
 42
0.000000001
 43
0.0000000001
 40
3.0
 40
3.0
 40
3.0
 40
3.0
 40
4.0
 40
4.0
 40
4.0
 40
4.0
 10
5.341394085951905
 20
-12.27239276082076
 30
0.0
 10
5.341394085951905
 20
-12.27239276082076
 30
0.0
 10
5.641794939399152
 20
-12.27239276082076
 30
0.0
 10
5.641794939399152
 20
-12.27239276082076
 30
0.0
  0
SPLINE
  5
3A6
330
1F
100
AcDbEntity
  8
Livello 3
100
AcDbSpline
210
0.0
220
0.0
230
1.0
 70
    24
 71
     3
 72
     8
 73
     4
 74
     0
 42
0.000000001
 43
0.0000000001
 40
0.0
 40
0.0
 40
0.0
 40
0.0
 40
1.0
 40
1.0
 40
1.0
 40
1.0
 10
6.162621926111749
 20
-12.03157959421431
 30
0.0
 10
6.162621926111749
 20
-12.03157959421431
 30
0.0
 10
6.166326092683914
 20
-12.03157959421431
 30
0.0
 10
6.166326092683914
 20
-12.03157959421431
 30
0.0
  0
SPLINE
  5
3A7
330
1F
100
AcDbEntity
  8
Livello 3
100
AcDbSpline
210
0.0
220
0.0
230
1.0
 70
    24
 71
     3
 72
     8
 73
     4
 74
     0
 42
0.000000001
 43
0.0000000001
 40
1.0
 40
1.0
 40
1.0
 40
1.0
 40
2.0
 40
2.0
 40
2.0
 40
2.0
 10
6.166326092683914
 20
-12.03157959421431
 30
0.0
 10
6.166326092683914
 20
-12.03157959421431
 30
0.0
 10
6.170996870342531
 20
-12.03187945532535
 30
0.0
 10
6.170996870342531
 20
-12.03187945532535
 30
0.0
  0
SPLINE
  5
3A8
330
1F
100
AcDbEntity
  8
Livello 3
100
AcDbSpline
210
0.0
220
0.0
230
1.0
 70
    24
 71
     3
 72
     8
 73
     4
 74
     0
 42
0.000000001
 43
0.0000000001
 40
2.0
 40
2.0
 40
2.0
 40
2.0
 40
3.0
 40
3.0
 40
3.0
 40
3.0
 10
6.170996870342531
 20
-12.03187945532535
 30
0.0
 10
6.170996870342531
 20
-12.03187945532535
 30
0.0
 10
6.174552870251809
 20
-12.03254620532521
 30
0.0
 10
6.174552870251809
 20
-12.03254620532521
 30
0.0
  0
SPLINE
  5
3A9
330
1F
100
AcDbEntity
  8
Livello 3
100
AcDbSpline
210
0.0
220
0.0
230
1.0
 70
    24
 71
     3
 72
     8
 73
     4
 74
     0
 42
0.000000001
 43
0.0000000001
 40
3.0
 40
3.0
 40
3.0
 40
3.0
 40
4.0
 40
4.0
 40
4.0
 40
4.0
 10
6.174552870251809
 20
-12.03254620532521
 30
0.0
 10
6.174552870251809
 20
-12.03254620532521
 30
0.0
 10
6.176927064635683
 20
-12.0335092886583
 30
0.0
 10
6.176927064635683
 20
-12.0335092886583
 30
0.0
  0
SPLINE
  5
3AA
330
1F
100
AcDbEntity
  8
Livello 3
100
AcDbSpline
210
0.0
220
0.0
230
1.0
 70
    24
 71
     3
 72
     8
 73
     4
 74
     0
 42
0.000000001
 43
0.0000000001
 40
4.0
 40
4.0
 40
4.0
 40
4.0
 40
5.0
 40
5.0
 40
5.0
 40
5.0
 10
6.176927064635683
 20
-12.0335092886583
 30
0.0
 10
6.176927064635683
 20
-12.0335092886583
 30
0.0
 10
6.178260564601662
 20
-12.03447237199138
 30
0.0
 10
6.178260564601662
 20
-12.03447237199138
 30
0.0
  0
SPLINE
  5
3AB
330
1F
100
AcDbEntity
  8
Livello 3
100
AcDbSpline
210
0.0
220
0.0
230
1.0
 70
    24
 71
     3
 72
     8
 73
     4
 74
     0
 42
0.000000001
 43
0.0000000001
 40
5.0
 40
5.0
 40
5.0
 40
5.0
 40
6.0
 40
6.0
 40
6.0
 40
6.0
 10
6.178260564601662
 20
-12.03447237199138
 30
0.0
 10
6.178260564601662
 20
-12.03447237199138
 30
0.0
 10
6.178260564601662
 20
-12.03603164976878
 30
0.0
 10
6.178260564601662
 20
-12.03603164976878
 30
0.0
  0
SPLINE
  5
3AC
330
1F
100
AcDbEntity
  8
Livello 3
100
AcDbSpline
210
0.0
220
0.0
230
1.0
 70
     8
 71
     3
 72
     8
 73
     4
 74
     0
 42
0.000000001
 43
0.0000000001
 40
6.0
 40
6.0
 40
6.0
 40
6.0
 40
7.0
 40
7.0
 40
7.0
 40
7.0
 10
6.178260564601662
 20
-12.03603164976878
 30
0.0
 10
6.173960203600262
 20
-12.04210648310056
 30
0.0
 10
6.159877315070659
 20
-12.04632923309954
 30
0.0
 10
6.153506148566534
 20
-12.04966651087643
 30
0.0
  0
SPLINE
  5
3AD
330
1F
100
AcDbEntity
  8
Livello 3
100
AcDbSpline
210
0.0
220
0.0
230
1.0
 70
    24
 71
     3
 72
     8
 73
     4
 74
     0
 42
0.000000001
 43
0.0000000001
 40
7.0
 40
7.0
 40
7.0
 40
7.0
 40
8.0
 40
8.0
 40
8.0
 40
8.0
 10
6.153506148566534
 20
-12.04966651087643
 30
0.0
 10
6.153506148566534
 20
-12.04966651087643
 30
0.0
 10
6.145868509872497
 20
-12.0526333719868
 30
0.0
 10
6.145868509872497
 20
-12.0526333719868
 30
0.0
  0
SPLINE
  5
3AE
330
1F
100
AcDbEntity
  8
Livello 3
100
AcDbSpline
210
0.0
220
0.0
230
1.0
 70
    24
 71
     3
 72
     8
 73
     4
 74
     0
 42
0.000000001
 43
0.0000000001
 40
8.0
 40
8.0
 40
8.0
 40
8.0
 40
9.0
 40
9.0
 40
9.0
 40
9.0
 10
6.145868509872497
 20
-12.0526333719868
 30
0.0
 10
6.145868509872497
 20
-12.0526333719868
 30
0.0
 10
6.09435942785327
 20
-12.07138351087104
 30
0.0
 10
6.09435942785327
 20
-12.07138351087104
 30
0.0
  0
SPLINE
  5
3AF
330
1F
100
AcDbEntity
  8
Livello 3
100
AcDbSpline
210
0.0
220
0.0
230
1.0
 70
     8
 71
     3
 72
     8
 73
     4
 74
     0
 42
0.000000001
 43
0.0000000001
 40
9.0
 40
9.0
 40
9.0
 40
9.0
 40
10.0
 40
10.0
 40
10.0
 40
10.0
 10
6.09435942785327
 20
-12.07138351087104
 30
0.0
 10
5.966357542229983
 20
-12.11971053863673
 30
0.0
 10
5.83850382326958
 20
-12.17418295528981
 30
0.0
 10
5.716506215270887
 20
-12.23607076082985
 30
0.0
  0
SPLINE
  5
3B0
330
1F
100
AcDbEntity
  8
Livello 3
100
AcDbSpline
210
0.0
220
0.0
230
1.0
 70
    24
 71
     3
 72
     8
 73
     4
 74
     0
 42
0.000000001
 43
0.0000000001
 40
10.0
 40
10.0
 40
10.0
 40
10.0
 40
11.0
 40
11.0
 40
11.0
 40
11.0
 10
5.716506215270887
 20
-12.23607076082985
 30
0.0
 10
5.716506215270887
 20
-12.23607076082985
 30
0.0
 10
5.647206550372202
 20
-12.27268909415404
 30
0.0
 10
5.647206550372202
 20
-12.27268909415404
 30
0.0
  0
SPLINE
  5
3B1
330
1F
100
AcDbEntity
  8
Livello 3
100
AcDbSpline
210
0.0
220
0.0
230
1.0
 70
    24
 71
     3
 72
     8
 73
     4
 74
     0
 42
0.000000001
 43
0.0000000001
 40
11.0
 40
11.0
 40
11.0
 40
11.0
 40
12.0
 40
12.0
 40
12.0
 40
12.0
 10
5.647206550372202
 20
-12.27268909415404
 30
0.0
 10
5.647206550372202
 20
-12.27268909415404
 30
0.0
 10
5.641350439410492
 20
-12.27365217748712
 30
0.0
 10
5.641350439410492
 20
-12.27365217748712
 30
0.0
  0
LINE
  5
3B2
330
1F
100
AcDbEntity
  8
Livello 3
100
AcDbLine
 10
5.63772049797082
 20
-12.2738744274871
 30
0.0
 11
5.641350439410492
 21
-12.27357809415382
 31
0.0
  0
LINE
  5
3B3
330
1F
100
AcDbEntity
  8
Livello 3
100
AcDbLine
 10
5.63772049797082
 20
-12.2738744274871
 30
0.0
 11
5.336430502745203
 21
-12.2738744274871
 31
0.0
  0
SPLINE
  5
3B4
330
1F
100
AcDbEntity
  8
Livello 3
100
AcDbSpline
210
0.0
220
0.0
230
1.0
 70
    24
 71
     3
 72
     8
 73
     4
 74
     0
 42
0.000000001
 43
0.0000000001
 40
0.0
 40
0.0
 40
0.0
 40
0.0
 40
1.0
 40
1.0
 40
1.0
 40
1.0
 10
8.205162874002187
 20
-12.0526333719868
 30
0.0
 10
8.205162874002187
 20
-12.0526333719868
 30
0.0
 10
8.197377068645264
 20
-12.04944426087652
 30
0.0
 10
8.197377068645264
 20
-12.04944426087652
 30
0.0
  0
SPLINE
  5
3B5
330
1F
100
AcDbEntity
  8
Livello 3
100
AcDbSpline
210
0.0
220
0.0
230
1.0
 70
     8
 71
     3
 72
     8
 73
     4
 74
     0
 42
0.000000001
 43
0.0000000001
 40
1.0
 40
1.0
 40
1.0
 40
1.0
 40
2.0
 40
2.0
 40
2.0
 40
2.0
 10
8.197377068645264
 20
-12.04944426087652
 30
0.0
 10
8.191524485461243
 20
-12.04722176087707
 30
0.0
 10
8.155206014165582
 20
-12.03336464976944
 30
0.0
 10
8.182927291236131
 20
-12.03158312199207
 30
0.0
  0
SPLINE
  5
3B6
330
1F
100
AcDbEntity
  8
Livello 3
100
AcDbSpline
210
0.0
220
0.0
230
1.0
 70
    24
 71
     3
 72
     8
 73
     4
 74
     0
 42
0.000000001
 43
0.0000000001
 40
2.0
 40
2.0
 40
2.0
 40
2.0
 40
3.0
 40
3.0
 40
3.0
 40
3.0
 10
8.182927291236131
 20
-12.03158312199207
 30
0.0
 10
8.182927291236131
 20
-12.03158312199207
 30
0.0
 10
8.188113124437164
 20
-12.03158312199207
 30
0.0
 10
8.188113124437164
 20
-12.03158312199207
 30
0.0
  0
SPLINE
  5
3B7
330
1F
100
AcDbEntity
  8
Livello 3
100
AcDbSpline
210
0.0
220
0.0
230
1.0
 70
    24
 71
     3
 72
     8
 73
     4
 74
     0
 42
0.000000001
 43
0.0000000001
 40
3.0
 40
3.0
 40
3.0
 40
3.0
 40
4.0
 40
4.0
 40
4.0
 40
4.0
 10
8.188113124437164
 20
-12.03158312199207
 30
0.0
 10
8.188113124437164
 20
-12.03158312199207
 30
0.0
 10
8.293434927305735
 20
-12.03158312199207
 30
0.0
 10
8.293434927305735
 20
-12.03158312199207
 30
0.0
  0
SPLINE
  5
3B8
330
1F
100
AcDbEntity
  8
Livello 3
100
AcDbSpline
210
0.0
220
0.0
230
1.0
 70
    24
 71
     3
 72
     8
 73
     4
 74
     0
 42
0.000000001
 43
0.0000000001
 40
0.0
 40
0.0
 40
0.0
 40
0.0
 40
1.0
 40
1.0
 40
1.0
 40
1.0
 10
8.292916343985632
 20
-12.03143495532546
 30
0.0
 10
8.292916343985632
 20
-12.03143495532546
 30
0.0
 10
8.271647372306027
 20
-12.02691587199326
 30
0.0
 10
8.271647372306027
 20
-12.02691587199326
 30
0.0
  0
SPLINE
  5
3B9
330
1F
100
AcDbEntity
  8
Livello 3
100
AcDbSpline
210
0.0
220
0.0
230
1.0
 70
     8
 71
     3
 72
     8
 73
     4
 74
     0
 42
0.000000001
 43
0.0000000001
 40
1.0
 40
1.0
 40
1.0
 40
1.0
 40
2.0
 40
2.0
 40
2.0
 40
2.0
 10
8.271647372306027
 20
-12.02691587199326
 30
0.0
 10
7.965760824554287
 20
-11.96621339978621
 30
0.0
 10
7.656392360224713
 20
-11.9376031220156
 30
0.0
 10
7.344875479283282
 20
-11.92937634423986
 30
0.0
  0
SPLINE
  5
3BA
330
1F
100
AcDbEntity
  8
Livello 3
100
AcDbSpline
210
0.0
220
0.0
230
1.0
 70
    24
 71
     3
 72
     8
 73
     4
 74
     0
 42
0.000000001
 43
0.0000000001
 40
2.0
 40
2.0
 40
2.0
 40
2.0
 40
3.0
 40
3.0
 40
3.0
 40
3.0
 10
7.344875479283282
 20
-11.92937634423986
 30
0.0
 10
7.344875479283282
 20
-11.92937634423986
 30
0.0
 10
7.175369289163299
 20
-11.92729848312927
 30
0.0
 10
7.175369289163299
 20
-11.92729848312927
 30
0.0
  0
SPLINE
  5
3BB
330
1F
100
AcDbEntity
  8
Livello 3
100
AcDbSpline
210
0.0
220
0.0
230
1.0
 70
    24
 71
     3
 72
     8
 73
     4
 74
     0
 42
0.000000001
 43
0.0000000001
 40
3.0
 40
3.0
 40
3.0
 40
3.0
 40
4.0
 40
4.0
 40
4.0
 40
4.0
 10
7.175369289163299
 20
-11.92729848312927
 30
0.0
 10
7.175369289163299
 20
-11.92729848312927
 30
0.0
 10
6.994817627102889
 20
-11.92974676090645
 30
0.0
 10
6.994817627102889
 20
-11.92974676090645
 30
0.0
  0
SPLINE
  5
3BC
330
1F
100
AcDbEntity
  8
Livello 3
100
AcDbSpline
210
0.0
220
0.0
230
1.0
 70
     8
 71
     3
 72
     8
 73
     4
 74
     0
 42
0.000000001
 43
0.0000000001
 40
4.0
 40
4.0
 40
4.0
 40
4.0
 40
5.0
 40
5.0
 40
5.0
 40
5.0
 10
6.994817627102889
 20
-11.92974676090645
 30
0.0
 10
6.690190495985688
 20
-11.93856620534868
 30
0.0
 10
6.38497438667292
 20
-11.96665437200835
 30
0.0
 10
6.085762233628157
 20
-12.02565645532689
 30
0.0
  0
SPLINE
  5
3BD
330
1F
100
AcDbEntity
  8
Livello 3
100
AcDbSpline
210
0.0
220
0.0
230
1.0
 70
    24
 71
     3
 72
     8
 73
     4
 74
     0
 42
0.000000001
 43
0.0000000001
 40
5.0
 40
5.0
 40
5.0
 40
5.0
 40
6.0
 40
6.0
 40
6.0
 40
6.0
 10
6.085762233628157
 20
-12.02565645532689
 30
0.0
 10
6.085762233628157
 20
-12.02565645532689
 30
0.0
 10
6.05781870656328
 20
-12.03143495532546
 30
0.0
 10
6.05781870656328
 20
-12.03143495532546
 30
0.0
  0
LINE
  5
3BE
330
1F
100
AcDbEntity
  8
Livello 3
100
AcDbLine
 10
6.057300123243175
 20
-12.03157959421431
 30
0.0
 11
6.162621926111749
 21
-12.03157959421431
 31
0.0
  0
LINE
  5
3BF
330
1F
100
AcDbEntity
  8
Livello 3
100
AcDbLine
 10
5.306116309074138
 20
-12.29040206637182
 30
0.0
 11
9.025868830457131
 21
-12.29040206637182
 31
0.0
  0
LINE
  5
3C0
330
1F
100
AcDbEntity
  8
Livello 3
100
AcDbLine
 10
8.331016343013621
 20
-12.09917887197518
 30
0.0
 11
8.329679315269951
 21
-12.07346137198163
 31
0.0
  0
LINE
  5
3C1
330
1F
100
AcDbEntity
  8
Livello 3
100
AcDbLine
 10
6.157951148453133
 20
-12.04611051087738
 30
0.0
 11
6.157877065121688
 21
-12.04611051087738
 31
0.0
  0
LINE
  5
3C2
330
1F
100
AcDbEntity
  8
Livello 3
100
AcDbLine
 10
6.157877065121688
 20
-12.04611051087738
 30
0.0
 11
6.157654815127358
 21
-12.04618459421069
 31
0.0
  0
LINE
  5
3C3
330
1F
100
AcDbEntity
  8
Livello 3
100
AcDbLine
 10
6.157654815127358
 20
-12.04618459421069
 30
0.0
 11
6.157210315138699
 21
-12.04655501087727
 31
0.0
  0
LINE
  5
3C4
330
1F
100
AcDbEntity
  8
Livello 3
100
AcDbLine
 10
6.157210315138699
 20
-12.04655501087727
 30
0.0
 11
6.156247231829936
 21
-12.0469995108771
 31
0.0
  0
LINE
  5
3C5
330
1F
100
AcDbEntity
  8
Livello 3
100
AcDbLine
 10
6.156247231829936
 20
-12.0469995108771
 30
0.0
 11
6.154617398538183
 21
-12.04774034421027
 31
0.0
  0
LINE
  5
3C6
330
1F
100
AcDbEntity
  8
Livello 3
100
AcDbLine
 10
6.154617398538183
 20
-12.04774034421027
 30
0.0
 11
6.152098565269111
 21
-12.04892920532108
 31
0.0
  0
LINE
  5
3C7
330
1F
100
AcDbEntity
  8
Livello 3
100
AcDbLine
 10
6.152098565269111
 20
-12.04892920532108
 30
0.0
 11
6.149057620902247
 21
-12.05011101087632
 31
0.0
  0
LINE
  5
3C8
330
1F
100
AcDbEntity
  8
Livello 3
100
AcDbLine
 10
6.149057620902247
 20
-12.05011101087632
 30
0.0
 11
6.145057121004308
 21
-12.05174437198703
 31
0.0
  0
LINE
  5
3C9
330
1F
100
AcDbEntity
  8
Livello 3
100
AcDbLine
 10
6.145057121004308
 20
-12.05174437198703
 30
0.0
 11
6.139571426699816
 21
-12.05367053865326
 31
0.0
  0
LINE
  5
3CA
330
1F
100
AcDbEntity
  8
Livello 3
100
AcDbLine
 10
6.139571426699816
 20
-12.05367053865326
 30
0.0
 11
6.138830593385383
 21
-12.05404095531984
 31
0.0
  0
LINE
  5
3CB
330
1F
100
AcDbEntity
  8
Livello 3
100
AcDbLine
 10
5.341397613729592
 20
-12.27239276082076
 30
0.0
 11
5.336430502745203
 21
-12.2738744274871
 31
0.0
  0
LINE
  5
3CC
330
1F
100
AcDbEntity
  8
Livello 3
100
AcDbLine
 10
5.647799217023746
 20
-12.27016673304356
 30
0.0
 11
5.646465717057767
 21
-12.27105926082109
 31
0.0
  0
LINE
  5
3CD
330
1F
100
AcDbEntity
  8
Livello 3
100
AcDbLine
 10
5.641798467176839
 20
-12.27239276082076
 30
0.0
 11
5.639720606118739
 21
-12.27291134415395
 31
0.0
  0
LINE
  5
3CE
330
1F
100
AcDbEntity
  8
Livello 3
100
AcDbLine
 10
5.639720606118739
 20
-12.27291134415395
 30
0.0
 11
5.63772049797082
 21
-12.2738744274871
 31
0.0
  0
LINE
  5
3CF
330
1F
100
AcDbEntity
  8
Livello 3
100
AcDbLine
 10
5.641798467176839
 20
-12.27239276082076
 30
0.0
 11
5.643572939353792
 21
-12.27239276082076
 31
0.0
  0
LINE
  5
3D0
330
1F
100
AcDbEntity
  8
Livello 3
100
AcDbLine
 10
8.205162874002187
 20
-12.0526333719868
 30
0.0
 11
8.211167151626783
 21
-12.05381870531986
 31
0.0
  0
LINE
  5
3D1
330
1F
100
AcDbEntity
  8
Livello 3
100
AcDbLine
 10
8.211167151626783
 20
-12.05381870531986
 30
0.0
 11
8.212352484929876
 21
-12.05404095531984
 31
0.0
  0
SPLINE
  5
3D2
330
1F
100
AcDbEntity
  8
Livello 3
100
AcDbSpline
210
0.0
220
0.0
230
1.0
 70
    24
 71
     3
 72
     8
 73
     4
 74
     0
 42
0.000000001
 43
0.0000000001
 40
0.0
 40
0.0
 40
0.0
 40
0.0
 40
1.0
 40
1.0
 40
1.0
 40
1.0
 10
8.702865497204548
 20
-12.27038898304354
 30
0.0
 10
8.702865497204548
 20
-12.27038898304354
 30
0.0
 10
8.698639000301451
 20
-12.26824056637739
 30
0.0
 10
8.698639000301451
 20
-12.26824056637739
 30
0.0
  0
SPLINE
  5
3D3
330
1F
100
AcDbEntity
  8
Livello 3
100
AcDbSpline
210
0.0
220
0.0
230
1.0
 70
     8
 71
     3
 72
     8
 73
     4
 74
     0
 42
0.000000001
 43
0.0000000001
 40
1.0
 40
1.0
 40
1.0
 40
1.0
 40
2.0
 40
2.0
 40
2.0
 40
2.0
 10
8.698639000301451
 20
-12.26824056637739
 30
0.0
 10
8.547364365271901
 20
-12.18619151084233
 30
0.0
 10
8.386973952697134
 20
-12.11874392752589
 30
0.0
 10
8.225694540145047
 20
-12.05900806642968
 30
0.0
  0
SPLINE
  5
3D4
330
1F
100
AcDbEntity
  8
Livello 3
100
AcDbSpline
210
0.0
220
0.0
230
1.0
 70
    24
 71
     3
 72
     8
 73
     4
 74
     0
 42
0.000000001
 43
0.0000000001
 40
2.0
 40
2.0
 40
2.0
 40
2.0
 40
3.0
 40
3.0
 40
3.0
 40
3.0
 10
8.225694540145047
 20
-12.05900806642968
 30
0.0
 10
8.225694540145047
 20
-12.05900806642968
 30
0.0
 10
8.211982068272659
 20
-12.05404095531984
 30
0.0
 10
8.211982068272659
 20
-12.05404095531984
 30
0.0
  0
LINE
  5
3D5
330
1F
100
AcDbEntity
  8
Livello 3
100
AcDbLine
 10
6.145872037650184
 20
-12.0526333719868
 30
0.0
 11
6.139571426699816
 21
-12.05381870531986
 31
0.0
  0
LINE
  5
3D6
330
1F
100
AcDbEntity
  8
Livello 3
100
AcDbLine
 10
6.139571426699816
 20
-12.05381870531986
 30
0.0
 11
6.138830593385383
 21
-12.05404095531984
 31
0.0
  0
SPLINE
  5
3D7
330
1F
100
AcDbEntity
  8
Livello 3
100
AcDbSpline
210
0.0
220
0.0
230
1.0
 70
    24
 71
     3
 72
     8
 73
     4
 74
     0
 42
0.000000001
 43
0.0000000001
 40
0.0
 40
0.0
 40
0.0
 40
0.0
 40
1.0
 40
1.0
 40
1.0
 40
1.0
 10
6.139056371157401
 20
-12.05404095531984
 30
0.0
 10
6.139056371157401
 20
-12.05404095531984
 30
0.0
 10
6.118006121694437
 20
-12.06174914976233
 30
0.0
 10
6.118006121694437
 20
-12.06174914976233
 30
0.0
  0
SPLINE
  5
3D8
330
1F
100
AcDbEntity
  8
Livello 3
100
AcDbSpline
210
0.0
220
0.0
230
1.0
 70
     8
 71
     3
 72
     8
 73
     4
 74
     0
 42
0.000000001
 43
0.0000000001
 40
1.0
 40
1.0
 40
1.0
 40
1.0
 40
2.0
 40
2.0
 40
2.0
 40
2.0
 10
6.118006121694437
 20
-12.06174914976233
 30
0.0
 10
5.969842986585504
 20
-12.1165990386375
 30
0.0
 10
5.820939018162138
 20
-12.1791535941774
 30
0.0
 10
5.681228438393119
 20
-12.25282770527011
 30
0.0
  0
SPLINE
  5
3D9
330
1F
100
AcDbEntity
  8
Livello 3
100
AcDbSpline
210
0.0
220
0.0
230
1.0
 70
    24
 71
     3
 72
     8
 73
     4
 74
     0
 42
0.000000001
 43
0.0000000001
 40
2.0
 40
2.0
 40
2.0
 40
2.0
 40
3.0
 40
3.0
 40
3.0
 40
3.0
 10
5.681228438393119
 20
-12.25282770527011
 30
0.0
 10
5.681228438393119
 20
-12.25282770527011
 30
0.0
 10
5.648024994795767
 20
-12.27039251082129
 30
0.0
 10
5.648024994795767
 20
-12.27039251082129
 30
0.0
  0
LINE
  5
3DA
330
1F
100
AcDbEntity
  8
Livello 3
100
AcDbLine
 10
5.647802744801436
 20
-12.27039251082129
 30
0.0
 11
5.647576967029417
 21
-12.2706147608212
 31
0.0
  0
LINE
  5
3DB
330
1F
100
AcDbEntity
  8
Livello 3
100
AcDbLine
 10
5.647576967029417
 20
-12.2706147608212
 30
0.0
 11
5.647206550372202
 21
-12.27076292748787
 31
0.0
  0
LINE
  5
3DC
330
1F
100
AcDbEntity
  8
Livello 3
100
AcDbLine
 10
5.647206550372202
 20
-12.27076292748787
 30
0.0
 11
5.647206550372202
 21
-12.27083701082118
 31
0.0
  0
LINE
  5
3DD
330
1F
100
AcDbEntity
  8
Livello 3
100
AcDbLine
 10
5.647206550372202
 20
-12.27083701082118
 30
0.0
 11
5.646984300377871
 21
-12.27105926082109
 31
0.0
  0
LINE
  5
3DE
330
1F
100
AcDbEntity
  8
Livello 3
100
AcDbLine
 10
5.646984300377871
 20
-12.27105926082109
 30
0.0
 11
5.646984300377871
 21
-12.27113334415446
 31
0.0
  0
LINE
  5
3DF
330
1F
100
AcDbEntity
  8
Livello 3
100
AcDbLine
 10
5.643576609080473
 20
-12.27239276082076
 30
0.0
 11
5.642017189393482
 21
-12.27313712193168
 31
0.0
  0
LINE
  5
3E0
330
1F
100
AcDbEntity
  8
Livello 3
100
AcDbLine
 10
5.642017189393482
 20
-12.27313712193168
 30
0.0
 11
5.641350439410492
 21
-12.27365570526494
 31
0.0
  0
LINE
  5
3E1
330
1F
100
AcDbEntity
  8
Livello 3
100
AcDbLine
 10
5.643576609080473
 20
-12.27239276082076
 30
0.0
 11
5.646391633726325
 21
-12.27150376082098
 31
0.0
  0
LINE
  5
3E2
330
1F
100
AcDbEntity
  8
Livello 3
100
AcDbLine
 10
5.646391633726325
 20
-12.27150376082098
 30
0.0
 11
5.646984300377871
 21
-12.27113334415446
 31
0.0
  0
LINE
  5
3E3
330
1F
100
AcDbEntity
  8
Livello 3
100
AcDbLine
 10
5.647206550372202
 20
-12.27268909415404
 30
0.0
 11
5.643572939353792
 21
-12.27239276082076
 31
0.0
  0
LINE
  5
3E4
330
1F
100
AcDbEntity
  8
Livello 3
100
AcDbLine
 10
5.646984300377871
 20
-12.27113334415446
 30
0.0
 11
5.647206550372202
 21
-12.27269262193179
 31
0.0
  0
LINE
  5
3E5
330
1F
100
AcDbEntity
  8
Livello 3
100
AcDbLine
 10
5.641794939399152
 20
-12.27239276082076
 30
0.0
 11
5.642091272724925
 21
-12.2721740385986
 31
0.0
  0
LINE
  5
3E6
330
1F
100
AcDbEntity
  8
Livello 3
100
AcDbLine
 10
5.642091272724925
 20
-12.2721740385986
 30
0.0
 11
5.642683939376472
 21
-12.27195178859869
 31
0.0
  0
LINE
  5
3E7
330
1F
100
AcDbEntity
  8
Livello 3
100
AcDbLine
 10
5.642683939376472
 20
-12.27195178859869
 30
0.0
 11
5.643424772690905
 21
-12.2715813719321
 31
0.0
  0
LINE
  5
3E8
330
1F
100
AcDbEntity
  8
Livello 3
100
AcDbLine
 10
5.643424772690905
 20
-12.2715813719321
 30
0.0
 11
5.644758272656884
 21
-12.27128503859882
 31
0.0
  0
LINE
  5
3E9
330
1F
100
AcDbEntity
  8
Livello 3
100
AcDbLine
 10
5.644758272656884
 20
-12.27128503859882
 30
0.0
 11
5.646391633726325
 21
-12.27083701082118
 31
0.0
  0
LINE
  5
3EA
330
1F
100
AcDbEntity
  8
Livello 3
100
AcDbLine
 10
5.646391633726325
 20
-12.27083701082118
 30
0.0
 11
5.647799217023746
 21
-12.2706147608212
 31
0.0
  0
LINE
  5
3EB
330
1F
100
AcDbEntity
  8
Livello 3
100
AcDbLine
 10
5.341397613729592
 20
-12.27239276082076
 30
0.0
 11
5.641794939399152
 21
-12.27239276082076
 31
0.0
  0
LINE
  5
3EC
330
1F
100
AcDbEntity
  8
Livello 3
100
AcDbLine
 10
5.647206550372202
 20
-12.27268909415404
 30
0.0
 11
5.641350439410492
 21
-12.27365217748712
 31
0.0
  0
LINE
  5
3ED
330
1F
100
AcDbEntity
  8
Livello 3
100
AcDbLine
 10
5.63772049797082
 20
-12.2738744274871
 30
0.0
 11
5.641350439410492
 21
-12.27357809415382
 31
0.0
  0
SPLINE
  5
3EE
330
1F
100
AcDbEntity
  8
Livello 3
100
AcDbSpline
210
0.0
220
0.0
230
1.0
 70
    24
 71
     3
 72
     8
 73
     4
 74
     0
 42
0.000000001
 43
0.0000000001
 40
0.0
 40
0.0
 40
0.0
 40
0.0
 40
1.0
 40
1.0
 40
1.0
 40
1.0
 10
8.205162874002187
 20
-12.0526333719868
 30
0.0
 10
8.205162874002187
 20
-12.0526333719868
 30
0.0
 10
8.197380596422952
 20
-12.04944778865427
 30
0.0
 10
8.197380596422952
 20
-12.04944778865427
 30
0.0
  0
SPLINE
  5
3EF
330
1F
100
AcDbEntity
  8
Livello 3
100
AcDbSpline
210
0.0
220
0.0
230
1.0
 70
     8
 71
     3
 72
     8
 73
     4
 74
     0
 42
0.000000001
 43
0.0000000001
 40
1.0
 40
1.0
 40
1.0
 40
1.0
 40
2.0
 40
2.0
 40
2.0
 40
2.0
 10
8.197380596422952
 20
-12.04944778865427
 30
0.0
 10
8.191524485461243
 20
-12.04722528865483
 30
0.0
 10
8.155206014165582
 20
-12.03336464976944
 30
0.0
 10
8.182927291236131
 20
-12.03158664976988
 30
0.0
  0
SPLINE
  5
3F0
330
1F
100
AcDbEntity
  8
Livello 3
100
AcDbSpline
210
0.0
220
0.0
230
1.0
 70
    24
 71
     3
 72
     8
 73
     4
 74
     0
 42
0.000000001
 43
0.0000000001
 40
2.0
 40
2.0
 40
2.0
 40
2.0
 40
3.0
 40
3.0
 40
3.0
 40
3.0
 10
8.182927291236131
 20
-12.03158664976988
 30
0.0
 10
8.182927291236131
 20
-12.03158664976988
 30
0.0
 10
8.188116652214851
 20
-12.03158664976988
 30
0.0
 10
8.188116652214851
 20
-12.03158664976988
 30
0.0
  0
SPLINE
  5
468
330
1F
100
AcDbEntity
  8
Livello 3
100
AcDbSpline
210
0.0
220
0.0
230
1.0
 70
    24
 71
     3
 72
     8
 73
     4
 74
     0
 42
0.000000001
 43
0.0000000001
 40
0.0
 40
0.0
 40
0.0
 40
0.0
 40
1.0
 40
1.0
 40
1.0
 40
1.0
 10
6.107151294725516
 20
-6.128399109579002
 30
0.0
 10
6.107151294725516
 20
-6.128399109579002
 30
0.0
 10
6.690818440414111
 20
-6.661559220556815
 30
0.0
 10
6.690818440414111
 20
-6.661559220556815
 30
0.0
  0
SPLINE
  5
469
330
1F
100
AcDbEntity
  8
Livello 3
100
AcDbSpline
210
0.0
220
0.0
230
1.0
 70
     8
 71
     3
 72
    11
 73
     7
 74
     0
 42
0.000000001
 43
0.0000000001
 40
1.0
 40
1.0
 40
1.0
 40
1.0
 40
2.0
 40
2.0
 40
2.0
 40
3.0
 40
3.0
 40
3.0
 40
3.0
 10
6.690818440414111
 20
-6.661559220556815
 30
0.0
 10
6.473172195966728
 20
-6.860180164951622
 30
0.0
 10
6.336618977228269
 20
-7.146162998213462
 30
0.0
 10
6.336618977228269
 20
-7.463984025911761
 30
0.0
 10
6.336618977228269
 20
-7.763831025836802
 30
0.0
 10
6.458165183526678
 20
-8.03530410910228
 30
0.0
 10
6.654679885780527
 20
-8.231811914608686
 30
0.0
  0
SPLINE
  5
46A
330
1F
100
AcDbEntity
  8
Livello 3
100
AcDbSpline
210
0.0
220
0.0
230
1.0
 70
    24
 71
     3
 72
     8
 73
     4
 74
     0
 42
0.000000001
 43
0.0000000001
 40
3.0
 40
3.0
 40
3.0
 40
3.0
 40
4.0
 40
4.0
 40
4.0
 40
4.0
 10
6.654679885780527
 20
-8.231811914608686
 30
0.0
 10
6.654679885780527
 20
-8.231811914608686
 30
0.0
 10
6.020293735298399
 20
-8.731278220039394
 30
0.0
 10
6.020293735298399
 20
-8.731278220039394
 30
0.0
  0
SPLINE
  5
46B
330
1F
100
AcDbEntity
  8
Livello 3
100
AcDbSpline
210
0.0
220
0.0
230
1.0
 70
    24
 71
     3
 72
     8
 73
     4
 74
     0
 42
0.000000001
 43
0.0000000001
 40
0.0
 40
0.0
 40
0.0
 40
0.0
 40
1.0
 40
1.0
 40
1.0
 40
1.0
 10
8.747392887946526
 20
-6.128399109579002
 30
0.0
 10
8.747392887946526
 20
-6.128399109579002
 30
0.0
 10
8.163722069503874
 20
-6.661559220556815
 30
0.0
 10
8.163722069503874
 20
-6.661559220556815
 30
0.0
  0
SPLINE
  5
46C
330
1F
100
AcDbEntity
  8
Livello 3
100
AcDbSpline
210
0.0
220
0.0
230
1.0
 70
     8
 71
     3
 72
    11
 73
     7
 74
     0
 42
0.000000001
 43
0.0000000001
 40
1.0
 40
1.0
 40
1.0
 40
1.0
 40
2.0
 40
2.0
 40
2.0
 40
3.0
 40
3.0
 40
3.0
 40
3.0
 10
8.163722069503874
 20
-6.661559220556815
 30
0.0
 10
8.381368516379197
 20
-6.860180164951622
 30
0.0
 10
8.517921532689715
 20
-7.146162998213462
 30
0.0
 10
8.517921532689715
 20
-7.463984025911761
 30
0.0
 10
8.517921532689715
 20
-7.763831025836802
 30
0.0
 10
8.396379008012747
 20
-8.03530410910228
 30
0.0
 10
8.199860624137459
 20
-8.231811914608686
 30
0.0
  0
SPLINE
  5
46D
330
1F
100
AcDbEntity
  8
Livello 3
100
AcDbSpline
210
0.0
220
0.0
230
1.0
 70
    24
 71
     3
 72
     8
 73
     4
 74
     0
 42
0.000000001
 43
0.0000000001
 40
3.0
 40
3.0
 40
3.0
 40
3.0
 40
4.0
 40
4.0
 40
4.0
 40
4.0
 10
8.199860624137459
 20
-8.231811914608686
 30
0.0
 10
8.199860624137459
 20
-8.231811914608686
 30
0.0
 10
8.834250302397274
 20
-8.731278220039394
 30
0.0
 10
8.834250302397274
 20
-8.731278220039394
 30
0.0
  0
LINE
  5
479
330
1F
100
AcDbEntity
  8
Livello 3
100
AcDbLine
 10
5.338914058237397
 20
-18.77953703234217
 30
0.0
 11
8.990664909517917
 21
-18.77953703234217
 31
0.0
  0
LINE
  5
47A
330
1F
100
AcDbEntity
  8
Livello 3
100
AcDbLine
 10
9.524999997618749
 20
-17.88583332886181
 30
0.0
 11
9.524999997618749
 21
-11.9743355201545
 31
0.0
  0
LINE
  5
47B
330
1F
100
AcDbEntity
  8
Livello 3
100
AcDbLine
 10
9.524999997618749
 20
-9.136944442160206
 30
0.0
 11
9.524999997618749
 21
-5.573744248606558
 31
0.0
  0
SPLINE
  5
47F
330
1F
100
AcDbEntity
  8
Livello 3
100
AcDbSpline
210
0.0
220
0.0
230
1.0
 70
     9
 71
     3
 72
    35
 73
    31
 74
     0
 42
0.000000001
 43
0.0000000001
 40
0.0
 40
0.0
 40
0.0
 40
0.0
 40
1.0
 40
1.0
 40
1.0
 40
2.0
 40
2.0
 40
2.0
 40
3.0
 40
3.0
 40
3.0
 40
4.0
 40
4.0
 40
4.0
 40
5.0
 40
5.0
 40
5.0
 40
6.0
 40
6.0
 40
6.0
 40
7.0
 40
7.0
 40
7.0
 40
8.0
 40
8.0
 40
8.0
 40
9.0
 40
9.0
 40
9.0
 40
10.0
 40
10.0
 40
10.0
 40
10.0
 10
6.430391301560804
 20
-19.45586669435478
 30
0.0
 10
6.430391301560804
 20
-19.386448020327
 30
0.0
 10
6.471870251203212
 20
-19.33732095870732
 30
0.0
 10
6.539618053920651
 20
-19.3085544114055
 30
0.0
 10
6.539618053920651
 20
-19.3085544114055
 30
0.0
 10
6.538774005526763
 20
-19.30600504074641
 30
0.0
 10
6.538774005526763
 20
-19.30600504074641
 30
0.0
 10
6.477813040915268
 20
-19.27720404248972
 30
0.0
 10
6.451561413317663
 20
-19.22979952861269
 30
0.0
 10
6.451561413317663
 20
-19.18239501473564
 30
0.0
 10
6.451561413317663
 20
-19.09516519704912
 30
0.0
 10
6.525217554792306
 20
-19.03590955470283
 30
0.0
 10
6.621749130289007
 20
-19.03590955470283
 30
0.0
 10
6.728443737467193
 20
-19.03590955470283
 30
0.0
 10
6.781791041056287
 20
-19.10277885807153
 30
0.0
 10
6.781791041056287
 20
-19.17137070918285
 30
0.0
 10
6.781791041056287
 20
-19.21794840014343
 30
0.0
 10
6.758915607034229
 20
-19.26790228467955
 30
0.0
 10
6.691185029794217
 20
-19.30007947651178
 30
0.0
 10
6.691185029794217
 20
-19.30007947651178
 30
0.0
 10
6.691185029794217
 20
-19.30262884717087
 30
0.0
 10
6.691185029794217
 20
-19.30262884717087
 30
0.0
 10
6.75977688090554
 20
-19.32970729768493
 30
0.0
 10
6.802099878941836
 20
-19.37797308543328
 30
0.0
 10
6.802099878941836
 20
-19.44487683975683
 30
0.0
 10
6.802099878941836
 20
-19.54054714138222
 30
0.0
 10
6.719968802573478
 20
-19.60490152504669
 30
0.0
 10
6.61497951766049
 20
-19.60490152504669
 30
0.0
 10
6.499827201066015
 20
-19.60490152504669
 30
0.0
 10
6.430391301560804
 20
-19.53630967393537
 30
0.0
 10
6.430391301560804
 20
-19.45586669435478
 30
0.0
  0
SPLINE
  5
480
330
1F
100
AcDbEntity
  8
Livello 3
100
AcDbSpline
210
0.0
220
0.0
230
1.0
 70
     9
 71
     3
 72
    17
 73
    13
 74
     0
 42
0.000000001
 43
0.0000000001
 40
0.0
 40
0.0
 40
0.0
 40
0.0
 40
1.0
 40
1.0
 40
1.0
 40
2.0
 40
2.0
 40
2.0
 40
3.0
 40
3.0
 40
3.0
 40
4.0
 40
4.0
 40
4.0
 40
4.0
 10
6.726738415201996
 20
-19.45249050077924
 30
0.0
 10
6.726738415201996
 20
-19.38558674645569
 30
0.0
 10
6.680177949718843
 20
-19.35340955462345
 30
0.0
 10
6.60566053437289
 20
-19.33225666834402
 30
0.0
 10
6.541306150708422
 20
-19.35089463491921
 30
0.0
 10
6.50659681369453
 20
-19.39323485843294
 30
0.0
 10
6.50659681369453
 20
-19.4457036626733
 30
0.0
 10
6.504047443035446
 20
-19.5016175623989
 30
0.0
 10
6.546387666549166
 20
-19.55071017306371
 30
0.0
 10
6.616667614448262
 20
-19.55071017306371
 30
0.0
 10
6.683571368771815
 20
-19.55071017306371
 30
0.0
 10
6.726738415201996
 20
-19.5092312234213
 30
0.0
 10
6.726738415201996
 20
-19.45249050077924
 30
0.0
  0
SPLINE
  5
481
330
1F
100
AcDbEntity
  8
Livello 3
100
AcDbSpline
210
0.0
220
0.0
230
1.0
 70
     9
 71
     3
 72
    17
 73
    13
 74
     0
 42
0.000000001
 43
0.0000000001
 40
0.0
 40
0.0
 40
0.0
 40
0.0
 40
1.0
 40
1.0
 40
1.0
 40
2.0
 40
2.0
 40
2.0
 40
3.0
 40
3.0
 40
3.0
 40
4.0
 40
4.0
 40
4.0
 40
4.0
 10
6.521841361216763
 20
-19.17729627341748
 30
0.0
 10
6.521841361216763
 20
-19.23234889927177
 30
0.0
 10
6.563320310859169
 20
-19.26197672044492
 30
0.0
 10
6.626830646129751
 20
-19.27892659023235
 30
0.0
 10
6.674252385484213
 20
-19.26283799431623
 30
0.0
 10
6.710649819285878
 20
-19.22893825474138
 30
0.0
 10
6.710649819285878
 20
-19.17898437020525
 30
0.0
 10
6.710649819285878
 20
-19.13495604990376
 30
0.0
 10
6.684415417165702
 20
-19.08923963281449
 30
0.0
 10
6.617511662842151
 20
-19.08923963281449
 30
0.0
 10
6.555706649836768
 20
-19.08923963281449
 30
0.0
 10
6.521841361216763
 20
-19.12989175954044
 30
0.0
 10
6.521841361216763
 20
-19.17729627341748
 30
0.0
  0
HATCH
  5
482
330
1F
100
AcDbEntity
  8
Livello 3
100
AcDbHatch
 10
0.0
 20
0.0
 30
0.0
210
0.0
220
0.0
230
1.0
  2
SOLID
 70
     1
 71
     0
 91
        3
 92
        1
 93
        1
 72
     4
 94
        3
 73
     0
 74
     0
 95
       35
 96
       31
 40
0.0
 40
0.0
 40
0.0
 40
0.0
 40
1.0
 40
1.0
 40
1.0
 40
2.0
 40
2.0
 40
2.0
 40
3.0
 40
3.0
 40
3.0
 40
4.0
 40
4.0
 40
4.0
 40
5.0
 40
5.0
 40
5.0
 40
6.0
 40
6.0
 40
6.0
 40
7.0
 40
7.0
 40
7.0
 40
8.0
 40
8.0
 40
8.0
 40
9.0
 40
9.0
 40
9.0
 40
10.0
 40
10.0
 40
10.0
 40
10.0
 10
6.430391301560804
 20
-19.45586669435478
 10
6.430391301560804
 20
-19.386448020327
 10
6.471870251203212
 20
-19.33732095870732
 10
6.539618053920651
 20
-19.3085544114055
 10
6.539618053920651
 20
-19.3085544114055
 10
6.538774005526763
 20
-19.30600504074641
 10
6.538774005526763
 20
-19.30600504074641
 10
6.477813040915268
 20
-19.27720404248972
 10
6.451561413317663
 20
-19.22979952861269
 10
6.451561413317663
 20
-19.18239501473564
 10
6.451561413317663
 20
-19.09516519704912
 10
6.525217554792306
 20
-19.03590955470283
 10
6.621749130289007
 20
-19.03590955470283
 10
6.728443737467193
 20
-19.03590955470283
 10
6.781791041056287
 20
-19.10277885807153
 10
6.781791041056287
 20
-19.17137070918285
 10
6.781791041056287
 20
-19.21794840014343
 10
6.758915607034229
 20
-19.26790228467955
 10
6.691185029794217
 20
-19.30007947651178
 10
6.691185029794217
 20
-19.30007947651178
 10
6.691185029794217
 20
-19.30262884717087
 10
6.691185029794217
 20
-19.30262884717087
 10
6.75977688090554
 20
-19.32970729768493
 10
6.802099878941836
 20
-19.37797308543328
 10
6.802099878941836
 20
-19.44487683975683
 10
6.802099878941836
 20
-19.54054714138222
 10
6.719968802573478
 20
-19.60490152504669
 10
6.61497951766049
 20
-19.60490152504669
 10
6.499827201066015
 20
-19.60490152504669
 10
6.430391301560804
 20
-19.53630967393537
 10
6.430391301560804
 20
-19.45586669435478
 97
        0
 97
        0
 92
        1
 93
        1
 72
     4
 94
        3
 73
     0
 74
     0
 95
       17
 96
       13
 40
0.0
 40
0.0
 40
0.0
 40
0.0
 40
1.0
 40
1.0
 40
1.0
 40
2.0
 40
2.0
 40
2.0
 40
3.0
 40
3.0
 40
3.0
 40
4.0
 40
4.0
 40
4.0
 40
4.0
 10
6.726738415201996
 20
-19.45249050077924
 10
6.726738415201996
 20
-19.38558674645569
 10
6.680177949718843
 20
-19.35340955462345
 10
6.60566053437289
 20
-19.33225666834402
 10
6.541306150708422
 20
-19.35089463491921
 10
6.50659681369453
 20
-19.39323485843294
 10
6.50659681369453
 20
-19.4457036626733
 10
6.504047443035446
 20
-19.5016175623989
 10
6.546387666549166
 20
-19.55071017306371
 10
6.616667614448262
 20
-19.55071017306371
 10
6.683571368771815
 20
-19.55071017306371
 10
6.726738415201996
 20
-19.5092312234213
 10
6.726738415201996
 20
-19.45249050077924
 97
        0
 97
        0
 92
        1
 93
        1
 72
     4
 94
        3
 73
     0
 74
     0
 95
       17
 96
       13
 40
0.0
 40
0.0
 40
0.0
 40
0.0
 40
1.0
 40
1.0
 40
1.0
 40
2.0
 40
2.0
 40
2.0
 40
3.0
 40
3.0
 40
3.0
 40
4.0
 40
4.0
 40
4.0
 40
4.0
 10
6.521841361216763
 20
-19.17729627341748
 10
6.521841361216763
 20
-19.23234889927177
 10
6.563320310859169
 20
-19.26197672044492
 10
6.626830646129751
 20
-19.27892659023235
 10
6.674252385484213
 20
-19.26283799431623
 10
6.710649819285878
 20
-19.22893825474138
 10
6.710649819285878
 20
-19.17898437020525
 10
6.710649819285878
 20
-19.13495604990376
 10
6.684415417165702
 20
-19.08923963281449
 10
6.617511662842151
 20
-19.08923963281449
 10
6.555706649836768
 20
-19.08923963281449
 10
6.521841361216763
 20
-19.12989175954044
 10
6.521841361216763
 20
-19.17729627341748
 97
        0
 97
        0
 75
     2
 76
     1
 98
        0
450
        0
451
        0
460
0.0
461
0.0
452
        0
462
0.0
453
        0
470

  0
SPLINE
  5
483
330
1F
100
AcDbEntity
  8
Livello 3
100
AcDbSpline
210
0.0
220
0.0
230
1.0
 70
     9
 71
     3
 72
    17
 73
    13
 74
     0
 42
0.000000001
 43
0.0000000001
 40
0.0
 40
0.0
 40
0.0
 40
0.0
 40
1.0
 40
1.0
 40
1.0
 40
2.0
 40
2.0
 40
2.0
 40
3.0
 40
3.0
 40
3.0
 40
4.0
 40
4.0
 40
4.0
 40
4.0
 10
6.846937796682362
 20
-19.69974500375562
 30
0.0
 10
6.865558537780138
 20
-19.6497911192195
 30
0.0
 10
6.888416746324769
 20
-19.55918510795743
 30
0.0
 10
6.89773572961237
 20
-19.49738009495204
 30
0.0
 10
6.89773572961237
 20
-19.49738009495204
 30
0.0
 10
6.980710854374612
 20
-19.48890516005833
 30
0.0
 10
6.980710854374612
 20
-19.48890516005833
 30
0.0
 10
6.961246064882952
 20
-19.5608732047452
 30
0.0
 10
6.923987357209974
 20
-19.65485540958281
 30
0.0
 10
6.90026787479403
 20
-19.69464626243745
 30
0.0
 10
6.90026787479403
 20
-19.69464626243745
 30
0.0
 10
6.846937796682362
 20
-19.69974500375562
 30
0.0
 10
6.846937796682362
 20
-19.69974500375562
 30
0.0
  0
HATCH
  5
484
330
1F
100
AcDbEntity
  8
Livello 3
100
AcDbHatch
 10
0.0
 20
0.0
 30
0.0
210
0.0
220
0.0
230
1.0
  2
SOLID
 70
     1
 71
     0
 91
        1
 92
        1
 93
        1
 72
     4
 94
        3
 73
     0
 74
     0
 95
       17
 96
       13
 40
0.0
 40
0.0
 40
0.0
 40
0.0
 40
1.0
 40
1.0
 40
1.0
 40
2.0
 40
2.0
 40
2.0
 40
3.0
 40
3.0
 40
3.0
 40
4.0
 40
4.0
 40
4.0
 40
4.0
 10
6.846937796682362
 20
-19.69974500375562
 10
6.865558537780138
 20
-19.6497911192195
 10
6.888416746324769
 20
-19.55918510795743
 10
6.89773572961237
 20
-19.49738009495204
 10
6.89773572961237
 20
-19.49738009495204
 10
6.980710854374612
 20
-19.48890516005833
 10
6.980710854374612
 20
-19.48890516005833
 10
6.961246064882952
 20
-19.5608732047452
 10
6.923987357209974
 20
-19.65485540958281
 10
6.90026787479403
 20
-19.69464626243745
 10
6.90026787479403
 20
-19.69464626243745
 10
6.846937796682362
 20
-19.69974500375562
 10
6.846937796682362
 20
-19.69974500375562
 97
        0
 97
        0
 75
     2
 76
     1
 98
        0
450
        0
451
        0
460
0.0
461
0.0
452
        0
462
0.0
453
        0
470

  0
SPLINE
  5
485
330
1F
100
AcDbEntity
  8
Livello 3
100
AcDbSpline
210
0.0
220
0.0
230
1.0
 70
    11
 71
     3
 72
    50
 73
    46
 74
     0
 42
0.000000001
 43
0.0000000001
 40
0.0
 40
0.0
 40
0.0
 40
0.0
 40
1.0
 40
1.0
 40
1.0
 40
2.0
 40
2.0
 40
2.0
 40
3.0
 40
3.0
 40
3.0
 40
4.0
 40
4.0
 40
4.0
 40
5.0
 40
5.0
 40
5.0
 40
6.0
 40
6.0
 40
6.0
 40
7.0
 40
7.0
 40
7.0
 40
8.0
 40
8.0
 40
8.0
 40
9.0
 40
9.0
 40
9.0
 40
10.0
 40
10.0
 40
10.0
 40
11.0
 40
11.0
 40
11.0
 40
12.0
 40
12.0
 40
12.0
 40
13.0
 40
13.0
 40
13.0
 40
14.0
 40
14.0
 40
14.0
 40
15.0
 40
15.0
 40
15.0
 40
15.0
 10
7.375277640300277
 20
-19.1078775993897
 30
0.0
 10
7.375277640300277
 20
-19.1078775993897
 30
0.0
 10
7.165281844996874
 20
-19.1078775993897
 30
0.0
 10
7.165281844996874
 20
-19.1078775993897
 30
0.0
 10
7.165281844996874
 20
-19.1078775993897
 30
0.0
 10
7.144111733240013
 20
-19.24926431810435
 30
0.0
 10
7.144111733240013
 20
-19.24926431810435
 30
0.0
 10
7.156806910103158
 20
-19.24757622131657
 30
0.0
 10
7.168675264049844
 20
-19.2458881245288
 30
0.0
 10
7.188984101935393
 20
-19.2458881245288
 30
0.0
 10
7.231324325449112
 20
-19.2458881245288
 30
0.0
 10
7.273664548962833
 20
-19.25518988233898
 30
0.0
 10
7.307529837582838
 20
-19.27551594570195
 30
0.0
 10
7.350714109490446
 20
-19.30007947651178
 30
0.0
 10
7.386284720375651
 20
-19.34748399038882
 30
0.0
 10
7.386284720375651
 20
-19.41693711537146
 30
0.0
 10
7.386284720375651
 20
-19.52445854546611
 30
0.0
 10
7.300760224954322
 20
-19.60490152504669
 30
0.0
 10
7.18137044091299
 20
-19.60490152504669
 30
0.0
 10
7.12125352469538
 20
-19.60490152504669
 30
0.0
 10
7.070438366287945
 20
-19.58798610621411
 30
0.0
 10
7.044203964167767
 20
-19.57103623642669
 30
0.0
 10
7.044203964167767
 20
-19.57103623642669
 30
0.0
 10
7.062824705265543
 20
-19.51429551378462
 30
0.0
 10
7.062824705265543
 20
-19.51429551378462
 30
0.0
 10
7.085682913810175
 20
-19.5278691899965
 30
0.0
 10
7.13057250798298
 20
-19.54478460882908
 30
0.0
 10
7.180526392519102
 20
-19.54478460882908
 30
0.0
 10
7.250806340418201
 20
-19.54478460882908
 30
0.0
 10
7.31092325663581
 20
-19.49906819173982
 30
0.0
 10
7.31092325663581
 20
-19.42541205026517
 30
0.0
 10
7.310079208241924
 20
-19.35427082849477
 30
0.0
 10
7.26265746888746
 20
-19.30345567008733
 30
0.0
 10
7.152586668133727
 20
-19.30345567008733
 30
0.0
 10
7.12125352469538
 20
-19.30345567008733
 30
0.0
 10
7.096689993885549
 20
-19.30686631461773
 30
0.0
 10
7.076381156000002
 20
-19.30938123432196
 30
0.0
 10
7.076381156000002
 20
-19.30938123432196
 30
0.0
 10
7.11193454140778
 20
-19.045211312513
 30
0.0
 10
7.11193454140778
 20
-19.045211312513
 30
0.0
 10
7.11193454140778
 20
-19.045211312513
 30
0.0
 10
7.375277640300277
 20
-19.045211312513
 30
0.0
 10
7.375277640300277
 20
-19.045211312513
 30
0.0
 10
7.375277640300277
 20
-19.045211312513
 30
0.0
 10
7.375277640300277
 20
-19.1078775993897
 30
0.0
 10
7.375277640300277
 20
-19.1078775993897
 30
0.0
  0
HATCH
  5
486
330
1F
100
AcDbEntity
  8
Livello 3
100
AcDbHatch
 10
0.0
 20
0.0
 30
0.0
210
0.0
220
0.0
230
1.0
  2
SOLID
 70
     1
 71
     0
 91
        1
 92
        1
 93
        1
 72
     4
 94
        3
 73
     0
 74
     0
 95
       50
 96
       46
 40
0.0
 40
0.0
 40
0.0
 40
0.0
 40
1.0
 40
1.0
 40
1.0
 40
2.0
 40
2.0
 40
2.0
 40
3.0
 40
3.0
 40
3.0
 40
4.0
 40
4.0
 40
4.0
 40
5.0
 40
5.0
 40
5.0
 40
6.0
 40
6.0
 40
6.0
 40
7.0
 40
7.0
 40
7.0
 40
8.0
 40
8.0
 40
8.0
 40
9.0
 40
9.0
 40
9.0
 40
10.0
 40
10.0
 40
10.0
 40
11.0
 40
11.0
 40
11.0
 40
12.0
 40
12.0
 40
12.0
 40
13.0
 40
13.0
 40
13.0
 40
14.0
 40
14.0
 40
14.0
 40
15.0
 40
15.0
 40
15.0
 40
15.0
 10
7.375277640300277
 20
-19.1078775993897
 10
7.375277640300277
 20
-19.1078775993897
 10
7.165281844996874
 20
-19.1078775993897
 10
7.165281844996874
 20
-19.1078775993897
 10
7.165281844996874
 20
-19.1078775993897
 10
7.144111733240013
 20
-19.24926431810435
 10
7.144111733240013
 20
-19.24926431810435
 10
7.156806910103158
 20
-19.24757622131657
 10
7.168675264049844
 20
-19.2458881245288
 10
7.188984101935393
 20
-19.2458881245288
 10
7.231324325449112
 20
-19.2458881245288
 10
7.273664548962833
 20
-19.25518988233898
 10
7.307529837582838
 20
-19.27551594570195
 10
7.350714109490446
 20
-19.30007947651178
 10
7.386284720375651
 20
-19.34748399038882
 10
7.386284720375651
 20
-19.41693711537146
 10
7.386284720375651
 20
-19.52445854546611
 10
7.300760224954322
 20
-19.60490152504669
 10
7.18137044091299
 20
-19.60490152504669
 10
7.12125352469538
 20
-19.60490152504669
 10
7.070438366287945
 20
-19.58798610621411
 10
7.044203964167767
 20
-19.57103623642669
 10
7.044203964167767
 20
-19.57103623642669
 10
7.062824705265543
 20
-19.51429551378462
 10
7.062824705265543
 20
-19.51429551378462
 10
7.085682913810175
 20
-19.5278691899965
 10
7.13057250798298
 20
-19.54478460882908
 10
7.180526392519102
 20
-19.54478460882908
 10
7.250806340418201
 20
-19.54478460882908
 10
7.31092325663581
 20
-19.49906819173982
 10
7.31092325663581
 20
-19.42541205026517
 10
7.310079208241924
 20
-19.35427082849477
 10
7.26265746888746
 20
-19.30345567008733
 10
7.152586668133727
 20
-19.30345567008733
 10
7.12125352469538
 20
-19.30345567008733
 10
7.096689993885549
 20
-19.30686631461773
 10
7.076381156000002
 20
-19.30938123432196
 10
7.076381156000002
 20
-19.30938123432196
 10
7.11193454140778
 20
-19.045211312513
 10
7.11193454140778
 20
-19.045211312513
 10
7.11193454140778
 20
-19.045211312513
 10
7.375277640300277
 20
-19.045211312513
 10
7.375277640300277
 20
-19.045211312513
 10
7.375277640300277
 20
-19.045211312513
 10
7.375277640300277
 20
-19.1078775993897
 10
7.375277640300277
 20
-19.1078775993897
 97
        0
 97
        0
 75
     2
 76
     1
 98
        0
450
        0
451
        0
460
0.0
461
0.0
452
        0
462
0.0
453
        0
470

  0
POLYLINE
  5
487
330
1F
100
AcDbEntity
  8
Livello 3
100
AcDb2dPolyline
 66
     1
 10
0.0
 20
0.0
 30
0.0
  0
VERTEX
  5
488
330
487
100
AcDbEntity
  8
Livello 3
100
AcDbVertex
100
AcDb2dVertex
 10
10.10289753979198
 20
-15.64032009157603
 30
0.0
  0
VERTEX
  5
489
330
487
100
AcDbEntity
  8
Livello 3
100
AcDbVertex
100
AcDb2dVertex
 10
10.10289753979198
 20
-15.6420081883638
 30
0.0
  0
VERTEX
  5
48A
330
487
100
AcDbEntity
  8
Livello 3
100
AcDbVertex
100
AcDb2dVertex
 10
10.1545567465933
 20
-15.73767848998919
 30
0.0
  0
VERTEX
  5
48B
330
487
100
AcDbEntity
  8
Livello 3
100
AcDbVertex
100
AcDb2dVertex
 10
10.09781602395124
 20
-15.75207898911754
 30
0.0
  0
VERTEX
  5
48C
330
487
100
AcDbEntity
  8
Livello 3
100
AcDbVertex
100
AcDb2dVertex
 10
10.03346164028677
 20
-15.63184515668232
 30
0.0
  0
VERTEX
  5
48D
330
487
100
AcDbEntity
  8
Livello 3
100
AcDbVertex
100
AcDb2dVertex
 10
10.03346164028677
 20
-15.56835204688916
 30
0.0
  0
VERTEX
  5
48E
330
487
100
AcDbEntity
  8
Livello 3
100
AcDbVertex
100
AcDb2dVertex
 10
10.58385009501029
 20
-15.56835204688916
 30
0.0
  0
VERTEX
  5
48F
330
487
100
AcDbEntity
  8
Livello 3
100
AcDbVertex
100
AcDb2dVertex
 10
10.58385009501029
 20
-15.64032009157603
 30
0.0
  0
VERTEX
  5
490
330
487
100
AcDbEntity
  8
Livello 3
100
AcDbVertex
100
AcDb2dVertex
 10
10.10289753979198
 20
-15.64032009157603
 30
0.0
  0
SEQEND
  5
491
330
487
100
AcDbEntity
  8
Livello 3
  0
HATCH
  5
492
330
1F
100
AcDbEntity
  8
Livello 3
100
AcDbHatch
 10
0.0
 20
0.0
 30
0.0
210
0.0
220
0.0
230
1.0
  2
SOLID
 70
     1
 71
     0
 91
        1
 92
        1
 93
        8
 72
     1
 10
10.10289753979198
 20
-15.64032009157603
 11
10.10289753979198
 21
-15.6420081883638
 72
     1
 10
10.10289753979198
 20
-15.6420081883638
 11
10.1545567465933
 21
-15.73767848998919
 72
     1
 10
10.1545567465933
 20
-15.73767848998919
 11
10.09781602395124
 21
-15.75207898911754
 72
     1
 10
10.09781602395124
 20
-15.75207898911754
 11
10.03346164028677
 21
-15.63184515668232
 72
     1
 10
10.03346164028677
 20
-15.63184515668232
 11
10.03346164028677
 21
-15.56835204688916
 72
     1
 10
10.03346164028677
 20
-15.56835204688916
 11
10.58385009501029
 21
-15.56835204688916
 72
     1
 10
10.58385009501029
 20
-15.56835204688916
 11
10.58385009501029
 21
-15.64032009157603
 72
     1
 10
10.58385009501029
 20
-15.64032009157603
 11
10.10289753979198
 21
-15.64032009157603
 97
        0
 75
     2
 76
     1
 98
        0
450
        0
451
        0
460
0.0
461
0.0
452
        0
462
0.0
453
        0
470

  0
POLYLINE
  5
493
330
1F
100
AcDbEntity
  8
Livello 3
100
AcDb2dPolyline
 66
     1
 10
0.0
 20
0.0
 30
0.0
  0
VERTEX
  5
494
330
493
100
AcDbEntity
  8
Livello 3
100
AcDbVertex
100
AcDb2dVertex
 10
10.58385009501029
 20
-15.13740505263926
 30
0.0
  0
VERTEX
  5
495
330
493
100
AcDbEntity
  8
Livello 3
100
AcDbVertex
100
AcDb2dVertex
 10
10.43397121592449
 20
-15.13740505263926
 30
0.0
  0
VERTEX
  5
496
330
493
100
AcDbEntity
  8
Livello 3
100
AcDbVertex
100
AcDb2dVertex
 10
10.43397121592449
 20
-15.39313449050935
 30
0.0
  0
VERTEX
  5
497
330
493
100
AcDbEntity
  8
Livello 3
100
AcDbVertex
100
AcDb2dVertex
 10
10.38486137978226
 20
-15.39313449050935
 30
0.0
  0
VERTEX
  5
498
330
493
100
AcDbEntity
  8
Livello 3
100
AcDbVertex
100
AcDb2dVertex
 10
10.03346164028677
 20
-15.14756808432075
 30
0.0
  0
VERTEX
  5
499
330
493
100
AcDbEntity
  8
Livello 3
100
AcDbVertex
100
AcDb2dVertex
 10
10.03346164028677
 20
-15.06712510474016
 30
0.0
  0
VERTEX
  5
49A
330
493
100
AcDbEntity
  8
Livello 3
100
AcDbVertex
100
AcDb2dVertex
 10
10.37555962197208
 20
-15.06712510474016
 30
0.0
  0
VERTEX
  5
49B
330
493
100
AcDbEntity
  8
Livello 3
100
AcDbVertex
100
AcDb2dVertex
 10
10.37555962197208
 20
-14.99009276968998
 30
0.0
  0
VERTEX
  5
49C
330
493
100
AcDbEntity
  8
Livello 3
100
AcDbVertex
100
AcDb2dVertex
 10
10.43397121592449
 20
-14.99009276968998
 30
0.0
  0
VERTEX
  5
49D
330
493
100
AcDbEntity
  8
Livello 3
100
AcDbVertex
100
AcDb2dVertex
 10
10.43397121592449
 20
-15.06712510474016
 30
0.0
  0
VERTEX
  5
49E
330
493
100
AcDbEntity
  8
Livello 3
100
AcDbVertex
100
AcDb2dVertex
 10
10.58385009501029
 20
-15.06712510474016
 30
0.0
  0
VERTEX
  5
49F
330
493
100
AcDbEntity
  8
Livello 3
100
AcDbVertex
100
AcDb2dVertex
 10
10.58385009501029
 20
-15.13740505263926
 30
0.0
  0
SEQEND
  5
4A0
330
493
100
AcDbEntity
  8
Livello 3
  0
SPLINE
  5
4A1
330
1F
100
AcDbEntity
  8
Livello 3
100
AcDbSpline
210
0.0
220
0.0
230
1.0
 70
    11
 71
     3
 72
    26
 73
    22
 74
     0
 42
0.000000001
 43
0.0000000001
 40
0.0
 40
0.0
 40
0.0
 40
0.0
 40
1.0
 40
1.0
 40
1.0
 40
2.0
 40
2.0
 40
2.0
 40
3.0
 40
3.0
 40
3.0
 40
4.0
 40
4.0
 40
4.0
 40
5.0
 40
5.0
 40
5.0
 40
6.0
 40
6.0
 40
6.0
 40
7.0
 40
7.0
 40
7.0
 40
7.0
 10
10.37555962197208
 20
-15.13740505263926
 30
0.0
 10
10.37555962197208
 20
-15.13740505263926
 30
0.0
 10
10.19181545426627
 20
-15.13740505263926
 30
0.0
 10
10.19181545426627
 20
-15.13740505263926
 30
0.0
 10
10.16301445600959
 20
-15.13740505263926
 30
0.0
 10
10.13423068323033
 20
-15.1365782297228
 30
0.0
 10
10.10544691045107
 20
-15.13485568198017
 30
0.0
 10
10.10544691045107
 20
-15.13485568198017
 30
0.0
 10
10.10544691045107
 20
-15.13740505263926
 30
0.0
 10
10.10544691045107
 20
-15.13740505263926
 30
0.0
 10
10.1376241022833
 20
-15.15435492242669
 30
0.0
 10
10.16132635922182
 20
-15.16789414768372
 30
0.0
 10
10.18673393842554
 20
-15.18315592068338
 30
0.0
 10
10.18673393842554
 20
-15.18315592068338
 30
0.0
 10
10.37385429970688
 20
-15.31779025224694
 30
0.0
 10
10.37385429970688
 20
-15.31779025224694
 30
0.0
 10
10.37385429970688
 20
-15.31779025224694
 30
0.0
 10
10.37555962197208
 20
-15.31779025224694
 30
0.0
 10
10.37555962197208
 20
-15.31779025224694
 30
0.0
 10
10.37555962197208
 20
-15.31779025224694
 30
0.0
 10
10.37555962197208
 20
-15.13740505263926
 30
0.0
 10
10.37555962197208
 20
-15.13740505263926
 30
0.0
  0
HATCH
  5
4A2
330
1F
100
AcDbEntity
  8
Livello 3
100
AcDbHatch
 10
0.0
 20
0.0
 30
0.0
210
0.0
220
0.0
230
1.0
  2
SOLID
 70
     1
 71
     0
 91
        2
 92
        1
 93
       11
 72
     1
 10
10.58385009501029
 20
-15.13740505263926
 11
10.43397121592449
 21
-15.13740505263926
 72
     1
 10
10.43397121592449
 20
-15.13740505263926
 11
10.43397121592449
 21
-15.39313449050935
 72
     1
 10
10.43397121592449
 20
-15.39313449050935
 11
10.38486137978226
 21
-15.39313449050935
 72
     1
 10
10.38486137978226
 20
-15.39313449050935
 11
10.03346164028677
 21
-15.14756808432075
 72
     1
 10
10.03346164028677
 20
-15.14756808432075
 11
10.03346164028677
 21
-15.06712510474016
 72
     1
 10
10.03346164028677
 20
-15.06712510474016
 11
10.37555962197208
 21
-15.06712510474016
 72
     1
 10
10.37555962197208
 20
-15.06712510474016
 11
10.37555962197208
 21
-14.99009276968998
 72
     1
 10
10.37555962197208
 20
-14.99009276968998
 11
10.43397121592449
 21
-14.99009276968998
 72
     1
 10
10.43397121592449
 20
-14.99009276968998
 11
10.43397121592449
 21
-15.06712510474016
 72
     1
 10
10.43397121592449
 20
-15.06712510474016
 11
10.58385009501029
 21
-15.06712510474016
 72
     1
 10
10.58385009501029
 20
-15.06712510474016
 11
10.58385009501029
 21
-15.13740505263926
 97
        0
 92
        1
 93
        1
 72
     4
 94
        3
 73
     0
 74
     0
 95
       26
 96
       22
 40
0.0
 40
0.0
 40
0.0
 40
0.0
 40
1.0
 40
1.0
 40
1.0
 40
2.0
 40
2.0
 40
2.0
 40
3.0
 40
3.0
 40
3.0
 40
4.0
 40
4.0
 40
4.0
 40
5.0
 40
5.0
 40
5.0
 40
6.0
 40
6.0
 40
6.0
 40
7.0
 40
7.0
 40
7.0
 40
7.0
 10
10.37555962197208
 20
-15.13740505263926
 10
10.37555962197208
 20
-15.13740505263926
 10
10.19181545426627
 20
-15.13740505263926
 10
10.19181545426627
 20
-15.13740505263926
 10
10.16301445600959
 20
-15.13740505263926
 10
10.13423068323033
 20
-15.1365782297228
 10
10.10544691045107
 20
-15.13485568198017
 10
10.10544691045107
 20
-15.13485568198017
 10
10.10544691045107
 20
-15.13740505263926
 10
10.10544691045107
 20
-15.13740505263926
 10
10.1376241022833
 20
-15.15435492242669
 10
10.16132635922182
 20
-15.16789414768372
 10
10.18673393842554
 20
-15.18315592068338
 10
10.18673393842554
 20
-15.18315592068338
 10
10.37385429970688
 20
-15.31779025224694
 10
10.37385429970688
 20
-15.31779025224694
 10
10.37385429970688
 20
-15.31779025224694
 10
10.37555962197208
 20
-15.31779025224694
 10
10.37555962197208
 20
-15.31779025224694
 10
10.37555962197208
 20
-15.31779025224694
 10
10.37555962197208
 20
-15.13740505263926
 10
10.37555962197208
 20
-15.13740505263926
 97
        0
 97
        0
 75
     2
 76
     1
 98
        0
450
        0
451
        0
460
0.0
461
0.0
452
        0
462
0.0
453
        0
470

  0
SPLINE
  5
4A3
330
1F
100
AcDbEntity
  8
Livello 3
100
AcDbSpline
210
0.0
220
0.0
230
1.0
 70
     9
 71
     3
 72
    41
 73
    37
 74
     0
 42
0.000000001
 43
0.0000000001
 40
0.0
 40
0.0
 40
0.0
 40
0.0
 40
1.0
 40
1.0
 40
1.0
 40
2.0
 40
2.0
 40
2.0
 40
3.0
 40
3.0
 40
3.0
 40
4.0
 40
4.0
 40
4.0
 40
5.0
 40
5.0
 40
5.0
 40
6.0
 40
6.0
 40
6.0
 40
7.0
 40
7.0
 40
7.0
 40
8.0
 40
8.0
 40
8.0
 40
9.0
 40
9.0
 40
9.0
 40
10.0
 40
10.0
 40
10.0
 40
11.0
 40
11.0
 40
11.0
 40
12.0
 40
12.0
 40
12.0
 40
12.0
 10
10.30124891235524
 20
-7.610422632646004
 30
0.0
 10
10.30295423462044
 20
-7.594334036729887
 30
0.0
 10
10.30124891235524
 20
-7.575713295632112
 30
0.0
 10
10.29871676717358
 20
-7.550305716428396
 30
0.0
 10
10.29279120293895
 20
-7.507121444520789
 30
0.0
 10
10.27499728475764
 20
-7.46646931779484
 30
0.0
 10
10.24536946358449
 20
-7.435153399833918
 30
0.0
 10
10.21234822335837
 20
-7.398738740554828
 30
0.0
 10
10.16408243561002
 20
-7.372487112957223
 30
0.0
 10
10.09888400355167
 20
-7.362324081275737
 30
0.0
 10
10.09888400355167
 20
-7.362324081275737
 30
0.0
 10
10.09888400355167
 20
-7.364873451934823
 30
0.0
 10
10.09888400355167
 20
-7.364873451934823
 30
0.0
 10
10.13614271122464
 20
-7.395345321501856
 30
0.0
 10
10.15815687137539
 20
-7.439373641803351
 30
0.0
 10
10.15815687137539
 20
-7.494426267657642
 30
0.0
 10
10.15815687137539
 20
-7.593489988336003
 30
0.0
 10
10.08363945602944
 20
-7.657000323606581
 30
0.0
 10
9.98965725119182
 20
-7.657000323606581
 30
0.0
 10
9.885512014672716
 20
-7.657000323606581
 30
0.0
 10
9.794061955016761
 20
-7.581638859866742
 30
0.0
 10
9.794061955016761
 20
-7.469018688453924
 30
0.0
 10
9.794061955016761
 20
-7.356398517041107
 30
0.0
 10
9.885512014672716
 20
-7.286962617535897
 30
0.0
 10
10.02607191047091
 20
-7.286962617535897
 30
0.0
 10
10.14714979130002
 20
-7.286962617535897
 30
0.0
 10
10.23183023832746
 20
-7.327614744261846
 30
0.0
 10
10.28431626804524
 20
-7.381806096244826
 30
0.0
 10
10.32581244316507
 20
-7.424146319758546
 30
0.0
 10
10.35122002236879
 20
-7.482557913710956
 30
0.0
 10
10.35798963499731
 20
-7.541830781534681
 30
0.0
 10
10.36222710244416
 20
-7.56892645752617
 30
0.0
 10
10.36307115083805
 20
-7.592645939942115
 30
0.0
 10
10.36222710244416
 20
-7.610422632646004
 30
0.0
 10
10.36222710244416
 20
-7.610422632646004
 30
0.0
 10
10.30124891235524
 20
-7.610422632646004
 30
0.0
 10
10.30124891235524
 20
-7.610422632646004
 30
0.0
  0
SPLINE
  5
4A4
330
1F
100
AcDbEntity
  8
Livello 3
100
AcDbSpline
210
0.0
220
0.0
230
1.0
 70
     9
 71
     3
 72
    20
 73
    16
 74
     0
 42
0.000000001
 43
0.0000000001
 40
0.0
 40
0.0
 40
0.0
 40
0.0
 40
1.0
 40
1.0
 40
1.0
 40
2.0
 40
2.0
 40
2.0
 40
3.0
 40
3.0
 40
3.0
 40
4.0
 40
4.0
 40
4.0
 40
5.0
 40
5.0
 40
5.0
 40
5.0
 10
9.984575735351075
 20
-7.583326956654514
 30
0.0
 10
10.0531675864624
 20
-7.583326956654514
 30
0.0
 10
10.10141614873333
 20
-7.541830781534681
 30
0.0
 10
10.10141614873333
 20
-7.477476397870212
 30
0.0
 10
10.10141614873333
 20
-7.42752251333409
 30
0.0
 10
10.07686984340092
 20
-7.388575708873342
 30
0.0
 10
10.0438486031748
 20
-7.369093693904254
 30
0.0
 10
10.03707899054628
 20
-7.364873451934823
 30
0.0
 10
10.02860405565257
 20
-7.362324081275737
 30
0.0
 10
10.01675292718331
 20
-7.362324081275737
 30
0.0
 10
9.922753496868269
 20
-7.362324081275737
 30
0.0
 10
9.8507854521814
 20
-7.397050643767057
 30
0.0
 10
9.8507854521814
 20
-7.474944252688554
 30
0.0
 10
9.8507854521814
 20
-7.538454587959134
 30
0.0
 10
9.906682126429577
 20
-7.583326956654514
 30
0.0
 10
9.984575735351075
 20
-7.583326956654514
 30
0.0
  0
HATCH
  5
4A5
330
1F
100
AcDbEntity
  8
Livello 3
100
AcDbHatch
 10
0.0
 20
0.0
 30
0.0
210
0.0
220
0.0
230
1.0
  2
SOLID
 70
     1
 71
     0
 91
        2
 92
        1
 93
        1
 72
     4
 94
        3
 73
     0
 74
     0
 95
       41
 96
       37
 40
0.0
 40
0.0
 40
0.0
 40
0.0
 40
1.0
 40
1.0
 40
1.0
 40
2.0
 40
2.0
 40
2.0
 40
3.0
 40
3.0
 40
3.0
 40
4.0
 40
4.0
 40
4.0
 40
5.0
 40
5.0
 40
5.0
 40
6.0
 40
6.0
 40
6.0
 40
7.0
 40
7.0
 40
7.0
 40
8.0
 40
8.0
 40
8.0
 40
9.0
 40
9.0
 40
9.0
 40
10.0
 40
10.0
 40
10.0
 40
11.0
 40
11.0
 40
11.0
 40
12.0
 40
12.0
 40
12.0
 40
12.0
 10
10.30124891235524
 20
-7.610422632646004
 10
10.30295423462044
 20
-7.594334036729887
 10
10.30124891235524
 20
-7.575713295632112
 10
10.29871676717358
 20
-7.550305716428396
 10
10.29279120293895
 20
-7.507121444520789
 10
10.27499728475764
 20
-7.46646931779484
 10
10.24536946358449
 20
-7.435153399833918
 10
10.21234822335837
 20
-7.398738740554828
 10
10.16408243561002
 20
-7.372487112957223
 10
10.09888400355167
 20
-7.362324081275737
 10
10.09888400355167
 20
-7.362324081275737
 10
10.09888400355167
 20
-7.364873451934823
 10
10.09888400355167
 20
-7.364873451934823
 10
10.13614271122464
 20
-7.395345321501856
 10
10.15815687137539
 20
-7.439373641803351
 10
10.15815687137539
 20
-7.494426267657642
 10
10.15815687137539
 20
-7.593489988336003
 10
10.08363945602944
 20
-7.657000323606581
 10
9.98965725119182
 20
-7.657000323606581
 10
9.885512014672716
 20
-7.657000323606581
 10
9.794061955016761
 20
-7.581638859866742
 10
9.794061955016761
 20
-7.469018688453924
 10
9.794061955016761
 20
-7.356398517041107
 10
9.885512014672716
 20
-7.286962617535897
 10
10.02607191047091
 20
-7.286962617535897
 10
10.14714979130002
 20
-7.286962617535897
 10
10.23183023832746
 20
-7.327614744261846
 10
10.28431626804524
 20
-7.381806096244826
 10
10.32581244316507
 20
-7.424146319758546
 10
10.35122002236879
 20
-7.482557913710956
 10
10.35798963499731
 20
-7.541830781534681
 10
10.36222710244416
 20
-7.56892645752617
 10
10.36307115083805
 20
-7.592645939942115
 10
10.36222710244416
 20
-7.610422632646004
 10
10.36222710244416
 20
-7.610422632646004
 10
10.30124891235524
 20
-7.610422632646004
 10
10.30124891235524
 20
-7.610422632646004
 97
        0
 97
        0
 92
        1
 93
        1
 72
     4
 94
        3
 73
     0
 74
     0
 95
       20
 96
       16
 40
0.0
 40
0.0
 40
0.0
 40
0.0
 40
1.0
 40
1.0
 40
1.0
 40
2.0
 40
2.0
 40
2.0
 40
3.0
 40
3.0
 40
3.0
 40
4.0
 40
4.0
 40
4.0
 40
5.0
 40
5.0
 40
5.0
 40
5.0
 10
9.984575735351075
 20
-7.583326956654514
 10
10.0531675864624
 20
-7.583326956654514
 10
10.10141614873333
 20
-7.541830781534681
 10
10.10141614873333
 20
-7.477476397870212
 10
10.10141614873333
 20
-7.42752251333409
 10
10.07686984340092
 20
-7.388575708873342
 10
10.0438486031748
 20
-7.369093693904254
 10
10.03707899054628
 20
-7.364873451934823
 10
10.02860405565257
 20
-7.362324081275737
 10
10.01675292718331
 20
-7.362324081275737
 10
9.922753496868269
 20
-7.362324081275737
 10
9.8507854521814
 20
-7.397050643767057
 10
9.8507854521814
 20
-7.474944252688554
 10
9.8507854521814
 20
-7.538454587959134
 10
9.906682126429577
 20
-7.583326956654514
 10
9.984575735351075
 20
-7.583326956654514
 97
        0
 97
        0
 75
     2
 76
     1
 98
        0
450
        0
451
        0
460
0.0
461
0.0
452
        0
462
0.0
453
        0
470

  0
ENDSEC
  0
SECTION
  2
OBJECTS
  0
DICTIONARY
  5
C
330
0
100
AcDbDictionary
281
     1
  3
ACAD_CIP_PREVIOUS_PRODUCT_INFO
350
2CC
  3
ACAD_COLOR
350
2AD
  3
ACAD_DETAILVIEWSTYLE
350
2C8
  3
ACAD_GROUP
350
D
  3
ACAD_LAYOUT
350
1A
  3
ACAD_MATERIAL
350
3B
  3
ACAD_MLEADERSTYLE
350
2A0
  3
ACAD_MLINESTYLE
350
17
  3
ACAD_PLOTSETTINGS
350
19
  3
ACAD_PLOTSTYLENAME
350
E
  3
ACAD_SCALELIST
350
2AF
  3
ACAD_SECTIONVIEWSTYLE
350
2C6
  3
ACAD_TABLESTYLE
350
29F
  3
ACAD_VISUALSTYLE
350
2A
  3
ACDB_RECOMPOSE_DATA
350
4EC
  3
AcDbVariableDictionary
350
4E4
  0
SUN
  5
3F
330
29
100
AcDbSun
 90
        1
290
     1
 63
     7
421
 16777215
 40
1.0
291
     1
 91
  2455826
 92
 54000000
292
     0
 70
     0
 71
   256
280
     1
1001
ACAD
1000
AcDbSavedByObjectVersion
1070
     0
  0
DICTIONARY
  5
2CD
330
1F
100
AcDbDictionary
280
     1
281
     1
  3
ACAD_SORTENTS
360
2CE
  0
XRECORD
  5
2CC
102
{ACAD_REACTORS
330
C
102
}
330
C
100
AcDbXrecord
280
     1
300
ACD
300
2019
300
ACD_F_S
  0
DICTIONARY
  5
2AD
102
{ACAD_REACTORS
330
C
102
}
330
C
100
AcDbDictionary
281
     1
  0
DICTIONARY
  5
2C8
102
{ACAD_REACTORS
330
C
102
}
330
C
100
AcDbDictionary
281
     1
  3
Imperial24
350
2C9
  0
DICTIONARY
  5
D
102
{ACAD_REACTORS
330
C
102
}
330
C
100
AcDbDictionary
281
     1
  0
DICTIONARY
  5
1A
102
{ACAD_REACTORS
330
C
102
}
330
C
100
AcDbDictionary
281
     1
  3
Layout1
350
1E
  3
Layout2
350
26
  3
Model
350
22
  0
DICTIONARY
  5
3B
102
{ACAD_REACTORS
330
C
102
}
330
C
100
AcDbDictionary
281
     1
  3
ByBlock
350
3D
  3
ByLayer
350
3C
  3
Global
350
3E
  0
DICTIONARY
  5
2A0
102
{ACAD_REACTORS
330
C
102
}
330
C
100
AcDbDictionary
281
     1
  3
Standard
350
2C5
  0
DICTIONARY
  5
17
102
{ACAD_REACTORS
330
C
102
}
330
C
100
AcDbDictionary
281
     1
  3
Standard
350
18
  0
DICTIONARY
  5
19
102
{ACAD_REACTORS
330
C
102
}
330
C
100
AcDbDictionary
281
     1
  0
ACDBDICTIONARYWDFLT
  5
E
102
{ACAD_REACTORS
330
C
102
}
330
C
100
AcDbDictionary
281
     1
  3
Normal
350
F
100
AcDbDictionaryWithDefault
340
F
  0
DICTIONARY
  5
2AF
102
{ACAD_REACTORS
330
C
102
}
330
C
100
AcDbDictionary
281
     1
  3
A0
350
2B0
  3
A1
350
2B1
  3
A2
350
2B2
  3
A3
350
2B3
  3
A4
350
2B4
  3
A5
350
2B5
  3
A6
350
2B6
  3
A7
350
2B7
  3
A8
350
2B8
  3
A9
350
2B9
  3
B0
350
2BA
  3
B1
350
2BB
  3
B2
350
2BC
  3
B3
350
2BD
  3
B4
350
2BE
  3
B5
350
2BF
  3
B6
350
2C0
  3
B7
350
2C1
  3
B8
350
2C2
  3
B9
350
2C3
  3
C0
350
2C4
  0
DICTIONARY
  5
2C6
102
{ACAD_REACTORS
330
C
102
}
330
C
100
AcDbDictionary
281
     1
  3
Imperial24
350
2C7
  0
DICTIONARY
  5
29F
102
{ACAD_REACTORS
330
C
102
}
330
C
100
AcDbDictionary
281
     1
  3
Standard
350
2AE
  0
DICTIONARY
  5
2A
102
{ACAD_REACTORS
330
C
102
}
330
C
100
AcDbDictionary
281
     1
  3
2dWireframe
350
2F
  3
3D Hidden
350
31
  3
3dWireframe
350
30
  3
Basic
350
32
  3
Brighten
350
36
  3
ColorChange
350
3A
  3
Conceptual
350
34
  3
Dim
350
35
  3
EdgeColorOff
350
2AC
  3
Facepattern
350
39
  3
Flat
350
2B
  3
FlatWithEdges
350
2C
  3
Gouraud
350
2D
  3
GouraudWithEdges
350
2E
  3
Hidden
350
2A4
  3
JitterOff
350
2AA
  3
Linepattern
350
38
  3
OverhangOff
350
2AB
  3
Realistic
350
33
  3
Shaded
350
2A9
  3
Shaded with edges
350
2A8
  3
Shades of Gray
350
2A5
  3
Sketchy
350
2A6
  3
Thicken
350
37
  3
Wireframe
350
2A3
  3
X-Ray
350
2A7
  0
XRECORD
  5
4EC
102
{ACAD_REACTORS
330
C
102
}
330
C
100
AcDbXrecord
280
     1
 90
        1
330
2AE
  0
DICTIONARY
  5
4E4
102
{ACAD_REACTORS
330
C
102
}
330
C
100
AcDbDictionary
281
     1
  3
CANNOSCALE
350
4E9
  3
CMLEADERSTYLE
350
4E6
  3
CTABLESTYLE
350
4E5
  3
CVIEWDETAILSTYLE
350
4E7
  3
CVIEWSECTIONSTYLE
350
4E8
  0
SORTENTSTABLE
  5
2CE
102
{ACAD_REACTORS
330
2CD
102
}
330
2CD
100
AcDbSortentsTable
330
1F
  0
ACDBDETAILVIEWSTYLE
  5
2C9
102
{ACAD_XDICTIONARY
360
4EF
102
}
102
{ACAD_REACTORS
330
2C8
102
}
330
2C8
100
AcDbModelDocViewStyle
 70
     0
  3
Imperial24
290
     0
100
AcDbDetailViewStyle
 70
     0
 71
     0
 90
        3
 71
     1
340
11
 62
   256
 40
0.24
340
0
 62
   256
 40
0.24
300

 40
0.36
280
     3
 71
     2
340
16
 90
       25
 62
   256
 71
     3
340
11
 62
   256
 40
0.24
 90
        1
 40
0.75
 90
        1
300
%<\AcVar ViewType \f "%tc1">% %<\AcVar ViewDetailId>%\PSCALA %<\AcVar ViewScale \f "%sn">%
 71
     4
340
16
 90
       25
 62
   256
340
16
 90
       25
 62
   256
280
     0
  0
LAYOUT
  5
1E
102
{ACAD_REACTORS
330
1A
102
}
330
1A
100
AcDbPlotSettings
  1

  2
none_device
  4

  6

 40
0.0
 41
0.0
 42
0.0
 43
0.0
 44
0.0
 45
0.0
 46
0.0
 47
0.0
 48
0.0
 49
0.0
140
0.0
141
0.0
142
1.0
143
1.0
 70
   688
 72
     0
 73
     0
 74
     5
  7

 75
    16
147
1.0
 76
     0
 77
     2
 78
   300
148
0.0
149
0.0
100
AcDbLayout
  1
Layout1
 70
     1
 71
     1
 10
0.0
 20
0.0
 11
12.0
 21
9.0
 12
0.0
 22
0.0
 32
0.0
 14
1.000000000000000E+20
 24
1.000000000000000E+20
 34
1.000000000000000E+20
 15
-1.000000000000000E+20
 25
-1.000000000000000E+20
 35
-1.000000000000000E+20
146
0.0
 13
0.0
 23
0.0
 33
0.0
 16
1.0
 26
0.0
 36
0.0
 17
0.0
 27
1.0
 37
0.0
 76
     0
330
1B
  0
LAYOUT
  5
26
102
{ACAD_REACTORS
330
1A
102
}
330
1A
100
AcDbPlotSettings
  1

  2
none_device
  4

  6

 40
0.0
 41
0.0
 42
0.0
 43
0.0
 44
0.0
 45
0.0
 46
0.0
 47
0.0
 48
0.0
 49
0.0
140
0.0
141
0.0
142
1.0
143
1.0
 70
   688
 72
     0
 73
     0
 74
     5
  7

 75
    16
147
1.0
 76
     0
 77
     2
 78
   300
148
0.0
149
0.0
100
AcDbLayout
  1
Layout2
 70
     1
 71
     2
 10
0.0
 20
0.0
 11
0.0
 21
0.0
 12
0.0
 22
0.0
 32
0.0
 14
0.0
 24
0.0
 34
0.0
 15
0.0
 25
0.0
 35
0.0
146
0.0
 13
0.0
 23
0.0
 33
0.0
 16
1.0
 26
0.0
 36
0.0
 17
0.0
 27
1.0
 37
0.0
 76
     0
330
23
  0
LAYOUT
  5
22
102
{ACAD_REACTORS
330
1A
102
}
330
1A
100
AcDbPlotSettings
  1

  2
none_device
  4

  6

 40
0.0
 41
0.0
 42
0.0
 43
0.0
 44
0.0
 45
0.0
 46
0.0
 47
0.0
 48
0.0
 49
0.0
140
0.0
141
0.0
142
1.0
143
1.0
 70
  1712
 72
     0
 73
     0
 74
     0
  7

 75
     0
147
1.0
 76
     0
 77
     2
 78
   300
148
0.0
149
0.0
100
AcDbLayout
  1
Model
 70
     1
 71
     0
 10
0.0
 20
0.0
 11
12.0
 21
9.0
 12
0.0
 22
0.0
 32
0.0
 14
1.000000000000000E+20
 24
1.000000000000000E+20
 34
1.000000000000000E+20
 15
-1.000000000000000E+20
 25
-1.000000000000000E+20
 35
-1.000000000000000E+20
146
0.0
 13
0.0
 23
0.0
 33
0.0
 16
1.0
 26
0.0
 36
0.0
 17
0.0
 27
1.0
 37
0.0
 76
     0
330
1F
331
29
  0
MATERIAL
  5
3D
102
{ACAD_REACTORS
330
3B
102
}
330
3B
100
AcDbMaterial
  1
ByBlock
  0
MATERIAL
  5
3C
102
{ACAD_REACTORS
330
3B
102
}
330
3B
100
AcDbMaterial
  1
ByLayer
  0
MATERIAL
  5
3E
102
{ACAD_REACTORS
330
3B
102
}
330
3B
100
AcDbMaterial
  1
Global
  0
MLEADERSTYLE
  5
2C5
102
{ACAD_REACTORS
330
2A0
102
}
330
2A0
100
AcDbMLeaderStyle
179
     2
170
     2
171
     1
172
     0
 90
        2
 40
0.0
 41
0.0
173
     1
 91
-1056964608
340
14
 92
       -2
290
     1
 42
0.09
291
     1
 43
0.36
  3
Standard
 44
0.18
300

342
11
174
     1
178
     6
175
     1
176
     0
 93
-1056964608
 45
0.18
292
     0
297
     0
 46
0.18
 94
-1056964608
 47
1.0
 49
1.0
140
1.0
293
     1
141
0.0
294
     1
177
     0
142
1.0
295
     0
296
     0
143
0.125
271
     0
272
     9
273
     9
298
     0
  0
MLINESTYLE
  5
18
102
{ACAD_REACTORS
330
17
102
}
330
17
100
AcDbMlineStyle
  2
STANDARD
 70
     0
  3

 62
   256
 51
90.0
 52
90.0
 71
     2
 49
0.5
 62
   256
  6
BYLAYER
 49
-0.5
 62
   256
  6
BYLAYER
  0
ACDBPLACEHOLDER
  5
F
102
{ACAD_REACTORS
330
E
102
}
330
E
  0
SCALE
  5
2B0
102
{ACAD_REACTORS
330
2AF
102
}
330
2AF
100
AcDbScale
 70
     0
300
1:1
140
1.0
141
1.0
290
     1
  0
SCALE
  5
2B1
102
{ACAD_REACTORS
330
2AF
102
}
330
2AF
100
AcDbScale
 70
     0
300
1.10
140
1.0
141
10.0
290
     0
  0
SCALE
  5
2B2
102
{ACAD_REACTORS
330
2AF
102
}
330
2AF
100
AcDbScale
 70
     0
300
1.50
140
1.0
141
50.0
290
     0
  0
SCALE
  5
2B3
102
{ACAD_REACTORS
330
2AF
102
}
330
2AF
100
AcDbScale
 70
     0
300
1:100
140
1.0
141
100.0
290
     0
  0
SCALE
  5
2B4
102
{ACAD_REACTORS
330
2AF
102
}
330
2AF
100
AcDbScale
 70
     0
300
1.200
140
1.0
141
200.0
290
     0
  0
SCALE
  5
2B5
102
{ACAD_REACTORS
330
2AF
102
}
330
2AF
100
AcDbScale
 70
     0
300
1/128" = 1'-0"
140
0.0078125
141
12.0
290
     0
  0
SCALE
  5
2B6
102
{ACAD_REACTORS
330
2AF
102
}
330
2AF
100
AcDbScale
 70
     0
300
1/64" = 1'-0"
140
0.015625
141
12.0
290
     0
  0
SCALE
  5
2B7
102
{ACAD_REACTORS
330
2AF
102
}
330
2AF
100
AcDbScale
 70
     0
300
1/32" = 1'-0"
140
0.03125
141
12.0
290
     0
  0
SCALE
  5
2B8
102
{ACAD_REACTORS
330
2AF
102
}
330
2AF
100
AcDbScale
 70
     0
300
1/16" = 1'-0"
140
0.0625
141
12.0
290
     0
  0
SCALE
  5
2B9
102
{ACAD_REACTORS
330
2AF
102
}
330
2AF
100
AcDbScale
 70
     0
300
3/32" = 1'-0"
140
0.09375
141
12.0
290
     0
  0
SCALE
  5
2BA
102
{ACAD_REACTORS
330
2AF
102
}
330
2AF
100
AcDbScale
 70
     0
300
1/8" = 1'-0"
140
0.125
141
12.0
290
     0
  0
SCALE
  5
2BB
102
{ACAD_REACTORS
330
2AF
102
}
330
2AF
100
AcDbScale
 70
     0
300
3/16" = 1'-0"
140
0.1875
141
12.0
290
     0
  0
SCALE
  5
2BC
102
{ACAD_REACTORS
330
2AF
102
}
330
2AF
100
AcDbScale
 70
     0
300
1/4" = 1'-0"
140
0.25
141
12.0
290
     0
  0
SCALE
  5
2BD
102
{ACAD_REACTORS
330
2AF
102
}
330
2AF
100
AcDbScale
 70
     0
300
3/8" = 1'-0"
140
0.375
141
12.0
290
     0
  0
SCALE
  5
2BE
102
{ACAD_REACTORS
330
2AF
102
}
330
2AF
100
AcDbScale
 70
     0
300
1/2" = 1'-0"
140
0.5
141
12.0
290
     0
  0
SCALE
  5
2BF
102
{ACAD_REACTORS
330
2AF
102
}
330
2AF
100
AcDbScale
 70
     0
300
3/4" = 1'-0"
140
0.75
141
12.0
290
     0
  0
SCALE
  5
2C0
102
{ACAD_REACTORS
330
2AF
102
}
330
2AF
100
AcDbScale
 70
     0
300
1" = 1'-0"
140
1.0
141
12.0
290
     0
  0
SCALE
  5
2C1
102
{ACAD_REACTORS
330
2AF
102
}
330
2AF
100
AcDbScale
 70
     0
300
1-1/2" = 1'-0"
140
1.5
141
12.0
290
     0
  0
SCALE
  5
2C2
102
{ACAD_REACTORS
330
2AF
102
}
330
2AF
100
AcDbScale
 70
     0
300
3" = 1'-0"
140
3.0
141
12.0
290
     0
  0
SCALE
  5
2C3
102
{ACAD_REACTORS
330
2AF
102
}
330
2AF
100
AcDbScale
 70
     0
300
6" = 1'-0"
140
6.0
141
12.0
290
     0
  0
SCALE
  5
2C4
102
{ACAD_REACTORS
330
2AF
102
}
330
2AF
100
AcDbScale
 70
     0
300
1'-0" = 1'-0"
140
12.0
141
12.0
290
     0
  0
ACDBSECTIONVIEWSTYLE
  5
2C7
102
{ACAD_XDICTIONARY
360
4ED
102
}
102
{ACAD_REACTORS
330
2C6
102
}
330
2C6
100
AcDbModelDocViewStyle
 70
     0
  3
Imperial24
290
     0
100
AcDbSectionViewStyle
 70
     0
 71
     0
 90
       78
 71
     1
340
11
 62
   256
 40
0.24
340
0
340
0
 62
   256
 40
0.24
300
I, O, Q, S, X, Z
 40
0.48
 90
        3
 40
0.18
 90
        1
 71
     2
340
16
 90
       25
 62
   256
340
16
 90
       50
 62
   256
 40
0.24
 40
0.0
 40
0.24
 71
     3
340
11
 62
   256
 40
0.24
 90
        1
 40
0.75
 90
        1
300
%<\AcVar ViewType \f "%tc1">% %<\AcVar ViewSectionStartId>%-%<\AcVar ViewSectionEndId>%\PSCALA %<\AcVar ViewScale \f "%sn">%
 71
     4
 62
   256
 62
   257
300
ANSI31
 40
1.0
 90
        0
290
     0
290
     0
 90
        6
 40
0.0
 40
1.570796326794896
 40
0.2617993877991494
 40
1.308996938995747
 40
-0.2617993877991494
 40
1.832595714594046
  0
TABLESTYLE
  5
2AE
102
{ACAD_XDICTIONARY
360
4EA
102
}
102
{ACAD_REACTORS
330
29F
102
}
330
29F
100
AcDbTableStyle
280
     0
  3
Standard
 70
     0
 71
     0
 40
0.06
 41
0.06
280
     0
281
     0
  7
Standard
140
0.18
170
     2
 62
     0
 63
     7
283
     0
 90
      512
 91
        0
  1

274
    -2
284
     1
 64
     0
275
    -2
285
     1
 65
     0
276
    -2
286
     1
 66
     0
277
    -2
287
     1
 67
     0
278
    -2
288
     1
 68
     0
279
    -2
289
     1
 69
     0
  7
Standard
140
0.25
170
     5
 62
     0
 63
     7
283
     0
 90
      512
 91
        0
  1

274
    -2
284
     1
 64
     0
275
    -2
285
     1
 65
     0
276
    -2
286
     1
 66
     0
277
    -2
287
     1
 67
     0
278
    -2
288
     1
 68
     0
279
    -2
289
     1
 69
     0
  7
Standard
140
0.18
170
     5
 62
     0
 63
     7
283
     0
 90
      512
 91
        0
  1

274
    -2
284
     1
 64
     0
275
    -2
285
     1
 65
     0
276
    -2
286
     1
 66
     0
277
    -2
287
     1
 67
     0
278
    -2
288
     1
 68
     0
279
    -2
289
     1
 69
     0
  0
VISUALSTYLE
  5
2F
102
{ACAD_REACTORS
330
2A
102
}
330
2A
100
AcDbVisualStyle
  2
2dWireframe
 70
     4
177
     3
291
     0
 70
    58
 90
        0
176
     1
 90
        2
176
     1
 90
        0
176
     1
 90
        0
176
     1
 40
0.6
176
     1
 40
30.0
176
     1
 62
     7
420
 16777215
176
     1
 90
        1
176
     1
 90
        4
176
     1
 62
     7
176
     1
 62
   257
176
     1
 90
        1
176
     1
 90
        1
176
     1
 40
1.0
176
     1
 90
        0
176
     1
 62
   257
176
     1
 40
1.0
176
     1
 90
        1
176
     1
 90
        6
176
     1
 90
        2
176
     1
 62
     7
176
     1
 90
        5
176
     1
 90
        0
176
     1
 90
        0
176
     1
290
     0
176
     1
 90
        1
176
     1
 40
0.0
176
     1
 90
        0
176
     1
290
     1
176
     1
290
     1
176
     1
290
     0
176
     1
290
     0
176
     1
290
     0
176
     1
290
     0
176
     1
290
     0
176
     1
290
     0
176
     1
290
     0
176
     1
 90
       50
176
     1
 40
0.0
176
     1
 40
1.0
176
     1
 90
        0
176
     1
 62
    18
420
        0
176
     1
 90
       50
176
     1
 90
        3
176
     1
 62
     5
420
      255
176
     1
290
     0
176
     1
 90
       50
176
     1
 90
       50
176
     1
 90
       50
176
     1
290
     0
176
     1
 90
       50
176
     1
 62
   256
176
     0
 40
1.0
176
     0
 90
        2
176
     1
  1
strokes_ogs.tif
176
     1
290
     0
176
     1
 40
1.0
176
     1
 40
1.0
176
     1
1001
ACAD
1000
AcDbSavedByObjectVersion
1070
     0
  0
VISUALSTYLE
  5
31
102
{ACAD_REACTORS
330
2A
102
}
330
2A
100
AcDbVisualStyle
  2
3D Hidden
 70
     6
177
     3
291
     0
 70
    58
 90
        1
176
     1
 90
        2
176
     1
 90
        2
176
     1
 90
        0
176
     1
 40
0.6
176
     1
 40
30.0
176
     1
 62
     7
420
 16777215
176
     1
 90
        2
176
     1
 90
        2
176
     1
 62
     7
176
     1
 62
   257
176
     1
 90
        2
176
     1
 90
        1
176
     1
 40
40.0
176
     1
 90
        0
176
     1
 62
   257
176
     1
 40
1.0
176
     1
 90
        1
176
     1
 90
        6
176
     1
 90
        2
176
     1
 62
     7
176
     1
 90
        3
176
     1
 90
        0
176
     1
 90
        0
176
     1
290
     0
176
     1
 90
        1
176
     1
 40
0.0
176
     1
 90
        0
176
     1
290
     0
176
     1
290
     1
176
     1
290
     1
176
     1
290
     0
176
     1
290
     0
176
     1
290
     0
176
     1
290
     0
176
     1
290
     0
176
     1
290
     0
176
     1
 90
       50
176
     1
 40
0.0
176
     1
 40
1.0
176
     1
 90
        0
176
     1
 62
    18
420
        0
176
     1
 90
       50
176
     1
 90
        3
176
     1
 62
     5
420
      255
176
     1
290
     0
176
     1
 90
       50
176
     1
 90
       50
176
     1
 90
       50
176
     1
290
     0
176
     1
 90
       50
176
     1
 62
   256
176
     0
 40
1.0
176
     0
 90
        2
176
     1
  1
strokes_ogs.tif
176
     1
290
     0
176
     1
 40
1.0
176
     1
 40
1.0
176
     1
1001
ACAD
1000
AcDbSavedByObjectVersion
1070
     0
  0
VISUALSTYLE
  5
30
102
{ACAD_REACTORS
330
2A
102
}
330
2A
100
AcDbVisualStyle
  2
3dWireframe
 70
     5
177
     3
291
     0
 70
    58
 90
        0
176
     1
 90
        2
176
     1
 90
        0
176
     1
 90
        0
176
     1
 40
0.6
176
     1
 40
30.0
176
     1
 62
     7
420
 16777215
176
     1
 90
        1
176
     1
 90
        4
176
     1
 62
     7
176
     1
 62
   257
176
     1
 90
        1
176
     1
 90
        1
176
     1
 40
1.0
176
     1
 90
        0
176
     1
 62
   257
176
     1
 40
1.0
176
     1
 90
        1
176
     1
 90
        6
176
     1
 90
        2
176
     1
 62
     7
176
     1
 90
        5
176
     1
 90
        0
176
     1
 90
        0
176
     1
290
     0
176
     1
 90
        1
176
     1
 40
0.0
176
     1
 90
        0
176
     1
290
     0
176
     1
290
     1
176
     1
290
     1
176
     1
290
     0
176
     1
290
     0
176
     1
290
     0
176
     1
290
     0
176
     1
290
     0
176
     1
290
     0
176
     1
 90
       50
176
     1
 40
0.0
176
     1
 40
1.0
176
     1
 90
        0
176
     1
 62
    18
420
        0
176
     1
 90
       50
176
     1
 90
        3
176
     1
 62
     5
420
      255
176
     1
290
     0
176
     1
 90
       50
176
     1
 90
       50
176
     1
 90
       50
176
     1
290
     0
176
     1
 90
       50
176
     1
 62
   256
176
     0
 40
1.0
176
     0
 90
        2
176
     1
  1
strokes_ogs.tif
176
     1
290
     0
176
     1
 40
1.0
176
     1
 40
1.0
176
     1
1001
ACAD
1000
AcDbSavedByObjectVersion
1070
     0
  0
VISUALSTYLE
  5
32
102
{ACAD_REACTORS
330
2A
102
}
330
2A
100
AcDbVisualStyle
  2
Basic
 70
     7
177
     3
291
     1
 70
    58
 90
        1
176
     1
 90
        0
176
     1
 90
        1
176
     1
 90
        0
176
     1
 40
0.6
176
     1
 40
30.0
176
     1
 62
     7
420
 16777215
176
     1
 90
        0
176
     1
 90
        4
176
     1
 62
     7
176
     1
 62
   257
176
     1
 90
        1
176
     1
 90
        1
176
     1
 40
1.0
176
     1
 90
        8
176
     1
 62
     7
176
     1
 40
1.0
176
     1
 90
        1
176
     1
 90
        6
176
     1
 90
        2
176
     1
 62
     7
176
     1
 90
        5
176
     1
 90
        0
176
     1
 90
        0
176
     1
290
     0
176
     1
 90
        1
176
     1
 40
0.0
176
     1
 90
        0
176
     1
290
     0
176
     1
290
     1
176
     1
290
     1
176
     1
290
     0
176
     1
290
     0
176
     1
290
     0
176
     1
290
     0
176
     1
290
     0
176
     1
290
     0
176
     1
 90
       50
176
     1
 40
0.0
176
     1
 40
1.0
176
     1
 90
        0
176
     1
 62
    18
420
        0
176
     1
 90
       50
176
     1
 90
        3
176
     1
 62
     5
420
      255
176
     1
290
     0
176
     1
 90
       50
176
     1
 90
       50
176
     1
 90
       50
176
     1
290
     0
176
     1
 90
       50
176
     1
 62
   256
176
     0
 40
1.0
176
     0
 90
        2
176
     1
  1
strokes_ogs.tif
176
     1
290
     0
176
     1
 40
1.0
176
     1
 40
1.0
176
     1
1001
ACAD
1000
AcDbSavedByObjectVersion
1070
     0
  0
VISUALSTYLE
  5
36
102
{ACAD_REACTORS
330
2A
102
}
330
2A
100
AcDbVisualStyle
  2
Brighten
 70
    12
177
     3
291
     1
 70
    58
 90
        2
176
     1
 90
        2
176
     1
 90
        0
176
     1
 90
        0
176
     1
 40
0.6
176
     1
 40
30.0
176
     1
 62
     7
420
 16777215
176
     1
 90
        1
176
     1
 90
        4
176
     1
 62
     7
176
     1
 62
   257
176
     1
 90
        1
176
     1
 90
        1
176
     1
 40
1.0
176
     1
 90
        8
176
     1
 62
     7
176
     1
 40
1.0
176
     1
 90
        1
176
     1
 90
        6
176
     1
 90
        2
176
     1
 62
     7
176
     1
 90
        5
176
     1
 90
        0
176
     1
 90
        0
176
     1
290
     0
176
     1
 90
        1
176
     1
 40
50.0
176
     1
 90
        0
176
     1
290
     0
176
     1
290
     1
176
     1
290
     1
176
     1
290
     0
176
     1
290
     0
176
     1
290
     0
176
     1
290
     0
176
     1
290
     0
176
     1
290
     0
176
     1
 90
       50
176
     1
 40
0.0
176
     1
 40
1.0
176
     1
 90
        0
176
     1
 62
    18
420
        0
176
     1
 90
       50
176
     1
 90
        3
176
     1
 62
     5
420
      255
176
     1
290
     0
176
     1
 90
       50
176
     1
 90
       50
176
     1
 90
       50
176
     1
290
     0
176
     1
 90
       50
176
     1
 62
   256
176
     0
 40
1.0
176
     0
 90
        2
176
     1
  1
strokes_ogs.tif
176
     1
290
     0
176
     1
 40
1.0
176
     1
 40
1.0
176
     1
1001
ACAD
1000
AcDbSavedByObjectVersion
1070
     0
  0
VISUALSTYLE
  5
3A
102
{ACAD_REACTORS
330
2A
102
}
330
2A
100
AcDbVisualStyle
  2
ColorChange
 70
    16
177
     3
291
     1
 70
    58
 90
        2
176
     1
 90
        2
176
     1
 90
        3
176
     1
 90
        0
176
     1
 40
0.6
176
     1
 40
30.0
176
     1
 62
     8
420
  8421504
176
     1
 90
        1
176
     1
 90
        4
176
     1
 62
     7
176
     1
 62
   257
176
     1
 90
        1
176
     1
 90
        1
176
     1
 40
1.0
176
     1
 90
        8
176
     1
 62
     8
420
  8421504
176
     1
 40
1.0
176
     1
 90
        1
176
     1
 90
        6
176
     1
 90
        2
176
     1
 62
     7
176
     1
 90
        5
176
     1
 90
        0
176
     1
 90
        0
176
     1
290
     0
176
     1
 90
        1
176
     1
 40
0.0
176
     1
 90
        0
176
     1
290
     0
176
     1
290
     1
176
     1
290
     1
176
     1
290
     0
176
     1
290
     0
176
     1
290
     0
176
     1
290
     0
176
     1
290
     0
176
     1
290
     0
176
     1
 90
       50
176
     1
 40
0.0
176
     1
 40
1.0
176
     1
 90
        0
176
     1
 62
    18
420
        0
176
     1
 90
       50
176
     1
 90
        3
176
     1
 62
     5
420
      255
176
     1
290
     0
176
     1
 90
       50
176
     1
 90
       50
176
     1
 90
       50
176
     1
290
     0
176
     1
 90
       50
176
     1
 62
   256
176
     0
 40
1.0
176
     0
 90
        2
176
     1
  1
strokes_ogs.tif
176
     1
290
     0
176
     1
 40
1.0
176
     1
 40
1.0
176
     1
1001
ACAD
1000
AcDbSavedByObjectVersion
1070
     0
  0
VISUALSTYLE
  5
34
102
{ACAD_REACTORS
330
2A
102
}
330
2A
100
AcDbVisualStyle
  2
Conceptual
 70
     9
177
     3
291
     0
 70
    58
 90
        3
176
     1
 90
        2
176
     1
 90
        0
176
     1
 90
        0
176
     1
 40
0.6
176
     1
 40
30.0
176
     1
 62
     7
420
 16777215
176
     1
 90
        2
176
     1
 90
        2
176
     1
 62
     7
176
     1
 62
   257
176
     1
 90
        1
176
     1
 90
        1
176
     1
 40
40.0
176
     1
 90
        8
176
     1
 62
     7
176
     1
 40
1.0
176
     1
 90
        1
176
     1
 90
        6
176
     1
 90
        2
176
     1
 62
     7
176
     1
 90
        3
176
     1
 90
        0
176
     1
 90
        0
176
     1
290
     0
176
     1
 90
        1
176
     1
 40
0.0
176
     1
 90
        0
176
     1
290
     0
176
     1
290
     1
176
     1
290
     1
176
     1
290
     0
176
     1
290
     0
176
     1
290
     0
176
     1
290
     0
176
     1
290
     0
176
     1
290
     0
176
     1
 90
       50
176
     1
 40
0.0
176
     1
 40
1.0
176
     1
 90
        0
176
     1
 62
    18
420
        0
176
     1
 90
       50
176
     1
 90
        3
176
     1
 62
     5
420
      255
176
     1
290
     0
176
     1
 90
       50
176
     1
 90
       50
176
     1
 90
       50
176
     1
290
     0
176
     1
 90
       50
176
     1
 62
   256
176
     0
 40
1.0
176
     0
 90
        2
176
     1
  1
strokes_ogs.tif
176
     1
290
     0
176
     1
 40
1.0
176
     1
 40
1.0
176
     1
1001
ACAD
1000
AcDbSavedByObjectVersion
1070
     0
  0
VISUALSTYLE
  5
35
102
{ACAD_REACTORS
330
2A
102
}
330
2A
100
AcDbVisualStyle
  2
Dim
 70
    11
177
     3
291
     1
 70
    58
 90
        2
176
     1
 90
        2
176
     1
 90
        0
176
     1
 90
        0
176
     1
 40
0.6
176
     1
 40
30.0
176
     1
 62
     7
420
 16777215
176
     1
 90
        1
176
     1
 90
        4
176
     1
 62
     7
176
     1
 62
   257
176
     1
 90
        1
176
     1
 90
        1
176
     1
 40
1.0
176
     1
 90
        8
176
     1
 62
     7
176
     1
 40
1.0
176
     1
 90
        1
176
     1
 90
        6
176
     1
 90
        2
176
     1
 62
     7
176
     1
 90
        5
176
     1
 90
        0
176
     1
 90
        0
176
     1
290
     0
176
     1
 90
        1
176
     1
 40
-50.0
176
     1
 90
        0
176
     1
290
     0
176
     1
290
     1
176
     1
290
     1
176
     1
290
     0
176
     1
290
     0
176
     1
290
     0
176
     1
290
     0
176
     1
290
     0
176
     1
290
     0
176
     1
 90
       50
176
     1
 40
0.0
176
     1
 40
1.0
176
     1
 90
        0
176
     1
 62
    18
420
        0
176
     1
 90
       50
176
     1
 90
        3
176
     1
 62
     5
420
      255
176
     1
290
     0
176
     1
 90
       50
176
     1
 90
       50
176
     1
 90
       50
176
     1
290
     0
176
     1
 90
       50
176
     1
 62
   256
176
     0
 40
1.0
176
     0
 90
        2
176
     1
  1
strokes_ogs.tif
176
     1
290
     0
176
     1
 40
1.0
176
     1
 40
1.0
176
     1
1001
ACAD
1000
AcDbSavedByObjectVersion
1070
     0
  0
VISUALSTYLE
  5
2AC
102
{ACAD_REACTORS
330
2A
102
}
330
2A
100
AcDbVisualStyle
  2
EdgeColorOff
 70
    22
177
     3
291
     1
 70
    58
 90
        2
176
     0
 90
        2
176
     0
 90
        0
176
     0
 90
        0
176
     0
 40
0.6
176
     0
 40
30.0
176
     0
 62
     7
420
 16777215
176
     0
 90
        1
176
     0
 90
        4
176
     0
 62
     7
176
     0
 62
   257
176
     0
 90
        1
176
     0
 90
        1
176
     0
 40
1.0
176
     0
 90
        8
176
     2
 62
     7
176
     0
 40
1.0
176
     0
 90
        1
176
     0
 90
        6
176
     0
 90
        2
176
     0
 62
     7
176
     0
 90
        5
176
     0
 90
        0
176
     0
 90
        0
176
     0
290
     0
176
     0
 90
        1
176
     0
 40
0.0
176
     0
 90
        0
176
     0
290
     0
176
     1
290
     1
176
     1
290
     1
176
     1
290
     0
176
     1
290
     0
176
     1
290
     0
176
     1
290
     0
176
     1
290
     0
176
     1
290
     0
176
     1
 90
       50
176
     0
 40
0.0
176
     0
 40
1.0
176
     0
 90
        0
176
     0
 62
    18
420
        0
176
     0
 90
       50
176
     0
 90
        3
176
     0
 62
     5
420
      255
176
     0
290
     0
176
     1
 90
       50
176
     0
 90
       50
176
     0
 90
       50
176
     0
290
     0
176
     1
 90
       50
176
     0
 62
   256
176
     0
 40
1.0
176
     0
 90
        2
176
     0
  1
strokes_ogs.tif
176
     0
290
     0
176
     1
 40
1.0
176
     0
 40
1.0
176
     0
1001
ACAD
1000
AcDbSavedByObjectVersion
1070
     0
  0
VISUALSTYLE
  5
39
102
{ACAD_REACTORS
330
2A
102
}
330
2A
100
AcDbVisualStyle
  2
Facepattern
 70
    15
177
     3
291
     1
 70
    58
 90
        2
176
     1
 90
        2
176
     1
 90
        0
176
     1
 90
        0
176
     1
 40
0.6
176
     1
 40
30.0
176
     1
 62
     7
420
 16777215
176
     1
 90
        1
176
     1
 90
        4
176
     1
 62
     7
176
     1
 62
   257
176
     1
 90
        1
176
     1
 90
        1
176
     1
 40
1.0
176
     1
 90
        8
176
     1
 62
     7
176
     1
 40
1.0
176
     1
 90
        1
176
     1
 90
        6
176
     1
 90
        2
176
     1
 62
     7
176
     1
 90
        5
176
     1
 90
        0
176
     1
 90
        0
176
     1
290
     0
176
     1
 90
        1
176
     1
 40
0.0
176
     1
 90
        0
176
     1
290
     0
176
     1
290
     1
176
     1
290
     1
176
     1
290
     0
176
     1
290
     0
176
     1
290
     0
176
     1
290
     0
176
     1
290
     0
176
     1
290
     0
176
     1
 90
       50
176
     1
 40
0.0
176
     1
 40
1.0
176
     1
 90
        0
176
     1
 62
    18
420
        0
176
     1
 90
       50
176
     1
 90
        3
176
     1
 62
     5
420
      255
176
     1
290
     0
176
     1
 90
       50
176
     1
 90
       50
176
     1
 90
       50
176
     1
290
     0
176
     1
 90
       50
176
     1
 62
   256
176
     0
 40
1.0
176
     0
 90
        2
176
     1
  1
strokes_ogs.tif
176
     1
290
     0
176
     1
 40
1.0
176
     1
 40
1.0
176
     1
1001
ACAD
1000
AcDbSavedByObjectVersion
1070
     0
  0
VISUALSTYLE
  5
2B
102
{ACAD_REACTORS
330
2A
102
}
330
2A
100
AcDbVisualStyle
  2
Flat
 70
     0
177
     3
291
     1
 70
    58
 90
        2
176
     1
 90
        1
176
     1
 90
        1
176
     1
 90
        2
176
     1
 40
0.6
176
     1
 40
30.0
176
     1
 62
     7
420
 16777215
176
     1
 90
        0
176
     1
 90
        4
176
     1
 62
     7
176
     1
 62
   257
176
     1
 90
        1
176
     1
 90
        1
176
     1
 40
1.0
176
     1
 90
        8
176
     1
 62
     7
176
     1
 40
1.0
176
     1
 90
        1
176
     1
 90
        6
176
     1
 90
        2
176
     1
 62
     7
176
     1
 90
        5
176
     1
 90
        0
176
     1
 90
        0
176
     1
290
     0
176
     1
 90
       13
176
     1
 40
0.0
176
     1
 90
        0
176
     1
290
     0
176
     1
290
     1
176
     1
290
     1
176
     1
290
     0
176
     1
290
     0
176
     1
290
     0
176
     1
290
     0
176
     1
290
     0
176
     1
290
     0
176
     1
 90
       50
176
     1
 40
0.0
176
     1
 40
1.0
176
     1
 90
        0
176
     1
 62
    18
420
        0
176
     1
 90
       50
176
     1
 90
        3
176
     1
 62
     5
420
      255
176
     1
290
     0
176
     1
 90
       50
176
     1
 90
       50
176
     1
 90
       50
176
     1
290
     0
176
     1
 90
       50
176
     1
 62
   256
176
     0
 40
1.0
176
     0
 90
        2
176
     1
  1
strokes_ogs.tif
176
     1
290
     0
176
     1
 40
1.0
176
     1
 40
1.0
176
     1
1001
ACAD
1000
AcDbSavedByObjectVersion
1070
     0
  0
VISUALSTYLE
  5
2C
102
{ACAD_REACTORS
330
2A
102
}
330
2A
100
AcDbVisualStyle
  2
FlatWithEdges
 70
     1
177
     3
291
     1
 70
    58
 90
        2
176
     1
 90
        1
176
     1
 90
        1
176
     1
 90
        2
176
     1
 40
0.6
176
     1
 40
30.0
176
     1
 62
     7
420
 16777215
176
     1
 90
        1
176
     1
 90
        4
176
     1
 62
     7
176
     1
 62
   257
176
     1
 90
        1
176
     1
 90
        1
176
     1
 40
1.0
176
     1
 90
        0
176
     1
 62
   257
176
     1
 40
1.0
176
     1
 90
        1
176
     1
 90
        6
176
     1
 90
        2
176
     1
 62
     7
176
     1
 90
        5
176
     1
 90
        0
176
     1
 90
        0
176
     1
290
     0
176
     1
 90
       13
176
     1
 40
0.0
176
     1
 90
        0
176
     1
290
     0
176
     1
290
     1
176
     1
290
     1
176
     1
290
     0
176
     1
290
     0
176
     1
290
     0
176
     1
290
     0
176
     1
290
     0
176
     1
290
     0
176
     1
 90
       50
176
     1
 40
0.0
176
     1
 40
1.0
176
     1
 90
        0
176
     1
 62
    18
420
        0
176
     1
 90
       50
176
     1
 90
        3
176
     1
 62
     5
420
      255
176
     1
290
     0
176
     1
 90
       50
176
     1
 90
       50
176
     1
 90
       50
176
     1
290
     0
176
     1
 90
       50
176
     1
 62
   256
176
     0
 40
1.0
176
     0
 90
        2
176
     1
  1
strokes_ogs.tif
176
     1
290
     0
176
     1
 40
1.0
176
     1
 40
1.0
176
     1
1001
ACAD
1000
AcDbSavedByObjectVersion
1070
     0
  0
VISUALSTYLE
  5
2D
102
{ACAD_REACTORS
330
2A
102
}
330
2A
100
AcDbVisualStyle
  2
Gouraud
 70
     2
177
     3
291
     1
 70
    58
 90
        2
176
     1
 90
        2
176
     1
 90
        1
176
     1
 90
        2
176
     1
 40
0.6
176
     1
 40
30.0
176
     1
 62
     7
420
 16777215
176
     1
 90
        0
176
     1
 90
        4
176
     1
 62
     7
176
     1
 62
   257
176
     1
 90
        1
176
     1
 90
        1
176
     1
 40
1.0
176
     1
 90
        0
176
     1
 62
     7
176
     1
 40
1.0
176
     1
 90
        1
176
     1
 90
        6
176
     1
 90
        2
176
     1
 62
     7
176
     1
 90
        5
176
     1
 90
        0
176
     1
 90
        0
176
     1
290
     0
176
     1
 90
       13
176
     1
 40
0.0
176
     1
 90
        0
176
     1
290
     0
176
     1
290
     1
176
     1
290
     1
176
     1
290
     0
176
     1
290
     0
176
     1
290
     0
176
     1
290
     0
176
     1
290
     0
176
     1
290
     0
176
     1
 90
       50
176
     1
 40
0.0
176
     1
 40
1.0
176
     1
 90
        0
176
     1
 62
    18
420
        0
176
     1
 90
       50
176
     1
 90
        3
176
     1
 62
     5
420
      255
176
     1
290
     0
176
     1
 90
       50
176
     1
 90
       50
176
     1
 90
       50
176
     1
290
     0
176
     1
 90
       50
176
     1
 62
   256
176
     0
 40
1.0
176
     0
 90
        2
176
     1
  1
strokes_ogs.tif
176
     1
290
     0
176
     1
 40
1.0
176
     1
 40
1.0
176
     1
1001
ACAD
1000
AcDbSavedByObjectVersion
1070
     0
  0
VISUALSTYLE
  5
2E
102
{ACAD_REACTORS
330
2A
102
}
330
2A
100
AcDbVisualStyle
  2
GouraudWithEdges
 70
     3
177
     3
291
     1
 70
    58
 90
        2
176
     1
 90
        2
176
     1
 90
        1
176
     1
 90
        2
176
     1
 40
0.6
176
     1
 40
30.0
176
     1
 62
     7
420
 16777215
176
     1
 90
        1
176
     1
 90
        4
176
     1
 62
     7
176
     1
 62
   257
176
     1
 90
        1
176
     1
 90
        1
176
     1
 40
1.0
176
     1
 90
        0
176
     1
 62
   257
176
     1
 40
1.0
176
     1
 90
        1
176
     1
 90
        6
176
     1
 90
        2
176
     1
 62
     7
176
     1
 90
        5
176
     1
 90
        0
176
     1
 90
        0
176
     1
290
     0
176
     1
 90
       13
176
     1
 40
0.0
176
     1
 90
        0
176
     1
290
     0
176
     1
290
     1
176
     1
290
     1
176
     1
290
     0
176
     1
290
     0
176
     1
290
     0
176
     1
290
     0
176
     1
290
     0
176
     1
290
     0
176
     1
 90
       50
176
     1
 40
0.0
176
     1
 40
1.0
176
     1
 90
        0
176
     1
 62
    18
420
        0
176
     1
 90
       50
176
     1
 90
        3
176
     1
 62
     5
420
      255
176
     1
290
     0
176
     1
 90
       50
176
     1
 90
       50
176
     1
 90
       50
176
     1
290
     0
176
     1
 90
       50
176
     1
 62
   256
176
     0
 40
1.0
176
     0
 90
        2
176
     1
  1
strokes_ogs.tif
176
     1
290
     0
176
     1
 40
1.0
176
     1
 40
1.0
176
     1
1001
ACAD
1000
AcDbSavedByObjectVersion
1070
     0
  0
VISUALSTYLE
  5
2A4
102
{ACAD_REACTORS
330
2A
102
}
330
2A
100
AcDbVisualStyle
  2
Hidden
 70
     6
177
     3
291
     0
 70
    58
 90
        1
176
     1
 90
        2
176
     1
 90
        2
176
     1
 90
        0
176
     1
 40
0.6
176
     1
 40
30.0
176
     1
 62
     7
420
 16777215
176
     1
 90
        2
176
     1
 90
        2
176
     1
 62
     7
176
     1
 62
   257
176
     1
 90
        2
176
     1
 90
        1
176
     1
 40
40.0
176
     1
 90
        0
176
     1
 62
   257
176
     1
 40
1.0
176
     1
 90
        1
176
     1
 90
        6
176
     1
 90
        2
176
     1
 62
     7
176
     1
 90
        3
176
     1
 90
        0
176
     1
 90
        0
176
     1
290
     0
176
     1
 90
        1
176
     1
 40
0.0
176
     1
 90
        0
176
     1
290
     0
176
     1
290
     1
176
     1
290
     1
176
     1
290
     0
176
     1
290
     0
176
     1
290
     0
176
     1
290
     0
176
     1
290
     0
176
     1
290
     0
176
     1
 90
       50
176
     1
 40
0.0
176
     1
 40
1.0
176
     1
 90
        0
176
     1
 62
    18
420
        0
176
     1
 90
       50
176
     1
 90
        3
176
     1
 62
     5
420
      255
176
     1
290
     0
176
     1
 90
       50
176
     1
 90
       50
176
     1
 90
       50
176
     1
290
     0
176
     1
 90
       50
176
     1
 62
   256
176
     0
 40
1.0
176
     0
 90
        2
176
     1
  1
strokes_ogs.tif
176
     1
290
     0
176
     1
 40
1.0
176
     1
 40
1.0
176
     1
1001
ACAD
1000
AcDbSavedByObjectVersion
1070
     0
  0
VISUALSTYLE
  5
2AA
102
{ACAD_REACTORS
330
2A
102
}
330
2A
100
AcDbVisualStyle
  2
JitterOff
 70
    20
177
     3
291
     1
 70
    58
 90
        2
176
     0
 90
        2
176
     0
 90
        0
176
     0
 90
        0
176
     0
 40
0.6
176
     0
 40
30.0
176
     0
 62
     7
420
 16777215
176
     0
 90
        1
176
     0
 90
        4
176
     0
 62
     7
176
     0
 62
   257
176
     0
 90
        1
176
     0
 90
        1
176
     0
 40
1.0
176
     0
 90
       10
176
     2
 62
     7
176
     0
 40
1.0
176
     0
 90
        1
176
     0
 90
        6
176
     0
 90
        2
176
     0
 62
     7
176
     0
 90
        5
176
     0
 90
        0
176
     0
 90
        0
176
     0
290
     0
176
     0
 90
        1
176
     0
 40
0.0
176
     0
 90
        0
176
     0
290
     0
176
     1
290
     1
176
     1
290
     1
176
     1
290
     0
176
     1
290
     0
176
     1
290
     0
176
     1
290
     0
176
     1
290
     0
176
     1
290
     0
176
     1
 90
       50
176
     0
 40
0.0
176
     0
 40
1.0
176
     0
 90
        0
176
     0
 62
    18
420
        0
176
     0
 90
       50
176
     0
 90
        3
176
     0
 62
     5
420
      255
176
     0
290
     0
176
     1
 90
       50
176
     0
 90
       50
176
     0
 90
       50
176
     0
290
     0
176
     1
 90
       50
176
     0
 62
   256
176
     0
 40
1.0
176
     0
 90
        2
176
     0
  1
strokes_ogs.tif
176
     0
290
     0
176
     1
 40
1.0
176
     0
 40
1.0
176
     0
1001
ACAD
1000
AcDbSavedByObjectVersion
1070
     0
  0
VISUALSTYLE
  5
38
102
{ACAD_REACTORS
330
2A
102
}
330
2A
100
AcDbVisualStyle
  2
Linepattern
 70
    14
177
     3
291
     1
 70
    58
 90
        2
176
     1
 90
        2
176
     1
 90
        0
176
     1
 90
        0
176
     1
 40
0.6
176
     1
 40
30.0
176
     1
 62
     7
420
 16777215
176
     1
 90
        1
176
     1
 90
        4
176
     1
 62
     7
176
     1
 62
   257
176
     1
 90
        7
176
     1
 90
        7
176
     1
 40
1.0
176
     1
 90
        8
176
     1
 62
     7
176
     1
 40
1.0
176
     1
 90
        1
176
     1
 90
        6
176
     1
 90
        2
176
     1
 62
     7
176
     1
 90
        5
176
     1
 90
        0
176
     1
 90
        0
176
     1
290
     0
176
     1
 90
        1
176
     1
 40
0.0
176
     1
 90
        0
176
     1
290
     0
176
     1
290
     1
176
     1
290
     1
176
     1
290
     0
176
     1
290
     0
176
     1
290
     0
176
     1
290
     0
176
     1
290
     0
176
     1
290
     0
176
     1
 90
       50
176
     1
 40
0.0
176
     1
 40
1.0
176
     1
 90
        0
176
     1
 62
    18
420
        0
176
     1
 90
       50
176
     1
 90
        3
176
     1
 62
     5
420
      255
176
     1
290
     0
176
     1
 90
       50
176
     1
 90
       50
176
     1
 90
       50
176
     1
290
     0
176
     1
 90
       50
176
     1
 62
   256
176
     0
 40
1.0
176
     0
 90
        2
176
     1
  1
strokes_ogs.tif
176
     1
290
     0
176
     1
 40
1.0
176
     1
 40
1.0
176
     1
1001
ACAD
1000
AcDbSavedByObjectVersion
1070
     0
  0
VISUALSTYLE
  5
2AB
102
{ACAD_REACTORS
330
2A
102
}
330
2A
100
AcDbVisualStyle
  2
OverhangOff
 70
    21
177
     3
291
     1
 70
    58
 90
        2
176
     0
 90
        2
176
     0
 90
        0
176
     0
 90
        0
176
     0
 40
0.6
176
     0
 40
30.0
176
     0
 62
     7
420
 16777215
176
     0
 90
        1
176
     0
 90
        4
176
     0
 62
     7
176
     0
 62
   257
176
     0
 90
        1
176
     0
 90
        1
176
     0
 40
1.0
176
     0
 90
        9
176
     2
 62
     7
176
     0
 40
1.0
176
     0
 90
        1
176
     0
 90
        6
176
     0
 90
        2
176
     0
 62
     7
176
     0
 90
        5
176
     0
 90
        0
176
     0
 90
        0
176
     0
290
     0
176
     0
 90
        1
176
     0
 40
0.0
176
     0
 90
        0
176
     0
290
     0
176
     1
290
     1
176
     1
290
     1
176
     1
290
     0
176
     1
290
     0
176
     1
290
     0
176
     1
290
     0
176
     1
290
     0
176
     1
290
     0
176
     1
 90
       50
176
     0
 40
0.0
176
     0
 40
1.0
176
     0
 90
        0
176
     0
 62
    18
420
        0
176
     0
 90
       50
176
     0
 90
        3
176
     0
 62
     5
420
      255
176
     0
290
     0
176
     1
 90
       50
176
     0
 90
       50
176
     0
 90
       50
176
     0
290
     0
176
     1
 90
       50
176
     0
 62
   256
176
     0
 40
1.0
176
     0
 90
        2
176
     0
  1
strokes_ogs.tif
176
     0
290
     0
176
     1
 40
1.0
176
     0
 40
1.0
176
     0
1001
ACAD
1000
AcDbSavedByObjectVersion
1070
     0
  0
VISUALSTYLE
  5
33
102
{ACAD_REACTORS
330
2A
102
}
330
2A
100
AcDbVisualStyle
  2
Realistic
 70
     8
177
     3
291
     0
 70
    58
 90
        2
176
     1
 90
        2
176
     1
 90
        0
176
     1
 90
        0
176
     1
 40
0.6
176
     1
 40
30.0
176
     1
 62
     7
420
 16777215
176
     1
 90
        1
176
     1
 90
        0
176
     1
 62
     7
176
     1
 62
   257
176
     1
 90
        1
176
     1
 90
        1
176
     1
 40
1.0
176
     1
 90
        8
176
     1
 62
     8
420
  7895160
176
     1
 40
1.0
176
     1
 90
        1
176
     1
 90
        6
176
     1
 90
        2
176
     1
 62
     7
176
     1
 90
        5
176
     1
 90
        0
176
     1
 90
        0
176
     1
290
     0
176
     1
 90
       13
176
     1
 40
0.0
176
     1
 90
        0
176
     1
290
     0
176
     1
290
     1
176
     1
290
     1
176
     1
290
     0
176
     1
290
     0
176
     1
290
     0
176
     1
290
     0
176
     1
290
     0
176
     1
290
     0
176
     1
 90
       50
176
     1
 40
0.0
176
     1
 40
1.0
176
     1
 90
        0
176
     1
 62
    18
420
        0
176
     1
 90
       50
176
     1
 90
        3
176
     1
 62
     5
420
      255
176
     1
290
     0
176
     1
 90
       50
176
     1
 90
       50
176
     1
 90
       50
176
     1
290
     0
176
     1
 90
       50
176
     1
 62
   256
176
     0
 40
1.0
176
     0
 90
        2
176
     1
  1
strokes_ogs.tif
176
     1
290
     0
176
     1
 40
1.0
176
     1
 40
1.0
176
     1
1001
ACAD
1000
AcDbSavedByObjectVersion
1070
     0
  0
VISUALSTYLE
  5
2A9
102
{ACAD_REACTORS
330
2A
102
}
330
2A
100
AcDbVisualStyle
  2
Shaded
 70
    27
177
     3
291
     0
 70
    58
 90
        2
176
     1
 90
        2
176
     1
 90
        1
176
     1
 90
        2
176
     1
 40
0.6
176
     1
 40
30.0
176
     1
 62
     7
420
 16777215
176
     1
 90
        0
176
     1
 90
        4
176
     1
 62
     7
176
     1
 62
   257
176
     1
 90
        1
176
     1
 90
        1
176
     1
 40
1.0
176
     1
 90
        8
176
     1
 62
   257
176
     1
 40
1.0
176
     1
 90
        1
176
     1
 90
        6
176
     1
 90
        2
176
     1
 62
     8
420
  7895160
176
     1
 90
        3
176
     1
 90
        0
176
     1
 90
        0
176
     1
290
     0
176
     1
 90
        5
176
     1
 40
0.0
176
     1
 90
        0
176
     1
290
     0
176
     1
290
     1
176
     1
290
     1
176
     1
290
     0
176
     1
290
     0
176
     1
290
     0
176
     1
290
     0
176
     1
290
     0
176
     1
290
     0
176
     1
 90
       50
176
     1
 40
0.0
176
     1
 40
1.0
176
     1
 90
        0
176
     1
 62
    18
420
        0
176
     1
 90
       50
176
     1
 90
        3
176
     1
 62
     5
420
      255
176
     1
290
     0
176
     1
 90
       50
176
     1
 90
       50
176
     1
 90
       50
176
     1
290
     0
176
     1
 90
       50
176
     1
 62
   256
176
     0
 40
1.0
176
     0
 90
        2
176
     1
  1
strokes_ogs.tif
176
     1
290
     0
176
     1
 40
1.0
176
     1
 40
1.0
176
     1
1001
ACAD
1000
AcDbSavedByObjectVersion
1070
     0
  0
VISUALSTYLE
  5
2A8
102
{ACAD_REACTORS
330
2A
102
}
330
2A
100
AcDbVisualStyle
  2
Shaded with edges
 70
    26
177
     3
291
     0
 70
    58
 90
        2
176
     1
 90
        2
176
     1
 90
        1
176
     1
 90
        2
176
     1
 40
0.6
176
     1
 40
30.0
176
     1
 62
     7
420
 16777215
176
     1
 90
        1
176
     1
 90
        2
176
     1
 62
     7
176
     1
 62
   257
176
     1
 90
        2
176
     1
 90
        1
176
     1
 40
1.0
176
     1
 90
        8
176
     1
 62
   257
176
     1
 40
1.0
176
     1
 90
        1
176
     1
 90
        6
176
     1
 90
        2
176
     1
 62
     7
176
     1
 90
        3
176
     1
 90
        0
176
     1
 90
        0
176
     1
290
     0
176
     1
 90
        5
176
     1
 40
0.0
176
     1
 90
        0
176
     1
290
     0
176
     1
290
     1
176
     1
290
     1
176
     1
290
     0
176
     1
290
     0
176
     1
290
     0
176
     1
290
     0
176
     1
290
     0
176
     1
290
     0
176
     1
 90
       50
176
     1
 40
0.0
176
     1
 40
1.0
176
     1
 90
        0
176
     1
 62
    18
420
        0
176
     1
 90
       50
176
     1
 90
        3
176
     1
 62
     5
420
      255
176
     1
290
     0
176
     1
 90
       50
176
     1
 90
       50
176
     1
 90
       50
176
     1
290
     0
176
     1
 90
       50
176
     1
 62
   256
176
     0
 40
1.0
176
     0
 90
        2
176
     1
  1
strokes_ogs.tif
176
     1
290
     0
176
     1
 40
1.0
176
     1
 40
1.0
176
     1
1001
ACAD
1000
AcDbSavedByObjectVersion
1070
     0
  0
VISUALSTYLE
  5
2A5
102
{ACAD_REACTORS
330
2A
102
}
330
2A
100
AcDbVisualStyle
  2
Shades of Gray
 70
    23
177
     3
291
     0
 70
    58
 90
        2
176
     1
 90
        2
176
     1
 90
        3
176
     1
 90
        0
176
     1
 40
0.6
176
     1
 40
30.0
176
     1
 62
     7
420
 16777215
176
     1
 90
        2
176
     1
 90
        2
176
     1
 62
     7
176
     1
 62
     7
176
     1
 90
        1
176
     1
 90
        1
176
     1
 40
40.0
176
     1
 90
        8
176
     1
 62
     7
176
     1
 40
1.0
176
     1
 90
        1
176
     1
 90
        6
176
     1
 90
        2
176
     1
 62
     7
176
     1
 90
        3
176
     1
 90
        0
176
     1
 90
        0
176
     1
290
     0
176
     1
 90
        1
176
     1
 40
0.0
176
     1
 90
        0
176
     1
290
     0
176
     1
290
     1
176
     1
290
     1
176
     1
290
     0
176
     1
290
     0
176
     1
290
     0
176
     1
290
     0
176
     1
290
     0
176
     1
290
     0
176
     1
 90
       50
176
     1
 40
0.0
176
     1
 40
1.0
176
     1
 90
        0
176
     1
 62
    18
420
        0
176
     1
 90
       50
176
     1
 90
        3
176
     1
 62
     5
420
      255
176
     1
290
     0
176
     1
 90
       50
176
     1
 90
       50
176
     1
 90
       50
176
     1
290
     0
176
     1
 90
       50
176
     1
 62
   256
176
     0
 40
1.0
176
     0
 90
        2
176
     1
  1
strokes_ogs.tif
176
     1
290
     0
176
     1
 40
1.0
176
     1
 40
1.0
176
     1
1001
ACAD
1000
AcDbSavedByObjectVersion
1070
     0
  0
VISUALSTYLE
  5
2A6
102
{ACAD_REACTORS
330
2A
102
}
330
2A
100
AcDbVisualStyle
  2
Sketchy
 70
    24
177
     3
291
     0
 70
    58
 90
        1
176
     1
 90
        2
176
     1
 90
        2
176
     1
 90
        0
176
     1
 40
0.6
176
     1
 40
30.0
176
     1
 62
     7
420
 16777215
176
     1
 90
        2
176
     1
 90
        2
176
     1
 62
     7
176
     1
 62
     7
176
     1
 90
        1
176
     1
 90
        1
176
     1
 40
40.0
176
     1
 90
       11
176
     1
 62
     7
176
     1
 40
1.0
176
     1
 90
        1
176
     1
 90
        6
176
     1
 90
        2
176
     1
 62
     7
176
     1
 90
        6
176
     1
 90
        0
176
     1
 90
        0
176
     1
290
     0
176
     1
 90
        1
176
     1
 40
0.0
176
     1
 90
        0
176
     1
290
     0
176
     1
290
     1
176
     1
290
     1
176
     1
290
     0
176
     1
290
     0
176
     1
290
     0
176
     1
290
     0
176
     1
290
     0
176
     1
290
     0
176
     1
 90
       50
176
     1
 40
0.0
176
     1
 40
1.0
176
     1
 90
        0
176
     1
 62
    18
420
        0
176
     1
 90
       50
176
     1
 90
        3
176
     1
 62
     5
420
      255
176
     1
290
     0
176
     1
 90
       50
176
     1
 90
       50
176
     1
 90
       50
176
     1
290
     0
176
     1
 90
       50
176
     1
 62
   256
176
     0
 40
1.0
176
     0
 90
        2
176
     1
  1
strokes_ogs.tif
176
     1
290
     0
176
     1
 40
1.0
176
     1
 40
1.0
176
     1
1001
ACAD
1000
AcDbSavedByObjectVersion
1070
     0
  0
VISUALSTYLE
  5
37
102
{ACAD_REACTORS
330
2A
102
}
330
2A
100
AcDbVisualStyle
  2
Thicken
 70
    13
177
     3
291
     1
 70
    58
 90
        2
176
     1
 90
        2
176
     1
 90
        0
176
     1
 90
        0
176
     1
 40
0.6
176
     1
 40
30.0
176
     1
 62
     7
420
 16777215
176
     1
 90
        1
176
     1
 90
        4
176
     1
 62
     7
176
     1
 62
   257
176
     1
 90
        1
176
     1
 90
        1
176
     1
 40
1.0
176
     1
 90
       12
176
     1
 62
     7
176
     1
 40
1.0
176
     1
 90
        1
176
     1
 90
        6
176
     1
 90
        2
176
     1
 62
     7
176
     1
 90
        5
176
     1
 90
        0
176
     1
 90
        0
176
     1
290
     0
176
     1
 90
        1
176
     1
 40
0.0
176
     1
 90
        0
176
     1
290
     0
176
     1
290
     1
176
     1
290
     1
176
     1
290
     0
176
     1
290
     0
176
     1
290
     0
176
     1
290
     0
176
     1
290
     0
176
     1
290
     0
176
     1
 90
       50
176
     1
 40
0.0
176
     1
 40
1.0
176
     1
 90
        0
176
     1
 62
    18
420
        0
176
     1
 90
       50
176
     1
 90
        3
176
     1
 62
     5
420
      255
176
     1
290
     0
176
     1
 90
       50
176
     1
 90
       50
176
     1
 90
       50
176
     1
290
     0
176
     1
 90
       50
176
     1
 62
   256
176
     0
 40
1.0
176
     0
 90
        2
176
     1
  1
strokes_ogs.tif
176
     1
290
     0
176
     1
 40
1.0
176
     1
 40
1.0
176
     1
1001
ACAD
1000
AcDbSavedByObjectVersion
1070
     0
  0
VISUALSTYLE
  5
2A3
102
{ACAD_REACTORS
330
2A
102
}
330
2A
100
AcDbVisualStyle
  2
Wireframe
 70
     5
177
     3
291
     0
 70
    58
 90
        0
176
     1
 90
        2
176
     1
 90
        0
176
     1
 90
        0
176
     1
 40
0.6
176
     1
 40
30.0
176
     1
 62
     7
420
 16777215
176
     1
 90
        1
176
     1
 90
        4
176
     1
 62
     7
176
     1
 62
   257
176
     1
 90
        1
176
     1
 90
        1
176
     1
 40
1.0
176
     1
 90
        0
176
     1
 62
   257
176
     1
 40
1.0
176
     1
 90
        1
176
     1
 90
        6
176
     1
 90
        2
176
     1
 62
     7
176
     1
 90
        3
176
     1
 90
        0
176
     1
 90
        0
176
     1
290
     0
176
     1
 90
        1
176
     1
 40
0.0
176
     1
 90
        0
176
     1
290
     0
176
     1
290
     1
176
     1
290
     1
176
     1
290
     0
176
     1
290
     0
176
     1
290
     0
176
     1
290
     0
176
     1
290
     0
176
     1
290
     0
176
     1
 90
       50
176
     1
 40
0.0
176
     1
 40
1.0
176
     1
 90
        0
176
     1
 62
    18
420
        0
176
     1
 90
       50
176
     1
 90
        3
176
     1
 62
     5
420
      255
176
     1
290
     0
176
     1
 90
       50
176
     1
 90
       50
176
     1
 90
       50
176
     1
290
     0
176
     1
 90
       50
176
     1
 62
   256
176
     0
 40
1.0
176
     0
 90
        2
176
     1
  1
strokes_ogs.tif
176
     1
290
     0
176
     1
 40
1.0
176
     1
 40
1.0
176
     1
1001
ACAD
1000
AcDbSavedByObjectVersion
1070
     0
  0
VISUALSTYLE
  5
2A7
102
{ACAD_REACTORS
330
2A
102
}
330
2A
100
AcDbVisualStyle
  2
X-Ray
 70
    25
177
     3
291
     0
 70
    58
 90
        2
176
     1
 90
        2
176
     1
 90
        1
176
     1
 90
        1
176
     1
 40
0.5
176
     1
 40
30.0
176
     1
 62
     7
420
 16777215
176
     1
 90
        1
176
     1
 90
        0
176
     1
 62
     7
176
     1
 62
   257
176
     1
 90
        1
176
     1
 90
        1
176
     1
 40
1.0
176
     1
 90
        8
176
     1
 62
     7
176
     1
 40
1.0
176
     1
 90
        1
176
     1
 90
        6
176
     1
 90
        2
176
     1
 62
     7
176
     1
 90
        3
176
     1
 90
        0
176
     1
 90
        0
176
     1
290
     0
176
     1
 90
       13
176
     1
 40
0.0
176
     1
 90
        0
176
     1
290
     0
176
     1
290
     1
176
     1
290
     1
176
     1
290
     0
176
     1
290
     0
176
     1
290
     0
176
     1
290
     0
176
     1
290
     0
176
     1
290
     0
176
     1
 90
       50
176
     1
 40
0.0
176
     1
 40
1.0
176
     1
 90
        0
176
     1
 62
    18
420
        0
176
     1
 90
       50
176
     1
 90
        3
176
     1
 62
     5
420
      255
176
     1
290
     0
176
     1
 90
       50
176
     1
 90
       50
176
     1
 90
       50
176
     1
290
     0
176
     1
 90
       50
176
     1
 62
   256
176
     0
 40
1.0
176
     0
 90
        2
176
     1
  1
strokes_ogs.tif
176
     1
290
     0
176
     1
 40
1.0
176
     1
 40
1.0
176
     1
1001
ACAD
1000
AcDbSavedByObjectVersion
1070
     0
  0
DICTIONARYVAR
  5
4E9
102
{ACAD_REACTORS
330
4E4
102
}
330
4E4
100
DictionaryVariables
280
     0
  1
1:1
  0
DICTIONARYVAR
  5
4E6
102
{ACAD_REACTORS
330
4E4
102
}
330
4E4
100
DictionaryVariables
280
     0
  1
STANDARD
  0
DICTIONARYVAR
  5
4E5
102
{ACAD_REACTORS
330
4E4
102
}
330
4E4
100
DictionaryVariables
280
     0
  1
STANDARD
  0
DICTIONARYVAR
  5
4E7
102
{ACAD_REACTORS
330
4E4
102
}
330
4E4
100
DictionaryVariables
280
     0
  1
Imperial24
  0
DICTIONARYVAR
  5
4E8
102
{ACAD_REACTORS
330
4E4
102
}
330
4E4
100
DictionaryVariables
280
     0
  1
Imperial24
  0
DICTIONARY
  5
4EF
330
2C9
100
AcDbDictionary
280
     1
281
     1
  3
ACAD_XREC_ROUNDTRIP
360
4F0
  0
DICTIONARY
  5
4ED
330
2C7
100
AcDbDictionary
280
     1
281
     1
  3
ACAD_XREC_ROUNDTRIP
360
4EE
  0
DICTIONARY
  5
4EA
330
2AE
100
AcDbDictionary
280
     1
281
     1
  3
ACAD_ROUNDTRIP_2008_TABLESTYLE_CELLSTYLEMAP
360
4EB
  0
XRECORD
  5
4F0
102
{ACAD_REACTORS
330
4EF
102
}
330
4EF
100
AcDbXrecord
280
     1
102
DISPLAYNAME
  1
Imperial24
102
FLAGS
 90
        0
  0
XRECORD
  5
4EE
102
{ACAD_REACTORS
330
4ED
102
}
330
4ED
100
AcDbXrecord
280
     1
102
DISPLAYNAME
  1
Imperial24
102
FLAGS
 90
        0
  0
CELLSTYLEMAP
  5
4EB
102
{ACAD_REACTORS
330
4EA
102
}
330
4EA
100
AcDbCellStyleMap
 90
        3
300
CELLSTYLE
  1
TABLEFORMAT_BEGIN
 90
        5
170
     1
 91
        0
 92
    32768
 62
   257
 93
        1
300
CONTENTFORMAT
  1
CONTENTFORMAT_BEGIN
 90
        0
 91
        0
 92
      512
 93
        0
300

 40
0.0
140
1.0
 94
        5
 62
     0
340
11
144
0.25
309
CONTENTFORMAT_END
171
     0
 94
        0
309
TABLEFORMAT_END
  1
CELLSTYLE_BEGIN
 90
        1
 91
        1
300
_TITLE
309
CELLSTYLE_END
300
CELLSTYLE
  1
TABLEFORMAT_BEGIN
 90
        5
170
     1
 91
        0
 92
        0
 62
   257
 93
        1
300
CONTENTFORMAT
  1
CONTENTFORMAT_BEGIN
 90
        0
 91
        0
 92
      512
 93
        0
300

 40
0.0
140
1.0
 94
        5
 62
     0
340
11
144
0.18
309
CONTENTFORMAT_END
171
     0
 94
        0
309
TABLEFORMAT_END
  1
CELLSTYLE_BEGIN
 90
        2
 91
        1
300
_HEADER
309
CELLSTYLE_END
300
CELLSTYLE
  1
TABLEFORMAT_BEGIN
 90
        5
170
     1
 91
        0
 92
        0
 62
   257
 93
        1
300
CONTENTFORMAT
  1
CONTENTFORMAT_BEGIN
 90
        0
 91
        0
 92
      512
 93
        0
300

 40
0.0
140
1.0
 94
        2
 62
     0
340
11
144
0.18
309
CONTENTFORMAT_END
171
     0
 94
        0
309
TABLEFORMAT_END
  1
CELLSTYLE_BEGIN
 90
        3
 91
        2
300
_DATA
309
CELLSTYLE_END
  0
ENDSEC
  0
EOF
