  0
SECTION
  2
HEADER
  9
$ACADVER
  1
AC1027
  9
$ACADMAINTVER
 70
   125
  9
$DWGCODEPAGE
  3
ANSI_1252
  9
$LASTSAVEDBY
  1
ufficio.tecnico
  9
$REQUIREDVERSIONS
160
                 0
  9
$INSBASE
 10
0.0
 20
0.0
 30
0.0
  9
$EXTMIN
 10
13.06441205558797
 20
-19.81361810390574
 30
0.0
  9
$EXTMAX
 10
17.62271148981027
 20
-5.136430332049209
 30
0.0
  9
$LIMMIN
 10
0.0
 20
0.0
  9
$LIMMAX
 10
12.0
 20
9.0
  9
$ORTHOMODE
 70
     0
  9
$REGENMODE
 70
     1
  9
$FILLMODE
 70
     1
  9
$QTEXTMODE
 70
     0
  9
$MIRRTEXT
 70
     1
  9
$LTSCALE
 40
1.0
  9
$ATTMODE
 70
     1
  9
$TEXTSIZE
 40
0.2
  9
$TRACEWID
 40
0.05
  9
$TEXTSTYLE
  7
Standard
  9
$CLAYER
  8
0
  9
$CELTYPE
  6
ByLayer
  9
$CECOLOR
 62
   256
  9
$CELTSCALE
 40
1.0
  9
$DISPSILH
 70
     0
  9
$DIMSCALE
 40
1.0
  9
$DIMASZ
 40
0.18
  9
$DIMEXO
 40
0.0625
  9
$DIMDLI
 40
0.38
  9
$DIMRND
 40
0.0
  9
$DIMDLE
 40
0.0
  9
$DIMEXE
 40
0.18
  9
$DIMTP
 40
0.0
  9
$DIMTM
 40
0.0
  9
$DIMTXT
 40
0.18
  9
$DIMCEN
 40
0.09
  9
$DIMTSZ
 40
0.0
  9
$DIMTOL
 70
     0
  9
$DIMLIM
 70
     0
  9
$DIMTIH
 70
     1
  9
$DIMTOH
 70
     1
  9
$DIMSE1
 70
     0
  9
$DIMSE2
 70
     0
  9
$DIMTAD
 70
     0
  9
$DIMZIN
 70
     0
  9
$DIMBLK
  1

  9
$DIMASO
 70
     1
  9
$DIMSHO
 70
     1
  9
$DIMPOST
  1

  9
$DIMAPOST
  1

  9
$DIMALT
 70
     0
  9
$DIMALTD
 70
     2
  9
$DIMALTF
 40
25.4
  9
$DIMLFAC
 40
1.0
  9
$DIMTOFL
 70
     0
  9
$DIMTVP
 40
0.0
  9
$DIMTIX
 70
     0
  9
$DIMSOXD
 70
     0
  9
$DIMSAH
 70
     0
  9
$DIMBLK1
  1

  9
$DIMBLK2
  1

  9
$DIMSTYLE
  2
Standard
  9
$DIMCLRD
 70
     0
  9
$DIMCLRE
 70
     0
  9
$DIMCLRT
 70
     0
  9
$DIMTFAC
 40
1.0
  9
$DIMGAP
 40
0.09
  9
$DIMJUST
 70
     0
  9
$DIMSD1
 70
     0
  9
$DIMSD2
 70
     0
  9
$DIMTOLJ
 70
     1
  9
$DIMTZIN
 70
     0
  9
$DIMALTZ
 70
     0
  9
$DIMALTTZ
 70
     0
  9
$DIMUPT
 70
     0
  9
$DIMDEC
 70
     4
  9
$DIMTDEC
 70
     4
  9
$DIMALTU
 70
     2
  9
$DIMALTTD
 70
     2
  9
$DIMTXSTY
  7
Standard
  9
$DIMAUNIT
 70
     0
  9
$DIMADEC
 70
     0
  9
$DIMALTRND
 40
0.0
  9
$DIMAZIN
 70
     0
  9
$DIMDSEP
 70
    46
  9
$DIMATFIT
 70
     3
  9
$DIMFRAC
 70
     0
  9
$DIMLDRBLK
  1

  9
$DIMLUNIT
 70
     2
  9
$DIMLWD
 70
    -2
  9
$DIMLWE
 70
    -2
  9
$DIMTMOVE
 70
     0
  9
$DIMFXL
 40
1.0
  9
$DIMFXLON
 70
     0
  9
$DIMJOGANG
 40
0.7853981633974483
  9
$DIMTFILL
 70
     0
  9
$DIMTFILLCLR
 70
     0
  9
$DIMARCSYM
 70
     0
  9
$DIMLTYPE
  6

  9
$DIMLTEX1
  6

  9
$DIMLTEX2
  6

  9
$DIMTXTDIRECTION
 70
     0
  9
$LUNITS
 70
     2
  9
$LUPREC
 70
     4
  9
$SKETCHINC
 40
0.1
  9
$FILLETRAD
 40
0.5
  9
$AUNITS
 70
     0
  9
$AUPREC
 70
     0
  9
$MENU
  1
.
  9
$ELEVATION
 40
0.0
  9
$PELEVATION
 40
0.0
  9
$THICKNESS
 40
0.0
  9
$LIMCHECK
 70
     0
  9
$CHAMFERA
 40
0.5
  9
$CHAMFERB
 40
0.5
  9
$CHAMFERC
 40
1.0
  9
$CHAMFERD
 40
0.0
  9
$SKPOLY
 70
     0
  9
$TDCREATE
 40
2459325.477673611
  9
$TDUCREATE
 40
2459325.394349236
  9
$TDUPDATE
 40
2459328.455486112
  9
$TDUUPDATE
 40
2459328.372152778
  9
$TDINDWG
 40
0.0029629745
  9
$TDUSRTIMER
 40
0.0029629745
  9
$USRTIMER
 70
     1
  9
$ANGBASE
 50
0.0
  9
$ANGDIR
 70
     0
  9
$PDMODE
 70
     0
  9
$PDSIZE
 40
0.0
  9
$PLINEWID
 40
0.0
  9
$SPLFRAME
 70
     0
  9
$SPLINETYPE
 70
     6
  9
$SPLINESEGS
 70
     8
  9
$HANDSEED
  5
F7
  9
$SURFTAB1
 70
     6
  9
$SURFTAB2
 70
     6
  9
$SURFTYPE
 70
     6
  9
$SURFU
 70
     6
  9
$SURFV
 70
     6
  9
$UCSBASE
  2

  9
$UCSNAME
  2

  9
$UCSORG
 10
0.0
 20
0.0
 30
0.0
  9
$UCSXDIR
 10
1.0
 20
0.0
 30
0.0
  9
$UCSYDIR
 10
0.0
 20
1.0
 30
0.0
  9
$UCSORTHOREF
  2

  9
$UCSORTHOVIEW
 70
     0
  9
$UCSORGTOP
 10
0.0
 20
0.0
 30
0.0
  9
$UCSORGBOTTOM
 10
0.0
 20
0.0
 30
0.0
  9
$UCSORGLEFT
 10
0.0
 20
0.0
 30
0.0
  9
$UCSORGRIGHT
 10
0.0
 20
0.0
 30
0.0
  9
$UCSORGFRONT
 10
0.0
 20
0.0
 30
0.0
  9
$UCSORGBACK
 10
0.0
 20
0.0
 30
0.0
  9
$PUCSBASE
  2

  9
$PUCSNAME
  2

  9
$PUCSORG
 10
0.0
 20
0.0
 30
0.0
  9
$PUCSXDIR
 10
1.0
 20
0.0
 30
0.0
  9
$PUCSYDIR
 10
0.0
 20
1.0
 30
0.0
  9
$PUCSORTHOREF
  2

  9
$PUCSORTHOVIEW
 70
     0
  9
$PUCSORGTOP
 10
0.0
 20
0.0
 30
0.0
  9
$PUCSORGBOTTOM
 10
0.0
 20
0.0
 30
0.0
  9
$PUCSORGLEFT
 10
0.0
 20
0.0
 30
0.0
  9
$PUCSORGRIGHT
 10
0.0
 20
0.0
 30
0.0
  9
$PUCSORGFRONT
 10
0.0
 20
0.0
 30
0.0
  9
$PUCSORGBACK
 10
0.0
 20
0.0
 30
0.0
  9
$USERI1
 70
     0
  9
$USERI2
 70
     0
  9
$USERI3
 70
     0
  9
$USERI4
 70
     0
  9
$USERI5
 70
     0
  9
$USERR1
 40
0.0
  9
$USERR2
 40
0.0
  9
$USERR3
 40
0.0
  9
$USERR4
 40
0.0
  9
$USERR5
 40
0.0
  9
$WORLDVIEW
 70
     1
  9
$SHADEDGE
 70
     3
  9
$SHADEDIF
 70
    70
  9
$TILEMODE
 70
     1
  9
$MAXACTVP
 70
    64
  9
$PINSBASE
 10
0.0
 20
0.0
 30
0.0
  9
$PLIMCHECK
 70
     0
  9
$PEXTMIN
 10
1.000000000000000E+20
 20
1.000000000000000E+20
 30
1.000000000000000E+20
  9
$PEXTMAX
 10
-1.000000000000000E+20
 20
-1.000000000000000E+20
 30
-1.000000000000000E+20
  9
$PLIMMIN
 10
0.0
 20
0.0
  9
$PLIMMAX
 10
12.0
 20
9.0
  9
$UNITMODE
 70
     0
  9
$VISRETAIN
 70
     1
  9
$PLINEGEN
 70
     0
  9
$PSLTSCALE
 70
     1
  9
$TREEDEPTH
 70
  3020
  9
$CMLSTYLE
  2
Standard
  9
$CMLJUST
 70
     0
  9
$CMLSCALE
 40
1.0
  9
$PROXYGRAPHICS
 70
     1
  9
$MEASUREMENT
 70
     0
  9
$CELWEIGHT
370
    -1
  9
$ENDCAPS
280
     0
  9
$JOINSTYLE
280
     0
  9
$LWDISPLAY
290
     1
  9
$INSUNITS
 70
     5
  9
$HYPERLINKBASE
  1

  9
$STYLESHEET
  1

  9
$XEDIT
290
     1
  9
$CEPSNTYPE
380
     0
  9
$PSTYLEMODE
290
     1
  9
$FINGERPRINTGUID
  2
{9E0C2642-9E7B-46EB-A4AB-586D8E06557A}
  9
$VERSIONGUID
  2
{A2593D2A-93A9-2E4D-A114-773A636AD09D}
  9
$EXTNAMES
290
     1
  9
$PSVPSCALE
 40
0.0
  9
$OLESTARTUP
290
     0
  9
$SORTENTS
280
   127
  9
$INDEXCTL
280
     0
  9
$HIDETEXT
280
     1
  9
$XCLIPFRAME
280
     2
  9
$HALOGAP
280
     0
  9
$OBSCOLOR
 70
   257
  9
$OBSLTYPE
280
     0
  9
$INTERSECTIONDISPLAY
280
     0
  9
$INTERSECTIONCOLOR
 70
   257
  9
$DIMASSOC
280
     2
  9
$PROJECTNAME
  1

  9
$CAMERADISPLAY
290
     0
  9
$LENSLENGTH
 40
50.0
  9
$CAMERAHEIGHT
 40
0.0
  9
$STEPSPERSEC
 40
2.0
  9
$STEPSIZE
 40
6.0
  9
$3DDWFPREC
 40
2.0
  9
$PSOLWIDTH
 40
0.25
  9
$PSOLHEIGHT
 40
4.0
  9
$LOFTANG1
 40
1.570796326794897
  9
$LOFTANG2
 40
1.570796326794897
  9
$LOFTMAG1
 40
0.0
  9
$LOFTMAG2
 40
0.0
  9
$LOFTPARAM
 70
     7
  9
$LOFTNORMALS
280
     1
  9
$LATITUDE
 40
37.795
  9
$LONGITUDE
 40
-122.394
  9
$NORTHDIRECTION
 40
0.0
  9
$TIMEZONE
 70
 -8000
  9
$LIGHTGLYPHDISPLAY
280
     1
  9
$TILEMODELIGHTSYNCH
280
     1
  9
$CMATERIAL
347
3C
  9
$SOLIDHIST
280
     1
  9
$SHOWHIST
280
     1
  9
$DWFFRAME
280
     2
  9
$DGNFRAME
280
     2
  9
$REALWORLDSCALE
290
     1
  9
$INTERFERECOLOR
 62
   256
  9
$INTERFEREOBJVS
345
33
  9
$INTERFEREVPVS
346
88
  9
$CSHADOW
280
     0
  9
$SHADOWPLANELOCATION
 40
0.0
  0
ENDSEC
  0
SECTION
  2
CLASSES
  0
CLASS
  1
ACDBDICTIONARYWDFLT
  2
AcDbDictionaryWithDefault
  3
ObjectDBX Classes
 90
        0
 91
        1
280
     0
281
     0
  0
CLASS
  1
VISUALSTYLE
  2
AcDbVisualStyle
  3
ObjectDBX Classes
 90
     4095
 91
       26
280
     0
281
     0
  0
CLASS
  1
MATERIAL
  2
AcDbMaterial
  3
ObjectDBX Classes
 90
     1153
 91
        3
280
     0
281
     0
  0
CLASS
  1
SUN
  2
AcDbSun
  3
SCENEOE
 90
     1153
 91
        1
280
     0
281
     0
  0
CLASS
  1
TABLESTYLE
  2
AcDbTableStyle
  3
ObjectDBX Classes
 90
     4095
 91
        1
280
     0
281
     0
  0
CLASS
  1
SCALE
  2
AcDbScale
  3
ObjectDBX Classes
 90
     1153
 91
       21
280
     0
281
     0
  0
CLASS
  1
MLEADERSTYLE
  2
AcDbMLeaderStyle
  3
ACDB_MLEADERSTYLE_CLASS
 90
     4095
 91
        1
280
     0
281
     0
  0
CLASS
  1
ACDBSECTIONVIEWSTYLE
  2
AcDbSectionViewStyle
  3
ObjectDBX Classes
 90
     1025
 91
        1
280
     0
281
     0
  0
CLASS
  1
ACDBDETAILVIEWSTYLE
  2
AcDbDetailViewStyle
  3
ObjectDBX Classes
 90
     1025
 91
        1
280
     0
281
     0
  0
CLASS
  1
SOLID_BACKGROUND
  2
AcDbSolidBackground
  3
SCENEOE
 90
     4095
 91
        1
280
     0
281
     0
  0
CLASS
  1
NPOCOLLECTION
  2
AcDbImpNonPersistentObjectsCollection
  3
ObjectDBX Classes
 90
     1153
 91
        1
280
     0
281
     0
  0
CLASS
  1
SORTENTSTABLE
  2
AcDbSortentsTable
  3
ObjectDBX Classes
 90
        0
 91
        1
280
     0
281
     0
  0
CLASS
  1
DICTIONARYVAR
  2
AcDbDictionaryVar
  3
ObjectDBX Classes
 90
        0
 91
        5
280
     0
281
     0
  0
CLASS
  1
CELLSTYLEMAP
  2
AcDbCellStyleMap
  3
ObjectDBX Classes
 90
     1152
 91
        1
280
     0
281
     0
  0
ENDSEC
  0
SECTION
  2
TABLES
  0
TABLE
  2
VPORT
  5
8
330
0
100
AcDbSymbolTable
 70
     1
1001
ACAD
1000
DbSaveVer
1071
      105
  0
VPORT
  5
29
330
8
100
AcDbSymbolTableRecord
100
AcDbViewportTableRecord
  2
*Active
 70
     0
 10
0.0
 20
0.0
 11
1.0
 21
1.0
 12
0.0
 22
0.0
 13
0.0
 23
0.0
 14
0.5
 24
0.5
 15
0.5
 25
0.5
 16
0.0
 26
0.0
 36
98.18849562808649
 17
29.04966126817168
 27
-17.71987866039064
 37
0.0
 40
44.66391156321487
 41
1.932867132867133
 42
50.0
 43
0.0
 44
0.0
 50
0.0
 51
0.0
 71
     0
 72
   100
 73
     1
 74
     3
 75
     0
 76
     0
 77
     0
 78
     0
281
     2
 65
     1
110
0.0
120
0.0
130
0.0
111
1.0
121
0.0
131
0.0
112
0.0
122
1.0
132
0.0
 79
     0
146
0.0
348
31
 60
     3
 61
     5
292
     1
282
     1
141
0.0
142
0.0
 63
   250
361
3F
1001
ACAD_NAV_VCDISPLAY
1070
     3
  0
ENDTAB
  0
TABLE
  2
LTYPE
  5
5
330
0
100
AcDbSymbolTable
 70
     1
  0
LTYPE
  5
14
330
5
100
AcDbSymbolTableRecord
100
AcDbLinetypeTableRecord
  2
ByBlock
 70
     0
  3

 72
    65
 73
     0
 40
0.0
  0
LTYPE
  5
15
330
5
100
AcDbSymbolTableRecord
100
AcDbLinetypeTableRecord
  2
ByLayer
 70
     0
  3

 72
    65
 73
     0
 40
0.0
  0
LTYPE
  5
16
330
5
100
AcDbSymbolTableRecord
100
AcDbLinetypeTableRecord
  2
Continuous
 70
     0
  3
Solid line
 72
    65
 73
     0
 40
0.0
  0
ENDTAB
  0
TABLE
  2
LAYER
  5
2
330
0
100
AcDbSymbolTable
 70
     3
  0
LAYER
  5
10
330
2
100
AcDbSymbolTableRecord
100
AcDbLayerTableRecord
  2
0
 70
     0
 62
     7
  6
Continuous
370
    -3
390
F
347
3E
348
0
  0
LAYER
  5
40
330
2
100
AcDbSymbolTableRecord
100
AcDbLayerTableRecord
  2
Livello 3
 70
     0
 62
     7
  6
Continuous
370
    -3
390
F
347
3E
348
0
  0
LAYER
  5
5B
330
2
100
AcDbSymbolTableRecord
100
AcDbLayerTableRecord
  2
Livello 2
 70
     0
 62
     7
  6
Continuous
370
    -3
390
F
347
3E
348
0
  0
ENDTAB
  0
TABLE
  2
STYLE
  5
3
330
0
100
AcDbSymbolTable
 70
     1
  0
STYLE
  5
11
330
3
100
AcDbSymbolTableRecord
100
AcDbTextStyleTableRecord
  2
Standard
 70
     0
 40
0.0
 41
1.0
 50
0.0
 71
     0
 42
0.2
  3
txt
  4

  0
ENDTAB
  0
TABLE
  2
VIEW
  5
6
330
0
100
AcDbSymbolTable
 70
     0
  0
ENDTAB
  0
TABLE
  2
UCS
  5
7
330
0
100
AcDbSymbolTable
 70
     0
  0
ENDTAB
  0
TABLE
  2
APPID
  5
9
330
0
100
AcDbSymbolTable
 70
     2
  0
APPID
  5
12
330
9
100
AcDbSymbolTableRecord
100
AcDbRegAppTableRecord
  2
ACAD
 70
     0
  0
APPID
  5
DF
330
9
100
AcDbSymbolTableRecord
100
AcDbRegAppTableRecord
  2
ACAD_NAV_VCDISPLAY
 70
     0
  0
ENDTAB
  0
TABLE
  2
DIMSTYLE
  5
A
330
0
100
AcDbSymbolTable
 70
     1
100
AcDbDimStyleTable
 71
     0
  0
DIMSTYLE
105
27
330
A
100
AcDbSymbolTableRecord
100
AcDbDimStyleTableRecord
  2
Standard
 70
     0
340
11
  0
ENDTAB
  0
TABLE
  2
BLOCK_RECORD
  5
1
330
0
100
AcDbSymbolTable
 70
     6
  0
BLOCK_RECORD
  5
1F
102
{ACAD_XDICTIONARY
360
B5
102
}
330
1
100
AcDbSymbolTableRecord
100
AcDbBlockTableRecord
  2
*Model_Space
340
22
 70
     0
280
     1
281
     0
  0
BLOCK_RECORD
  5
1B
330
1
100
AcDbSymbolTableRecord
100
AcDbBlockTableRecord
  2
*Paper_Space
340
1E
 70
     0
280
     1
281
     0
  0
BLOCK_RECORD
  5
23
330
1
100
AcDbSymbolTableRecord
100
AcDbBlockTableRecord
  2
*Paper_Space0
340
26
 70
     0
280
     1
281
     0
  0
BLOCK_RECORD
  5
41
330
1
100
AcDbSymbolTableRecord
100
AcDbBlockTableRecord
  2
block 2
340
0
 70
     0
280
     1
281
     0
  0
BLOCK_RECORD
  5
4C
330
1
100
AcDbSymbolTableRecord
100
AcDbBlockTableRecord
  2
block 3
340
0
 70
     0
280
     1
281
     0
  0
BLOCK_RECORD
  5
51
330
1
100
AcDbSymbolTableRecord
100
AcDbBlockTableRecord
  2
block 4
340
0
 70
     0
280
     1
281
     0
  0
BLOCK_RECORD
  5
64
330
1
100
AcDbSymbolTableRecord
100
AcDbBlockTableRecord
  2
block 5
340
0
 70
     0
280
     1
281
     0
  0
BLOCK_RECORD
  5
7A
330
1
100
AcDbSymbolTableRecord
100
AcDbBlockTableRecord
  2
block 6
340
0
 70
     0
280
     1
281
     0
  0
ENDTAB
  0
ENDSEC
  0
SECTION
  2
BLOCKS
  0
BLOCK
  5
20
330
1F
100
AcDbEntity
  8
0
100
AcDbBlockBegin
  2
*Model_Space
 70
     0
 10
0.0
 20
0.0
 30
0.0
  3
*Model_Space
  1

  0
ENDBLK
  5
21
330
1F
100
AcDbEntity
  8
0
100
AcDbBlockEnd
  0
BLOCK
  5
1C
330
1B
100
AcDbEntity
 67
     1
  8
0
100
AcDbBlockBegin
  2
*Paper_Space
 70
     0
 10
0.0
 20
0.0
 30
0.0
  3
*Paper_Space
  1

  0
ENDBLK
  5
1D
330
1B
100
AcDbEntity
 67
     1
  8
0
100
AcDbBlockEnd
  0
BLOCK
  5
24
330
23
100
AcDbEntity
 67
     1
  8
0
100
AcDbBlockBegin
  2
*Paper_Space0
 70
     0
 10
0.0
 20
0.0
 30
0.0
  3
*Paper_Space0
  1

  0
ENDBLK
  5
25
330
23
100
AcDbEntity
 67
     1
  8
0
100
AcDbBlockEnd
  0
BLOCK
  5
43
330
41
100
AcDbEntity
  8
0
100
AcDbBlockBegin
  2
block 2
 70
     0
 10
0.0
 20
0.0
 30
0.0
  3
block 2
  1

  0
POLYLINE
  5
45
330
41
100
AcDbEntity
  8
Livello 3
 62
   250
420
  1842203
370
    70
100
AcDb2dPolyline
 66
     1
 10
0.0
 20
0.0
 30
0.0
  0
VERTEX
  5
46
330
45
100
AcDbEntity
  8
Livello 3
 62
   250
420
  1842203
370
    70
100
AcDbVertex
100
AcDb2dVertex
 10
16.04868620167501
 20
-18.40280093984377
 30
0.0
  0
VERTEX
  5
47
330
45
100
AcDbEntity
  8
Livello 3
 62
   250
420
  1842203
370
    70
100
AcDbVertex
100
AcDb2dVertex
 10
13.06441205558797
 20
-18.40280093984377
 30
0.0
  0
VERTEX
  5
48
330
45
100
AcDbEntity
  8
Livello 3
 62
   250
420
  1842203
370
    70
100
AcDbVertex
100
AcDb2dVertex
 10
13.06441205558797
 20
-18.20639191211506
 30
0.0
  0
VERTEX
  5
49
330
45
100
AcDbEntity
  8
Livello 3
 62
   250
420
  1842203
370
    70
100
AcDbVertex
100
AcDb2dVertex
 10
16.04868620167501
 20
-18.20639191211506
 30
0.0
  0
VERTEX
  5
4A
330
45
100
AcDbEntity
  8
Livello 3
 62
   250
420
  1842203
370
    70
100
AcDbVertex
100
AcDb2dVertex
 10
16.04868620167501
 20
-18.40280093984377
 30
0.0
  0
SEQEND
  5
4B
330
45
100
AcDbEntity
  8
Livello 3
 62
   250
420
  1842203
370
    70
  0
ENDBLK
  5
44
330
41
100
AcDbEntity
  8
0
100
AcDbBlockEnd
  0
BLOCK
  5
4E
330
4C
100
AcDbEntity
  8
0
100
AcDbBlockBegin
  2
block 3
 70
     0
 10
0.0
 20
0.0
 30
0.0
  3
block 3
  1

  0
SPLINE
  5
50
330
4C
100
AcDbEntity
  8
Livello 3
 62
   250
420
  1842203
370
    70
100
AcDbSpline
210
0.0
220
0.0
230
1.0
 70
     9
 71
     3
 72
    47
 73
    43
 74
     0
 42
0.000000001
 43
0.0000000001
 40
0.0
 40
0.0
 40
0.0
 40
0.0
 40
1.0
 40
1.0
 40
1.0
 40
2.0
 40
2.0
 40
2.0
 40
3.0
 40
3.0
 40
3.0
 40
4.0
 40
4.0
 40
4.0
 40
5.0
 40
5.0
 40
5.0
 40
6.0
 40
6.0
 40
6.0
 40
7.0
 40
7.0
 40
7.0
 40
8.0
 40
8.0
 40
8.0
 40
9.0
 40
9.0
 40
9.0
 40
10.0
 40
10.0
 40
10.0
 40
11.0
 40
11.0
 40
11.0
 40
12.0
 40
12.0
 40
12.0
 40
13.0
 40
13.0
 40
13.0
 40
14.0
 40
14.0
 40
14.0
 40
14.0
 10
14.59469146099173
 20
-6.690924442771705
 30
0.0
 10
14.4436143815127
 20
-6.690924442771705
 30
0.0
 10
14.30253502400082
 20
-6.684895470550987
 30
0.0
 10
14.18302449927201
 20
-6.674534387220269
 30
0.0
 10
14.18302449927201
 20
-6.674534387220269
 30
0.0
 10
14.06044128017715
 20
-6.663044415000907
 30
0.0
 10
14.06044128017715
 20
-6.663044415000907
 30
0.0
 10
13.94856486636468
 20
-6.690924442771705
 30
0.0
 10
13.96533239371469
 20
-6.797286942745125
 30
0.0
 10
13.96533239371469
 20
-6.797286942745125
 30
0.0
 10
13.96533239371469
 20
-6.797286942745125
 30
0.0
 10
13.96533239371469
 20
-11.47363155268717
 30
0.0
 10
13.96533239371469
 20
-11.47363155268717
 30
0.0
 10
13.96533239371469
 20
-11.47363155268717
 30
0.0
 10
13.94298744984031
 20
-11.64142677486745
 30
0.0
 10
14.13873677817966
 20
-11.68068388596871
 30
0.0
 10
14.14994100011604
 20
-11.68626483041175
 30
0.0
 10
14.35129243942358
 20
-11.72533144151313
 30
0.0
 10
14.54706646220675
 20
-11.72533144151313
 30
0.0
 10
14.54706646220675
 20
-11.72533144151313
 30
0.0
 10
14.56595771172479
 20
-11.72533144151313
 30
0.0
 10
14.56595771172479
 20
-11.72533144151313
 30
0.0
 10
14.76178112339559
 20
-11.72533144151313
 30
0.0
 10
14.96313256270313
 20
-11.68626483041175
 30
0.0
 10
14.9743367846395
 20
-11.68068388596871
 30
0.0
 10
15.17013550186649
 20
-11.64142677486745
 30
0.0
 10
15.1477658635483
 20
-11.47363155268717
 30
0.0
 10
15.1477658635483
 20
-11.47363155268717
 30
0.0
 10
15.1477658635483
 20
-11.47363155268717
 30
0.0
 10
15.1477658635483
 20
-6.797286942745125
 30
0.0
 10
15.1477658635483
 20
-6.797286942745125
 30
0.0
 10
15.1477658635483
 20
-6.797286942745125
 30
0.0
 10
15.16450869645448
 20
-6.690924442771705
 30
0.0
 10
15.05263228264202
 20
-6.663044415000907
 30
0.0
 10
15.05263228264202
 20
-6.663044415000907
 30
0.0
 10
14.93004944071193
 20
-6.674534387220269
 30
0.0
 10
14.93004944071193
 20
-6.674534387220269
 30
0.0
 10
14.81051384437453
 20
-6.684895470550987
 30
0.0
 10
14.66945918130647
 20
-6.690924442771705
 30
0.0
 10
14.51838210182743
 20
-6.690924442771705
 30
0.0
 10
14.51838210182743
 20
-6.690924442771705
 30
0.0
 10
14.59469146099173
 20
-6.690924442771705
 30
0.0
 10
14.59469146099173
 20
-6.690924442771705
 30
0.0
  0
ENDBLK
  5
4F
330
4C
100
AcDbEntity
  8
0
100
AcDbBlockEnd
  0
BLOCK
  5
53
330
51
100
AcDbEntity
  8
0
100
AcDbBlockBegin
  2
block 4
 70
     0
 10
0.0
 20
0.0
 30
0.0
  3
block 4
  1

  0
POLYLINE
  5
55
330
51
100
AcDbEntity
  8
Livello 3
 62
   250
420
  1842203
370
    70
100
AcDb2dPolyline
 66
     1
 10
0.0
 20
0.0
 30
0.0
  0
VERTEX
  5
56
330
55
100
AcDbEntity
  8
Livello 3
 62
   250
420
  1842203
370
    70
100
AcDbVertex
100
AcDb2dVertex
 10
13.72898221878996
 20
-18.20639191211506
 30
0.0
  0
VERTEX
  5
57
330
55
100
AcDbEntity
  8
Livello 3
 62
   250
420
  1842203
370
    70
100
AcDbVertex
100
AcDb2dVertex
 10
13.72898221878996
 20
-5.142314665381103
 30
0.0
  0
VERTEX
  5
58
330
55
100
AcDbEntity
  8
Livello 3
 62
   250
420
  1842203
370
    70
100
AcDbVertex
100
AcDb2dVertex
 10
15.38411638529627
 20
-5.136430332049209
 30
0.0
  0
VERTEX
  5
59
330
55
100
AcDbEntity
  8
Livello 3
 62
   250
420
  1842203
370
    70
100
AcDbVertex
100
AcDb2dVertex
 10
15.38411638529627
 20
-18.20639191211506
 30
0.0
  0
SEQEND
  5
5A
330
55
100
AcDbEntity
  8
Livello 3
 62
   250
420
  1842203
370
    70
  0
ENDBLK
  5
54
330
51
100
AcDbEntity
  8
0
100
AcDbBlockEnd
  0
BLOCK
  5
66
330
64
100
AcDbEntity
  8
0
100
AcDbBlockBegin
  2
block 5
 70
     0
 10
0.0
 20
0.0
 30
0.0
  3
block 5
  1

  0
POLYLINE
  5
68
330
64
100
AcDbEntity
  8
Livello 2
370
     0
100
AcDb2dPolyline
 66
     1
 10
0.0
 20
0.0
 30
0.0
  0
VERTEX
  5
69
330
68
100
AcDbEntity
  8
Livello 2
370
     0
100
AcDbVertex
100
AcDb2dVertex
 10
14.0689603643213
 20
-19.20809542705561
 30
0.0
  0
VERTEX
  5
6A
330
68
100
AcDbEntity
  8
Livello 2
370
     0
100
AcDbVertex
100
AcDb2dVertex
 10
14.06727226753353
 20
-19.20809542705561
 30
0.0
  0
VERTEX
  5
6B
330
68
100
AcDbEntity
  8
Livello 2
370
     0
100
AcDbVertex
100
AcDb2dVertex
 10
13.97158474043071
 20
-19.25973740837951
 30
0.0
  0
VERTEX
  5
6C
330
68
100
AcDbEntity
  8
Livello 2
370
     0
100
AcDbVertex
100
AcDb2dVertex
 10
13.95718424130237
 20
-19.20299668573744
 30
0.0
  0
VERTEX
  5
6D
330
68
100
AcDbEntity
  8
Livello 2
370
     0
100
AcDbVertex
100
AcDb2dVertex
 10
14.07741807373759
 20
-19.13864230207298
 30
0.0
  0
VERTEX
  5
6E
330
68
100
AcDbEntity
  8
Livello 2
370
     0
100
AcDbVertex
100
AcDb2dVertex
 10
14.14092840900817
 20
-19.13864230207298
 30
0.0
  0
VERTEX
  5
6F
330
68
100
AcDbEntity
  8
Livello 2
370
     0
100
AcDbVertex
100
AcDb2dVertex
 10
14.14092840900817
 20
-19.68903075679649
 30
0.0
  0
VERTEX
  5
70
330
68
100
AcDbEntity
  8
Livello 2
370
     0
100
AcDbVertex
100
AcDb2dVertex
 10
14.0689603643213
 20
-19.68903075679649
 30
0.0
  0
VERTEX
  5
71
330
68
100
AcDbEntity
  8
Livello 2
370
     0
100
AcDbVertex
100
AcDb2dVertex
 10
14.0689603643213
 20
-19.20809542705561
 30
0.0
  0
SEQEND
  5
72
330
68
100
AcDbEntity
  8
Livello 2
370
     0
  0
HATCH
  5
73
330
64
100
AcDbEntity
  8
Livello 2
 62
   250
420
  1842203
100
AcDbHatch
 10
0.0
 20
0.0
 30
0.0
210
0.0
220
0.0
230
1.0
  2
SOLID
 70
     1
 71
     0
 91
        1
 92
        1
 93
        8
 72
     1
 10
14.0689603643213
 20
-19.20809542705561
 11
14.06727226753353
 21
-19.20809542705561
 72
     1
 10
14.06727226753353
 20
-19.20809542705561
 11
13.97158474043071
 21
-19.25973740837951
 72
     1
 10
13.97158474043071
 20
-19.25973740837951
 11
13.95718424130237
 21
-19.20299668573744
 72
     1
 10
13.95718424130237
 20
-19.20299668573744
 11
14.07741807373759
 21
-19.13864230207298
 72
     1
 10
14.07741807373759
 20
-19.13864230207298
 11
14.14092840900817
 21
-19.13864230207298
 72
     1
 10
14.14092840900817
 20
-19.13864230207298
 11
14.14092840900817
 21
-19.68903075679649
 72
     1
 10
14.14092840900817
 20
-19.68903075679649
 11
14.0689603643213
 21
-19.68903075679649
 72
     1
 10
14.0689603643213
 20
-19.68903075679649
 11
14.0689603643213
 21
-19.20809542705561
 97
        0
 75
     2
 76
     1
 98
        0
450
        0
451
        0
460
0.0
461
0.0
452
        0
462
0.0
453
        0
470

  0
SPLINE
  5
74
330
64
100
AcDbEntity
  8
Livello 2
370
     0
100
AcDbSpline
210
0.0
220
0.0
230
1.0
 70
     9
 71
     3
 72
    59
 73
    55
 74
     0
 42
0.000000001
 43
0.0000000001
 40
0.0
 40
0.0
 40
0.0
 40
0.0
 40
1.0
 40
1.0
 40
1.0
 40
2.0
 40
2.0
 40
2.0
 40
3.0
 40
3.0
 40
3.0
 40
4.0
 40
4.0
 40
4.0
 40
5.0
 40
5.0
 40
5.0
 40
6.0
 40
6.0
 40
6.0
 40
7.0
 40
7.0
 40
7.0
 40
8.0
 40
8.0
 40
8.0
 40
9.0
 40
9.0
 40
9.0
 40
10.0
 40
10.0
 40
10.0
 40
11.0
 40
11.0
 40
11.0
 40
12.0
 40
12.0
 40
12.0
 40
13.0
 40
13.0
 40
13.0
 40
14.0
 40
14.0
 40
14.0
 40
15.0
 40
15.0
 40
15.0
 40
16.0
 40
16.0
 40
16.0
 40
17.0
 40
17.0
 40
17.0
 40
18.0
 40
18.0
 40
18.0
 40
18.0
 10
14.35933023729558
 20
-19.60352348685258
 30
0.0
 10
14.38050034905244
 20
-19.61706271210962
 30
0.0
 10
14.42961018519468
 20
-19.63821559838906
 30
0.0
 10
14.481269391996
 20
-19.63821559838906
 30
0.0
 10
14.57693969362139
 20
-19.63821559838906
 30
0.0
 10
14.60658474027196
 20
-19.57727185925499
 30
0.0
 10
14.60574069187808
 20
-19.53152099121087
 30
0.0
 10
14.60489664348419
 20
-19.45448865616068
 30
0.0
 10
14.53546074397898
 20
-19.42145019045714
 30
0.0
 10
14.46349269929211
 20
-19.42145019045714
 30
0.0
 10
14.46349269929211
 20
-19.42145019045714
 30
0.0
 10
14.42199652417228
 20
-19.42145019045714
 30
0.0
 10
14.42199652417228
 20
-19.42145019045714
 30
0.0
 10
14.42199652417228
 20
-19.42145019045714
 30
0.0
 10
14.42199652417228
 20
-19.36557074168638
 30
0.0
 10
14.42199652417228
 20
-19.36557074168638
 30
0.0
 10
14.42199652417228
 20
-19.36557074168638
 30
0.0
 10
14.46349269929211
 20
-19.36557074168638
 30
0.0
 10
14.46349269929211
 20
-19.36557074168638
 30
0.0
 10
14.51768405127508
 20
-19.36557074168638
 30
0.0
 10
14.58625867690899
 20
-19.33763101730101
 30
0.0
 10
14.58625867690899
 20
-19.27244981072008
 30
0.0
 10
14.58625867690899
 20
-19.22838703946374
 30
0.0
 10
14.55831895252361
 20
-19.18945746048041
 30
0.0
 10
14.48972710141229
 20
-19.18945746048041
 30
0.0
 10
14.4456987811108
 20
-19.18945746048041
 30
0.0
 10
14.40335855759708
 20
-19.20892224997207
 30
0.0
 10
14.37965630065856
 20
-19.2258721197595
 30
0.0
 10
14.37965630065856
 20
-19.2258721197595
 30
0.0
 10
14.36017428568947
 20
-19.17168076777652
 30
0.0
 10
14.36017428568947
 20
-19.17168076777652
 30
0.0
 10
14.38897528394616
 20
-19.15049343054224
 30
0.0
 10
14.44485473271691
 20
-19.1293405442628
 30
0.0
 10
14.50412760054063
 20
-19.1293405442628
 30
0.0
 10
14.61251030450659
 20
-19.1293405442628
 30
0.0
 10
14.66162014064883
 20
-19.19369492792727
 30
0.0
 10
14.66162014064883
 20
-19.26056423129597
 30
0.0
 10
14.66162014064883
 20
-19.31730495393803
 30
0.0
 10
14.62775485202882
 20
-19.36557074168638
 30
0.0
 10
14.56000704931139
 20
-19.39013427249622
 30
0.0
 10
14.56000704931139
 20
-19.39013427249622
 30
0.0
 10
14.56000704931139
 20
-19.39182236928399
 30
0.0
 10
14.56000704931139
 20
-19.39182236928399
 30
0.0
 10
14.62775485202882
 20
-19.40536159454102
 30
0.0
 10
14.68279025240569
 20
-19.45617675294845
 30
0.0
 10
14.68279025240569
 20
-19.53324353895349
 30
0.0
 10
14.68279025240569
 20
-19.62130017955647
 30
0.0
 10
14.61419840129437
 20
-19.69833251460667
 30
0.0
 10
14.48211344038989
 20
-19.69833251460667
 30
0.0
 10
14.42030842738451
 20
-19.69833251460667
 30
0.0
 10
14.36611707540153
 20
-19.678867725115
 30
0.0
 10
14.33902139941003
 20
-19.66109103241111
 30
0.0
 10
14.33902139941003
 20
-19.66109103241111
 30
0.0
 10
14.35933023729558
 20
-19.60352348685258
 30
0.0
 10
14.35933023729558
 20
-19.60352348685258
 30
0.0
  0
HATCH
  5
75
330
64
100
AcDbEntity
  8
Livello 2
 62
   250
420
  1842203
100
AcDbHatch
 10
0.0
 20
0.0
 30
0.0
210
0.0
220
0.0
230
1.0
  2
SOLID
 70
     1
 71
     0
 91
        1
 92
        1
 93
        1
 72
     4
 94
        3
 73
     0
 74
     0
 95
       59
 96
       55
 40
0.0
 40
0.0
 40
0.0
 40
0.0
 40
1.0
 40
1.0
 40
1.0
 40
2.0
 40
2.0
 40
2.0
 40
3.0
 40
3.0
 40
3.0
 40
4.0
 40
4.0
 40
4.0
 40
5.0
 40
5.0
 40
5.0
 40
6.0
 40
6.0
 40
6.0
 40
7.0
 40
7.0
 40
7.0
 40
8.0
 40
8.0
 40
8.0
 40
9.0
 40
9.0
 40
9.0
 40
10.0
 40
10.0
 40
10.0
 40
11.0
 40
11.0
 40
11.0
 40
12.0
 40
12.0
 40
12.0
 40
13.0
 40
13.0
 40
13.0
 40
14.0
 40
14.0
 40
14.0
 40
15.0
 40
15.0
 40
15.0
 40
16.0
 40
16.0
 40
16.0
 40
17.0
 40
17.0
 40
17.0
 40
18.0
 40
18.0
 40
18.0
 40
18.0
 10
14.35933023729558
 20
-19.60352348685258
 10
14.38050034905244
 20
-19.61706271210962
 10
14.42961018519468
 20
-19.63821559838906
 10
14.481269391996
 20
-19.63821559838906
 10
14.57693969362139
 20
-19.63821559838906
 10
14.60658474027196
 20
-19.57727185925499
 10
14.60574069187808
 20
-19.53152099121087
 10
14.60489664348419
 20
-19.45448865616068
 10
14.53546074397898
 20
-19.42145019045714
 10
14.46349269929211
 20
-19.42145019045714
 10
14.46349269929211
 20
-19.42145019045714
 10
14.42199652417228
 20
-19.42145019045714
 10
14.42199652417228
 20
-19.42145019045714
 10
14.42199652417228
 20
-19.42145019045714
 10
14.42199652417228
 20
-19.36557074168638
 10
14.42199652417228
 20
-19.36557074168638
 10
14.42199652417228
 20
-19.36557074168638
 10
14.46349269929211
 20
-19.36557074168638
 10
14.46349269929211
 20
-19.36557074168638
 10
14.51768405127508
 20
-19.36557074168638
 10
14.58625867690899
 20
-19.33763101730101
 10
14.58625867690899
 20
-19.27244981072008
 10
14.58625867690899
 20
-19.22838703946374
 10
14.55831895252361
 20
-19.18945746048041
 10
14.48972710141229
 20
-19.18945746048041
 10
14.4456987811108
 20
-19.18945746048041
 10
14.40335855759708
 20
-19.20892224997207
 10
14.37965630065856
 20
-19.2258721197595
 10
14.37965630065856
 20
-19.2258721197595
 10
14.36017428568947
 20
-19.17168076777652
 10
14.36017428568947
 20
-19.17168076777652
 10
14.38897528394616
 20
-19.15049343054224
 10
14.44485473271691
 20
-19.1293405442628
 10
14.50412760054063
 20
-19.1293405442628
 10
14.61251030450659
 20
-19.1293405442628
 10
14.66162014064883
 20
-19.19369492792727
 10
14.66162014064883
 20
-19.26056423129597
 10
14.66162014064883
 20
-19.31730495393803
 10
14.62775485202882
 20
-19.36557074168638
 10
14.56000704931139
 20
-19.39013427249622
 10
14.56000704931139
 20
-19.39013427249622
 10
14.56000704931139
 20
-19.39182236928399
 10
14.56000704931139
 20
-19.39182236928399
 10
14.62775485202882
 20
-19.40536159454102
 10
14.68279025240569
 20
-19.45617675294845
 10
14.68279025240569
 20
-19.53324353895349
 10
14.68279025240569
 20
-19.62130017955647
 10
14.61419840129437
 20
-19.69833251460667
 10
14.48211344038989
 20
-19.69833251460667
 10
14.42030842738451
 20
-19.69833251460667
 10
14.36611707540153
 20
-19.678867725115
 10
14.33902139941003
 20
-19.66109103241111
 10
14.33902139941003
 20
-19.66109103241111
 10
14.35933023729558
 20
-19.60352348685258
 10
14.35933023729558
 20
-19.60352348685258
 97
        0
 97
        0
 75
     2
 76
     1
 98
        0
450
        0
451
        0
460
0.0
461
0.0
452
        0
462
0.0
453
        0
470

  0
SPLINE
  5
76
330
64
100
AcDbEntity
  8
Livello 2
370
     0
100
AcDbSpline
210
0.0
220
0.0
230
1.0
 70
     9
 71
     3
 72
    17
 73
    13
 74
     0
 42
0.000000001
 43
0.0000000001
 40
0.0
 40
0.0
 40
0.0
 40
0.0
 40
1.0
 40
1.0
 40
1.0
 40
2.0
 40
2.0
 40
2.0
 40
3.0
 40
3.0
 40
3.0
 40
4.0
 40
4.0
 40
4.0
 40
4.0
 10
14.75131320160731
 20
-19.79317599331559
 30
0.0
 10
14.76995116818251
 20
-19.74322210877947
 30
0.0
 10
14.79280937672714
 20
-19.6526160975174
 30
0.0
 10
14.80212836001474
 20
-19.59081108451202
 30
0.0
 10
14.80212836001474
 20
-19.59081108451202
 30
0.0
 10
14.88510348477699
 20
-19.5823361496183
 30
0.0
 10
14.88510348477699
 20
-19.5823361496183
 30
0.0
 10
14.86563869528532
 20
-19.65430419430517
 30
0.0
 10
14.82837998761235
 20
-19.74828639914279
 30
0.0
 10
14.8046605051964
 20
-19.78811170295227
 30
0.0
 10
14.8046605051964
 20
-19.78811170295227
 30
0.0
 10
14.75131320160731
 20
-19.79317599331559
 30
0.0
 10
14.75131320160731
 20
-19.79317599331559
 30
0.0
  0
HATCH
  5
77
330
64
100
AcDbEntity
  8
Livello 2
 62
   250
420
  1842203
100
AcDbHatch
 10
0.0
 20
0.0
 30
0.0
210
0.0
220
0.0
230
1.0
  2
SOLID
 70
     1
 71
     0
 91
        1
 92
        1
 93
        1
 72
     4
 94
        3
 73
     0
 74
     0
 95
       17
 96
       13
 40
0.0
 40
0.0
 40
0.0
 40
0.0
 40
1.0
 40
1.0
 40
1.0
 40
2.0
 40
2.0
 40
2.0
 40
3.0
 40
3.0
 40
3.0
 40
4.0
 40
4.0
 40
4.0
 40
4.0
 10
14.75131320160731
 20
-19.79317599331559
 10
14.76995116818251
 20
-19.74322210877947
 10
14.79280937672714
 20
-19.6526160975174
 10
14.80212836001474
 20
-19.59081108451202
 10
14.80212836001474
 20
-19.59081108451202
 10
14.88510348477699
 20
-19.5823361496183
 10
14.88510348477699
 20
-19.5823361496183
 10
14.86563869528532
 20
-19.65430419430517
 10
14.82837998761235
 20
-19.74828639914279
 10
14.8046605051964
 20
-19.78811170295227
 10
14.8046605051964
 20
-19.78811170295227
 10
14.75131320160731
 20
-19.79317599331559
 10
14.75131320160731
 20
-19.79317599331559
 97
        0
 97
        0
 75
     2
 76
     1
 98
        0
450
        0
451
        0
460
0.0
461
0.0
452
        0
462
0.0
453
        0
470

  0
SPLINE
  5
78
330
64
100
AcDbEntity
  8
Livello 2
370
     0
100
AcDbSpline
210
0.0
220
0.0
230
1.0
 70
    11
 71
     3
 72
    50
 73
    46
 74
     0
 42
0.000000001
 43
0.0000000001
 40
0.0
 40
0.0
 40
0.0
 40
0.0
 40
1.0
 40
1.0
 40
1.0
 40
2.0
 40
2.0
 40
2.0
 40
3.0
 40
3.0
 40
3.0
 40
4.0
 40
4.0
 40
4.0
 40
5.0
 40
5.0
 40
5.0
 40
6.0
 40
6.0
 40
6.0
 40
7.0
 40
7.0
 40
7.0
 40
8.0
 40
8.0
 40
8.0
 40
9.0
 40
9.0
 40
9.0
 40
10.0
 40
10.0
 40
10.0
 40
11.0
 40
11.0
 40
11.0
 40
12.0
 40
12.0
 40
12.0
 40
13.0
 40
13.0
 40
13.0
 40
14.0
 40
14.0
 40
14.0
 40
15.0
 40
15.0
 40
15.0
 40
15.0
 10
15.27968749618008
 20
-19.20130858894967
 30
0.0
 10
15.27968749618008
 20
-19.20130858894967
 30
0.0
 10
15.06967447539925
 20
-19.20130858894967
 30
0.0
 10
15.06967447539925
 20
-19.20130858894967
 30
0.0
 10
15.06967447539925
 20
-19.20130858894967
 30
0.0
 10
15.04852158911981
 20
-19.34272975861918
 30
0.0
 10
15.04852158911981
 20
-19.34272975861918
 30
0.0
 10
15.06119954050553
 20
-19.34100721087655
 30
0.0
 10
15.07308511992964
 20
-19.33931911408878
 30
0.0
 10
15.09337673233777
 20
-19.33931911408878
 30
0.0
 10
15.13571695585149
 20
-19.33931911408878
 30
0.0
 10
15.17805717936521
 20
-19.34865532285381
 30
0.0
 10
15.21192246798521
 20
-19.36894693526193
 30
0.0
 10
15.25512396537025
 20
-19.39351046607176
 30
0.0
 10
15.29067735077802
 20
-19.44094943090365
 30
0.0
 10
15.29067735077802
 20
-19.51036810493143
 30
0.0
 10
15.29067735077802
 20
-19.61788953502608
 30
0.0
 10
15.20517008083412
 20
-19.69833251460667
 30
0.0
 10
15.08576307131536
 20
-19.69833251460667
 30
0.0
 10
15.02564615509775
 20
-19.69833251460667
 30
0.0
 10
14.97483099669032
 20
-19.68141709577409
 30
0.0
 10
14.94861382004757
 20
-19.66446722598666
 30
0.0
 10
14.94861382004757
 20
-19.66446722598666
 30
0.0
 10
14.96721733566792
 20
-19.60776095429945
 30
0.0
 10
14.96721733566792
 20
-19.60776095429945
 30
0.0
 10
14.99009276968998
 20
-19.62130017955647
 30
0.0
 10
15.03494791290793
 20
-19.63821559838906
 30
0.0
 10
15.0849362483989
 20
-19.63821559838906
 30
0.0
 10
15.155216196298
 20
-19.63821559838906
 30
0.0
 10
15.21533311251561
 20
-19.59249918129979
 30
0.0
 10
15.21533311251561
 20
-19.51884303982515
 30
0.0
 10
15.2144718386443
 20
-19.44770181805474
 30
0.0
 10
15.16706732476726
 20
-19.39692111060216
 30
0.0
 10
15.05699652401353
 20
-19.39692111060216
 30
0.0
 10
15.02564615509775
 20
-19.39692111060216
 30
0.0
 10
15.00108262428792
 20
-19.4002973041777
 30
0.0
 10
14.98075656092495
 20
-19.40284667483679
 30
0.0
 10
14.98075656092495
 20
-19.40284667483679
 30
0.0
 10
15.01634439728758
 20
-19.13864230207298
 30
0.0
 10
15.01634439728758
 20
-19.13864230207298
 30
0.0
 10
15.01634439728758
 20
-19.13864230207298
 30
0.0
 10
15.27968749618008
 20
-19.13864230207298
 30
0.0
 10
15.27968749618008
 20
-19.13864230207298
 30
0.0
 10
15.27968749618008
 20
-19.13864230207298
 30
0.0
 10
15.27968749618008
 20
-19.20130858894967
 30
0.0
 10
15.27968749618008
 20
-19.20130858894967
 30
0.0
  0
HATCH
  5
79
330
64
100
AcDbEntity
  8
Livello 2
 62
   250
420
  1842203
100
AcDbHatch
 10
0.0
 20
0.0
 30
0.0
210
0.0
220
0.0
230
1.0
  2
SOLID
 70
     1
 71
     0
 91
        1
 92
        1
 93
        1
 72
     4
 94
        3
 73
     0
 74
     0
 95
       50
 96
       46
 40
0.0
 40
0.0
 40
0.0
 40
0.0
 40
1.0
 40
1.0
 40
1.0
 40
2.0
 40
2.0
 40
2.0
 40
3.0
 40
3.0
 40
3.0
 40
4.0
 40
4.0
 40
4.0
 40
5.0
 40
5.0
 40
5.0
 40
6.0
 40
6.0
 40
6.0
 40
7.0
 40
7.0
 40
7.0
 40
8.0
 40
8.0
 40
8.0
 40
9.0
 40
9.0
 40
9.0
 40
10.0
 40
10.0
 40
10.0
 40
11.0
 40
11.0
 40
11.0
 40
12.0
 40
12.0
 40
12.0
 40
13.0
 40
13.0
 40
13.0
 40
14.0
 40
14.0
 40
14.0
 40
15.0
 40
15.0
 40
15.0
 40
15.0
 10
15.27968749618008
 20
-19.20130858894967
 10
15.27968749618008
 20
-19.20130858894967
 10
15.06967447539925
 20
-19.20130858894967
 10
15.06967447539925
 20
-19.20130858894967
 10
15.06967447539925
 20
-19.20130858894967
 10
15.04852158911981
 20
-19.34272975861918
 10
15.04852158911981
 20
-19.34272975861918
 10
15.06119954050553
 20
-19.34100721087655
 10
15.07308511992964
 20
-19.33931911408878
 10
15.09337673233777
 20
-19.33931911408878
 10
15.13571695585149
 20
-19.33931911408878
 10
15.17805717936521
 20
-19.34865532285381
 10
15.21192246798521
 20
-19.36894693526193
 10
15.25512396537025
 20
-19.39351046607176
 10
15.29067735077802
 20
-19.44094943090365
 10
15.29067735077802
 20
-19.51036810493143
 10
15.29067735077802
 20
-19.61788953502608
 10
15.20517008083412
 20
-19.69833251460667
 10
15.08576307131536
 20
-19.69833251460667
 10
15.02564615509775
 20
-19.69833251460667
 10
14.97483099669032
 20
-19.68141709577409
 10
14.94861382004757
 20
-19.66446722598666
 10
14.94861382004757
 20
-19.66446722598666
 10
14.96721733566792
 20
-19.60776095429945
 10
14.96721733566792
 20
-19.60776095429945
 10
14.99009276968998
 20
-19.62130017955647
 10
15.03494791290793
 20
-19.63821559838906
 10
15.0849362483989
 20
-19.63821559838906
 10
15.155216196298
 20
-19.63821559838906
 10
15.21533311251561
 20
-19.59249918129979
 10
15.21533311251561
 20
-19.51884303982515
 10
15.2144718386443
 20
-19.44770181805474
 10
15.16706732476726
 20
-19.39692111060216
 10
15.05699652401353
 20
-19.39692111060216
 10
15.02564615509775
 20
-19.39692111060216
 10
15.00108262428792
 20
-19.4002973041777
 10
14.98075656092495
 20
-19.40284667483679
 10
14.98075656092495
 20
-19.40284667483679
 10
15.01634439728758
 20
-19.13864230207298
 10
15.01634439728758
 20
-19.13864230207298
 10
15.01634439728758
 20
-19.13864230207298
 10
15.27968749618008
 20
-19.13864230207298
 10
15.27968749618008
 20
-19.13864230207298
 10
15.27968749618008
 20
-19.13864230207298
 10
15.27968749618008
 20
-19.20130858894967
 10
15.27968749618008
 20
-19.20130858894967
 97
        0
 97
        0
 75
     2
 76
     1
 98
        0
450
        0
451
        0
460
0.0
461
0.0
452
        0
462
0.0
453
        0
470

  0
ENDBLK
  5
67
330
64
100
AcDbEntity
  8
0
100
AcDbBlockEnd
  0
BLOCK
  5
7C
330
7A
100
AcDbEntity
  8
0
100
AcDbBlockBegin
  2
block 6
 70
     0
 10
0.0
 20
0.0
 30
0.0
  3
block 6
  1

  0
SPLINE
  5
7E
330
7A
100
AcDbEntity
  8
Livello 2
370
     0
100
AcDbSpline
210
0.0
220
0.0
230
1.0
 70
     9
 71
     3
 72
    38
 73
    34
 74
     0
 42
0.000000001
 43
0.0000000001
 40
0.0
 40
0.0
 40
0.0
 40
0.0
 40
1.0
 40
1.0
 40
1.0
 40
2.0
 40
2.0
 40
2.0
 40
3.0
 40
3.0
 40
3.0
 40
4.0
 40
4.0
 40
4.0
 40
5.0
 40
5.0
 40
5.0
 40
6.0
 40
6.0
 40
6.0
 40
7.0
 40
7.0
 40
7.0
 40
8.0
 40
8.0
 40
8.0
 40
9.0
 40
9.0
 40
9.0
 40
10.0
 40
10.0
 40
10.0
 40
11.0
 40
11.0
 40
11.0
 40
11.0
 10
17.03751301657395
 20
-12.34570637712191
 30
0.0
 10
17.03665174270264
 20
-12.36093369916671
 30
0.0
 10
17.03751301657395
 20
-12.38039848865837
 30
0.0
 10
17.0408892101495
 20
-12.40158582589266
 30
0.0
 10
17.06038845059601
 20
-12.51844346475233
 30
0.0
 10
17.14589572053992
 20
-12.58024847775772
 30
0.0
 10
17.23650173180198
 20
-12.59292642914343
 30
0.0
 10
17.23650173180198
 20
-12.59292642914343
 30
0.0
 10
17.23650173180198
 20
-12.59037705848435
 30
0.0
 10
17.23650173180198
 20
-12.59037705848435
 30
0.0
 10
17.20177516931066
 20
-12.56412543088675
 30
0.0
 10
17.17300862200883
 20
-12.51844346475233
 30
0.0
 10
17.17300862200883
 20
-12.45746527466341
 30
0.0
 10
17.17300862200883
 20
-12.36010687625025
 30
0.0
 10
17.24328856990793
 20
-12.29148057418407
 30
0.0
 10
17.35081000000257
 20
-12.29148057418407
 30
0.0
 10
17.45157904294613
 20
-12.29148057418407
 30
0.0
 10
17.54469997391244
 20
-12.36010687625025
 30
0.0
 10
17.54469997391244
 20
-12.47441514445084
 30
0.0
 10
17.54469997391244
 20
-12.59209960622697
 30
0.0
 10
17.4532671397339
 20
-12.66913194127716
 30
0.0
 10
17.31015787327663
 20
-12.66913194127716
 30
0.0
 10
17.20177516931066
 20
-12.66913194127716
 30
0.0
 10
17.11626789936676
 20
-12.63020236229384
 30
0.0
 10
17.06207654738379
 20
-12.57601101031086
 30
0.0
 10
17.01718695321098
 20
-12.53029459322159
 30
0.0
 10
16.9892472288256
 20
-12.46931640313267
 30
0.0
 10
16.98077229393189
 20
-12.39986327815003
 30
0.0
 10
16.97739610035634
 20
-12.37788356895414
 30
0.0
 10
16.97653482648503
 20
-12.35924560237894
 30
0.0
 10
16.97653482648503
 20
-12.34570637712191
 30
0.0
 10
16.97653482648503
 20
-12.34570637712191
 30
0.0
 10
17.03751301657395
 20
-12.34570637712191
 30
0.0
 10
17.03751301657395
 20
-12.34570637712191
 30
0.0
  0
SPLINE
  5
7F
330
7A
100
AcDbEntity
  8
Livello 2
370
     0
100
AcDbSpline
210
0.0
220
0.0
230
1.0
 70
    11
 71
     3
 72
    20
 73
    16
 74
     0
 42
0.000000001
 43
0.0000000001
 40
0.0
 40
0.0
 40
0.0
 40
0.0
 40
1.0
 40
1.0
 40
1.0
 40
2.0
 40
2.0
 40
2.0
 40
3.0
 40
3.0
 40
3.0
 40
4.0
 40
4.0
 40
4.0
 40
5.0
 40
5.0
 40
5.0
 40
5.0
 10
17.35504746744943
 20
-12.36685926340134
 30
0.0
 10
17.27629258465662
 20
-12.36685926340134
 30
0.0
 10
17.22888807077958
 20
-12.41171440661929
 30
0.0
 10
17.22888807077958
 20
-12.48034070868547
 30
0.0
 10
17.22888807077958
 20
-12.52519585190342
 30
0.0
 10
17.25682779516496
 20
-12.56667480154583
 30
0.0
 10
17.2966186480196
 20
-12.5870008649088
 30
0.0
 10
17.30509358291331
 20
-12.59209960622697
 30
0.0
 10
17.31608343751126
 20
-12.59547579980252
 30
0.0
 10
17.32965711372314
 20
-12.59547579980252
 30
0.0
 10
17.42022867403036
 20
-12.59378770301475
 30
0.0
 10
17.48713242835391
 20
-12.55227430241749
 30
0.0
 10
17.48713242835391
 20
-12.47441514445084
 30
0.0
 10
17.48713242835391
 20
-12.41006076078637
 30
0.0
 10
17.43380235024224
 20
-12.36685926340134
 30
0.0
 10
17.35504746744943
 20
-12.36685926340134
 30
0.0
  0
HATCH
  5
80
330
7A
100
AcDbEntity
  8
Livello 2
 62
   250
420
  1842203
100
AcDbHatch
 10
0.0
 20
0.0
 30
0.0
210
0.0
220
0.0
230
1.0
  2
SOLID
 70
     1
 71
     0
 91
        2
 92
        1
 93
        1
 72
     4
 94
        3
 73
     0
 74
     0
 95
       38
 96
       34
 40
0.0
 40
0.0
 40
0.0
 40
0.0
 40
1.0
 40
1.0
 40
1.0
 40
2.0
 40
2.0
 40
2.0
 40
3.0
 40
3.0
 40
3.0
 40
4.0
 40
4.0
 40
4.0
 40
5.0
 40
5.0
 40
5.0
 40
6.0
 40
6.0
 40
6.0
 40
7.0
 40
7.0
 40
7.0
 40
8.0
 40
8.0
 40
8.0
 40
9.0
 40
9.0
 40
9.0
 40
10.0
 40
10.0
 40
10.0
 40
11.0
 40
11.0
 40
11.0
 40
11.0
 10
17.03751301657395
 20
-12.34570637712191
 10
17.03665174270264
 20
-12.36093369916671
 10
17.03751301657395
 20
-12.38039848865837
 10
17.0408892101495
 20
-12.40158582589266
 10
17.06038845059601
 20
-12.51844346475233
 10
17.14589572053992
 20
-12.58024847775772
 10
17.23650173180198
 20
-12.59292642914343
 10
17.23650173180198
 20
-12.59292642914343
 10
17.23650173180198
 20
-12.59037705848435
 10
17.23650173180198
 20
-12.59037705848435
 10
17.20177516931066
 20
-12.56412543088675
 10
17.17300862200883
 20
-12.51844346475233
 10
17.17300862200883
 20
-12.45746527466341
 10
17.17300862200883
 20
-12.36010687625025
 10
17.24328856990793
 20
-12.29148057418407
 10
17.35081000000257
 20
-12.29148057418407
 10
17.45157904294613
 20
-12.29148057418407
 10
17.54469997391244
 20
-12.36010687625025
 10
17.54469997391244
 20
-12.47441514445084
 10
17.54469997391244
 20
-12.59209960622697
 10
17.4532671397339
 20
-12.66913194127716
 10
17.31015787327663
 20
-12.66913194127716
 10
17.20177516931066
 20
-12.66913194127716
 10
17.11626789936676
 20
-12.63020236229384
 10
17.06207654738379
 20
-12.57601101031086
 10
17.01718695321098
 20
-12.53029459322159
 10
16.9892472288256
 20
-12.46931640313267
 10
16.98077229393189
 20
-12.39986327815003
 10
16.97739610035634
 20
-12.37788356895414
 10
16.97653482648503
 20
-12.35924560237894
 10
16.97653482648503
 20
-12.34570637712191
 10
16.97653482648503
 20
-12.34570637712191
 10
17.03751301657395
 20
-12.34570637712191
 10
17.03751301657395
 20
-12.34570637712191
 97
        0
 97
        0
 92
        1
 93
        1
 72
     4
 94
        3
 73
     0
 74
     0
 95
       20
 96
       16
 40
0.0
 40
0.0
 40
0.0
 40
0.0
 40
1.0
 40
1.0
 40
1.0
 40
2.0
 40
2.0
 40
2.0
 40
3.0
 40
3.0
 40
3.0
 40
4.0
 40
4.0
 40
4.0
 40
5.0
 40
5.0
 40
5.0
 40
5.0
 10
17.35504746744943
 20
-12.36685926340134
 10
17.27629258465662
 20
-12.36685926340134
 10
17.22888807077958
 20
-12.41171440661929
 10
17.22888807077958
 20
-12.48034070868547
 10
17.22888807077958
 20
-12.52519585190342
 10
17.25682779516496
 20
-12.56667480154583
 10
17.2966186480196
 20
-12.5870008649088
 10
17.30509358291331
 20
-12.59209960622697
 10
17.31608343751126
 20
-12.59547579980252
 10
17.32965711372314
 20
-12.59547579980252
 10
17.42022867403036
 20
-12.59378770301475
 10
17.48713242835391
 20
-12.55227430241749
 10
17.48713242835391
 20
-12.47441514445084
 10
17.48713242835391
 20
-12.41006076078637
 10
17.43380235024224
 20
-12.36685926340134
 10
17.35504746744943
 20
-12.36685926340134
 97
        0
 97
        0
 75
     2
 76
     1
 98
        0
450
        0
451
        0
460
0.0
461
0.0
452
        0
462
0.0
453
        0
470

  0
SPLINE
  5
81
330
7A
100
AcDbEntity
  8
Livello 2
370
     0
100
AcDbSpline
210
0.0
220
0.0
230
1.0
 70
     9
 71
     3
 72
    17
 73
    13
 74
     0
 42
0.000000001
 43
0.0000000001
 40
0.0
 40
0.0
 40
0.0
 40
0.0
 40
1.0
 40
1.0
 40
1.0
 40
2.0
 40
2.0
 40
2.0
 40
3.0
 40
3.0
 40
3.0
 40
4.0
 40
4.0
 40
4.0
 40
4.0
 10
17.25427842450586
 20
-11.85970675701771
 30
0.0
 10
17.44141601126465
 20
-11.85970675701771
 30
0.0
 10
17.54469997391244
 20
-11.9291254310455
 30
0.0
 10
17.54469997391244
 20
-12.05108181122334
 30
0.0
 10
17.54469997391244
 20
-12.15863769227284
 30
0.0
 10
17.44396538192373
 20
-12.23143255987617
 30
0.0
 10
17.26189208552828
 20
-12.23312065666394
 30
0.0
 10
17.07730386942859
 20
-12.23312065666394
 30
0.0
 10
16.97570800356857
 20
-12.15353895095467
 30
0.0
 10
16.97570800356857
 20
-12.04178005341316
 30
0.0
 10
16.97570800356857
 20
-11.92574923746995
 30
0.0
 10
17.07899196621636
 20
-11.85970675701771
 30
0.0
 10
17.25427842450586
 20
-11.85970675701771
 30
0.0
  0
SPLINE
  5
82
330
7A
100
AcDbEntity
  8
Livello 2
370
     0
100
AcDbSpline
210
0.0
220
0.0
230
1.0
 70
     9
 71
     3
 72
    17
 73
    13
 74
     0
 42
0.000000001
 43
0.0000000001
 40
0.0
 40
0.0
 40
0.0
 40
0.0
 40
1.0
 40
1.0
 40
1.0
 40
2.0
 40
2.0
 40
2.0
 40
3.0
 40
3.0
 40
3.0
 40
4.0
 40
4.0
 40
4.0
 40
4.0
 10
17.26275335939959
 20
-12.15863769227284
 30
0.0
 10
17.40586262585687
 20
-12.15863769227284
 30
0.0
 10
17.48713242835391
 20
-12.11457492101649
 30
0.0
 10
17.48713242835391
 20
-12.04684434377648
 30
0.0
 10
17.48713242835391
 20
-11.97063883164276
 30
0.0
 10
17.39821451387961
 20
-11.93422417236367
 30
0.0
 10
17.25765461808142
 20
-11.93422417236367
 30
0.0
 10
17.12219346360139
 20
-11.93422417236367
 30
0.0
 10
17.0332755491271
 20
-11.96895073485498
 30
0.0
 10
17.0332755491271
 20
-12.04598306990517
 30
0.0
 10
17.0332755491271
 20
-12.11119872744095
 30
0.0
 10
17.11289170579122
 20
-12.15863769227284
 30
0.0
 10
17.26275335939959
 20
-12.15863769227284
 30
0.0
  0
HATCH
  5
83
330
7A
100
AcDbEntity
  8
Livello 2
 62
   250
420
  1842203
100
AcDbHatch
 10
0.0
 20
0.0
 30
0.0
210
0.0
220
0.0
230
1.0
  2
SOLID
 70
     1
 71
     0
 91
        2
 92
        1
 93
        1
 72
     4
 94
        3
 73
     0
 74
     0
 95
       17
 96
       13
 40
0.0
 40
0.0
 40
0.0
 40
0.0
 40
1.0
 40
1.0
 40
1.0
 40
2.0
 40
2.0
 40
2.0
 40
3.0
 40
3.0
 40
3.0
 40
4.0
 40
4.0
 40
4.0
 40
4.0
 10
17.25427842450586
 20
-11.85970675701771
 10
17.44141601126465
 20
-11.85970675701771
 10
17.54469997391244
 20
-11.9291254310455
 10
17.54469997391244
 20
-12.05108181122334
 10
17.54469997391244
 20
-12.15863769227284
 10
17.44396538192373
 20
-12.23143255987617
 10
17.26189208552828
 20
-12.23312065666394
 10
17.07730386942859
 20
-12.23312065666394
 10
16.97570800356857
 20
-12.15353895095467
 10
16.97570800356857
 20
-12.04178005341316
 10
16.97570800356857
 20
-11.92574923746995
 10
17.07899196621636
 20
-11.85970675701771
 10
17.25427842450586
 20
-11.85970675701771
 97
        0
 97
        0
 92
        1
 93
        1
 72
     4
 94
        3
 73
     0
 74
     0
 95
       17
 96
       13
 40
0.0
 40
0.0
 40
0.0
 40
0.0
 40
1.0
 40
1.0
 40
1.0
 40
2.0
 40
2.0
 40
2.0
 40
3.0
 40
3.0
 40
3.0
 40
4.0
 40
4.0
 40
4.0
 40
4.0
 10
17.26275335939959
 20
-12.15863769227284
 10
17.40586262585687
 20
-12.15863769227284
 10
17.48713242835391
 20
-12.11457492101649
 10
17.48713242835391
 20
-12.04684434377648
 10
17.48713242835391
 20
-11.97063883164276
 10
17.39821451387961
 20
-11.93422417236367
 10
17.25765461808142
 20
-11.93422417236367
 10
17.12219346360139
 20
-11.93422417236367
 10
17.0332755491271
 20
-11.96895073485498
 10
17.0332755491271
 20
-12.04598306990517
 10
17.0332755491271
 20
-12.11119872744095
 10
17.11289170579122
 20
-12.15863769227284
 10
17.26275335939959
 20
-12.15863769227284
 97
        0
 97
        0
 75
     2
 76
     1
 98
        0
450
        0
451
        0
460
0.0
461
0.0
452
        0
462
0.0
453
        0
470

  0
ENDBLK
  5
7D
330
7A
100
AcDbEntity
  8
0
100
AcDbBlockEnd
  0
ENDSEC
  0
SECTION
  2
ENTITIES
  0
POLYLINE
  5
B7
330
1F
100
AcDbEntity
  8
0
100
AcDb2dPolyline
 66
     1
 10
0.0
 20
0.0
 30
0.0
  0
VERTEX
  5
B8
330
B7
100
AcDbEntity
  8
0
100
AcDbVertex
100
AcDb2dVertex
 10
16.04868620167501
 20
-18.40280093984377
 30
0.0
  0
VERTEX
  5
B9
330
B7
100
AcDbEntity
  8
0
100
AcDbVertex
100
AcDb2dVertex
 10
13.06441205558797
 20
-18.40280093984377
 30
0.0
  0
VERTEX
  5
BA
330
B7
100
AcDbEntity
  8
0
100
AcDbVertex
100
AcDb2dVertex
 10
13.06441205558797
 20
-18.20639191211506
 30
0.0
  0
VERTEX
  5
BB
330
B7
100
AcDbEntity
  8
0
100
AcDbVertex
100
AcDb2dVertex
 10
16.04868620167501
 20
-18.20639191211506
 30
0.0
  0
VERTEX
  5
BC
330
B7
100
AcDbEntity
  8
0
100
AcDbVertex
100
AcDb2dVertex
 10
16.04868620167501
 20
-18.40280093984377
 30
0.0
  0
SEQEND
  5
BD
330
B7
100
AcDbEntity
  8
0
  0
SPLINE
  5
BE
330
1F
100
AcDbEntity
  8
0
100
AcDbSpline
210
0.0
220
0.0
230
1.0
 70
     9
 71
     3
 72
    47
 73
    43
 74
     0
 42
0.000000001
 43
0.0000000001
 40
0.0
 40
0.0
 40
0.0
 40
0.0
 40
1.0
 40
1.0
 40
1.0
 40
2.0
 40
2.0
 40
2.0
 40
3.0
 40
3.0
 40
3.0
 40
4.0
 40
4.0
 40
4.0
 40
5.0
 40
5.0
 40
5.0
 40
6.0
 40
6.0
 40
6.0
 40
7.0
 40
7.0
 40
7.0
 40
8.0
 40
8.0
 40
8.0
 40
9.0
 40
9.0
 40
9.0
 40
10.0
 40
10.0
 40
10.0
 40
11.0
 40
11.0
 40
11.0
 40
12.0
 40
12.0
 40
12.0
 40
13.0
 40
13.0
 40
13.0
 40
14.0
 40
14.0
 40
14.0
 40
14.0
 10
14.59469146099173
 20
-6.690924442771705
 30
0.0
 10
14.4436143815127
 20
-6.690924442771705
 30
0.0
 10
14.30253502400082
 20
-6.684895470550987
 30
0.0
 10
14.18302449927201
 20
-6.674534387220269
 30
0.0
 10
14.18302449927201
 20
-6.674534387220269
 30
0.0
 10
14.06044128017715
 20
-6.663044415000907
 30
0.0
 10
14.06044128017715
 20
-6.663044415000907
 30
0.0
 10
13.94856486636468
 20
-6.690924442771705
 30
0.0
 10
13.96533239371469
 20
-6.797286942745125
 30
0.0
 10
13.96533239371469
 20
-6.797286942745125
 30
0.0
 10
13.96533239371469
 20
-6.797286942745125
 30
0.0
 10
13.96533239371469
 20
-11.47363155268717
 30
0.0
 10
13.96533239371469
 20
-11.47363155268717
 30
0.0
 10
13.96533239371469
 20
-11.47363155268717
 30
0.0
 10
13.94298744984031
 20
-11.64142677486745
 30
0.0
 10
14.13873677817966
 20
-11.68068388596871
 30
0.0
 10
14.14994100011604
 20
-11.68626483041175
 30
0.0
 10
14.35129243942358
 20
-11.72533144151313
 30
0.0
 10
14.54706646220675
 20
-11.72533144151313
 30
0.0
 10
14.54706646220675
 20
-11.72533144151313
 30
0.0
 10
14.56595771172479
 20
-11.72533144151313
 30
0.0
 10
14.56595771172479
 20
-11.72533144151313
 30
0.0
 10
14.76178112339559
 20
-11.72533144151313
 30
0.0
 10
14.96313256270313
 20
-11.68626483041175
 30
0.0
 10
14.9743367846395
 20
-11.68068388596871
 30
0.0
 10
15.17013550186649
 20
-11.64142677486745
 30
0.0
 10
15.1477658635483
 20
-11.47363155268717
 30
0.0
 10
15.1477658635483
 20
-11.47363155268717
 30
0.0
 10
15.1477658635483
 20
-11.47363155268717
 30
0.0
 10
15.1477658635483
 20
-6.797286942745125
 30
0.0
 10
15.1477658635483
 20
-6.797286942745125
 30
0.0
 10
15.1477658635483
 20
-6.797286942745125
 30
0.0
 10
15.16450869645448
 20
-6.690924442771705
 30
0.0
 10
15.05263228264202
 20
-6.663044415000907
 30
0.0
 10
15.05263228264202
 20
-6.663044415000907
 30
0.0
 10
14.93004944071193
 20
-6.674534387220269
 30
0.0
 10
14.93004944071193
 20
-6.674534387220269
 30
0.0
 10
14.81051384437453
 20
-6.684895470550987
 30
0.0
 10
14.66945918130647
 20
-6.690924442771705
 30
0.0
 10
14.51838210182743
 20
-6.690924442771705
 30
0.0
 10
14.51838210182743
 20
-6.690924442771705
 30
0.0
 10
14.59469146099173
 20
-6.690924442771705
 30
0.0
 10
14.59469146099173
 20
-6.690924442771705
 30
0.0
  0
POLYLINE
  5
BF
330
1F
100
AcDbEntity
  8
0
100
AcDb2dPolyline
 66
     1
 10
0.0
 20
0.0
 30
0.0
  0
VERTEX
  5
C0
330
BF
100
AcDbEntity
  8
0
100
AcDbVertex
100
AcDb2dVertex
 10
13.72898221878996
 20
-18.20639191211506
 30
0.0
  0
VERTEX
  5
C1
330
BF
100
AcDbEntity
  8
0
100
AcDbVertex
100
AcDb2dVertex
 10
13.72898221878996
 20
-5.142314665381103
 30
0.0
  0
VERTEX
  5
C2
330
BF
100
AcDbEntity
  8
0
100
AcDbVertex
100
AcDb2dVertex
 10
15.38411638529627
 20
-5.136430332049209
 30
0.0
  0
VERTEX
  5
C3
330
BF
100
AcDbEntity
  8
0
100
AcDbVertex
100
AcDb2dVertex
 10
15.38411638529627
 20
-18.20639191211506
 30
0.0
  0
SEQEND
  5
C4
330
BF
100
AcDbEntity
  8
0
  0
LINE
  5
C5
330
1F
100
AcDbEntity
  8
0
100
AcDbLine
 10
13.06441205558797
 20
-18.99098380080782
 30
0.0
 11
16.04868620167501
 21
-18.99098380080782
 31
0.0
  0
LINE
  5
C6
330
1F
100
AcDbEntity
  8
0
100
AcDbLine
 10
16.76870369951148
 20
-5.136430332049209
 30
0.0
 11
16.76870369951148
 21
-18.40280093984377
 31
0.0
  0
POLYLINE
  5
C7
330
1F
100
AcDbEntity
  8
0
100
AcDb2dPolyline
 66
     1
 10
0.0
 20
0.0
 30
0.0
  0
VERTEX
  5
C8
330
C7
100
AcDbEntity
  8
0
100
AcDbVertex
100
AcDb2dVertex
 10
14.0689603643213
 20
-19.20809542705561
 30
0.0
  0
VERTEX
  5
C9
330
C7
100
AcDbEntity
  8
0
100
AcDbVertex
100
AcDb2dVertex
 10
14.06727226753353
 20
-19.20809542705561
 30
0.0
  0
VERTEX
  5
CA
330
C7
100
AcDbEntity
  8
0
100
AcDbVertex
100
AcDb2dVertex
 10
13.97158474043071
 20
-19.25973740837951
 30
0.0
  0
VERTEX
  5
CB
330
C7
100
AcDbEntity
  8
0
100
AcDbVertex
100
AcDb2dVertex
 10
13.95718424130237
 20
-19.20299668573744
 30
0.0
  0
VERTEX
  5
CC
330
C7
100
AcDbEntity
  8
0
100
AcDbVertex
100
AcDb2dVertex
 10
14.07741807373759
 20
-19.13864230207298
 30
0.0
  0
VERTEX
  5
CD
330
C7
100
AcDbEntity
  8
0
100
AcDbVertex
100
AcDb2dVertex
 10
14.14092840900817
 20
-19.13864230207298
 30
0.0
  0
VERTEX
  5
CE
330
C7
100
AcDbEntity
  8
0
100
AcDbVertex
100
AcDb2dVertex
 10
14.14092840900817
 20
-19.68903075679649
 30
0.0
  0
VERTEX
  5
CF
330
C7
100
AcDbEntity
  8
0
100
AcDbVertex
100
AcDb2dVertex
 10
14.0689603643213
 20
-19.68903075679649
 30
0.0
  0
VERTEX
  5
D0
330
C7
100
AcDbEntity
  8
0
100
AcDbVertex
100
AcDb2dVertex
 10
14.0689603643213
 20
-19.20809542705561
 30
0.0
  0
SEQEND
  5
D1
330
C7
100
AcDbEntity
  8
0
  0
HATCH
  5
D2
330
1F
100
AcDbEntity
  8
0
100
AcDbHatch
 10
0.0
 20
0.0
 30
0.0
210
0.0
220
0.0
230
1.0
  2
SOLID
 70
     1
 71
     0
 91
        1
 92
        1
 93
        8
 72
     1
 10
14.0689603643213
 20
-19.20809542705561
 11
14.06727226753353
 21
-19.20809542705561
 72
     1
 10
14.06727226753353
 20
-19.20809542705561
 11
13.97158474043071
 21
-19.25973740837951
 72
     1
 10
13.97158474043071
 20
-19.25973740837951
 11
13.95718424130237
 21
-19.20299668573744
 72
     1
 10
13.95718424130237
 20
-19.20299668573744
 11
14.07741807373759
 21
-19.13864230207298
 72
     1
 10
14.07741807373759
 20
-19.13864230207298
 11
14.14092840900817
 21
-19.13864230207298
 72
     1
 10
14.14092840900817
 20
-19.13864230207298
 11
14.14092840900817
 21
-19.68903075679649
 72
     1
 10
14.14092840900817
 20
-19.68903075679649
 11
14.0689603643213
 21
-19.68903075679649
 72
     1
 10
14.0689603643213
 20
-19.68903075679649
 11
14.0689603643213
 21
-19.20809542705561
 97
        0
 75
     2
 76
     1
 98
        0
450
        0
451
        0
460
0.0
461
0.0
452
        0
462
0.0
453
        0
470

  0
SPLINE
  5
D3
330
1F
100
AcDbEntity
  8
0
100
AcDbSpline
210
0.0
220
0.0
230
1.0
 70
     9
 71
     3
 72
    59
 73
    55
 74
     0
 42
0.000000001
 43
0.0000000001
 40
0.0
 40
0.0
 40
0.0
 40
0.0
 40
1.0
 40
1.0
 40
1.0
 40
2.0
 40
2.0
 40
2.0
 40
3.0
 40
3.0
 40
3.0
 40
4.0
 40
4.0
 40
4.0
 40
5.0
 40
5.0
 40
5.0
 40
6.0
 40
6.0
 40
6.0
 40
7.0
 40
7.0
 40
7.0
 40
8.0
 40
8.0
 40
8.0
 40
9.0
 40
9.0
 40
9.0
 40
10.0
 40
10.0
 40
10.0
 40
11.0
 40
11.0
 40
11.0
 40
12.0
 40
12.0
 40
12.0
 40
13.0
 40
13.0
 40
13.0
 40
14.0
 40
14.0
 40
14.0
 40
15.0
 40
15.0
 40
15.0
 40
16.0
 40
16.0
 40
16.0
 40
17.0
 40
17.0
 40
17.0
 40
18.0
 40
18.0
 40
18.0
 40
18.0
 10
14.35933023729558
 20
-19.60352348685258
 30
0.0
 10
14.38050034905244
 20
-19.61706271210962
 30
0.0
 10
14.42961018519468
 20
-19.63821559838906
 30
0.0
 10
14.481269391996
 20
-19.63821559838906
 30
0.0
 10
14.57693969362139
 20
-19.63821559838906
 30
0.0
 10
14.60658474027196
 20
-19.57727185925499
 30
0.0
 10
14.60574069187808
 20
-19.53152099121087
 30
0.0
 10
14.60489664348419
 20
-19.45448865616068
 30
0.0
 10
14.53546074397898
 20
-19.42145019045714
 30
0.0
 10
14.46349269929211
 20
-19.42145019045714
 30
0.0
 10
14.46349269929211
 20
-19.42145019045714
 30
0.0
 10
14.42199652417228
 20
-19.42145019045714
 30
0.0
 10
14.42199652417228
 20
-19.42145019045714
 30
0.0
 10
14.42199652417228
 20
-19.42145019045714
 30
0.0
 10
14.42199652417228
 20
-19.36557074168638
 30
0.0
 10
14.42199652417228
 20
-19.36557074168638
 30
0.0
 10
14.42199652417228
 20
-19.36557074168638
 30
0.0
 10
14.46349269929211
 20
-19.36557074168638
 30
0.0
 10
14.46349269929211
 20
-19.36557074168638
 30
0.0
 10
14.51768405127508
 20
-19.36557074168638
 30
0.0
 10
14.58625867690899
 20
-19.33763101730101
 30
0.0
 10
14.58625867690899
 20
-19.27244981072008
 30
0.0
 10
14.58625867690899
 20
-19.22838703946374
 30
0.0
 10
14.55831895252361
 20
-19.18945746048041
 30
0.0
 10
14.48972710141229
 20
-19.18945746048041
 30
0.0
 10
14.4456987811108
 20
-19.18945746048041
 30
0.0
 10
14.40335855759708
 20
-19.20892224997207
 30
0.0
 10
14.37965630065856
 20
-19.2258721197595
 30
0.0
 10
14.37965630065856
 20
-19.2258721197595
 30
0.0
 10
14.36017428568947
 20
-19.17168076777652
 30
0.0
 10
14.36017428568947
 20
-19.17168076777652
 30
0.0
 10
14.38897528394616
 20
-19.15049343054224
 30
0.0
 10
14.44485473271691
 20
-19.1293405442628
 30
0.0
 10
14.50412760054063
 20
-19.1293405442628
 30
0.0
 10
14.61251030450659
 20
-19.1293405442628
 30
0.0
 10
14.66162014064883
 20
-19.19369492792727
 30
0.0
 10
14.66162014064883
 20
-19.26056423129597
 30
0.0
 10
14.66162014064883
 20
-19.31730495393803
 30
0.0
 10
14.62775485202882
 20
-19.36557074168638
 30
0.0
 10
14.56000704931139
 20
-19.39013427249622
 30
0.0
 10
14.56000704931139
 20
-19.39013427249622
 30
0.0
 10
14.56000704931139
 20
-19.39182236928399
 30
0.0
 10
14.56000704931139
 20
-19.39182236928399
 30
0.0
 10
14.62775485202882
 20
-19.40536159454102
 30
0.0
 10
14.68279025240569
 20
-19.45617675294845
 30
0.0
 10
14.68279025240569
 20
-19.53324353895349
 30
0.0
 10
14.68279025240569
 20
-19.62130017955647
 30
0.0
 10
14.61419840129437
 20
-19.69833251460667
 30
0.0
 10
14.48211344038989
 20
-19.69833251460667
 30
0.0
 10
14.42030842738451
 20
-19.69833251460667
 30
0.0
 10
14.36611707540153
 20
-19.678867725115
 30
0.0
 10
14.33902139941003
 20
-19.66109103241111
 30
0.0
 10
14.33902139941003
 20
-19.66109103241111
 30
0.0
 10
14.35933023729558
 20
-19.60352348685258
 30
0.0
 10
14.35933023729558
 20
-19.60352348685258
 30
0.0
  0
HATCH
  5
D4
330
1F
100
AcDbEntity
  8
0
100
AcDbHatch
 10
0.0
 20
0.0
 30
0.0
210
0.0
220
0.0
230
1.0
  2
SOLID
 70
     1
 71
     0
 91
        1
 92
        1
 93
        1
 72
     4
 94
        3
 73
     0
 74
     0
 95
       59
 96
       55
 40
0.0
 40
0.0
 40
0.0
 40
0.0
 40
1.0
 40
1.0
 40
1.0
 40
2.0
 40
2.0
 40
2.0
 40
3.0
 40
3.0
 40
3.0
 40
4.0
 40
4.0
 40
4.0
 40
5.0
 40
5.0
 40
5.0
 40
6.0
 40
6.0
 40
6.0
 40
7.0
 40
7.0
 40
7.0
 40
8.0
 40
8.0
 40
8.0
 40
9.0
 40
9.0
 40
9.0
 40
10.0
 40
10.0
 40
10.0
 40
11.0
 40
11.0
 40
11.0
 40
12.0
 40
12.0
 40
12.0
 40
13.0
 40
13.0
 40
13.0
 40
14.0
 40
14.0
 40
14.0
 40
15.0
 40
15.0
 40
15.0
 40
16.0
 40
16.0
 40
16.0
 40
17.0
 40
17.0
 40
17.0
 40
18.0
 40
18.0
 40
18.0
 40
18.0
 10
14.35933023729558
 20
-19.60352348685258
 10
14.38050034905244
 20
-19.61706271210962
 10
14.42961018519468
 20
-19.63821559838906
 10
14.481269391996
 20
-19.63821559838906
 10
14.57693969362139
 20
-19.63821559838906
 10
14.60658474027196
 20
-19.57727185925499
 10
14.60574069187808
 20
-19.53152099121087
 10
14.60489664348419
 20
-19.45448865616068
 10
14.53546074397898
 20
-19.42145019045714
 10
14.46349269929211
 20
-19.42145019045714
 10
14.46349269929211
 20
-19.42145019045714
 10
14.42199652417228
 20
-19.42145019045714
 10
14.42199652417228
 20
-19.42145019045714
 10
14.42199652417228
 20
-19.42145019045714
 10
14.42199652417228
 20
-19.36557074168638
 10
14.42199652417228
 20
-19.36557074168638
 10
14.42199652417228
 20
-19.36557074168638
 10
14.46349269929211
 20
-19.36557074168638
 10
14.46349269929211
 20
-19.36557074168638
 10
14.51768405127508
 20
-19.36557074168638
 10
14.58625867690899
 20
-19.33763101730101
 10
14.58625867690899
 20
-19.27244981072008
 10
14.58625867690899
 20
-19.22838703946374
 10
14.55831895252361
 20
-19.18945746048041
 10
14.48972710141229
 20
-19.18945746048041
 10
14.4456987811108
 20
-19.18945746048041
 10
14.40335855759708
 20
-19.20892224997207
 10
14.37965630065856
 20
-19.2258721197595
 10
14.37965630065856
 20
-19.2258721197595
 10
14.36017428568947
 20
-19.17168076777652
 10
14.36017428568947
 20
-19.17168076777652
 10
14.38897528394616
 20
-19.15049343054224
 10
14.44485473271691
 20
-19.1293405442628
 10
14.50412760054063
 20
-19.1293405442628
 10
14.61251030450659
 20
-19.1293405442628
 10
14.66162014064883
 20
-19.19369492792727
 10
14.66162014064883
 20
-19.26056423129597
 10
14.66162014064883
 20
-19.31730495393803
 10
14.62775485202882
 20
-19.36557074168638
 10
14.56000704931139
 20
-19.39013427249622
 10
14.56000704931139
 20
-19.39013427249622
 10
14.56000704931139
 20
-19.39182236928399
 10
14.56000704931139
 20
-19.39182236928399
 10
14.62775485202882
 20
-19.40536159454102
 10
14.68279025240569
 20
-19.45617675294845
 10
14.68279025240569
 20
-19.53324353895349
 10
14.68279025240569
 20
-19.62130017955647
 10
14.61419840129437
 20
-19.69833251460667
 10
14.48211344038989
 20
-19.69833251460667
 10
14.42030842738451
 20
-19.69833251460667
 10
14.36611707540153
 20
-19.678867725115
 10
14.33902139941003
 20
-19.66109103241111
 10
14.33902139941003
 20
-19.66109103241111
 10
14.35933023729558
 20
-19.60352348685258
 10
14.35933023729558
 20
-19.60352348685258
 97
        0
 97
        0
 75
     2
 76
     1
 98
        0
450
        0
451
        0
460
0.0
461
0.0
452
        0
462
0.0
453
        0
470

  0
SPLINE
  5
D5
330
1F
100
AcDbEntity
  8
0
100
AcDbSpline
210
0.0
220
0.0
230
1.0
 70
     9
 71
     3
 72
    17
 73
    13
 74
     0
 42
0.000000001
 43
0.0000000001
 40
0.0
 40
0.0
 40
0.0
 40
0.0
 40
1.0
 40
1.0
 40
1.0
 40
2.0
 40
2.0
 40
2.0
 40
3.0
 40
3.0
 40
3.0
 40
4.0
 40
4.0
 40
4.0
 40
4.0
 10
14.75131320160731
 20
-19.79317599331559
 30
0.0
 10
14.76995116818251
 20
-19.74322210877947
 30
0.0
 10
14.79280937672714
 20
-19.6526160975174
 30
0.0
 10
14.80212836001474
 20
-19.59081108451202
 30
0.0
 10
14.80212836001474
 20
-19.59081108451202
 30
0.0
 10
14.88510348477699
 20
-19.5823361496183
 30
0.0
 10
14.88510348477699
 20
-19.5823361496183
 30
0.0
 10
14.86563869528532
 20
-19.65430419430517
 30
0.0
 10
14.82837998761235
 20
-19.74828639914279
 30
0.0
 10
14.8046605051964
 20
-19.78811170295227
 30
0.0
 10
14.8046605051964
 20
-19.78811170295227
 30
0.0
 10
14.75131320160731
 20
-19.79317599331559
 30
0.0
 10
14.75131320160731
 20
-19.79317599331559
 30
0.0
  0
HATCH
  5
D6
330
1F
100
AcDbEntity
  8
0
100
AcDbHatch
 10
0.0
 20
0.0
 30
0.0
210
0.0
220
0.0
230
1.0
  2
SOLID
 70
     1
 71
     0
 91
        1
 92
        1
 93
        1
 72
     4
 94
        3
 73
     0
 74
     0
 95
       17
 96
       13
 40
0.0
 40
0.0
 40
0.0
 40
0.0
 40
1.0
 40
1.0
 40
1.0
 40
2.0
 40
2.0
 40
2.0
 40
3.0
 40
3.0
 40
3.0
 40
4.0
 40
4.0
 40
4.0
 40
4.0
 10
14.75131320160731
 20
-19.79317599331559
 10
14.76995116818251
 20
-19.74322210877947
 10
14.79280937672714
 20
-19.6526160975174
 10
14.80212836001474
 20
-19.59081108451202
 10
14.80212836001474
 20
-19.59081108451202
 10
14.88510348477699
 20
-19.5823361496183
 10
14.88510348477699
 20
-19.5823361496183
 10
14.86563869528532
 20
-19.65430419430517
 10
14.82837998761235
 20
-19.74828639914279
 10
14.8046605051964
 20
-19.78811170295227
 10
14.8046605051964
 20
-19.78811170295227
 10
14.75131320160731
 20
-19.79317599331559
 10
14.75131320160731
 20
-19.79317599331559
 97
        0
 97
        0
 75
     2
 76
     1
 98
        0
450
        0
451
        0
460
0.0
461
0.0
452
        0
462
0.0
453
        0
470

  0
SPLINE
  5
D7
330
1F
100
AcDbEntity
  8
0
100
AcDbSpline
210
0.0
220
0.0
230
1.0
 70
    11
 71
     3
 72
    50
 73
    46
 74
     0
 42
0.000000001
 43
0.0000000001
 40
0.0
 40
0.0
 40
0.0
 40
0.0
 40
1.0
 40
1.0
 40
1.0
 40
2.0
 40
2.0
 40
2.0
 40
3.0
 40
3.0
 40
3.0
 40
4.0
 40
4.0
 40
4.0
 40
5.0
 40
5.0
 40
5.0
 40
6.0
 40
6.0
 40
6.0
 40
7.0
 40
7.0
 40
7.0
 40
8.0
 40
8.0
 40
8.0
 40
9.0
 40
9.0
 40
9.0
 40
10.0
 40
10.0
 40
10.0
 40
11.0
 40
11.0
 40
11.0
 40
12.0
 40
12.0
 40
12.0
 40
13.0
 40
13.0
 40
13.0
 40
14.0
 40
14.0
 40
14.0
 40
15.0
 40
15.0
 40
15.0
 40
15.0
 10
15.27968749618008
 20
-19.20130858894967
 30
0.0
 10
15.27968749618008
 20
-19.20130858894967
 30
0.0
 10
15.06967447539925
 20
-19.20130858894967
 30
0.0
 10
15.06967447539925
 20
-19.20130858894967
 30
0.0
 10
15.06967447539925
 20
-19.20130858894967
 30
0.0
 10
15.04852158911981
 20
-19.34272975861918
 30
0.0
 10
15.04852158911981
 20
-19.34272975861918
 30
0.0
 10
15.06119954050553
 20
-19.34100721087655
 30
0.0
 10
15.07308511992964
 20
-19.33931911408878
 30
0.0
 10
15.09337673233777
 20
-19.33931911408878
 30
0.0
 10
15.13571695585149
 20
-19.33931911408878
 30
0.0
 10
15.17805717936521
 20
-19.34865532285381
 30
0.0
 10
15.21192246798521
 20
-19.36894693526193
 30
0.0
 10
15.25512396537025
 20
-19.39351046607176
 30
0.0
 10
15.29067735077802
 20
-19.44094943090365
 30
0.0
 10
15.29067735077802
 20
-19.51036810493143
 30
0.0
 10
15.29067735077802
 20
-19.61788953502608
 30
0.0
 10
15.20517008083412
 20
-19.69833251460667
 30
0.0
 10
15.08576307131536
 20
-19.69833251460667
 30
0.0
 10
15.02564615509775
 20
-19.69833251460667
 30
0.0
 10
14.97483099669032
 20
-19.68141709577409
 30
0.0
 10
14.94861382004757
 20
-19.66446722598666
 30
0.0
 10
14.94861382004757
 20
-19.66446722598666
 30
0.0
 10
14.96721733566792
 20
-19.60776095429945
 30
0.0
 10
14.96721733566792
 20
-19.60776095429945
 30
0.0
 10
14.99009276968998
 20
-19.62130017955647
 30
0.0
 10
15.03494791290793
 20
-19.63821559838906
 30
0.0
 10
15.0849362483989
 20
-19.63821559838906
 30
0.0
 10
15.155216196298
 20
-19.63821559838906
 30
0.0
 10
15.21533311251561
 20
-19.59249918129979
 30
0.0
 10
15.21533311251561
 20
-19.51884303982515
 30
0.0
 10
15.2144718386443
 20
-19.44770181805474
 30
0.0
 10
15.16706732476726
 20
-19.39692111060216
 30
0.0
 10
15.05699652401353
 20
-19.39692111060216
 30
0.0
 10
15.02564615509775
 20
-19.39692111060216
 30
0.0
 10
15.00108262428792
 20
-19.4002973041777
 30
0.0
 10
14.98075656092495
 20
-19.40284667483679
 30
0.0
 10
14.98075656092495
 20
-19.40284667483679
 30
0.0
 10
15.01634439728758
 20
-19.13864230207298
 30
0.0
 10
15.01634439728758
 20
-19.13864230207298
 30
0.0
 10
15.01634439728758
 20
-19.13864230207298
 30
0.0
 10
15.27968749618008
 20
-19.13864230207298
 30
0.0
 10
15.27968749618008
 20
-19.13864230207298
 30
0.0
 10
15.27968749618008
 20
-19.13864230207298
 30
0.0
 10
15.27968749618008
 20
-19.20130858894967
 30
0.0
 10
15.27968749618008
 20
-19.20130858894967
 30
0.0
  0
HATCH
  5
D8
330
1F
100
AcDbEntity
  8
0
100
AcDbHatch
 10
0.0
 20
0.0
 30
0.0
210
0.0
220
0.0
230
1.0
  2
SOLID
 70
     1
 71
     0
 91
        1
 92
        1
 93
        1
 72
     4
 94
        3
 73
     0
 74
     0
 95
       50
 96
       46
 40
0.0
 40
0.0
 40
0.0
 40
0.0
 40
1.0
 40
1.0
 40
1.0
 40
2.0
 40
2.0
 40
2.0
 40
3.0
 40
3.0
 40
3.0
 40
4.0
 40
4.0
 40
4.0
 40
5.0
 40
5.0
 40
5.0
 40
6.0
 40
6.0
 40
6.0
 40
7.0
 40
7.0
 40
7.0
 40
8.0
 40
8.0
 40
8.0
 40
9.0
 40
9.0
 40
9.0
 40
10.0
 40
10.0
 40
10.0
 40
11.0
 40
11.0
 40
11.0
 40
12.0
 40
12.0
 40
12.0
 40
13.0
 40
13.0
 40
13.0
 40
14.0
 40
14.0
 40
14.0
 40
15.0
 40
15.0
 40
15.0
 40
15.0
 10
15.27968749618008
 20
-19.20130858894967
 10
15.27968749618008
 20
-19.20130858894967
 10
15.06967447539925
 20
-19.20130858894967
 10
15.06967447539925
 20
-19.20130858894967
 10
15.06967447539925
 20
-19.20130858894967
 10
15.04852158911981
 20
-19.34272975861918
 10
15.04852158911981
 20
-19.34272975861918
 10
15.06119954050553
 20
-19.34100721087655
 10
15.07308511992964
 20
-19.33931911408878
 10
15.09337673233777
 20
-19.33931911408878
 10
15.13571695585149
 20
-19.33931911408878
 10
15.17805717936521
 20
-19.34865532285381
 10
15.21192246798521
 20
-19.36894693526193
 10
15.25512396537025
 20
-19.39351046607176
 10
15.29067735077802
 20
-19.44094943090365
 10
15.29067735077802
 20
-19.51036810493143
 10
15.29067735077802
 20
-19.61788953502608
 10
15.20517008083412
 20
-19.69833251460667
 10
15.08576307131536
 20
-19.69833251460667
 10
15.02564615509775
 20
-19.69833251460667
 10
14.97483099669032
 20
-19.68141709577409
 10
14.94861382004757
 20
-19.66446722598666
 10
14.94861382004757
 20
-19.66446722598666
 10
14.96721733566792
 20
-19.60776095429945
 10
14.96721733566792
 20
-19.60776095429945
 10
14.99009276968998
 20
-19.62130017955647
 10
15.03494791290793
 20
-19.63821559838906
 10
15.0849362483989
 20
-19.63821559838906
 10
15.155216196298
 20
-19.63821559838906
 10
15.21533311251561
 20
-19.59249918129979
 10
15.21533311251561
 20
-19.51884303982515
 10
15.2144718386443
 20
-19.44770181805474
 10
15.16706732476726
 20
-19.39692111060216
 10
15.05699652401353
 20
-19.39692111060216
 10
15.02564615509775
 20
-19.39692111060216
 10
15.00108262428792
 20
-19.4002973041777
 10
14.98075656092495
 20
-19.40284667483679
 10
14.98075656092495
 20
-19.40284667483679
 10
15.01634439728758
 20
-19.13864230207298
 10
15.01634439728758
 20
-19.13864230207298
 10
15.01634439728758
 20
-19.13864230207298
 10
15.27968749618008
 20
-19.13864230207298
 10
15.27968749618008
 20
-19.13864230207298
 10
15.27968749618008
 20
-19.13864230207298
 10
15.27968749618008
 20
-19.20130858894967
 10
15.27968749618008
 20
-19.20130858894967
 97
        0
 97
        0
 75
     2
 76
     1
 98
        0
450
        0
451
        0
460
0.0
461
0.0
452
        0
462
0.0
453
        0
470

  0
SPLINE
  5
D9
330
1F
100
AcDbEntity
  8
0
100
AcDbSpline
210
0.0
220
0.0
230
1.0
 70
     9
 71
     3
 72
    38
 73
    34
 74
     0
 42
0.000000001
 43
0.0000000001
 40
0.0
 40
0.0
 40
0.0
 40
0.0
 40
1.0
 40
1.0
 40
1.0
 40
2.0
 40
2.0
 40
2.0
 40
3.0
 40
3.0
 40
3.0
 40
4.0
 40
4.0
 40
4.0
 40
5.0
 40
5.0
 40
5.0
 40
6.0
 40
6.0
 40
6.0
 40
7.0
 40
7.0
 40
7.0
 40
8.0
 40
8.0
 40
8.0
 40
9.0
 40
9.0
 40
9.0
 40
10.0
 40
10.0
 40
10.0
 40
11.0
 40
11.0
 40
11.0
 40
11.0
 10
17.03751301657395
 20
-12.34570637712191
 30
0.0
 10
17.03665174270264
 20
-12.36093369916671
 30
0.0
 10
17.03751301657395
 20
-12.38039848865837
 30
0.0
 10
17.0408892101495
 20
-12.40158582589266
 30
0.0
 10
17.06038845059601
 20
-12.51844346475233
 30
0.0
 10
17.14589572053992
 20
-12.58024847775772
 30
0.0
 10
17.23650173180198
 20
-12.59292642914343
 30
0.0
 10
17.23650173180198
 20
-12.59292642914343
 30
0.0
 10
17.23650173180198
 20
-12.59037705848435
 30
0.0
 10
17.23650173180198
 20
-12.59037705848435
 30
0.0
 10
17.20177516931066
 20
-12.56412543088675
 30
0.0
 10
17.17300862200883
 20
-12.51844346475233
 30
0.0
 10
17.17300862200883
 20
-12.45746527466341
 30
0.0
 10
17.17300862200883
 20
-12.36010687625025
 30
0.0
 10
17.24328856990793
 20
-12.29148057418407
 30
0.0
 10
17.35081000000257
 20
-12.29148057418407
 30
0.0
 10
17.45157904294613
 20
-12.29148057418407
 30
0.0
 10
17.54469997391244
 20
-12.36010687625025
 30
0.0
 10
17.54469997391244
 20
-12.47441514445084
 30
0.0
 10
17.54469997391244
 20
-12.59209960622697
 30
0.0
 10
17.4532671397339
 20
-12.66913194127716
 30
0.0
 10
17.31015787327663
 20
-12.66913194127716
 30
0.0
 10
17.20177516931066
 20
-12.66913194127716
 30
0.0
 10
17.11626789936676
 20
-12.63020236229384
 30
0.0
 10
17.06207654738379
 20
-12.57601101031086
 30
0.0
 10
17.01718695321098
 20
-12.53029459322159
 30
0.0
 10
16.9892472288256
 20
-12.46931640313267
 30
0.0
 10
16.98077229393189
 20
-12.39986327815003
 30
0.0
 10
16.97739610035634
 20
-12.37788356895414
 30
0.0
 10
16.97653482648503
 20
-12.35924560237894
 30
0.0
 10
16.97653482648503
 20
-12.34570637712191
 30
0.0
 10
16.97653482648503
 20
-12.34570637712191
 30
0.0
 10
17.03751301657395
 20
-12.34570637712191
 30
0.0
 10
17.03751301657395
 20
-12.34570637712191
 30
0.0
  0
SPLINE
  5
DA
330
1F
100
AcDbEntity
  8
0
100
AcDbSpline
210
0.0
220
0.0
230
1.0
 70
    11
 71
     3
 72
    20
 73
    16
 74
     0
 42
0.000000001
 43
0.0000000001
 40
0.0
 40
0.0
 40
0.0
 40
0.0
 40
1.0
 40
1.0
 40
1.0
 40
2.0
 40
2.0
 40
2.0
 40
3.0
 40
3.0
 40
3.0
 40
4.0
 40
4.0
 40
4.0
 40
5.0
 40
5.0
 40
5.0
 40
5.0
 10
17.35504746744943
 20
-12.36685926340134
 30
0.0
 10
17.27629258465662
 20
-12.36685926340134
 30
0.0
 10
17.22888807077958
 20
-12.41171440661929
 30
0.0
 10
17.22888807077958
 20
-12.48034070868547
 30
0.0
 10
17.22888807077958
 20
-12.52519585190342
 30
0.0
 10
17.25682779516496
 20
-12.56667480154583
 30
0.0
 10
17.2966186480196
 20
-12.5870008649088
 30
0.0
 10
17.30509358291331
 20
-12.59209960622697
 30
0.0
 10
17.31608343751126
 20
-12.59547579980252
 30
0.0
 10
17.32965711372314
 20
-12.59547579980252
 30
0.0
 10
17.42022867403036
 20
-12.59378770301475
 30
0.0
 10
17.48713242835391
 20
-12.55227430241749
 30
0.0
 10
17.48713242835391
 20
-12.47441514445084
 30
0.0
 10
17.48713242835391
 20
-12.41006076078637
 30
0.0
 10
17.43380235024224
 20
-12.36685926340134
 30
0.0
 10
17.35504746744943
 20
-12.36685926340134
 30
0.0
  0
HATCH
  5
DB
330
1F
100
AcDbEntity
  8
0
100
AcDbHatch
 10
0.0
 20
0.0
 30
0.0
210
0.0
220
0.0
230
1.0
  2
SOLID
 70
     1
 71
     0
 91
        2
 92
        1
 93
        1
 72
     4
 94
        3
 73
     0
 74
     0
 95
       38
 96
       34
 40
0.0
 40
0.0
 40
0.0
 40
0.0
 40
1.0
 40
1.0
 40
1.0
 40
2.0
 40
2.0
 40
2.0
 40
3.0
 40
3.0
 40
3.0
 40
4.0
 40
4.0
 40
4.0
 40
5.0
 40
5.0
 40
5.0
 40
6.0
 40
6.0
 40
6.0
 40
7.0
 40
7.0
 40
7.0
 40
8.0
 40
8.0
 40
8.0
 40
9.0
 40
9.0
 40
9.0
 40
10.0
 40
10.0
 40
10.0
 40
11.0
 40
11.0
 40
11.0
 40
11.0
 10
17.03751301657395
 20
-12.34570637712191
 10
17.03665174270264
 20
-12.36093369916671
 10
17.03751301657395
 20
-12.38039848865837
 10
17.0408892101495
 20
-12.40158582589266
 10
17.06038845059601
 20
-12.51844346475233
 10
17.14589572053992
 20
-12.58024847775772
 10
17.23650173180198
 20
-12.59292642914343
 10
17.23650173180198
 20
-12.59292642914343
 10
17.23650173180198
 20
-12.59037705848435
 10
17.23650173180198
 20
-12.59037705848435
 10
17.20177516931066
 20
-12.56412543088675
 10
17.17300862200883
 20
-12.51844346475233
 10
17.17300862200883
 20
-12.45746527466341
 10
17.17300862200883
 20
-12.36010687625025
 10
17.24328856990793
 20
-12.29148057418407
 10
17.35081000000257
 20
-12.29148057418407
 10
17.45157904294613
 20
-12.29148057418407
 10
17.54469997391244
 20
-12.36010687625025
 10
17.54469997391244
 20
-12.47441514445084
 10
17.54469997391244
 20
-12.59209960622697
 10
17.4532671397339
 20
-12.66913194127716
 10
17.31015787327663
 20
-12.66913194127716
 10
17.20177516931066
 20
-12.66913194127716
 10
17.11626789936676
 20
-12.63020236229384
 10
17.06207654738379
 20
-12.57601101031086
 10
17.01718695321098
 20
-12.53029459322159
 10
16.9892472288256
 20
-12.46931640313267
 10
16.98077229393189
 20
-12.39986327815003
 10
16.97739610035634
 20
-12.37788356895414
 10
16.97653482648503
 20
-12.35924560237894
 10
16.97653482648503
 20
-12.34570637712191
 10
16.97653482648503
 20
-12.34570637712191
 10
17.03751301657395
 20
-12.34570637712191
 10
17.03751301657395
 20
-12.34570637712191
 97
        0
 97
        0
 92
        1
 93
        1
 72
     4
 94
        3
 73
     0
 74
     0
 95
       20
 96
       16
 40
0.0
 40
0.0
 40
0.0
 40
0.0
 40
1.0
 40
1.0
 40
1.0
 40
2.0
 40
2.0
 40
2.0
 40
3.0
 40
3.0
 40
3.0
 40
4.0
 40
4.0
 40
4.0
 40
5.0
 40
5.0
 40
5.0
 40
5.0
 10
17.35504746744943
 20
-12.36685926340134
 10
17.27629258465662
 20
-12.36685926340134
 10
17.22888807077958
 20
-12.41171440661929
 10
17.22888807077958
 20
-12.48034070868547
 10
17.22888807077958
 20
-12.52519585190342
 10
17.25682779516496
 20
-12.56667480154583
 10
17.2966186480196
 20
-12.5870008649088
 10
17.30509358291331
 20
-12.59209960622697
 10
17.31608343751126
 20
-12.59547579980252
 10
17.32965711372314
 20
-12.59547579980252
 10
17.42022867403036
 20
-12.59378770301475
 10
17.48713242835391
 20
-12.55227430241749
 10
17.48713242835391
 20
-12.47441514445084
 10
17.48713242835391
 20
-12.41006076078637
 10
17.43380235024224
 20
-12.36685926340134
 10
17.35504746744943
 20
-12.36685926340134
 97
        0
 97
        0
 75
     2
 76
     1
 98
        0
450
        0
451
        0
460
0.0
461
0.0
452
        0
462
0.0
453
        0
470

  0
SPLINE
  5
DC
330
1F
100
AcDbEntity
  8
0
100
AcDbSpline
210
0.0
220
0.0
230
1.0
 70
     9
 71
     3
 72
    17
 73
    13
 74
     0
 42
0.000000001
 43
0.0000000001
 40
0.0
 40
0.0
 40
0.0
 40
0.0
 40
1.0
 40
1.0
 40
1.0
 40
2.0
 40
2.0
 40
2.0
 40
3.0
 40
3.0
 40
3.0
 40
4.0
 40
4.0
 40
4.0
 40
4.0
 10
17.25427842450586
 20
-11.85970675701771
 30
0.0
 10
17.44141601126465
 20
-11.85970675701771
 30
0.0
 10
17.54469997391244
 20
-11.9291254310455
 30
0.0
 10
17.54469997391244
 20
-12.05108181122334
 30
0.0
 10
17.54469997391244
 20
-12.15863769227284
 30
0.0
 10
17.44396538192373
 20
-12.23143255987617
 30
0.0
 10
17.26189208552828
 20
-12.23312065666394
 30
0.0
 10
17.07730386942859
 20
-12.23312065666394
 30
0.0
 10
16.97570800356857
 20
-12.15353895095467
 30
0.0
 10
16.97570800356857
 20
-12.04178005341316
 30
0.0
 10
16.97570800356857
 20
-11.92574923746995
 30
0.0
 10
17.07899196621636
 20
-11.85970675701771
 30
0.0
 10
17.25427842450586
 20
-11.85970675701771
 30
0.0
  0
SPLINE
  5
DD
330
1F
100
AcDbEntity
  8
0
100
AcDbSpline
210
0.0
220
0.0
230
1.0
 70
     9
 71
     3
 72
    17
 73
    13
 74
     0
 42
0.000000001
 43
0.0000000001
 40
0.0
 40
0.0
 40
0.0
 40
0.0
 40
1.0
 40
1.0
 40
1.0
 40
2.0
 40
2.0
 40
2.0
 40
3.0
 40
3.0
 40
3.0
 40
4.0
 40
4.0
 40
4.0
 40
4.0
 10
17.26275335939959
 20
-12.15863769227284
 30
0.0
 10
17.40586262585687
 20
-12.15863769227284
 30
0.0
 10
17.48713242835391
 20
-12.11457492101649
 30
0.0
 10
17.48713242835391
 20
-12.04684434377648
 30
0.0
 10
17.48713242835391
 20
-11.97063883164276
 30
0.0
 10
17.39821451387961
 20
-11.93422417236367
 30
0.0
 10
17.25765461808142
 20
-11.93422417236367
 30
0.0
 10
17.12219346360139
 20
-11.93422417236367
 30
0.0
 10
17.0332755491271
 20
-11.96895073485498
 30
0.0
 10
17.0332755491271
 20
-12.04598306990517
 30
0.0
 10
17.0332755491271
 20
-12.11119872744095
 30
0.0
 10
17.11289170579122
 20
-12.15863769227284
 30
0.0
 10
17.26275335939959
 20
-12.15863769227284
 30
0.0
  0
HATCH
  5
DE
330
1F
100
AcDbEntity
  8
0
100
AcDbHatch
 10
0.0
 20
0.0
 30
0.0
210
0.0
220
0.0
230
1.0
  2
SOLID
 70
     1
 71
     0
 91
        2
 92
        1
 93
        1
 72
     4
 94
        3
 73
     0
 74
     0
 95
       17
 96
       13
 40
0.0
 40
0.0
 40
0.0
 40
0.0
 40
1.0
 40
1.0
 40
1.0
 40
2.0
 40
2.0
 40
2.0
 40
3.0
 40
3.0
 40
3.0
 40
4.0
 40
4.0
 40
4.0
 40
4.0
 10
17.25427842450586
 20
-11.85970675701771
 10
17.44141601126465
 20
-11.85970675701771
 10
17.54469997391244
 20
-11.9291254310455
 10
17.54469997391244
 20
-12.05108181122334
 10
17.54469997391244
 20
-12.15863769227284
 10
17.44396538192373
 20
-12.23143255987617
 10
17.26189208552828
 20
-12.23312065666394
 10
17.07730386942859
 20
-12.23312065666394
 10
16.97570800356857
 20
-12.15353895095467
 10
16.97570800356857
 20
-12.04178005341316
 10
16.97570800356857
 20
-11.92574923746995
 10
17.07899196621636
 20
-11.85970675701771
 10
17.25427842450586
 20
-11.85970675701771
 97
        0
 97
        0
 92
        1
 93
        1
 72
     4
 94
        3
 73
     0
 74
     0
 95
       17
 96
       13
 40
0.0
 40
0.0
 40
0.0
 40
0.0
 40
1.0
 40
1.0
 40
1.0
 40
2.0
 40
2.0
 40
2.0
 40
3.0
 40
3.0
 40
3.0
 40
4.0
 40
4.0
 40
4.0
 40
4.0
 10
17.26275335939959
 20
-12.15863769227284
 10
17.40586262585687
 20
-12.15863769227284
 10
17.48713242835391
 20
-12.11457492101649
 10
17.48713242835391
 20
-12.04684434377648
 10
17.48713242835391
 20
-11.97063883164276
 10
17.39821451387961
 20
-11.93422417236367
 10
17.25765461808142
 20
-11.93422417236367
 10
17.12219346360139
 20
-11.93422417236367
 10
17.0332755491271
 20
-11.96895073485498
 10
17.0332755491271
 20
-12.04598306990517
 10
17.0332755491271
 20
-12.11119872744095
 10
17.11289170579122
 20
-12.15863769227284
 10
17.26275335939959
 20
-12.15863769227284
 97
        0
 97
        0
 75
     2
 76
     1
 98
        0
450
        0
451
        0
460
0.0
461
0.0
452
        0
462
0.0
453
        0
470

  0
ENDSEC
  0
SECTION
  2
OBJECTS
  0
DICTIONARY
  5
C
330
0
100
AcDbDictionary
281
     1
  3
ACAD_BACKGROUND
350
B2
  3
ACAD_CIP_PREVIOUS_PRODUCT_INFO
350
B1
  3
ACAD_COLOR
350
92
  3
ACAD_DETAILVIEWSTYLE
350
AD
  3
ACAD_GROUP
350
D
  3
ACAD_LAYOUT
350
1A
  3
ACAD_MATERIAL
350
3B
  3
ACAD_MLEADERSTYLE
350
85
  3
ACAD_MLINESTYLE
350
17
  3
ACAD_PLOTSETTINGS
350
19
  3
ACAD_PLOTSTYLENAME
350
E
  3
ACAD_SCALELIST
350
94
  3
ACAD_SECTIONVIEWSTYLE
350
AB
  3
ACAD_TABLESTYLE
350
84
  3
ACAD_VISUALSTYLE
350
2A
  3
ACDB_RECOMPOSE_DATA
350
F2
  3
AcDbVariableDictionary
350
E4
  0
SUN
  5
3F
330
29
100
AcDbSun
 90
        1
290
     1
 63
     7
421
 16777215
 40
1.0
291
     1
 91
  2455826
 92
 54000000
292
     0
 70
     0
 71
   256
280
     1
1001
ACAD
1000
AcDbSavedByObjectVersion
1070
     0
1000
AcDbSavedByObjectVersion
1070
     0
  0
DICTIONARY
  5
B5
330
1F
100
AcDbDictionary
280
     1
281
     1
  3
ACAD_SORTENTS
360
B6
  0
DICTIONARY
  5
B2
102
{ACAD_REACTORS
330
C
102
}
330
C
100
AcDbDictionary
281
     1
  0
XRECORD
  5
B1
102
{ACAD_REACTORS
330
C
102
}
330
C
100
AcDbXrecord
280
     1
300
ACD
300
2019
300
ACD_F_S
  0
DICTIONARY
  5
92
102
{ACAD_REACTORS
330
C
102
}
330
C
100
AcDbDictionary
281
     1
  0
DICTIONARY
  5
AD
102
{ACAD_REACTORS
330
C
102
}
330
C
100
AcDbDictionary
281
     1
  3
Imperial24
350
AE
  0
DICTIONARY
  5
D
102
{ACAD_REACTORS
330
C
102
}
330
C
100
AcDbDictionary
281
     1
  0
DICTIONARY
  5
1A
102
{ACAD_REACTORS
330
C
102
}
330
C
100
AcDbDictionary
281
     1
  3
Layout1
350
1E
  3
Layout2
350
26
  3
Model
350
22
  0
DICTIONARY
  5
3B
102
{ACAD_REACTORS
330
C
102
}
330
C
100
AcDbDictionary
281
     1
  3
ByBlock
350
3D
  3
ByLayer
350
3C
  3
Global
350
3E
  0
DICTIONARY
  5
85
102
{ACAD_REACTORS
330
C
102
}
330
C
100
AcDbDictionary
281
     1
  3
Standard
350
AA
  0
DICTIONARY
  5
17
102
{ACAD_REACTORS
330
C
102
}
330
C
100
AcDbDictionary
281
     1
  3
Standard
350
18
  0
DICTIONARY
  5
19
102
{ACAD_REACTORS
330
C
102
}
330
C
100
AcDbDictionary
281
     1
  0
ACDBDICTIONARYWDFLT
  5
E
102
{ACAD_REACTORS
330
C
102
}
330
C
100
AcDbDictionary
281
     1
  3
Normal
350
F
100
AcDbDictionaryWithDefault
340
F
  0
DICTIONARY
  5
94
102
{ACAD_REACTORS
330
C
102
}
330
C
100
AcDbDictionary
281
     1
  3
A0
350
95
  3
A1
350
96
  3
A2
350
97
  3
A3
350
98
  3
A4
350
99
  3
A5
350
9A
  3
A6
350
9B
  3
A7
350
9C
  3
A8
350
9D
  3
A9
350
9E
  3
B0
350
9F
  3
B1
350
A0
  3
B2
350
A1
  3
B3
350
A2
  3
B4
350
A3
  3
B5
350
A4
  3
B6
350
A5
  3
B7
350
A6
  3
B8
350
A7
  3
B9
350
A8
  3
C0
350
A9
  0
DICTIONARY
  5
AB
102
{ACAD_REACTORS
330
C
102
}
330
C
100
AcDbDictionary
281
     1
  3
Imperial24
350
AC
  0
DICTIONARY
  5
84
102
{ACAD_REACTORS
330
C
102
}
330
C
100
AcDbDictionary
281
     1
  3
Standard
350
93
  0
DICTIONARY
  5
2A
102
{ACAD_REACTORS
330
C
102
}
330
C
100
AcDbDictionary
281
     1
  3
2dWireframe
350
2F
  3
3D Hidden
350
31
  3
3dWireframe
350
30
  3
Basic
350
32
  3
Brighten
350
36
  3
ColorChange
350
3A
  3
Conceptual
350
34
  3
Dim
350
35
  3
EdgeColorOff
350
91
  3
Facepattern
350
39
  3
Flat
350
2B
  3
FlatWithEdges
350
2C
  3
Gouraud
350
2D
  3
GouraudWithEdges
350
2E
  3
Hidden
350
89
  3
JitterOff
350
8F
  3
Linepattern
350
38
  3
OverhangOff
350
90
  3
Realistic
350
33
  3
Shaded
350
8E
  3
Shaded with edges
350
8D
  3
Shades of Gray
350
8A
  3
Sketchy
350
8B
  3
Thicken
350
37
  3
Wireframe
350
88
  3
X-Ray
350
8C
  0
XRECORD
  5
F2
102
{ACAD_REACTORS
330
C
102
}
330
C
100
AcDbXrecord
280
     1
 90
        1
330
93
  0
DICTIONARY
  5
E4
102
{ACAD_REACTORS
330
C
102
}
330
C
100
AcDbDictionary
281
     1
  3
CANNOSCALE
350
E9
  3
CMLEADERSTYLE
350
E6
  3
CTABLESTYLE
350
E5
  3
CVIEWDETAILSTYLE
350
E7
  3
CVIEWSECTIONSTYLE
350
E8
  0
SORTENTSTABLE
  5
B6
102
{ACAD_REACTORS
330
B5
102
}
330
B5
100
AcDbSortentsTable
330
1F
  0
ACDBDETAILVIEWSTYLE
  5
AE
102
{ACAD_XDICTIONARY
360
F5
102
}
102
{ACAD_REACTORS
330
AD
102
}
330
AD
100
AcDbModelDocViewStyle
 70
     0
  3
Imperial24
290
     0
100
AcDbDetailViewStyle
 70
     0
 71
     0
 90
        3
 71
     1
340
11
 62
   256
 40
0.24
340
0
 62
   256
 40
0.24
300

 40
0.36
280
     3
 71
     2
340
16
 90
       25
 62
   256
 71
     3
340
11
 62
   256
 40
0.24
 90
        1
 40
0.75
 90
        1
300
%<\AcVar ViewType \f "%tc1">% %<\AcVar ViewDetailId>%\PSCALA %<\AcVar ViewScale \f "%sn">%
 71
     4
340
16
 90
       25
 62
   256
340
16
 90
       25
 62
   256
280
     0
  0
LAYOUT
  5
1E
102
{ACAD_REACTORS
330
1A
102
}
330
1A
100
AcDbPlotSettings
  1

  2
none_device
  4

  6

 40
0.0
 41
0.0
 42
0.0
 43
0.0
 44
0.0
 45
0.0
 46
0.0
 47
0.0
 48
0.0
 49
0.0
140
0.0
141
0.0
142
1.0
143
1.0
 70
   688
 72
     0
 73
     0
 74
     5
  7

 75
    16
147
1.0
 76
     0
 77
     2
 78
   300
148
0.0
149
0.0
100
AcDbLayout
  1
Layout1
 70
     1
 71
     1
 10
0.0
 20
0.0
 11
12.0
 21
9.0
 12
0.0
 22
0.0
 32
0.0
 14
1.000000000000000E+20
 24
1.000000000000000E+20
 34
1.000000000000000E+20
 15
-1.000000000000000E+20
 25
-1.000000000000000E+20
 35
-1.000000000000000E+20
146
0.0
 13
0.0
 23
0.0
 33
0.0
 16
1.0
 26
0.0
 36
0.0
 17
0.0
 27
1.0
 37
0.0
 76
     0
330
1B
  0
LAYOUT
  5
26
102
{ACAD_REACTORS
330
1A
102
}
330
1A
100
AcDbPlotSettings
  1

  2
none_device
  4

  6

 40
0.0
 41
0.0
 42
0.0
 43
0.0
 44
0.0
 45
0.0
 46
0.0
 47
0.0
 48
0.0
 49
0.0
140
0.0
141
0.0
142
1.0
143
1.0
 70
   688
 72
     0
 73
     0
 74
     5
  7

 75
    16
147
1.0
 76
     0
 77
     2
 78
   300
148
0.0
149
0.0
100
AcDbLayout
  1
Layout2
 70
     1
 71
     2
 10
0.0
 20
0.0
 11
0.0
 21
0.0
 12
0.0
 22
0.0
 32
0.0
 14
0.0
 24
0.0
 34
0.0
 15
0.0
 25
0.0
 35
0.0
146
0.0
 13
0.0
 23
0.0
 33
0.0
 16
1.0
 26
0.0
 36
0.0
 17
0.0
 27
1.0
 37
0.0
 76
     0
330
23
  0
LAYOUT
  5
22
102
{ACAD_REACTORS
330
1A
102
}
330
1A
100
AcDbPlotSettings
  1

  2
none_device
  4

  6

 40
0.0
 41
0.0
 42
0.0
 43
0.0
 44
0.0
 45
0.0
 46
0.0
 47
0.0
 48
0.0
 49
0.0
140
0.0
141
0.0
142
1.0
143
1.0
 70
  1712
 72
     0
 73
     0
 74
     0
  7

 75
     0
147
1.0
 76
     0
 77
     2
 78
   300
148
0.0
149
0.0
100
AcDbLayout
  1
Model
 70
     1
 71
     0
 10
0.0
 20
0.0
 11
12.0
 21
9.0
 12
0.0
 22
0.0
 32
0.0
 14
1.000000000000000E+20
 24
1.000000000000000E+20
 34
1.000000000000000E+20
 15
-1.000000000000000E+20
 25
-1.000000000000000E+20
 35
-1.000000000000000E+20
146
0.0
 13
0.0
 23
0.0
 33
0.0
 16
1.0
 26
0.0
 36
0.0
 17
0.0
 27
1.0
 37
0.0
 76
     0
330
1F
331
29
  0
MATERIAL
  5
3D
102
{ACAD_REACTORS
330
3B
102
}
330
3B
100
AcDbMaterial
  1
ByBlock
  0
MATERIAL
  5
3C
102
{ACAD_REACTORS
330
3B
102
}
330
3B
100
AcDbMaterial
  1
ByLayer
  0
MATERIAL
  5
3E
102
{ACAD_REACTORS
330
3B
102
}
330
3B
100
AcDbMaterial
  1
Global
  0
MLEADERSTYLE
  5
AA
102
{ACAD_REACTORS
330
85
102
}
330
85
100
AcDbMLeaderStyle
179
     2
170
     2
171
     1
172
     0
 90
        2
 40
0.0
 41
0.0
173
     1
 91
-1056964608
340
14
 92
       -2
290
     1
 42
0.09
291
     1
 43
0.36
  3
Standard
 44
0.18
300

342
11
174
     1
178
     6
175
     1
176
     0
 93
-1056964608
 45
0.18
292
     0
297
     0
 46
0.18
 94
-1056964608
 47
1.0
 49
1.0
140
1.0
293
     1
141
0.0
294
     1
177
     0
142
1.0
295
     0
296
     0
143
0.125
271
     0
272
     9
273
     9
298
     0
  0
MLINESTYLE
  5
18
102
{ACAD_REACTORS
330
17
102
}
330
17
100
AcDbMlineStyle
  2
STANDARD
 70
     0
  3

 62
   256
 51
90.0
 52
90.0
 71
     2
 49
0.5
 62
   256
  6
BYLAYER
 49
-0.5
 62
   256
  6
BYLAYER
  0
ACDBPLACEHOLDER
  5
F
102
{ACAD_REACTORS
330
E
102
}
330
E
  0
SCALE
  5
95
102
{ACAD_REACTORS
330
94
102
}
330
94
100
AcDbScale
 70
     0
300
1:1
140
1.0
141
1.0
290
     1
  0
SCALE
  5
96
102
{ACAD_REACTORS
330
94
102
}
330
94
100
AcDbScale
 70
     0
300
1.10
140
1.0
141
10.0
290
     0
  0
SCALE
  5
97
102
{ACAD_REACTORS
330
94
102
}
330
94
100
AcDbScale
 70
     0
300
1.50
140
1.0
141
50.0
290
     0
  0
SCALE
  5
98
102
{ACAD_REACTORS
330
94
102
}
330
94
100
AcDbScale
 70
     0
300
1:100
140
1.0
141
100.0
290
     0
  0
SCALE
  5
99
102
{ACAD_REACTORS
330
94
102
}
330
94
100
AcDbScale
 70
     0
300
1.200
140
1.0
141
200.0
290
     0
  0
SCALE
  5
9A
102
{ACAD_REACTORS
330
94
102
}
330
94
100
AcDbScale
 70
     0
300
1/128" = 1'-0"
140
0.0078125
141
12.0
290
     0
  0
SCALE
  5
9B
102
{ACAD_REACTORS
330
94
102
}
330
94
100
AcDbScale
 70
     0
300
1/64" = 1'-0"
140
0.015625
141
12.0
290
     0
  0
SCALE
  5
9C
102
{ACAD_REACTORS
330
94
102
}
330
94
100
AcDbScale
 70
     0
300
1/32" = 1'-0"
140
0.03125
141
12.0
290
     0
  0
SCALE
  5
9D
102
{ACAD_REACTORS
330
94
102
}
330
94
100
AcDbScale
 70
     0
300
1/16" = 1'-0"
140
0.0625
141
12.0
290
     0
  0
SCALE
  5
9E
102
{ACAD_REACTORS
330
94
102
}
330
94
100
AcDbScale
 70
     0
300
3/32" = 1'-0"
140
0.09375
141
12.0
290
     0
  0
SCALE
  5
9F
102
{ACAD_REACTORS
330
94
102
}
330
94
100
AcDbScale
 70
     0
300
1/8" = 1'-0"
140
0.125
141
12.0
290
     0
  0
SCALE
  5
A0
102
{ACAD_REACTORS
330
94
102
}
330
94
100
AcDbScale
 70
     0
300
3/16" = 1'-0"
140
0.1875
141
12.0
290
     0
  0
SCALE
  5
A1
102
{ACAD_REACTORS
330
94
102
}
330
94
100
AcDbScale
 70
     0
300
1/4" = 1'-0"
140
0.25
141
12.0
290
     0
  0
SCALE
  5
A2
102
{ACAD_REACTORS
330
94
102
}
330
94
100
AcDbScale
 70
     0
300
3/8" = 1'-0"
140
0.375
141
12.0
290
     0
  0
SCALE
  5
A3
102
{ACAD_REACTORS
330
94
102
}
330
94
100
AcDbScale
 70
     0
300
1/2" = 1'-0"
140
0.5
141
12.0
290
     0
  0
SCALE
  5
A4
102
{ACAD_REACTORS
330
94
102
}
330
94
100
AcDbScale
 70
     0
300
3/4" = 1'-0"
140
0.75
141
12.0
290
     0
  0
SCALE
  5
A5
102
{ACAD_REACTORS
330
94
102
}
330
94
100
AcDbScale
 70
     0
300
1" = 1'-0"
140
1.0
141
12.0
290
     0
  0
SCALE
  5
A6
102
{ACAD_REACTORS
330
94
102
}
330
94
100
AcDbScale
 70
     0
300
1-1/2" = 1'-0"
140
1.5
141
12.0
290
     0
  0
SCALE
  5
A7
102
{ACAD_REACTORS
330
94
102
}
330
94
100
AcDbScale
 70
     0
300
3" = 1'-0"
140
3.0
141
12.0
290
     0
  0
SCALE
  5
A8
102
{ACAD_REACTORS
330
94
102
}
330
94
100
AcDbScale
 70
     0
300
6" = 1'-0"
140
6.0
141
12.0
290
     0
  0
SCALE
  5
A9
102
{ACAD_REACTORS
330
94
102
}
330
94
100
AcDbScale
 70
     0
300
1'-0" = 1'-0"
140
12.0
141
12.0
290
     0
  0
ACDBSECTIONVIEWSTYLE
  5
AC
102
{ACAD_XDICTIONARY
360
F3
102
}
102
{ACAD_REACTORS
330
AB
102
}
330
AB
100
AcDbModelDocViewStyle
 70
     0
  3
Imperial24
290
     0
100
AcDbSectionViewStyle
 70
     0
 71
     0
 90
       78
 71
     1
340
11
 62
   256
 40
0.24
340
0
340
0
 62
   256
 40
0.24
300
I, O, Q, S, X, Z
 40
0.48
 90
        3
 40
0.18
 90
        1
 71
     2
340
16
 90
       25
 62
   256
340
16
 90
       50
 62
   256
 40
0.24
 40
0.0
 40
0.24
 71
     3
340
11
 62
   256
 40
0.24
 90
        1
 40
0.75
 90
        1
300
%<\AcVar ViewType \f "%tc1">% %<\AcVar ViewSectionStartId>%-%<\AcVar ViewSectionEndId>%\PSCALA %<\AcVar ViewScale \f "%sn">%
 71
     4
 62
   256
 62
   257
300
ANSI31
 40
1.0
 90
        0
290
     0
290
     0
 90
        6
 40
0.0
 40
1.570796326794896
 40
0.2617993877991494
 40
1.308996938995747
 40
-0.2617993877991494
 40
1.832595714594046
  0
TABLESTYLE
  5
93
102
{ACAD_XDICTIONARY
360
F0
102
}
102
{ACAD_REACTORS
330
84
102
}
330
84
100
AcDbTableStyle
280
     0
  3
Standard
 70
     0
 71
     0
 40
0.06
 41
0.06
280
     0
281
     0
  7
Standard
140
0.18
170
     2
 62
     0
 63
     7
283
     0
 90
      512
 91
        0
  1

274
    -2
284
     1
 64
     0
275
    -2
285
     1
 65
     0
276
    -2
286
     1
 66
     0
277
    -2
287
     1
 67
     0
278
    -2
288
     1
 68
     0
279
    -2
289
     1
 69
     0
  7
Standard
140
0.25
170
     5
 62
     0
 63
     7
283
     0
 90
      512
 91
        0
  1

274
    -2
284
     1
 64
     0
275
    -2
285
     1
 65
     0
276
    -2
286
     1
 66
     0
277
    -2
287
     1
 67
     0
278
    -2
288
     1
 68
     0
279
    -2
289
     1
 69
     0
  7
Standard
140
0.18
170
     5
 62
     0
 63
     7
283
     0
 90
      512
 91
        0
  1

274
    -2
284
     1
 64
     0
275
    -2
285
     1
 65
     0
276
    -2
286
     1
 66
     0
277
    -2
287
     1
 67
     0
278
    -2
288
     1
 68
     0
279
    -2
289
     1
 69
     0
  0
VISUALSTYLE
  5
2F
102
{ACAD_REACTORS
330
2A
102
}
330
2A
100
AcDbVisualStyle
  2
2dWireframe
 70
     4
177
     3
291
     0
 70
    58
 90
        0
176
     1
 90
        2
176
     1
 90
        0
176
     1
 90
        0
176
     1
 40
0.6
176
     1
 40
30.0
176
     1
 62
     7
420
 16777215
176
     1
 90
        1
176
     1
 90
        4
176
     1
 62
     7
176
     1
 62
   257
176
     1
 90
        1
176
     1
 90
        1
176
     1
 40
1.0
176
     1
 90
        0
176
     1
 62
   257
176
     1
 40
1.0
176
     1
 90
        1
176
     1
 90
        6
176
     1
 90
        2
176
     1
 62
     7
176
     1
 90
        5
176
     1
 90
        0
176
     1
 90
        0
176
     1
290
     0
176
     1
 90
        1
176
     1
 40
0.0
176
     1
 90
        0
176
     1
290
     1
176
     1
290
     1
176
     1
290
     0
176
     1
290
     0
176
     1
290
     0
176
     1
290
     0
176
     1
290
     0
176
     1
290
     0
176
     1
290
     0
176
     1
 90
       50
176
     1
 40
0.0
176
     1
 40
1.0
176
     1
 90
        0
176
     1
 62
    18
420
        0
176
     1
 90
       50
176
     1
 90
        3
176
     1
 62
     5
420
      255
176
     1
290
     0
176
     1
 90
       50
176
     1
 90
       50
176
     1
 90
       50
176
     1
290
     0
176
     1
 90
       50
176
     1
 62
   256
176
     0
 40
1.0
176
     0
 90
        2
176
     1
  1
strokes_ogs.tif
176
     1
290
     0
176
     1
 40
1.0
176
     1
 40
1.0
176
     1
1001
ACAD
1000
AcDbSavedByObjectVersion
1070
     0
  0
VISUALSTYLE
  5
31
102
{ACAD_REACTORS
330
2A
102
}
330
2A
100
AcDbVisualStyle
  2
3D Hidden
 70
     6
177
     3
291
     0
 70
    58
 90
        1
176
     1
 90
        2
176
     1
 90
        2
176
     1
 90
        0
176
     1
 40
0.6
176
     1
 40
30.0
176
     1
 62
     7
420
 16777215
176
     1
 90
        2
176
     1
 90
        2
176
     1
 62
     7
176
     1
 62
   257
176
     1
 90
        2
176
     1
 90
        1
176
     1
 40
40.0
176
     1
 90
        0
176
     1
 62
   257
176
     1
 40
1.0
176
     1
 90
        1
176
     1
 90
        6
176
     1
 90
        2
176
     1
 62
     7
176
     1
 90
        3
176
     1
 90
        0
176
     1
 90
        0
176
     1
290
     0
176
     1
 90
        1
176
     1
 40
0.0
176
     1
 90
        0
176
     1
290
     0
176
     1
290
     1
176
     1
290
     1
176
     1
290
     0
176
     1
290
     0
176
     1
290
     0
176
     1
290
     0
176
     1
290
     0
176
     1
290
     0
176
     1
 90
       50
176
     1
 40
0.0
176
     1
 40
1.0
176
     1
 90
        0
176
     1
 62
    18
420
        0
176
     1
 90
       50
176
     1
 90
        3
176
     1
 62
     5
420
      255
176
     1
290
     0
176
     1
 90
       50
176
     1
 90
       50
176
     1
 90
       50
176
     1
290
     0
176
     1
 90
       50
176
     1
 62
   256
176
     0
 40
1.0
176
     0
 90
        2
176
     1
  1
strokes_ogs.tif
176
     1
290
     0
176
     1
 40
1.0
176
     1
 40
1.0
176
     1
1001
ACAD
1000
AcDbSavedByObjectVersion
1070
     0
  0
VISUALSTYLE
  5
30
102
{ACAD_REACTORS
330
2A
102
}
330
2A
100
AcDbVisualStyle
  2
3dWireframe
 70
     5
177
     3
291
     0
 70
    58
 90
        0
176
     1
 90
        2
176
     1
 90
        0
176
     1
 90
        0
176
     1
 40
0.6
176
     1
 40
30.0
176
     1
 62
     7
420
 16777215
176
     1
 90
        1
176
     1
 90
        4
176
     1
 62
     7
176
     1
 62
   257
176
     1
 90
        1
176
     1
 90
        1
176
     1
 40
1.0
176
     1
 90
        0
176
     1
 62
   257
176
     1
 40
1.0
176
     1
 90
        1
176
     1
 90
        6
176
     1
 90
        2
176
     1
 62
     7
176
     1
 90
        5
176
     1
 90
        0
176
     1
 90
        0
176
     1
290
     0
176
     1
 90
        1
176
     1
 40
0.0
176
     1
 90
        0
176
     1
290
     0
176
     1
290
     1
176
     1
290
     1
176
     1
290
     0
176
     1
290
     0
176
     1
290
     0
176
     1
290
     0
176
     1
290
     0
176
     1
290
     0
176
     1
 90
       50
176
     1
 40
0.0
176
     1
 40
1.0
176
     1
 90
        0
176
     1
 62
    18
420
        0
176
     1
 90
       50
176
     1
 90
        3
176
     1
 62
     5
420
      255
176
     1
290
     0
176
     1
 90
       50
176
     1
 90
       50
176
     1
 90
       50
176
     1
290
     0
176
     1
 90
       50
176
     1
 62
   256
176
     0
 40
1.0
176
     0
 90
        2
176
     1
  1
strokes_ogs.tif
176
     1
290
     0
176
     1
 40
1.0
176
     1
 40
1.0
176
     1
1001
ACAD
1000
AcDbSavedByObjectVersion
1070
     0
  0
VISUALSTYLE
  5
32
102
{ACAD_REACTORS
330
2A
102
}
330
2A
100
AcDbVisualStyle
  2
Basic
 70
     7
177
     3
291
     1
 70
    58
 90
        1
176
     1
 90
        0
176
     1
 90
        1
176
     1
 90
        0
176
     1
 40
0.6
176
     1
 40
30.0
176
     1
 62
     7
420
 16777215
176
     1
 90
        0
176
     1
 90
        4
176
     1
 62
     7
176
     1
 62
   257
176
     1
 90
        1
176
     1
 90
        1
176
     1
 40
1.0
176
     1
 90
        8
176
     1
 62
     7
176
     1
 40
1.0
176
     1
 90
        1
176
     1
 90
        6
176
     1
 90
        2
176
     1
 62
     7
176
     1
 90
        5
176
     1
 90
        0
176
     1
 90
        0
176
     1
290
     0
176
     1
 90
        1
176
     1
 40
0.0
176
     1
 90
        0
176
     1
290
     0
176
     1
290
     1
176
     1
290
     1
176
     1
290
     0
176
     1
290
     0
176
     1
290
     0
176
     1
290
     0
176
     1
290
     0
176
     1
290
     0
176
     1
 90
       50
176
     1
 40
0.0
176
     1
 40
1.0
176
     1
 90
        0
176
     1
 62
    18
420
        0
176
     1
 90
       50
176
     1
 90
        3
176
     1
 62
     5
420
      255
176
     1
290
     0
176
     1
 90
       50
176
     1
 90
       50
176
     1
 90
       50
176
     1
290
     0
176
     1
 90
       50
176
     1
 62
   256
176
     0
 40
1.0
176
     0
 90
        2
176
     1
  1
strokes_ogs.tif
176
     1
290
     0
176
     1
 40
1.0
176
     1
 40
1.0
176
     1
1001
ACAD
1000
AcDbSavedByObjectVersion
1070
     0
  0
VISUALSTYLE
  5
36
102
{ACAD_REACTORS
330
2A
102
}
330
2A
100
AcDbVisualStyle
  2
Brighten
 70
    12
177
     3
291
     1
 70
    58
 90
        2
176
     1
 90
        2
176
     1
 90
        0
176
     1
 90
        0
176
     1
 40
0.6
176
     1
 40
30.0
176
     1
 62
     7
420
 16777215
176
     1
 90
        1
176
     1
 90
        4
176
     1
 62
     7
176
     1
 62
   257
176
     1
 90
        1
176
     1
 90
        1
176
     1
 40
1.0
176
     1
 90
        8
176
     1
 62
     7
176
     1
 40
1.0
176
     1
 90
        1
176
     1
 90
        6
176
     1
 90
        2
176
     1
 62
     7
176
     1
 90
        5
176
     1
 90
        0
176
     1
 90
        0
176
     1
290
     0
176
     1
 90
        1
176
     1
 40
50.0
176
     1
 90
        0
176
     1
290
     0
176
     1
290
     1
176
     1
290
     1
176
     1
290
     0
176
     1
290
     0
176
     1
290
     0
176
     1
290
     0
176
     1
290
     0
176
     1
290
     0
176
     1
 90
       50
176
     1
 40
0.0
176
     1
 40
1.0
176
     1
 90
        0
176
     1
 62
    18
420
        0
176
     1
 90
       50
176
     1
 90
        3
176
     1
 62
     5
420
      255
176
     1
290
     0
176
     1
 90
       50
176
     1
 90
       50
176
     1
 90
       50
176
     1
290
     0
176
     1
 90
       50
176
     1
 62
   256
176
     0
 40
1.0
176
     0
 90
        2
176
     1
  1
strokes_ogs.tif
176
     1
290
     0
176
     1
 40
1.0
176
     1
 40
1.0
176
     1
1001
ACAD
1000
AcDbSavedByObjectVersion
1070
     0
  0
VISUALSTYLE
  5
3A
102
{ACAD_REACTORS
330
2A
102
}
330
2A
100
AcDbVisualStyle
  2
ColorChange
 70
    16
177
     3
291
     1
 70
    58
 90
        2
176
     1
 90
        2
176
     1
 90
        3
176
     1
 90
        0
176
     1
 40
0.6
176
     1
 40
30.0
176
     1
 62
     8
420
  8421504
176
     1
 90
        1
176
     1
 90
        4
176
     1
 62
     7
176
     1
 62
   257
176
     1
 90
        1
176
     1
 90
        1
176
     1
 40
1.0
176
     1
 90
        8
176
     1
 62
     8
420
  8421504
176
     1
 40
1.0
176
     1
 90
        1
176
     1
 90
        6
176
     1
 90
        2
176
     1
 62
     7
176
     1
 90
        5
176
     1
 90
        0
176
     1
 90
        0
176
     1
290
     0
176
     1
 90
        1
176
     1
 40
0.0
176
     1
 90
        0
176
     1
290
     0
176
     1
290
     1
176
     1
290
     1
176
     1
290
     0
176
     1
290
     0
176
     1
290
     0
176
     1
290
     0
176
     1
290
     0
176
     1
290
     0
176
     1
 90
       50
176
     1
 40
0.0
176
     1
 40
1.0
176
     1
 90
        0
176
     1
 62
    18
420
        0
176
     1
 90
       50
176
     1
 90
        3
176
     1
 62
     5
420
      255
176
     1
290
     0
176
     1
 90
       50
176
     1
 90
       50
176
     1
 90
       50
176
     1
290
     0
176
     1
 90
       50
176
     1
 62
   256
176
     0
 40
1.0
176
     0
 90
        2
176
     1
  1
strokes_ogs.tif
176
     1
290
     0
176
     1
 40
1.0
176
     1
 40
1.0
176
     1
1001
ACAD
1000
AcDbSavedByObjectVersion
1070
     0
  0
VISUALSTYLE
  5
34
102
{ACAD_REACTORS
330
2A
102
}
330
2A
100
AcDbVisualStyle
  2
Conceptual
 70
     9
177
     3
291
     0
 70
    58
 90
        3
176
     1
 90
        2
176
     1
 90
        0
176
     1
 90
        0
176
     1
 40
0.6
176
     1
 40
30.0
176
     1
 62
     7
420
 16777215
176
     1
 90
        2
176
     1
 90
        2
176
     1
 62
     7
176
     1
 62
   257
176
     1
 90
        1
176
     1
 90
        1
176
     1
 40
40.0
176
     1
 90
        8
176
     1
 62
     7
176
     1
 40
1.0
176
     1
 90
        1
176
     1
 90
        6
176
     1
 90
        2
176
     1
 62
     7
176
     1
 90
        3
176
     1
 90
        0
176
     1
 90
        0
176
     1
290
     0
176
     1
 90
        1
176
     1
 40
0.0
176
     1
 90
        0
176
     1
290
     0
176
     1
290
     1
176
     1
290
     1
176
     1
290
     0
176
     1
290
     0
176
     1
290
     0
176
     1
290
     0
176
     1
290
     0
176
     1
290
     0
176
     1
 90
       50
176
     1
 40
0.0
176
     1
 40
1.0
176
     1
 90
        0
176
     1
 62
    18
420
        0
176
     1
 90
       50
176
     1
 90
        3
176
     1
 62
     5
420
      255
176
     1
290
     0
176
     1
 90
       50
176
     1
 90
       50
176
     1
 90
       50
176
     1
290
     0
176
     1
 90
       50
176
     1
 62
   256
176
     0
 40
1.0
176
     0
 90
        2
176
     1
  1
strokes_ogs.tif
176
     1
290
     0
176
     1
 40
1.0
176
     1
 40
1.0
176
     1
1001
ACAD
1000
AcDbSavedByObjectVersion
1070
     0
  0
VISUALSTYLE
  5
35
102
{ACAD_REACTORS
330
2A
102
}
330
2A
100
AcDbVisualStyle
  2
Dim
 70
    11
177
     3
291
     1
 70
    58
 90
        2
176
     1
 90
        2
176
     1
 90
        0
176
     1
 90
        0
176
     1
 40
0.6
176
     1
 40
30.0
176
     1
 62
     7
420
 16777215
176
     1
 90
        1
176
     1
 90
        4
176
     1
 62
     7
176
     1
 62
   257
176
     1
 90
        1
176
     1
 90
        1
176
     1
 40
1.0
176
     1
 90
        8
176
     1
 62
     7
176
     1
 40
1.0
176
     1
 90
        1
176
     1
 90
        6
176
     1
 90
        2
176
     1
 62
     7
176
     1
 90
        5
176
     1
 90
        0
176
     1
 90
        0
176
     1
290
     0
176
     1
 90
        1
176
     1
 40
-50.0
176
     1
 90
        0
176
     1
290
     0
176
     1
290
     1
176
     1
290
     1
176
     1
290
     0
176
     1
290
     0
176
     1
290
     0
176
     1
290
     0
176
     1
290
     0
176
     1
290
     0
176
     1
 90
       50
176
     1
 40
0.0
176
     1
 40
1.0
176
     1
 90
        0
176
     1
 62
    18
420
        0
176
     1
 90
       50
176
     1
 90
        3
176
     1
 62
     5
420
      255
176
     1
290
     0
176
     1
 90
       50
176
     1
 90
       50
176
     1
 90
       50
176
     1
290
     0
176
     1
 90
       50
176
     1
 62
   256
176
     0
 40
1.0
176
     0
 90
        2
176
     1
  1
strokes_ogs.tif
176
     1
290
     0
176
     1
 40
1.0
176
     1
 40
1.0
176
     1
1001
ACAD
1000
AcDbSavedByObjectVersion
1070
     0
  0
VISUALSTYLE
  5
91
102
{ACAD_REACTORS
330
2A
102
}
330
2A
100
AcDbVisualStyle
  2
EdgeColorOff
 70
    22
177
     3
291
     1
 70
    58
 90
        2
176
     0
 90
        2
176
     0
 90
        0
176
     0
 90
        0
176
     0
 40
0.6
176
     0
 40
30.0
176
     0
 62
     7
420
 16777215
176
     0
 90
        1
176
     0
 90
        4
176
     0
 62
     7
176
     0
 62
   257
176
     0
 90
        1
176
     0
 90
        1
176
     0
 40
1.0
176
     0
 90
        8
176
     2
 62
     7
176
     0
 40
1.0
176
     0
 90
        1
176
     0
 90
        6
176
     0
 90
        2
176
     0
 62
     7
176
     0
 90
        5
176
     0
 90
        0
176
     0
 90
        0
176
     0
290
     0
176
     0
 90
        1
176
     0
 40
0.0
176
     0
 90
        0
176
     0
290
     0
176
     1
290
     1
176
     1
290
     1
176
     1
290
     0
176
     1
290
     0
176
     1
290
     0
176
     1
290
     0
176
     1
290
     0
176
     1
290
     0
176
     1
 90
       50
176
     0
 40
0.0
176
     0
 40
1.0
176
     0
 90
        0
176
     0
 62
    18
420
        0
176
     0
 90
       50
176
     0
 90
        3
176
     0
 62
     5
420
      255
176
     0
290
     0
176
     1
 90
       50
176
     0
 90
       50
176
     0
 90
       50
176
     0
290
     0
176
     1
 90
       50
176
     0
 62
   256
176
     0
 40
1.0
176
     0
 90
        2
176
     0
  1
strokes_ogs.tif
176
     0
290
     0
176
     1
 40
1.0
176
     0
 40
1.0
176
     0
1001
ACAD
1000
AcDbSavedByObjectVersion
1070
     0
  0
VISUALSTYLE
  5
39
102
{ACAD_REACTORS
330
2A
102
}
330
2A
100
AcDbVisualStyle
  2
Facepattern
 70
    15
177
     3
291
     1
 70
    58
 90
        2
176
     1
 90
        2
176
     1
 90
        0
176
     1
 90
        0
176
     1
 40
0.6
176
     1
 40
30.0
176
     1
 62
     7
420
 16777215
176
     1
 90
        1
176
     1
 90
        4
176
     1
 62
     7
176
     1
 62
   257
176
     1
 90
        1
176
     1
 90
        1
176
     1
 40
1.0
176
     1
 90
        8
176
     1
 62
     7
176
     1
 40
1.0
176
     1
 90
        1
176
     1
 90
        6
176
     1
 90
        2
176
     1
 62
     7
176
     1
 90
        5
176
     1
 90
        0
176
     1
 90
        0
176
     1
290
     0
176
     1
 90
        1
176
     1
 40
0.0
176
     1
 90
        0
176
     1
290
     0
176
     1
290
     1
176
     1
290
     1
176
     1
290
     0
176
     1
290
     0
176
     1
290
     0
176
     1
290
     0
176
     1
290
     0
176
     1
290
     0
176
     1
 90
       50
176
     1
 40
0.0
176
     1
 40
1.0
176
     1
 90
        0
176
     1
 62
    18
420
        0
176
     1
 90
       50
176
     1
 90
        3
176
     1
 62
     5
420
      255
176
     1
290
     0
176
     1
 90
       50
176
     1
 90
       50
176
     1
 90
       50
176
     1
290
     0
176
     1
 90
       50
176
     1
 62
   256
176
     0
 40
1.0
176
     0
 90
        2
176
     1
  1
strokes_ogs.tif
176
     1
290
     0
176
     1
 40
1.0
176
     1
 40
1.0
176
     1
1001
ACAD
1000
AcDbSavedByObjectVersion
1070
     0
  0
VISUALSTYLE
  5
2B
102
{ACAD_REACTORS
330
2A
102
}
330
2A
100
AcDbVisualStyle
  2
Flat
 70
     0
177
     3
291
     1
 70
    58
 90
        2
176
     1
 90
        1
176
     1
 90
        1
176
     1
 90
        2
176
     1
 40
0.6
176
     1
 40
30.0
176
     1
 62
     7
420
 16777215
176
     1
 90
        0
176
     1
 90
        4
176
     1
 62
     7
176
     1
 62
   257
176
     1
 90
        1
176
     1
 90
        1
176
     1
 40
1.0
176
     1
 90
        8
176
     1
 62
     7
176
     1
 40
1.0
176
     1
 90
        1
176
     1
 90
        6
176
     1
 90
        2
176
     1
 62
     7
176
     1
 90
        5
176
     1
 90
        0
176
     1
 90
        0
176
     1
290
     0
176
     1
 90
       13
176
     1
 40
0.0
176
     1
 90
        0
176
     1
290
     0
176
     1
290
     1
176
     1
290
     1
176
     1
290
     0
176
     1
290
     0
176
     1
290
     0
176
     1
290
     0
176
     1
290
     0
176
     1
290
     0
176
     1
 90
       50
176
     1
 40
0.0
176
     1
 40
1.0
176
     1
 90
        0
176
     1
 62
    18
420
        0
176
     1
 90
       50
176
     1
 90
        3
176
     1
 62
     5
420
      255
176
     1
290
     0
176
     1
 90
       50
176
     1
 90
       50
176
     1
 90
       50
176
     1
290
     0
176
     1
 90
       50
176
     1
 62
   256
176
     0
 40
1.0
176
     0
 90
        2
176
     1
  1
strokes_ogs.tif
176
     1
290
     0
176
     1
 40
1.0
176
     1
 40
1.0
176
     1
1001
ACAD
1000
AcDbSavedByObjectVersion
1070
     0
  0
VISUALSTYLE
  5
2C
102
{ACAD_REACTORS
330
2A
102
}
330
2A
100
AcDbVisualStyle
  2
FlatWithEdges
 70
     1
177
     3
291
     1
 70
    58
 90
        2
176
     1
 90
        1
176
     1
 90
        1
176
     1
 90
        2
176
     1
 40
0.6
176
     1
 40
30.0
176
     1
 62
     7
420
 16777215
176
     1
 90
        1
176
     1
 90
        4
176
     1
 62
     7
176
     1
 62
   257
176
     1
 90
        1
176
     1
 90
        1
176
     1
 40
1.0
176
     1
 90
        0
176
     1
 62
   257
176
     1
 40
1.0
176
     1
 90
        1
176
     1
 90
        6
176
     1
 90
        2
176
     1
 62
     7
176
     1
 90
        5
176
     1
 90
        0
176
     1
 90
        0
176
     1
290
     0
176
     1
 90
       13
176
     1
 40
0.0
176
     1
 90
        0
176
     1
290
     0
176
     1
290
     1
176
     1
290
     1
176
     1
290
     0
176
     1
290
     0
176
     1
290
     0
176
     1
290
     0
176
     1
290
     0
176
     1
290
     0
176
     1
 90
       50
176
     1
 40
0.0
176
     1
 40
1.0
176
     1
 90
        0
176
     1
 62
    18
420
        0
176
     1
 90
       50
176
     1
 90
        3
176
     1
 62
     5
420
      255
176
     1
290
     0
176
     1
 90
       50
176
     1
 90
       50
176
     1
 90
       50
176
     1
290
     0
176
     1
 90
       50
176
     1
 62
   256
176
     0
 40
1.0
176
     0
 90
        2
176
     1
  1
strokes_ogs.tif
176
     1
290
     0
176
     1
 40
1.0
176
     1
 40
1.0
176
     1
1001
ACAD
1000
AcDbSavedByObjectVersion
1070
     0
  0
VISUALSTYLE
  5
2D
102
{ACAD_REACTORS
330
2A
102
}
330
2A
100
AcDbVisualStyle
  2
Gouraud
 70
     2
177
     3
291
     1
 70
    58
 90
        2
176
     1
 90
        2
176
     1
 90
        1
176
     1
 90
        2
176
     1
 40
0.6
176
     1
 40
30.0
176
     1
 62
     7
420
 16777215
176
     1
 90
        0
176
     1
 90
        4
176
     1
 62
     7
176
     1
 62
   257
176
     1
 90
        1
176
     1
 90
        1
176
     1
 40
1.0
176
     1
 90
        0
176
     1
 62
     7
176
     1
 40
1.0
176
     1
 90
        1
176
     1
 90
        6
176
     1
 90
        2
176
     1
 62
     7
176
     1
 90
        5
176
     1
 90
        0
176
     1
 90
        0
176
     1
290
     0
176
     1
 90
       13
176
     1
 40
0.0
176
     1
 90
        0
176
     1
290
     0
176
     1
290
     1
176
     1
290
     1
176
     1
290
     0
176
     1
290
     0
176
     1
290
     0
176
     1
290
     0
176
     1
290
     0
176
     1
290
     0
176
     1
 90
       50
176
     1
 40
0.0
176
     1
 40
1.0
176
     1
 90
        0
176
     1
 62
    18
420
        0
176
     1
 90
       50
176
     1
 90
        3
176
     1
 62
     5
420
      255
176
     1
290
     0
176
     1
 90
       50
176
     1
 90
       50
176
     1
 90
       50
176
     1
290
     0
176
     1
 90
       50
176
     1
 62
   256
176
     0
 40
1.0
176
     0
 90
        2
176
     1
  1
strokes_ogs.tif
176
     1
290
     0
176
     1
 40
1.0
176
     1
 40
1.0
176
     1
1001
ACAD
1000
AcDbSavedByObjectVersion
1070
     0
  0
VISUALSTYLE
  5
2E
102
{ACAD_REACTORS
330
2A
102
}
330
2A
100
AcDbVisualStyle
  2
GouraudWithEdges
 70
     3
177
     3
291
     1
 70
    58
 90
        2
176
     1
 90
        2
176
     1
 90
        1
176
     1
 90
        2
176
     1
 40
0.6
176
     1
 40
30.0
176
     1
 62
     7
420
 16777215
176
     1
 90
        1
176
     1
 90
        4
176
     1
 62
     7
176
     1
 62
   257
176
     1
 90
        1
176
     1
 90
        1
176
     1
 40
1.0
176
     1
 90
        0
176
     1
 62
   257
176
     1
 40
1.0
176
     1
 90
        1
176
     1
 90
        6
176
     1
 90
        2
176
     1
 62
     7
176
     1
 90
        5
176
     1
 90
        0
176
     1
 90
        0
176
     1
290
     0
176
     1
 90
       13
176
     1
 40
0.0
176
     1
 90
        0
176
     1
290
     0
176
     1
290
     1
176
     1
290
     1
176
     1
290
     0
176
     1
290
     0
176
     1
290
     0
176
     1
290
     0
176
     1
290
     0
176
     1
290
     0
176
     1
 90
       50
176
     1
 40
0.0
176
     1
 40
1.0
176
     1
 90
        0
176
     1
 62
    18
420
        0
176
     1
 90
       50
176
     1
 90
        3
176
     1
 62
     5
420
      255
176
     1
290
     0
176
     1
 90
       50
176
     1
 90
       50
176
     1
 90
       50
176
     1
290
     0
176
     1
 90
       50
176
     1
 62
   256
176
     0
 40
1.0
176
     0
 90
        2
176
     1
  1
strokes_ogs.tif
176
     1
290
     0
176
     1
 40
1.0
176
     1
 40
1.0
176
     1
1001
ACAD
1000
AcDbSavedByObjectVersion
1070
     0
  0
VISUALSTYLE
  5
89
102
{ACAD_REACTORS
330
2A
102
}
330
2A
100
AcDbVisualStyle
  2
Hidden
 70
     6
177
     3
291
     0
 70
    58
 90
        1
176
     1
 90
        2
176
     1
 90
        2
176
     1
 90
        0
176
     1
 40
0.6
176
     1
 40
30.0
176
     1
 62
     7
420
 16777215
176
     1
 90
        2
176
     1
 90
        2
176
     1
 62
     7
176
     1
 62
   257
176
     1
 90
        2
176
     1
 90
        1
176
     1
 40
40.0
176
     1
 90
        0
176
     1
 62
   257
176
     1
 40
1.0
176
     1
 90
        1
176
     1
 90
        6
176
     1
 90
        2
176
     1
 62
     7
176
     1
 90
        3
176
     1
 90
        0
176
     1
 90
        0
176
     1
290
     0
176
     1
 90
        1
176
     1
 40
0.0
176
     1
 90
        0
176
     1
290
     0
176
     1
290
     1
176
     1
290
     1
176
     1
290
     0
176
     1
290
     0
176
     1
290
     0
176
     1
290
     0
176
     1
290
     0
176
     1
290
     0
176
     1
 90
       50
176
     1
 40
0.0
176
     1
 40
1.0
176
     1
 90
        0
176
     1
 62
    18
420
        0
176
     1
 90
       50
176
     1
 90
        3
176
     1
 62
     5
420
      255
176
     1
290
     0
176
     1
 90
       50
176
     1
 90
       50
176
     1
 90
       50
176
     1
290
     0
176
     1
 90
       50
176
     1
 62
   256
176
     0
 40
1.0
176
     0
 90
        2
176
     1
  1
strokes_ogs.tif
176
     1
290
     0
176
     1
 40
1.0
176
     1
 40
1.0
176
     1
1001
ACAD
1000
AcDbSavedByObjectVersion
1070
     0
  0
VISUALSTYLE
  5
8F
102
{ACAD_REACTORS
330
2A
102
}
330
2A
100
AcDbVisualStyle
  2
JitterOff
 70
    20
177
     3
291
     1
 70
    58
 90
        2
176
     0
 90
        2
176
     0
 90
        0
176
     0
 90
        0
176
     0
 40
0.6
176
     0
 40
30.0
176
     0
 62
     7
420
 16777215
176
     0
 90
        1
176
     0
 90
        4
176
     0
 62
     7
176
     0
 62
   257
176
     0
 90
        1
176
     0
 90
        1
176
     0
 40
1.0
176
     0
 90
       10
176
     2
 62
     7
176
     0
 40
1.0
176
     0
 90
        1
176
     0
 90
        6
176
     0
 90
        2
176
     0
 62
     7
176
     0
 90
        5
176
     0
 90
        0
176
     0
 90
        0
176
     0
290
     0
176
     0
 90
        1
176
     0
 40
0.0
176
     0
 90
        0
176
     0
290
     0
176
     1
290
     1
176
     1
290
     1
176
     1
290
     0
176
     1
290
     0
176
     1
290
     0
176
     1
290
     0
176
     1
290
     0
176
     1
290
     0
176
     1
 90
       50
176
     0
 40
0.0
176
     0
 40
1.0
176
     0
 90
        0
176
     0
 62
    18
420
        0
176
     0
 90
       50
176
     0
 90
        3
176
     0
 62
     5
420
      255
176
     0
290
     0
176
     1
 90
       50
176
     0
 90
       50
176
     0
 90
       50
176
     0
290
     0
176
     1
 90
       50
176
     0
 62
   256
176
     0
 40
1.0
176
     0
 90
        2
176
     0
  1
strokes_ogs.tif
176
     0
290
     0
176
     1
 40
1.0
176
     0
 40
1.0
176
     0
1001
ACAD
1000
AcDbSavedByObjectVersion
1070
     0
  0
VISUALSTYLE
  5
38
102
{ACAD_REACTORS
330
2A
102
}
330
2A
100
AcDbVisualStyle
  2
Linepattern
 70
    14
177
     3
291
     1
 70
    58
 90
        2
176
     1
 90
        2
176
     1
 90
        0
176
     1
 90
        0
176
     1
 40
0.6
176
     1
 40
30.0
176
     1
 62
     7
420
 16777215
176
     1
 90
        1
176
     1
 90
        4
176
     1
 62
     7
176
     1
 62
   257
176
     1
 90
        7
176
     1
 90
        7
176
     1
 40
1.0
176
     1
 90
        8
176
     1
 62
     7
176
     1
 40
1.0
176
     1
 90
        1
176
     1
 90
        6
176
     1
 90
        2
176
     1
 62
     7
176
     1
 90
        5
176
     1
 90
        0
176
     1
 90
        0
176
     1
290
     0
176
     1
 90
        1
176
     1
 40
0.0
176
     1
 90
        0
176
     1
290
     0
176
     1
290
     1
176
     1
290
     1
176
     1
290
     0
176
     1
290
     0
176
     1
290
     0
176
     1
290
     0
176
     1
290
     0
176
     1
290
     0
176
     1
 90
       50
176
     1
 40
0.0
176
     1
 40
1.0
176
     1
 90
        0
176
     1
 62
    18
420
        0
176
     1
 90
       50
176
     1
 90
        3
176
     1
 62
     5
420
      255
176
     1
290
     0
176
     1
 90
       50
176
     1
 90
       50
176
     1
 90
       50
176
     1
290
     0
176
     1
 90
       50
176
     1
 62
   256
176
     0
 40
1.0
176
     0
 90
        2
176
     1
  1
strokes_ogs.tif
176
     1
290
     0
176
     1
 40
1.0
176
     1
 40
1.0
176
     1
1001
ACAD
1000
AcDbSavedByObjectVersion
1070
     0
  0
VISUALSTYLE
  5
90
102
{ACAD_REACTORS
330
2A
102
}
330
2A
100
AcDbVisualStyle
  2
OverhangOff
 70
    21
177
     3
291
     1
 70
    58
 90
        2
176
     0
 90
        2
176
     0
 90
        0
176
     0
 90
        0
176
     0
 40
0.6
176
     0
 40
30.0
176
     0
 62
     7
420
 16777215
176
     0
 90
        1
176
     0
 90
        4
176
     0
 62
     7
176
     0
 62
   257
176
     0
 90
        1
176
     0
 90
        1
176
     0
 40
1.0
176
     0
 90
        9
176
     2
 62
     7
176
     0
 40
1.0
176
     0
 90
        1
176
     0
 90
        6
176
     0
 90
        2
176
     0
 62
     7
176
     0
 90
        5
176
     0
 90
        0
176
     0
 90
        0
176
     0
290
     0
176
     0
 90
        1
176
     0
 40
0.0
176
     0
 90
        0
176
     0
290
     0
176
     1
290
     1
176
     1
290
     1
176
     1
290
     0
176
     1
290
     0
176
     1
290
     0
176
     1
290
     0
176
     1
290
     0
176
     1
290
     0
176
     1
 90
       50
176
     0
 40
0.0
176
     0
 40
1.0
176
     0
 90
        0
176
     0
 62
    18
420
        0
176
     0
 90
       50
176
     0
 90
        3
176
     0
 62
     5
420
      255
176
     0
290
     0
176
     1
 90
       50
176
     0
 90
       50
176
     0
 90
       50
176
     0
290
     0
176
     1
 90
       50
176
     0
 62
   256
176
     0
 40
1.0
176
     0
 90
        2
176
     0
  1
strokes_ogs.tif
176
     0
290
     0
176
     1
 40
1.0
176
     0
 40
1.0
176
     0
1001
ACAD
1000
AcDbSavedByObjectVersion
1070
     0
  0
VISUALSTYLE
  5
33
102
{ACAD_REACTORS
330
2A
102
}
330
2A
100
AcDbVisualStyle
  2
Realistic
 70
     8
177
     3
291
     0
 70
    58
 90
        2
176
     1
 90
        2
176
     1
 90
        0
176
     1
 90
        0
176
     1
 40
0.6
176
     1
 40
30.0
176
     1
 62
     7
420
 16777215
176
     1
 90
        1
176
     1
 90
        0
176
     1
 62
     7
176
     1
 62
   257
176
     1
 90
        1
176
     1
 90
        1
176
     1
 40
1.0
176
     1
 90
        8
176
     1
 62
     8
420
  7895160
176
     1
 40
1.0
176
     1
 90
        1
176
     1
 90
        6
176
     1
 90
        2
176
     1
 62
     7
176
     1
 90
        5
176
     1
 90
        0
176
     1
 90
        0
176
     1
290
     0
176
     1
 90
       13
176
     1
 40
0.0
176
     1
 90
        0
176
     1
290
     0
176
     1
290
     1
176
     1
290
     1
176
     1
290
     0
176
     1
290
     0
176
     1
290
     0
176
     1
290
     0
176
     1
290
     0
176
     1
290
     0
176
     1
 90
       50
176
     1
 40
0.0
176
     1
 40
1.0
176
     1
 90
        0
176
     1
 62
    18
420
        0
176
     1
 90
       50
176
     1
 90
        3
176
     1
 62
     5
420
      255
176
     1
290
     0
176
     1
 90
       50
176
     1
 90
       50
176
     1
 90
       50
176
     1
290
     0
176
     1
 90
       50
176
     1
 62
   256
176
     0
 40
1.0
176
     0
 90
        2
176
     1
  1
strokes_ogs.tif
176
     1
290
     0
176
     1
 40
1.0
176
     1
 40
1.0
176
     1
1001
ACAD
1000
AcDbSavedByObjectVersion
1070
     0
  0
VISUALSTYLE
  5
8E
102
{ACAD_REACTORS
330
2A
102
}
330
2A
100
AcDbVisualStyle
  2
Shaded
 70
    27
177
     3
291
     0
 70
    58
 90
        2
176
     1
 90
        2
176
     1
 90
        1
176
     1
 90
        2
176
     1
 40
0.6
176
     1
 40
30.0
176
     1
 62
     7
420
 16777215
176
     1
 90
        0
176
     1
 90
        4
176
     1
 62
     7
176
     1
 62
   257
176
     1
 90
        1
176
     1
 90
        1
176
     1
 40
1.0
176
     1
 90
        8
176
     1
 62
   257
176
     1
 40
1.0
176
     1
 90
        1
176
     1
 90
        6
176
     1
 90
        2
176
     1
 62
     8
420
  7895160
176
     1
 90
        3
176
     1
 90
        0
176
     1
 90
        0
176
     1
290
     0
176
     1
 90
        5
176
     1
 40
0.0
176
     1
 90
        0
176
     1
290
     0
176
     1
290
     1
176
     1
290
     1
176
     1
290
     0
176
     1
290
     0
176
     1
290
     0
176
     1
290
     0
176
     1
290
     0
176
     1
290
     0
176
     1
 90
       50
176
     1
 40
0.0
176
     1
 40
1.0
176
     1
 90
        0
176
     1
 62
    18
420
        0
176
     1
 90
       50
176
     1
 90
        3
176
     1
 62
     5
420
      255
176
     1
290
     0
176
     1
 90
       50
176
     1
 90
       50
176
     1
 90
       50
176
     1
290
     0
176
     1
 90
       50
176
     1
 62
   256
176
     0
 40
1.0
176
     0
 90
        2
176
     1
  1
strokes_ogs.tif
176
     1
290
     0
176
     1
 40
1.0
176
     1
 40
1.0
176
     1
1001
ACAD
1000
AcDbSavedByObjectVersion
1070
     0
  0
VISUALSTYLE
  5
8D
102
{ACAD_REACTORS
330
2A
102
}
330
2A
100
AcDbVisualStyle
  2
Shaded with edges
 70
    26
177
     3
291
     0
 70
    58
 90
        2
176
     1
 90
        2
176
     1
 90
        1
176
     1
 90
        2
176
     1
 40
0.6
176
     1
 40
30.0
176
     1
 62
     7
420
 16777215
176
     1
 90
        1
176
     1
 90
        2
176
     1
 62
     7
176
     1
 62
   257
176
     1
 90
        2
176
     1
 90
        1
176
     1
 40
1.0
176
     1
 90
        8
176
     1
 62
   257
176
     1
 40
1.0
176
     1
 90
        1
176
     1
 90
        6
176
     1
 90
        2
176
     1
 62
     7
176
     1
 90
        3
176
     1
 90
        0
176
     1
 90
        0
176
     1
290
     0
176
     1
 90
        5
176
     1
 40
0.0
176
     1
 90
        0
176
     1
290
     0
176
     1
290
     1
176
     1
290
     1
176
     1
290
     0
176
     1
290
     0
176
     1
290
     0
176
     1
290
     0
176
     1
290
     0
176
     1
290
     0
176
     1
 90
       50
176
     1
 40
0.0
176
     1
 40
1.0
176
     1
 90
        0
176
     1
 62
    18
420
        0
176
     1
 90
       50
176
     1
 90
        3
176
     1
 62
     5
420
      255
176
     1
290
     0
176
     1
 90
       50
176
     1
 90
       50
176
     1
 90
       50
176
     1
290
     0
176
     1
 90
       50
176
     1
 62
   256
176
     0
 40
1.0
176
     0
 90
        2
176
     1
  1
strokes_ogs.tif
176
     1
290
     0
176
     1
 40
1.0
176
     1
 40
1.0
176
     1
1001
ACAD
1000
AcDbSavedByObjectVersion
1070
     0
  0
VISUALSTYLE
  5
8A
102
{ACAD_REACTORS
330
2A
102
}
330
2A
100
AcDbVisualStyle
  2
Shades of Gray
 70
    23
177
     3
291
     0
 70
    58
 90
        2
176
     1
 90
        2
176
     1
 90
        3
176
     1
 90
        0
176
     1
 40
0.6
176
     1
 40
30.0
176
     1
 62
     7
420
 16777215
176
     1
 90
        2
176
     1
 90
        2
176
     1
 62
     7
176
     1
 62
     7
176
     1
 90
        1
176
     1
 90
        1
176
     1
 40
40.0
176
     1
 90
        8
176
     1
 62
     7
176
     1
 40
1.0
176
     1
 90
        1
176
     1
 90
        6
176
     1
 90
        2
176
     1
 62
     7
176
     1
 90
        3
176
     1
 90
        0
176
     1
 90
        0
176
     1
290
     0
176
     1
 90
        1
176
     1
 40
0.0
176
     1
 90
        0
176
     1
290
     0
176
     1
290
     1
176
     1
290
     1
176
     1
290
     0
176
     1
290
     0
176
     1
290
     0
176
     1
290
     0
176
     1
290
     0
176
     1
290
     0
176
     1
 90
       50
176
     1
 40
0.0
176
     1
 40
1.0
176
     1
 90
        0
176
     1
 62
    18
420
        0
176
     1
 90
       50
176
     1
 90
        3
176
     1
 62
     5
420
      255
176
     1
290
     0
176
     1
 90
       50
176
     1
 90
       50
176
     1
 90
       50
176
     1
290
     0
176
     1
 90
       50
176
     1
 62
   256
176
     0
 40
1.0
176
     0
 90
        2
176
     1
  1
strokes_ogs.tif
176
     1
290
     0
176
     1
 40
1.0
176
     1
 40
1.0
176
     1
1001
ACAD
1000
AcDbSavedByObjectVersion
1070
     0
  0
VISUALSTYLE
  5
8B
102
{ACAD_REACTORS
330
2A
102
}
330
2A
100
AcDbVisualStyle
  2
Sketchy
 70
    24
177
     3
291
     0
 70
    58
 90
        1
176
     1
 90
        2
176
     1
 90
        2
176
     1
 90
        0
176
     1
 40
0.6
176
     1
 40
30.0
176
     1
 62
     7
420
 16777215
176
     1
 90
        2
176
     1
 90
        2
176
     1
 62
     7
176
     1
 62
     7
176
     1
 90
        1
176
     1
 90
        1
176
     1
 40
40.0
176
     1
 90
       11
176
     1
 62
     7
176
     1
 40
1.0
176
     1
 90
        1
176
     1
 90
        6
176
     1
 90
        2
176
     1
 62
     7
176
     1
 90
        6
176
     1
 90
        0
176
     1
 90
        0
176
     1
290
     0
176
     1
 90
        1
176
     1
 40
0.0
176
     1
 90
        0
176
     1
290
     0
176
     1
290
     1
176
     1
290
     1
176
     1
290
     0
176
     1
290
     0
176
     1
290
     0
176
     1
290
     0
176
     1
290
     0
176
     1
290
     0
176
     1
 90
       50
176
     1
 40
0.0
176
     1
 40
1.0
176
     1
 90
        0
176
     1
 62
    18
420
        0
176
     1
 90
       50
176
     1
 90
        3
176
     1
 62
     5
420
      255
176
     1
290
     0
176
     1
 90
       50
176
     1
 90
       50
176
     1
 90
       50
176
     1
290
     0
176
     1
 90
       50
176
     1
 62
   256
176
     0
 40
1.0
176
     0
 90
        2
176
     1
  1
strokes_ogs.tif
176
     1
290
     0
176
     1
 40
1.0
176
     1
 40
1.0
176
     1
1001
ACAD
1000
AcDbSavedByObjectVersion
1070
     0
  0
VISUALSTYLE
  5
37
102
{ACAD_REACTORS
330
2A
102
}
330
2A
100
AcDbVisualStyle
  2
Thicken
 70
    13
177
     3
291
     1
 70
    58
 90
        2
176
     1
 90
        2
176
     1
 90
        0
176
     1
 90
        0
176
     1
 40
0.6
176
     1
 40
30.0
176
     1
 62
     7
420
 16777215
176
     1
 90
        1
176
     1
 90
        4
176
     1
 62
     7
176
     1
 62
   257
176
     1
 90
        1
176
     1
 90
        1
176
     1
 40
1.0
176
     1
 90
       12
176
     1
 62
     7
176
     1
 40
1.0
176
     1
 90
        1
176
     1
 90
        6
176
     1
 90
        2
176
     1
 62
     7
176
     1
 90
        5
176
     1
 90
        0
176
     1
 90
        0
176
     1
290
     0
176
     1
 90
        1
176
     1
 40
0.0
176
     1
 90
        0
176
     1
290
     0
176
     1
290
     1
176
     1
290
     1
176
     1
290
     0
176
     1
290
     0
176
     1
290
     0
176
     1
290
     0
176
     1
290
     0
176
     1
290
     0
176
     1
 90
       50
176
     1
 40
0.0
176
     1
 40
1.0
176
     1
 90
        0
176
     1
 62
    18
420
        0
176
     1
 90
       50
176
     1
 90
        3
176
     1
 62
     5
420
      255
176
     1
290
     0
176
     1
 90
       50
176
     1
 90
       50
176
     1
 90
       50
176
     1
290
     0
176
     1
 90
       50
176
     1
 62
   256
176
     0
 40
1.0
176
     0
 90
        2
176
     1
  1
strokes_ogs.tif
176
     1
290
     0
176
     1
 40
1.0
176
     1
 40
1.0
176
     1
1001
ACAD
1000
AcDbSavedByObjectVersion
1070
     0
  0
VISUALSTYLE
  5
88
102
{ACAD_REACTORS
330
2A
102
}
330
2A
100
AcDbVisualStyle
  2
Wireframe
 70
     5
177
     3
291
     0
 70
    58
 90
        0
176
     1
 90
        2
176
     1
 90
        0
176
     1
 90
        0
176
     1
 40
0.6
176
     1
 40
30.0
176
     1
 62
     7
420
 16777215
176
     1
 90
        1
176
     1
 90
        4
176
     1
 62
     7
176
     1
 62
   257
176
     1
 90
        1
176
     1
 90
        1
176
     1
 40
1.0
176
     1
 90
        0
176
     1
 62
   257
176
     1
 40
1.0
176
     1
 90
        1
176
     1
 90
        6
176
     1
 90
        2
176
     1
 62
     7
176
     1
 90
        3
176
     1
 90
        0
176
     1
 90
        0
176
     1
290
     0
176
     1
 90
        1
176
     1
 40
0.0
176
     1
 90
        0
176
     1
290
     0
176
     1
290
     1
176
     1
290
     1
176
     1
290
     0
176
     1
290
     0
176
     1
290
     0
176
     1
290
     0
176
     1
290
     0
176
     1
290
     0
176
     1
 90
       50
176
     1
 40
0.0
176
     1
 40
1.0
176
     1
 90
        0
176
     1
 62
    18
420
        0
176
     1
 90
       50
176
     1
 90
        3
176
     1
 62
     5
420
      255
176
     1
290
     0
176
     1
 90
       50
176
     1
 90
       50
176
     1
 90
       50
176
     1
290
     0
176
     1
 90
       50
176
     1
 62
   256
176
     0
 40
1.0
176
     0
 90
        2
176
     1
  1
strokes_ogs.tif
176
     1
290
     0
176
     1
 40
1.0
176
     1
 40
1.0
176
     1
1001
ACAD
1000
AcDbSavedByObjectVersion
1070
     0
  0
VISUALSTYLE
  5
8C
102
{ACAD_REACTORS
330
2A
102
}
330
2A
100
AcDbVisualStyle
  2
X-Ray
 70
    25
177
     3
291
     0
 70
    58
 90
        2
176
     1
 90
        2
176
     1
 90
        1
176
     1
 90
        1
176
     1
 40
0.5
176
     1
 40
30.0
176
     1
 62
     7
420
 16777215
176
     1
 90
        1
176
     1
 90
        0
176
     1
 62
     7
176
     1
 62
   257
176
     1
 90
        1
176
     1
 90
        1
176
     1
 40
1.0
176
     1
 90
        8
176
     1
 62
     7
176
     1
 40
1.0
176
     1
 90
        1
176
     1
 90
        6
176
     1
 90
        2
176
     1
 62
     7
176
     1
 90
        3
176
     1
 90
        0
176
     1
 90
        0
176
     1
290
     0
176
     1
 90
       13
176
     1
 40
0.0
176
     1
 90
        0
176
     1
290
     0
176
     1
290
     1
176
     1
290
     1
176
     1
290
     0
176
     1
290
     0
176
     1
290
     0
176
     1
290
     0
176
     1
290
     0
176
     1
290
     0
176
     1
 90
       50
176
     1
 40
0.0
176
     1
 40
1.0
176
     1
 90
        0
176
     1
 62
    18
420
        0
176
     1
 90
       50
176
     1
 90
        3
176
     1
 62
     5
420
      255
176
     1
290
     0
176
     1
 90
       50
176
     1
 90
       50
176
     1
 90
       50
176
     1
290
     0
176
     1
 90
       50
176
     1
 62
   256
176
     0
 40
1.0
176
     0
 90
        2
176
     1
  1
strokes_ogs.tif
176
     1
290
     0
176
     1
 40
1.0
176
     1
 40
1.0
176
     1
1001
ACAD
1000
AcDbSavedByObjectVersion
1070
     0
  0
DICTIONARYVAR
  5
E9
102
{ACAD_REACTORS
330
E4
102
}
330
E4
100
DictionaryVariables
280
     0
  1
1:1
  0
DICTIONARYVAR
  5
E6
102
{ACAD_REACTORS
330
E4
102
}
330
E4
100
DictionaryVariables
280
     0
  1
STANDARD
  0
DICTIONARYVAR
  5
E5
102
{ACAD_REACTORS
330
E4
102
}
330
E4
100
DictionaryVariables
280
     0
  1
STANDARD
  0
DICTIONARYVAR
  5
E7
102
{ACAD_REACTORS
330
E4
102
}
330
E4
100
DictionaryVariables
280
     0
  1
Imperial24
  0
DICTIONARYVAR
  5
E8
102
{ACAD_REACTORS
330
E4
102
}
330
E4
100
DictionaryVariables
280
     0
  1
Imperial24
  0
DICTIONARY
  5
F5
330
AE
100
AcDbDictionary
280
     1
281
     1
  3
ACAD_XREC_ROUNDTRIP
360
F6
  0
DICTIONARY
  5
F3
330
AC
100
AcDbDictionary
280
     1
281
     1
  3
ACAD_XREC_ROUNDTRIP
360
F4
  0
DICTIONARY
  5
F0
330
93
100
AcDbDictionary
280
     1
281
     1
  3
ACAD_ROUNDTRIP_2008_TABLESTYLE_CELLSTYLEMAP
360
F1
  0
XRECORD
  5
F6
102
{ACAD_REACTORS
330
F5
102
}
330
F5
100
AcDbXrecord
280
     1
102
DISPLAYNAME
  1
Imperial24
102
FLAGS
 90
        0
  0
XRECORD
  5
F4
102
{ACAD_REACTORS
330
F3
102
}
330
F3
100
AcDbXrecord
280
     1
102
DISPLAYNAME
  1
Imperial24
102
FLAGS
 90
        0
  0
CELLSTYLEMAP
  5
F1
102
{ACAD_REACTORS
330
F0
102
}
330
F0
100
AcDbCellStyleMap
 90
        3
300
CELLSTYLE
  1
TABLEFORMAT_BEGIN
 90
        5
170
     1
 91
        0
 92
    32768
 62
   257
 93
        1
300
CONTENTFORMAT
  1
CONTENTFORMAT_BEGIN
 90
        0
 91
        0
 92
      512
 93
        0
300

 40
0.0
140
1.0
 94
        5
 62
     0
340
11
144
0.25
309
CONTENTFORMAT_END
171
     0
 94
        0
309
TABLEFORMAT_END
  1
CELLSTYLE_BEGIN
 90
        1
 91
        1
300
_TITLE
309
CELLSTYLE_END
300
CELLSTYLE
  1
TABLEFORMAT_BEGIN
 90
        5
170
     1
 91
        0
 92
        0
 62
   257
 93
        1
300
CONTENTFORMAT
  1
CONTENTFORMAT_BEGIN
 90
        0
 91
        0
 92
      512
 93
        0
300

 40
0.0
140
1.0
 94
        5
 62
     0
340
11
144
0.18
309
CONTENTFORMAT_END
171
     0
 94
        0
309
TABLEFORMAT_END
  1
CELLSTYLE_BEGIN
 90
        2
 91
        1
300
_HEADER
309
CELLSTYLE_END
300
CELLSTYLE
  1
TABLEFORMAT_BEGIN
 90
        5
170
     1
 91
        0
 92
        0
 62
   257
 93
        1
300
CONTENTFORMAT
  1
CONTENTFORMAT_BEGIN
 90
        0
 91
        0
 92
      512
 93
        0
300

 40
0.0
140
1.0
 94
        2
 62
     0
340
11
144
0.18
309
CONTENTFORMAT_END
171
     0
 94
        0
309
TABLEFORMAT_END
  1
CELLSTYLE_BEGIN
 90
        3
 91
        2
300
_DATA
309
CELLSTYLE_END
  0
ENDSEC
  0
EOF
