  0
SECTION
  2
HEADER
  9
$ACADVER
  1
AC1027
  9
$ACADMAINTVER
 70
   125
  9
$DWGCODEPAGE
  3
ANSI_1252
  9
$LASTSAVEDBY
  1
ufficio.tecnico
  9
$REQUIREDVERSIONS
160
                 0
  9
$INSBASE
 10
0.0
 20
0.0
 30
0.0
  9
$EXTMIN
 10
5.650269214738358
 20
-18.19937146897446
 30
0.0
  9
$EXTMAX
 10
26.48917181410195
 20
-2.897730777053288
 30
0.0
  9
$LIMMIN
 10
0.0
 20
0.0
  9
$LIMMAX
 10
12.0
 20
9.0
  9
$ORTHOMODE
 70
     0
  9
$REGENMODE
 70
     1
  9
$FILLMODE
 70
     1
  9
$QTEXTMODE
 70
     0
  9
$MIRRTEXT
 70
     0
  9
$LTSCALE
 40
1.0
  9
$ATTMODE
 70
     1
  9
$TEXTSIZE
 40
0.2
  9
$TRACEWID
 40
0.05
  9
$TEXTSTYLE
  7
Standard
  9
$CLAYER
  8
0
  9
$CELTYPE
  6
ByLayer
  9
$CECOLOR
 62
   256
  9
$CELTSCALE
 40
1.0
  9
$DISPSILH
 70
     0
  9
$DIMSCALE
 40
1.0
  9
$DIMASZ
 40
0.18
  9
$DIMEXO
 40
0.0625
  9
$DIMDLI
 40
0.38
  9
$DIMRND
 40
0.0
  9
$DIMDLE
 40
0.0
  9
$DIMEXE
 40
0.18
  9
$DIMTP
 40
0.0
  9
$DIMTM
 40
0.0
  9
$DIMTXT
 40
0.18
  9
$DIMCEN
 40
0.09
  9
$DIMTSZ
 40
0.0
  9
$DIMTOL
 70
     0
  9
$DIMLIM
 70
     0
  9
$DIMTIH
 70
     1
  9
$DIMTOH
 70
     1
  9
$DIMSE1
 70
     0
  9
$DIMSE2
 70
     0
  9
$DIMTAD
 70
     0
  9
$DIMZIN
 70
     0
  9
$DIMBLK
  1

  9
$DIMASO
 70
     1
  9
$DIMSHO
 70
     1
  9
$DIMPOST
  1

  9
$DIMAPOST
  1

  9
$DIMALT
 70
     0
  9
$DIMALTD
 70
     2
  9
$DIMALTF
 40
25.4
  9
$DIMLFAC
 40
1.0
  9
$DIMTOFL
 70
     0
  9
$DIMTVP
 40
0.0
  9
$DIMTIX
 70
     0
  9
$DIMSOXD
 70
     0
  9
$DIMSAH
 70
     0
  9
$DIMBLK1
  1

  9
$DIMBLK2
  1

  9
$DIMSTYLE
  2
Standard
  9
$DIMCLRD
 70
     0
  9
$DIMCLRE
 70
     0
  9
$DIMCLRT
 70
     0
  9
$DIMTFAC
 40
1.0
  9
$DIMGAP
 40
0.09
  9
$DIMJUST
 70
     0
  9
$DIMSD1
 70
     0
  9
$DIMSD2
 70
     0
  9
$DIMTOLJ
 70
     1
  9
$DIMTZIN
 70
     0
  9
$DIMALTZ
 70
     0
  9
$DIMALTTZ
 70
     0
  9
$DIMUPT
 70
     0
  9
$DIMDEC
 70
     4
  9
$DIMTDEC
 70
     4
  9
$DIMALTU
 70
     2
  9
$DIMALTTD
 70
     2
  9
$DIMTXSTY
  7
Standard
  9
$DIMAUNIT
 70
     0
  9
$DIMADEC
 70
     0
  9
$DIMALTRND
 40
0.0
  9
$DIMAZIN
 70
     0
  9
$DIMDSEP
 70
    46
  9
$DIMATFIT
 70
     3
  9
$DIMFRAC
 70
     0
  9
$DIMLDRBLK
  1

  9
$DIMLUNIT
 70
     2
  9
$DIMLWD
 70
    -2
  9
$DIMLWE
 70
    -2
  9
$DIMTMOVE
 70
     0
  9
$DIMFXL
 40
1.0
  9
$DIMFXLON
 70
     0
  9
$DIMJOGANG
 40
0.7853981633974483
  9
$DIMTFILL
 70
     0
  9
$DIMTFILLCLR
 70
     0
  9
$DIMARCSYM
 70
     0
  9
$DIMLTYPE
  6

  9
$DIMLTEX1
  6

  9
$DIMLTEX2
  6

  9
$DIMTXTDIRECTION
 70
     0
  9
$LUNITS
 70
     2
  9
$LUPREC
 70
     4
  9
$SKETCHINC
 40
0.1
  9
$FILLETRAD
 40
0.0
  9
$AUNITS
 70
     0
  9
$AUPREC
 70
     0
  9
$MENU
  1
.
  9
$ELEVATION
 40
0.0
  9
$PELEVATION
 40
0.0
  9
$THICKNESS
 40
0.0
  9
$LIMCHECK
 70
     0
  9
$CHAMFERA
 40
0.0
  9
$CHAMFERB
 40
0.0
  9
$CHAMFERC
 40
0.0
  9
$CHAMFERD
 40
0.0
  9
$SKPOLY
 70
     0
  9
$TDCREATE
 40
2459328.423425926
  9
$TDUCREATE
 40
2459328.340092592
  9
$TDUPDATE
 40
2459341.359351852
  9
$TDUUPDATE
 40
2459341.276018518
  9
$TDINDWG
 40
0.0032986111
  9
$TDUSRTIMER
 40
0.0032986111
  9
$USRTIMER
 70
     1
  9
$ANGBASE
 50
0.0
  9
$ANGDIR
 70
     0
  9
$PDMODE
 70
     0
  9
$PDSIZE
 40
0.0
  9
$PLINEWID
 40
0.0
  9
$SPLFRAME
 70
     0
  9
$SPLINETYPE
 70
     6
  9
$SPLINESEGS
 70
     8
  9
$HANDSEED
  5
148
  9
$SURFTAB1
 70
     6
  9
$SURFTAB2
 70
     6
  9
$SURFTYPE
 70
     6
  9
$SURFU
 70
     6
  9
$SURFV
 70
     6
  9
$UCSBASE
  2

  9
$UCSNAME
  2

  9
$UCSORG
 10
0.0
 20
0.0
 30
0.0
  9
$UCSXDIR
 10
1.0
 20
0.0
 30
0.0
  9
$UCSYDIR
 10
0.0
 20
1.0
 30
0.0
  9
$UCSORTHOREF
  2

  9
$UCSORTHOVIEW
 70
     0
  9
$UCSORGTOP
 10
0.0
 20
0.0
 30
0.0
  9
$UCSORGBOTTOM
 10
0.0
 20
0.0
 30
0.0
  9
$UCSORGLEFT
 10
0.0
 20
0.0
 30
0.0
  9
$UCSORGRIGHT
 10
0.0
 20
0.0
 30
0.0
  9
$UCSORGFRONT
 10
0.0
 20
0.0
 30
0.0
  9
$UCSORGBACK
 10
0.0
 20
0.0
 30
0.0
  9
$PUCSBASE
  2

  9
$PUCSNAME
  2

  9
$PUCSORG
 10
0.0
 20
0.0
 30
0.0
  9
$PUCSXDIR
 10
1.0
 20
0.0
 30
0.0
  9
$PUCSYDIR
 10
0.0
 20
1.0
 30
0.0
  9
$PUCSORTHOREF
  2

  9
$PUCSORTHOVIEW
 70
     0
  9
$PUCSORGTOP
 10
0.0
 20
0.0
 30
0.0
  9
$PUCSORGBOTTOM
 10
0.0
 20
0.0
 30
0.0
  9
$PUCSORGLEFT
 10
0.0
 20
0.0
 30
0.0
  9
$PUCSORGRIGHT
 10
0.0
 20
0.0
 30
0.0
  9
$PUCSORGFRONT
 10
0.0
 20
0.0
 30
0.0
  9
$PUCSORGBACK
 10
0.0
 20
0.0
 30
0.0
  9
$USERI1
 70
     0
  9
$USERI2
 70
     0
  9
$USERI3
 70
     0
  9
$USERI4
 70
     0
  9
$USERI5
 70
     0
  9
$USERR1
 40
0.0
  9
$USERR2
 40
0.0
  9
$USERR3
 40
0.0
  9
$USERR4
 40
0.0
  9
$USERR5
 40
0.0
  9
$WORLDVIEW
 70
     1
  9
$SHADEDGE
 70
     3
  9
$SHADEDIF
 70
    70
  9
$TILEMODE
 70
     1
  9
$MAXACTVP
 70
    64
  9
$PINSBASE
 10
0.0
 20
0.0
 30
0.0
  9
$PLIMCHECK
 70
     0
  9
$PEXTMIN
 10
1.000000000000000E+20
 20
1.000000000000000E+20
 30
1.000000000000000E+20
  9
$PEXTMAX
 10
-1.000000000000000E+20
 20
-1.000000000000000E+20
 30
-1.000000000000000E+20
  9
$PLIMMIN
 10
0.0
 20
0.0
  9
$PLIMMAX
 10
12.0
 20
9.0
  9
$UNITMODE
 70
     0
  9
$VISRETAIN
 70
     1
  9
$PLINEGEN
 70
     0
  9
$PSLTSCALE
 70
     1
  9
$TREEDEPTH
 70
  3020
  9
$CMLSTYLE
  2
Standard
  9
$CMLJUST
 70
     0
  9
$CMLSCALE
 40
1.0
  9
$PROXYGRAPHICS
 70
     1
  9
$MEASUREMENT
 70
     0
  9
$CELWEIGHT
370
    -1
  9
$ENDCAPS
280
     0
  9
$JOINSTYLE
280
     0
  9
$LWDISPLAY
290
     1
  9
$INSUNITS
 70
     5
  9
$HYPERLINKBASE
  1

  9
$STYLESHEET
  1

  9
$XEDIT
290
     1
  9
$CEPSNTYPE
380
     0
  9
$PSTYLEMODE
290
     1
  9
$FINGERPRINTGUID
  2
{4CD99ADB-3B1D-A441-B15E-B405A00F3A38}
  9
$VERSIONGUID
  2
{B3BA79A9-265F-674E-BB85-48D5BB9A3C59}
  9
$EXTNAMES
290
     1
  9
$PSVPSCALE
 40
0.0
  9
$OLESTARTUP
290
     0
  9
$SORTENTS
280
   127
  9
$INDEXCTL
280
     0
  9
$HIDETEXT
280
     1
  9
$XCLIPFRAME
280
     2
  9
$HALOGAP
280
     0
  9
$OBSCOLOR
 70
   257
  9
$OBSLTYPE
280
     0
  9
$INTERSECTIONDISPLAY
280
     0
  9
$INTERSECTIONCOLOR
 70
   257
  9
$DIMASSOC
280
     2
  9
$PROJECTNAME
  1

  9
$CAMERADISPLAY
290
     0
  9
$LENSLENGTH
 40
50.0
  9
$CAMERAHEIGHT
 40
0.0
  9
$STEPSPERSEC
 40
2.0
  9
$STEPSIZE
 40
6.0
  9
$3DDWFPREC
 40
2.0
  9
$PSOLWIDTH
 40
0.25
  9
$PSOLHEIGHT
 40
4.0
  9
$LOFTANG1
 40
1.570796326794896
  9
$LOFTANG2
 40
1.570796326794896
  9
$LOFTMAG1
 40
0.0
  9
$LOFTMAG2
 40
0.0
  9
$LOFTPARAM
 70
     7
  9
$LOFTNORMALS
280
     1
  9
$LATITUDE
 40
37.795
  9
$LONGITUDE
 40
-122.394
  9
$NORTHDIRECTION
 40
0.0
  9
$TIMEZONE
 70
 -8000
  9
$LIGHTGLYPHDISPLAY
280
     1
  9
$TILEMODELIGHTSYNCH
280
     1
  9
$CMATERIAL
347
11
  9
$SOLIDHIST
280
     0
  9
$SHOWHIST
280
     1
  9
$DWFFRAME
280
     2
  9
$DGNFRAME
280
     0
  9
$REALWORLDSCALE
290
     1
  9
$INTERFERECOLOR
 62
     1
  9
$INTERFEREOBJVS
345
33
  9
$INTERFEREVPVS
346
30
  9
$CSHADOW
280
     0
  9
$SHADOWPLANELOCATION
 40
0.0
  0
ENDSEC
  0
SECTION
  2
CLASSES
  0
CLASS
  1
ACDBDICTIONARYWDFLT
  2
AcDbDictionaryWithDefault
  3
ObjectDBX Classes
 90
        0
 91
        1
280
     0
281
     0
  0
CLASS
  1
MATERIAL
  2
AcDbMaterial
  3
ObjectDBX Classes
 90
     1153
 91
        3
280
     0
281
     0
  0
CLASS
  1
VISUALSTYLE
  2
AcDbVisualStyle
  3
ObjectDBX Classes
 90
     4095
 91
       24
280
     0
281
     0
  0
CLASS
  1
SCALE
  2
AcDbScale
  3
ObjectDBX Classes
 90
     1153
 91
       17
280
     0
281
     0
  0
CLASS
  1
TABLESTYLE
  2
AcDbTableStyle
  3
ObjectDBX Classes
 90
     4095
 91
        1
280
     0
281
     0
  0
CLASS
  1
MLEADERSTYLE
  2
AcDbMLeaderStyle
  3
ACDB_MLEADERSTYLE_CLASS
 90
     4095
 91
        1
280
     0
281
     0
  0
CLASS
  1
ACDBSECTIONVIEWSTYLE
  2
AcDbSectionViewStyle
  3
ObjectDBX Classes
 90
     1025
 91
        1
280
     0
281
     0
  0
CLASS
  1
ACDBDETAILVIEWSTYLE
  2
AcDbDetailViewStyle
  3
ObjectDBX Classes
 90
     1025
 91
        1
280
     0
281
     0
  0
CLASS
  1
DICTIONARYVAR
  2
AcDbDictionaryVar
  3
ObjectDBX Classes
 90
        0
 91
        5
280
     0
281
     0
  0
CLASS
  1
CELLSTYLEMAP
  2
AcDbCellStyleMap
  3
ObjectDBX Classes
 90
     1152
 91
        2
280
     0
281
     0
  0
CLASS
  1
SORTENTSTABLE
  2
AcDbSortentsTable
  3
ObjectDBX Classes
 90
        0
 91
        1
280
     0
281
     0
  0
ENDSEC
  0
SECTION
  2
TABLES
  0
TABLE
  2
VPORT
  5
8
330
0
100
AcDbSymbolTable
 70
     1
1001
ACAD
1000
DbSaveVer
1071
      105
  0
VPORT
  5
57
330
8
100
AcDbSymbolTableRecord
100
AcDbViewportTableRecord
  2
*Active
 70
     0
 10
0.0
 20
0.0
 11
1.0
 21
1.0
 12
-7.606200408942566
 22
-4.912052510203579
 13
0.0
 23
0.0
 14
1.0
 24
1.0
 15
0.0
 25
0.0
 16
0.0
 26
0.0
 36
1.0
 17
14.84999673225613
 27
-10.50008306681943
 37
0.0
 40
32.88924000337311
 41
1.931468531468531
 42
50.0
 43
0.0
 44
0.0
 50
0.0
 51
0.0
 71
     0
 72
   100
 73
     1
 74
     0
 75
     1
 76
     0
 77
     0
 78
     0
281
     0
 65
     1
110
0.0
120
0.0
130
0.0
111
1.0
121
0.0
131
0.0
112
0.0
122
1.0
132
0.0
 79
     0
146
0.0
348
2F
 60
     3
 61
     5
292
     1
282
     1
141
0.0
142
0.0
 63
   250
421
  3355443
1001
ACAD_NAV_VCDISPLAY
1070
     3
  0
ENDTAB
  0
TABLE
  2
LTYPE
  5
5
330
0
100
AcDbSymbolTable
 70
     1
  0
LTYPE
  5
5B
330
5
100
AcDbSymbolTableRecord
100
AcDbLinetypeTableRecord
  2
ByBlock
 70
     0
  3

 72
    65
 73
     0
 40
0.0
  0
LTYPE
  5
5C
330
5
100
AcDbSymbolTableRecord
100
AcDbLinetypeTableRecord
  2
ByLayer
 70
     0
  3

 72
    65
 73
     0
 40
0.0
  0
LTYPE
  5
5D
330
5
100
AcDbSymbolTableRecord
100
AcDbLinetypeTableRecord
  2
Continuous
 70
     0
  3
Solid line
 72
    65
 73
     0
 40
0.0
  0
ENDTAB
  0
TABLE
  2
LAYER
  5
2
330
0
100
AcDbSymbolTable
 70
     2
  0
LAYER
  5
54
330
2
100
AcDbSymbolTableRecord
100
AcDbLayerTableRecord
  2
0
 70
     0
 62
     7
  6
Continuous
370
    -3
390
F
347
21
348
0
  0
LAYER
  5
78
330
2
100
AcDbSymbolTableRecord
100
AcDbLayerTableRecord
  2
Livello 3
 70
     0
 62
     7
  6
Continuous
370
     0
390
F
347
21
348
0
  0
ENDTAB
  0
TABLE
  2
STYLE
  5
3
330
0
100
AcDbSymbolTable
 70
     2
  0
STYLE
  5
55
330
3
100
AcDbSymbolTableRecord
100
AcDbTextStyleTableRecord
  2
Standard
 70
     0
 40
0.0
 41
1.0
 50
0.0
 71
     0
 42
0.2
  3
txt
  4

  0
STYLE
  5
5A
330
3
100
AcDbSymbolTableRecord
100
AcDbTextStyleTableRecord
  2
Annotative
 70
     0
 40
0.0
 41
1.0
 50
0.0
 71
     0
 42
0.2
  3
txt
  4

1001
AcadAnnotative
1000
AnnotativeData
1002
{
1070
     1
1070
     1
1002
}
  0
ENDTAB
  0
TABLE
  2
VIEW
  5
6
330
0
100
AcDbSymbolTable
 70
     0
  0
ENDTAB
  0
TABLE
  2
UCS
  5
7
330
0
100
AcDbSymbolTable
 70
     0
  0
ENDTAB
  0
TABLE
  2
APPID
  5
9
330
0
100
AcDbSymbolTable
 70
     3
  0
APPID
  5
56
330
9
100
AcDbSymbolTableRecord
100
AcDbRegAppTableRecord
  2
ACAD
 70
     0
  0
APPID
  5
5E
330
9
100
AcDbSymbolTableRecord
100
AcDbRegAppTableRecord
  2
AcadAnnotative
 70
     0
  0
APPID
  5
141
330
9
100
AcDbSymbolTableRecord
100
AcDbRegAppTableRecord
  2
ACAD_NAV_VCDISPLAY
 70
     0
  0
ENDTAB
  0
TABLE
  2
DIMSTYLE
  5
A
330
0
100
AcDbSymbolTable
 70
     2
100
AcDbDimStyleTable
 71
     0
  0
DIMSTYLE
105
58
330
A
100
AcDbSymbolTableRecord
100
AcDbDimStyleTableRecord
  2
Standard
 70
     0
340
55
  0
DIMSTYLE
105
59
330
A
100
AcDbSymbolTableRecord
100
AcDbDimStyleTableRecord
  2
Annotative
 70
     0
340
55
1001
AcadAnnotative
1000
AnnotativeData
1002
{
1070
     1
1070
     1
1002
}
  0
ENDTAB
  0
TABLE
  2
BLOCK_RECORD
  5
1
330
0
100
AcDbSymbolTable
 70
    13
  0
BLOCK_RECORD
  5
70
102
{ACAD_XDICTIONARY
360
121
102
}
330
1
100
AcDbSymbolTableRecord
100
AcDbBlockTableRecord
  2
*Model_Space
340
73
 70
     0
280
     1
281
     0
  0
BLOCK_RECORD
  5
6C
330
1
100
AcDbSymbolTableRecord
100
AcDbBlockTableRecord
  2
*Paper_Space
340
6F
 70
     0
280
     1
281
     0
  0
BLOCK_RECORD
  5
74
330
1
100
AcDbSymbolTableRecord
100
AcDbBlockTableRecord
  2
*Paper_Space0
340
77
 70
     0
280
     1
281
     0
  0
BLOCK_RECORD
  5
89
330
1
100
AcDbSymbolTableRecord
100
AcDbBlockTableRecord
  2
Block_0
340
0
 70
     0
280
     1
281
     0
  0
BLOCK_RECORD
  5
8D
330
1
100
AcDbSymbolTableRecord
100
AcDbBlockTableRecord
  2
Block_1
340
0
102
{BLKREFS
331
8E
102
}
 70
     0
280
     1
281
     0
  0
BLOCK_RECORD
  5
99
330
1
100
AcDbSymbolTableRecord
100
AcDbBlockTableRecord
  2
Block_2
340
0
 70
     0
280
     1
281
     0
  0
BLOCK_RECORD
  5
9D
330
1
100
AcDbSymbolTableRecord
100
AcDbBlockTableRecord
  2
Block_3
340
0
102
{BLKREFS
331
9E
102
}
 70
     0
280
     1
281
     0
  0
BLOCK_RECORD
  5
A8
330
1
100
AcDbSymbolTableRecord
100
AcDbBlockTableRecord
  2
Block_4
340
0
 70
     0
280
     1
281
     0
  0
BLOCK_RECORD
  5
AC
330
1
100
AcDbSymbolTableRecord
100
AcDbBlockTableRecord
  2
Block_5
340
0
102
{BLKREFS
331
AD
102
}
 70
     0
280
     1
281
     0
  0
BLOCK_RECORD
  5
B8
330
1
100
AcDbSymbolTableRecord
100
AcDbBlockTableRecord
  2
Block_6
340
0
 70
     0
280
     1
281
     0
  0
BLOCK_RECORD
  5
BC
330
1
100
AcDbSymbolTableRecord
100
AcDbBlockTableRecord
  2
Block_7
340
0
102
{BLKREFS
331
BD
331
13E
102
}
 70
     0
280
     1
281
     0
  0
BLOCK_RECORD
  5
C4
330
1
100
AcDbSymbolTableRecord
100
AcDbBlockTableRecord
  2
Block_8
340
0
 70
     0
280
     1
281
     0
  0
BLOCK_RECORD
  5
C8
330
1
100
AcDbSymbolTableRecord
100
AcDbBlockTableRecord
  2
Block_9
340
0
102
{BLKREFS
331
C9
331
13F
102
}
 70
     0
280
     1
281
     0
  0
BLOCK_RECORD
  5
D0
330
1
100
AcDbSymbolTableRecord
100
AcDbBlockTableRecord
  2
Block_10
340
0
 70
     0
280
     1
281
     0
  0
BLOCK_RECORD
  5
D4
330
1
100
AcDbSymbolTableRecord
100
AcDbBlockTableRecord
  2
Block_11
340
0
102
{BLKREFS
331
D5
331
140
102
}
 70
     0
280
     1
281
     0
  0
ENDTAB
  0
ENDSEC
  0
SECTION
  2
BLOCKS
  0
BLOCK
  5
71
330
70
100
AcDbEntity
  8
0
100
AcDbBlockBegin
  2
*Model_Space
 70
     0
 10
0.0
 20
0.0
 30
0.0
  3
*Model_Space
  1

  0
ENDBLK
  5
72
330
70
100
AcDbEntity
  8
0
100
AcDbBlockEnd
  0
BLOCK
  5
6D
330
6C
100
AcDbEntity
 67
     1
  8
0
100
AcDbBlockBegin
  2
*Paper_Space
 70
     0
 10
0.0
 20
0.0
 30
0.0
  3
*Paper_Space
  1

  0
ENDBLK
  5
6E
330
6C
100
AcDbEntity
 67
     1
  8
0
100
AcDbBlockEnd
  0
BLOCK
  5
75
330
74
100
AcDbEntity
 67
     1
  8
0
100
AcDbBlockBegin
  2
*Paper_Space0
 70
     0
 10
0.0
 20
0.0
 30
0.0
  3
*Paper_Space0
  1

  0
ENDBLK
  5
76
330
74
100
AcDbEntity
 67
     1
  8
0
100
AcDbBlockEnd
  0
BLOCK
  5
8B
330
89
100
AcDbEntity
  8
0
100
AcDbBlockBegin
  2
Block_0
 70
     0
 10
0.0
 20
0.0
 30
0.0
  3
Block_0
  1

  0
INSERT
  5
8E
330
89
100
AcDbEntity
  8
Livello 3
100
AcDbBlockReference
  2
Block_1
 10
0.0
 20
0.0
 30
0.0
  0
ENDBLK
  5
8C
330
89
100
AcDbEntity
  8
0
100
AcDbBlockEnd
  0
BLOCK
  5
8F
330
8D
100
AcDbEntity
  8
0
100
AcDbBlockBegin
  2
Block_1
 70
     0
 10
0.0
 20
0.0
 30
0.0
  3
Block_1
  1

  0
SPLINE
  5
91
330
8D
100
AcDbEntity
  8
Livello 3
100
AcDbSpline
210
0.0
220
0.0
230
1.0
 70
    11
 71
     3
 72
    29
 73
    25
 74
     0
 42
0.000000001
 43
0.0000000001
 40
0.0
 40
0.0
 40
0.0
 40
0.0
 40
1.0
 40
1.0
 40
1.0
 40
2.0
 40
2.0
 40
2.0
 40
3.0
 40
3.0
 40
3.0
 40
4.0
 40
4.0
 40
4.0
 40
5.0
 40
5.0
 40
5.0
 40
6.0
 40
6.0
 40
6.0
 40
7.0
 40
7.0
 40
7.0
 40
8.0
 40
8.0
 40
8.0
 40
8.0
 10
6.088310545352921
 20
-17.08202365024338
 30
0.0
 10
6.088310545352921
 20
-17.08202365024338
 30
0.0
 10
6.085761174693836
 20
-17.08202365024338
 30
0.0
 10
6.085761174693836
 20
-17.08202365024338
 30
0.0
 10
6.085761174693836
 20
-17.08202365024338
 30
0.0
 10
5.942272947733181
 20
-17.1594693967518
 30
0.0
 10
5.942272947733181
 20
-17.1594693967518
 30
0.0
 10
5.942272947733181
 20
-17.1594693967518
 30
0.0
 10
5.92068942451809
 20
-17.07437553826613
 30
0.0
 10
5.92068942451809
 20
-17.07437553826613
 30
0.0
 10
5.92068942451809
 20
-17.07437553826613
 30
0.0
 10
6.101005722216067
 20
-16.97787841372428
 30
0.0
 10
6.101005722216067
 20
-16.97787841372428
 30
0.0
 10
6.101005722216067
 20
-16.97787841372428
 30
0.0
 10
6.196245386905799
 20
-16.97787841372428
 30
0.0
 10
6.196245386905799
 20
-16.97787841372428
 30
0.0
 10
6.196245386905799
 20
-16.97787841372428
 30
0.0
 10
6.196245386905799
 20
-17.80328884103528
 30
0.0
 10
6.196245386905799
 20
-17.80328884103528
 30
0.0
 10
6.196245386905799
 20
-17.80328884103528
 30
0.0
 10
6.088310545352921
 20
-17.80328884103528
 30
0.0
 10
6.088310545352921
 20
-17.80328884103528
 30
0.0
 10
6.088310545352921
 20
-17.80328884103528
 30
0.0
 10
6.088310545352921
 20
-17.08202365024338
 30
0.0
 10
6.088310545352921
 20
-17.08202365024338
 30
0.0
  0
HATCH
  5
92
330
8D
100
AcDbEntity
  8
Livello 3
 62
   250
420
  1907995
440
 33554687
100
AcDbHatch
 10
0.0
 20
0.0
 30
0.0
210
0.0
220
0.0
230
1.0
  2
SOLID
 70
     1
 71
     1
 91
        1
 92
        1
 93
        1
 72
     4
 94
        3
 73
     0
 74
     0
 95
       29
 96
       25
 40
0.0
 40
0.0
 40
0.0
 40
0.0
 40
1.0
 40
1.0
 40
1.0
 40
2.0
 40
2.0
 40
2.0
 40
3.0
 40
3.0
 40
3.0
 40
4.0
 40
4.0
 40
4.0
 40
5.0
 40
5.0
 40
5.0
 40
6.0
 40
6.0
 40
6.0
 40
7.0
 40
7.0
 40
7.0
 40
8.0
 40
8.0
 40
8.0
 40
8.0
 10
6.088310545352921
 20
-17.08202365024338
 10
6.088310545352921
 20
-17.08202365024338
 10
6.085761174693836
 20
-17.08202365024338
 10
6.085761174693836
 20
-17.08202365024338
 10
6.085761174693836
 20
-17.08202365024338
 10
5.942272947733181
 20
-17.1594693967518
 10
5.942272947733181
 20
-17.1594693967518
 10
5.942272947733181
 20
-17.1594693967518
 10
5.92068942451809
 20
-17.07437553826613
 10
5.92068942451809
 20
-17.07437553826613
 10
5.92068942451809
 20
-17.07437553826613
 10
6.101005722216067
 20
-16.97787841372428
 10
6.101005722216067
 20
-16.97787841372428
 10
6.101005722216067
 20
-16.97787841372428
 10
6.196245386905799
 20
-16.97787841372428
 10
6.196245386905799
 20
-16.97787841372428
 10
6.196245386905799
 20
-16.97787841372428
 10
6.196245386905799
 20
-17.80328884103528
 10
6.196245386905799
 20
-17.80328884103528
 10
6.196245386905799
 20
-17.80328884103528
 10
6.088310545352921
 20
-17.80328884103528
 10
6.088310545352921
 20
-17.80328884103528
 10
6.088310545352921
 20
-17.80328884103528
 10
6.088310545352921
 20
-17.08202365024338
 10
6.088310545352921
 20
-17.08202365024338
 97
        0
 97
        1
330
91
 75
     2
 76
     1
 98
        1
 10
0.0
 20
0.0
450
        0
451
        0
460
0.0
461
0.0
452
        0
462
0.0
453
        0
470

  0
SPLINE
  5
93
330
8D
100
AcDbEntity
  8
Livello 3
100
AcDbSpline
210
0.0
220
0.0
230
1.0
 70
    11
 71
     3
 72
    50
 73
    46
 74
     0
 42
0.000000001
 43
0.0000000001
 40
0.0
 40
0.0
 40
0.0
 40
0.0
 40
1.0
 40
1.0
 40
1.0
 40
2.0
 40
2.0
 40
2.0
 40
3.0
 40
3.0
 40
3.0
 40
4.0
 40
4.0
 40
4.0
 40
5.0
 40
5.0
 40
5.0
 40
6.0
 40
6.0
 40
6.0
 40
7.0
 40
7.0
 40
7.0
 40
8.0
 40
8.0
 40
8.0
 40
9.0
 40
9.0
 40
9.0
 40
10.0
 40
10.0
 40
10.0
 40
11.0
 40
11.0
 40
11.0
 40
12.0
 40
12.0
 40
12.0
 40
13.0
 40
13.0
 40
13.0
 40
14.0
 40
14.0
 40
14.0
 40
15.0
 40
15.0
 40
15.0
 40
15.0
 10
6.989943710275082
 20
-17.07186061856189
 30
0.0
 10
6.989943710275082
 20
-17.07186061856189
 30
0.0
 10
6.675027531968394
 20
-17.07186061856189
 30
0.0
 10
6.675027531968394
 20
-17.07186061856189
 30
0.0
 10
6.675027531968394
 20
-17.07186061856189
 30
0.0
 10
6.643280977071817
 20
-17.28390624567902
 30
0.0
 10
6.643280977071817
 20
-17.28390624567902
 30
0.0
 10
6.662332355105248
 20
-17.28139132597479
 30
0.0
 10
6.680109047809136
 20
-17.2788419553157
 30
0.0
 10
6.710580917376172
 20
-17.2788419553157
 30
0.0
 10
6.774074027169327
 20
-17.2788419553157
 30
0.0
 10
6.837567136962483
 20
-17.29279459203096
 30
0.0
 10
6.888365069892491
 20
-17.32328368707543
 30
0.0
 10
6.953115639537762
 20
-17.36011175781275
 30
0.0
 10
7.006462943126854
 20
-17.4312185286283
 30
0.0
 10
7.006462943126854
 20
-17.53532931419255
 30
0.0
 10
7.006462943126854
 20
-17.69662868481194
 30
0.0
 10
6.878202038211003
 20
-17.81724147775055
 30
0.0
 10
6.69916042584257
 20
-17.81724147775055
 30
0.0
 10
6.609002276993582
 20
-17.81724147775055
 30
0.0
 10
6.532796764859854
 20
-17.79185112402426
 30
0.0
 10
6.493436548940875
 20
-17.76646077029797
 30
0.0
 10
6.493436548940875
 20
-17.76646077029797
 30
0.0
 10
6.521376273326252
 20
-17.68136691181229
 30
0.0
 10
6.521376273326252
 20
-17.68136691181229
 30
0.0
 10
6.555654973404487
 20
-17.70169297517527
 30
0.0
 10
6.622972139186269
 20
-17.72708332890156
 30
0.0
 10
6.697885740513028
 20
-17.72708332890156
 30
0.0
 10
6.803288436884247
 20
-17.72708332890156
 30
0.0
 10
6.893446585733235
 20
-17.65852592874509
 30
0.0
 10
6.893446585733235
 20
-17.54804171653313
 30
0.0
 10
6.892171900403692
 20
-17.44138156030979
 30
0.0
 10
6.821065129588133
 20
-17.36517604817606
 30
0.0
 10
6.655976153934964
 20
-17.36517604817606
 30
0.0
 10
6.609002276993582
 20
-17.36517604817606
 30
0.0
 10
6.572174206256262
 20
-17.37027478949423
 30
0.0
 10
6.541702336689226
 20
-17.37406439452801
 30
0.0
 10
6.541702336689226
 20
-17.37406439452801
 30
0.0
 10
6.595032414800892
 20
-16.97787841372428
 30
0.0
 10
6.595032414800892
 20
-16.97787841372428
 30
0.0
 10
6.595032414800892
 20
-16.97787841372428
 30
0.0
 10
6.989943710275082
 20
-16.97787841372428
 30
0.0
 10
6.989943710275082
 20
-16.97787841372428
 30
0.0
 10
6.989943710275082
 20
-16.97787841372428
 30
0.0
 10
6.989943710275082
 20
-17.07186061856189
 30
0.0
 10
6.989943710275082
 20
-17.07186061856189
 30
0.0
  0
HATCH
  5
94
330
8D
100
AcDbEntity
  8
Livello 3
 62
   250
420
  1907995
440
 33554687
100
AcDbHatch
 10
0.0
 20
0.0
 30
0.0
210
0.0
220
0.0
230
1.0
  2
SOLID
 70
     1
 71
     1
 91
        1
 92
        1
 93
        1
 72
     4
 94
        3
 73
     0
 74
     0
 95
       50
 96
       46
 40
0.0
 40
0.0
 40
0.0
 40
0.0
 40
1.0
 40
1.0
 40
1.0
 40
2.0
 40
2.0
 40
2.0
 40
3.0
 40
3.0
 40
3.0
 40
4.0
 40
4.0
 40
4.0
 40
5.0
 40
5.0
 40
5.0
 40
6.0
 40
6.0
 40
6.0
 40
7.0
 40
7.0
 40
7.0
 40
8.0
 40
8.0
 40
8.0
 40
9.0
 40
9.0
 40
9.0
 40
10.0
 40
10.0
 40
10.0
 40
11.0
 40
11.0
 40
11.0
 40
12.0
 40
12.0
 40
12.0
 40
13.0
 40
13.0
 40
13.0
 40
14.0
 40
14.0
 40
14.0
 40
15.0
 40
15.0
 40
15.0
 40
15.0
 10
6.989943710275082
 20
-17.07186061856189
 10
6.989943710275082
 20
-17.07186061856189
 10
6.675027531968394
 20
-17.07186061856189
 10
6.675027531968394
 20
-17.07186061856189
 10
6.675027531968394
 20
-17.07186061856189
 10
6.643280977071817
 20
-17.28390624567902
 10
6.643280977071817
 20
-17.28390624567902
 10
6.662332355105248
 20
-17.28139132597479
 10
6.680109047809136
 20
-17.2788419553157
 10
6.710580917376172
 20
-17.2788419553157
 10
6.774074027169327
 20
-17.2788419553157
 10
6.837567136962483
 20
-17.29279459203096
 10
6.888365069892491
 20
-17.32328368707543
 10
6.953115639537762
 20
-17.36011175781275
 10
7.006462943126854
 20
-17.4312185286283
 10
7.006462943126854
 20
-17.53532931419255
 10
7.006462943126854
 20
-17.69662868481194
 10
6.878202038211003
 20
-17.81724147775055
 10
6.69916042584257
 20
-17.81724147775055
 10
6.609002276993582
 20
-17.81724147775055
 10
6.532796764859854
 20
-17.79185112402426
 10
6.493436548940875
 20
-17.76646077029797
 10
6.493436548940875
 20
-17.76646077029797
 10
6.521376273326252
 20
-17.68136691181229
 10
6.521376273326252
 20
-17.68136691181229
 10
6.555654973404487
 20
-17.70169297517527
 10
6.622972139186269
 20
-17.72708332890156
 10
6.697885740513028
 20
-17.72708332890156
 10
6.803288436884247
 20
-17.72708332890156
 10
6.893446585733235
 20
-17.65852592874509
 10
6.893446585733235
 20
-17.54804171653313
 10
6.892171900403692
 20
-17.44138156030979
 10
6.821065129588133
 20
-17.36517604817606
 10
6.655976153934964
 20
-17.36517604817606
 10
6.609002276993582
 20
-17.36517604817606
 10
6.572174206256262
 20
-17.37027478949423
 10
6.541702336689226
 20
-17.37406439452801
 10
6.541702336689226
 20
-17.37406439452801
 10
6.595032414800892
 20
-16.97787841372428
 10
6.595032414800892
 20
-16.97787841372428
 10
6.595032414800892
 20
-16.97787841372428
 10
6.989943710275082
 20
-16.97787841372428
 10
6.989943710275082
 20
-16.97787841372428
 10
6.989943710275082
 20
-16.97787841372428
 10
6.989943710275082
 20
-17.07186061856189
 10
6.989943710275082
 20
-17.07186061856189
 97
        0
 97
        1
330
93
 75
     2
 76
     1
 98
        1
 10
0.0
 20
0.0
450
        0
451
        0
460
0.0
461
0.0
452
        0
462
0.0
453
        0
470

  0
SPLINE
  5
95
330
8D
100
AcDbEntity
  8
Livello 3
100
AcDbSpline
210
0.0
220
0.0
230
1.0
 70
     9
 71
     3
 72
    17
 73
    13
 74
     0
 42
0.000000001
 43
0.0000000001
 40
0.0
 40
0.0
 40
0.0
 40
0.0
 40
1.0
 40
1.0
 40
1.0
 40
2.0
 40
2.0
 40
2.0
 40
3.0
 40
3.0
 40
3.0
 40
4.0
 40
4.0
 40
4.0
 40
4.0
 10
7.111900090452927
 20
-17.95945501938166
 30
0.0
 10
7.139839814838303
 20
-17.88455864353233
 30
0.0
 10
7.174135740393965
 20
-17.74868407759408
 30
0.0
 10
7.188105602586651
 20
-17.655976558086
 30
0.0
 10
7.188105602586651
 20
-17.655976558086
 30
0.0
 10
7.312542451513878
 20
-17.64326415574543
 30
0.0
 10
7.312542451513878
 20
-17.64326415574543
 30
0.0
 10
7.283345267276384
 20
-17.75123344825316
 30
0.0
 10
7.227465818505632
 20
-17.89217230455473
 30
0.0
 10
7.191912433097853
 20
-17.95184135835926
 30
0.0
 10
7.191912433097853
 20
-17.95184135835926
 30
0.0
 10
7.111900090452927
 20
-17.95945501938166
 30
0.0
 10
7.111900090452927
 20
-17.95945501938166
 30
0.0
  0
HATCH
  5
96
330
8D
100
AcDbEntity
  8
Livello 3
 62
   250
420
  1907995
440
 33554687
100
AcDbHatch
 10
0.0
 20
0.0
 30
0.0
210
0.0
220
0.0
230
1.0
  2
SOLID
 70
     1
 71
     1
 91
        1
 92
        1
 93
        1
 72
     4
 94
        3
 73
     0
 74
     0
 95
       17
 96
       13
 40
0.0
 40
0.0
 40
0.0
 40
0.0
 40
1.0
 40
1.0
 40
1.0
 40
2.0
 40
2.0
 40
2.0
 40
3.0
 40
3.0
 40
3.0
 40
4.0
 40
4.0
 40
4.0
 40
4.0
 10
7.111900090452927
 20
-17.95945501938166
 10
7.139839814838303
 20
-17.88455864353233
 10
7.174135740393965
 20
-17.74868407759408
 10
7.188105602586651
 20
-17.655976558086
 10
7.188105602586651
 20
-17.655976558086
 10
7.312542451513878
 20
-17.64326415574543
 10
7.312542451513878
 20
-17.64326415574543
 10
7.283345267276384
 20
-17.75123344825316
 10
7.227465818505632
 20
-17.89217230455473
 10
7.191912433097853
 20
-17.95184135835926
 10
7.191912433097853
 20
-17.95184135835926
 10
7.111900090452927
 20
-17.95945501938166
 10
7.111900090452927
 20
-17.95945501938166
 97
        0
 97
        1
330
95
 75
     2
 76
     1
 98
        1
 10
0.0
 20
0.0
450
        0
451
        0
460
0.0
461
0.0
452
        0
462
0.0
453
        0
470

  0
SPLINE
  5
97
330
8D
100
AcDbEntity
  8
Livello 3
100
AcDbSpline
210
0.0
220
0.0
230
1.0
 70
    11
 71
     3
 72
    50
 73
    46
 74
     0
 42
0.000000001
 43
0.0000000001
 40
0.0
 40
0.0
 40
0.0
 40
0.0
 40
1.0
 40
1.0
 40
1.0
 40
2.0
 40
2.0
 40
2.0
 40
3.0
 40
3.0
 40
3.0
 40
4.0
 40
4.0
 40
4.0
 40
5.0
 40
5.0
 40
5.0
 40
6.0
 40
6.0
 40
6.0
 40
7.0
 40
7.0
 40
7.0
 40
8.0
 40
8.0
 40
8.0
 40
9.0
 40
9.0
 40
9.0
 40
10.0
 40
10.0
 40
10.0
 40
11.0
 40
11.0
 40
11.0
 40
12.0
 40
12.0
 40
12.0
 40
13.0
 40
13.0
 40
13.0
 40
14.0
 40
14.0
 40
14.0
 40
15.0
 40
15.0
 40
15.0
 40
15.0
 10
7.904306503015241
 20
-17.07186061856189
 30
0.0
 10
7.904306503015241
 20
-17.07186061856189
 30
0.0
 10
7.589390324708555
 20
-17.07186061856189
 30
0.0
 10
7.589390324708555
 20
-17.07186061856189
 30
0.0
 10
7.589390324708555
 20
-17.07186061856189
 30
0.0
 10
7.557643769811977
 20
-17.28390624567902
 30
0.0
 10
7.557643769811977
 20
-17.28390624567902
 30
0.0
 10
7.576695147845407
 20
-17.28139132597479
 30
0.0
 10
7.594471840549297
 20
-17.2788419553157
 30
0.0
 10
7.624943710116331
 20
-17.2788419553157
 30
0.0
 10
7.688436819909486
 20
-17.2788419553157
 30
0.0
 10
7.751929929702641
 20
-17.29279459203096
 30
0.0
 10
7.802727862632649
 20
-17.32328368707543
 30
0.0
 10
7.867478432277921
 20
-17.36011175781275
 30
0.0
 10
7.920825735867015
 20
-17.4312185286283
 30
0.0
 10
7.920825735867015
 20
-17.53532931419255
 30
0.0
 10
7.920825735867015
 20
-17.69662868481194
 30
0.0
 10
7.792564830951162
 20
-17.81724147775055
 30
0.0
 10
7.613523218582729
 20
-17.81724147775055
 30
0.0
 10
7.523365069733741
 20
-17.81724147775055
 30
0.0
 10
7.447159557600014
 20
-17.79185112402426
 30
0.0
 10
7.407799341681036
 20
-17.76646077029797
 30
0.0
 10
7.407799341681036
 20
-17.76646077029797
 30
0.0
 10
7.43573906606641
 20
-17.68136691181229
 30
0.0
 10
7.43573906606641
 20
-17.68136691181229
 30
0.0
 10
7.470017766144647
 20
-17.70169297517527
 30
0.0
 10
7.537334931926428
 20
-17.72708332890156
 30
0.0
 10
7.612248533253186
 20
-17.72708332890156
 30
0.0
 10
7.717651229624404
 20
-17.72708332890156
 30
0.0
 10
7.807809378473393
 20
-17.65852592874509
 30
0.0
 10
7.807809378473393
 20
-17.54804171653313
 30
0.0
 10
7.806534693143851
 20
-17.44138156030979
 30
0.0
 10
7.735427922328294
 20
-17.36517604817606
 30
0.0
 10
7.570338946675121
 20
-17.36517604817606
 30
0.0
 10
7.523365069733741
 20
-17.36517604817606
 30
0.0
 10
7.486536998996419
 20
-17.37027478949423
 30
0.0
 10
7.456065129429386
 20
-17.37406439452801
 30
0.0
 10
7.456065129429386
 20
-17.37406439452801
 30
0.0
 10
7.509395207541053
 20
-16.97787841372428
 30
0.0
 10
7.509395207541053
 20
-16.97787841372428
 30
0.0
 10
7.509395207541053
 20
-16.97787841372428
 30
0.0
 10
7.904306503015241
 20
-16.97787841372428
 30
0.0
 10
7.904306503015241
 20
-16.97787841372428
 30
0.0
 10
7.904306503015241
 20
-16.97787841372428
 30
0.0
 10
7.904306503015241
 20
-17.07186061856189
 30
0.0
 10
7.904306503015241
 20
-17.07186061856189
 30
0.0
  0
HATCH
  5
98
330
8D
100
AcDbEntity
  8
Livello 3
 62
   250
420
  1907995
440
 33554687
100
AcDbHatch
 10
0.0
 20
0.0
 30
0.0
210
0.0
220
0.0
230
1.0
  2
SOLID
 70
     1
 71
     1
 91
        1
 92
        1
 93
        1
 72
     4
 94
        3
 73
     0
 74
     0
 95
       50
 96
       46
 40
0.0
 40
0.0
 40
0.0
 40
0.0
 40
1.0
 40
1.0
 40
1.0
 40
2.0
 40
2.0
 40
2.0
 40
3.0
 40
3.0
 40
3.0
 40
4.0
 40
4.0
 40
4.0
 40
5.0
 40
5.0
 40
5.0
 40
6.0
 40
6.0
 40
6.0
 40
7.0
 40
7.0
 40
7.0
 40
8.0
 40
8.0
 40
8.0
 40
9.0
 40
9.0
 40
9.0
 40
10.0
 40
10.0
 40
10.0
 40
11.0
 40
11.0
 40
11.0
 40
12.0
 40
12.0
 40
12.0
 40
13.0
 40
13.0
 40
13.0
 40
14.0
 40
14.0
 40
14.0
 40
15.0
 40
15.0
 40
15.0
 40
15.0
 10
7.904306503015241
 20
-17.07186061856189
 10
7.904306503015241
 20
-17.07186061856189
 10
7.589390324708555
 20
-17.07186061856189
 10
7.589390324708555
 20
-17.07186061856189
 10
7.589390324708555
 20
-17.07186061856189
 10
7.557643769811977
 20
-17.28390624567902
 10
7.557643769811977
 20
-17.28390624567902
 10
7.576695147845407
 20
-17.28139132597479
 10
7.594471840549297
 20
-17.2788419553157
 10
7.624943710116331
 20
-17.2788419553157
 10
7.688436819909486
 20
-17.2788419553157
 10
7.751929929702641
 20
-17.29279459203096
 10
7.802727862632649
 20
-17.32328368707543
 10
7.867478432277921
 20
-17.36011175781275
 10
7.920825735867015
 20
-17.4312185286283
 10
7.920825735867015
 20
-17.53532931419255
 10
7.920825735867015
 20
-17.69662868481194
 10
7.792564830951162
 20
-17.81724147775055
 10
7.613523218582729
 20
-17.81724147775055
 10
7.523365069733741
 20
-17.81724147775055
 10
7.447159557600014
 20
-17.79185112402426
 10
7.407799341681036
 20
-17.76646077029797
 10
7.407799341681036
 20
-17.76646077029797
 10
7.43573906606641
 20
-17.68136691181229
 10
7.43573906606641
 20
-17.68136691181229
 10
7.470017766144647
 20
-17.70169297517527
 10
7.537334931926428
 20
-17.72708332890156
 10
7.612248533253186
 20
-17.72708332890156
 10
7.717651229624404
 20
-17.72708332890156
 10
7.807809378473393
 20
-17.65852592874509
 10
7.807809378473393
 20
-17.54804171653313
 10
7.806534693143851
 20
-17.44138156030979
 10
7.735427922328294
 20
-17.36517604817606
 10
7.570338946675121
 20
-17.36517604817606
 10
7.523365069733741
 20
-17.36517604817606
 10
7.486536998996419
 20
-17.37027478949423
 10
7.456065129429386
 20
-17.37406439452801
 10
7.456065129429386
 20
-17.37406439452801
 10
7.509395207541053
 20
-16.97787841372428
 10
7.509395207541053
 20
-16.97787841372428
 10
7.509395207541053
 20
-16.97787841372428
 10
7.904306503015241
 20
-16.97787841372428
 10
7.904306503015241
 20
-16.97787841372428
 10
7.904306503015241
 20
-16.97787841372428
 10
7.904306503015241
 20
-17.07186061856189
 10
7.904306503015241
 20
-17.07186061856189
 97
        0
 97
        1
330
97
 75
     2
 76
     1
 98
        1
 10
0.0
 20
0.0
450
        0
451
        0
460
0.0
461
0.0
452
        0
462
0.0
453
        0
470

  0
ENDBLK
  5
90
330
8D
100
AcDbEntity
  8
0
100
AcDbBlockEnd
  0
BLOCK
  5
9B
330
99
100
AcDbEntity
  8
0
100
AcDbBlockBegin
  2
Block_2
 70
     0
 10
0.0
 20
0.0
 30
0.0
  3
Block_2
  1

  0
INSERT
  5
9E
330
99
100
AcDbEntity
  8
Livello 3
100
AcDbBlockReference
  2
Block_3
 10
0.0
 20
0.0
 30
0.0
  0
ENDBLK
  5
9C
330
99
100
AcDbEntity
  8
0
100
AcDbBlockEnd
  0
BLOCK
  5
9F
330
9D
100
AcDbEntity
  8
0
100
AcDbBlockBegin
  2
Block_3
 70
     0
 10
0.0
 20
0.0
 30
0.0
  3
Block_3
  1

  0
SPLINE
  5
A1
330
9D
100
AcDbEntity
  8
Livello 3
100
AcDbSpline
210
0.0
220
0.0
230
1.0
 70
     9
 71
     3
 72
    17
 73
    13
 74
     0
 42
0.000000001
 43
0.0000000001
 40
0.0
 40
0.0
 40
0.0
 40
0.0
 40
1.0
 40
1.0
 40
1.0
 40
2.0
 40
2.0
 40
2.0
 40
3.0
 40
3.0
 40
3.0
 40
4.0
 40
4.0
 40
4.0
 40
4.0
 10
9.50427774827497
 20
-8.892773299643126
 30
0.0
 10
9.403956567744495
 20
-8.892773299643126
 30
0.0
 10
9.355690779996146
 20
-8.962605385129137
 30
0.0
 10
9.323944225099568
 20
-9.074364282670645
 30
0.0
 10
9.351883949484943
 20
-9.170861407212491
 30
0.0
 10
9.4153770592781
 20
-9.222934025472042
 30
0.0
 10
9.494114716593484
 20
-9.222934025472042
 30
0.0
 10
9.577916664272187
 20
-9.226740855983244
 30
0.0
 10
9.651572805746829
 20
-9.163247746190087
 30
0.0
 10
9.651572805746829
 20
-9.057845049818872
 30
0.0
 10
9.651572805746829
 20
-8.957523869288396
 30
0.0
 10
9.589354381283216
 20
-8.892773299643126
 30
0.0
 10
9.50427774827497
 20
-8.892773299643126
 30
0.0
  0
SPLINE
  5
A2
330
9D
100
AcDbEntity
  8
Livello 3
100
AcDbSpline
210
0.0
220
0.0
230
1.0
 70
     9
 71
     3
 72
    17
 73
    13
 74
     0
 42
0.000000001
 43
0.0000000001
 40
0.0
 40
0.0
 40
0.0
 40
0.0
 40
1.0
 40
1.0
 40
1.0
 40
2.0
 40
2.0
 40
2.0
 40
3.0
 40
3.0
 40
3.0
 40
4.0
 40
4.0
 40
4.0
 40
4.0
 10
9.091572534619468
 20
-9.200075816927411
 30
0.0
 10
9.174117022446052
 20
-9.200075816927411
 30
0.0
 10
9.218558754205774
 20
-9.137857392463796
 30
0.0
 10
9.243949107932067
 20
-9.042617727774066
 30
0.0
 10
9.219833439535316
 20
-8.971493731481084
 30
0.0
 10
9.169035506605306
 20
-8.9169061935173
 30
0.0
 10
9.094104679801123
 20
-8.9169061935173
 30
0.0
 10
9.028079424826312
 20
-8.9169061935173
 30
0.0
 10
8.959504799192414
 20
-8.956266409436279
 30
0.0
 10
8.959504799192414
 20
-9.056587589966753
 30
0.0
 10
8.959504799192414
 20
-9.149277883997402
 30
0.0
 10
9.02046576380391
 20
-9.200075816927411
 30
0.0
 10
9.091572534619468
 20
-9.200075816927411
 30
0.0
  0
SPLINE
  5
A3
330
9D
100
AcDbEntity
  8
Livello 3
100
AcDbSpline
210
0.0
220
0.0
230
1.0
 70
     9
 71
     3
 72
    35
 73
    31
 74
     0
 42
0.000000001
 43
0.0000000001
 40
0.0
 40
0.0
 40
0.0
 40
0.0
 40
1.0
 40
1.0
 40
1.0
 40
2.0
 40
2.0
 40
2.0
 40
3.0
 40
3.0
 40
3.0
 40
4.0
 40
4.0
 40
4.0
 40
5.0
 40
5.0
 40
5.0
 40
6.0
 40
6.0
 40
6.0
 40
7.0
 40
7.0
 40
7.0
 40
8.0
 40
8.0
 40
8.0
 40
9.0
 40
9.0
 40
9.0
 40
10.0
 40
10.0
 40
10.0
 40
10.0
 10
9.509342038638287
 20
-9.337207842717779
 30
0.0
 10
9.405214027596613
 20
-9.337207842717779
 30
0.0
 10
9.331575111599397
 20
-9.274989418254168
 30
0.0
 10
9.288390839691793
 20
-9.173410777871575
 30
0.0
 10
9.288390839691793
 20
-9.173410777871575
 30
0.0
 10
9.284584009180587
 20
-9.174668237723693
 30
0.0
 10
9.284584009180587
 20
-9.174668237723693
 30
0.0
 10
9.241416962750408
 20
-9.266101071902225
 30
0.0
 10
9.170292966457424
 20
-9.305461287821202
 30
0.0
 10
9.099186195641868
 20
-9.305461287821202
 30
0.0
 10
8.968393145544359
 20
-9.305461287821202
 30
0.0
 10
8.879509682024911
 20
-9.194994301086667
 30
0.0
 10
8.879509682024911
 20
-9.050231388796467
 30
0.0
 10
8.879509682024911
 20
-8.890223928984038
 30
0.0
 10
8.979830862555386
 20
-8.810228811816537
 30
0.0
 10
9.082684188267522
 20
-8.810228811816537
 30
0.0
 10
9.152516273753537
 20
-8.810228811816537
 30
0.0
 10
9.22744710055772
 20
-8.844524737372202
 30
0.0
 10
9.275695662828644
 20
-8.946103377754793
 30
0.0
 10
9.275695662828644
 20
-8.946103377754793
 30
0.0
 10
9.279502493339846
 20
-8.946103377754793
 30
0.0
 10
9.279502493339846
 20
-8.946103377754793
 30
0.0
 10
9.320137394588366
 20
-8.843250052042657
 30
0.0
 10
9.392518850733466
 20
-8.779756942249504
 30
0.0
 10
9.492840031263938
 20
-8.779756942249504
 30
0.0
 10
9.636328258224596
 20
-8.779756942249504
 30
0.0
 10
9.732842608243872
 20
-8.902936331324612
 30
0.0
 10
9.732842608243872
 20
-9.060394420477956
 30
0.0
 10
9.732842608243872
 20
-9.233079831676104
 30
0.0
 10
9.629989282531738
 20
-9.337207842717779
 30
0.0
 10
9.509342038638287
 20
-9.337207842717779
 30
0.0
  0
HATCH
  5
A4
330
9D
100
AcDbEntity
  8
Livello 3
 62
   250
420
  1907995
440
 33554687
100
AcDbHatch
 10
0.0
 20
0.0
 30
0.0
210
0.0
220
0.0
230
1.0
  2
SOLID
 70
     1
 71
     1
 91
        3
 92
        1
 93
        1
 72
     4
 94
        3
 73
     0
 74
     0
 95
       17
 96
       13
 40
0.0
 40
0.0
 40
0.0
 40
0.0
 40
1.0
 40
1.0
 40
1.0
 40
2.0
 40
2.0
 40
2.0
 40
3.0
 40
3.0
 40
3.0
 40
4.0
 40
4.0
 40
4.0
 40
4.0
 10
9.50427774827497
 20
-8.892773299643126
 10
9.403956567744495
 20
-8.892773299643126
 10
9.355690779996146
 20
-8.962605385129137
 10
9.323944225099568
 20
-9.074364282670645
 10
9.351883949484943
 20
-9.170861407212491
 10
9.4153770592781
 20
-9.222934025472042
 10
9.494114716593484
 20
-9.222934025472042
 10
9.577916664272187
 20
-9.226740855983244
 10
9.651572805746829
 20
-9.163247746190087
 10
9.651572805746829
 20
-9.057845049818872
 10
9.651572805746829
 20
-8.957523869288396
 10
9.589354381283216
 20
-8.892773299643126
 10
9.50427774827497
 20
-8.892773299643126
 97
        0
 97
        1
330
A1
 92
        1
 93
        1
 72
     4
 94
        3
 73
     0
 74
     0
 95
       17
 96
       13
 40
0.0
 40
0.0
 40
0.0
 40
0.0
 40
1.0
 40
1.0
 40
1.0
 40
2.0
 40
2.0
 40
2.0
 40
3.0
 40
3.0
 40
3.0
 40
4.0
 40
4.0
 40
4.0
 40
4.0
 10
9.091572534619468
 20
-9.200075816927411
 10
9.174117022446052
 20
-9.200075816927411
 10
9.218558754205774
 20
-9.137857392463796
 10
9.243949107932067
 20
-9.042617727774066
 10
9.219833439535316
 20
-8.971493731481084
 10
9.169035506605306
 20
-8.9169061935173
 10
9.094104679801123
 20
-8.9169061935173
 10
9.028079424826312
 20
-8.9169061935173
 10
8.959504799192414
 20
-8.956266409436279
 10
8.959504799192414
 20
-9.056587589966753
 10
8.959504799192414
 20
-9.149277883997402
 10
9.02046576380391
 20
-9.200075816927411
 10
9.091572534619468
 20
-9.200075816927411
 97
        0
 97
        1
330
A2
 92
        1
 93
        1
 72
     4
 94
        3
 73
     0
 74
     0
 95
       35
 96
       31
 40
0.0
 40
0.0
 40
0.0
 40
0.0
 40
1.0
 40
1.0
 40
1.0
 40
2.0
 40
2.0
 40
2.0
 40
3.0
 40
3.0
 40
3.0
 40
4.0
 40
4.0
 40
4.0
 40
5.0
 40
5.0
 40
5.0
 40
6.0
 40
6.0
 40
6.0
 40
7.0
 40
7.0
 40
7.0
 40
8.0
 40
8.0
 40
8.0
 40
9.0
 40
9.0
 40
9.0
 40
10.0
 40
10.0
 40
10.0
 40
10.0
 10
9.509342038638287
 20
-9.337207842717779
 10
9.405214027596613
 20
-9.337207842717779
 10
9.331575111599397
 20
-9.274989418254168
 10
9.288390839691793
 20
-9.173410777871575
 10
9.288390839691793
 20
-9.173410777871575
 10
9.284584009180587
 20
-9.174668237723693
 10
9.284584009180587
 20
-9.174668237723693
 10
9.241416962750408
 20
-9.266101071902225
 10
9.170292966457424
 20
-9.305461287821202
 10
9.099186195641868
 20
-9.305461287821202
 10
8.968393145544359
 20
-9.305461287821202
 10
8.879509682024911
 20
-9.194994301086667
 10
8.879509682024911
 20
-9.050231388796467
 10
8.879509682024911
 20
-8.890223928984038
 10
8.979830862555386
 20
-8.810228811816537
 10
9.082684188267522
 20
-8.810228811816537
 10
9.152516273753537
 20
-8.810228811816537
 10
9.22744710055772
 20
-8.844524737372202
 10
9.275695662828644
 20
-8.946103377754793
 10
9.275695662828644
 20
-8.946103377754793
 10
9.279502493339846
 20
-8.946103377754793
 10
9.279502493339846
 20
-8.946103377754793
 10
9.320137394588366
 20
-8.843250052042657
 10
9.392518850733466
 20
-8.779756942249504
 10
9.492840031263938
 20
-8.779756942249504
 10
9.636328258224596
 20
-8.779756942249504
 10
9.732842608243872
 20
-8.902936331324612
 10
9.732842608243872
 20
-9.060394420477956
 10
9.732842608243872
 20
-9.233079831676104
 10
9.629989282531738
 20
-9.337207842717779
 10
9.509342038638287
 20
-9.337207842717779
 97
        0
 97
        1
330
A3
 75
     2
 76
     1
 98
        1
 10
0.0
 20
0.0
450
        0
451
        0
460
0.0
461
0.0
452
        0
462
0.0
453
        0
470

  0
SPLINE
  5
A5
330
9D
100
AcDbEntity
  8
Livello 3
100
AcDbSpline
210
0.0
220
0.0
230
1.0
 70
     9
 71
     3
 72
    17
 73
    13
 74
     0
 42
0.000000001
 43
0.0000000001
 40
0.0
 40
0.0
 40
0.0
 40
0.0
 40
1.0
 40
1.0
 40
1.0
 40
2.0
 40
2.0
 40
2.0
 40
3.0
 40
3.0
 40
3.0
 40
4.0
 40
4.0
 40
4.0
 40
4.0
 10
9.309991588384306
 20
-8.575256074245071
 30
0.0
 10
9.524586586160518
 20
-8.575256074245071
 30
0.0
 10
9.646491289906084
 20
-8.509213593792834
 30
0.0
 10
9.646491289906084
 20
-8.407634953410241
 30
0.0
 10
9.646491289906084
 20
-8.293343910687079
 30
0.0
 10
9.513166094626916
 20
-8.238739147245869
 30
0.0
 10
9.302360701884477
 20
-8.238739147245869
 30
0.0
 10
9.099186195641868
 20
-8.238739147245869
 30
0.0
 10
8.965861000362698
 20
-8.290811765505422
 30
0.0
 10
8.965861000362698
 20
-8.4063602680807
 30
0.0
 10
8.965861000362698
 20
-8.504149303429517
 30
0.0
 10
9.085216333449182
 20
-8.575256074245071
 30
0.0
 10
9.309991588384306
 20
-8.575256074245071
 30
0.0
  0
SPLINE
  5
A6
330
9D
100
AcDbEntity
  8
Livello 3
100
AcDbSpline
210
0.0
220
0.0
230
1.0
 70
     9
 71
     3
 72
    17
 73
    13
 74
     0
 42
0.000000001
 43
0.0000000001
 40
0.0
 40
0.0
 40
0.0
 40
0.0
 40
1.0
 40
1.0
 40
1.0
 40
2.0
 40
2.0
 40
2.0
 40
3.0
 40
3.0
 40
3.0
 40
4.0
 40
4.0
 40
4.0
 40
4.0
 10
9.297279186043734
 20
-8.12699747518179
 30
0.0
 10
9.577916664272187
 20
-8.12699747518179
 30
0.0
 10
9.732842608243872
 20
-8.231125486223467
 30
0.0
 10
9.732842608243872
 20
-8.413991154580529
 30
0.0
 10
9.732842608243872
 20
-8.575256074245071
 30
0.0
 10
9.581723494783387
 20
-8.684465601127492
 30
0.0
 10
9.308716903054763
 20
-8.686997746309153
 30
0.0
 10
9.031886255337512
 20
-8.686997746309153
 30
0.0
 10
8.879509682024911
 20
-8.567642413222671
 30
0.0
 10
8.879509682024911
 20
-8.400021292387839
 30
0.0
 10
8.879509682024911
 20
-8.226043970382724
 30
0.0
 10
9.034435625996598
 20
-8.12699747518179
 30
0.0
 10
9.297279186043734
 20
-8.12699747518179
 30
0.0
  0
HATCH
  5
A7
330
9D
100
AcDbEntity
  8
Livello 3
 62
   250
420
  1907995
440
 33554687
100
AcDbHatch
 10
0.0
 20
0.0
 30
0.0
210
0.0
220
0.0
230
1.0
  2
SOLID
 70
     1
 71
     1
 91
        2
 92
        1
 93
        1
 72
     4
 94
        3
 73
     0
 74
     0
 95
       17
 96
       13
 40
0.0
 40
0.0
 40
0.0
 40
0.0
 40
1.0
 40
1.0
 40
1.0
 40
2.0
 40
2.0
 40
2.0
 40
3.0
 40
3.0
 40
3.0
 40
4.0
 40
4.0
 40
4.0
 40
4.0
 10
9.309991588384306
 20
-8.575256074245071
 10
9.524586586160518
 20
-8.575256074245071
 10
9.646491289906084
 20
-8.509213593792834
 10
9.646491289906084
 20
-8.407634953410241
 10
9.646491289906084
 20
-8.293343910687079
 10
9.513166094626916
 20
-8.238739147245869
 10
9.302360701884477
 20
-8.238739147245869
 10
9.099186195641868
 20
-8.238739147245869
 10
8.965861000362698
 20
-8.290811765505422
 10
8.965861000362698
 20
-8.4063602680807
 10
8.965861000362698
 20
-8.504149303429517
 10
9.085216333449182
 20
-8.575256074245071
 10
9.309991588384306
 20
-8.575256074245071
 97
        0
 97
        1
330
A5
 92
        1
 93
        1
 72
     4
 94
        3
 73
     0
 74
     0
 95
       17
 96
       13
 40
0.0
 40
0.0
 40
0.0
 40
0.0
 40
1.0
 40
1.0
 40
1.0
 40
2.0
 40
2.0
 40
2.0
 40
3.0
 40
3.0
 40
3.0
 40
4.0
 40
4.0
 40
4.0
 40
4.0
 10
9.297279186043734
 20
-8.12699747518179
 10
9.577916664272187
 20
-8.12699747518179
 10
9.732842608243872
 20
-8.231125486223467
 10
9.732842608243872
 20
-8.413991154580529
 10
9.732842608243872
 20
-8.575256074245071
 10
9.581723494783387
 20
-8.684465601127492
 10
9.308716903054763
 20
-8.686997746309153
 10
9.031886255337512
 20
-8.686997746309153
 10
8.879509682024911
 20
-8.567642413222671
 10
8.879509682024911
 20
-8.400021292387839
 10
8.879509682024911
 20
-8.226043970382724
 10
9.034435625996598
 20
-8.12699747518179
 10
9.297279186043734
 20
-8.12699747518179
 97
        0
 97
        1
330
A6
 75
     2
 76
     1
 98
        1
 10
0.0
 20
0.0
450
        0
451
        0
460
0.0
461
0.0
452
        0
462
0.0
453
        0
470

  0
ENDBLK
  5
A0
330
9D
100
AcDbEntity
  8
0
100
AcDbBlockEnd
  0
BLOCK
  5
AA
330
A8
100
AcDbEntity
  8
0
100
AcDbBlockBegin
  2
Block_4
 70
     0
 10
0.0
 20
0.0
 30
0.0
  3
Block_4
  1

  0
INSERT
  5
AD
330
A8
100
AcDbEntity
  8
Livello 3
100
AcDbBlockReference
  2
Block_5
 10
0.0
 20
0.0
 30
0.0
  0
ENDBLK
  5
AB
330
A8
100
AcDbEntity
  8
0
100
AcDbBlockEnd
  0
BLOCK
  5
AE
330
AC
100
AcDbEntity
  8
0
100
AcDbBlockBegin
  2
Block_5
 70
     0
 10
0.0
 20
0.0
 30
0.0
  3
Block_5
  1

  0
SPLINE
  5
B0
330
AC
100
AcDbEntity
  8
Livello 3
100
AcDbSpline
210
0.0
220
0.0
230
1.0
 70
    11
 71
     3
 72
    29
 73
    25
 74
     0
 42
0.000000001
 43
0.0000000001
 40
0.0
 40
0.0
 40
0.0
 40
0.0
 40
1.0
 40
1.0
 40
1.0
 40
2.0
 40
2.0
 40
2.0
 40
3.0
 40
3.0
 40
3.0
 40
4.0
 40
4.0
 40
4.0
 40
5.0
 40
5.0
 40
5.0
 40
6.0
 40
6.0
 40
6.0
 40
7.0
 40
7.0
 40
7.0
 40
8.0
 40
8.0
 40
8.0
 40
8.0
 10
10.66544718157843
 20
-17.1582291623771
 30
0.0
 10
10.66544718157843
 20
-17.1582291623771
 30
0.0
 10
10.66289781091934
 20
-17.1582291623771
 30
0.0
 10
10.66289781091934
 20
-17.1582291623771
 30
0.0
 10
10.66289781091934
 20
-17.1582291623771
 30
0.0
 10
10.51940958395869
 20
-17.23567490888552
 30
0.0
 10
10.51940958395869
 20
-17.23567490888552
 30
0.0
 10
10.51940958395869
 20
-17.23567490888552
 30
0.0
 10
10.4978260607436
 20
-17.15058105039985
 30
0.0
 10
10.4978260607436
 20
-17.15058105039985
 30
0.0
 10
10.4978260607436
 20
-17.15058105039985
 30
0.0
 10
10.67814235844157
 20
-17.054083925858
 30
0.0
 10
10.67814235844157
 20
-17.054083925858
 30
0.0
 10
10.67814235844157
 20
-17.054083925858
 30
0.0
 10
10.7733820231313
 20
-17.054083925858
 30
0.0
 10
10.7733820231313
 20
-17.054083925858
 30
0.0
 10
10.7733820231313
 20
-17.054083925858
 30
0.0
 10
10.7733820231313
 20
-17.87949435316901
 30
0.0
 10
10.7733820231313
 20
-17.87949435316901
 30
0.0
 10
10.7733820231313
 20
-17.87949435316901
 30
0.0
 10
10.66544718157843
 20
-17.87949435316901
 30
0.0
 10
10.66544718157843
 20
-17.87949435316901
 30
0.0
 10
10.66544718157843
 20
-17.87949435316901
 30
0.0
 10
10.66544718157843
 20
-17.1582291623771
 30
0.0
 10
10.66544718157843
 20
-17.1582291623771
 30
0.0
  0
HATCH
  5
B1
330
AC
100
AcDbEntity
  8
Livello 3
 62
   250
420
  1907995
440
 33554687
100
AcDbHatch
 10
0.0
 20
0.0
 30
0.0
210
0.0
220
0.0
230
1.0
  2
SOLID
 70
     1
 71
     1
 91
        1
 92
        1
 93
        1
 72
     4
 94
        3
 73
     0
 74
     0
 95
       29
 96
       25
 40
0.0
 40
0.0
 40
0.0
 40
0.0
 40
1.0
 40
1.0
 40
1.0
 40
2.0
 40
2.0
 40
2.0
 40
3.0
 40
3.0
 40
3.0
 40
4.0
 40
4.0
 40
4.0
 40
5.0
 40
5.0
 40
5.0
 40
6.0
 40
6.0
 40
6.0
 40
7.0
 40
7.0
 40
7.0
 40
8.0
 40
8.0
 40
8.0
 40
8.0
 10
10.66544718157843
 20
-17.1582291623771
 10
10.66544718157843
 20
-17.1582291623771
 10
10.66289781091934
 20
-17.1582291623771
 10
10.66289781091934
 20
-17.1582291623771
 10
10.66289781091934
 20
-17.1582291623771
 10
10.51940958395869
 20
-17.23567490888552
 10
10.51940958395869
 20
-17.23567490888552
 10
10.51940958395869
 20
-17.23567490888552
 10
10.4978260607436
 20
-17.15058105039985
 10
10.4978260607436
 20
-17.15058105039985
 10
10.4978260607436
 20
-17.15058105039985
 10
10.67814235844157
 20
-17.054083925858
 10
10.67814235844157
 20
-17.054083925858
 10
10.67814235844157
 20
-17.054083925858
 10
10.7733820231313
 20
-17.054083925858
 10
10.7733820231313
 20
-17.054083925858
 10
10.7733820231313
 20
-17.054083925858
 10
10.7733820231313
 20
-17.87949435316901
 10
10.7733820231313
 20
-17.87949435316901
 10
10.7733820231313
 20
-17.87949435316901
 10
10.66544718157843
 20
-17.87949435316901
 10
10.66544718157843
 20
-17.87949435316901
 10
10.66544718157843
 20
-17.87949435316901
 10
10.66544718157843
 20
-17.1582291623771
 10
10.66544718157843
 20
-17.1582291623771
 97
        0
 97
        1
330
B0
 75
     2
 76
     1
 98
        1
 10
0.0
 20
0.0
450
        0
451
        0
460
0.0
461
0.0
452
        0
462
0.0
453
        0
470

  0
SPLINE
  5
B2
330
AC
100
AcDbEntity
  8
Livello 3
100
AcDbSpline
210
0.0
220
0.0
230
1.0
 70
    11
 71
     3
 72
    50
 73
    46
 74
     0
 42
0.000000001
 43
0.0000000001
 40
0.0
 40
0.0
 40
0.0
 40
0.0
 40
1.0
 40
1.0
 40
1.0
 40
2.0
 40
2.0
 40
2.0
 40
3.0
 40
3.0
 40
3.0
 40
4.0
 40
4.0
 40
4.0
 40
5.0
 40
5.0
 40
5.0
 40
6.0
 40
6.0
 40
6.0
 40
7.0
 40
7.0
 40
7.0
 40
8.0
 40
8.0
 40
8.0
 40
9.0
 40
9.0
 40
9.0
 40
10.0
 40
10.0
 40
10.0
 40
11.0
 40
11.0
 40
11.0
 40
12.0
 40
12.0
 40
12.0
 40
13.0
 40
13.0
 40
13.0
 40
14.0
 40
14.0
 40
14.0
 40
15.0
 40
15.0
 40
15.0
 40
15.0
 10
11.56708034650059
 20
-17.14806613069562
 30
0.0
 10
11.56708034650059
 20
-17.14806613069562
 30
0.0
 10
11.2521641681939
 20
-17.14806613069562
 30
0.0
 10
11.2521641681939
 20
-17.14806613069562
 30
0.0
 10
11.2521641681939
 20
-17.14806613069562
 30
0.0
 10
11.22041761329732
 20
-17.36011175781275
 30
0.0
 10
11.22041761329732
 20
-17.36011175781275
 30
0.0
 10
11.23946899133075
 20
-17.35759683810852
 30
0.0
 10
11.25724568403464
 20
-17.35504746744943
 30
0.0
 10
11.28771755360168
 20
-17.35504746744943
 30
0.0
 10
11.35121066339483
 20
-17.35504746744943
 30
0.0
 10
11.41470377318799
 20
-17.36900010416469
 30
0.0
 10
11.465501706118
 20
-17.39948919920915
 30
0.0
 10
11.53025227576327
 20
-17.43631726994647
 30
0.0
 10
11.58359957935236
 20
-17.50742404076203
 30
0.0
 10
11.58359957935236
 20
-17.61153482632628
 30
0.0
 10
11.58359957935236
 20
-17.77283419694568
 30
0.0
 10
11.45533867443651
 20
-17.89344698988427
 30
0.0
 10
11.27629706206808
 20
-17.89344698988427
 30
0.0
 10
11.18613891321909
 20
-17.89344698988427
 30
0.0
 10
11.10993340108536
 20
-17.86805663615798
 30
0.0
 10
11.07057318516638
 20
-17.84266628243169
 30
0.0
 10
11.07057318516638
 20
-17.84266628243169
 30
0.0
 10
11.09851290955176
 20
-17.75757242394602
 30
0.0
 10
11.09851290955176
 20
-17.75757242394602
 30
0.0
 10
11.13279160962999
 20
-17.77789848730899
 30
0.0
 10
11.20010877541178
 20
-17.80328884103528
 30
0.0
 10
11.27502237673853
 20
-17.80328884103528
 30
0.0
 10
11.38042507310975
 20
-17.80328884103528
 30
0.0
 10
11.47058322195874
 20
-17.73473144087881
 30
0.0
 10
11.47058322195874
 20
-17.62424722866685
 30
0.0
 10
11.4693085366292
 20
-17.51758707244352
 30
0.0
 10
11.39820176581364
 20
-17.44138156030979
 30
0.0
 10
11.23311279016047
 20
-17.44138156030979
 30
0.0
 10
11.18613891321909
 20
-17.44138156030979
 30
0.0
 10
11.14931084248177
 20
-17.44648030162796
 30
0.0
 10
11.11883897291473
 20
-17.45026990666174
 30
0.0
 10
11.11883897291473
 20
-17.45026990666174
 30
0.0
 10
11.1721690510264
 20
-17.054083925858
 30
0.0
 10
11.1721690510264
 20
-17.054083925858
 30
0.0
 10
11.1721690510264
 20
-17.054083925858
 30
0.0
 10
11.56708034650059
 20
-17.054083925858
 30
0.0
 10
11.56708034650059
 20
-17.054083925858
 30
0.0
 10
11.56708034650059
 20
-17.054083925858
 30
0.0
 10
11.56708034650059
 20
-17.14806613069562
 30
0.0
 10
11.56708034650059
 20
-17.14806613069562
 30
0.0
  0
HATCH
  5
B3
330
AC
100
AcDbEntity
  8
Livello 3
 62
   250
420
  1907995
440
 33554687
100
AcDbHatch
 10
0.0
 20
0.0
 30
0.0
210
0.0
220
0.0
230
1.0
  2
SOLID
 70
     1
 71
     1
 91
        1
 92
        1
 93
        1
 72
     4
 94
        3
 73
     0
 74
     0
 95
       50
 96
       46
 40
0.0
 40
0.0
 40
0.0
 40
0.0
 40
1.0
 40
1.0
 40
1.0
 40
2.0
 40
2.0
 40
2.0
 40
3.0
 40
3.0
 40
3.0
 40
4.0
 40
4.0
 40
4.0
 40
5.0
 40
5.0
 40
5.0
 40
6.0
 40
6.0
 40
6.0
 40
7.0
 40
7.0
 40
7.0
 40
8.0
 40
8.0
 40
8.0
 40
9.0
 40
9.0
 40
9.0
 40
10.0
 40
10.0
 40
10.0
 40
11.0
 40
11.0
 40
11.0
 40
12.0
 40
12.0
 40
12.0
 40
13.0
 40
13.0
 40
13.0
 40
14.0
 40
14.0
 40
14.0
 40
15.0
 40
15.0
 40
15.0
 40
15.0
 10
11.56708034650059
 20
-17.14806613069562
 10
11.56708034650059
 20
-17.14806613069562
 10
11.2521641681939
 20
-17.14806613069562
 10
11.2521641681939
 20
-17.14806613069562
 10
11.2521641681939
 20
-17.14806613069562
 10
11.22041761329732
 20
-17.36011175781275
 10
11.22041761329732
 20
-17.36011175781275
 10
11.23946899133075
 20
-17.35759683810852
 10
11.25724568403464
 20
-17.35504746744943
 10
11.28771755360168
 20
-17.35504746744943
 10
11.35121066339483
 20
-17.35504746744943
 10
11.41470377318799
 20
-17.36900010416469
 10
11.465501706118
 20
-17.39948919920915
 10
11.53025227576327
 20
-17.43631726994647
 10
11.58359957935236
 20
-17.50742404076203
 10
11.58359957935236
 20
-17.61153482632628
 10
11.58359957935236
 20
-17.77283419694568
 10
11.45533867443651
 20
-17.89344698988427
 10
11.27629706206808
 20
-17.89344698988427
 10
11.18613891321909
 20
-17.89344698988427
 10
11.10993340108536
 20
-17.86805663615798
 10
11.07057318516638
 20
-17.84266628243169
 10
11.07057318516638
 20
-17.84266628243169
 10
11.09851290955176
 20
-17.75757242394602
 10
11.09851290955176
 20
-17.75757242394602
 10
11.13279160962999
 20
-17.77789848730899
 10
11.20010877541178
 20
-17.80328884103528
 10
11.27502237673853
 20
-17.80328884103528
 10
11.38042507310975
 20
-17.80328884103528
 10
11.47058322195874
 20
-17.73473144087881
 10
11.47058322195874
 20
-17.62424722866685
 10
11.4693085366292
 20
-17.51758707244352
 10
11.39820176581364
 20
-17.44138156030979
 10
11.23311279016047
 20
-17.44138156030979
 10
11.18613891321909
 20
-17.44138156030979
 10
11.14931084248177
 20
-17.44648030162796
 10
11.11883897291473
 20
-17.45026990666174
 10
11.11883897291473
 20
-17.45026990666174
 10
11.1721690510264
 20
-17.054083925858
 10
11.1721690510264
 20
-17.054083925858
 10
11.1721690510264
 20
-17.054083925858
 10
11.56708034650059
 20
-17.054083925858
 10
11.56708034650059
 20
-17.054083925858
 10
11.56708034650059
 20
-17.054083925858
 10
11.56708034650059
 20
-17.14806613069562
 10
11.56708034650059
 20
-17.14806613069562
 97
        0
 97
        1
330
B2
 75
     2
 76
     1
 98
        1
 10
0.0
 20
0.0
450
        0
451
        0
460
0.0
461
0.0
452
        0
462
0.0
453
        0
470

  0
SPLINE
  5
B4
330
AC
100
AcDbEntity
  8
Livello 3
100
AcDbSpline
210
0.0
220
0.0
230
1.0
 70
     9
 71
     3
 72
    17
 73
    13
 74
     0
 42
0.000000001
 43
0.0000000001
 40
0.0
 40
0.0
 40
0.0
 40
0.0
 40
1.0
 40
1.0
 40
1.0
 40
2.0
 40
2.0
 40
2.0
 40
3.0
 40
3.0
 40
3.0
 40
4.0
 40
4.0
 40
4.0
 40
4.0
 10
11.68903672667843
 20
-18.03566053151539
 30
0.0
 10
11.71697645106381
 20
-17.96076415566606
 30
0.0
 10
11.75127237661947
 20
-17.8248895897278
 30
0.0
 10
11.76524223881216
 20
-17.73218207021973
 30
0.0
 10
11.76524223881216
 20
-17.73218207021973
 30
0.0
 10
11.88967908773938
 20
-17.71946966787916
 30
0.0
 10
11.88967908773938
 20
-17.71946966787916
 30
0.0
 10
11.86048190350189
 20
-17.82743896038689
 30
0.0
 10
11.80460245473114
 20
-17.96837781668846
 30
0.0
 10
11.76904906932336
 20
-18.02804687049298
 30
0.0
 10
11.76904906932336
 20
-18.02804687049298
 30
0.0
 10
11.68903672667843
 20
-18.03566053151539
 30
0.0
 10
11.68903672667843
 20
-18.03566053151539
 30
0.0
  0
HATCH
  5
B5
330
AC
100
AcDbEntity
  8
Livello 3
 62
   250
420
  1907995
440
 33554687
100
AcDbHatch
 10
0.0
 20
0.0
 30
0.0
210
0.0
220
0.0
230
1.0
  2
SOLID
 70
     1
 71
     1
 91
        1
 92
        1
 93
        1
 72
     4
 94
        3
 73
     0
 74
     0
 95
       17
 96
       13
 40
0.0
 40
0.0
 40
0.0
 40
0.0
 40
1.0
 40
1.0
 40
1.0
 40
2.0
 40
2.0
 40
2.0
 40
3.0
 40
3.0
 40
3.0
 40
4.0
 40
4.0
 40
4.0
 40
4.0
 10
11.68903672667843
 20
-18.03566053151539
 10
11.71697645106381
 20
-17.96076415566606
 10
11.75127237661947
 20
-17.8248895897278
 10
11.76524223881216
 20
-17.73218207021973
 10
11.76524223881216
 20
-17.73218207021973
 10
11.88967908773938
 20
-17.71946966787916
 10
11.88967908773938
 20
-17.71946966787916
 10
11.86048190350189
 20
-17.82743896038689
 10
11.80460245473114
 20
-17.96837781668846
 10
11.76904906932336
 20
-18.02804687049298
 10
11.76904906932336
 20
-18.02804687049298
 10
11.68903672667843
 20
-18.03566053151539
 10
11.68903672667843
 20
-18.03566053151539
 97
        0
 97
        1
330
B4
 75
     2
 76
     1
 98
        1
 10
0.0
 20
0.0
450
        0
451
        0
460
0.0
461
0.0
452
        0
462
0.0
453
        0
470

  0
SPLINE
  5
B6
330
AC
100
AcDbEntity
  8
Livello 3
100
AcDbSpline
210
0.0
220
0.0
230
1.0
 70
    11
 71
     3
 72
    50
 73
    46
 74
     0
 42
0.000000001
 43
0.0000000001
 40
0.0
 40
0.0
 40
0.0
 40
0.0
 40
1.0
 40
1.0
 40
1.0
 40
2.0
 40
2.0
 40
2.0
 40
3.0
 40
3.0
 40
3.0
 40
4.0
 40
4.0
 40
4.0
 40
5.0
 40
5.0
 40
5.0
 40
6.0
 40
6.0
 40
6.0
 40
7.0
 40
7.0
 40
7.0
 40
8.0
 40
8.0
 40
8.0
 40
9.0
 40
9.0
 40
9.0
 40
10.0
 40
10.0
 40
10.0
 40
11.0
 40
11.0
 40
11.0
 40
12.0
 40
12.0
 40
12.0
 40
13.0
 40
13.0
 40
13.0
 40
14.0
 40
14.0
 40
14.0
 40
15.0
 40
15.0
 40
15.0
 40
15.0
 10
12.48144313924075
 20
-17.14806613069562
 30
0.0
 10
12.48144313924075
 20
-17.14806613069562
 30
0.0
 10
12.16652696093406
 20
-17.14806613069562
 30
0.0
 10
12.16652696093406
 20
-17.14806613069562
 30
0.0
 10
12.16652696093406
 20
-17.14806613069562
 30
0.0
 10
12.13478040603748
 20
-17.36011175781275
 30
0.0
 10
12.13478040603748
 20
-17.36011175781275
 30
0.0
 10
12.15383178407092
 20
-17.35759683810852
 30
0.0
 10
12.1716084767748
 20
-17.35504746744943
 30
0.0
 10
12.20208034634184
 20
-17.35504746744943
 30
0.0
 10
12.26557345613499
 20
-17.35504746744943
 30
0.0
 10
12.32906656592815
 20
-17.36900010416469
 30
0.0
 10
12.37986449885816
 20
-17.39948919920915
 30
0.0
 10
12.44461506850343
 20
-17.43631726994647
 30
0.0
 10
12.49796237209252
 20
-17.50742404076203
 30
0.0
 10
12.49796237209252
 20
-17.61153482632628
 30
0.0
 10
12.49796237209252
 20
-17.77283419694568
 30
0.0
 10
12.36970146717667
 20
-17.89344698988427
 30
0.0
 10
12.19065985480823
 20
-17.89344698988427
 30
0.0
 10
12.10050170595925
 20
-17.89344698988427
 30
0.0
 10
12.02429619382552
 20
-17.86805663615798
 30
0.0
 10
11.98493597790654
 20
-17.84266628243169
 30
0.0
 10
11.98493597790654
 20
-17.84266628243169
 30
0.0
 10
12.01287570229192
 20
-17.75757242394602
 30
0.0
 10
12.01287570229192
 20
-17.75757242394602
 30
0.0
 10
12.04715440237015
 20
-17.77789848730899
 30
0.0
 10
12.11447156815193
 20
-17.80328884103528
 30
0.0
 10
12.18938516947869
 20
-17.80328884103528
 30
0.0
 10
12.29478786584991
 20
-17.80328884103528
 30
0.0
 10
12.3849460146989
 20
-17.73473144087881
 30
0.0
 10
12.3849460146989
 20
-17.62424722866685
 30
0.0
 10
12.38367132936936
 20
-17.51758707244352
 30
0.0
 10
12.3125645585538
 20
-17.44138156030979
 30
0.0
 10
12.14747558290063
 20
-17.44138156030979
 30
0.0
 10
12.10050170595925
 20
-17.44138156030979
 30
0.0
 10
12.06367363522193
 20
-17.44648030162796
 30
0.0
 10
12.03320176565489
 20
-17.45026990666174
 30
0.0
 10
12.03320176565489
 20
-17.45026990666174
 30
0.0
 10
12.08653184376656
 20
-17.054083925858
 30
0.0
 10
12.08653184376656
 20
-17.054083925858
 30
0.0
 10
12.08653184376656
 20
-17.054083925858
 30
0.0
 10
12.48144313924075
 20
-17.054083925858
 30
0.0
 10
12.48144313924075
 20
-17.054083925858
 30
0.0
 10
12.48144313924075
 20
-17.054083925858
 30
0.0
 10
12.48144313924075
 20
-17.14806613069562
 30
0.0
 10
12.48144313924075
 20
-17.14806613069562
 30
0.0
  0
HATCH
  5
B7
330
AC
100
AcDbEntity
  8
Livello 3
 62
   250
420
  1907995
440
 33554687
100
AcDbHatch
 10
0.0
 20
0.0
 30
0.0
210
0.0
220
0.0
230
1.0
  2
SOLID
 70
     1
 71
     1
 91
        1
 92
        1
 93
        1
 72
     4
 94
        3
 73
     0
 74
     0
 95
       50
 96
       46
 40
0.0
 40
0.0
 40
0.0
 40
0.0
 40
1.0
 40
1.0
 40
1.0
 40
2.0
 40
2.0
 40
2.0
 40
3.0
 40
3.0
 40
3.0
 40
4.0
 40
4.0
 40
4.0
 40
5.0
 40
5.0
 40
5.0
 40
6.0
 40
6.0
 40
6.0
 40
7.0
 40
7.0
 40
7.0
 40
8.0
 40
8.0
 40
8.0
 40
9.0
 40
9.0
 40
9.0
 40
10.0
 40
10.0
 40
10.0
 40
11.0
 40
11.0
 40
11.0
 40
12.0
 40
12.0
 40
12.0
 40
13.0
 40
13.0
 40
13.0
 40
14.0
 40
14.0
 40
14.0
 40
15.0
 40
15.0
 40
15.0
 40
15.0
 10
12.48144313924075
 20
-17.14806613069562
 10
12.48144313924075
 20
-17.14806613069562
 10
12.16652696093406
 20
-17.14806613069562
 10
12.16652696093406
 20
-17.14806613069562
 10
12.16652696093406
 20
-17.14806613069562
 10
12.13478040603748
 20
-17.36011175781275
 10
12.13478040603748
 20
-17.36011175781275
 10
12.15383178407092
 20
-17.35759683810852
 10
12.1716084767748
 20
-17.35504746744943
 10
12.20208034634184
 20
-17.35504746744943
 10
12.26557345613499
 20
-17.35504746744943
 10
12.32906656592815
 20
-17.36900010416469
 10
12.37986449885816
 20
-17.39948919920915
 10
12.44461506850343
 20
-17.43631726994647
 10
12.49796237209252
 20
-17.50742404076203
 10
12.49796237209252
 20
-17.61153482632628
 10
12.49796237209252
 20
-17.77283419694568
 10
12.36970146717667
 20
-17.89344698988427
 10
12.19065985480823
 20
-17.89344698988427
 10
12.10050170595925
 20
-17.89344698988427
 10
12.02429619382552
 20
-17.86805663615798
 10
11.98493597790654
 20
-17.84266628243169
 10
11.98493597790654
 20
-17.84266628243169
 10
12.01287570229192
 20
-17.75757242394602
 10
12.01287570229192
 20
-17.75757242394602
 10
12.04715440237015
 20
-17.77789848730899
 10
12.11447156815193
 20
-17.80328884103528
 10
12.18938516947869
 20
-17.80328884103528
 10
12.29478786584991
 20
-17.80328884103528
 10
12.3849460146989
 20
-17.73473144087881
 10
12.3849460146989
 20
-17.62424722866685
 10
12.38367132936936
 20
-17.51758707244352
 10
12.3125645585538
 20
-17.44138156030979
 10
12.14747558290063
 20
-17.44138156030979
 10
12.10050170595925
 20
-17.44138156030979
 10
12.06367363522193
 20
-17.44648030162796
 10
12.03320176565489
 20
-17.45026990666174
 10
12.03320176565489
 20
-17.45026990666174
 10
12.08653184376656
 20
-17.054083925858
 10
12.08653184376656
 20
-17.054083925858
 10
12.08653184376656
 20
-17.054083925858
 10
12.48144313924075
 20
-17.054083925858
 10
12.48144313924075
 20
-17.054083925858
 10
12.48144313924075
 20
-17.054083925858
 10
12.48144313924075
 20
-17.14806613069562
 10
12.48144313924075
 20
-17.14806613069562
 97
        0
 97
        1
330
B6
 75
     2
 76
     1
 98
        1
 10
0.0
 20
0.0
450
        0
451
        0
460
0.0
461
0.0
452
        0
462
0.0
453
        0
470

  0
ENDBLK
  5
AF
330
AC
100
AcDbEntity
  8
0
100
AcDbBlockEnd
  0
BLOCK
  5
BA
330
B8
100
AcDbEntity
  8
0
100
AcDbBlockBegin
  2
Block_6
 70
     0
 10
0.0
 20
0.0
 30
0.0
  3
Block_6
  1

  0
INSERT
  5
BD
330
B8
100
AcDbEntity
  8
Livello 3
100
AcDbBlockReference
  2
Block_7
 10
0.0
 20
0.0
 30
0.0
  0
ENDBLK
  5
BB
330
B8
100
AcDbEntity
  8
0
100
AcDbBlockEnd
  0
BLOCK
  5
BE
330
BC
100
AcDbEntity
  8
0
100
AcDbBlockBegin
  2
Block_7
 70
     0
 10
0.0
 20
0.0
 30
0.0
  3
Block_7
  1

  0
SPLINE
  5
C0
330
BC
100
AcDbEntity
  8
Livello 3
100
AcDbSpline
210
0.0
220
0.0
230
1.0
 70
    11
 71
     3
 72
    29
 73
    25
 74
     0
 42
0.000000001
 43
0.0000000001
 40
0.0
 40
0.0
 40
0.0
 40
0.0
 40
1.0
 40
1.0
 40
1.0
 40
2.0
 40
2.0
 40
2.0
 40
3.0
 40
3.0
 40
3.0
 40
4.0
 40
4.0
 40
4.0
 40
5.0
 40
5.0
 40
5.0
 40
6.0
 40
6.0
 40
6.0
 40
7.0
 40
7.0
 40
7.0
 40
8.0
 40
8.0
 40
8.0
 40
8.0
 10
18.86365478044033
 20
-17.38791367837871
 30
0.0
 10
18.86365478044033
 20
-17.38791367837871
 30
0.0
 10
18.86110540978125
 20
-17.38791367837871
 30
0.0
 10
18.86110540978125
 20
-17.38791367837871
 30
0.0
 10
18.86110540978125
 20
-17.38791367837871
 30
0.0
 10
18.71761718282059
 20
-17.46539387584198
 30
0.0
 10
18.71761718282059
 20
-17.46539387584198
 30
0.0
 10
18.71761718282059
 20
-17.46539387584198
 30
0.0
 10
18.69601643412807
 20
-17.38030001735631
 30
0.0
 10
18.69601643412807
 20
-17.38030001735631
 30
0.0
 10
18.69601643412807
 20
-17.38030001735631
 30
0.0
 10
18.87633273182605
 20
-17.28380289281446
 30
0.0
 10
18.87633273182605
 20
-17.28380289281446
 30
0.0
 10
18.87633273182605
 20
-17.28380289281446
 30
0.0
 10
18.97158962199321
 20
-17.28380289281446
 30
0.0
 10
18.97158962199321
 20
-17.28380289281446
 30
0.0
 10
18.97158962199321
 20
-17.28380289281446
 30
0.0
 10
18.97158962199321
 20
-18.10917886917062
 30
0.0
 10
18.97158962199321
 20
-18.10917886917062
 30
0.0
 10
18.97158962199321
 20
-18.10917886917062
 30
0.0
 10
18.86365478044033
 20
-18.10917886917062
 30
0.0
 10
18.86365478044033
 20
-18.10917886917062
 30
0.0
 10
18.86365478044033
 20
-18.10917886917062
 30
0.0
 10
18.86365478044033
 20
-17.38791367837871
 30
0.0
 10
18.86365478044033
 20
-17.38791367837871
 30
0.0
  0
HATCH
  5
C1
330
BC
100
AcDbEntity
  8
Livello 3
 62
   250
420
  1907995
440
 33554687
100
AcDbHatch
 10
0.0
 20
0.0
 30
0.0
210
0.0
220
0.0
230
1.0
  2
SOLID
 70
     1
 71
     1
 91
        1
 92
        1
 93
        1
 72
     4
 94
        3
 73
     0
 74
     0
 95
       29
 96
       25
 40
0.0
 40
0.0
 40
0.0
 40
0.0
 40
1.0
 40
1.0
 40
1.0
 40
2.0
 40
2.0
 40
2.0
 40
3.0
 40
3.0
 40
3.0
 40
4.0
 40
4.0
 40
4.0
 40
5.0
 40
5.0
 40
5.0
 40
6.0
 40
6.0
 40
6.0
 40
7.0
 40
7.0
 40
7.0
 40
8.0
 40
8.0
 40
8.0
 40
8.0
 10
18.86365478044033
 20
-17.38791367837871
 10
18.86365478044033
 20
-17.38791367837871
 10
18.86110540978125
 20
-17.38791367837871
 10
18.86110540978125
 20
-17.38791367837871
 10
18.86110540978125
 20
-17.38791367837871
 10
18.71761718282059
 20
-17.46539387584198
 10
18.71761718282059
 20
-17.46539387584198
 10
18.71761718282059
 20
-17.46539387584198
 10
18.69601643412807
 20
-17.38030001735631
 10
18.69601643412807
 20
-17.38030001735631
 10
18.69601643412807
 20
-17.38030001735631
 10
18.87633273182605
 20
-17.28380289281446
 10
18.87633273182605
 20
-17.28380289281446
 10
18.87633273182605
 20
-17.28380289281446
 10
18.97158962199321
 20
-17.28380289281446
 10
18.97158962199321
 20
-17.28380289281446
 10
18.97158962199321
 20
-17.28380289281446
 10
18.97158962199321
 20
-18.10917886917062
 10
18.97158962199321
 20
-18.10917886917062
 10
18.97158962199321
 20
-18.10917886917062
 10
18.86365478044033
 20
-18.10917886917062
 10
18.86365478044033
 20
-18.10917886917062
 10
18.86365478044033
 20
-18.10917886917062
 10
18.86365478044033
 20
-17.38791367837871
 10
18.86365478044033
 20
-17.38791367837871
 97
        0
 97
        1
330
C0
 75
     2
 76
     1
 98
        1
 10
0.0
 20
0.0
450
        0
451
        0
460
0.0
461
0.0
452
        0
462
0.0
453
        0
470

  0
SPLINE
  5
C2
330
BC
100
AcDbEntity
  8
Livello 3
100
AcDbSpline
210
0.0
220
0.0
230
1.0
 70
    11
 71
     3
 72
    50
 73
    46
 74
     0
 42
0.000000001
 43
0.0000000001
 40
0.0
 40
0.0
 40
0.0
 40
0.0
 40
1.0
 40
1.0
 40
1.0
 40
2.0
 40
2.0
 40
2.0
 40
3.0
 40
3.0
 40
3.0
 40
4.0
 40
4.0
 40
4.0
 40
5.0
 40
5.0
 40
5.0
 40
6.0
 40
6.0
 40
6.0
 40
7.0
 40
7.0
 40
7.0
 40
8.0
 40
8.0
 40
8.0
 40
9.0
 40
9.0
 40
9.0
 40
10.0
 40
10.0
 40
10.0
 40
11.0
 40
11.0
 40
11.0
 40
12.0
 40
12.0
 40
12.0
 40
13.0
 40
13.0
 40
13.0
 40
14.0
 40
14.0
 40
14.0
 40
15.0
 40
15.0
 40
15.0
 40
15.0
 10
19.76527071988507
 20
-17.37775064669722
 30
0.0
 10
19.76527071988507
 20
-17.37775064669722
 30
0.0
 10
19.45035454157838
 20
-17.37775064669722
 30
0.0
 10
19.45035454157838
 20
-17.37775064669722
 30
0.0
 10
19.45035454157838
 20
-17.37775064669722
 30
0.0
 10
19.41862521215923
 20
-17.58983072476921
 30
0.0
 10
19.41862521215923
 20
-17.58983072476921
 30
0.0
 10
19.43767659019266
 20
-17.58728135411011
 30
0.0
 10
19.45545328289655
 20
-17.58473198345104
 30
0.0
 10
19.48590792698616
 20
-17.58473198345104
 30
0.0
 10
19.5494010367793
 20
-17.58473198345104
 30
0.0
 10
19.61289414657247
 20
-17.59871907112115
 30
0.0
 10
19.6637093049799
 20
-17.62917371521076
 30
0.0
 10
19.72844264914775
 20
-17.66600178594808
 30
0.0
 10
19.78180717821427
 20
-17.73710855676364
 30
0.0
 10
19.78180717821427
 20
-17.84125379328274
 30
0.0
 10
19.78180717821427
 20
-18.00251871294728
 30
0.0
 10
19.65354627329842
 20
-18.12316595684073
 30
0.0
 10
19.47450466092998
 20
-18.12316595684073
 30
0.0
 10
19.38434651208099
 20
-18.12316595684073
 30
0.0
 10
19.30814099994727
 20
-18.09777560311444
 30
0.0
 10
19.26876355855086
 20
-18.0723507984333
 30
0.0
 10
19.26876355855086
 20
-18.0723507984333
 30
0.0
 10
19.29670328293624
 20
-17.98729139090248
 30
0.0
 10
19.29670328293624
 20
-17.98729139090248
 30
0.0
 10
19.33098198301447
 20
-18.0075830033106
 30
0.0
 10
19.39829914879626
 20
-18.03300780799174
 30
0.0
 10
19.47322997560044
 20
-18.03300780799174
 30
0.0
 10
19.57861544649423
 20
-18.03300780799174
 30
0.0
 10
19.66877359534322
 20
-17.96441595688042
 30
0.0
 10
19.66877359534322
 20
-17.85396619562331
 30
0.0
 10
19.66749891001368
 20
-17.74727158844513
 30
0.0
 10
19.59639213919812
 20
-17.67110052726625
 30
0.0
 10
19.43130316354495
 20
-17.67110052726625
 30
0.0
 10
19.38434651208099
 20
-17.67110052726625
 30
0.0
 10
19.34751844134367
 20
-17.67616481762957
 30
0.0
 10
19.31702934629921
 20
-17.67998887361819
 30
0.0
 10
19.31702934629921
 20
-17.67998887361819
 30
0.0
 10
19.37035942441088
 20
-17.28380289281446
 30
0.0
 10
19.37035942441088
 20
-17.28380289281446
 30
0.0
 10
19.37035942441088
 20
-17.28380289281446
 30
0.0
 10
19.76527071988507
 20
-17.28380289281446
 30
0.0
 10
19.76527071988507
 20
-17.28380289281446
 30
0.0
 10
19.76527071988507
 20
-17.28380289281446
 30
0.0
 10
19.76527071988507
 20
-17.37775064669722
 30
0.0
 10
19.76527071988507
 20
-17.37775064669722
 30
0.0
  0
HATCH
  5
C3
330
BC
100
AcDbEntity
  8
Livello 3
 62
   250
420
  1907995
440
 33554687
100
AcDbHatch
 10
0.0
 20
0.0
 30
0.0
210
0.0
220
0.0
230
1.0
  2
SOLID
 70
     1
 71
     1
 91
        1
 92
        1
 93
        1
 72
     4
 94
        3
 73
     0
 74
     0
 95
       50
 96
       46
 40
0.0
 40
0.0
 40
0.0
 40
0.0
 40
1.0
 40
1.0
 40
1.0
 40
2.0
 40
2.0
 40
2.0
 40
3.0
 40
3.0
 40
3.0
 40
4.0
 40
4.0
 40
4.0
 40
5.0
 40
5.0
 40
5.0
 40
6.0
 40
6.0
 40
6.0
 40
7.0
 40
7.0
 40
7.0
 40
8.0
 40
8.0
 40
8.0
 40
9.0
 40
9.0
 40
9.0
 40
10.0
 40
10.0
 40
10.0
 40
11.0
 40
11.0
 40
11.0
 40
12.0
 40
12.0
 40
12.0
 40
13.0
 40
13.0
 40
13.0
 40
14.0
 40
14.0
 40
14.0
 40
15.0
 40
15.0
 40
15.0
 40
15.0
 10
19.76527071988507
 20
-17.37775064669722
 10
19.76527071988507
 20
-17.37775064669722
 10
19.45035454157838
 20
-17.37775064669722
 10
19.45035454157838
 20
-17.37775064669722
 10
19.45035454157838
 20
-17.37775064669722
 10
19.41862521215923
 20
-17.58983072476921
 10
19.41862521215923
 20
-17.58983072476921
 10
19.43767659019266
 20
-17.58728135411011
 10
19.45545328289655
 20
-17.58473198345104
 10
19.48590792698616
 20
-17.58473198345104
 10
19.5494010367793
 20
-17.58473198345104
 10
19.61289414657247
 20
-17.59871907112115
 10
19.6637093049799
 20
-17.62917371521076
 10
19.72844264914775
 20
-17.66600178594808
 10
19.78180717821427
 20
-17.73710855676364
 10
19.78180717821427
 20
-17.84125379328274
 10
19.78180717821427
 20
-18.00251871294728
 10
19.65354627329842
 20
-18.12316595684073
 10
19.47450466092998
 20
-18.12316595684073
 10
19.38434651208099
 20
-18.12316595684073
 10
19.30814099994727
 20
-18.09777560311444
 10
19.26876355855086
 20
-18.0723507984333
 10
19.26876355855086
 20
-18.0723507984333
 10
19.29670328293624
 20
-17.98729139090248
 10
19.29670328293624
 20
-17.98729139090248
 10
19.33098198301447
 20
-18.0075830033106
 10
19.39829914879626
 20
-18.03300780799174
 10
19.47322997560044
 20
-18.03300780799174
 10
19.57861544649423
 20
-18.03300780799174
 10
19.66877359534322
 20
-17.96441595688042
 10
19.66877359534322
 20
-17.85396619562331
 10
19.66749891001368
 20
-17.74727158844513
 10
19.59639213919812
 20
-17.67110052726625
 10
19.43130316354495
 20
-17.67110052726625
 10
19.38434651208099
 20
-17.67110052726625
 10
19.34751844134367
 20
-17.67616481762957
 10
19.31702934629921
 20
-17.67998887361819
 10
19.31702934629921
 20
-17.67998887361819
 10
19.37035942441088
 20
-17.28380289281446
 10
19.37035942441088
 20
-17.28380289281446
 10
19.37035942441088
 20
-17.28380289281446
 10
19.76527071988507
 20
-17.28380289281446
 10
19.76527071988507
 20
-17.28380289281446
 10
19.76527071988507
 20
-17.28380289281446
 10
19.76527071988507
 20
-17.37775064669722
 10
19.76527071988507
 20
-17.37775064669722
 97
        0
 97
        1
330
C2
 75
     2
 76
     1
 98
        1
 10
0.0
 20
0.0
450
        0
451
        0
460
0.0
461
0.0
452
        0
462
0.0
453
        0
470

  0
ENDBLK
  5
BF
330
BC
100
AcDbEntity
  8
0
100
AcDbBlockEnd
  0
BLOCK
  5
C6
330
C4
100
AcDbEntity
  8
0
100
AcDbBlockBegin
  2
Block_8
 70
     0
 10
0.0
 20
0.0
 30
0.0
  3
Block_8
  1

  0
INSERT
  5
C9
330
C4
100
AcDbEntity
  8
Livello 3
100
AcDbBlockReference
  2
Block_9
 10
0.0
 20
0.0
 30
0.0
  0
ENDBLK
  5
C7
330
C4
100
AcDbEntity
  8
0
100
AcDbBlockEnd
  0
BLOCK
  5
CA
330
C8
100
AcDbEntity
  8
0
100
AcDbBlockBegin
  2
Block_9
 70
     0
 10
0.0
 20
0.0
 30
0.0
  3
Block_9
  1

  0
SPLINE
  5
CC
330
C8
100
AcDbEntity
  8
Livello 3
100
AcDbSpline
210
0.0
220
0.0
230
1.0
 70
    11
 71
     3
 72
    29
 73
    25
 74
     0
 42
0.000000001
 43
0.0000000001
 40
0.0
 40
0.0
 40
0.0
 40
0.0
 40
1.0
 40
1.0
 40
1.0
 40
2.0
 40
2.0
 40
2.0
 40
3.0
 40
3.0
 40
3.0
 40
4.0
 40
4.0
 40
4.0
 40
5.0
 40
5.0
 40
5.0
 40
6.0
 40
6.0
 40
6.0
 40
7.0
 40
7.0
 40
7.0
 40
8.0
 40
8.0
 40
8.0
 40
8.0
 10
24.84830240264209
 20
-17.46411919051244
 30
0.0
 10
24.84830240264209
 20
-17.46411919051244
 30
0.0
 10
24.84575303198301
 20
-17.46411919051244
 30
0.0
 10
24.84575303198301
 20
-17.46411919051244
 30
0.0
 10
24.84575303198301
 20
-17.46411919051244
 30
0.0
 10
24.70226480502235
 20
-17.54159938797571
 30
0.0
 10
24.70226480502235
 20
-17.54159938797571
 30
0.0
 10
24.70226480502235
 20
-17.54159938797571
 30
0.0
 10
24.68066405632983
 20
-17.45650552949004
 30
0.0
 10
24.68066405632983
 20
-17.45650552949004
 30
0.0
 10
24.68066405632983
 20
-17.45650552949004
 30
0.0
 10
24.86098035402781
 20
-17.36000840494819
 30
0.0
 10
24.86098035402781
 20
-17.36000840494819
 30
0.0
 10
24.86098035402781
 20
-17.36000840494819
 30
0.0
 10
24.95623724419497
 20
-17.36000840494819
 30
0.0
 10
24.95623724419497
 20
-17.36000840494819
 30
0.0
 10
24.95623724419497
 20
-17.36000840494819
 30
0.0
 10
24.95623724419497
 20
-18.18538438130434
 30
0.0
 10
24.95623724419497
 20
-18.18538438130434
 30
0.0
 10
24.95623724419497
 20
-18.18538438130434
 30
0.0
 10
24.84830240264209
 20
-18.18538438130434
 30
0.0
 10
24.84830240264209
 20
-18.18538438130434
 30
0.0
 10
24.84830240264209
 20
-18.18538438130434
 30
0.0
 10
24.84830240264209
 20
-17.46411919051244
 30
0.0
 10
24.84830240264209
 20
-17.46411919051244
 30
0.0
  0
HATCH
  5
CD
330
C8
100
AcDbEntity
  8
Livello 3
 62
   250
420
  1907995
440
 33554687
100
AcDbHatch
 10
0.0
 20
0.0
 30
0.0
210
0.0
220
0.0
230
1.0
  2
SOLID
 70
     1
 71
     1
 91
        1
 92
        1
 93
        1
 72
     4
 94
        3
 73
     0
 74
     0
 95
       29
 96
       25
 40
0.0
 40
0.0
 40
0.0
 40
0.0
 40
1.0
 40
1.0
 40
1.0
 40
2.0
 40
2.0
 40
2.0
 40
3.0
 40
3.0
 40
3.0
 40
4.0
 40
4.0
 40
4.0
 40
5.0
 40
5.0
 40
5.0
 40
6.0
 40
6.0
 40
6.0
 40
7.0
 40
7.0
 40
7.0
 40
8.0
 40
8.0
 40
8.0
 40
8.0
 10
24.84830240264209
 20
-17.46411919051244
 10
24.84830240264209
 20
-17.46411919051244
 10
24.84575303198301
 20
-17.46411919051244
 10
24.84575303198301
 20
-17.46411919051244
 10
24.84575303198301
 20
-17.46411919051244
 10
24.70226480502235
 20
-17.54159938797571
 10
24.70226480502235
 20
-17.54159938797571
 10
24.70226480502235
 20
-17.54159938797571
 10
24.68066405632983
 20
-17.45650552949004
 10
24.68066405632983
 20
-17.45650552949004
 10
24.68066405632983
 20
-17.45650552949004
 10
24.86098035402781
 20
-17.36000840494819
 10
24.86098035402781
 20
-17.36000840494819
 10
24.86098035402781
 20
-17.36000840494819
 10
24.95623724419497
 20
-17.36000840494819
 10
24.95623724419497
 20
-17.36000840494819
 10
24.95623724419497
 20
-17.36000840494819
 10
24.95623724419497
 20
-18.18538438130434
 10
24.95623724419497
 20
-18.18538438130434
 10
24.95623724419497
 20
-18.18538438130434
 10
24.84830240264209
 20
-18.18538438130434
 10
24.84830240264209
 20
-18.18538438130434
 10
24.84830240264209
 20
-18.18538438130434
 10
24.84830240264209
 20
-17.46411919051244
 10
24.84830240264209
 20
-17.46411919051244
 97
        0
 97
        1
330
CC
 75
     2
 76
     1
 98
        1
 10
0.0
 20
0.0
450
        0
451
        0
460
0.0
461
0.0
452
        0
462
0.0
453
        0
470

  0
SPLINE
  5
CE
330
C8
100
AcDbEntity
  8
Livello 3
100
AcDbSpline
210
0.0
220
0.0
230
1.0
 70
    11
 71
     3
 72
    50
 73
    46
 74
     0
 42
0.000000001
 43
0.0000000001
 40
0.0
 40
0.0
 40
0.0
 40
0.0
 40
1.0
 40
1.0
 40
1.0
 40
2.0
 40
2.0
 40
2.0
 40
3.0
 40
3.0
 40
3.0
 40
4.0
 40
4.0
 40
4.0
 40
5.0
 40
5.0
 40
5.0
 40
6.0
 40
6.0
 40
6.0
 40
7.0
 40
7.0
 40
7.0
 40
8.0
 40
8.0
 40
8.0
 40
9.0
 40
9.0
 40
9.0
 40
10.0
 40
10.0
 40
10.0
 40
11.0
 40
11.0
 40
11.0
 40
12.0
 40
12.0
 40
12.0
 40
13.0
 40
13.0
 40
13.0
 40
14.0
 40
14.0
 40
14.0
 40
15.0
 40
15.0
 40
15.0
 40
15.0
 10
25.74991834208683
 20
-17.45395615883095
 30
0.0
 10
25.74991834208683
 20
-17.45395615883095
 30
0.0
 10
25.43500216378014
 20
-17.45395615883095
 30
0.0
 10
25.43500216378014
 20
-17.45395615883095
 30
0.0
 10
25.43500216378014
 20
-17.45395615883095
 30
0.0
 10
25.40327283436099
 20
-17.66603623690293
 30
0.0
 10
25.40327283436099
 20
-17.66603623690293
 30
0.0
 10
25.42232421239442
 20
-17.66348686624385
 30
0.0
 10
25.44010090509831
 20
-17.66093749558476
 30
0.0
 10
25.47055554918792
 20
-17.66093749558476
 30
0.0
 10
25.53404865898107
 20
-17.66093749558476
 30
0.0
 10
25.59754176877423
 20
-17.67492458325488
 30
0.0
 10
25.64835692718166
 20
-17.70537922734449
 30
0.0
 10
25.71309027134951
 20
-17.74220729808181
 30
0.0
 10
25.76645480041602
 20
-17.81331406889736
 30
0.0
 10
25.76645480041602
 20
-17.91745930541647
 30
0.0
 10
25.76645480041602
 20
-18.07872422508101
 30
0.0
 10
25.63819389550018
 20
-18.19937146897446
 30
0.0
 10
25.45915228313174
 20
-18.19937146897446
 30
0.0
 10
25.36899413428275
 20
-18.19937146897446
 30
0.0
 10
25.29278862214902
 20
-18.17398111524817
 30
0.0
 10
25.25341118075262
 20
-18.14855631056703
 30
0.0
 10
25.25341118075262
 20
-18.14855631056703
 30
0.0
 10
25.281350905138
 20
-18.06349690303621
 30
0.0
 10
25.281350905138
 20
-18.06349690303621
 30
0.0
 10
25.31562960521623
 20
-18.08378851544433
 30
0.0
 10
25.38294677099801
 20
-18.10921332012546
 30
0.0
 10
25.4578775978022
 20
-18.10921332012546
 30
0.0
 10
25.56326306869599
 20
-18.10921332012546
 30
0.0
 10
25.65342121754498
 20
-18.04062146901415
 30
0.0
 10
25.65342121754498
 20
-17.93017170775704
 30
0.0
 10
25.65214653221544
 20
-17.82347710057885
 30
0.0
 10
25.58103976139988
 20
-17.74730603939997
 30
0.0
 10
25.41595078574671
 20
-17.74730603939997
 30
0.0
 10
25.36899413428275
 20
-17.74730603939997
 30
0.0
 10
25.33216606354543
 20
-17.75237032976329
 30
0.0
 10
25.30167696850097
 20
-17.75619438575192
 30
0.0
 10
25.30167696850097
 20
-17.75619438575192
 30
0.0
 10
25.35500704661263
 20
-17.36000840494819
 30
0.0
 10
25.35500704661263
 20
-17.36000840494819
 30
0.0
 10
25.35500704661263
 20
-17.36000840494819
 30
0.0
 10
25.74991834208683
 20
-17.36000840494819
 30
0.0
 10
25.74991834208683
 20
-17.36000840494819
 30
0.0
 10
25.74991834208683
 20
-17.36000840494819
 30
0.0
 10
25.74991834208683
 20
-17.45395615883095
 30
0.0
 10
25.74991834208683
 20
-17.45395615883095
 30
0.0
  0
HATCH
  5
CF
330
C8
100
AcDbEntity
  8
Livello 3
 62
   250
420
  1907995
440
 33554687
100
AcDbHatch
 10
0.0
 20
0.0
 30
0.0
210
0.0
220
0.0
230
1.0
  2
SOLID
 70
     1
 71
     1
 91
        1
 92
        1
 93
        1
 72
     4
 94
        3
 73
     0
 74
     0
 95
       50
 96
       46
 40
0.0
 40
0.0
 40
0.0
 40
0.0
 40
1.0
 40
1.0
 40
1.0
 40
2.0
 40
2.0
 40
2.0
 40
3.0
 40
3.0
 40
3.0
 40
4.0
 40
4.0
 40
4.0
 40
5.0
 40
5.0
 40
5.0
 40
6.0
 40
6.0
 40
6.0
 40
7.0
 40
7.0
 40
7.0
 40
8.0
 40
8.0
 40
8.0
 40
9.0
 40
9.0
 40
9.0
 40
10.0
 40
10.0
 40
10.0
 40
11.0
 40
11.0
 40
11.0
 40
12.0
 40
12.0
 40
12.0
 40
13.0
 40
13.0
 40
13.0
 40
14.0
 40
14.0
 40
14.0
 40
15.0
 40
15.0
 40
15.0
 40
15.0
 10
25.74991834208683
 20
-17.45395615883095
 10
25.74991834208683
 20
-17.45395615883095
 10
25.43500216378014
 20
-17.45395615883095
 10
25.43500216378014
 20
-17.45395615883095
 10
25.43500216378014
 20
-17.45395615883095
 10
25.40327283436099
 20
-17.66603623690293
 10
25.40327283436099
 20
-17.66603623690293
 10
25.42232421239442
 20
-17.66348686624385
 10
25.44010090509831
 20
-17.66093749558476
 10
25.47055554918792
 20
-17.66093749558476
 10
25.53404865898107
 20
-17.66093749558476
 10
25.59754176877423
 20
-17.67492458325488
 10
25.64835692718166
 20
-17.70537922734449
 10
25.71309027134951
 20
-17.74220729808181
 10
25.76645480041602
 20
-17.81331406889736
 10
25.76645480041602
 20
-17.91745930541647
 10
25.76645480041602
 20
-18.07872422508101
 10
25.63819389550018
 20
-18.19937146897446
 10
25.45915228313174
 20
-18.19937146897446
 10
25.36899413428275
 20
-18.19937146897446
 10
25.29278862214902
 20
-18.17398111524817
 10
25.25341118075262
 20
-18.14855631056703
 10
25.25341118075262
 20
-18.14855631056703
 10
25.281350905138
 20
-18.06349690303621
 10
25.281350905138
 20
-18.06349690303621
 10
25.31562960521623
 20
-18.08378851544433
 10
25.38294677099801
 20
-18.10921332012546
 10
25.4578775978022
 20
-18.10921332012546
 10
25.56326306869599
 20
-18.10921332012546
 10
25.65342121754498
 20
-18.04062146901415
 10
25.65342121754498
 20
-17.93017170775704
 10
25.65214653221544
 20
-17.82347710057885
 10
25.58103976139988
 20
-17.74730603939997
 10
25.41595078574671
 20
-17.74730603939997
 10
25.36899413428275
 20
-17.74730603939997
 10
25.33216606354543
 20
-17.75237032976329
 10
25.30167696850097
 20
-17.75619438575192
 10
25.30167696850097
 20
-17.75619438575192
 10
25.35500704661263
 20
-17.36000840494819
 10
25.35500704661263
 20
-17.36000840494819
 10
25.35500704661263
 20
-17.36000840494819
 10
25.74991834208683
 20
-17.36000840494819
 10
25.74991834208683
 20
-17.36000840494819
 10
25.74991834208683
 20
-17.36000840494819
 10
25.74991834208683
 20
-17.45395615883095
 10
25.74991834208683
 20
-17.45395615883095
 97
        0
 97
        1
330
CE
 75
     2
 76
     1
 98
        1
 10
0.0
 20
0.0
450
        0
451
        0
460
0.0
461
0.0
452
        0
462
0.0
453
        0
470

  0
ENDBLK
  5
CB
330
C8
100
AcDbEntity
  8
0
100
AcDbBlockEnd
  0
BLOCK
  5
D2
330
D0
100
AcDbEntity
  8
0
100
AcDbBlockBegin
  2
Block_10
 70
     0
 10
0.0
 20
0.0
 30
0.0
  3
Block_10
  1

  0
INSERT
  5
D5
330
D0
100
AcDbEntity
  8
Livello 3
100
AcDbBlockReference
  2
Block_11
 10
0.0
 20
0.0
 30
0.0
  0
ENDBLK
  5
D3
330
D0
100
AcDbEntity
  8
0
100
AcDbBlockEnd
  0
BLOCK
  5
D6
330
D4
100
AcDbEntity
  8
0
100
AcDbBlockBegin
  2
Block_11
 70
     0
 10
0.0
 20
0.0
 30
0.0
  3
Block_11
  1

  0
SPLINE
  5
D8
330
D4
100
AcDbEntity
  8
Livello 3
100
AcDbSpline
210
0.0
220
0.0
230
1.0
 70
    11
 71
     3
 72
    29
 73
    25
 74
     0
 42
0.000000001
 43
0.0000000001
 40
0.0
 40
0.0
 40
0.0
 40
0.0
 40
1.0
 40
1.0
 40
1.0
 40
2.0
 40
2.0
 40
2.0
 40
3.0
 40
3.0
 40
3.0
 40
4.0
 40
4.0
 40
4.0
 40
5.0
 40
5.0
 40
5.0
 40
6.0
 40
6.0
 40
6.0
 40
7.0
 40
7.0
 40
7.0
 40
8.0
 40
8.0
 40
8.0
 40
8.0
 10
21.42432535271684
 20
-9.128348928924507
 30
0.0
 10
21.42432535271684
 20
-9.128348928924507
 30
0.0
 10
21.49798149419147
 20
-9.128348928924507
 30
0.0
 10
21.49798149419147
 20
-9.128348928924507
 30
0.0
 10
21.49798149419147
 20
-9.128348928924507
 30
0.0
 10
22.24970132907299
 20
-9.487724064468343
 30
0.0
 10
22.24970132907299
 20
-9.487724064468343
 30
0.0
 10
22.24970132907299
 20
-9.487724064468343
 30
0.0
 10
22.24970132907299
 20
-9.603272567043623
 30
0.0
 10
22.24970132907299
 20
-9.603272567043623
 30
0.0
 10
22.24970132907299
 20
-9.603272567043623
 30
0.0
 10
21.51954779192914
 20
-9.245172116829332
 30
0.0
 10
21.51954779192914
 20
-9.245172116829332
 30
0.0
 10
21.51954779192914
 20
-9.245172116829332
 30
0.0
 10
21.51699842127005
 20
-9.245172116829332
 30
0.0
 10
21.51699842127005
 20
-9.245172116829332
 30
0.0
 10
21.51699842127005
 20
-9.245172116829332
 30
0.0
 10
21.51699842127005
 20
-9.648988984132893
 30
0.0
 10
21.51699842127005
 20
-9.648988984132893
 30
0.0
 10
21.51699842127005
 20
-9.648988984132893
 30
0.0
 10
21.42432535271684
 20
-9.648988984132893
 30
0.0
 10
21.42432535271684
 20
-9.648988984132893
 30
0.0
 10
21.42432535271684
 20
-9.648988984132893
 30
0.0
 10
21.42432535271684
 20
-9.128348928924507
 30
0.0
 10
21.42432535271684
 20
-9.128348928924507
 30
0.0
  0
HATCH
  5
D9
330
D4
100
AcDbEntity
  8
Livello 3
 62
   250
420
  1907995
440
 33554687
100
AcDbHatch
 10
0.0
 20
0.0
 30
0.0
210
0.0
220
0.0
230
1.0
  2
SOLID
 70
     1
 71
     1
 91
        1
 92
        1
 93
        1
 72
     4
 94
        3
 73
     0
 74
     0
 95
       29
 96
       25
 40
0.0
 40
0.0
 40
0.0
 40
0.0
 40
1.0
 40
1.0
 40
1.0
 40
2.0
 40
2.0
 40
2.0
 40
3.0
 40
3.0
 40
3.0
 40
4.0
 40
4.0
 40
4.0
 40
5.0
 40
5.0
 40
5.0
 40
6.0
 40
6.0
 40
6.0
 40
7.0
 40
7.0
 40
7.0
 40
8.0
 40
8.0
 40
8.0
 40
8.0
 10
21.42432535271684
 20
-9.128348928924507
 10
21.42432535271684
 20
-9.128348928924507
 10
21.49798149419147
 20
-9.128348928924507
 10
21.49798149419147
 20
-9.128348928924507
 10
21.49798149419147
 20
-9.128348928924507
 10
22.24970132907299
 20
-9.487724064468343
 10
22.24970132907299
 20
-9.487724064468343
 10
22.24970132907299
 20
-9.487724064468343
 10
22.24970132907299
 20
-9.603272567043623
 10
22.24970132907299
 20
-9.603272567043623
 10
22.24970132907299
 20
-9.603272567043623
 10
21.51954779192914
 20
-9.245172116829332
 10
21.51954779192914
 20
-9.245172116829332
 10
21.51954779192914
 20
-9.245172116829332
 10
21.51699842127005
 20
-9.245172116829332
 10
21.51699842127005
 20
-9.245172116829332
 10
21.51699842127005
 20
-9.245172116829332
 10
21.51699842127005
 20
-9.648988984132893
 10
21.51699842127005
 20
-9.648988984132893
 10
21.51699842127005
 20
-9.648988984132893
 10
21.42432535271684
 20
-9.648988984132893
 10
21.42432535271684
 20
-9.648988984132893
 10
21.42432535271684
 20
-9.648988984132893
 10
21.42432535271684
 20
-9.128348928924507
 10
21.42432535271684
 20
-9.128348928924507
 97
        0
 97
        1
330
D8
 75
     2
 76
     1
 98
        1
 10
0.0
 20
0.0
450
        0
451
        0
460
0.0
461
0.0
452
        0
462
0.0
453
        0
470

  0
SPLINE
  5
DA
330
D4
100
AcDbEntity
  8
Livello 3
100
AcDbSpline
210
0.0
220
0.0
230
1.0
 70
     9
 71
     3
 72
    20
 73
    16
 74
     0
 42
0.000000001
 43
0.0000000001
 40
0.0
 40
0.0
 40
0.0
 40
0.0
 40
1.0
 40
1.0
 40
1.0
 40
2.0
 40
2.0
 40
2.0
 40
3.0
 40
3.0
 40
3.0
 40
4.0
 40
4.0
 40
4.0
 40
5.0
 40
5.0
 40
5.0
 40
5.0
 10
21.69607448459334
 20
-8.90734605354573
 30
0.0
 10
21.79891058482805
 20
-8.90734605354573
 30
0.0
 10
21.87129204097315
 20
-8.845127629082119
 30
0.0
 10
21.87129204097315
 20
-8.748613279062846
 30
0.0
 10
21.87129204097315
 20
-8.673699677736088
 30
0.0
 10
21.83446397023583
 20
-8.615288083783674
 30
0.0
 10
21.78495794811279
 20
-8.586073674068757
 30
0.0
 10
21.77479491643131
 20
-8.579734698375897
 30
0.0
 10
21.76208251409073
 20
-8.575910642387269
 30
0.0
 10
21.74430582138684
 20
-8.575910642387269
 30
0.0
 10
21.60336696508527
 20
-8.575910642387269
 30
0.0
 10
21.49543212353239
 20
-8.627983260646821
 30
0.0
 10
21.49543212353239
 20
-8.744806448551644
 30
0.0
 10
21.49543212353239
 20
-8.840046113241376
 30
0.0
 10
21.57925129668852
 20
-8.90734605354573
 30
0.0
 10
21.69607448459334
 20
-8.90734605354573
 30
0.0
  0
SPLINE
  5
DB
330
D4
100
AcDbEntity
  8
Livello 3
100
AcDbSpline
210
0.0
220
0.0
230
1.0
 70
     9
 71
     3
 72
    41
 73
    37
 74
     0
 42
0.000000001
 43
0.0000000001
 40
0.0
 40
0.0
 40
0.0
 40
0.0
 40
1.0
 40
1.0
 40
1.0
 40
2.0
 40
2.0
 40
2.0
 40
3.0
 40
3.0
 40
3.0
 40
4.0
 40
4.0
 40
4.0
 40
5.0
 40
5.0
 40
5.0
 40
6.0
 40
6.0
 40
6.0
 40
7.0
 40
7.0
 40
7.0
 40
8.0
 40
8.0
 40
8.0
 40
9.0
 40
9.0
 40
9.0
 40
10.0
 40
10.0
 40
10.0
 40
11.0
 40
11.0
 40
11.0
 40
12.0
 40
12.0
 40
12.0
 40
12.0
 10
22.17098089723503
 20
-8.947980954794251
 30
0.0
 10
22.17353026789412
 20
-8.923848060920077
 30
0.0
 10
22.17098089723503
 20
-8.895925562012129
 30
0.0
 10
22.1671568412464
 20
-8.857822805945264
 30
0.0
 10
22.15826849489446
 20
-8.793055010822568
 30
0.0
 10
22.13160345583863
 20
-8.732111271688497
 30
0.0
 10
22.0871617240789
 20
-8.685120169269691
 30
0.0
 10
22.03765570195586
 20
-8.63051540582848
 30
0.0
 10
21.96527424581077
 20
-8.5911551899095
 30
0.0
 10
21.86750243593937
 20
-8.575910642387269
 30
0.0
 10
21.86750243593937
 20
-8.575910642387269
 30
0.0
 10
21.86750243593937
 20
-8.579734698375897
 30
0.0
 10
21.86750243593937
 20
-8.579734698375897
 30
0.0
 10
21.92334743375527
 20
-8.625433889987736
 30
0.0
 10
21.95638589945882
 20
-8.691476370439977
 30
0.0
 10
21.95638589945882
 20
-8.774020858266561
 30
0.0
 10
21.95638589945882
 20
-8.922590601067962
 30
0.0
 10
21.84462700191732
 20
-9.017830265757693
 30
0.0
 10
21.70368814561574
 20
-9.017830265757693
 30
0.0
 10
21.54748751631451
 20
-9.017830265757693
 30
0.0
 10
21.41033826504672
 20
-8.904813908364074
 30
0.0
 10
21.41033826504672
 20
-8.735918102199699
 30
0.0
 10
21.41033826504672
 20
-8.567022296035327
 30
0.0
 10
21.54748751631451
 20
-8.46289428499365
 30
0.0
 10
21.75829290905695
 20
-8.46289428499365
 30
0.0
 10
21.93988389208447
 20
-8.46289428499365
 30
0.0
 10
22.06687011167078
 20
-8.523855249605146
 30
0.0
 10
22.14559054350874
 20
-8.60512505210219
 30
0.0
 10
22.20780896797235
 20
-8.668618161895343
 30
0.0
 10
22.24591172403922
 20
-8.756226940085246
 30
0.0
 10
22.2560747557207
 20
-8.845127629082119
 30
0.0
 10
22.26241373141356
 20
-8.885762530330639
 30
0.0
 10
22.26368841674311
 20
-8.92131591573842
 30
0.0
 10
22.26241373141356
 20
-8.947980954794251
 30
0.0
 10
22.26241373141356
 20
-8.947980954794251
 30
0.0
 10
22.17098089723503
 20
-8.947980954794251
 30
0.0
 10
22.17098089723503
 20
-8.947980954794251
 30
0.0
  0
HATCH
  5
DC
330
D4
100
AcDbEntity
  8
Livello 3
 62
   250
420
  1907995
440
 33554687
100
AcDbHatch
 10
0.0
 20
0.0
 30
0.0
210
0.0
220
0.0
230
1.0
  2
SOLID
 70
     1
 71
     1
 91
        2
 92
        1
 93
        1
 72
     4
 94
        3
 73
     0
 74
     0
 95
       20
 96
       16
 40
0.0
 40
0.0
 40
0.0
 40
0.0
 40
1.0
 40
1.0
 40
1.0
 40
2.0
 40
2.0
 40
2.0
 40
3.0
 40
3.0
 40
3.0
 40
4.0
 40
4.0
 40
4.0
 40
5.0
 40
5.0
 40
5.0
 40
5.0
 10
21.69607448459334
 20
-8.90734605354573
 10
21.79891058482805
 20
-8.90734605354573
 10
21.87129204097315
 20
-8.845127629082119
 10
21.87129204097315
 20
-8.748613279062846
 10
21.87129204097315
 20
-8.673699677736088
 10
21.83446397023583
 20
-8.615288083783674
 10
21.78495794811279
 20
-8.586073674068757
 10
21.77479491643131
 20
-8.579734698375897
 10
21.76208251409073
 20
-8.575910642387269
 10
21.74430582138684
 20
-8.575910642387269
 10
21.60336696508527
 20
-8.575910642387269
 10
21.49543212353239
 20
-8.627983260646821
 10
21.49543212353239
 20
-8.744806448551644
 10
21.49543212353239
 20
-8.840046113241376
 10
21.57925129668852
 20
-8.90734605354573
 10
21.69607448459334
 20
-8.90734605354573
 97
        0
 97
        1
330
DA
 92
        1
 93
        1
 72
     4
 94
        3
 73
     0
 74
     0
 95
       41
 96
       37
 40
0.0
 40
0.0
 40
0.0
 40
0.0
 40
1.0
 40
1.0
 40
1.0
 40
2.0
 40
2.0
 40
2.0
 40
3.0
 40
3.0
 40
3.0
 40
4.0
 40
4.0
 40
4.0
 40
5.0
 40
5.0
 40
5.0
 40
6.0
 40
6.0
 40
6.0
 40
7.0
 40
7.0
 40
7.0
 40
8.0
 40
8.0
 40
8.0
 40
9.0
 40
9.0
 40
9.0
 40
10.0
 40
10.0
 40
10.0
 40
11.0
 40
11.0
 40
11.0
 40
12.0
 40
12.0
 40
12.0
 40
12.0
 10
22.17098089723503
 20
-8.947980954794251
 10
22.17353026789412
 20
-8.923848060920077
 10
22.17098089723503
 20
-8.895925562012129
 10
22.1671568412464
 20
-8.857822805945264
 10
22.15826849489446
 20
-8.793055010822568
 10
22.13160345583863
 20
-8.732111271688497
 10
22.0871617240789
 20
-8.685120169269691
 10
22.03765570195586
 20
-8.63051540582848
 10
21.96527424581077
 20
-8.5911551899095
 10
21.86750243593937
 20
-8.575910642387269
 10
21.86750243593937
 20
-8.575910642387269
 10
21.86750243593937
 20
-8.579734698375897
 10
21.86750243593937
 20
-8.579734698375897
 10
21.92334743375527
 20
-8.625433889987736
 10
21.95638589945882
 20
-8.691476370439977
 10
21.95638589945882
 20
-8.774020858266561
 10
21.95638589945882
 20
-8.922590601067962
 10
21.84462700191732
 20
-9.017830265757693
 10
21.70368814561574
 20
-9.017830265757693
 10
21.54748751631451
 20
-9.017830265757693
 10
21.41033826504672
 20
-8.904813908364074
 10
21.41033826504672
 20
-8.735918102199699
 10
21.41033826504672
 20
-8.567022296035327
 10
21.54748751631451
 20
-8.46289428499365
 10
21.75829290905695
 20
-8.46289428499365
 10
21.93988389208447
 20
-8.46289428499365
 10
22.06687011167078
 20
-8.523855249605146
 10
22.14559054350874
 20
-8.60512505210219
 10
22.20780896797235
 20
-8.668618161895343
 10
22.24591172403922
 20
-8.756226940085246
 10
22.2560747557207
 20
-8.845127629082119
 10
22.26241373141356
 20
-8.885762530330639
 10
22.26368841674311
 20
-8.92131591573842
 10
22.26241373141356
 20
-8.947980954794251
 10
22.26241373141356
 20
-8.947980954794251
 10
22.17098089723503
 20
-8.947980954794251
 10
22.17098089723503
 20
-8.947980954794251
 97
        0
 97
        1
330
DB
 75
     2
 76
     1
 98
        1
 10
0.0
 20
0.0
450
        0
451
        0
460
0.0
461
0.0
452
        0
462
0.0
453
        0
470

  0
ENDBLK
  5
D7
330
D4
100
AcDbEntity
  8
0
100
AcDbBlockEnd
  0
ENDSEC
  0
SECTION
  2
ENTITIES
  0
LINE
  5
82
330
70
100
AcDbEntity
  8
Livello 3
100
AcDbLine
 10
20.24364394059038
 20
-13.02508707081777
 30
0.0
 11
18.33660493368744
 21
-13.02508707081777
 31
0.0
  0
LINE
  5
86
330
70
100
AcDbEntity
  8
Livello 3
100
AcDbLine
 10
18.0049444421488
 20
-17.07052468709038
 30
0.0
 11
20.57530443212901
 21
-17.07052468709038
 31
0.0
  0
LINE
  5
87
330
70
100
AcDbEntity
  8
Livello 3
100
AcDbLine
 10
21.09611110583708
 20
-3.297783128805126
 30
0.0
 11
21.09611110583708
 21
-16.56415373659966
 31
0.0
  0
LINE
  5
88
330
70
100
AcDbEntity
  8
Livello 3
100
AcDbLine
 10
23.91881223421607
 20
-17.07052468709038
 30
0.0
 11
26.48917181410195
 21
-17.07052468709038
 31
0.0
  0
LINE
  5
12B
330
70
100
AcDbEntity
  8
Livello 3
100
AcDbLine
 10
26.48917181410195
 20
-16.16409962095888
 30
0.0
 11
23.91881223421607
 21
-16.16409962095888
 31
0.0
  0
LINE
  5
12C
330
70
100
AcDbEntity
  8
Livello 3
100
AcDbLine
 10
23.91881223421607
 20
-16.16409962095888
 30
0.0
 11
23.91881223421607
 21
-13.59374309382373
 31
0.0
  0
LINE
  5
12D
330
70
100
AcDbEntity
  8
Livello 3
100
AcDbLine
 10
23.91881223421607
 20
-13.59374309382373
 30
0.0
 11
26.48917181410195
 21
-13.59374309382373
 31
0.0
  0
LINE
  5
12E
330
70
100
AcDbEntity
  8
Livello 3
100
AcDbLine
 10
26.48917181410195
 20
-13.59374309382373
 30
0.0
 11
26.48917181410195
 21
-16.16409962095888
 31
0.0
  0
LINE
  5
12F
330
70
100
AcDbEntity
  8
Livello 3
100
AcDbLine
 10
26.15751132256332
 20
-15.83243912104183
 30
0.0
 11
24.25047231566038
 21
-15.83243912104183
 31
0.0
  0
LINE
  5
130
330
70
100
AcDbEntity
  8
Livello 3
100
AcDbLine
 10
24.25047231566038
 20
-15.83243912104183
 30
0.0
 11
24.25047231566038
 21
-13.92540006596302
 31
0.0
  0
LINE
  5
131
330
70
100
AcDbEntity
  8
Livello 3
100
AcDbLine
 10
24.25047231566038
 20
-13.92540006596302
 30
0.0
 11
26.15751132256332
 21
-13.92540006596302
 31
0.0
  0
LINE
  5
132
330
70
100
AcDbEntity
  8
Livello 3
100
AcDbLine
 10
26.15751132256332
 20
-13.92540006596302
 30
0.0
 11
26.15751132256332
 21
-15.83243912104183
 31
0.0
  0
LINE
  5
133
330
70
100
AcDbEntity
  8
Livello 3
100
AcDbLine
 10
18.0049444421488
 20
-16.56415373659966
 30
0.0
 11
20.57530443212901
 21
-16.56415373659966
 31
0.0
  0
LINE
  5
134
330
70
100
AcDbEntity
  8
Livello 3
100
AcDbLine
 10
20.57530443212901
 20
-16.56415373659966
 30
0.0
 11
20.57530443212901
 21
-16.26752054222932
 31
0.0
  0
LINE
  5
135
330
70
100
AcDbEntity
  8
Livello 3
100
AcDbLine
 10
20.57530443212901
 20
-16.26752054222932
 30
0.0
 11
18.0049444421488
 21
-16.27392345889447
 31
0.0
  0
LINE
  5
136
330
70
100
AcDbEntity
  8
Livello 3
100
AcDbLine
 10
18.0049444421488
 20
-16.27392345889447
 30
0.0
 11
18.0049444421488
 21
-16.56415373659966
 31
0.0
  0
LINE
  5
137
330
70
100
AcDbEntity
  8
Livello 3
100
AcDbLine
 10
18.33660493368744
 20
-16.27072023667299
 30
0.0
 11
20.24364394059038
 21
-16.27072023667299
 31
0.0
  0
LINE
  5
138
330
70
100
AcDbEntity
  8
Livello 3
100
AcDbLine
 10
20.24364394059038
 20
-16.27072023667299
 30
0.0
 11
20.24364394059038
 21
-3.297783128805126
 31
0.0
  0
LINE
  5
139
330
70
100
AcDbEntity
  8
Livello 3
100
AcDbLine
 10
20.24364394059038
 20
-3.297783128805126
 30
0.0
 11
18.33660493368744
 21
-3.297783128805126
 31
0.0
  0
LINE
  5
13A
330
70
100
AcDbEntity
  8
Livello 3
100
AcDbLine
 10
18.33660493368744
 20
-3.297783128805126
 30
0.0
 11
18.33660493368744
 21
-16.27072023667299
 31
0.0
  0
INSERT
  5
13E
330
70
100
AcDbEntity
  8
Livello 3
100
AcDbBlockReference
  2
Block_7
 10
0.0
 20
0.0
 30
0.0
  0
INSERT
  5
13F
330
70
100
AcDbEntity
  8
Livello 3
100
AcDbBlockReference
  2
Block_9
 10
0.0
 20
0.0
 30
0.0
  0
INSERT
  5
140
330
70
100
AcDbEntity
  8
Livello 3
100
AcDbBlockReference
  2
Block_11
 10
0.0
 20
0.0
 30
0.0
  0
ENDSEC
  0
SECTION
  2
OBJECTS
  0
DICTIONARY
  5
C
330
0
100
AcDbDictionary
281
     1
  3
ACAD_CIP_PREVIOUS_PRODUCT_INFO
350
120
  3
ACAD_COLOR
350
63
  3
ACAD_DETAILVIEWSTYLE
350
6A
  3
ACAD_GROUP
350
D
  3
ACAD_LAYOUT
350
62
  3
ACAD_MATERIAL
350
10
  3
ACAD_MLEADERSTYLE
350
66
  3
ACAD_MLINESTYLE
350
5F
  3
ACAD_PLOTSETTINGS
350
61
  3
ACAD_PLOTSTYLENAME
350
E
  3
ACAD_SCALELIST
350
42
  3
ACAD_SECTIONVIEWSTYLE
350
68
  3
ACAD_TABLESTYLE
350
64
  3
ACAD_VISUALSTYLE
350
29
  3
ACDB_RECOMPOSE_DATA
350
143
  3
AcDbVariableDictionary
350
DD
  0
DICTIONARY
  5
121
330
70
100
AcDbDictionary
280
     1
281
     1
  3
ACAD_SORTENTS
360
122
  0
XRECORD
  5
120
102
{ACAD_REACTORS
330
C
102
}
330
C
100
AcDbXrecord
280
     1
300
ACD
300
2019
300
ACD_F_S
  0
DICTIONARY
  5
63
102
{ACAD_REACTORS
330
C
102
}
330
C
100
AcDbDictionary
281
     1
  0
DICTIONARY
  5
6A
102
{ACAD_REACTORS
330
C
102
}
330
C
100
AcDbDictionary
281
     1
  3
Imperial24
350
6B
  0
DICTIONARY
  5
D
102
{ACAD_REACTORS
330
C
102
}
330
C
100
AcDbDictionary
281
     1
  0
DICTIONARY
  5
62
102
{ACAD_REACTORS
330
C
102
}
330
C
100
AcDbDictionary
281
     1
  3
Layout1
350
6F
  3
Layout2
350
77
  3
Model
350
73
  0
DICTIONARY
  5
10
102
{ACAD_REACTORS
330
C
102
}
330
C
100
AcDbDictionary
281
     1
  3
ByBlock
350
19
  3
ByLayer
350
11
  3
Global
350
21
  0
DICTIONARY
  5
66
102
{ACAD_REACTORS
330
C
102
}
330
C
100
AcDbDictionary
281
     1
  3
Standard
350
67
  0
DICTIONARY
  5
5F
102
{ACAD_REACTORS
330
C
102
}
330
C
100
AcDbDictionary
281
     1
  3
Standard
350
60
  0
DICTIONARY
  5
61
102
{ACAD_REACTORS
330
C
102
}
330
C
100
AcDbDictionary
281
     1
  0
ACDBDICTIONARYWDFLT
  5
E
102
{ACAD_REACTORS
330
C
102
}
330
C
100
AcDbDictionary
281
     1
  3
Normal
350
F
100
AcDbDictionaryWithDefault
340
F
  0
DICTIONARY
  5
42
102
{ACAD_REACTORS
330
C
102
}
330
C
100
AcDbDictionary
281
     1
  3
A0
350
43
  3
A1
350
44
  3
A2
350
45
  3
A3
350
46
  3
A4
350
47
  3
A5
350
48
  3
A6
350
49
  3
A7
350
4A
  3
A8
350
4B
  3
A9
350
4C
  3
B0
350
4D
  3
B1
350
4E
  3
B2
350
4F
  3
B3
350
50
  3
B4
350
51
  3
B5
350
52
  3
B6
350
53
  0
DICTIONARY
  5
68
102
{ACAD_REACTORS
330
C
102
}
330
C
100
AcDbDictionary
281
     1
  3
Imperial24
350
69
  0
DICTIONARY
  5
64
102
{ACAD_REACTORS
330
C
102
}
330
C
100
AcDbDictionary
281
     1
  3
Standard
350
65
  0
DICTIONARY
  5
29
102
{ACAD_REACTORS
330
C
102
}
330
C
100
AcDbDictionary
281
     1
  3
2dWireframe
350
2F
  3
Basic
350
2E
  3
Brighten
350
35
  3
ColorChange
350
39
  3
Conceptual
350
32
  3
Dim
350
34
  3
EdgeColorOff
350
41
  3
Facepattern
350
38
  3
Flat
350
2A
  3
FlatWithEdges
350
2B
  3
Gouraud
350
2C
  3
GouraudWithEdges
350
2D
  3
Hidden
350
31
  3
JitterOff
350
3F
  3
Linepattern
350
37
  3
OverhangOff
350
40
  3
Realistic
350
33
  3
Shaded
350
3E
  3
Shaded with edges
350
3D
  3
Shades of Gray
350
3A
  3
Sketchy
350
3B
  3
Thicken
350
36
  3
Wireframe
350
30
  3
X-Ray
350
3C
  0
XRECORD
  5
143
102
{ACAD_REACTORS
330
C
102
}
330
C
100
AcDbXrecord
280
     1
 90
        1
330
65
  0
DICTIONARY
  5
DD
102
{ACAD_REACTORS
330
C
102
}
330
C
100
AcDbDictionary
281
     1
  3
CANNOSCALE
350
E2
  3
CMLEADERSTYLE
350
DF
  3
CTABLESTYLE
350
DE
  3
CVIEWDETAILSTYLE
350
E0
  3
CVIEWSECTIONSTYLE
350
E1
  0
SORTENTSTABLE
  5
122
102
{ACAD_REACTORS
330
121
102
}
330
121
100
AcDbSortentsTable
330
70
331
82
  5
134
331
86
  5
138
331
87
  5
139
331
88
  5
13A
331
12B
  5
124
331
12C
  5
125
331
12D
  5
126
331
12E
  5
127
331
12F
  5
128
331
130
  5
129
331
131
  5
12A
331
132
  5
12B
331
133
  5
12C
331
134
  5
12D
331
135
  5
12E
331
136
  5
12F
331
137
  5
130
331
138
  5
131
331
139
  5
132
331
13A
  5
133
  0
ACDBDETAILVIEWSTYLE
  5
6B
102
{ACAD_XDICTIONARY
360
146
102
}
102
{ACAD_REACTORS
330
6A
102
}
330
6A
100
AcDbModelDocViewStyle
 70
     0
  3
Imperial24
290
     0
100
AcDbDetailViewStyle
 70
     0
 71
     0
 90
        3
 71
     1
340
55
 62
   256
 40
0.24
340
0
 62
   256
 40
0.24
300

 40
0.36
280
     3
 71
     2
340
5D
 90
       25
 62
   256
 71
     3
340
55
 62
   256
 40
0.24
 90
        1
 40
0.75
 90
        1
300
%<\AcVar ViewType \f "%tc1">% %<\AcVar ViewDetailId>%\PSCALE %<\AcVar ViewScale \f "%sn">%
 71
     4
340
5D
 90
       25
 62
   256
340
5D
 90
       25
 62
   256
280
     0
  0
LAYOUT
  5
6F
102
{ACAD_REACTORS
330
62
102
}
330
62
100
AcDbPlotSettings
  1

  2

  4

  6

 40
0.0
 41
0.0
 42
0.0
 43
0.0
 44
0.0
 45
0.0
 46
0.0
 47
0.0
 48
0.0
 49
0.0
140
0.0
141
0.0
142
1.0
143
1.0
 70
   688
 72
     0
 73
     0
 74
     5
  7

 75
    16
147
1.0
 76
     0
 77
     2
 78
   300
148
0.0
149
0.0
100
AcDbLayout
  1
Layout1
 70
     1
 71
     1
 10
0.0
 20
0.0
 11
12.0
 21
9.0
 12
0.0
 22
0.0
 32
0.0
 14
1.000000000000000E+20
 24
1.000000000000000E+20
 34
1.000000000000000E+20
 15
-1.000000000000000E+20
 25
-1.000000000000000E+20
 35
-1.000000000000000E+20
146
0.0
 13
0.0
 23
0.0
 33
0.0
 16
1.0
 26
0.0
 36
0.0
 17
0.0
 27
1.0
 37
0.0
 76
     0
330
6C
  0
LAYOUT
  5
77
102
{ACAD_REACTORS
330
62
102
}
330
62
100
AcDbPlotSettings
  1

  2

  4

  6

 40
0.0
 41
0.0
 42
0.0
 43
0.0
 44
0.0
 45
0.0
 46
0.0
 47
0.0
 48
0.0
 49
0.0
140
0.0
141
0.0
142
1.0
143
1.0
 70
   688
 72
     0
 73
     0
 74
     5
  7

 75
    16
147
1.0
 76
     0
 77
     2
 78
   300
148
0.0
149
0.0
100
AcDbLayout
  1
Layout2
 70
     1
 71
     2
 10
0.0
 20
0.0
 11
12.0
 21
9.0
 12
0.0
 22
0.0
 32
0.0
 14
0.0
 24
0.0
 34
0.0
 15
0.0
 25
0.0
 35
0.0
146
0.0
 13
0.0
 23
0.0
 33
0.0
 16
1.0
 26
0.0
 36
0.0
 17
0.0
 27
1.0
 37
0.0
 76
     0
330
74
  0
LAYOUT
  5
73
102
{ACAD_REACTORS
330
62
102
}
330
62
100
AcDbPlotSettings
  1

  2

  4

  6

 40
0.0
 41
0.0
 42
0.0
 43
0.0
 44
0.0
 45
0.0
 46
0.0
 47
0.0
 48
0.0
 49
0.0
140
0.0
141
0.0
142
1.0
143
1.0
 70
  1712
 72
     0
 73
     0
 74
     0
  7

 75
     0
147
1.0
 76
     0
 77
     2
 78
   300
148
0.0
149
0.0
100
AcDbLayout
  1
Model
 70
     1
 71
     0
 10
0.0
 20
0.0
 11
12.0
 21
9.0
 12
0.0
 22
0.0
 32
0.0
 14
0.0
 24
0.0
 34
0.0
 15
0.0
 25
0.0
 35
0.0
146
0.0
 13
0.0
 23
0.0
 33
0.0
 16
1.0
 26
0.0
 36
0.0
 17
0.0
 27
1.0
 37
0.0
 76
     0
330
70
331
57
  0
MATERIAL
  5
19
102
{ACAD_XDICTIONARY
360
1A
102
}
102
{ACAD_REACTORS
330
10
102
}
330
10
100
AcDbMaterial
  1
ByBlock
 72
     0
 43
0.0208333333333333
 43
0.0
 43
0.0
 43
0.0
 43
0.0
 43
0.0208333333333333
 43
0.0
 43
0.0
 43
0.0
 43
0.0
 43
1.0
 43
0.0
 43
0.0
 43
0.0
 43
0.0
 43
1.0
 77
     0
 47
0.0208333333333333
 47
0.0
 47
0.0
 47
0.0
 47
0.0
 47
0.0208333333333333
 47
0.0
 47
0.0
 47
0.0
 47
0.0
 47
1.0
 47
0.0
 47
0.0
 47
0.0
 47
0.0
 47
1.0
171
     0
 49
0.0208333333333333
 49
0.0
 49
0.0
 49
0.0
 49
0.0
 49
0.0208333333333333
 49
0.0
 49
0.0
 49
0.0
 49
0.0
 49
1.0
 49
0.0
 49
0.0
 49
0.0
 49
0.0
 49
1.0
175
     0
142
0.0208333333333333
142
0.0
142
0.0
142
0.0
142
0.0
142
0.0208333333333333
142
0.0
142
0.0
142
0.0
142
0.0
142
1.0
142
0.0
142
0.0
142
0.0
142
0.0
142
1.0
179
     0
144
0.0208333333333333
144
0.0
144
0.0
144
0.0
144
0.0
144
0.0208333333333333
144
0.0
144
0.0
144
0.0
144
0.0
144
1.0
144
0.0
144
0.0
144
0.0
144
0.0
144
1.0
147
0.0208333333333333
147
0.0
147
0.0
147
0.0
147
0.0
147
0.0208333333333333
147
0.0
147
0.0
147
0.0
147
0.0
147
1.0
147
0.0
147
0.0
147
0.0
147
0.0
147
1.0
  0
MATERIAL
  5
11
102
{ACAD_XDICTIONARY
360
12
102
}
102
{ACAD_REACTORS
330
10
102
}
330
10
100
AcDbMaterial
  1
ByLayer
 72
     0
 43
0.0208333333333333
 43
0.0
 43
0.0
 43
0.0
 43
0.0
 43
0.0208333333333333
 43
0.0
 43
0.0
 43
0.0
 43
0.0
 43
1.0
 43
0.0
 43
0.0
 43
0.0
 43
0.0
 43
1.0
 77
     0
 47
0.0208333333333333
 47
0.0
 47
0.0
 47
0.0
 47
0.0
 47
0.0208333333333333
 47
0.0
 47
0.0
 47
0.0
 47
0.0
 47
1.0
 47
0.0
 47
0.0
 47
0.0
 47
0.0
 47
1.0
171
     0
 49
0.0208333333333333
 49
0.0
 49
0.0
 49
0.0
 49
0.0
 49
0.0208333333333333
 49
0.0
 49
0.0
 49
0.0
 49
0.0
 49
1.0
 49
0.0
 49
0.0
 49
0.0
 49
0.0
 49
1.0
175
     0
142
0.0208333333333333
142
0.0
142
0.0
142
0.0
142
0.0
142
0.0208333333333333
142
0.0
142
0.0
142
0.0
142
0.0
142
1.0
142
0.0
142
0.0
142
0.0
142
0.0
142
1.0
179
     0
144
0.0208333333333333
144
0.0
144
0.0
144
0.0
144
0.0
144
0.0208333333333333
144
0.0
144
0.0
144
0.0
144
0.0
144
1.0
144
0.0
144
0.0
144
0.0
144
0.0
144
1.0
147
0.0208333333333333
147
0.0
147
0.0
147
0.0
147
0.0
147
0.0208333333333333
147
0.0
147
0.0
147
0.0
147
0.0
147
1.0
147
0.0
147
0.0
147
0.0
147
0.0
147
1.0
  0
MATERIAL
  5
21
102
{ACAD_XDICTIONARY
360
22
102
}
102
{ACAD_REACTORS
330
10
102
}
330
10
100
AcDbMaterial
  1
Global
 72
     0
 43
0.0208333333333333
 43
0.0
 43
0.0
 43
0.0
 43
0.0
 43
0.0208333333333333
 43
0.0
 43
0.0
 43
0.0
 43
0.0
 43
1.0
 43
0.0
 43
0.0
 43
0.0
 43
0.0
 43
1.0
 77
     0
 47
0.0208333333333333
 47
0.0
 47
0.0
 47
0.0
 47
0.0
 47
0.0208333333333333
 47
0.0
 47
0.0
 47
0.0
 47
0.0
 47
1.0
 47
0.0
 47
0.0
 47
0.0
 47
0.0
 47
1.0
171
     0
 49
0.0208333333333333
 49
0.0
 49
0.0
 49
0.0
 49
0.0
 49
0.0208333333333333
 49
0.0
 49
0.0
 49
0.0
 49
0.0
 49
1.0
 49
0.0
 49
0.0
 49
0.0
 49
0.0
 49
1.0
175
     0
142
0.0208333333333333
142
0.0
142
0.0
142
0.0
142
0.0
142
0.0208333333333333
142
0.0
142
0.0
142
0.0
142
0.0
142
1.0
142
0.0
142
0.0
142
0.0
142
0.0
142
1.0
179
     0
144
0.0208333333333333
144
0.0
144
0.0
144
0.0
144
0.0
144
0.0208333333333333
144
0.0
144
0.0
144
0.0
144
0.0
144
1.0
144
0.0
144
0.0
144
0.0
144
0.0
144
1.0
147
0.0208333333333333
147
0.0
147
0.0
147
0.0
147
0.0
147
0.0208333333333333
147
0.0
147
0.0
147
0.0
147
0.0
147
1.0
147
0.0
147
0.0
147
0.0
147
0.0
147
1.0
  0
MLEADERSTYLE
  5
67
102
{ACAD_REACTORS
330
66
102
}
330
66
100
AcDbMLeaderStyle
179
     2
170
     2
171
     1
172
     0
 90
        2
 40
0.0
 41
0.0
173
     1
 91
-1056964608
340
5B
 92
       -2
290
     1
 42
0.09
291
     1
 43
0.36
  3
Standard
 44
0.18
300

342
55
174
     1
178
     6
175
     1
176
     0
 93
-1056964608
 45
0.18
292
     0
297
     0
 46
0.18
 94
-1056964608
 47
1.0
 49
1.0
140
1.0
293
     1
141
0.0
294
     1
177
     0
142
1.0
295
     0
296
     0
143
0.125
271
     0
272
     9
273
     9
298
     1
  0
MLINESTYLE
  5
60
102
{ACAD_REACTORS
330
5F
102
}
330
5F
100
AcDbMlineStyle
  2
STANDARD
 70
     0
  3

 62
   256
 51
90.0
 52
90.0
 71
     2
 49
0.5
 62
   256
  6
BYLAYER
 49
-0.5
 62
   256
  6
BYLAYER
  0
ACDBPLACEHOLDER
  5
F
102
{ACAD_REACTORS
330
E
102
}
330
E
  0
SCALE
  5
43
102
{ACAD_REACTORS
330
42
102
}
330
42
100
AcDbScale
 70
     0
300
1:1
140
1.0
141
1.0
290
     1
  0
SCALE
  5
44
102
{ACAD_REACTORS
330
42
102
}
330
42
100
AcDbScale
 70
     0
300
1/128" = 1'-0"
140
0.0078125
141
12.0
290
     0
  0
SCALE
  5
45
102
{ACAD_REACTORS
330
42
102
}
330
42
100
AcDbScale
 70
     0
300
1/64" = 1'-0"
140
0.015625
141
12.0
290
     0
  0
SCALE
  5
46
102
{ACAD_REACTORS
330
42
102
}
330
42
100
AcDbScale
 70
     0
300
1/32" = 1'-0"
140
0.03125
141
12.0
290
     0
  0
SCALE
  5
47
102
{ACAD_REACTORS
330
42
102
}
330
42
100
AcDbScale
 70
     0
300
1/16" = 1'-0"
140
0.0625
141
12.0
290
     0
  0
SCALE
  5
48
102
{ACAD_REACTORS
330
42
102
}
330
42
100
AcDbScale
 70
     0
300
3/32" = 1'-0"
140
0.09375
141
12.0
290
     0
  0
SCALE
  5
49
102
{ACAD_REACTORS
330
42
102
}
330
42
100
AcDbScale
 70
     0
300
1/8" = 1'-0"
140
0.125
141
12.0
290
     0
  0
SCALE
  5
4A
102
{ACAD_REACTORS
330
42
102
}
330
42
100
AcDbScale
 70
     0
300
3/16" = 1'-0"
140
0.1875
141
12.0
290
     0
  0
SCALE
  5
4B
102
{ACAD_REACTORS
330
42
102
}
330
42
100
AcDbScale
 70
     0
300
1/4" = 1'-0"
140
0.25
141
12.0
290
     0
  0
SCALE
  5
4C
102
{ACAD_REACTORS
330
42
102
}
330
42
100
AcDbScale
 70
     0
300
3/8" = 1'-0"
140
0.375
141
12.0
290
     0
  0
SCALE
  5
4D
102
{ACAD_REACTORS
330
42
102
}
330
42
100
AcDbScale
 70
     0
300
1/2" = 1'-0"
140
0.5
141
12.0
290
     0
  0
SCALE
  5
4E
102
{ACAD_REACTORS
330
42
102
}
330
42
100
AcDbScale
 70
     0
300
3/4" = 1'-0"
140
0.75
141
12.0
290
     0
  0
SCALE
  5
4F
102
{ACAD_REACTORS
330
42
102
}
330
42
100
AcDbScale
 70
     0
300
1" = 1'-0"
140
1.0
141
12.0
290
     0
  0
SCALE
  5
50
102
{ACAD_REACTORS
330
42
102
}
330
42
100
AcDbScale
 70
     0
300
1-1/2" = 1'-0"
140
1.5
141
12.0
290
     0
  0
SCALE
  5
51
102
{ACAD_REACTORS
330
42
102
}
330
42
100
AcDbScale
 70
     0
300
3" = 1'-0"
140
3.0
141
12.0
290
     0
  0
SCALE
  5
52
102
{ACAD_REACTORS
330
42
102
}
330
42
100
AcDbScale
 70
     0
300
6" = 1'-0"
140
6.0
141
12.0
290
     0
  0
SCALE
  5
53
102
{ACAD_REACTORS
330
42
102
}
330
42
100
AcDbScale
 70
     0
300
1'-0" = 1'-0"
140
12.0
141
12.0
290
     0
  0
ACDBSECTIONVIEWSTYLE
  5
69
102
{ACAD_XDICTIONARY
360
144
102
}
102
{ACAD_REACTORS
330
68
102
}
330
68
100
AcDbModelDocViewStyle
 70
     0
  3
Imperial24
290
     0
100
AcDbSectionViewStyle
 70
     0
 71
     0
 90
       78
 71
     1
340
55
 62
   256
 40
0.24
340
0
340
0
 62
   256
 40
0.24
300
I, O, Q, S, X, Z
 40
0.48
 90
        3
 40
0.18
 90
        1
 71
     2
340
5D
 90
       25
 62
   256
340
5D
 90
       50
 62
   256
 40
0.24
 40
0.0
 40
0.24
 71
     3
340
55
 62
   256
 40
0.24
 90
        1
 40
0.75
 90
        1
300
%<\AcVar ViewType \f "%tc1">% %<\AcVar ViewSectionStartId>%-%<\AcVar ViewSectionEndId>%\PSCALE %<\AcVar ViewScale \f "%sn">%
 71
     4
 62
   256
 62
   257
300
ANSI31
 40
1.0
 90
        0
290
     0
290
     0
 90
        6
 40
0.0
 40
1.570796326794896
 40
0.2617993877991494
 40
1.308996938995747
 40
-0.2617993877991494
 40
1.832595714594045
  0
TABLESTYLE
  5
65
102
{ACAD_XDICTIONARY
360
E3
102
}
102
{ACAD_REACTORS
330
64
102
}
330
64
100
AcDbTableStyle
280
     0
  3
Standard
 70
     0
 71
     0
 40
0.06
 41
0.06
280
     0
281
     0
  7
Standard
140
0.18
170
     2
 62
     0
 63
     7
283
     0
 90
      512
 91
        0
  1

274
    -2
284
     1
 64
     0
275
    -2
285
     1
 65
     0
276
    -2
286
     1
 66
     0
277
    -2
287
     1
 67
     0
278
    -2
288
     1
 68
     0
279
    -2
289
     1
 69
     0
  7
Standard
140
0.25
170
     5
 62
     0
 63
     7
283
     0
 90
      512
 91
        0
  1

274
    -2
284
     1
 64
     0
275
    -2
285
     1
 65
     0
276
    -2
286
     1
 66
     0
277
    -2
287
     1
 67
     0
278
    -2
288
     1
 68
     0
279
    -2
289
     1
 69
     0
  7
Standard
140
0.18
170
     5
 62
     0
 63
     7
283
     0
 90
      512
 91
        0
  1

274
    -2
284
     1
 64
     0
275
    -2
285
     1
 65
     0
276
    -2
286
     1
 66
     0
277
    -2
287
     1
 67
     0
278
    -2
288
     1
 68
     0
279
    -2
289
     1
 69
     0
  0
VISUALSTYLE
  5
2F
102
{ACAD_REACTORS
330
29
102
}
330
29
100
AcDbVisualStyle
  2
2dWireframe
 70
     4
177
     3
291
     0
 70
    58
 90
        0
176
     1
 90
        2
176
     1
 90
        0
176
     1
 90
        0
176
     1
 40
0.6
176
     1
 40
30.0
176
     1
 62
     7
420
 16777215
176
     1
 90
        1
176
     1
 90
        4
176
     1
 62
     7
176
     1
 62
   257
176
     1
 90
        1
176
     1
 90
        1
176
     1
 40
1.0
176
     1
 90
        0
176
     1
 62
   257
176
     1
 40
1.0
176
     1
 90
        1
176
     1
 90
        6
176
     1
 90
        2
176
     1
 62
     7
176
     1
 90
        5
176
     1
 90
        0
176
     1
 90
        0
176
     1
290
     0
176
     1
 90
        1
176
     1
 40
0.0
176
     1
 90
        0
176
     1
290
     1
176
     1
290
     1
176
     1
290
     0
176
     1
290
     0
176
     1
290
     0
176
     1
290
     0
176
     1
290
     0
176
     1
290
     0
176
     1
290
     0
176
     1
 90
       50
176
     1
 40
0.0
176
     1
 40
1.0
176
     1
 90
        0
176
     1
 62
    18
420
        0
176
     1
 90
       50
176
     1
 90
        3
176
     1
 62
     5
420
      255
176
     1
290
     0
176
     1
 90
       50
176
     1
 90
       50
176
     1
 90
       50
176
     1
290
     0
176
     1
 90
       50
176
     1
 62
   256
176
     0
 40
1.0
176
     0
 90
        2
176
     1
  1
strokes_ogs.tif
176
     1
290
     0
176
     1
 40
1.0
176
     1
 40
1.0
176
     1
1001
ACAD
1000
AcDbSavedByObjectVersion
1070
     0
  0
VISUALSTYLE
  5
2E
102
{ACAD_REACTORS
330
29
102
}
330
29
100
AcDbVisualStyle
  2
Basic
 70
     7
177
     3
291
     1
 70
    58
 90
        1
176
     1
 90
        0
176
     1
 90
        1
176
     1
 90
        0
176
     1
 40
0.6
176
     1
 40
30.0
176
     1
 62
     7
420
 16777215
176
     1
 90
        0
176
     1
 90
        4
176
     1
 62
     7
176
     1
 62
   257
176
     1
 90
        1
176
     1
 90
        1
176
     1
 40
1.0
176
     1
 90
        8
176
     1
 62
     7
176
     1
 40
1.0
176
     1
 90
        1
176
     1
 90
        6
176
     1
 90
        2
176
     1
 62
     7
176
     1
 90
        5
176
     1
 90
        0
176
     1
 90
        0
176
     1
290
     0
176
     1
 90
        1
176
     1
 40
0.0
176
     1
 90
        0
176
     1
290
     0
176
     1
290
     1
176
     1
290
     1
176
     1
290
     0
176
     1
290
     0
176
     1
290
     0
176
     1
290
     0
176
     1
290
     0
176
     1
290
     0
176
     1
 90
       50
176
     1
 40
0.0
176
     1
 40
1.0
176
     1
 90
        0
176
     1
 62
    18
420
        0
176
     1
 90
       50
176
     1
 90
        3
176
     1
 62
     5
420
      255
176
     1
290
     0
176
     1
 90
       50
176
     1
 90
       50
176
     1
 90
       50
176
     1
290
     0
176
     1
 90
       50
176
     1
 62
   256
176
     0
 40
1.0
176
     0
 90
        2
176
     1
  1
strokes_ogs.tif
176
     1
290
     0
176
     1
 40
1.0
176
     1
 40
1.0
176
     1
1001
ACAD
1000
AcDbSavedByObjectVersion
1070
     0
  0
VISUALSTYLE
  5
35
102
{ACAD_REACTORS
330
29
102
}
330
29
100
AcDbVisualStyle
  2
Brighten
 70
    12
177
     3
291
     1
 70
    58
 90
        2
176
     1
 90
        2
176
     1
 90
        0
176
     1
 90
        0
176
     1
 40
0.6
176
     1
 40
30.0
176
     1
 62
     7
420
 16777215
176
     1
 90
        1
176
     1
 90
        4
176
     1
 62
     7
176
     1
 62
   257
176
     1
 90
        1
176
     1
 90
        1
176
     1
 40
1.0
176
     1
 90
        8
176
     1
 62
     7
176
     1
 40
1.0
176
     1
 90
        1
176
     1
 90
        6
176
     1
 90
        2
176
     1
 62
     7
176
     1
 90
        5
176
     1
 90
        0
176
     1
 90
        0
176
     1
290
     0
176
     1
 90
        1
176
     1
 40
50.0
176
     1
 90
        0
176
     1
290
     0
176
     1
290
     1
176
     1
290
     1
176
     1
290
     0
176
     1
290
     0
176
     1
290
     0
176
     1
290
     0
176
     1
290
     0
176
     1
290
     0
176
     1
 90
       50
176
     1
 40
0.0
176
     1
 40
1.0
176
     1
 90
        0
176
     1
 62
    18
420
        0
176
     1
 90
       50
176
     1
 90
        3
176
     1
 62
     5
420
      255
176
     1
290
     0
176
     1
 90
       50
176
     1
 90
       50
176
     1
 90
       50
176
     1
290
     0
176
     1
 90
       50
176
     1
 62
   256
176
     0
 40
1.0
176
     0
 90
        2
176
     1
  1
strokes_ogs.tif
176
     1
290
     0
176
     1
 40
1.0
176
     1
 40
1.0
176
     1
1001
ACAD
1000
AcDbSavedByObjectVersion
1070
     0
  0
VISUALSTYLE
  5
39
102
{ACAD_REACTORS
330
29
102
}
330
29
100
AcDbVisualStyle
  2
ColorChange
 70
    16
177
     3
291
     1
 70
    58
 90
        2
176
     1
 90
        2
176
     1
 90
        3
176
     1
 90
        0
176
     1
 40
0.6
176
     1
 40
30.0
176
     1
 62
     8
420
  8421504
176
     1
 90
        1
176
     1
 90
        4
176
     1
 62
     7
176
     1
 62
   257
176
     1
 90
        1
176
     1
 90
        1
176
     1
 40
1.0
176
     1
 90
        8
176
     1
 62
     8
420
  8421504
176
     1
 40
1.0
176
     1
 90
        1
176
     1
 90
        6
176
     1
 90
        2
176
     1
 62
     7
176
     1
 90
        5
176
     1
 90
        0
176
     1
 90
        0
176
     1
290
     0
176
     1
 90
        1
176
     1
 40
0.0
176
     1
 90
        0
176
     1
290
     0
176
     1
290
     1
176
     1
290
     1
176
     1
290
     0
176
     1
290
     0
176
     1
290
     0
176
     1
290
     0
176
     1
290
     0
176
     1
290
     0
176
     1
 90
       50
176
     1
 40
0.0
176
     1
 40
1.0
176
     1
 90
        0
176
     1
 62
    18
420
        0
176
     1
 90
       50
176
     1
 90
        3
176
     1
 62
     5
420
      255
176
     1
290
     0
176
     1
 90
       50
176
     1
 90
       50
176
     1
 90
       50
176
     1
290
     0
176
     1
 90
       50
176
     1
 62
   256
176
     0
 40
1.0
176
     0
 90
        2
176
     1
  1
strokes_ogs.tif
176
     1
290
     0
176
     1
 40
1.0
176
     1
 40
1.0
176
     1
1001
ACAD
1000
AcDbSavedByObjectVersion
1070
     0
  0
VISUALSTYLE
  5
32
102
{ACAD_REACTORS
330
29
102
}
330
29
100
AcDbVisualStyle
  2
Conceptual
 70
     9
177
     3
291
     0
 70
    58
 90
        3
176
     1
 90
        2
176
     1
 90
        0
176
     1
 90
        0
176
     1
 40
0.6
176
     1
 40
30.0
176
     1
 62
     7
420
 16777215
176
     1
 90
        2
176
     1
 90
        2
176
     1
 62
     7
176
     1
 62
   257
176
     1
 90
        1
176
     1
 90
        1
176
     1
 40
179.0
176
     1
 90
        8
176
     1
 62
     7
176
     1
 40
1.0
176
     1
 90
        1
176
     1
 90
        6
176
     1
 90
        2
176
     1
 62
     7
176
     1
 90
        3
176
     1
 90
        0
176
     1
 90
        0
176
     1
290
     0
176
     1
 90
        1
176
     1
 40
0.0
176
     1
 90
        0
176
     1
290
     0
176
     1
290
     1
176
     1
290
     1
176
     1
290
     0
176
     1
290
     0
176
     1
290
     0
176
     1
290
     0
176
     1
290
     0
176
     1
290
     0
176
     1
 90
       50
176
     1
 40
0.0
176
     1
 40
1.0
176
     1
 90
        0
176
     1
 62
    18
420
        0
176
     1
 90
       50
176
     1
 90
        3
176
     1
 62
     5
420
      255
176
     1
290
     0
176
     1
 90
       50
176
     1
 90
       50
176
     1
 90
       50
176
     1
290
     0
176
     1
 90
       50
176
     1
 62
   256
176
     0
 40
1.0
176
     0
 90
        2
176
     1
  1
strokes_ogs.tif
176
     1
290
     0
176
     1
 40
1.0
176
     1
 40
1.0
176
     1
1001
ACAD
1000
AcDbSavedByObjectVersion
1070
     0
  0
VISUALSTYLE
  5
34
102
{ACAD_REACTORS
330
29
102
}
330
29
100
AcDbVisualStyle
  2
Dim
 70
    11
177
     3
291
     1
 70
    58
 90
        2
176
     1
 90
        2
176
     1
 90
        0
176
     1
 90
        0
176
     1
 40
0.6
176
     1
 40
30.0
176
     1
 62
     7
420
 16777215
176
     1
 90
        1
176
     1
 90
        4
176
     1
 62
     7
176
     1
 62
   257
176
     1
 90
        1
176
     1
 90
        1
176
     1
 40
1.0
176
     1
 90
        8
176
     1
 62
     7
176
     1
 40
1.0
176
     1
 90
        1
176
     1
 90
        6
176
     1
 90
        2
176
     1
 62
     7
176
     1
 90
        5
176
     1
 90
        0
176
     1
 90
        0
176
     1
290
     0
176
     1
 90
        1
176
     1
 40
-50.0
176
     1
 90
        0
176
     1
290
     0
176
     1
290
     1
176
     1
290
     1
176
     1
290
     0
176
     1
290
     0
176
     1
290
     0
176
     1
290
     0
176
     1
290
     0
176
     1
290
     0
176
     1
 90
       50
176
     1
 40
0.0
176
     1
 40
1.0
176
     1
 90
        0
176
     1
 62
    18
420
        0
176
     1
 90
       50
176
     1
 90
        3
176
     1
 62
     5
420
      255
176
     1
290
     0
176
     1
 90
       50
176
     1
 90
       50
176
     1
 90
       50
176
     1
290
     0
176
     1
 90
       50
176
     1
 62
   256
176
     0
 40
1.0
176
     0
 90
        2
176
     1
  1
strokes_ogs.tif
176
     1
290
     0
176
     1
 40
1.0
176
     1
 40
1.0
176
     1
1001
ACAD
1000
AcDbSavedByObjectVersion
1070
     0
  0
VISUALSTYLE
  5
41
102
{ACAD_REACTORS
330
29
102
}
330
29
100
AcDbVisualStyle
  2
EdgeColorOff
 70
    22
177
     3
291
     1
 70
    58
 90
        2
176
     0
 90
        2
176
     0
 90
        0
176
     0
 90
        0
176
     0
 40
0.6
176
     0
 40
30.0
176
     0
 62
     7
420
 16777215
176
     0
 90
        1
176
     0
 90
        4
176
     0
 62
     7
176
     0
 62
   257
176
     0
 90
        1
176
     0
 90
        1
176
     0
 40
1.0
176
     0
 90
        8
176
     2
 62
     7
176
     0
 40
1.0
176
     0
 90
        1
176
     0
 90
        6
176
     0
 90
        2
176
     0
 62
     7
176
     0
 90
        5
176
     0
 90
        0
176
     0
 90
        0
176
     0
290
     0
176
     0
 90
        1
176
     0
 40
0.0
176
     0
 90
        0
176
     0
290
     0
176
     0
290
     1
176
     0
290
     1
176
     0
290
     0
176
     0
290
     0
176
     0
290
     0
176
     0
290
     0
176
     0
290
     0
176
     0
290
     0
176
     0
 90
       50
176
     0
 40
0.0
176
     0
 40
1.0
176
     0
 90
        0
176
     0
 62
    18
420
        0
176
     0
 90
       50
176
     0
 90
        3
176
     0
 62
     5
420
      255
176
     0
290
     0
176
     0
 90
       50
176
     0
 90
       50
176
     0
 90
       50
176
     0
290
     0
176
     0
 90
       50
176
     0
 62
   256
176
     0
 40
1.0
176
     0
 90
        2
176
     0
  1
strokes_ogs.tif
176
     0
290
     0
176
     0
 40
1.0
176
     0
 40
1.0
176
     0
1001
ACAD
1000
AcDbSavedByObjectVersion
1070
     0
  0
VISUALSTYLE
  5
38
102
{ACAD_REACTORS
330
29
102
}
330
29
100
AcDbVisualStyle
  2
Facepattern
 70
    15
177
     3
291
     1
 70
    58
 90
        2
176
     1
 90
        2
176
     1
 90
        0
176
     1
 90
        0
176
     1
 40
0.6
176
     1
 40
30.0
176
     1
 62
     7
420
 16777215
176
     1
 90
        1
176
     1
 90
        4
176
     1
 62
     7
176
     1
 62
   257
176
     1
 90
        1
176
     1
 90
        1
176
     1
 40
1.0
176
     1
 90
        8
176
     1
 62
     7
176
     1
 40
1.0
176
     1
 90
        1
176
     1
 90
        6
176
     1
 90
        2
176
     1
 62
     7
176
     1
 90
        5
176
     1
 90
        0
176
     1
 90
        0
176
     1
290
     0
176
     1
 90
        1
176
     1
 40
0.0
176
     1
 90
        0
176
     1
290
     0
176
     1
290
     1
176
     1
290
     1
176
     1
290
     0
176
     1
290
     0
176
     1
290
     0
176
     1
290
     0
176
     1
290
     0
176
     1
290
     0
176
     1
 90
       50
176
     1
 40
0.0
176
     1
 40
1.0
176
     1
 90
        0
176
     1
 62
    18
420
        0
176
     1
 90
       50
176
     1
 90
        3
176
     1
 62
     5
420
      255
176
     1
290
     0
176
     1
 90
       50
176
     1
 90
       50
176
     1
 90
       50
176
     1
290
     0
176
     1
 90
       50
176
     1
 62
   256
176
     0
 40
1.0
176
     0
 90
        2
176
     1
  1
strokes_ogs.tif
176
     1
290
     0
176
     1
 40
1.0
176
     1
 40
1.0
176
     1
1001
ACAD
1000
AcDbSavedByObjectVersion
1070
     0
  0
VISUALSTYLE
  5
2A
102
{ACAD_REACTORS
330
29
102
}
330
29
100
AcDbVisualStyle
  2
Flat
 70
     0
177
     3
291
     1
 70
    58
 90
        2
176
     1
 90
        1
176
     1
 90
        1
176
     1
 90
        2
176
     1
 40
0.6
176
     1
 40
30.0
176
     1
 62
     7
420
 16777215
176
     1
 90
        0
176
     1
 90
        0
176
     1
 62
     7
176
     1
 62
   257
176
     1
 90
        1
176
     1
 90
        1
176
     1
 40
1.0
176
     1
 90
        8
176
     1
 62
     7
176
     1
 40
1.0
176
     1
 90
        1
176
     1
 90
        6
176
     1
 90
        2
176
     1
 62
     7
176
     1
 90
        5
176
     1
 90
        0
176
     1
 90
        0
176
     1
290
     0
176
     1
 90
       13
176
     1
 40
0.0
176
     1
 90
        0
176
     1
290
     0
176
     1
290
     1
176
     1
290
     1
176
     1
290
     0
176
     1
290
     0
176
     1
290
     0
176
     1
290
     0
176
     1
290
     0
176
     1
290
     0
176
     1
 90
       50
176
     1
 40
0.0
176
     1
 40
1.0
176
     1
 90
        0
176
     1
 62
    18
420
        0
176
     1
 90
       50
176
     1
 90
        3
176
     1
 62
     5
420
      255
176
     1
290
     0
176
     1
 90
       50
176
     1
 90
       50
176
     1
 90
       50
176
     1
290
     0
176
     1
 90
       50
176
     1
 62
   256
176
     0
 40
1.0
176
     0
 90
        2
176
     1
  1
strokes_ogs.tif
176
     1
290
     0
176
     1
 40
1.0
176
     1
 40
1.0
176
     1
1001
ACAD
1000
AcDbSavedByObjectVersion
1070
     0
  0
VISUALSTYLE
  5
2B
102
{ACAD_REACTORS
330
29
102
}
330
29
100
AcDbVisualStyle
  2
FlatWithEdges
 70
     1
177
     3
291
     1
 70
    58
 90
        2
176
     1
 90
        1
176
     1
 90
        1
176
     1
 90
        2
176
     1
 40
0.6
176
     1
 40
30.0
176
     1
 62
     7
420
 16777215
176
     1
 90
        1
176
     1
 90
        0
176
     1
 62
     7
176
     1
 62
   257
176
     1
 90
        1
176
     1
 90
        1
176
     1
 40
1.0
176
     1
 90
        0
176
     1
 62
   257
176
     1
 40
1.0
176
     1
 90
        1
176
     1
 90
        6
176
     1
 90
        2
176
     1
 62
     7
176
     1
 90
        5
176
     1
 90
        0
176
     1
 90
        0
176
     1
290
     0
176
     1
 90
       13
176
     1
 40
0.0
176
     1
 90
        0
176
     1
290
     0
176
     1
290
     1
176
     1
290
     1
176
     1
290
     0
176
     1
290
     0
176
     1
290
     0
176
     1
290
     0
176
     1
290
     0
176
     1
290
     0
176
     1
 90
       50
176
     1
 40
0.0
176
     1
 40
1.0
176
     1
 90
        0
176
     1
 62
    18
420
        0
176
     1
 90
       50
176
     1
 90
        3
176
     1
 62
     5
420
      255
176
     1
290
     0
176
     1
 90
       50
176
     1
 90
       50
176
     1
 90
       50
176
     1
290
     0
176
     1
 90
       50
176
     1
 62
   256
176
     0
 40
1.0
176
     0
 90
        2
176
     1
  1
strokes_ogs.tif
176
     1
290
     0
176
     1
 40
1.0
176
     1
 40
1.0
176
     1
1001
ACAD
1000
AcDbSavedByObjectVersion
1070
     0
  0
VISUALSTYLE
  5
2C
102
{ACAD_REACTORS
330
29
102
}
330
29
100
AcDbVisualStyle
  2
Gouraud
 70
     2
177
     3
291
     1
 70
    58
 90
        2
176
     1
 90
        2
176
     1
 90
        1
176
     1
 90
        2
176
     1
 40
0.6
176
     1
 40
30.0
176
     1
 62
     7
420
 16777215
176
     1
 90
        0
176
     1
 90
        0
176
     1
 62
     7
176
     1
 62
   257
176
     1
 90
        1
176
     1
 90
        1
176
     1
 40
1.0
176
     1
 90
        0
176
     1
 62
     7
176
     1
 40
1.0
176
     1
 90
        1
176
     1
 90
        6
176
     1
 90
        2
176
     1
 62
     7
176
     1
 90
        5
176
     1
 90
        0
176
     1
 90
        0
176
     1
290
     0
176
     1
 90
       13
176
     1
 40
0.0
176
     1
 90
        0
176
     1
290
     0
176
     1
290
     1
176
     1
290
     1
176
     1
290
     0
176
     1
290
     0
176
     1
290
     0
176
     1
290
     0
176
     1
290
     0
176
     1
290
     0
176
     1
 90
       50
176
     1
 40
0.0
176
     1
 40
1.0
176
     1
 90
        0
176
     1
 62
    18
420
        0
176
     1
 90
       50
176
     1
 90
        3
176
     1
 62
     5
420
      255
176
     1
290
     0
176
     1
 90
       50
176
     1
 90
       50
176
     1
 90
       50
176
     1
290
     0
176
     1
 90
       50
176
     1
 62
   256
176
     0
 40
1.0
176
     0
 90
        2
176
     1
  1
strokes_ogs.tif
176
     1
290
     0
176
     1
 40
1.0
176
     1
 40
1.0
176
     1
1001
ACAD
1000
AcDbSavedByObjectVersion
1070
     0
  0
VISUALSTYLE
  5
2D
102
{ACAD_REACTORS
330
29
102
}
330
29
100
AcDbVisualStyle
  2
GouraudWithEdges
 70
     3
177
     3
291
     1
 70
    58
 90
        2
176
     1
 90
        2
176
     1
 90
        1
176
     1
 90
        2
176
     1
 40
0.6
176
     1
 40
30.0
176
     1
 62
     7
420
 16777215
176
     1
 90
        1
176
     1
 90
        0
176
     1
 62
     7
176
     1
 62
   257
176
     1
 90
        1
176
     1
 90
        1
176
     1
 40
1.0
176
     1
 90
        0
176
     1
 62
   257
176
     1
 40
1.0
176
     1
 90
        1
176
     1
 90
        6
176
     1
 90
        2
176
     1
 62
     7
176
     1
 90
        5
176
     1
 90
        0
176
     1
 90
        0
176
     1
290
     0
176
     1
 90
       13
176
     1
 40
0.0
176
     1
 90
        0
176
     1
290
     0
176
     1
290
     1
176
     1
290
     1
176
     1
290
     0
176
     1
290
     0
176
     1
290
     0
176
     1
290
     0
176
     1
290
     0
176
     1
290
     0
176
     1
 90
       50
176
     1
 40
0.0
176
     1
 40
1.0
176
     1
 90
        0
176
     1
 62
    18
420
        0
176
     1
 90
       50
176
     1
 90
        3
176
     1
 62
     5
420
      255
176
     1
290
     0
176
     1
 90
       50
176
     1
 90
       50
176
     1
 90
       50
176
     1
290
     0
176
     1
 90
       50
176
     1
 62
   256
176
     0
 40
1.0
176
     0
 90
        2
176
     1
  1
strokes_ogs.tif
176
     1
290
     0
176
     1
 40
1.0
176
     1
 40
1.0
176
     1
1001
ACAD
1000
AcDbSavedByObjectVersion
1070
     0
  0
VISUALSTYLE
  5
31
102
{ACAD_REACTORS
330
29
102
}
330
29
100
AcDbVisualStyle
  2
Hidden
 70
     6
177
     3
291
     0
 70
    58
 90
        1
176
     1
 90
        2
176
     1
 90
        2
176
     1
 90
        0
176
     1
 40
0.6
176
     1
 40
30.0
176
     1
 62
     7
420
 16777215
176
     1
 90
        2
176
     1
 90
        2
176
     1
 62
     7
176
     1
 62
   257
176
     1
 90
        2
176
     1
 90
        1
176
     1
 40
40.0
176
     1
 90
        0
176
     1
 62
   257
176
     1
 40
1.0
176
     1
 90
        1
176
     1
 90
        6
176
     1
 90
        2
176
     1
 62
     7
176
     1
 90
        3
176
     1
 90
        0
176
     1
 90
        0
176
     1
290
     0
176
     1
 90
        1
176
     1
 40
0.0
176
     1
 90
        0
176
     1
290
     0
176
     1
290
     1
176
     1
290
     1
176
     1
290
     0
176
     1
290
     0
176
     1
290
     0
176
     1
290
     0
176
     1
290
     0
176
     1
290
     0
176
     1
 90
       50
176
     1
 40
0.0
176
     1
 40
1.0
176
     1
 90
        0
176
     1
 62
    18
420
        0
176
     1
 90
       50
176
     1
 90
        3
176
     1
 62
     5
420
      255
176
     1
290
     0
176
     1
 90
       50
176
     1
 90
       50
176
     1
 90
       50
176
     1
290
     0
176
     1
 90
       50
176
     1
 62
   256
176
     0
 40
1.0
176
     0
 90
        2
176
     1
  1
strokes_ogs.tif
176
     1
290
     0
176
     1
 40
1.0
176
     1
 40
1.0
176
     1
1001
ACAD
1000
AcDbSavedByObjectVersion
1070
     0
  0
VISUALSTYLE
  5
3F
102
{ACAD_REACTORS
330
29
102
}
330
29
100
AcDbVisualStyle
  2
JitterOff
 70
    20
177
     3
291
     1
 70
    58
 90
        2
176
     0
 90
        2
176
     0
 90
        0
176
     0
 90
        0
176
     0
 40
0.6
176
     0
 40
30.0
176
     0
 62
     7
420
 16777215
176
     0
 90
        1
176
     0
 90
        4
176
     0
 62
     7
176
     0
 62
   257
176
     0
 90
        1
176
     0
 90
        1
176
     0
 40
1.0
176
     0
 90
       10
176
     2
 62
     7
176
     0
 40
1.0
176
     0
 90
        1
176
     0
 90
        6
176
     0
 90
        2
176
     0
 62
     7
176
     0
 90
        5
176
     0
 90
        0
176
     0
 90
        0
176
     0
290
     0
176
     0
 90
        1
176
     0
 40
0.0
176
     0
 90
        0
176
     0
290
     0
176
     0
290
     1
176
     0
290
     1
176
     0
290
     0
176
     0
290
     0
176
     0
290
     0
176
     0
290
     0
176
     0
290
     0
176
     0
290
     0
176
     0
 90
       50
176
     0
 40
0.0
176
     0
 40
1.0
176
     0
 90
        0
176
     0
 62
    18
420
        0
176
     0
 90
       50
176
     0
 90
        3
176
     0
 62
     5
420
      255
176
     0
290
     0
176
     0
 90
       50
176
     0
 90
       50
176
     0
 90
       50
176
     0
290
     0
176
     0
 90
       50
176
     0
 62
   256
176
     0
 40
1.0
176
     0
 90
        2
176
     0
  1
strokes_ogs.tif
176
     0
290
     0
176
     0
 40
1.0
176
     0
 40
1.0
176
     0
1001
ACAD
1000
AcDbSavedByObjectVersion
1070
     0
  0
VISUALSTYLE
  5
37
102
{ACAD_REACTORS
330
29
102
}
330
29
100
AcDbVisualStyle
  2
Linepattern
 70
    14
177
     3
291
     1
 70
    58
 90
        2
176
     1
 90
        2
176
     1
 90
        0
176
     1
 90
        0
176
     1
 40
0.6
176
     1
 40
30.0
176
     1
 62
     7
420
 16777215
176
     1
 90
        1
176
     1
 90
        4
176
     1
 62
     7
176
     1
 62
   257
176
     1
 90
        7
176
     1
 90
        7
176
     1
 40
1.0
176
     1
 90
        8
176
     1
 62
     7
176
     1
 40
1.0
176
     1
 90
        1
176
     1
 90
        6
176
     1
 90
        2
176
     1
 62
     7
176
     1
 90
        5
176
     1
 90
        0
176
     1
 90
        0
176
     1
290
     0
176
     1
 90
        1
176
     1
 40
0.0
176
     1
 90
        0
176
     1
290
     0
176
     1
290
     1
176
     1
290
     1
176
     1
290
     0
176
     1
290
     0
176
     1
290
     0
176
     1
290
     0
176
     1
290
     0
176
     1
290
     0
176
     1
 90
       50
176
     1
 40
0.0
176
     1
 40
1.0
176
     1
 90
        0
176
     1
 62
    18
420
        0
176
     1
 90
       50
176
     1
 90
        3
176
     1
 62
     5
420
      255
176
     1
290
     0
176
     1
 90
       50
176
     1
 90
       50
176
     1
 90
       50
176
     1
290
     0
176
     1
 90
       50
176
     1
 62
   256
176
     0
 40
1.0
176
     0
 90
        2
176
     1
  1
strokes_ogs.tif
176
     1
290
     0
176
     1
 40
1.0
176
     1
 40
1.0
176
     1
1001
ACAD
1000
AcDbSavedByObjectVersion
1070
     0
  0
VISUALSTYLE
  5
40
102
{ACAD_REACTORS
330
29
102
}
330
29
100
AcDbVisualStyle
  2
OverhangOff
 70
    21
177
     3
291
     1
 70
    58
 90
        2
176
     0
 90
        2
176
     0
 90
        0
176
     0
 90
        0
176
     0
 40
0.6
176
     0
 40
30.0
176
     0
 62
     7
420
 16777215
176
     0
 90
        1
176
     0
 90
        4
176
     0
 62
     7
176
     0
 62
   257
176
     0
 90
        1
176
     0
 90
        1
176
     0
 40
1.0
176
     0
 90
        9
176
     2
 62
     7
176
     0
 40
1.0
176
     0
 90
        1
176
     0
 90
        6
176
     0
 90
        2
176
     0
 62
     7
176
     0
 90
        5
176
     0
 90
        0
176
     0
 90
        0
176
     0
290
     0
176
     0
 90
        1
176
     0
 40
0.0
176
     0
 90
        0
176
     0
290
     0
176
     0
290
     1
176
     0
290
     1
176
     0
290
     0
176
     0
290
     0
176
     0
290
     0
176
     0
290
     0
176
     0
290
     0
176
     0
290
     0
176
     0
 90
       50
176
     0
 40
0.0
176
     0
 40
1.0
176
     0
 90
        0
176
     0
 62
    18
420
        0
176
     0
 90
       50
176
     0
 90
        3
176
     0
 62
     5
420
      255
176
     0
290
     0
176
     0
 90
       50
176
     0
 90
       50
176
     0
 90
       50
176
     0
290
     0
176
     0
 90
       50
176
     0
 62
   256
176
     0
 40
1.0
176
     0
 90
        2
176
     0
  1
strokes_ogs.tif
176
     0
290
     0
176
     0
 40
1.0
176
     0
 40
1.0
176
     0
1001
ACAD
1000
AcDbSavedByObjectVersion
1070
     0
  0
VISUALSTYLE
  5
33
102
{ACAD_REACTORS
330
29
102
}
330
29
100
AcDbVisualStyle
  2
Realistic
 70
     8
177
     3
291
     0
 70
    58
 90
        2
176
     1
 90
        3
176
     1
 90
        0
176
     1
 90
        2
176
     1
 40
0.6
176
     1
 40
30.0
176
     1
 62
     7
420
 16777215
176
     1
 90
        0
176
     1
 90
        0
176
     1
 62
     7
176
     1
 62
   257
176
     1
 90
        1
176
     1
 90
        1
176
     1
 40
1.0
176
     1
 90
        8
176
     1
 62
   257
176
     1
 40
1.0
176
     1
 90
        1
176
     1
 90
        6
176
     1
 90
        2
176
     1
 62
     7
176
     1
 90
        3
176
     1
 90
        0
176
     1
 90
        0
176
     1
290
     0
176
     1
 90
       13
176
     1
 40
0.0
176
     1
 90
        0
176
     1
290
     0
176
     1
290
     1
176
     1
290
     1
176
     1
290
     0
176
     1
290
     0
176
     1
290
     0
176
     1
290
     0
176
     1
290
     0
176
     1
290
     0
176
     1
 90
       50
176
     1
 40
0.0
176
     1
 40
1.0
176
     1
 90
        0
176
     1
 62
    18
420
        0
176
     1
 90
       50
176
     1
 90
        3
176
     1
 62
     5
420
      255
176
     1
290
     0
176
     1
 90
       50
176
     1
 90
       50
176
     1
 90
       50
176
     1
290
     0
176
     1
 90
       50
176
     1
 62
   256
176
     0
 40
1.0
176
     0
 90
        2
176
     1
  1
strokes_ogs.tif
176
     1
290
     0
176
     1
 40
1.0
176
     1
 40
1.0
176
     1
1001
ACAD
1000
AcDbSavedByObjectVersion
1070
     0
  0
VISUALSTYLE
  5
3E
102
{ACAD_REACTORS
330
29
102
}
330
29
100
AcDbVisualStyle
  2
Shaded
 70
    27
177
     3
291
     0
 70
    58
 90
        2
176
     1
 90
        2
176
     1
 90
        1
176
     1
 90
        2
176
     1
 40
0.6
176
     1
 40
30.0
176
     1
 62
     7
420
 16777215
176
     1
 90
        0
176
     1
 90
        4
176
     1
 62
     7
176
     1
 62
   257
176
     1
 90
        1
176
     1
 90
        1
176
     1
 40
1.0
176
     1
 90
        8
176
     1
 62
   257
176
     1
 40
1.0
176
     1
 90
        1
176
     1
 90
        6
176
     1
 90
        2
176
     1
 62
     8
420
  7895160
176
     1
 90
        3
176
     1
 90
        0
176
     1
 90
        0
176
     1
290
     0
176
     1
 90
        5
176
     1
 40
0.0
176
     1
 90
        0
176
     1
290
     0
176
     1
290
     1
176
     1
290
     1
176
     1
290
     0
176
     1
290
     0
176
     1
290
     0
176
     1
290
     0
176
     1
290
     0
176
     1
290
     0
176
     1
 90
       50
176
     1
 40
0.0
176
     1
 40
1.0
176
     1
 90
        0
176
     1
 62
    18
420
        0
176
     1
 90
       50
176
     1
 90
        3
176
     1
 62
     5
420
      255
176
     1
290
     0
176
     1
 90
       50
176
     1
 90
       50
176
     1
 90
       50
176
     1
290
     0
176
     1
 90
       50
176
     1
 62
   256
176
     0
 40
1.0
176
     0
 90
        2
176
     1
  1
strokes_ogs.tif
176
     1
290
     0
176
     1
 40
1.0
176
     1
 40
1.0
176
     1
1001
ACAD
1000
AcDbSavedByObjectVersion
1070
     0
  0
VISUALSTYLE
  5
3D
102
{ACAD_REACTORS
330
29
102
}
330
29
100
AcDbVisualStyle
  2
Shaded with edges
 70
    26
177
     3
291
     0
 70
    58
 90
        2
176
     1
 90
        2
176
     1
 90
        1
176
     1
 90
        2
176
     1
 40
0.6
176
     1
 40
30.0
176
     1
 62
     7
420
 16777215
176
     1
 90
        1
176
     1
 90
        2
176
     1
 62
     7
176
     1
 62
   257
176
     1
 90
        2
176
     1
 90
        1
176
     1
 40
1.0
176
     1
 90
        8
176
     1
 62
   257
176
     1
 40
1.0
176
     1
 90
        1
176
     1
 90
        6
176
     1
 90
        2
176
     1
 62
     7
176
     1
 90
        3
176
     1
 90
        0
176
     1
 90
        0
176
     1
290
     0
176
     1
 90
        5
176
     1
 40
0.0
176
     1
 90
        0
176
     1
290
     0
176
     1
290
     1
176
     1
290
     1
176
     1
290
     0
176
     1
290
     0
176
     1
290
     0
176
     1
290
     0
176
     1
290
     0
176
     1
290
     0
176
     1
 90
       50
176
     1
 40
0.0
176
     1
 40
1.0
176
     1
 90
        0
176
     1
 62
    18
420
        0
176
     1
 90
       50
176
     1
 90
        3
176
     1
 62
     5
420
      255
176
     1
290
     0
176
     1
 90
       50
176
     1
 90
       50
176
     1
 90
       50
176
     1
290
     0
176
     1
 90
       50
176
     1
 62
   256
176
     0
 40
1.0
176
     0
 90
        2
176
     1
  1
strokes_ogs.tif
176
     1
290
     0
176
     1
 40
1.0
176
     1
 40
1.0
176
     1
1001
ACAD
1000
AcDbSavedByObjectVersion
1070
     0
  0
VISUALSTYLE
  5
3A
102
{ACAD_REACTORS
330
29
102
}
330
29
100
AcDbVisualStyle
  2
Shades of Gray
 70
    23
177
     3
291
     0
 70
    58
 90
        2
176
     1
 90
        2
176
     1
 90
        3
176
     1
 90
        0
176
     1
 40
0.6
176
     1
 40
30.0
176
     1
 62
     7
420
 16777215
176
     1
 90
        2
176
     1
 90
        2
176
     1
 62
     7
176
     1
 62
     7
176
     1
 90
        1
176
     1
 90
        1
176
     1
 40
40.0
176
     1
 90
        8
176
     1
 62
     7
176
     1
 40
1.0
176
     1
 90
        1
176
     1
 90
        6
176
     1
 90
        2
176
     1
 62
     7
176
     1
 90
        3
176
     1
 90
        0
176
     1
 90
        0
176
     1
290
     0
176
     1
 90
        1
176
     1
 40
0.0
176
     1
 90
        0
176
     1
290
     0
176
     1
290
     1
176
     1
290
     1
176
     1
290
     0
176
     1
290
     0
176
     1
290
     0
176
     1
290
     0
176
     1
290
     0
176
     1
290
     0
176
     1
 90
       50
176
     1
 40
0.0
176
     1
 40
1.0
176
     1
 90
        0
176
     1
 62
    18
420
        0
176
     1
 90
       50
176
     1
 90
        3
176
     1
 62
     5
420
      255
176
     1
290
     0
176
     1
 90
       50
176
     1
 90
       50
176
     1
 90
       50
176
     1
290
     0
176
     1
 90
       50
176
     1
 62
   256
176
     0
 40
1.0
176
     0
 90
        2
176
     1
  1
strokes_ogs.tif
176
     1
290
     0
176
     1
 40
1.0
176
     1
 40
1.0
176
     1
1001
ACAD
1000
AcDbSavedByObjectVersion
1070
     0
  0
VISUALSTYLE
  5
3B
102
{ACAD_REACTORS
330
29
102
}
330
29
100
AcDbVisualStyle
  2
Sketchy
 70
    24
177
     3
291
     0
 70
    58
 90
        1
176
     1
 90
        2
176
     1
 90
        2
176
     1
 90
        0
176
     1
 40
0.6
176
     1
 40
30.0
176
     1
 62
     7
420
 16777215
176
     1
 90
        2
176
     1
 90
        2
176
     1
 62
     7
176
     1
 62
     7
176
     1
 90
        1
176
     1
 90
        1
176
     1
 40
40.0
176
     1
 90
       11
176
     1
 62
     7
176
     1
 40
1.0
176
     1
 90
        1
176
     1
 90
        6
176
     1
 90
        2
176
     1
 62
     7
176
     1
 90
        6
176
     1
 90
        0
176
     1
 90
        0
176
     1
290
     0
176
     1
 90
        1
176
     1
 40
0.0
176
     1
 90
        0
176
     1
290
     0
176
     1
290
     1
176
     1
290
     1
176
     1
290
     0
176
     1
290
     0
176
     1
290
     0
176
     1
290
     0
176
     1
290
     0
176
     1
290
     0
176
     1
 90
       50
176
     1
 40
0.0
176
     1
 40
1.0
176
     1
 90
        0
176
     1
 62
    18
420
        0
176
     1
 90
       50
176
     1
 90
        3
176
     1
 62
     5
420
      255
176
     1
290
     0
176
     1
 90
       50
176
     1
 90
       50
176
     1
 90
       50
176
     1
290
     0
176
     1
 90
       50
176
     1
 62
   256
176
     0
 40
1.0
176
     0
 90
        2
176
     1
  1
strokes_ogs.tif
176
     1
290
     0
176
     1
 40
1.0
176
     1
 40
1.0
176
     1
1001
ACAD
1000
AcDbSavedByObjectVersion
1070
     0
  0
VISUALSTYLE
  5
36
102
{ACAD_REACTORS
330
29
102
}
330
29
100
AcDbVisualStyle
  2
Thicken
 70
    13
177
     3
291
     1
 70
    58
 90
        2
176
     1
 90
        2
176
     1
 90
        0
176
     1
 90
        0
176
     1
 40
0.6
176
     1
 40
30.0
176
     1
 62
     7
420
 16777215
176
     1
 90
        1
176
     1
 90
        4
176
     1
 62
     7
176
     1
 62
   257
176
     1
 90
        1
176
     1
 90
        1
176
     1
 40
1.0
176
     1
 90
       12
176
     1
 62
     7
176
     1
 40
1.0
176
     1
 90
        1
176
     1
 90
        6
176
     1
 90
        2
176
     1
 62
     7
176
     1
 90
        5
176
     1
 90
        0
176
     1
 90
        0
176
     1
290
     0
176
     1
 90
        1
176
     1
 40
0.0
176
     1
 90
        0
176
     1
290
     0
176
     1
290
     1
176
     1
290
     1
176
     1
290
     0
176
     1
290
     0
176
     1
290
     0
176
     1
290
     0
176
     1
290
     0
176
     1
290
     0
176
     1
 90
       50
176
     1
 40
0.0
176
     1
 40
1.0
176
     1
 90
        0
176
     1
 62
    18
420
        0
176
     1
 90
       50
176
     1
 90
        3
176
     1
 62
     5
420
      255
176
     1
290
     0
176
     1
 90
       50
176
     1
 90
       50
176
     1
 90
       50
176
     1
290
     0
176
     1
 90
       50
176
     1
 62
   256
176
     0
 40
1.0
176
     0
 90
        2
176
     1
  1
strokes_ogs.tif
176
     1
290
     0
176
     1
 40
1.0
176
     1
 40
1.0
176
     1
1001
ACAD
1000
AcDbSavedByObjectVersion
1070
     0
  0
VISUALSTYLE
  5
30
102
{ACAD_REACTORS
330
29
102
}
330
29
100
AcDbVisualStyle
  2
Wireframe
 70
     5
177
     3
291
     0
 70
    58
 90
        0
176
     1
 90
        2
176
     1
 90
        0
176
     1
 90
        0
176
     1
 40
0.6
176
     1
 40
30.0
176
     1
 62
     7
420
 16777215
176
     1
 90
        1
176
     1
 90
        4
176
     1
 62
     7
176
     1
 62
   257
176
     1
 90
        1
176
     1
 90
        1
176
     1
 40
1.0
176
     1
 90
        0
176
     1
 62
   257
176
     1
 40
1.0
176
     1
 90
        1
176
     1
 90
        6
176
     1
 90
        2
176
     1
 62
     7
176
     1
 90
        3
176
     1
 90
        0
176
     1
 90
        0
176
     1
290
     0
176
     1
 90
        1
176
     1
 40
0.0
176
     1
 90
        0
176
     1
290
     0
176
     1
290
     1
176
     1
290
     1
176
     1
290
     0
176
     1
290
     0
176
     1
290
     0
176
     1
290
     0
176
     1
290
     0
176
     1
290
     0
176
     1
 90
       50
176
     1
 40
0.0
176
     1
 40
1.0
176
     1
 90
        0
176
     1
 62
    18
420
        0
176
     1
 90
       50
176
     1
 90
        3
176
     1
 62
     5
420
      255
176
     1
290
     0
176
     1
 90
       50
176
     1
 90
       50
176
     1
 90
       50
176
     1
290
     0
176
     1
 90
       50
176
     1
 62
   256
176
     0
 40
1.0
176
     0
 90
        2
176
     1
  1
strokes_ogs.tif
176
     1
290
     0
176
     1
 40
1.0
176
     1
 40
1.0
176
     1
1001
ACAD
1000
AcDbSavedByObjectVersion
1070
     0
  0
VISUALSTYLE
  5
3C
102
{ACAD_REACTORS
330
29
102
}
330
29
100
AcDbVisualStyle
  2
X-Ray
 70
    25
177
     3
291
     0
 70
    58
 90
        2
176
     1
 90
        2
176
     1
 90
        1
176
     1
 90
        1
176
     1
 40
0.5
176
     1
 40
30.0
176
     1
 62
     7
420
 16777215
176
     1
 90
        1
176
     1
 90
        0
176
     1
 62
     7
176
     1
 62
   257
176
     1
 90
        1
176
     1
 90
        1
176
     1
 40
1.0
176
     1
 90
        8
176
     1
 62
     7
176
     1
 40
1.0
176
     1
 90
        1
176
     1
 90
        6
176
     1
 90
        2
176
     1
 62
     7
176
     1
 90
        3
176
     1
 90
        0
176
     1
 90
        0
176
     1
290
     0
176
     1
 90
       13
176
     1
 40
0.0
176
     1
 90
        0
176
     1
290
     0
176
     1
290
     1
176
     1
290
     1
176
     1
290
     0
176
     1
290
     0
176
     1
290
     0
176
     1
290
     0
176
     1
290
     0
176
     1
290
     0
176
     1
 90
       50
176
     1
 40
0.0
176
     1
 40
1.0
176
     1
 90
        0
176
     1
 62
    18
420
        0
176
     1
 90
       50
176
     1
 90
        3
176
     1
 62
     5
420
      255
176
     1
290
     0
176
     1
 90
       50
176
     1
 90
       50
176
     1
 90
       50
176
     1
290
     0
176
     1
 90
       50
176
     1
 62
   256
176
     0
 40
1.0
176
     0
 90
        2
176
     1
  1
strokes_ogs.tif
176
     1
290
     0
176
     1
 40
1.0
176
     1
 40
1.0
176
     1
1001
ACAD
1000
AcDbSavedByObjectVersion
1070
     0
  0
DICTIONARYVAR
  5
E2
102
{ACAD_REACTORS
330
DD
102
}
330
DD
100
DictionaryVariables
280
     0
  1
1:1
  0
DICTIONARYVAR
  5
DF
102
{ACAD_REACTORS
330
DD
102
}
330
DD
100
DictionaryVariables
280
     0
  1
STANDARD
  0
DICTIONARYVAR
  5
DE
102
{ACAD_REACTORS
330
DD
102
}
330
DD
100
DictionaryVariables
280
     0
  1
STANDARD
  0
DICTIONARYVAR
  5
E0
102
{ACAD_REACTORS
330
DD
102
}
330
DD
100
DictionaryVariables
280
     0
  1
Imperial24
  0
DICTIONARYVAR
  5
E1
102
{ACAD_REACTORS
330
DD
102
}
330
DD
100
DictionaryVariables
280
     0
  1
Imperial24
  0
DICTIONARY
  5
146
330
6B
100
AcDbDictionary
280
     1
281
     1
  3
ACAD_XREC_ROUNDTRIP
360
147
  0
DICTIONARY
  5
1A
330
19
100
AcDbDictionary
280
     1
281
     1
  3
BUMPTILE
360
1C
  3
DIFFUSETILE
360
1B
  3
OPACITYTILE
360
1F
  3
REFLECTIONTILE
360
1E
  3
REFRACTIONTILE
360
20
  3
SPECULARTILE
360
1D
  0
DICTIONARY
  5
12
330
11
100
AcDbDictionary
280
     1
281
     1
  3
BUMPTILE
360
14
  3
DIFFUSETILE
360
13
  3
OPACITYTILE
360
17
  3
REFLECTIONTILE
360
16
  3
REFRACTIONTILE
360
18
  3
SPECULARTILE
360
15
  0
DICTIONARY
  5
22
330
21
100
AcDbDictionary
280
     1
281
     1
  3
BUMPTILE
360
24
  3
DIFFUSETILE
360
23
  3
OPACITYTILE
360
27
  3
REFLECTIONTILE
360
26
  3
REFRACTIONTILE
360
28
  3
SPECULARTILE
360
25
  0
DICTIONARY
  5
144
330
69
100
AcDbDictionary
280
     1
281
     1
  3
ACAD_XREC_ROUNDTRIP
360
145
  0
DICTIONARY
  5
E3
330
65
100
AcDbDictionary
280
     1
281
     1
  3
ACAD_ROUNDTRIP_2008_TABLESTYLE_CELLSTYLEMAP
360
142
  0
XRECORD
  5
147
102
{ACAD_REACTORS
330
146
102
}
330
146
100
AcDbXrecord
280
     1
102
DISPLAYNAME
  1
Imperial24
102
FLAGS
 90
        0
  0
XRECORD
  5
1C
102
{ACAD_REACTORS
330
1A
102
}
330
1A
100
AcDbXrecord
280
     1
270
     1
271
     1
  0
XRECORD
  5
1B
102
{ACAD_REACTORS
330
1A
102
}
330
1A
100
AcDbXrecord
280
     1
270
     1
271
     1
  0
XRECORD
  5
1F
102
{ACAD_REACTORS
330
1A
102
}
330
1A
100
AcDbXrecord
280
     1
270
     1
271
     1
  0
XRECORD
  5
1E
102
{ACAD_REACTORS
330
1A
102
}
330
1A
100
AcDbXrecord
280
     1
270
     1
271
     1
  0
XRECORD
  5
20
102
{ACAD_REACTORS
330
1A
102
}
330
1A
100
AcDbXrecord
280
     1
270
     1
271
     1
  0
XRECORD
  5
1D
102
{ACAD_REACTORS
330
1A
102
}
330
1A
100
AcDbXrecord
280
     1
270
     1
271
     1
  0
XRECORD
  5
14
102
{ACAD_REACTORS
330
12
102
}
330
12
100
AcDbXrecord
280
     1
270
     1
271
     1
  0
XRECORD
  5
13
102
{ACAD_REACTORS
330
12
102
}
330
12
100
AcDbXrecord
280
     1
270
     1
271
     1
  0
XRECORD
  5
17
102
{ACAD_REACTORS
330
12
102
}
330
12
100
AcDbXrecord
280
     1
270
     1
271
     1
  0
XRECORD
  5
16
102
{ACAD_REACTORS
330
12
102
}
330
12
100
AcDbXrecord
280
     1
270
     1
271
     1
  0
XRECORD
  5
18
102
{ACAD_REACTORS
330
12
102
}
330
12
100
AcDbXrecord
280
     1
270
     1
271
     1
  0
XRECORD
  5
15
102
{ACAD_REACTORS
330
12
102
}
330
12
100
AcDbXrecord
280
     1
270
     1
271
     1
  0
XRECORD
  5
24
102
{ACAD_REACTORS
330
22
102
}
330
22
100
AcDbXrecord
280
     1
270
     1
271
     1
  0
XRECORD
  5
23
102
{ACAD_REACTORS
330
22
102
}
330
22
100
AcDbXrecord
280
     1
270
     1
271
     1
  0
XRECORD
  5
27
102
{ACAD_REACTORS
330
22
102
}
330
22
100
AcDbXrecord
280
     1
270
     1
271
     1
  0
XRECORD
  5
26
102
{ACAD_REACTORS
330
22
102
}
330
22
100
AcDbXrecord
280
     1
270
     1
271
     1
  0
XRECORD
  5
28
102
{ACAD_REACTORS
330
22
102
}
330
22
100
AcDbXrecord
280
     1
270
     1
271
     1
  0
XRECORD
  5
25
102
{ACAD_REACTORS
330
22
102
}
330
22
100
AcDbXrecord
280
     1
270
     1
271
     1
  0
XRECORD
  5
145
102
{ACAD_REACTORS
330
144
102
}
330
144
100
AcDbXrecord
280
     1
102
DISPLAYNAME
  1
Imperial24
102
FLAGS
 90
        0
  0
CELLSTYLEMAP
  5
142
102
{ACAD_REACTORS
330
E3
102
}
330
E3
100
AcDbCellStyleMap
 90
        3
300
CELLSTYLE
  1
TABLEFORMAT_BEGIN
 90
        5
170
     1
 91
        0
 92
    32768
 62
   257
 93
        1
300
CONTENTFORMAT
  1
CONTENTFORMAT_BEGIN
 90
        0
 91
        0
 92
      512
 93
        0
300

 40
0.0
140
1.0
 94
        5
 62
     0
340
55
144
0.25
309
CONTENTFORMAT_END
171
     1
301
MARGIN
  1
CELLMARGIN_BEGIN
 40
0.06
 40
0.06
 40
0.06
 40
0.06
 40
0.18
 40
0.18
309
CELLMARGIN_END
 94
        6
 95
        1
302
GRIDFORMAT
  1
GRIDFORMAT_BEGIN
 90
        0
 91
        1
 62
     0
 92
       -2
340
0
 93
        0
 40
0.045
309
GRIDFORMAT_END
 95
        2
302
GRIDFORMAT
  1
GRIDFORMAT_BEGIN
 90
        0
 91
        1
 62
     0
 92
       -2
340
0
 93
        0
 40
0.045
309
GRIDFORMAT_END
 95
        4
302
GRIDFORMAT
  1
GRIDFORMAT_BEGIN
 90
        0
 91
        1
 62
     0
 92
       -2
340
0
 93
        0
 40
0.045
309
GRIDFORMAT_END
 95
        8
302
GRIDFORMAT
  1
GRIDFORMAT_BEGIN
 90
        0
 91
        1
 62
     0
 92
       -2
340
0
 93
        0
 40
0.045
309
GRIDFORMAT_END
 95
       16
302
GRIDFORMAT
  1
GRIDFORMAT_BEGIN
 90
        0
 91
        1
 62
     0
 92
       -2
340
0
 93
        0
 40
0.045
309
GRIDFORMAT_END
 95
       32
302
GRIDFORMAT
  1
GRIDFORMAT_BEGIN
 90
        0
 91
        1
 62
     0
 92
       -2
340
0
 93
        0
 40
0.045
309
GRIDFORMAT_END
309
TABLEFORMAT_END
  1
CELLSTYLE_BEGIN
 90
        1
 91
        1
300
_TITLE
309
CELLSTYLE_END
300
CELLSTYLE
  1
TABLEFORMAT_BEGIN
 90
        5
170
     1
 91
        0
 92
        0
 62
   257
 93
        1
300
CONTENTFORMAT
  1
CONTENTFORMAT_BEGIN
 90
        0
 91
        0
 92
      512
 93
        0
300

 40
0.0
140
1.0
 94
        5
 62
     0
340
55
144
0.18
309
CONTENTFORMAT_END
171
     1
301
MARGIN
  1
CELLMARGIN_BEGIN
 40
0.06
 40
0.06
 40
0.06
 40
0.06
 40
0.18
 40
0.18
309
CELLMARGIN_END
 94
        6
 95
        1
302
GRIDFORMAT
  1
GRIDFORMAT_BEGIN
 90
        0
 91
        1
 62
     0
 92
       -2
340
0
 93
        0
 40
0.045
309
GRIDFORMAT_END
 95
        2
302
GRIDFORMAT
  1
GRIDFORMAT_BEGIN
 90
        0
 91
        1
 62
     0
 92
       -2
340
0
 93
        0
 40
0.045
309
GRIDFORMAT_END
 95
        4
302
GRIDFORMAT
  1
GRIDFORMAT_BEGIN
 90
        0
 91
        1
 62
     0
 92
       -2
340
0
 93
        0
 40
0.045
309
GRIDFORMAT_END
 95
        8
302
GRIDFORMAT
  1
GRIDFORMAT_BEGIN
 90
        0
 91
        1
 62
     0
 92
       -2
340
0
 93
        0
 40
0.045
309
GRIDFORMAT_END
 95
       16
302
GRIDFORMAT
  1
GRIDFORMAT_BEGIN
 90
        0
 91
        1
 62
     0
 92
       -2
340
0
 93
        0
 40
0.045
309
GRIDFORMAT_END
 95
       32
302
GRIDFORMAT
  1
GRIDFORMAT_BEGIN
 90
        0
 91
        1
 62
     0
 92
       -2
340
0
 93
        0
 40
0.045
309
GRIDFORMAT_END
309
TABLEFORMAT_END
  1
CELLSTYLE_BEGIN
 90
        2
 91
        1
300
_HEADER
309
CELLSTYLE_END
300
CELLSTYLE
  1
TABLEFORMAT_BEGIN
 90
        5
170
     1
 91
        0
 92
        0
 62
   257
 93
        1
300
CONTENTFORMAT
  1
CONTENTFORMAT_BEGIN
 90
        0
 91
        0
 92
      512
 93
        0
300

 40
0.0
140
1.0
 94
        2
 62
     0
340
55
144
0.18
309
CONTENTFORMAT_END
171
     1
301
MARGIN
  1
CELLMARGIN_BEGIN
 40
0.06
 40
0.06
 40
0.06
 40
0.06
 40
0.18
 40
0.18
309
CELLMARGIN_END
 94
        6
 95
        1
302
GRIDFORMAT
  1
GRIDFORMAT_BEGIN
 90
        0
 91
        1
 62
     0
 92
       -2
340
0
 93
        0
 40
0.045
309
GRIDFORMAT_END
 95
        2
302
GRIDFORMAT
  1
GRIDFORMAT_BEGIN
 90
        0
 91
        1
 62
     0
 92
       -2
340
0
 93
        0
 40
0.045
309
GRIDFORMAT_END
 95
        4
302
GRIDFORMAT
  1
GRIDFORMAT_BEGIN
 90
        0
 91
        1
 62
     0
 92
       -2
340
0
 93
        0
 40
0.045
309
GRIDFORMAT_END
 95
        8
302
GRIDFORMAT
  1
GRIDFORMAT_BEGIN
 90
        0
 91
        1
 62
     0
 92
       -2
340
0
 93
        0
 40
0.045
309
GRIDFORMAT_END
 95
       16
302
GRIDFORMAT
  1
GRIDFORMAT_BEGIN
 90
        0
 91
        1
 62
     0
 92
       -2
340
0
 93
        0
 40
0.045
309
GRIDFORMAT_END
 95
       32
302
GRIDFORMAT
  1
GRIDFORMAT_BEGIN
 90
        0
 91
        1
 62
     0
 92
       -2
340
0
 93
        0
 40
0.045
309
GRIDFORMAT_END
309
TABLEFORMAT_END
  1
CELLSTYLE_BEGIN
 90
        3
 91
        2
300
_DATA
309
CELLSTYLE_END
  0
ENDSEC
  0
EOF
