  0
SECTION
  2
HEADER
  9
$ACADVER
  1
AC1027
  9
$ACADMAINTVER
 70
   125
  9
$DWGCODEPAGE
  3
ANSI_1252
  9
$LASTSAVEDBY
  1
ufficio.tecnico
  9
$REQUIREDVERSIONS
160
                 0
  9
$INSBASE
 10
0.0
 20
0.0
 30
0.0
  9
$EXTMIN
 10
6.179970922844688
 20
-17.6166680185993
 30
0.0
  9
$EXTMAX
 10
25.30153916468156
 20
-4.584897554409312
 30
0.0
  9
$LIMMIN
 10
0.0
 20
0.0
  9
$LIMMAX
 10
12.0
 20
9.0
  9
$ORTHOMODE
 70
     0
  9
$REGENMODE
 70
     1
  9
$FILLMODE
 70
     1
  9
$QTEXTMODE
 70
     0
  9
$MIRRTEXT
 70
     0
  9
$LTSCALE
 40
1.0
  9
$ATTMODE
 70
     1
  9
$TEXTSIZE
 40
0.2
  9
$TRACEWID
 40
0.05
  9
$TEXTSTYLE
  7
Standard
  9
$CLAYER
  8
0
  9
$CELTYPE
  6
ByLayer
  9
$CECOLOR
 62
   256
  9
$CELTSCALE
 40
1.0
  9
$DISPSILH
 70
     0
  9
$DIMSCALE
 40
1.0
  9
$DIMASZ
 40
0.18
  9
$DIMEXO
 40
0.0625
  9
$DIMDLI
 40
0.38
  9
$DIMRND
 40
0.0
  9
$DIMDLE
 40
0.0
  9
$DIMEXE
 40
0.18
  9
$DIMTP
 40
0.0
  9
$DIMTM
 40
0.0
  9
$DIMTXT
 40
0.18
  9
$DIMCEN
 40
0.09
  9
$DIMTSZ
 40
0.0
  9
$DIMTOL
 70
     0
  9
$DIMLIM
 70
     0
  9
$DIMTIH
 70
     1
  9
$DIMTOH
 70
     1
  9
$DIMSE1
 70
     0
  9
$DIMSE2
 70
     0
  9
$DIMTAD
 70
     0
  9
$DIMZIN
 70
     0
  9
$DIMBLK
  1

  9
$DIMASO
 70
     1
  9
$DIMSHO
 70
     1
  9
$DIMPOST
  1

  9
$DIMAPOST
  1

  9
$DIMALT
 70
     0
  9
$DIMALTD
 70
     2
  9
$DIMALTF
 40
25.4
  9
$DIMLFAC
 40
1.0
  9
$DIMTOFL
 70
     0
  9
$DIMTVP
 40
0.0
  9
$DIMTIX
 70
     0
  9
$DIMSOXD
 70
     0
  9
$DIMSAH
 70
     0
  9
$DIMBLK1
  1

  9
$DIMBLK2
  1

  9
$DIMSTYLE
  2
Standard
  9
$DIMCLRD
 70
     0
  9
$DIMCLRE
 70
     0
  9
$DIMCLRT
 70
     0
  9
$DIMTFAC
 40
1.0
  9
$DIMGAP
 40
0.09
  9
$DIMJUST
 70
     0
  9
$DIMSD1
 70
     0
  9
$DIMSD2
 70
     0
  9
$DIMTOLJ
 70
     1
  9
$DIMTZIN
 70
     0
  9
$DIMALTZ
 70
     0
  9
$DIMALTTZ
 70
     0
  9
$DIMUPT
 70
     0
  9
$DIMDEC
 70
     4
  9
$DIMTDEC
 70
     4
  9
$DIMALTU
 70
     2
  9
$DIMALTTD
 70
     2
  9
$DIMTXSTY
  7
Standard
  9
$DIMAUNIT
 70
     0
  9
$DIMADEC
 70
     0
  9
$DIMALTRND
 40
0.0
  9
$DIMAZIN
 70
     0
  9
$DIMDSEP
 70
    46
  9
$DIMATFIT
 70
     3
  9
$DIMFRAC
 70
     0
  9
$DIMLDRBLK
  1

  9
$DIMLUNIT
 70
     2
  9
$DIMLWD
 70
    -2
  9
$DIMLWE
 70
    -2
  9
$DIMTMOVE
 70
     0
  9
$DIMFXL
 40
1.0
  9
$DIMFXLON
 70
     0
  9
$DIMJOGANG
 40
0.7853981633974483
  9
$DIMTFILL
 70
     0
  9
$DIMTFILLCLR
 70
     0
  9
$DIMARCSYM
 70
     0
  9
$DIMLTYPE
  6

  9
$DIMLTEX1
  6

  9
$DIMLTEX2
  6

  9
$DIMTXTDIRECTION
 70
     0
  9
$LUNITS
 70
     2
  9
$LUPREC
 70
     4
  9
$SKETCHINC
 40
0.1
  9
$FILLETRAD
 40
0.0
  9
$AUNITS
 70
     0
  9
$AUPREC
 70
     0
  9
$MENU
  1
.
  9
$ELEVATION
 40
0.0
  9
$PELEVATION
 40
0.0
  9
$THICKNESS
 40
0.0
  9
$LIMCHECK
 70
     0
  9
$CHAMFERA
 40
0.0
  9
$CHAMFERB
 40
0.0
  9
$CHAMFERC
 40
0.0
  9
$CHAMFERD
 40
0.0
  9
$SKPOLY
 70
     0
  9
$TDCREATE
 40
2459328.431932870
  9
$TDUCREATE
 40
2459328.348599537
  9
$TDUPDATE
 40
2459341.389351852
  9
$TDUUPDATE
 40
2459341.306018519
  9
$TDINDWG
 40
0.0032175926
  9
$TDUSRTIMER
 40
0.0032175926
  9
$USRTIMER
 70
     1
  9
$ANGBASE
 50
0.0
  9
$ANGDIR
 70
     0
  9
$PDMODE
 70
     0
  9
$PDSIZE
 40
0.0
  9
$PLINEWID
 40
0.0
  9
$SPLFRAME
 70
     0
  9
$SPLINETYPE
 70
     6
  9
$SPLINESEGS
 70
     8
  9
$HANDSEED
  5
5C8
  9
$SURFTAB1
 70
     6
  9
$SURFTAB2
 70
     6
  9
$SURFTYPE
 70
     6
  9
$SURFU
 70
     6
  9
$SURFV
 70
     6
  9
$UCSBASE
  2

  9
$UCSNAME
  2

  9
$UCSORG
 10
0.0
 20
0.0
 30
0.0
  9
$UCSXDIR
 10
1.0
 20
0.0
 30
0.0
  9
$UCSYDIR
 10
0.0
 20
1.0
 30
0.0
  9
$UCSORTHOREF
  2

  9
$UCSORTHOVIEW
 70
     0
  9
$UCSORGTOP
 10
0.0
 20
0.0
 30
0.0
  9
$UCSORGBOTTOM
 10
0.0
 20
0.0
 30
0.0
  9
$UCSORGLEFT
 10
0.0
 20
0.0
 30
0.0
  9
$UCSORGRIGHT
 10
0.0
 20
0.0
 30
0.0
  9
$UCSORGFRONT
 10
0.0
 20
0.0
 30
0.0
  9
$UCSORGBACK
 10
0.0
 20
0.0
 30
0.0
  9
$PUCSBASE
  2

  9
$PUCSNAME
  2

  9
$PUCSORG
 10
0.0
 20
0.0
 30
0.0
  9
$PUCSXDIR
 10
1.0
 20
0.0
 30
0.0
  9
$PUCSYDIR
 10
0.0
 20
1.0
 30
0.0
  9
$PUCSORTHOREF
  2

  9
$PUCSORTHOVIEW
 70
     0
  9
$PUCSORGTOP
 10
0.0
 20
0.0
 30
0.0
  9
$PUCSORGBOTTOM
 10
0.0
 20
0.0
 30
0.0
  9
$PUCSORGLEFT
 10
0.0
 20
0.0
 30
0.0
  9
$PUCSORGRIGHT
 10
0.0
 20
0.0
 30
0.0
  9
$PUCSORGFRONT
 10
0.0
 20
0.0
 30
0.0
  9
$PUCSORGBACK
 10
0.0
 20
0.0
 30
0.0
  9
$USERI1
 70
     0
  9
$USERI2
 70
     0
  9
$USERI3
 70
     0
  9
$USERI4
 70
     0
  9
$USERI5
 70
     0
  9
$USERR1
 40
0.0
  9
$USERR2
 40
0.0
  9
$USERR3
 40
0.0
  9
$USERR4
 40
0.0
  9
$USERR5
 40
0.0
  9
$WORLDVIEW
 70
     1
  9
$SHADEDGE
 70
     3
  9
$SHADEDIF
 70
    70
  9
$TILEMODE
 70
     1
  9
$MAXACTVP
 70
    64
  9
$PINSBASE
 10
0.0
 20
0.0
 30
0.0
  9
$PLIMCHECK
 70
     0
  9
$PEXTMIN
 10
1.000000000000000E+20
 20
1.000000000000000E+20
 30
1.000000000000000E+20
  9
$PEXTMAX
 10
-1.000000000000000E+20
 20
-1.000000000000000E+20
 30
-1.000000000000000E+20
  9
$PLIMMIN
 10
0.0
 20
0.0
  9
$PLIMMAX
 10
12.0
 20
9.0
  9
$UNITMODE
 70
     0
  9
$VISRETAIN
 70
     1
  9
$PLINEGEN
 70
     0
  9
$PSLTSCALE
 70
     1
  9
$TREEDEPTH
 70
  3020
  9
$CMLSTYLE
  2
Standard
  9
$CMLJUST
 70
     0
  9
$CMLSCALE
 40
1.0
  9
$PROXYGRAPHICS
 70
     1
  9
$MEASUREMENT
 70
     0
  9
$CELWEIGHT
370
    -1
  9
$ENDCAPS
280
     0
  9
$JOINSTYLE
280
     0
  9
$LWDISPLAY
290
     1
  9
$INSUNITS
 70
     5
  9
$HYPERLINKBASE
  1

  9
$STYLESHEET
  1

  9
$XEDIT
290
     1
  9
$CEPSNTYPE
380
     0
  9
$PSTYLEMODE
290
     1
  9
$FINGERPRINTGUID
  2
{DB6A08B1-8825-3C4A-A80C-4CD52FAED8A9}
  9
$VERSIONGUID
  2
{07CB4442-2D1E-7C41-BEBB-B0F1F0F61025}
  9
$EXTNAMES
290
     1
  9
$PSVPSCALE
 40
0.0
  9
$OLESTARTUP
290
     0
  9
$SORTENTS
280
   127
  9
$INDEXCTL
280
     0
  9
$HIDETEXT
280
     1
  9
$XCLIPFRAME
280
     2
  9
$HALOGAP
280
     0
  9
$OBSCOLOR
 70
   257
  9
$OBSLTYPE
280
     0
  9
$INTERSECTIONDISPLAY
280
     0
  9
$INTERSECTIONCOLOR
 70
   257
  9
$DIMASSOC
280
     2
  9
$PROJECTNAME
  1

  9
$CAMERADISPLAY
290
     0
  9
$LENSLENGTH
 40
50.0
  9
$CAMERAHEIGHT
 40
0.0
  9
$STEPSPERSEC
 40
2.0
  9
$STEPSIZE
 40
6.0
  9
$3DDWFPREC
 40
2.0
  9
$PSOLWIDTH
 40
0.25
  9
$PSOLHEIGHT
 40
4.0
  9
$LOFTANG1
 40
1.570796326794896
  9
$LOFTANG2
 40
1.570796326794896
  9
$LOFTMAG1
 40
0.0
  9
$LOFTMAG2
 40
0.0
  9
$LOFTPARAM
 70
     7
  9
$LOFTNORMALS
280
     1
  9
$LATITUDE
 40
37.795
  9
$LONGITUDE
 40
-122.394
  9
$NORTHDIRECTION
 40
0.0
  9
$TIMEZONE
 70
 -8000
  9
$LIGHTGLYPHDISPLAY
280
     1
  9
$TILEMODELIGHTSYNCH
280
     1
  9
$CMATERIAL
347
11
  9
$SOLIDHIST
280
     0
  9
$SHOWHIST
280
     1
  9
$DWFFRAME
280
     2
  9
$DGNFRAME
280
     0
  9
$REALWORLDSCALE
290
     1
  9
$INTERFERECOLOR
 62
     1
  9
$INTERFEREOBJVS
345
33
  9
$INTERFEREVPVS
346
30
  9
$CSHADOW
280
     0
  9
$SHADOWPLANELOCATION
 40
0.0
  0
ENDSEC
  0
SECTION
  2
CLASSES
  0
CLASS
  1
ACDBDICTIONARYWDFLT
  2
AcDbDictionaryWithDefault
  3
ObjectDBX Classes
 90
        0
 91
        1
280
     0
281
     0
  0
CLASS
  1
MATERIAL
  2
AcDbMaterial
  3
ObjectDBX Classes
 90
     1153
 91
        3
280
     0
281
     0
  0
CLASS
  1
VISUALSTYLE
  2
AcDbVisualStyle
  3
ObjectDBX Classes
 90
     4095
 91
       24
280
     0
281
     0
  0
CLASS
  1
SCALE
  2
AcDbScale
  3
ObjectDBX Classes
 90
     1153
 91
       17
280
     0
281
     0
  0
CLASS
  1
TABLESTYLE
  2
AcDbTableStyle
  3
ObjectDBX Classes
 90
     4095
 91
        1
280
     0
281
     0
  0
CLASS
  1
MLEADERSTYLE
  2
AcDbMLeaderStyle
  3
ACDB_MLEADERSTYLE_CLASS
 90
     4095
 91
        1
280
     0
281
     0
  0
CLASS
  1
ACDBSECTIONVIEWSTYLE
  2
AcDbSectionViewStyle
  3
ObjectDBX Classes
 90
     1025
 91
        1
280
     0
281
     0
  0
CLASS
  1
ACDBDETAILVIEWSTYLE
  2
AcDbDetailViewStyle
  3
ObjectDBX Classes
 90
     1025
 91
        1
280
     0
281
     0
  0
CLASS
  1
DICTIONARYVAR
  2
AcDbDictionaryVar
  3
ObjectDBX Classes
 90
        0
 91
        5
280
     0
281
     0
  0
CLASS
  1
CELLSTYLEMAP
  2
AcDbCellStyleMap
  3
ObjectDBX Classes
 90
     1152
 91
        3
280
     0
281
     0
  0
CLASS
  1
SORTENTSTABLE
  2
AcDbSortentsTable
  3
ObjectDBX Classes
 90
        0
 91
        1
280
     0
281
     0
  0
ENDSEC
  0
SECTION
  2
TABLES
  0
TABLE
  2
VPORT
  5
8
330
0
100
AcDbSymbolTable
 70
     1
1001
ACAD
1000
DbSaveVer
1071
      105
  0
VPORT
  5
57
330
8
100
AcDbSymbolTableRecord
100
AcDbViewportTableRecord
  2
*Active
 70
     0
 10
0.0
 20
0.0
 11
1.0
 21
1.0
 12
-0.8330404769046069
 22
-2.316287912027128
 13
0.0
 23
0.0
 14
1.0
 24
1.0
 15
0.0
 25
0.0
 16
0.0
 26
0.0
 36
1.0
 17
14.84999673225613
 27
-10.50008306681943
 37
0.0
 40
34.39871773495836
 41
1.931468531468531
 42
50.0
 43
0.0
 44
0.0
 50
0.0
 51
0.0
 71
     0
 72
   100
 73
     1
 74
     0
 75
     1
 76
     0
 77
     0
 78
     0
281
     0
 65
     1
110
0.0
120
0.0
130
0.0
111
1.0
121
0.0
131
0.0
112
0.0
122
1.0
132
0.0
 79
     0
146
0.0
348
2F
 60
     3
 61
     5
292
     1
282
     1
141
0.0
142
0.0
 63
   250
421
  3355443
1001
ACAD_NAV_VCDISPLAY
1070
     3
  0
ENDTAB
  0
TABLE
  2
LTYPE
  5
5
330
0
100
AcDbSymbolTable
 70
     1
  0
LTYPE
  5
5B
330
5
100
AcDbSymbolTableRecord
100
AcDbLinetypeTableRecord
  2
ByBlock
 70
     0
  3

 72
    65
 73
     0
 40
0.0
  0
LTYPE
  5
5C
330
5
100
AcDbSymbolTableRecord
100
AcDbLinetypeTableRecord
  2
ByLayer
 70
     0
  3

 72
    65
 73
     0
 40
0.0
  0
LTYPE
  5
5D
330
5
100
AcDbSymbolTableRecord
100
AcDbLinetypeTableRecord
  2
Continuous
 70
     0
  3
Solid line
 72
    65
 73
     0
 40
0.0
  0
ENDTAB
  0
TABLE
  2
LAYER
  5
2
330
0
100
AcDbSymbolTable
 70
     2
  0
LAYER
  5
54
330
2
100
AcDbSymbolTableRecord
100
AcDbLayerTableRecord
  2
0
 70
     0
 62
     7
  6
Continuous
370
    -3
390
F
347
21
348
0
  0
LAYER
  5
78
330
2
100
AcDbSymbolTableRecord
100
AcDbLayerTableRecord
  2
Livello 3
 70
     0
 62
     7
  6
Continuous
370
     0
390
F
347
21
348
0
  0
ENDTAB
  0
TABLE
  2
STYLE
  5
3
330
0
100
AcDbSymbolTable
 70
     2
  0
STYLE
  5
55
330
3
100
AcDbSymbolTableRecord
100
AcDbTextStyleTableRecord
  2
Standard
 70
     0
 40
0.0
 41
1.0
 50
0.0
 71
     0
 42
0.2
  3
txt
  4

  0
STYLE
  5
5A
330
3
100
AcDbSymbolTableRecord
100
AcDbTextStyleTableRecord
  2
Annotative
 70
     0
 40
0.0
 41
1.0
 50
0.0
 71
     0
 42
0.2
  3
txt
  4

1001
AcadAnnotative
1000
AnnotativeData
1002
{
1070
     1
1070
     1
1002
}
  0
ENDTAB
  0
TABLE
  2
VIEW
  5
6
330
0
100
AcDbSymbolTable
 70
     0
  0
ENDTAB
  0
TABLE
  2
UCS
  5
7
330
0
100
AcDbSymbolTable
 70
     0
  0
ENDTAB
  0
TABLE
  2
APPID
  5
9
330
0
100
AcDbSymbolTable
 70
     3
  0
APPID
  5
56
330
9
100
AcDbSymbolTableRecord
100
AcDbRegAppTableRecord
  2
ACAD
 70
     0
  0
APPID
  5
5E
330
9
100
AcDbSymbolTableRecord
100
AcDbRegAppTableRecord
  2
AcadAnnotative
 70
     0
  0
APPID
  5
59C
330
9
100
AcDbSymbolTableRecord
100
AcDbRegAppTableRecord
  2
ACAD_NAV_VCDISPLAY
 70
     0
  0
ENDTAB
  0
TABLE
  2
DIMSTYLE
  5
A
330
0
100
AcDbSymbolTable
 70
     2
100
AcDbDimStyleTable
 71
     0
  0
DIMSTYLE
105
58
330
A
100
AcDbSymbolTableRecord
100
AcDbDimStyleTableRecord
  2
Standard
 70
     0
340
55
  0
DIMSTYLE
105
59
330
A
100
AcDbSymbolTableRecord
100
AcDbDimStyleTableRecord
  2
Annotative
 70
     0
340
55
1001
AcadAnnotative
1000
AnnotativeData
1002
{
1070
     1
1070
     1
1002
}
  0
ENDTAB
  0
TABLE
  2
BLOCK_RECORD
  5
1
330
0
100
AcDbSymbolTable
 70
     9
  0
BLOCK_RECORD
  5
70
102
{ACAD_XDICTIONARY
360
59D
102
}
330
1
100
AcDbSymbolTableRecord
100
AcDbBlockTableRecord
  2
*Model_Space
340
73
 70
     0
280
     1
281
     0
  0
BLOCK_RECORD
  5
6C
330
1
100
AcDbSymbolTableRecord
100
AcDbBlockTableRecord
  2
*Paper_Space
340
6F
 70
     0
280
     1
281
     0
  0
BLOCK_RECORD
  5
74
330
1
100
AcDbSymbolTableRecord
100
AcDbBlockTableRecord
  2
*Paper_Space0
340
77
 70
     0
280
     1
281
     0
  0
BLOCK_RECORD
  5
51F
330
1
100
AcDbSymbolTableRecord
100
AcDbBlockTableRecord
  2
Block_0
340
0
 70
     0
280
     1
281
     0
  0
BLOCK_RECORD
  5
523
330
1
100
AcDbSymbolTableRecord
100
AcDbBlockTableRecord
  2
Block_1
340
0
102
{BLKREFS
331
524
102
}
 70
     0
280
     1
281
     0
  0
BLOCK_RECORD
  5
52F
330
1
100
AcDbSymbolTableRecord
100
AcDbBlockTableRecord
  2
Block_2
340
0
 70
     0
280
     1
281
     0
  0
BLOCK_RECORD
  5
533
330
1
100
AcDbSymbolTableRecord
100
AcDbBlockTableRecord
  2
Block_3
340
0
102
{BLKREFS
331
534
102
}
 70
     0
280
     1
281
     0
  0
BLOCK_RECORD
  5
53C
330
1
100
AcDbSymbolTableRecord
100
AcDbBlockTableRecord
  2
Block_4
340
0
 70
     0
280
     1
281
     0
  0
BLOCK_RECORD
  5
540
330
1
100
AcDbSymbolTableRecord
100
AcDbBlockTableRecord
  2
Block_5
340
0
102
{BLKREFS
331
541
102
}
 70
     0
280
     1
281
     0
  0
BLOCK_RECORD
  5
54B
330
1
100
AcDbSymbolTableRecord
100
AcDbBlockTableRecord
  2
Block_6
340
0
 70
     0
280
     1
281
     0
  0
BLOCK_RECORD
  5
54F
330
1
100
AcDbSymbolTableRecord
100
AcDbBlockTableRecord
  2
Block_7
340
0
102
{BLKREFS
331
550
102
}
 70
     0
280
     1
281
     0
  0
ENDTAB
  0
ENDSEC
  0
SECTION
  2
BLOCKS
  0
BLOCK
  5
71
330
70
100
AcDbEntity
  8
0
100
AcDbBlockBegin
  2
*Model_Space
 70
     0
 10
0.0
 20
0.0
 30
0.0
  3
*Model_Space
  1

  0
ENDBLK
  5
72
330
70
100
AcDbEntity
  8
0
100
AcDbBlockEnd
  0
BLOCK
  5
6D
330
6C
100
AcDbEntity
 67
     1
  8
0
100
AcDbBlockBegin
  2
*Paper_Space
 70
     0
 10
0.0
 20
0.0
 30
0.0
  3
*Paper_Space
  1

  0
ENDBLK
  5
6E
330
6C
100
AcDbEntity
 67
     1
  8
0
100
AcDbBlockEnd
  0
BLOCK
  5
75
330
74
100
AcDbEntity
 67
     1
  8
0
100
AcDbBlockBegin
  2
*Paper_Space0
 70
     0
 10
0.0
 20
0.0
 30
0.0
  3
*Paper_Space0
  1

  0
ENDBLK
  5
76
330
74
100
AcDbEntity
 67
     1
  8
0
100
AcDbBlockEnd
  0
BLOCK
  5
521
330
51F
100
AcDbEntity
  8
0
100
AcDbBlockBegin
  2
Block_0
 70
     0
 10
0.0
 20
0.0
 30
0.0
  3
Block_0
  1

  0
INSERT
  5
524
330
51F
100
AcDbEntity
  8
Livello 3
100
AcDbBlockReference
  2
Block_1
 10
0.0
 20
0.0
 30
0.0
  0
ENDBLK
  5
522
330
51F
100
AcDbEntity
  8
0
100
AcDbBlockEnd
  0
BLOCK
  5
525
330
523
100
AcDbEntity
  8
0
100
AcDbBlockBegin
  2
Block_1
 70
     0
 10
0.0
 20
0.0
 30
0.0
  3
Block_1
  1

  0
SPLINE
  5
527
330
523
100
AcDbEntity
  8
Livello 3
100
AcDbSpline
210
0.0
220
0.0
230
1.0
 70
    11
 71
     3
 72
    20
 73
    16
 74
     0
 42
0.000000001
 43
0.0000000001
 40
0.0
 40
0.0
 40
0.0
 40
0.0
 40
1.0
 40
1.0
 40
1.0
 40
2.0
 40
2.0
 40
2.0
 40
3.0
 40
3.0
 40
3.0
 40
4.0
 40
4.0
 40
4.0
 40
5.0
 40
5.0
 40
5.0
 40
5.0
 10
13.54756238810616
 20
-8.907225475203746
 30
0.0
 10
13.54756238810616
 20
-8.789127601969383
 30
0.0
 10
13.48026244780181
 20
-8.718020831153825
 30
0.0
 10
13.37740912208967
 20
-8.718020831153825
 30
0.0
 10
13.31010918178532
 20
-8.718020831153825
 30
0.0
 10
13.24787353184428
 20
-8.759930417731892
 30
0.0
 10
13.21740166227724
 20
-8.819599471536418
 30
0.0
 10
13.20978800125484
 20
-8.832294648399564
 30
0.0
 10
13.2047064854141
 20
-8.848813881251338
 30
0.0
 10
13.2047064854141
 20
-8.869122719136884
 30
0.0
 10
13.20723863059576
 20
-9.004997285075136
 30
0.0
 10
13.2694742805368
 20
-9.105318465605613
 30
0.0
 10
13.38629746844162
 20
-9.105318465605613
 30
0.0
 10
13.48279459298346
 20
-9.105318465605613
 30
0.0
 10
13.54756238810616
 20
-9.025323348438112
 30
0.0
 10
13.54756238810616
 20
-8.907225475203746
 30
0.0
  0
SPLINE
  5
528
330
523
100
AcDbEntity
  8
Livello 3
100
AcDbSpline
210
0.0
220
0.0
230
1.0
 70
     9
 71
     3
 72
    38
 73
    34
 74
     0
 42
0.000000001
 43
0.0000000001
 40
0.0
 40
0.0
 40
0.0
 40
0.0
 40
1.0
 40
1.0
 40
1.0
 40
2.0
 40
2.0
 40
2.0
 40
3.0
 40
3.0
 40
3.0
 40
4.0
 40
4.0
 40
4.0
 40
5.0
 40
5.0
 40
5.0
 40
6.0
 40
6.0
 40
6.0
 40
7.0
 40
7.0
 40
7.0
 40
8.0
 40
8.0
 40
8.0
 40
9.0
 40
9.0
 40
9.0
 40
10.0
 40
10.0
 40
10.0
 40
11.0
 40
11.0
 40
11.0
 40
11.0
 10
13.57930894300274
 20
-8.43102715175509
 30
0.0
 10
13.55645073445811
 20
-8.429769691902974
 30
0.0
 10
13.52725355022061
 20
-8.43102715175509
 30
0.0
 10
13.49550699532404
 20
-8.436108667595831
 30
0.0
 10
13.32025498798938
 20
-8.465323077310751
 30
0.0
 10
13.22756469395873
 20
-8.593566756749176
 30
0.0
 10
13.2085133159253
 20
-8.729441322687428
 30
0.0
 10
13.2085133159253
 20
-8.729441322687428
 30
0.0
 10
13.2123201464365
 20
-8.729441322687428
 30
0.0
 10
13.2123201464365
 20
-8.729441322687428
 30
0.0
 10
13.25169758783291
 20
-8.677385929905305
 30
0.0
 10
13.32025498798938
 20
-8.634201657997698
 30
0.0
 10
13.41168782216791
 20
-8.634201657997698
 30
0.0
 10
13.55772541978765
 20
-8.634201657997698
 30
0.0
 10
13.66057874549978
 20
-8.739604354368918
 30
0.0
 10
13.66057874549978
 20
-8.900869274033462
 30
0.0
 10
13.66057874549978
 20
-9.051988387493942
 30
0.0
 10
13.55772541978765
 20
-9.1916697839434
 30
0.0
 10
13.38629746844162
 20
-9.1916697839434
 30
0.0
 10
13.20978800125484
 20
-9.1916697839434
 30
0.0
 10
13.09422227320214
 20
-9.054520532675603
 30
0.0
 10
13.09422227320214
 20
-8.839925534899391
 30
0.0
 10
13.09422227320214
 20
-8.677385929905305
 30
0.0
 10
13.15263386715455
 20
-8.549125024989454
 30
0.0
 10
13.23390366965159
 20
-8.46785522249241
 30
0.0
 10
13.30247829528549
 20
-8.400555282188053
 30
0.0
 10
13.39391112946402
 20
-8.35864569560999
 30
0.0
 10
13.4980391405057
 20
-8.345950518746843
 30
0.0
 10
13.53106038073182
 20
-8.340869002906101
 30
0.0
 10
13.55898287963977
 20
-8.339611543053985
 30
0.0
 10
13.57930894300274
 20
-8.339611543053985
 30
0.0
 10
13.57930894300274
 20
-8.339611543053985
 30
0.0
 10
13.57930894300274
 20
-8.43102715175509
 30
0.0
 10
13.57930894300274
 20
-8.43102715175509
 30
0.0
  0
HATCH
  5
529
330
523
100
AcDbEntity
  8
Livello 3
 62
   250
420
  1907995
440
 33554687
100
AcDbHatch
 10
0.0
 20
0.0
 30
0.0
210
0.0
220
0.0
230
1.0
  2
SOLID
 70
     1
 71
     1
 91
        2
 92
        1
 93
        1
 72
     4
 94
        3
 73
     0
 74
     0
 95
       20
 96
       16
 40
0.0
 40
0.0
 40
0.0
 40
0.0
 40
1.0
 40
1.0
 40
1.0
 40
2.0
 40
2.0
 40
2.0
 40
3.0
 40
3.0
 40
3.0
 40
4.0
 40
4.0
 40
4.0
 40
5.0
 40
5.0
 40
5.0
 40
5.0
 10
13.54756238810616
 20
-8.907225475203746
 10
13.54756238810616
 20
-8.789127601969383
 10
13.48026244780181
 20
-8.718020831153825
 10
13.37740912208967
 20
-8.718020831153825
 10
13.31010918178532
 20
-8.718020831153825
 10
13.24787353184428
 20
-8.759930417731892
 10
13.21740166227724
 20
-8.819599471536418
 10
13.20978800125484
 20
-8.832294648399564
 10
13.2047064854141
 20
-8.848813881251338
 10
13.2047064854141
 20
-8.869122719136884
 10
13.20723863059576
 20
-9.004997285075136
 10
13.2694742805368
 20
-9.105318465605613
 10
13.38629746844162
 20
-9.105318465605613
 10
13.48279459298346
 20
-9.105318465605613
 10
13.54756238810616
 20
-9.025323348438112
 10
13.54756238810616
 20
-8.907225475203746
 97
        0
 97
        1
330
527
 92
        1
 93
        1
 72
     4
 94
        3
 73
     0
 74
     0
 95
       38
 96
       34
 40
0.0
 40
0.0
 40
0.0
 40
0.0
 40
1.0
 40
1.0
 40
1.0
 40
2.0
 40
2.0
 40
2.0
 40
3.0
 40
3.0
 40
3.0
 40
4.0
 40
4.0
 40
4.0
 40
5.0
 40
5.0
 40
5.0
 40
6.0
 40
6.0
 40
6.0
 40
7.0
 40
7.0
 40
7.0
 40
8.0
 40
8.0
 40
8.0
 40
9.0
 40
9.0
 40
9.0
 40
10.0
 40
10.0
 40
10.0
 40
11.0
 40
11.0
 40
11.0
 40
11.0
 10
13.57930894300274
 20
-8.43102715175509
 10
13.55645073445811
 20
-8.429769691902974
 10
13.52725355022061
 20
-8.43102715175509
 10
13.49550699532404
 20
-8.436108667595831
 10
13.32025498798938
 20
-8.465323077310751
 10
13.22756469395873
 20
-8.593566756749176
 10
13.2085133159253
 20
-8.729441322687428
 10
13.2085133159253
 20
-8.729441322687428
 10
13.2123201464365
 20
-8.729441322687428
 10
13.2123201464365
 20
-8.729441322687428
 10
13.25169758783291
 20
-8.677385929905305
 10
13.32025498798938
 20
-8.634201657997698
 10
13.41168782216791
 20
-8.634201657997698
 10
13.55772541978765
 20
-8.634201657997698
 10
13.66057874549978
 20
-8.739604354368918
 10
13.66057874549978
 20
-8.900869274033462
 10
13.66057874549978
 20
-9.051988387493942
 10
13.55772541978765
 20
-9.1916697839434
 10
13.38629746844162
 20
-9.1916697839434
 10
13.20978800125484
 20
-9.1916697839434
 10
13.09422227320214
 20
-9.054520532675603
 10
13.09422227320214
 20
-8.839925534899391
 10
13.09422227320214
 20
-8.677385929905305
 10
13.15263386715455
 20
-8.549125024989454
 10
13.23390366965159
 20
-8.46785522249241
 10
13.30247829528549
 20
-8.400555282188053
 10
13.39391112946402
 20
-8.35864569560999
 10
13.4980391405057
 20
-8.345950518746843
 10
13.53106038073182
 20
-8.340869002906101
 10
13.55898287963977
 20
-8.339611543053985
 10
13.57930894300274
 20
-8.339611543053985
 10
13.57930894300274
 20
-8.339611543053985
 10
13.57930894300274
 20
-8.43102715175509
 10
13.57930894300274
 20
-8.43102715175509
 97
        0
 97
        1
330
528
 75
     2
 76
     1
 98
        1
 10
0.0
 20
0.0
450
        0
451
        0
460
0.0
461
0.0
452
        0
462
0.0
453
        0
470

  0
SPLINE
  5
52A
330
523
100
AcDbEntity
  8
Livello 3
100
AcDbSpline
210
0.0
220
0.0
230
1.0
 70
     9
 71
     3
 72
    17
 73
    13
 74
     0
 42
0.000000001
 43
0.0000000001
 40
0.0
 40
0.0
 40
0.0
 40
0.0
 40
1.0
 40
1.0
 40
1.0
 40
2.0
 40
2.0
 40
2.0
 40
3.0
 40
3.0
 40
3.0
 40
4.0
 40
4.0
 40
4.0
 40
4.0
 10
13.85999809766347
 20
-8.768818764083835
 30
0.0
 10
13.85999809766347
 20
-8.983413761860049
 30
0.0
 10
13.92602335263828
 20
-9.105318465605613
 30
0.0
 10
14.0276192184983
 20
-9.105318465605613
 30
0.0
 10
14.14191026122146
 20
-9.105318465605613
 30
0.0
 10
14.19651502466267
 20
-8.971993270326445
 30
0.0
 10
14.19651502466267
 20
-8.761187877584008
 30
0.0
 10
14.19651502466267
 20
-8.558013371341399
 30
0.0
 10
14.14444240640312
 20
-8.424688176062229
 30
0.0
 10
14.02889390382784
 20
-8.424688176062229
 30
0.0
 10
13.93110486847903
 20
-8.424688176062229
 30
0.0
 10
13.85999809766347
 20
-8.544043509148711
 30
0.0
 10
13.85999809766347
 20
-8.768818764083835
 30
0.0
  0
SPLINE
  5
52B
330
523
100
AcDbEntity
  8
Livello 3
100
AcDbSpline
210
0.0
220
0.0
230
1.0
 70
     9
 71
     3
 72
    17
 73
    13
 74
     0
 42
0.000000001
 43
0.0000000001
 40
0.0
 40
0.0
 40
0.0
 40
0.0
 40
1.0
 40
1.0
 40
1.0
 40
2.0
 40
2.0
 40
2.0
 40
3.0
 40
3.0
 40
3.0
 40
4.0
 40
4.0
 40
4.0
 40
4.0
 10
14.30825669672675
 20
-8.756106361743263
 30
0.0
 10
14.30825669672675
 20
-9.036743839971716
 30
0.0
 10
14.20412868568508
 20
-9.1916697839434
 30
0.0
 10
14.02126301732801
 20
-9.1916697839434
 30
0.0
 10
13.85999809766347
 20
-9.1916697839434
 30
0.0
 10
13.75078857078105
 20
-9.040550670482915
 30
0.0
 10
13.74825642559939
 20
-8.767544078754294
 30
0.0
 10
13.74825642559939
 20
-8.490713431037043
 30
0.0
 10
13.86761175868587
 20
-8.338336857724442
 30
0.0
 10
14.0352328795207
 20
-8.338336857724442
 30
0.0
 10
14.20921020152582
 20
-8.338336857724442
 30
0.0
 10
14.30825669672675
 20
-8.493262801696127
 30
0.0
 10
14.30825669672675
 20
-8.756106361743263
 30
0.0
  0
HATCH
  5
52C
330
523
100
AcDbEntity
  8
Livello 3
 62
   250
420
  1907995
440
 33554687
100
AcDbHatch
 10
0.0
 20
0.0
 30
0.0
210
0.0
220
0.0
230
1.0
  2
SOLID
 70
     1
 71
     1
 91
        2
 92
        1
 93
        1
 72
     4
 94
        3
 73
     0
 74
     0
 95
       17
 96
       13
 40
0.0
 40
0.0
 40
0.0
 40
0.0
 40
1.0
 40
1.0
 40
1.0
 40
2.0
 40
2.0
 40
2.0
 40
3.0
 40
3.0
 40
3.0
 40
4.0
 40
4.0
 40
4.0
 40
4.0
 10
13.85999809766347
 20
-8.768818764083835
 10
13.85999809766347
 20
-8.983413761860049
 10
13.92602335263828
 20
-9.105318465605613
 10
14.0276192184983
 20
-9.105318465605613
 10
14.14191026122146
 20
-9.105318465605613
 10
14.19651502466267
 20
-8.971993270326445
 10
14.19651502466267
 20
-8.761187877584008
 10
14.19651502466267
 20
-8.558013371341399
 10
14.14444240640312
 20
-8.424688176062229
 10
14.02889390382784
 20
-8.424688176062229
 10
13.93110486847903
 20
-8.424688176062229
 10
13.85999809766347
 20
-8.544043509148711
 10
13.85999809766347
 20
-8.768818764083835
 97
        0
 97
        1
330
52A
 92
        1
 93
        1
 72
     4
 94
        3
 73
     0
 74
     0
 95
       17
 96
       13
 40
0.0
 40
0.0
 40
0.0
 40
0.0
 40
1.0
 40
1.0
 40
1.0
 40
2.0
 40
2.0
 40
2.0
 40
3.0
 40
3.0
 40
3.0
 40
4.0
 40
4.0
 40
4.0
 40
4.0
 10
14.30825669672675
 20
-8.756106361743263
 10
14.30825669672675
 20
-9.036743839971716
 10
14.20412868568508
 20
-9.1916697839434
 10
14.02126301732801
 20
-9.1916697839434
 10
13.85999809766347
 20
-9.1916697839434
 10
13.75078857078105
 20
-9.040550670482915
 10
13.74825642559939
 20
-8.767544078754294
 10
13.74825642559939
 20
-8.490713431037043
 10
13.86761175868587
 20
-8.338336857724442
 10
14.0352328795207
 20
-8.338336857724442
 10
14.20921020152582
 20
-8.338336857724442
 10
14.30825669672675
 20
-8.493262801696127
 10
14.30825669672675
 20
-8.756106361743263
 97
        0
 97
        1
330
52B
 75
     2
 76
     1
 98
        1
 10
0.0
 20
0.0
450
        0
451
        0
460
0.0
461
0.0
452
        0
462
0.0
453
        0
470

  0
SPLINE
  5
52D
330
523
100
AcDbEntity
  8
Livello 3
100
AcDbSpline
210
0.0
220
0.0
230
1.0
 70
    11
 71
     3
 72
    50
 73
    46
 74
     0
 42
0.000000001
 43
0.0000000001
 40
0.0
 40
0.0
 40
0.0
 40
0.0
 40
1.0
 40
1.0
 40
1.0
 40
2.0
 40
2.0
 40
2.0
 40
3.0
 40
3.0
 40
3.0
 40
4.0
 40
4.0
 40
4.0
 40
5.0
 40
5.0
 40
5.0
 40
6.0
 40
6.0
 40
6.0
 40
7.0
 40
7.0
 40
7.0
 40
8.0
 40
8.0
 40
8.0
 40
9.0
 40
9.0
 40
9.0
 40
10.0
 40
10.0
 40
10.0
 40
11.0
 40
11.0
 40
11.0
 40
12.0
 40
12.0
 40
12.0
 40
13.0
 40
13.0
 40
13.0
 40
14.0
 40
14.0
 40
14.0
 40
15.0
 40
15.0
 40
15.0
 40
15.0
 10
14.90386202969417
 20
-8.446271699277318
 30
0.0
 10
14.90386202969417
 20
-8.446271699277318
 30
0.0
 10
14.58894585138748
 20
-8.446271699277318
 30
0.0
 10
14.58894585138748
 20
-8.446271699277318
 30
0.0
 10
14.58894585138748
 20
-8.446271699277318
 30
0.0
 10
14.55719929649091
 20
-8.658334551871874
 30
0.0
 10
14.55719929649091
 20
-8.658334551871874
 30
0.0
 10
14.57625067452434
 20
-8.655802406690215
 30
0.0
 10
14.59402736722823
 20
-8.653253036031131
 30
0.0
 10
14.62449923679526
 20
-8.653253036031131
 30
0.0
 10
14.68799234658842
 20
-8.653253036031131
 30
0.0
 10
14.75148545638157
 20
-8.667222898223817
 30
0.0
 10
14.80228338931158
 20
-8.697694767790853
 30
0.0
 10
14.86703395895685
 20
-8.734522838528175
 30
0.0
 10
14.92039848802337
 20
-8.80562960934373
 30
0.0
 10
14.92039848802337
 20
-8.909757620385407
 30
0.0
 10
14.92039848802337
 20
-9.07103976552738
 30
0.0
 10
14.79212035763009
 20
-9.1916697839434
 30
0.0
 10
14.61307874526166
 20
-9.1916697839434
 30
0.0
 10
14.52292059641267
 20
-9.1916697839434
 30
0.0
 10
14.44671508427894
 20
-9.166279430217107
 30
0.0
 10
14.40735486835996
 20
-9.140871851013391
 30
0.0
 10
14.40735486835996
 20
-9.140871851013391
 30
0.0
 10
14.43529459274534
 20
-9.055795218005147
 30
0.0
 10
14.43529459274534
 20
-9.055795218005147
 30
0.0
 10
14.46957329282358
 20
-9.076104055890695
 30
0.0
 10
14.53687323312793
 20
-9.101511635094412
 30
0.0
 10
14.61180405993212
 20
-9.101511635094412
 30
0.0
 10
14.71720675630333
 20
-9.101511635094412
 30
0.0
 10
14.80736490515232
 20
-9.032937009460512
 30
0.0
 10
14.80736490515232
 20
-8.922470022725979
 30
0.0
 10
14.80609021982278
 20
-8.815792641025216
 30
0.0
 10
14.73498344900722
 20
-8.739604354368918
 30
0.0
 10
14.56989447335405
 20
-8.739604354368918
 30
0.0
 10
14.52292059641267
 20
-8.739604354368918
 30
0.0
 10
14.48609252567535
 20
-8.744685870209661
 30
0.0
 10
14.45560343063089
 20
-8.748492700720861
 30
0.0
 10
14.45560343063089
 20
-8.748492700720861
 30
0.0
 10
14.50895073421998
 20
-8.35230671991713
 30
0.0
 10
14.50895073421998
 20
-8.35230671991713
 30
0.0
 10
14.50895073421998
 20
-8.35230671991713
 30
0.0
 10
14.90386202969417
 20
-8.35230671991713
 30
0.0
 10
14.90386202969417
 20
-8.35230671991713
 30
0.0
 10
14.90386202969417
 20
-8.35230671991713
 30
0.0
 10
14.90386202969417
 20
-8.446271699277318
 30
0.0
 10
14.90386202969417
 20
-8.446271699277318
 30
0.0
  0
HATCH
  5
52E
330
523
100
AcDbEntity
  8
Livello 3
 62
   250
420
  1907995
440
 33554687
100
AcDbHatch
 10
0.0
 20
0.0
 30
0.0
210
0.0
220
0.0
230
1.0
  2
SOLID
 70
     1
 71
     1
 91
        1
 92
        1
 93
        1
 72
     4
 94
        3
 73
     0
 74
     0
 95
       50
 96
       46
 40
0.0
 40
0.0
 40
0.0
 40
0.0
 40
1.0
 40
1.0
 40
1.0
 40
2.0
 40
2.0
 40
2.0
 40
3.0
 40
3.0
 40
3.0
 40
4.0
 40
4.0
 40
4.0
 40
5.0
 40
5.0
 40
5.0
 40
6.0
 40
6.0
 40
6.0
 40
7.0
 40
7.0
 40
7.0
 40
8.0
 40
8.0
 40
8.0
 40
9.0
 40
9.0
 40
9.0
 40
10.0
 40
10.0
 40
10.0
 40
11.0
 40
11.0
 40
11.0
 40
12.0
 40
12.0
 40
12.0
 40
13.0
 40
13.0
 40
13.0
 40
14.0
 40
14.0
 40
14.0
 40
15.0
 40
15.0
 40
15.0
 40
15.0
 10
14.90386202969417
 20
-8.446271699277318
 10
14.90386202969417
 20
-8.446271699277318
 10
14.58894585138748
 20
-8.446271699277318
 10
14.58894585138748
 20
-8.446271699277318
 10
14.58894585138748
 20
-8.446271699277318
 10
14.55719929649091
 20
-8.658334551871874
 10
14.55719929649091
 20
-8.658334551871874
 10
14.57625067452434
 20
-8.655802406690215
 10
14.59402736722823
 20
-8.653253036031131
 10
14.62449923679526
 20
-8.653253036031131
 10
14.68799234658842
 20
-8.653253036031131
 10
14.75148545638157
 20
-8.667222898223817
 10
14.80228338931158
 20
-8.697694767790853
 10
14.86703395895685
 20
-8.734522838528175
 10
14.92039848802337
 20
-8.80562960934373
 10
14.92039848802337
 20
-8.909757620385407
 10
14.92039848802337
 20
-9.07103976552738
 10
14.79212035763009
 20
-9.1916697839434
 10
14.61307874526166
 20
-9.1916697839434
 10
14.52292059641267
 20
-9.1916697839434
 10
14.44671508427894
 20
-9.166279430217107
 10
14.40735486835996
 20
-9.140871851013391
 10
14.40735486835996
 20
-9.140871851013391
 10
14.43529459274534
 20
-9.055795218005147
 10
14.43529459274534
 20
-9.055795218005147
 10
14.46957329282358
 20
-9.076104055890695
 10
14.53687323312793
 20
-9.101511635094412
 10
14.61180405993212
 20
-9.101511635094412
 10
14.71720675630333
 20
-9.101511635094412
 10
14.80736490515232
 20
-9.032937009460512
 10
14.80736490515232
 20
-8.922470022725979
 10
14.80609021982278
 20
-8.815792641025216
 10
14.73498344900722
 20
-8.739604354368918
 10
14.56989447335405
 20
-8.739604354368918
 10
14.52292059641267
 20
-8.739604354368918
 10
14.48609252567535
 20
-8.744685870209661
 10
14.45560343063089
 20
-8.748492700720861
 10
14.45560343063089
 20
-8.748492700720861
 10
14.50895073421998
 20
-8.35230671991713
 10
14.50895073421998
 20
-8.35230671991713
 10
14.50895073421998
 20
-8.35230671991713
 10
14.90386202969417
 20
-8.35230671991713
 10
14.90386202969417
 20
-8.35230671991713
 10
14.90386202969417
 20
-8.35230671991713
 10
14.90386202969417
 20
-8.446271699277318
 10
14.90386202969417
 20
-8.446271699277318
 97
        0
 97
        1
330
52D
 75
     2
 76
     1
 98
        1
 10
0.0
 20
0.0
450
        0
451
        0
460
0.0
461
0.0
452
        0
462
0.0
453
        0
470

  0
ENDBLK
  5
526
330
523
100
AcDbEntity
  8
0
100
AcDbBlockEnd
  0
BLOCK
  5
531
330
52F
100
AcDbEntity
  8
0
100
AcDbBlockBegin
  2
Block_2
 70
     0
 10
0.0
 20
0.0
 30
0.0
  3
Block_2
  1

  0
INSERT
  5
534
330
52F
100
AcDbEntity
  8
Livello 3
100
AcDbBlockReference
  2
Block_3
 10
0.0
 20
0.0
 30
0.0
  0
ENDBLK
  5
532
330
52F
100
AcDbEntity
  8
0
100
AcDbBlockEnd
  0
BLOCK
  5
535
330
533
100
AcDbEntity
  8
0
100
AcDbBlockBegin
  2
Block_3
 70
     0
 10
0.0
 20
0.0
 30
0.0
  3
Block_3
  1

  0
SPLINE
  5
537
330
533
100
AcDbEntity
  8
Livello 3
100
AcDbSpline
210
0.0
220
0.0
230
1.0
 70
    11
 71
     3
 72
    29
 73
    25
 74
     0
 42
0.000000001
 43
0.0000000001
 40
0.0
 40
0.0
 40
0.0
 40
0.0
 40
1.0
 40
1.0
 40
1.0
 40
2.0
 40
2.0
 40
2.0
 40
3.0
 40
3.0
 40
3.0
 40
4.0
 40
4.0
 40
4.0
 40
5.0
 40
5.0
 40
5.0
 40
6.0
 40
6.0
 40
6.0
 40
7.0
 40
7.0
 40
7.0
 40
8.0
 40
8.0
 40
8.0
 40
8.0
 10
24.58027397388966
 20
-6.690719941903706
 30
0.0
 10
24.58027397388966
 20
-6.690719941903706
 30
0.0
 10
24.58027397388966
 20
-6.693269312562793
 30
0.0
 10
24.58027397388966
 20
-6.693269312562793
 30
0.0
 10
24.58027397388966
 20
-6.693269312562793
 30
0.0
 10
24.65775417135292
 20
-6.836757539523448
 30
0.0
 10
24.65775417135292
 20
-6.836757539523448
 30
0.0
 10
24.65775417135292
 20
-6.836757539523448
 30
0.0
 10
24.57266031286725
 20
-6.858341062738539
 30
0.0
 10
24.57266031286725
 20
-6.858341062738539
 30
0.0
 10
24.57266031286725
 20
-6.858341062738539
 30
0.0
 10
24.4761631883254
 20
-6.678024765040562
 30
0.0
 10
24.4761631883254
 20
-6.678024765040562
 30
0.0
 10
24.4761631883254
 20
-6.678024765040562
 30
0.0
 10
24.4761631883254
 20
-6.58278510035083
 30
0.0
 10
24.4761631883254
 20
-6.58278510035083
 30
0.0
 10
24.4761631883254
 20
-6.58278510035083
 30
0.0
 10
25.30153916468156
 20
-6.58278510035083
 30
0.0
 10
25.30153916468156
 20
-6.58278510035083
 30
0.0
 10
25.30153916468156
 20
-6.58278510035083
 30
0.0
 10
25.30153916468156
 20
-6.690719941903706
 30
0.0
 10
25.30153916468156
 20
-6.690719941903706
 30
0.0
 10
25.30153916468156
 20
-6.690719941903706
 30
0.0
 10
24.58027397388966
 20
-6.690719941903706
 30
0.0
 10
24.58027397388966
 20
-6.690719941903706
 30
0.0
  0
HATCH
  5
538
330
533
100
AcDbEntity
  8
Livello 3
 62
   250
420
  1907995
440
 33554687
100
AcDbHatch
 10
0.0
 20
0.0
 30
0.0
210
0.0
220
0.0
230
1.0
  2
SOLID
 70
     1
 71
     1
 91
        1
 92
        1
 93
        1
 72
     4
 94
        3
 73
     0
 74
     0
 95
       29
 96
       25
 40
0.0
 40
0.0
 40
0.0
 40
0.0
 40
1.0
 40
1.0
 40
1.0
 40
2.0
 40
2.0
 40
2.0
 40
3.0
 40
3.0
 40
3.0
 40
4.0
 40
4.0
 40
4.0
 40
5.0
 40
5.0
 40
5.0
 40
6.0
 40
6.0
 40
6.0
 40
7.0
 40
7.0
 40
7.0
 40
8.0
 40
8.0
 40
8.0
 40
8.0
 10
24.58027397388966
 20
-6.690719941903706
 10
24.58027397388966
 20
-6.690719941903706
 10
24.58027397388966
 20
-6.693269312562793
 10
24.58027397388966
 20
-6.693269312562793
 10
24.58027397388966
 20
-6.693269312562793
 10
24.65775417135292
 20
-6.836757539523448
 10
24.65775417135292
 20
-6.836757539523448
 10
24.65775417135292
 20
-6.836757539523448
 10
24.57266031286725
 20
-6.858341062738539
 10
24.57266031286725
 20
-6.858341062738539
 10
24.57266031286725
 20
-6.858341062738539
 10
24.4761631883254
 20
-6.678024765040562
 10
24.4761631883254
 20
-6.678024765040562
 10
24.4761631883254
 20
-6.678024765040562
 10
24.4761631883254
 20
-6.58278510035083
 10
24.4761631883254
 20
-6.58278510035083
 10
24.4761631883254
 20
-6.58278510035083
 10
25.30153916468156
 20
-6.58278510035083
 10
25.30153916468156
 20
-6.58278510035083
 10
25.30153916468156
 20
-6.58278510035083
 10
25.30153916468156
 20
-6.690719941903706
 10
25.30153916468156
 20
-6.690719941903706
 10
25.30153916468156
 20
-6.690719941903706
 10
24.58027397388966
 20
-6.690719941903706
 10
24.58027397388966
 20
-6.690719941903706
 97
        0
 97
        1
330
537
 75
     2
 76
     1
 98
        1
 10
0.0
 20
0.0
450
        0
451
        0
460
0.0
461
0.0
452
        0
462
0.0
453
        0
470

  0
SPLINE
  5
539
330
533
100
AcDbEntity
  8
Livello 3
100
AcDbSpline
210
0.0
220
0.0
230
1.0
 70
    11
 71
     3
 72
    26
 73
    22
 74
     0
 42
0.000000001
 43
0.0000000001
 40
0.0
 40
0.0
 40
0.0
 40
0.0
 40
1.0
 40
1.0
 40
1.0
 40
2.0
 40
2.0
 40
2.0
 40
3.0
 40
3.0
 40
3.0
 40
4.0
 40
4.0
 40
4.0
 40
5.0
 40
5.0
 40
5.0
 40
6.0
 40
6.0
 40
6.0
 40
7.0
 40
7.0
 40
7.0
 40
7.0
 10
24.98917235703395
 20
-5.936381834453403
 30
0.0
 10
24.98917235703395
 20
-5.936381834453403
 30
0.0
 10
24.71359916916882
 20
-5.936381834453403
 30
0.0
 10
24.71359916916882
 20
-5.936381834453403
 30
0.0
 10
24.67043212273865
 20
-5.936381834453403
 30
0.0
 10
24.62726507630846
 20
-5.935107149123862
 30
0.0
 10
24.58409802987829
 20
-5.932575003942202
 30
0.0
 10
24.58409802987829
 20
-5.932575003942202
 30
0.0
 10
24.58409802987829
 20
-5.936381834453403
 30
0.0
 10
24.58409802987829
 20
-5.936381834453403
 30
0.0
 10
24.63232936667179
 20
-5.961789413657121
 30
0.0
 10
24.66788275207956
 20
-5.982098251542669
 30
0.0
 10
24.70598550814642
 20
-6.004956460087303
 30
0.0
 10
24.70598550814642
 20
-6.004956460087303
 30
0.0
 10
24.98662298637487
 20
-6.206856281000367
 30
0.0
 10
24.98662298637487
 20
-6.206856281000367
 30
0.0
 10
24.98662298637487
 20
-6.206856281000367
 30
0.0
 10
24.98917235703395
 20
-6.206856281000367
 30
0.0
 10
24.98917235703395
 20
-6.206856281000367
 30
0.0
 10
24.98917235703395
 20
-6.206856281000367
 30
0.0
 10
24.98917235703395
 20
-5.936381834453403
 30
0.0
 10
24.98917235703395
 20
-5.936381834453403
 30
0.0
  0
SPLINE
  5
53A
330
533
100
AcDbEntity
  8
Livello 3
100
AcDbSpline
210
0.0
220
0.0
230
1.0
 70
    11
 71
     3
 72
    38
 73
    34
 74
     0
 42
0.000000001
 43
0.0000000001
 40
0.0
 40
0.0
 40
0.0
 40
0.0
 40
1.0
 40
1.0
 40
1.0
 40
2.0
 40
2.0
 40
2.0
 40
3.0
 40
3.0
 40
3.0
 40
4.0
 40
4.0
 40
4.0
 40
5.0
 40
5.0
 40
5.0
 40
6.0
 40
6.0
 40
6.0
 40
7.0
 40
7.0
 40
7.0
 40
8.0
 40
8.0
 40
8.0
 40
9.0
 40
9.0
 40
9.0
 40
10.0
 40
10.0
 40
10.0
 40
11.0
 40
11.0
 40
11.0
 40
11.0
 10
25.30153916468156
 20
-5.936381834453403
 30
0.0
 10
25.30153916468156
 20
-5.936381834453403
 30
0.0
 10
25.07678113522386
 20
-5.936381834453403
 30
0.0
 10
25.07678113522386
 20
-5.936381834453403
 30
0.0
 10
25.07678113522386
 20
-5.936381834453403
 30
0.0
 10
25.07678113522386
 20
-6.319872638393988
 30
0.0
 10
25.07678113522386
 20
-6.319872638393988
 30
0.0
 10
25.07678113522386
 20
-6.319872638393988
 30
0.0
 10
25.00312499374922
 20
-6.319872638393988
 30
0.0
 10
25.00312499374922
 20
-6.319872638393988
 30
0.0
 10
25.00312499374922
 20
-6.319872638393988
 30
0.0
 10
24.4761631883254
 20
-5.951626381975634
 30
0.0
 10
24.4761631883254
 20
-5.951626381975634
 30
0.0
 10
24.4761631883254
 20
-5.951626381975634
 30
0.0
 10
24.4761631883254
 20
-5.83099636355961
 30
0.0
 10
24.4761631883254
 20
-5.83099636355961
 30
0.0
 10
24.4761631883254
 20
-5.83099636355961
 30
0.0
 10
24.98917235703395
 20
-5.83099636355961
 30
0.0
 10
24.98917235703395
 20
-5.83099636355961
 30
0.0
 10
24.98917235703395
 20
-5.83099636355961
 30
0.0
 10
24.98917235703395
 20
-5.715430635506906
 30
0.0
 10
24.98917235703395
 20
-5.715430635506906
 30
0.0
 10
24.98917235703395
 20
-5.715430635506906
 30
0.0
 10
25.07678113522386
 20
-5.715430635506906
 30
0.0
 10
25.07678113522386
 20
-5.715430635506906
 30
0.0
 10
25.07678113522386
 20
-5.715430635506906
 30
0.0
 10
25.07678113522386
 20
-5.83099636355961
 30
0.0
 10
25.07678113522386
 20
-5.83099636355961
 30
0.0
 10
25.07678113522386
 20
-5.83099636355961
 30
0.0
 10
25.30153916468156
 20
-5.83099636355961
 30
0.0
 10
25.30153916468156
 20
-5.83099636355961
 30
0.0
 10
25.30153916468156
 20
-5.83099636355961
 30
0.0
 10
25.30153916468156
 20
-5.936381834453403
 30
0.0
 10
25.30153916468156
 20
-5.936381834453403
 30
0.0
  0
HATCH
  5
53B
330
533
100
AcDbEntity
  8
Livello 3
 62
   250
420
  1907995
440
 33554687
100
AcDbHatch
 10
0.0
 20
0.0
 30
0.0
210
0.0
220
0.0
230
1.0
  2
SOLID
 70
     1
 71
     1
 91
        2
 92
        1
 93
        1
 72
     4
 94
        3
 73
     0
 74
     0
 95
       26
 96
       22
 40
0.0
 40
0.0
 40
0.0
 40
0.0
 40
1.0
 40
1.0
 40
1.0
 40
2.0
 40
2.0
 40
2.0
 40
3.0
 40
3.0
 40
3.0
 40
4.0
 40
4.0
 40
4.0
 40
5.0
 40
5.0
 40
5.0
 40
6.0
 40
6.0
 40
6.0
 40
7.0
 40
7.0
 40
7.0
 40
7.0
 10
24.98917235703395
 20
-5.936381834453403
 10
24.98917235703395
 20
-5.936381834453403
 10
24.71359916916882
 20
-5.936381834453403
 10
24.71359916916882
 20
-5.936381834453403
 10
24.67043212273865
 20
-5.936381834453403
 10
24.62726507630846
 20
-5.935107149123862
 10
24.58409802987829
 20
-5.932575003942202
 10
24.58409802987829
 20
-5.932575003942202
 10
24.58409802987829
 20
-5.936381834453403
 10
24.58409802987829
 20
-5.936381834453403
 10
24.63232936667179
 20
-5.961789413657121
 10
24.66788275207956
 20
-5.982098251542669
 10
24.70598550814642
 20
-6.004956460087303
 10
24.70598550814642
 20
-6.004956460087303
 10
24.98662298637487
 20
-6.206856281000367
 10
24.98662298637487
 20
-6.206856281000367
 10
24.98662298637487
 20
-6.206856281000367
 10
24.98917235703395
 20
-6.206856281000367
 10
24.98917235703395
 20
-6.206856281000367
 10
24.98917235703395
 20
-6.206856281000367
 10
24.98917235703395
 20
-5.936381834453403
 10
24.98917235703395
 20
-5.936381834453403
 97
        0
 97
        1
330
539
 92
        1
 93
        1
 72
     4
 94
        3
 73
     0
 74
     0
 95
       38
 96
       34
 40
0.0
 40
0.0
 40
0.0
 40
0.0
 40
1.0
 40
1.0
 40
1.0
 40
2.0
 40
2.0
 40
2.0
 40
3.0
 40
3.0
 40
3.0
 40
4.0
 40
4.0
 40
4.0
 40
5.0
 40
5.0
 40
5.0
 40
6.0
 40
6.0
 40
6.0
 40
7.0
 40
7.0
 40
7.0
 40
8.0
 40
8.0
 40
8.0
 40
9.0
 40
9.0
 40
9.0
 40
10.0
 40
10.0
 40
10.0
 40
11.0
 40
11.0
 40
11.0
 40
11.0
 10
25.30153916468156
 20
-5.936381834453403
 10
25.30153916468156
 20
-5.936381834453403
 10
25.07678113522386
 20
-5.936381834453403
 10
25.07678113522386
 20
-5.936381834453403
 10
25.07678113522386
 20
-5.936381834453403
 10
25.07678113522386
 20
-6.319872638393988
 10
25.07678113522386
 20
-6.319872638393988
 10
25.07678113522386
 20
-6.319872638393988
 10
25.00312499374922
 20
-6.319872638393988
 10
25.00312499374922
 20
-6.319872638393988
 10
25.00312499374922
 20
-6.319872638393988
 10
24.4761631883254
 20
-5.951626381975634
 10
24.4761631883254
 20
-5.951626381975634
 10
24.4761631883254
 20
-5.951626381975634
 10
24.4761631883254
 20
-5.83099636355961
 10
24.4761631883254
 20
-5.83099636355961
 10
24.4761631883254
 20
-5.83099636355961
 10
24.98917235703395
 20
-5.83099636355961
 10
24.98917235703395
 20
-5.83099636355961
 10
24.98917235703395
 20
-5.83099636355961
 10
24.98917235703395
 20
-5.715430635506906
 10
24.98917235703395
 20
-5.715430635506906
 10
24.98917235703395
 20
-5.715430635506906
 10
25.07678113522386
 20
-5.715430635506906
 10
25.07678113522386
 20
-5.715430635506906
 10
25.07678113522386
 20
-5.715430635506906
 10
25.07678113522386
 20
-5.83099636355961
 10
25.07678113522386
 20
-5.83099636355961
 10
25.07678113522386
 20
-5.83099636355961
 10
25.30153916468156
 20
-5.83099636355961
 10
25.30153916468156
 20
-5.83099636355961
 10
25.30153916468156
 20
-5.83099636355961
 10
25.30153916468156
 20
-5.936381834453403
 10
25.30153916468156
 20
-5.936381834453403
 97
        0
 97
        1
330
53A
 75
     2
 76
     1
 98
        1
 10
0.0
 20
0.0
450
        0
451
        0
460
0.0
461
0.0
452
        0
462
0.0
453
        0
470

  0
ENDBLK
  5
536
330
533
100
AcDbEntity
  8
0
100
AcDbBlockEnd
  0
BLOCK
  5
53E
330
53C
100
AcDbEntity
  8
0
100
AcDbBlockBegin
  2
Block_4
 70
     0
 10
0.0
 20
0.0
 30
0.0
  3
Block_4
  1

  0
INSERT
  5
541
330
53C
100
AcDbEntity
  8
Livello 3
100
AcDbBlockReference
  2
Block_5
 10
0.0
 20
0.0
 30
0.0
  0
ENDBLK
  5
53F
330
53C
100
AcDbEntity
  8
0
100
AcDbBlockEnd
  0
BLOCK
  5
542
330
540
100
AcDbEntity
  8
0
100
AcDbBlockBegin
  2
Block_5
 70
     0
 10
0.0
 20
0.0
 30
0.0
  3
Block_5
  1

  0
SPLINE
  5
544
330
540
100
AcDbEntity
  8
Livello 3
100
AcDbSpline
210
0.0
220
0.0
230
1.0
 70
     9
 71
     3
 72
    59
 73
    55
 74
     0
 42
0.000000001
 43
0.0000000001
 40
0.0
 40
0.0
 40
0.0
 40
0.0
 40
1.0
 40
1.0
 40
1.0
 40
2.0
 40
2.0
 40
2.0
 40
3.0
 40
3.0
 40
3.0
 40
4.0
 40
4.0
 40
4.0
 40
5.0
 40
5.0
 40
5.0
 40
6.0
 40
6.0
 40
6.0
 40
7.0
 40
7.0
 40
7.0
 40
8.0
 40
8.0
 40
8.0
 40
9.0
 40
9.0
 40
9.0
 40
10.0
 40
10.0
 40
10.0
 40
11.0
 40
11.0
 40
11.0
 40
12.0
 40
12.0
 40
12.0
 40
13.0
 40
13.0
 40
13.0
 40
14.0
 40
14.0
 40
14.0
 40
15.0
 40
15.0
 40
15.0
 40
16.0
 40
16.0
 40
16.0
 40
17.0
 40
17.0
 40
17.0
 40
18.0
 40
18.0
 40
18.0
 40
18.0
 10
13.09477348847978
 20
-17.47442002601333
 30
0.0
 10
13.12652004337635
 20
-17.49474608937631
 30
0.0
 10
13.200176184851
 20
-17.52650986975031
 30
0.0
 10
13.27763915683684
 20
-17.52650986975031
 30
0.0
 10
13.42112738379749
 20
-17.52650986975031
 30
0.0
 10
13.46556911555722
 20
-17.43507703557178
 30
0.0
 10
13.4643116557051
 20
-17.36651963541531
 30
0.0
 10
13.46303697037556
 20
-17.25097113284003
 30
0.0
 10
13.35890895933388
 20
-17.20143065976214
 30
0.0
 10
13.250974117781
 20
-17.20143065976214
 30
0.0
 10
13.250974117781
 20
-17.20143065976214
 30
0.0
 10
13.18875569331739
 20
-17.20143065976214
 30
0.0
 10
13.18875569331739
 20
-17.20143065976214
 30
0.0
 10
13.18875569331739
 20
-17.20143065976214
 30
0.0
 10
13.18875569331739
 20
-17.11761148660601
 30
0.0
 10
13.18875569331739
 20
-17.11761148660601
 30
0.0
 10
13.18875569331739
 20
-17.11761148660601
 30
0.0
 10
13.250974117781
 20
-17.11761148660601
 30
0.0
 10
13.250974117781
 20
-17.11761148660601
 30
0.0
 10
13.33224392027805
 20
-17.11761148660601
 30
0.0
 10
13.43509724599018
 20
-17.07571912550537
 30
0.0
 10
13.43509724599018
 20
-16.97791286467913
 30
0.0
 10
13.43509724599018
 20
-16.91190483518174
 30
0.0
 10
13.39318765941212
 20
-16.85347601575191
 30
0.0
 10
13.29033433369998
 20
-16.85347601575191
 30
0.0
 10
13.22430907872517
 20
-16.85347601575191
 30
0.0
 10
13.16081596893202
 20
-16.88269042546682
 30
0.0
 10
13.12526258352424
 20
-16.90811523014797
 30
0.0
 10
13.12526258352424
 20
-16.90811523014797
 30
0.0
 10
13.09604817380932
 20
-16.82681097669607
 30
0.0
 10
13.09604817380932
 20
-16.82681097669607
 30
0.0
 10
13.13923244571692
 20
-16.79508164727692
 30
0.0
 10
13.22303439339563
 20
-16.76335231785777
 30
0.0
 10
13.31191785691507
 20
-16.76335231785777
 30
0.0
 10
13.47445746190916
 20
-16.76335231785777
 30
0.0
 10
13.5481136033838
 20
-16.85984944239962
 30
0.0
 10
13.5481136033838
 20
-16.96013617197524
 30
0.0
 10
13.5481136033838
 20
-17.04523003046091
 30
0.0
 10
13.49731567045379
 20
-17.11761148660601
 30
0.0
 10
13.3957370300712
 20
-17.15443955734333
 30
0.0
 10
13.3957370300712
 20
-17.15443955734333
 30
0.0
 10
13.3957370300712
 20
-17.15698892800242
 30
0.0
 10
13.3957370300712
 20
-17.15698892800242
 30
0.0
 10
13.49731567045379
 20
-17.17731499136539
 30
0.0
 10
13.57986015828038
 20
-17.25348605254426
 30
0.0
 10
13.57986015828038
 20
-17.3690690060744
 30
0.0
 10
13.57986015828038
 20
-17.50108506506917
 30
0.0
 10
13.47700683256825
 20
-17.6166680185993
 30
0.0
 10
13.27891384216638
 20
-17.6166680185993
 30
0.0
 10
13.18620632265831
 20
-17.6166680185993
 30
0.0
 10
13.10493652016126
 20
-17.58745360888438
 30
0.0
 10
13.06430161891274
 20
-17.56078856982855
 30
0.0
 10
13.06430161891274
 20
-17.56078856982855
 30
0.0
 10
13.09477348847978
 20
-17.47442002601333
 30
0.0
 10
13.09477348847978
 20
-17.47442002601333
 30
0.0
  0
HATCH
  5
545
330
540
100
AcDbEntity
  8
Livello 3
 62
   250
420
  1907995
440
 33554687
100
AcDbHatch
 10
0.0
 20
0.0
 30
0.0
210
0.0
220
0.0
230
1.0
  2
SOLID
 70
     1
 71
     1
 91
        1
 92
        1
 93
        1
 72
     4
 94
        3
 73
     0
 74
     0
 95
       59
 96
       55
 40
0.0
 40
0.0
 40
0.0
 40
0.0
 40
1.0
 40
1.0
 40
1.0
 40
2.0
 40
2.0
 40
2.0
 40
3.0
 40
3.0
 40
3.0
 40
4.0
 40
4.0
 40
4.0
 40
5.0
 40
5.0
 40
5.0
 40
6.0
 40
6.0
 40
6.0
 40
7.0
 40
7.0
 40
7.0
 40
8.0
 40
8.0
 40
8.0
 40
9.0
 40
9.0
 40
9.0
 40
10.0
 40
10.0
 40
10.0
 40
11.0
 40
11.0
 40
11.0
 40
12.0
 40
12.0
 40
12.0
 40
13.0
 40
13.0
 40
13.0
 40
14.0
 40
14.0
 40
14.0
 40
15.0
 40
15.0
 40
15.0
 40
16.0
 40
16.0
 40
16.0
 40
17.0
 40
17.0
 40
17.0
 40
18.0
 40
18.0
 40
18.0
 40
18.0
 10
13.09477348847978
 20
-17.47442002601333
 10
13.12652004337635
 20
-17.49474608937631
 10
13.200176184851
 20
-17.52650986975031
 10
13.27763915683684
 20
-17.52650986975031
 10
13.42112738379749
 20
-17.52650986975031
 10
13.46556911555722
 20
-17.43507703557178
 10
13.4643116557051
 20
-17.36651963541531
 10
13.46303697037556
 20
-17.25097113284003
 10
13.35890895933388
 20
-17.20143065976214
 10
13.250974117781
 20
-17.20143065976214
 10
13.250974117781
 20
-17.20143065976214
 10
13.18875569331739
 20
-17.20143065976214
 10
13.18875569331739
 20
-17.20143065976214
 10
13.18875569331739
 20
-17.20143065976214
 10
13.18875569331739
 20
-17.11761148660601
 10
13.18875569331739
 20
-17.11761148660601
 10
13.18875569331739
 20
-17.11761148660601
 10
13.250974117781
 20
-17.11761148660601
 10
13.250974117781
 20
-17.11761148660601
 10
13.33224392027805
 20
-17.11761148660601
 10
13.43509724599018
 20
-17.07571912550537
 10
13.43509724599018
 20
-16.97791286467913
 10
13.43509724599018
 20
-16.91190483518174
 10
13.39318765941212
 20
-16.85347601575191
 10
13.29033433369998
 20
-16.85347601575191
 10
13.22430907872517
 20
-16.85347601575191
 10
13.16081596893202
 20
-16.88269042546682
 10
13.12526258352424
 20
-16.90811523014797
 10
13.12526258352424
 20
-16.90811523014797
 10
13.09604817380932
 20
-16.82681097669607
 10
13.09604817380932
 20
-16.82681097669607
 10
13.13923244571692
 20
-16.79508164727692
 10
13.22303439339563
 20
-16.76335231785777
 10
13.31191785691507
 20
-16.76335231785777
 10
13.47445746190916
 20
-16.76335231785777
 10
13.5481136033838
 20
-16.85984944239962
 10
13.5481136033838
 20
-16.96013617197524
 10
13.5481136033838
 20
-17.04523003046091
 10
13.49731567045379
 20
-17.11761148660601
 10
13.3957370300712
 20
-17.15443955734333
 10
13.3957370300712
 20
-17.15443955734333
 10
13.3957370300712
 20
-17.15698892800242
 10
13.3957370300712
 20
-17.15698892800242
 10
13.49731567045379
 20
-17.17731499136539
 10
13.57986015828038
 20
-17.25348605254426
 10
13.57986015828038
 20
-17.3690690060744
 10
13.57986015828038
 20
-17.50108506506917
 10
13.47700683256825
 20
-17.6166680185993
 10
13.27891384216638
 20
-17.6166680185993
 10
13.18620632265831
 20
-17.6166680185993
 10
13.10493652016126
 20
-17.58745360888438
 10
13.06430161891274
 20
-17.56078856982855
 10
13.06430161891274
 20
-17.56078856982855
 10
13.09477348847978
 20
-17.47442002601333
 10
13.09477348847978
 20
-17.47442002601333
 97
        0
 97
        1
330
544
 75
     2
 76
     1
 98
        1
 10
0.0
 20
0.0
450
        0
451
        0
460
0.0
461
0.0
452
        0
462
0.0
453
        0
470

  0
SPLINE
  5
546
330
540
100
AcDbEntity
  8
Livello 3
100
AcDbSpline
210
0.0
220
0.0
230
1.0
 70
     9
 71
     3
 72
    17
 73
    13
 74
     0
 42
0.000000001
 43
0.0000000001
 40
0.0
 40
0.0
 40
0.0
 40
0.0
 40
1.0
 40
1.0
 40
1.0
 40
2.0
 40
2.0
 40
2.0
 40
3.0
 40
3.0
 40
3.0
 40
4.0
 40
4.0
 40
4.0
 40
4.0
 10
13.81991441169259
 20
-17.19381699873974
 30
0.0
 10
13.81991441169259
 20
-17.40841199651595
 30
0.0
 10
13.8859396666674
 20
-17.53029947478409
 30
0.0
 10
13.98753553252742
 20
-17.53029947478409
 30
0.0
 10
14.10182657525058
 20
-17.53029947478409
 30
0.0
 10
14.15643133869179
 20
-17.39697427950492
 30
0.0
 10
14.15643133869179
 20
-17.18620333771734
 30
0.0
 10
14.15643133869179
 20
-16.9830116059973
 30
0.0
 10
14.10435872043224
 20
-16.84968641071813
 30
0.0
 10
13.98881021785696
 20
-16.84968641071813
 30
0.0
 10
13.89102118250814
 20
-16.84968641071813
 30
0.0
 10
13.81991441169259
 20
-16.96902451832719
 30
0.0
 10
13.81991441169259
 20
-17.19381699873974
 30
0.0
  0
SPLINE
  5
547
330
540
100
AcDbEntity
  8
Livello 3
100
AcDbSpline
210
0.0
220
0.0
230
1.0
 70
     9
 71
     3
 72
    17
 73
    13
 74
     0
 42
0.000000001
 43
0.0000000001
 40
0.0
 40
0.0
 40
0.0
 40
0.0
 40
1.0
 40
1.0
 40
1.0
 40
2.0
 40
2.0
 40
2.0
 40
3.0
 40
3.0
 40
3.0
 40
4.0
 40
4.0
 40
4.0
 40
4.0
 10
14.26817301075587
 20
-17.18110459639916
 30
0.0
 10
14.26817301075587
 20
-17.46174207462762
 30
0.0
 10
14.16404499971419
 20
-17.6166680185993
 30
0.0
 10
13.98117933135713
 20
-17.6166680185993
 30
0.0
 10
13.81991441169259
 20
-17.6166680185993
 30
0.0
 10
13.71070488481017
 20
-17.46553167966139
 30
0.0
 10
13.70817273962851
 20
-17.19254231341019
 30
0.0
 10
13.70817273962851
 20
-16.91569444021552
 30
0.0
 10
13.82752807271499
 20
-16.76335231785777
 30
0.0
 10
13.99514919354982
 20
-16.76335231785777
 30
0.0
 10
14.16912651555494
 20
-16.76335231785777
 30
0.0
 10
14.26817301075587
 20
-16.9182438108746
 30
0.0
 10
14.26817301075587
 20
-17.18110459639916
 30
0.0
  0
HATCH
  5
548
330
540
100
AcDbEntity
  8
Livello 3
 62
   250
420
  1907995
440
 33554687
100
AcDbHatch
 10
0.0
 20
0.0
 30
0.0
210
0.0
220
0.0
230
1.0
  2
SOLID
 70
     1
 71
     1
 91
        2
 92
        1
 93
        1
 72
     4
 94
        3
 73
     0
 74
     0
 95
       17
 96
       13
 40
0.0
 40
0.0
 40
0.0
 40
0.0
 40
1.0
 40
1.0
 40
1.0
 40
2.0
 40
2.0
 40
2.0
 40
3.0
 40
3.0
 40
3.0
 40
4.0
 40
4.0
 40
4.0
 40
4.0
 10
13.81991441169259
 20
-17.19381699873974
 10
13.81991441169259
 20
-17.40841199651595
 10
13.8859396666674
 20
-17.53029947478409
 10
13.98753553252742
 20
-17.53029947478409
 10
14.10182657525058
 20
-17.53029947478409
 10
14.15643133869179
 20
-17.39697427950492
 10
14.15643133869179
 20
-17.18620333771734
 10
14.15643133869179
 20
-16.9830116059973
 10
14.10435872043224
 20
-16.84968641071813
 10
13.98881021785696
 20
-16.84968641071813
 10
13.89102118250814
 20
-16.84968641071813
 10
13.81991441169259
 20
-16.96902451832719
 10
13.81991441169259
 20
-17.19381699873974
 97
        0
 97
        1
330
546
 92
        1
 93
        1
 72
     4
 94
        3
 73
     0
 74
     0
 95
       17
 96
       13
 40
0.0
 40
0.0
 40
0.0
 40
0.0
 40
1.0
 40
1.0
 40
1.0
 40
2.0
 40
2.0
 40
2.0
 40
3.0
 40
3.0
 40
3.0
 40
4.0
 40
4.0
 40
4.0
 40
4.0
 10
14.26817301075587
 20
-17.18110459639916
 10
14.26817301075587
 20
-17.46174207462762
 10
14.16404499971419
 20
-17.6166680185993
 10
13.98117933135713
 20
-17.6166680185993
 10
13.81991441169259
 20
-17.6166680185993
 10
13.71070488481017
 20
-17.46553167966139
 10
13.70817273962851
 20
-17.19254231341019
 10
13.70817273962851
 20
-16.91569444021552
 10
13.82752807271499
 20
-16.76335231785777
 10
13.99514919354982
 20
-16.76335231785777
 10
14.16912651555494
 20
-16.76335231785777
 10
14.26817301075587
 20
-16.9182438108746
 10
14.26817301075587
 20
-17.18110459639916
 97
        0
 97
        1
330
547
 75
     2
 76
     1
 98
        1
 10
0.0
 20
0.0
450
        0
451
        0
460
0.0
461
0.0
452
        0
462
0.0
453
        0
470

  0
SPLINE
  5
549
330
540
100
AcDbEntity
  8
Livello 3
100
AcDbSpline
210
0.0
220
0.0
230
1.0
 70
     9
 71
     3
 72
    59
 73
    55
 74
     0
 42
0.000000001
 43
0.0000000001
 40
0.0
 40
0.0
 40
0.0
 40
0.0
 40
1.0
 40
1.0
 40
1.0
 40
2.0
 40
2.0
 40
2.0
 40
3.0
 40
3.0
 40
3.0
 40
4.0
 40
4.0
 40
4.0
 40
5.0
 40
5.0
 40
5.0
 40
6.0
 40
6.0
 40
6.0
 40
7.0
 40
7.0
 40
7.0
 40
8.0
 40
8.0
 40
8.0
 40
9.0
 40
9.0
 40
9.0
 40
10.0
 40
10.0
 40
10.0
 40
11.0
 40
11.0
 40
11.0
 40
12.0
 40
12.0
 40
12.0
 40
13.0
 40
13.0
 40
13.0
 40
14.0
 40
14.0
 40
14.0
 40
15.0
 40
15.0
 40
15.0
 40
16.0
 40
16.0
 40
16.0
 40
17.0
 40
17.0
 40
17.0
 40
18.0
 40
18.0
 40
18.0
 40
18.0
 10
14.39774305195612
 20
-17.47442002601333
 30
0.0
 10
14.42948960685269
 20
-17.49474608937631
 30
0.0
 10
14.50314574832734
 20
-17.52650986975031
 30
0.0
 10
14.58060872031318
 20
-17.52650986975031
 30
0.0
 10
14.72409694727383
 20
-17.52650986975031
 30
0.0
 10
14.76853867903356
 20
-17.43507703557178
 30
0.0
 10
14.76728121918144
 20
-17.36651963541531
 30
0.0
 10
14.7660065338519
 20
-17.25097113284003
 30
0.0
 10
14.66187852281022
 20
-17.20143065976214
 30
0.0
 10
14.55394368125734
 20
-17.20143065976214
 30
0.0
 10
14.55394368125734
 20
-17.20143065976214
 30
0.0
 10
14.49172525679373
 20
-17.20143065976214
 30
0.0
 10
14.49172525679373
 20
-17.20143065976214
 30
0.0
 10
14.49172525679373
 20
-17.20143065976214
 30
0.0
 10
14.49172525679373
 20
-17.11761148660601
 30
0.0
 10
14.49172525679373
 20
-17.11761148660601
 30
0.0
 10
14.49172525679373
 20
-17.11761148660601
 30
0.0
 10
14.55394368125734
 20
-17.11761148660601
 30
0.0
 10
14.55394368125734
 20
-17.11761148660601
 30
0.0
 10
14.63521348375439
 20
-17.11761148660601
 30
0.0
 10
14.73806680946652
 20
-17.07571912550537
 30
0.0
 10
14.73806680946652
 20
-16.97791286467913
 30
0.0
 10
14.73806680946652
 20
-16.91190483518174
 30
0.0
 10
14.69615722288846
 20
-16.85347601575191
 30
0.0
 10
14.59330389717632
 20
-16.85347601575191
 30
0.0
 10
14.52727864220151
 20
-16.85347601575191
 30
0.0
 10
14.46378553240836
 20
-16.88269042546682
 30
0.0
 10
14.42823214700058
 20
-16.90811523014797
 30
0.0
 10
14.42823214700058
 20
-16.90811523014797
 30
0.0
 10
14.39901773728566
 20
-16.82681097669607
 30
0.0
 10
14.39901773728566
 20
-16.82681097669607
 30
0.0
 10
14.44220200919327
 20
-16.79508164727692
 30
0.0
 10
14.52600395687197
 20
-16.76335231785777
 30
0.0
 10
14.61488742039141
 20
-16.76335231785777
 30
0.0
 10
14.7774270253855
 20
-16.76335231785777
 30
0.0
 10
14.85108316686014
 20
-16.85984944239962
 30
0.0
 10
14.85108316686014
 20
-16.96013617197524
 30
0.0
 10
14.85108316686014
 20
-17.04523003046091
 30
0.0
 10
14.80028523393013
 20
-17.11761148660601
 30
0.0
 10
14.69870659354754
 20
-17.15443955734333
 30
0.0
 10
14.69870659354754
 20
-17.15443955734333
 30
0.0
 10
14.69870659354754
 20
-17.15698892800242
 30
0.0
 10
14.69870659354754
 20
-17.15698892800242
 30
0.0
 10
14.80028523393013
 20
-17.17731499136539
 30
0.0
 10
14.88282972175672
 20
-17.25348605254426
 30
0.0
 10
14.88282972175672
 20
-17.3690690060744
 30
0.0
 10
14.88282972175672
 20
-17.50108506506917
 30
0.0
 10
14.77997639604459
 20
-17.6166680185993
 30
0.0
 10
14.58188340564272
 20
-17.6166680185993
 30
0.0
 10
14.48917588613465
 20
-17.6166680185993
 30
0.0
 10
14.4079060836376
 20
-17.58745360888438
 30
0.0
 10
14.36727118238908
 20
-17.56078856982855
 30
0.0
 10
14.36727118238908
 20
-17.56078856982855
 30
0.0
 10
14.39774305195612
 20
-17.47442002601333
 30
0.0
 10
14.39774305195612
 20
-17.47442002601333
 30
0.0
  0
HATCH
  5
54A
330
540
100
AcDbEntity
  8
Livello 3
 62
   250
420
  1907995
440
 33554687
100
AcDbHatch
 10
0.0
 20
0.0
 30
0.0
210
0.0
220
0.0
230
1.0
  2
SOLID
 70
     1
 71
     1
 91
        1
 92
        1
 93
        1
 72
     4
 94
        3
 73
     0
 74
     0
 95
       59
 96
       55
 40
0.0
 40
0.0
 40
0.0
 40
0.0
 40
1.0
 40
1.0
 40
1.0
 40
2.0
 40
2.0
 40
2.0
 40
3.0
 40
3.0
 40
3.0
 40
4.0
 40
4.0
 40
4.0
 40
5.0
 40
5.0
 40
5.0
 40
6.0
 40
6.0
 40
6.0
 40
7.0
 40
7.0
 40
7.0
 40
8.0
 40
8.0
 40
8.0
 40
9.0
 40
9.0
 40
9.0
 40
10.0
 40
10.0
 40
10.0
 40
11.0
 40
11.0
 40
11.0
 40
12.0
 40
12.0
 40
12.0
 40
13.0
 40
13.0
 40
13.0
 40
14.0
 40
14.0
 40
14.0
 40
15.0
 40
15.0
 40
15.0
 40
16.0
 40
16.0
 40
16.0
 40
17.0
 40
17.0
 40
17.0
 40
18.0
 40
18.0
 40
18.0
 40
18.0
 10
14.39774305195612
 20
-17.47442002601333
 10
14.42948960685269
 20
-17.49474608937631
 10
14.50314574832734
 20
-17.52650986975031
 10
14.58060872031318
 20
-17.52650986975031
 10
14.72409694727383
 20
-17.52650986975031
 10
14.76853867903356
 20
-17.43507703557178
 10
14.76728121918144
 20
-17.36651963541531
 10
14.7660065338519
 20
-17.25097113284003
 10
14.66187852281022
 20
-17.20143065976214
 10
14.55394368125734
 20
-17.20143065976214
 10
14.55394368125734
 20
-17.20143065976214
 10
14.49172525679373
 20
-17.20143065976214
 10
14.49172525679373
 20
-17.20143065976214
 10
14.49172525679373
 20
-17.20143065976214
 10
14.49172525679373
 20
-17.11761148660601
 10
14.49172525679373
 20
-17.11761148660601
 10
14.49172525679373
 20
-17.11761148660601
 10
14.55394368125734
 20
-17.11761148660601
 10
14.55394368125734
 20
-17.11761148660601
 10
14.63521348375439
 20
-17.11761148660601
 10
14.73806680946652
 20
-17.07571912550537
 10
14.73806680946652
 20
-16.97791286467913
 10
14.73806680946652
 20
-16.91190483518174
 10
14.69615722288846
 20
-16.85347601575191
 10
14.59330389717632
 20
-16.85347601575191
 10
14.52727864220151
 20
-16.85347601575191
 10
14.46378553240836
 20
-16.88269042546682
 10
14.42823214700058
 20
-16.90811523014797
 10
14.42823214700058
 20
-16.90811523014797
 10
14.39901773728566
 20
-16.82681097669607
 10
14.39901773728566
 20
-16.82681097669607
 10
14.44220200919327
 20
-16.79508164727692
 10
14.52600395687197
 20
-16.76335231785777
 10
14.61488742039141
 20
-16.76335231785777
 10
14.7774270253855
 20
-16.76335231785777
 10
14.85108316686014
 20
-16.85984944239962
 10
14.85108316686014
 20
-16.96013617197524
 10
14.85108316686014
 20
-17.04523003046091
 10
14.80028523393013
 20
-17.11761148660601
 10
14.69870659354754
 20
-17.15443955734333
 10
14.69870659354754
 20
-17.15443955734333
 10
14.69870659354754
 20
-17.15698892800242
 10
14.69870659354754
 20
-17.15698892800242
 10
14.80028523393013
 20
-17.17731499136539
 10
14.88282972175672
 20
-17.25348605254426
 10
14.88282972175672
 20
-17.3690690060744
 10
14.88282972175672
 20
-17.50108506506917
 10
14.77997639604459
 20
-17.6166680185993
 10
14.58188340564272
 20
-17.6166680185993
 10
14.48917588613465
 20
-17.6166680185993
 10
14.4079060836376
 20
-17.58745360888438
 10
14.36727118238908
 20
-17.56078856982855
 10
14.36727118238908
 20
-17.56078856982855
 10
14.39774305195612
 20
-17.47442002601333
 10
14.39774305195612
 20
-17.47442002601333
 97
        0
 97
        1
330
549
 75
     2
 76
     1
 98
        1
 10
0.0
 20
0.0
450
        0
451
        0
460
0.0
461
0.0
452
        0
462
0.0
453
        0
470

  0
ENDBLK
  5
543
330
540
100
AcDbEntity
  8
0
100
AcDbBlockEnd
  0
BLOCK
  5
54D
330
54B
100
AcDbEntity
  8
0
100
AcDbBlockBegin
  2
Block_6
 70
     0
 10
0.0
 20
0.0
 30
0.0
  3
Block_6
  1

  0
INSERT
  5
550
330
54B
100
AcDbEntity
  8
Livello 3
100
AcDbBlockReference
  2
Block_7
 10
0.0
 20
0.0
 30
0.0
  0
ENDBLK
  5
54E
330
54B
100
AcDbEntity
  8
0
100
AcDbBlockEnd
  0
BLOCK
  5
551
330
54F
100
AcDbEntity
  8
0
100
AcDbBlockBegin
  2
Block_7
 70
     0
 10
0.0
 20
0.0
 30
0.0
  3
Block_7
  1

  0
SPLINE
  5
553
330
54F
100
AcDbEntity
  8
Livello 3
100
AcDbSpline
210
0.0
220
0.0
230
1.0
 70
    11
 71
     3
 72
    29
 73
    25
 74
     0
 42
0.000000001
 43
0.0000000001
 40
0.0
 40
0.0
 40
0.0
 40
0.0
 40
1.0
 40
1.0
 40
1.0
 40
2.0
 40
2.0
 40
2.0
 40
3.0
 40
3.0
 40
3.0
 40
4.0
 40
4.0
 40
4.0
 40
5.0
 40
5.0
 40
5.0
 40
6.0
 40
6.0
 40
6.0
 40
7.0
 40
7.0
 40
7.0
 40
8.0
 40
8.0
 40
8.0
 40
8.0
 10
24.35772080554251
 20
-14.7822846100197
 30
0.0
 10
24.35772080554251
 20
-14.7822846100197
 30
0.0
 10
24.35772080554251
 20
-14.78483398067879
 30
0.0
 10
24.35772080554251
 20
-14.78483398067879
 30
0.0
 10
24.35772080554251
 20
-14.78483398067879
 30
0.0
 10
24.43516655205093
 20
-14.92832220763945
 30
0.0
 10
24.43516655205093
 20
-14.92832220763945
 30
0.0
 10
24.43516655205093
 20
-14.92832220763945
 30
0.0
 10
24.35007269356527
 20
-14.94992295633196
 30
0.0
 10
24.35007269356527
 20
-14.94992295633196
 30
0.0
 10
24.35007269356527
 20
-14.94992295633196
 30
0.0
 10
24.25357556902341
 20
-14.76960665863398
 30
0.0
 10
24.25357556902341
 20
-14.76960665863398
 30
0.0
 10
24.25357556902341
 20
-14.76960665863398
 30
0.0
 10
24.25357556902341
 20
-14.67434976846683
 30
0.0
 10
24.25357556902341
 20
-14.67434976846683
 30
0.0
 10
24.25357556902341
 20
-14.67434976846683
 30
0.0
 10
25.07898599633442
 20
-14.67434976846683
 30
0.0
 10
25.07898599633442
 20
-14.67434976846683
 30
0.0
 10
25.07898599633442
 20
-14.67434976846683
 30
0.0
 10
25.07898599633442
 20
-14.7822846100197
 30
0.0
 10
25.07898599633442
 20
-14.7822846100197
 30
0.0
 10
25.07898599633442
 20
-14.7822846100197
 30
0.0
 10
24.35772080554251
 20
-14.7822846100197
 30
0.0
 10
24.35772080554251
 20
-14.7822846100197
 30
0.0
  0
HATCH
  5
554
330
54F
100
AcDbEntity
  8
Livello 3
 62
   250
420
  1907995
440
 33554687
100
AcDbHatch
 10
0.0
 20
0.0
 30
0.0
210
0.0
220
0.0
230
1.0
  2
SOLID
 70
     1
 71
     1
 91
        1
 92
        1
 93
        1
 72
     4
 94
        3
 73
     0
 74
     0
 95
       29
 96
       25
 40
0.0
 40
0.0
 40
0.0
 40
0.0
 40
1.0
 40
1.0
 40
1.0
 40
2.0
 40
2.0
 40
2.0
 40
3.0
 40
3.0
 40
3.0
 40
4.0
 40
4.0
 40
4.0
 40
5.0
 40
5.0
 40
5.0
 40
6.0
 40
6.0
 40
6.0
 40
7.0
 40
7.0
 40
7.0
 40
8.0
 40
8.0
 40
8.0
 40
8.0
 10
24.35772080554251
 20
-14.7822846100197
 10
24.35772080554251
 20
-14.7822846100197
 10
24.35772080554251
 20
-14.78483398067879
 10
24.35772080554251
 20
-14.78483398067879
 10
24.35772080554251
 20
-14.78483398067879
 10
24.43516655205093
 20
-14.92832220763945
 10
24.43516655205093
 20
-14.92832220763945
 10
24.43516655205093
 20
-14.92832220763945
 10
24.35007269356527
 20
-14.94992295633196
 10
24.35007269356527
 20
-14.94992295633196
 10
24.35007269356527
 20
-14.94992295633196
 10
24.25357556902341
 20
-14.76960665863398
 10
24.25357556902341
 20
-14.76960665863398
 10
24.25357556902341
 20
-14.76960665863398
 10
24.25357556902341
 20
-14.67434976846683
 10
24.25357556902341
 20
-14.67434976846683
 10
24.25357556902341
 20
-14.67434976846683
 10
25.07898599633442
 20
-14.67434976846683
 10
25.07898599633442
 20
-14.67434976846683
 10
25.07898599633442
 20
-14.67434976846683
 10
25.07898599633442
 20
-14.7822846100197
 10
25.07898599633442
 20
-14.7822846100197
 10
25.07898599633442
 20
-14.7822846100197
 10
24.35772080554251
 20
-14.7822846100197
 10
24.35772080554251
 20
-14.7822846100197
 97
        0
 97
        1
330
553
 75
     2
 76
     1
 98
        1
 10
0.0
 20
0.0
450
        0
451
        0
460
0.0
461
0.0
452
        0
462
0.0
453
        0
470

  0
SPLINE
  5
555
330
54F
100
AcDbEntity
  8
Livello 3
100
AcDbSpline
210
0.0
220
0.0
230
1.0
 70
    11
 71
     3
 72
    26
 73
    22
 74
     0
 42
0.000000001
 43
0.0000000001
 40
0.0
 40
0.0
 40
0.0
 40
0.0
 40
1.0
 40
1.0
 40
1.0
 40
2.0
 40
2.0
 40
2.0
 40
3.0
 40
3.0
 40
3.0
 40
4.0
 40
4.0
 40
4.0
 40
5.0
 40
5.0
 40
5.0
 40
6.0
 40
6.0
 40
6.0
 40
7.0
 40
7.0
 40
7.0
 40
7.0
 10
24.76658473773197
 20
-14.0279465025694
 30
0.0
 10
24.76658473773197
 20
-14.0279465025694
 30
0.0
 10
24.49104600082168
 20
-14.0279465025694
 30
0.0
 10
24.49104600082168
 20
-14.0279465025694
 30
0.0
 10
24.4478789543915
 20
-14.0279465025694
 30
0.0
 10
24.40467745700647
 20
-14.02667181723986
 30
0.0
 10
24.36151041057629
 20
-14.02415689753562
 30
0.0
 10
24.36151041057629
 20
-14.02415689753562
 30
0.0
 10
24.36151041057629
 20
-14.0279465025694
 30
0.0
 10
24.36151041057629
 20
-14.0279465025694
 30
0.0
 10
24.40977619832465
 20
-14.05337130725054
 30
0.0
 10
24.44532958373243
 20
-14.07366291965866
 30
0.0
 10
24.48343233979928
 20
-14.09650390272586
 30
0.0
 10
24.48343233979928
 20
-14.09650390272586
 30
0.0
 10
24.76406981802773
 20
-14.29842094911636
 30
0.0
 10
24.76406981802773
 20
-14.29842094911636
 30
0.0
 10
24.76406981802773
 20
-14.29842094911636
 30
0.0
 10
24.76658473773197
 20
-14.29842094911636
 30
0.0
 10
24.76658473773197
 20
-14.29842094911636
 30
0.0
 10
24.76658473773197
 20
-14.29842094911636
 30
0.0
 10
24.76658473773197
 20
-14.0279465025694
 30
0.0
 10
24.76658473773197
 20
-14.0279465025694
 30
0.0
  0
SPLINE
  5
556
330
54F
100
AcDbEntity
  8
Livello 3
100
AcDbSpline
210
0.0
220
0.0
230
1.0
 70
    11
 71
     3
 72
    38
 73
    34
 74
     0
 42
0.000000001
 43
0.0000000001
 40
0.0
 40
0.0
 40
0.0
 40
0.0
 40
1.0
 40
1.0
 40
1.0
 40
2.0
 40
2.0
 40
2.0
 40
3.0
 40
3.0
 40
3.0
 40
4.0
 40
4.0
 40
4.0
 40
5.0
 40
5.0
 40
5.0
 40
6.0
 40
6.0
 40
6.0
 40
7.0
 40
7.0
 40
7.0
 40
8.0
 40
8.0
 40
8.0
 40
9.0
 40
9.0
 40
9.0
 40
10.0
 40
10.0
 40
10.0
 40
11.0
 40
11.0
 40
11.0
 40
11.0
 10
25.07898599633442
 20
-14.0279465025694
 30
0.0
 10
25.07898599633442
 20
-14.0279465025694
 30
0.0
 10
24.85422796687672
 20
-14.0279465025694
 30
0.0
 10
24.85422796687672
 20
-14.0279465025694
 30
0.0
 10
24.85422796687672
 20
-14.0279465025694
 30
0.0
 10
24.85422796687672
 20
-14.41145453198741
 30
0.0
 10
24.85422796687672
 20
-14.41145453198741
 30
0.0
 10
24.85422796687672
 20
-14.41145453198741
 30
0.0
 10
24.78057182540208
 20
-14.41145453198741
 30
0.0
 10
24.78057182540208
 20
-14.41145453198741
 30
0.0
 10
24.78057182540208
 20
-14.41145453198741
 30
0.0
 10
24.25357556902341
 20
-14.0431738246142
 30
0.0
 10
24.25357556902341
 20
-14.0431738246142
 30
0.0
 10
24.25357556902341
 20
-14.0431738246142
 30
0.0
 10
24.25357556902341
 20
-13.92256103167561
 30
0.0
 10
24.25357556902341
 20
-13.92256103167561
 30
0.0
 10
24.25357556902341
 20
-13.92256103167561
 30
0.0
 10
24.76658473773197
 20
-13.92256103167561
 30
0.0
 10
24.76658473773197
 20
-13.92256103167561
 30
0.0
 10
24.76658473773197
 20
-13.92256103167561
 30
0.0
 10
24.76658473773197
 20
-13.80697807814547
 30
0.0
 10
24.76658473773197
 20
-13.80697807814547
 30
0.0
 10
24.76658473773197
 20
-13.80697807814547
 30
0.0
 10
24.85422796687672
 20
-13.80697807814547
 30
0.0
 10
24.85422796687672
 20
-13.80697807814547
 30
0.0
 10
24.85422796687672
 20
-13.80697807814547
 30
0.0
 10
24.85422796687672
 20
-13.92256103167561
 30
0.0
 10
24.85422796687672
 20
-13.92256103167561
 30
0.0
 10
24.85422796687672
 20
-13.92256103167561
 30
0.0
 10
25.07898599633442
 20
-13.92256103167561
 30
0.0
 10
25.07898599633442
 20
-13.92256103167561
 30
0.0
 10
25.07898599633442
 20
-13.92256103167561
 30
0.0
 10
25.07898599633442
 20
-14.0279465025694
 30
0.0
 10
25.07898599633442
 20
-14.0279465025694
 30
0.0
  0
HATCH
  5
557
330
54F
100
AcDbEntity
  8
Livello 3
 62
   250
420
  1907995
440
 33554687
100
AcDbHatch
 10
0.0
 20
0.0
 30
0.0
210
0.0
220
0.0
230
1.0
  2
SOLID
 70
     1
 71
     1
 91
        2
 92
        1
 93
        1
 72
     4
 94
        3
 73
     0
 74
     0
 95
       26
 96
       22
 40
0.0
 40
0.0
 40
0.0
 40
0.0
 40
1.0
 40
1.0
 40
1.0
 40
2.0
 40
2.0
 40
2.0
 40
3.0
 40
3.0
 40
3.0
 40
4.0
 40
4.0
 40
4.0
 40
5.0
 40
5.0
 40
5.0
 40
6.0
 40
6.0
 40
6.0
 40
7.0
 40
7.0
 40
7.0
 40
7.0
 10
24.76658473773197
 20
-14.0279465025694
 10
24.76658473773197
 20
-14.0279465025694
 10
24.49104600082168
 20
-14.0279465025694
 10
24.49104600082168
 20
-14.0279465025694
 10
24.4478789543915
 20
-14.0279465025694
 10
24.40467745700647
 20
-14.02667181723986
 10
24.36151041057629
 20
-14.02415689753562
 10
24.36151041057629
 20
-14.02415689753562
 10
24.36151041057629
 20
-14.0279465025694
 10
24.36151041057629
 20
-14.0279465025694
 10
24.40977619832465
 20
-14.05337130725054
 10
24.44532958373243
 20
-14.07366291965866
 10
24.48343233979928
 20
-14.09650390272586
 10
24.48343233979928
 20
-14.09650390272586
 10
24.76406981802773
 20
-14.29842094911636
 10
24.76406981802773
 20
-14.29842094911636
 10
24.76406981802773
 20
-14.29842094911636
 10
24.76658473773197
 20
-14.29842094911636
 10
24.76658473773197
 20
-14.29842094911636
 10
24.76658473773197
 20
-14.29842094911636
 10
24.76658473773197
 20
-14.0279465025694
 10
24.76658473773197
 20
-14.0279465025694
 97
        0
 97
        1
330
555
 92
        1
 93
        1
 72
     4
 94
        3
 73
     0
 74
     0
 95
       38
 96
       34
 40
0.0
 40
0.0
 40
0.0
 40
0.0
 40
1.0
 40
1.0
 40
1.0
 40
2.0
 40
2.0
 40
2.0
 40
3.0
 40
3.0
 40
3.0
 40
4.0
 40
4.0
 40
4.0
 40
5.0
 40
5.0
 40
5.0
 40
6.0
 40
6.0
 40
6.0
 40
7.0
 40
7.0
 40
7.0
 40
8.0
 40
8.0
 40
8.0
 40
9.0
 40
9.0
 40
9.0
 40
10.0
 40
10.0
 40
10.0
 40
11.0
 40
11.0
 40
11.0
 40
11.0
 10
25.07898599633442
 20
-14.0279465025694
 10
25.07898599633442
 20
-14.0279465025694
 10
24.85422796687672
 20
-14.0279465025694
 10
24.85422796687672
 20
-14.0279465025694
 10
24.85422796687672
 20
-14.0279465025694
 10
24.85422796687672
 20
-14.41145453198741
 10
24.85422796687672
 20
-14.41145453198741
 10
24.85422796687672
 20
-14.41145453198741
 10
24.78057182540208
 20
-14.41145453198741
 10
24.78057182540208
 20
-14.41145453198741
 10
24.78057182540208
 20
-14.41145453198741
 10
24.25357556902341
 20
-14.0431738246142
 10
24.25357556902341
 20
-14.0431738246142
 10
24.25357556902341
 20
-14.0431738246142
 10
24.25357556902341
 20
-13.92256103167561
 10
24.25357556902341
 20
-13.92256103167561
 10
24.25357556902341
 20
-13.92256103167561
 10
24.76658473773197
 20
-13.92256103167561
 10
24.76658473773197
 20
-13.92256103167561
 10
24.76658473773197
 20
-13.92256103167561
 10
24.76658473773197
 20
-13.80697807814547
 10
24.76658473773197
 20
-13.80697807814547
 10
24.76658473773197
 20
-13.80697807814547
 10
24.85422796687672
 20
-13.80697807814547
 10
24.85422796687672
 20
-13.80697807814547
 10
24.85422796687672
 20
-13.80697807814547
 10
24.85422796687672
 20
-13.92256103167561
 10
24.85422796687672
 20
-13.92256103167561
 10
24.85422796687672
 20
-13.92256103167561
 10
25.07898599633442
 20
-13.92256103167561
 10
25.07898599633442
 20
-13.92256103167561
 10
25.07898599633442
 20
-13.92256103167561
 10
25.07898599633442
 20
-14.0279465025694
 10
25.07898599633442
 20
-14.0279465025694
 97
        0
 97
        1
330
556
 75
     2
 76
     1
 98
        1
 10
0.0
 20
0.0
450
        0
451
        0
460
0.0
461
0.0
452
        0
462
0.0
453
        0
470

  0
ENDBLK
  5
552
330
54F
100
AcDbEntity
  8
0
100
AcDbBlockEnd
  0
ENDSEC
  0
SECTION
  2
ENTITIES
  0
SPLINE
  5
2CA
330
70
100
AcDbEntity
  8
Livello 3
100
AcDbSpline
210
0.0
220
0.0
230
1.0
 70
     8
 71
     3
 72
     8
 73
     4
 74
     0
 42
0.000000001
 43
0.0000000001
 40
0.0
 40
0.0
 40
0.0
 40
0.0
 40
1.0
 40
1.0
 40
1.0
 40
1.0
 10
21.6056612960003
 20
-13.60819698733865
 30
0.0
 10
21.60230637941922
 20
-13.61883323733597
 30
0.0
 10
21.60474054602379
 20
-13.63047137622197
 30
0.0
 10
21.61206068472592
 20
-13.63887101510878
 30
0.0
  0
SPLINE
  5
2CB
330
70
100
AcDbEntity
  8
Livello 3
100
AcDbSpline
210
0.0
220
0.0
230
1.0
 70
     8
 71
     3
 72
     8
 73
     4
 74
     0
 42
0.000000001
 43
0.0000000001
 40
0.0
 40
0.0
 40
0.0
 40
0.0
 40
1.0
 40
1.0
 40
1.0
 40
1.0
 10
21.75255090336394
 20
-13.68057993176497
 30
0.0
 10
21.82945645695747
 20
-13.6890183762073
 30
0.0
 10
21.90655956610152
 20
-13.69517787620584
 30
0.0
 10
21.98382848079689
 20
-13.69901609842704
 30
0.0
  0
SPLINE
  5
2CC
330
70
100
AcDbEntity
  8
Livello 3
100
AcDbSpline
210
0.0
220
0.0
230
1.0
 70
     8
 71
     3
 72
     8
 73
     4
 74
     0
 42
0.000000001
 43
0.0000000001
 40
0.0
 40
0.0
 40
0.0
 40
0.0
 40
1.0
 40
1.0
 40
1.0
 40
1.0
 10
21.98018837411861
 20
-13.69389729287283
 30
0.0
 10
22.0184606743578
 20
-13.69913957064925
 30
0.0
 10
22.05721331225802
 20
-13.70025787620458
 30
0.0
 10
22.095723096312
 20
-13.69725926509418
 30
0.0
  0
SPLINE
  5
2CD
330
70
100
AcDbEntity
  8
Livello 3
100
AcDbSpline
210
0.0
220
0.0
230
1.0
 70
     8
 71
     3
 72
     8
 73
     4
 74
     0
 42
0.000000001
 43
0.0000000001
 40
0.0
 40
0.0
 40
0.0
 40
0.0
 40
1.0
 40
1.0
 40
1.0
 40
1.0
 10
22.09632281853407
 20
-13.70057537620443
 30
0.0
 10
22.12571569939927
 20
-13.69613743176111
 30
0.0
 10
22.15427305978182
 20
-13.68702165398558
 30
0.0
 10
22.18082664243772
 20
-13.6736619595445
 30
0.0
  0
SPLINE
  5
2CE
330
70
100
AcDbEntity
  8
Livello 3
100
AcDbSpline
210
0.0
220
0.0
230
1.0
 70
     8
 71
     3
 72
     8
 73
     4
 74
     0
 42
0.000000001
 43
0.0000000001
 40
0.0
 40
0.0
 40
0.0
 40
0.0
 40
1.0
 40
1.0
 40
1.0
 40
1.0
 10
22.55774852171053
 20
-13.24867057076185
 30
0.0
 10
22.55935013278078
 20
-13.26398465409137
 30
0.0
 10
22.56922791030655
 20
-13.27717854297701
 30
0.0
 10
22.58346249327673
 20
-13.28298173741997
 30
0.0
  0
SPLINE
  5
2CF
330
70
100
AcDbEntity
  8
Livello 3
100
AcDbSpline
210
0.0
220
0.0
230
1.0
 70
     8
 71
     3
 72
     8
 73
     4
 74
     0
 42
0.000000001
 43
0.0000000001
 40
0.0
 40
0.0
 40
0.0
 40
0.0
 40
1.0
 40
1.0
 40
1.0
 40
1.0
 10
22.66065026908528
 20
-13.47930257070418
 30
0.0
 10
22.66628765783035
 20
-13.48630168181358
 30
0.0
 10
22.67556924092689
 20
-13.48921915403504
 30
0.0
 10
22.68416290737432
 20
-13.48670032070237
 30
0.0
  0
SPLINE
  5
2D0
330
70
100
AcDbEntity
  8
Livello 3
100
AcDbSpline
210
0.0
220
0.0
230
1.0
 70
     8
 71
     3
 72
     8
 73
     4
 74
     0
 42
0.000000001
 43
0.0000000001
 40
0.0
 40
0.0
 40
0.0
 40
0.0
 40
1.0
 40
1.0
 40
1.0
 40
1.0
 10
22.59286049303697
 20
-13.20707454299449
 30
0.0
 10
22.58798510427246
 20
-13.20011776521843
 30
0.0
 10
22.57950785448874
 20
-13.19655823744156
 30
0.0
 10
22.57110821581414
 20
-13.19795876521897
 30
0.0
  0
SPLINE
  5
2D1
330
70
100
AcDbEntity
  8
Livello 3
100
AcDbSpline
210
0.0
220
0.0
230
1.0
 70
     8
 71
     3
 72
     8
 73
     4
 74
     0
 42
0.000000001
 43
0.0000000001
 40
0.0
 40
0.0
 40
0.0
 40
0.0
 40
1.0
 40
1.0
 40
1.0
 40
1.0
 10
22.66092896352262
 20
-13.38131854295089
 30
0.0
 10
22.66253115172582
 20
-13.39663615405823
 30
0.0
 10
22.67240892950121
 20
-13.40983357072156
 30
0.0
 10
22.68668174064339
 20
-13.41567557072011
 30
0.0
  0
SPLINE
  5
2D2
330
70
100
AcDbEntity
  8
Livello 3
100
AcDbSpline
210
0.0
220
0.0
230
1.0
 70
     8
 71
     3
 72
     8
 73
     4
 74
     0
 42
0.000000001
 43
0.0000000001
 40
0.0
 40
0.0
 40
0.0
 40
0.0
 40
1.0
 40
1.0
 40
1.0
 40
1.0
 10
7.047358861857946
 20
-13.4877798207021
 30
0.0
 10
6.960593169627081
 20
-13.4114351818323
 30
0.0
 10
6.852114005727946
 20
-13.36420176517742
 30
0.0
 10
6.737161369771746
 20
-13.35272590406916
 30
0.0
  0
SPLINE
  5
2D3
330
70
100
AcDbEntity
  8
Livello 3
100
AcDbSpline
210
0.0
220
0.0
230
1.0
 70
     8
 71
     3
 72
     8
 73
     4
 74
     0
 42
0.000000001
 43
0.0000000001
 40
0.0
 40
0.0
 40
0.0
 40
0.0
 40
1.0
 40
1.0
 40
1.0
 40
1.0
 10
7.053013889491454
 20
-13.4847000707029
 30
0.0
 10
7.114742943472169
 20
-13.49905812625484
 30
0.0
 10
7.178648636286244
 20
-13.50129473736536
 30
0.0
 10
7.241199662468212
 20
-13.49125820959016
 30
0.0
  0
SPLINE
  5
2D4
330
70
100
AcDbEntity
  8
Livello 3
100
AcDbSpline
210
0.0
220
0.0
230
1.0
 70
     8
 71
     3
 72
     8
 73
     4
 74
     0
 42
0.000000001
 43
0.0000000001
 40
0.0
 40
0.0
 40
0.0
 40
0.0
 40
1.0
 40
1.0
 40
1.0
 40
1.0
 10
6.737196647548621
 20
-13.75020415396983
 30
0.0
 10
6.852173977948639
 20
-13.73868948730604
 30
0.0
 10
6.960653141847772
 20
-13.69145959842898
 30
0.0
 10
7.047394139634826
 20
-13.6151537651147
 30
0.0
  0
SPLINE
  5
2D5
330
70
100
AcDbEntity
  8
Livello 3
100
AcDbSpline
210
0.0
220
0.0
230
1.0
 70
     8
 71
     3
 72
     8
 73
     4
 74
     0
 42
0.000000001
 43
0.0000000001
 40
0.0
 40
0.0
 40
0.0
 40
0.0
 40
1.0
 40
1.0
 40
1.0
 40
1.0
 10
7.241157329135958
 20
-13.61167537622664
 30
0.0
 10
7.178606302953991
 20
-13.60167765400691
 30
0.0
 10
7.114721776806043
 20
-13.60387545956197
 30
0.0
 10
7.053013889491454
 20
-13.61823351511391
 30
0.0
  0
LINE
  5
2D6
330
70
100
AcDbEntity
  8
Livello 3
100
AcDbLine
 10
22.36587269327236
 20
-13.44826870960091
 30
0.0
 11
22.42973605275418
 21
-13.53672773735656
 31
0.0
  0
SPLINE
  5
2D7
330
70
100
AcDbEntity
  8
Livello 3
100
AcDbSpline
210
0.0
220
0.0
230
1.0
 70
     8
 71
     3
 72
     8
 73
     4
 74
     0
 42
0.000000001
 43
0.0000000001
 40
0.0
 40
0.0
 40
0.0
 40
0.0
 40
1.0
 40
1.0
 40
1.0
 40
1.0
 10
21.75895029208957
 20
-13.66142762621425
 30
0.0
 10
21.76403029195997
 20
-13.65790337621516
 30
0.0
 10
21.76682837417199
 20
-13.65190615399437
 30
0.0
 10
21.7662704307917
 20
-13.64574665399597
 30
0.0
  0
SPLINE
  5
2D8
330
70
100
AcDbEntity
  8
Livello 3
100
AcDbSpline
210
0.0
220
0.0
230
1.0
 70
     8
 71
     3
 72
     8
 73
     4
 74
     0
 42
0.000000001
 43
0.0000000001
 40
0.0
 40
0.0
 40
0.0
 40
0.0
 40
1.0
 40
1.0
 40
1.0
 40
1.0
 10
21.7662704307917
 20
-13.64574665399597
 30
0.0
 10
21.76570951413935
 20
-13.63959068177525
 30
0.0
 10
21.76186776423736
 20
-13.63418965399884
 30
0.0
 10
21.75623037549229
 20
-13.63162848733283
 30
0.0
  0
SPLINE
  5
2D9
330
70
100
AcDbEntity
  8
Livello 3
100
AcDbSpline
210
0.0
220
0.0
230
1.0
 70
     8
 71
     3
 72
     8
 73
     4
 74
     0
 42
0.000000001
 43
0.0000000001
 40
0.0
 40
0.0
 40
0.0
 40
0.0
 40
1.0
 40
1.0
 40
1.0
 40
1.0
 10
21.76099287537079
 20
-13.70233573731517
 30
0.0
 10
21.76738873631873
 20
-13.69949587620477
 30
0.0
 10
21.7714668473258
 20
-13.69309648731743
 30
0.0
 10
21.77123048622072
 20
-13.68610090398585
 30
0.0
  0
SPLINE
  5
2DA
330
70
100
AcDbEntity
  8
Livello 3
100
AcDbSpline
210
0.0
220
0.0
230
1.0
 70
     8
 71
     3
 72
     8
 73
     4
 74
     0
 42
0.000000001
 43
0.0000000001
 40
0.0
 40
0.0
 40
0.0
 40
0.0
 40
1.0
 40
1.0
 40
1.0
 40
1.0
 10
21.77123048622072
 20
-13.68610090398585
 30
0.0
 10
21.77102940289252
 20
-13.67910179287644
 30
0.0
 10
21.76662673633817
 20
-13.67294229287804
 30
0.0
 10
21.76007212539428
 20
-13.67050107065643
 30
0.0
  0
SPLINE
  5
2DB
330
70
100
AcDbEntity
  8
Livello 3
100
AcDbSpline
210
0.0
220
0.0
230
1.0
 70
     8
 71
     3
 72
     8
 73
     4
 74
     0
 42
0.000000001
 43
0.0000000001
 40
0.0
 40
0.0
 40
0.0
 40
0.0
 40
1.0
 40
1.0
 40
1.0
 40
1.0
 10
21.61257926804603
 20
-13.64546795955157
 30
0.0
 10
21.60746046262106
 20
-13.64714718177337
 30
0.0
 10
21.60406321270773
 20
-13.65198729288324
 30
0.0
 10
21.60418315714912
 20
-13.65738479288197
 30
0.0
  0
SPLINE
  5
2DC
330
70
100
AcDbEntity
  8
Livello 3
100
AcDbSpline
210
0.0
220
0.0
230
1.0
 70
     8
 71
     3
 72
     8
 73
     4
 74
     0
 42
0.000000001
 43
0.0000000001
 40
0.0
 40
0.0
 40
0.0
 40
0.0
 40
1.0
 40
1.0
 40
1.0
 40
1.0
 10
21.60418315714912
 20
-13.65738479288197
 30
0.0
 10
21.6043036519904
 20
-13.66278582065838
 30
0.0
 10
21.6079019853228
 20
-13.66746365399051
 30
0.0
 10
21.61309785136613
 20
-13.66894532065678
 30
0.0
  0
LINE
  5
2DD
330
70
100
AcDbEntity
  8
Livello 3
100
AcDbLine
 10
21.63365773973049
 20
-13.60551587622824
 30
0.0
 11
21.63365773973049
 21
-13.47286437626138
 31
0.0
  0
LINE
  5
2DE
330
70
100
AcDbEntity
  8
Livello 3
100
AcDbLine
 10
21.63365773973049
 20
-13.47286437626138
 30
0.0
 11
21.63365773973049
 21
-13.34016701518342
 31
0.0
  0
LINE
  5
2DF
330
70
100
AcDbEntity
  8
Livello 3
100
AcDbLine
 10
21.63365773973049
 20
-13.34016701518342
 30
0.0
 11
21.63365773973049
 21
-13.30577470963649
 31
0.0
  0
LINE
  5
2E0
330
70
100
AcDbEntity
  8
Livello 3
100
AcDbLine
 10
21.63365773973049
 20
-13.30577470963649
 30
0.0
 11
21.63857546182725
 21
-13.27134359853397
 31
0.0
  0
LINE
  5
2E1
330
70
100
AcDbEntity
  8
Livello 3
100
AcDbLine
 10
21.63857546182725
 20
-13.27134359853397
 30
0.0
 11
21.64841090602077
 21
-13.24186548743028
 31
0.0
  0
LINE
  5
2E2
330
70
100
AcDbEntity
  8
Livello 3
100
AcDbLine
 10
21.64841090602077
 20
-13.24186548743028
 30
0.0
 11
21.65821107243742
 21
-13.21239443188209
 31
0.0
  0
LINE
  5
2E3
330
70
100
AcDbEntity
  8
Livello 3
100
AcDbLine
 10
21.65821107243742
 20
-13.21239443188209
 30
0.0
 11
21.67296776650539
 21
-13.1780021263351
 31
0.0
  0
LINE
  5
2E4
330
70
100
AcDbEntity
  8
Livello 3
100
AcDbLine
 10
21.67296776650539
 20
-13.1780021263351
 30
0.0
 11
21.6828067384766
 21
-13.16816315411529
 31
0.0
  0
LINE
  5
2E5
330
70
100
AcDbEntity
  8
Livello 3
100
AcDbLine
 10
21.6828067384766
 20
-13.16816315411529
 30
0.0
 11
21.69260392974612
 21
-13.15340645967463
 31
0.0
  0
LINE
  5
2E6
330
70
100
AcDbEntity
  8
Livello 3
100
AcDbLine
 10
21.69260392974612
 20
-13.15340645967463
 30
0.0
 11
21.70736359896121
 21
-13.14360629301035
 31
0.0
  0
LINE
  5
2E7
330
70
100
AcDbEntity
  8
Livello 3
100
AcDbLine
 10
21.70736359896121
 20
-13.14360629301035
 30
0.0
 11
21.72211676525149
 21
-13.13868857078936
 31
0.0
  0
LINE
  5
2E8
330
70
100
AcDbEntity
  8
Livello 3
100
AcDbLine
 10
21.72211676525149
 20
-13.13868857078936
 30
0.0
 11
21.73683465376489
 21
-13.13377084856836
 31
0.0
  0
LINE
  5
2E9
330
70
100
AcDbEntity
  8
Livello 3
100
AcDbLine
 10
21.73683465376489
 20
-13.13377084856836
 30
0.0
 11
21.75651259770731
 21
-13.13377084856836
 31
0.0
  0
LINE
  5
2EA
330
70
100
AcDbEntity
  8
Livello 3
100
AcDbLine
 10
21.75651259770731
 20
-13.13377084856836
 30
0.0
 11
21.7712657639976
 21
-13.13868857078936
 31
0.0
  0
LINE
  5
2EB
330
70
100
AcDbEntity
  8
Livello 3
100
AcDbLine
 10
21.7712657639976
 20
-13.13868857078936
 30
0.0
 11
21.78598718028869
 21
-13.14848873745363
 31
0.0
  0
LINE
  5
2EC
330
70
100
AcDbEntity
  8
Livello 3
100
AcDbLine
 10
21.78598718028869
 20
-13.14848873745363
 30
0.0
 11
21.80074387435666
 21
-13.15832418189562
 31
0.0
  0
LINE
  5
2ED
330
70
100
AcDbEntity
  8
Livello 3
100
AcDbLine
 10
21.80074387435666
 20
-13.15832418189562
 30
0.0
 11
21.81058284632787
 21
-13.16816315411529
 31
0.0
  0
LINE
  5
2EE
330
70
100
AcDbEntity
  8
Livello 3
100
AcDbLine
 10
21.81058284632787
 20
-13.16816315411529
 30
0.0
 11
21.82037595718913
 21
-13.18291984855609
 31
0.0
  0
LINE
  5
2EF
330
70
100
AcDbEntity
  8
Livello 3
100
AcDbLine
 10
21.82037595718913
 20
-13.18291984855609
 30
0.0
 11
21.83021845693803
 21
-13.1976377374413
 31
0.0
  0
LINE
  5
2F0
330
70
100
AcDbEntity
  8
Livello 3
100
AcDbLine
 10
21.83021845693803
 20
-13.1976377374413
 30
0.0
 11
21.84005390113155
 21
-13.23203004298829
 31
0.0
  0
LINE
  5
2F1
330
70
100
AcDbEntity
  8
Livello 3
100
AcDbLine
 10
21.84005390113155
 20
-13.23203004298829
 30
0.0
 11
21.84497162322831
 21
-13.24679026520678
 31
0.0
  0
LINE
  5
2F2
330
70
100
AcDbEntity
  8
Livello 3
100
AcDbLine
 10
21.84497162322831
 20
-13.24679026520678
 30
0.0
 11
21.84497162322831
 21
-13.26646115409075
 31
0.0
  0
LINE
  5
2F3
330
70
100
AcDbEntity
  8
Livello 3
100
AcDbLine
 10
21.84497162322831
 20
-13.26646115409075
 30
0.0
 11
21.84497162322831
 21
-13.28118257075377
 31
0.0
  0
LINE
  5
2F4
330
70
100
AcDbEntity
  8
Livello 3
100
AcDbLine
 10
21.84497162322831
 20
-13.28118257075377
 30
0.0
 11
21.84497162322831
 21
-13.2959392651945
 31
0.0
  0
LINE
  5
2F5
330
70
100
AcDbEntity
  8
Livello 3
100
AcDbLine
 10
21.84497162322831
 20
-13.2959392651945
 30
0.0
 11
21.84497162322831
 21
-13.31557134852295
 31
0.0
  0
LINE
  5
2F6
330
70
100
AcDbEntity
  8
Livello 3
100
AcDbLine
 10
21.84497162322831
 20
-13.31557134852295
 30
0.0
 11
21.84005390113155
 21
-13.33033157074144
 31
0.0
  0
LINE
  5
2F7
330
70
100
AcDbEntity
  8
Livello 3
100
AcDbLine
 10
21.84005390113155
 20
-13.33033157074144
 30
0.0
 11
21.82530073484127
 21
-13.35980262628962
 31
0.0
  0
LINE
  5
2F8
330
70
100
AcDbEntity
  8
Livello 3
100
AcDbLine
 10
21.82530073484127
 20
-13.35980262628962
 30
0.0
 11
21.81058284632787
 21
-13.3893195429489
 31
0.0
  0
LINE
  5
2F9
330
70
100
AcDbEntity
  8
Livello 3
100
AcDbLine
 10
21.81058284632787
 20
-13.3893195429489
 30
0.0
 11
21.79582262448221
 21
-13.41879412627491
 31
0.0
  0
LINE
  5
2FA
330
70
100
AcDbEntity
  8
Livello 3
100
AcDbLine
 10
21.79582262448221
 20
-13.41879412627491
 30
0.0
 11
21.77614820831748
 21
-13.44826870960091
 31
0.0
  0
LINE
  5
2FB
330
70
100
AcDbEntity
  8
Livello 3
100
AcDbLine
 10
21.77614820831748
 20
-13.44826870960091
 30
0.0
 11
21.7614308741734
 21
-13.47773976514909
 31
0.0
  0
LINE
  5
2FC
330
70
100
AcDbEntity
  8
Livello 3
100
AcDbLine
 10
21.7614308741734
 20
-13.47773976514909
 30
0.0
 11
21.75159487561055
 21
-13.50725668180837
 31
0.0
  0
LINE
  5
2FD
330
70
100
AcDbEntity
  8
Livello 3
100
AcDbLine
 10
21.75159487561055
 20
-13.50725668180837
 30
0.0
 11
21.74175237586166
 21
-13.54164898735531
 31
0.0
  0
LINE
  5
2FE
330
70
100
AcDbEntity
  8
Livello 3
100
AcDbLine
 10
21.74175237586166
 20
-13.54164898735531
 30
0.0
 11
21.73683465376489
 21
-13.57112357068124
 31
0.0
  0
LINE
  5
2FF
330
70
100
AcDbEntity
  8
Livello 3
100
AcDbLine
 10
21.73683465376489
 20
-13.57112357068124
 30
0.0
 11
21.73195926500039
 21
-13.60551587622824
 31
0.0
  0
LINE
  5
300
330
70
100
AcDbEntity
  8
Livello 3
100
AcDbLine
 10
21.60910440702357
 20
-13.61043359844923
 30
0.0
 11
21.65329335034066
 21
-13.60551587622824
 31
0.0
  0
LINE
  5
301
330
70
100
AcDbEntity
  8
Livello 3
100
AcDbLine
 10
21.65329335034066
 20
-13.60551587622824
 30
0.0
 11
21.69260392974612
 21
-13.60551587622824
 31
0.0
  0
LINE
  5
302
330
70
100
AcDbEntity
  8
Livello 3
100
AcDbLine
 10
21.69260392974612
 20
-13.60551587622824
 30
0.0
 11
21.71228132105797
 21
-13.60551587622824
 31
0.0
  0
LINE
  5
303
330
70
100
AcDbEntity
  8
Livello 3
100
AcDbLine
 10
21.71228132105797
 20
-13.60551587622824
 30
0.0
 11
21.72703801512594
 21
-13.60551587622824
 31
0.0
  0
LINE
  5
304
330
70
100
AcDbEntity
  8
Livello 3
100
AcDbLine
 10
21.72703801512594
 20
-13.60551587622824
 30
0.0
 11
21.74175237586166
 21
-13.60551587622824
 31
0.0
  0
LINE
  5
305
330
70
100
AcDbEntity
  8
Livello 3
100
AcDbLine
 10
21.74175237586166
 20
-13.60551587622824
 30
0.0
 11
21.75651259770731
 21
-13.61043359844923
 31
0.0
  0
LINE
  5
306
330
70
100
AcDbEntity
  8
Livello 3
100
AcDbLine
 10
21.75651259770731
 20
-13.61043359844923
 30
0.0
 11
21.76634804190084
 21
-13.61043359844923
 31
0.0
  0
LINE
  5
307
330
70
100
AcDbEntity
  8
Livello 3
100
AcDbLine
 10
21.76634804190084
 20
-13.61043359844923
 30
0.0
 11
21.7712657639976
 21
-13.61535484844798
 31
0.0
  0
LINE
  5
308
330
70
100
AcDbEntity
  8
Livello 3
100
AcDbLine
 10
21.7712657639976
 20
-13.61535484844798
 30
0.0
 11
21.7712657639976
 21
-13.62027257066897
 31
0.0
  0
LINE
  5
309
330
70
100
AcDbEntity
  8
Livello 3
100
AcDbLine
 10
21.7712657639976
 20
-13.62027257066897
 30
0.0
 11
21.7712657639976
 21
-13.62519029288996
 31
0.0
  0
LINE
  5
30A
330
70
100
AcDbEntity
  8
Livello 3
100
AcDbLine
 10
21.7712657639976
 20
-13.62519029288996
 30
0.0
 11
21.76634804190084
 21
-13.63011154288871
 31
0.0
  0
LINE
  5
30B
330
70
100
AcDbEntity
  8
Livello 3
100
AcDbLine
 10
21.76634804190084
 20
-13.63011154288871
 30
0.0
 11
21.75651259770731
 21
-13.6350292651097
 31
0.0
  0
LINE
  5
30C
330
70
100
AcDbEntity
  8
Livello 3
100
AcDbLine
 10
21.75651259770731
 20
-13.6350292651097
 30
0.0
 11
21.74175237586166
 21
-13.64482943177391
 31
0.0
  0
LINE
  5
30D
330
70
100
AcDbEntity
  8
Livello 3
100
AcDbLine
 10
21.74175237586166
 20
-13.64482943177391
 30
0.0
 11
21.72703801512594
 21
-13.64482943177391
 31
0.0
  0
LINE
  5
30E
330
70
100
AcDbEntity
  8
Livello 3
100
AcDbLine
 10
21.72703801512594
 20
-13.64482943177391
 30
0.0
 11
21.70736359896121
 21
-13.64482943177391
 31
0.0
  0
LINE
  5
30F
330
70
100
AcDbEntity
  8
Livello 3
100
AcDbLine
 10
21.70736359896121
 20
-13.64482943177391
 30
0.0
 11
21.69260392974612
 21
-13.64482943177391
 31
0.0
  0
LINE
  5
310
330
70
100
AcDbEntity
  8
Livello 3
100
AcDbLine
 10
21.69260392974612
 20
-13.64482943177391
 30
0.0
 11
21.65329335034066
 21
-13.63991170955292
 31
0.0
  0
LINE
  5
311
330
70
100
AcDbEntity
  8
Livello 3
100
AcDbLine
 10
21.65329335034066
 20
-13.63991170955292
 30
0.0
 11
21.63857546182725
 21
-13.63991170955292
 31
0.0
  0
LINE
  5
312
330
70
100
AcDbEntity
  8
Livello 3
100
AcDbLine
 10
21.63857546182725
 20
-13.63991170955292
 30
0.0
 11
21.6238152399816
 21
-13.63991170955292
 31
0.0
  0
LINE
  5
313
330
70
100
AcDbEntity
  8
Livello 3
100
AcDbLine
 10
21.6238152399816
 20
-13.63991170955292
 30
0.0
 11
21.61397979578807
 21
-13.63991170955292
 31
0.0
  0
LINE
  5
314
330
70
100
AcDbEntity
  8
Livello 3
100
AcDbLine
 10
21.61397979578807
 20
-13.63991170955292
 30
0.0
 11
21.60910440702357
 21
-13.63991170955292
 31
0.0
  0
LINE
  5
315
330
70
100
AcDbEntity
  8
Livello 3
100
AcDbLine
 10
21.60910440702357
 20
-13.63991170955292
 30
0.0
 11
21.60910440702357
 21
-13.64482943177391
 31
0.0
  0
LINE
  5
316
330
70
100
AcDbEntity
  8
Livello 3
100
AcDbLine
 10
21.60910440702357
 20
-13.64482943177391
 30
0.0
 11
21.61397979578807
 21
-13.64974715399491
 31
0.0
  0
LINE
  5
317
330
70
100
AcDbEntity
  8
Livello 3
100
AcDbLine
 10
21.61397979578807
 20
-13.64974715399491
 30
0.0
 11
21.6238152399816
 21
-13.65958259843689
 31
0.0
  0
LINE
  5
318
330
70
100
AcDbEntity
  8
Livello 3
100
AcDbLine
 10
21.6238152399816
 20
-13.65958259843689
 30
0.0
 11
21.63365773973049
 21
-13.66942509843445
 31
0.0
  0
LINE
  5
319
330
70
100
AcDbEntity
  8
Livello 3
100
AcDbLine
 10
21.63365773973049
 20
-13.66942509843445
 30
0.0
 11
21.64841090602077
 21
-13.67434282065544
 31
0.0
  0
LINE
  5
31A
330
70
100
AcDbEntity
  8
Livello 3
100
AcDbLine
 10
21.64841090602077
 20
-13.67434282065544
 30
0.0
 11
21.66805059641893
 21
-13.67434282065544
 31
0.0
  0
LINE
  5
31B
330
70
100
AcDbEntity
  8
Livello 3
100
AcDbLine
 10
21.66805059641893
 20
-13.67434282065544
 30
0.0
 11
21.70244234908676
 21
-13.66942509843445
 31
0.0
  0
LINE
  5
31C
330
70
100
AcDbEntity
  8
Livello 3
100
AcDbLine
 10
21.70244234908676
 20
-13.66942509843445
 30
0.0
 11
21.72211676525149
 21
-13.66942509843445
 31
0.0
  0
LINE
  5
31D
330
70
100
AcDbEntity
  8
Livello 3
100
AcDbLine
 10
21.72211676525149
 20
-13.66942509843445
 30
0.0
 11
21.73683465376489
 21
-13.6645038484357
 31
0.0
  0
LINE
  5
31E
330
70
100
AcDbEntity
  8
Livello 3
100
AcDbLine
 10
21.73683465376489
 20
-13.6645038484357
 30
0.0
 11
21.74667009795842
 21
-13.6645038484357
 31
0.0
  0
LINE
  5
31F
330
70
100
AcDbEntity
  8
Livello 3
100
AcDbLine
 10
21.74667009795842
 20
-13.6645038484357
 30
0.0
 11
21.75651259770731
 21
-13.6645038484357
 31
0.0
  0
LINE
  5
320
330
70
100
AcDbEntity
  8
Livello 3
100
AcDbLine
 10
21.75651259770731
 20
-13.6645038484357
 30
0.0
 11
21.7614308741734
 21
-13.6645038484357
 31
0.0
  0
LINE
  5
321
330
70
100
AcDbEntity
  8
Livello 3
100
AcDbLine
 10
21.7614308741734
 20
-13.6645038484357
 30
0.0
 11
21.75651259770731
 21
-13.66942509843445
 31
0.0
  0
LINE
  5
322
330
70
100
AcDbEntity
  8
Livello 3
100
AcDbLine
 10
21.75651259770731
 20
-13.66942509843445
 30
0.0
 11
21.75159487561055
 21
-13.67434282065544
 31
0.0
  0
LINE
  5
323
330
70
100
AcDbEntity
  8
Livello 3
100
AcDbLine
 10
21.75159487561055
 20
-13.67434282065544
 30
0.0
 11
21.73683465376489
 21
-13.6841394595419
 31
0.0
  0
LINE
  5
324
330
70
100
AcDbEntity
  8
Livello 3
100
AcDbLine
 10
21.73683465376489
 20
-13.6841394595419
 30
0.0
 11
21.72211676525149
 21
-13.68906070954071
 31
0.0
  0
LINE
  5
325
330
70
100
AcDbEntity
  8
Livello 3
100
AcDbLine
 10
21.72211676525149
 20
-13.68906070954071
 30
0.0
 11
21.70736359896121
 21
-13.68906070954071
 31
0.0
  0
LINE
  5
326
330
70
100
AcDbEntity
  8
Livello 3
100
AcDbLine
 10
21.70736359896121
 20
-13.68906070954071
 30
0.0
 11
21.68772446057336
 21
-13.68906070954071
 31
0.0
  0
LINE
  5
327
330
70
100
AcDbEntity
  8
Livello 3
100
AcDbLine
 10
21.68772446057336
 20
-13.68906070954071
 30
0.0
 11
21.66805059641893
 21
-13.6841394595419
 31
0.0
  0
LINE
  5
328
330
70
100
AcDbEntity
  8
Livello 3
100
AcDbLine
 10
21.66805059641893
 20
-13.6841394595419
 30
0.0
 11
21.63857546182725
 21
-13.67434282065544
 31
0.0
  0
LINE
  5
329
330
70
100
AcDbEntity
  8
Livello 3
100
AcDbLine
 10
21.63857546182725
 20
-13.67434282065544
 30
0.0
 11
21.6238152399816
 21
-13.67434282065544
 31
0.0
  0
LINE
  5
32A
330
70
100
AcDbEntity
  8
Livello 3
100
AcDbLine
 10
21.6238152399816
 20
-13.67434282065544
 30
0.0
 11
21.60910440702357
 21
-13.67434282065544
 31
0.0
  0
LINE
  5
32B
330
70
100
AcDbEntity
  8
Livello 3
100
AcDbLine
 10
21.60910440702357
 20
-13.67434282065544
 30
0.0
 11
21.60418315714912
 21
-13.67434282065544
 31
0.0
  0
LINE
  5
32C
330
70
100
AcDbEntity
  8
Livello 3
100
AcDbLine
 10
21.60418315714912
 20
-13.67434282065544
 30
0.0
 11
21.59926190727467
 21
-13.67921820954309
 31
0.0
  0
LINE
  5
32D
330
70
100
AcDbEntity
  8
Livello 3
100
AcDbLine
 10
21.59926190727467
 20
-13.67921820954309
 30
0.0
 11
21.59434418517791
 21
-13.6841394595419
 31
0.0
  0
LINE
  5
32E
330
70
100
AcDbEntity
  8
Livello 3
100
AcDbLine
 10
21.59434418517791
 20
-13.6841394595419
 30
0.0
 11
21.59926190727467
 21
-13.68906070954071
 31
0.0
  0
LINE
  5
32F
330
70
100
AcDbEntity
  8
Livello 3
100
AcDbLine
 10
21.59926190727467
 20
-13.68906070954071
 30
0.0
 11
21.59926190727467
 21
-13.6988961539827
 31
0.0
  0
LINE
  5
330
330
70
100
AcDbEntity
  8
Livello 3
100
AcDbLine
 10
21.59926190727467
 20
-13.6988961539827
 30
0.0
 11
21.60910440702357
 21
-13.70873512620238
 31
0.0
  0
LINE
  5
331
330
70
100
AcDbEntity
  8
Livello 3
100
AcDbLine
 10
21.60910440702357
 20
-13.70873512620238
 30
0.0
 11
21.61889751788484
 21
-13.70873512620238
 31
0.0
  0
LINE
  5
332
330
70
100
AcDbEntity
  8
Livello 3
100
AcDbLine
 10
21.61889751788484
 20
-13.70873512620238
 30
0.0
 11
21.63365773973049
 21
-13.71365637620118
 31
0.0
  0
LINE
  5
333
330
70
100
AcDbEntity
  8
Livello 3
100
AcDbLine
 10
21.63365773973049
 20
-13.71365637620118
 30
0.0
 11
21.64841090602077
 21
-13.71365637620118
 31
0.0
  0
LINE
  5
334
330
70
100
AcDbEntity
  8
Livello 3
100
AcDbLine
 10
21.64841090602077
 20
-13.71365637620118
 30
0.0
 11
21.67788901637984
 21
-13.70873512620238
 31
0.0
  0
LINE
  5
335
330
70
100
AcDbEntity
  8
Livello 3
100
AcDbLine
 10
21.67788901637984
 20
-13.70873512620238
 30
0.0
 11
21.70736359896121
 21
-13.70381387620363
 31
0.0
  0
LINE
  5
336
330
70
100
AcDbEntity
  8
Livello 3
100
AcDbLine
 10
21.70736359896121
 20
-13.70381387620363
 30
0.0
 11
21.73683465376489
 21
-13.70381387620363
 31
0.0
  0
LINE
  5
337
330
70
100
AcDbEntity
  8
Livello 3
100
AcDbLine
 10
21.73683465376489
 20
-13.70381387620363
 30
0.0
 11
21.7614308741734
 21
-13.70381387620363
 31
0.0
  0
LINE
  5
338
330
70
100
AcDbEntity
  8
Livello 3
100
AcDbLine
 10
21.75159487561055
 20
-13.63991170955292
 30
0.0
 11
21.76634804190084
 21
-13.63991170955292
 31
0.0
  0
LINE
  5
339
330
70
100
AcDbEntity
  8
Livello 3
100
AcDbLine
 10
21.76634804190084
 20
-13.63991170955292
 30
0.0
 11
21.78106593041424
 21
-13.63991170955292
 31
0.0
  0
LINE
  5
33A
330
70
100
AcDbEntity
  8
Livello 3
100
AcDbLine
 10
21.78106593041424
 20
-13.63991170955292
 30
0.0
 11
21.80074387435666
 21
-13.63991170955292
 31
0.0
  0
LINE
  5
33B
330
70
100
AcDbEntity
  8
Livello 3
100
AcDbLine
 10
21.80074387435666
 20
-13.63991170955292
 30
0.0
 11
21.82037595718913
 21
-13.64482943177391
 31
0.0
  0
LINE
  5
33C
330
70
100
AcDbEntity
  8
Livello 3
100
AcDbLine
 10
21.82037595718913
 20
-13.64482943177391
 30
0.0
 11
21.90884203826551
 21
-13.64974715399491
 31
0.0
  0
LINE
  5
33D
330
70
100
AcDbEntity
  8
Livello 3
100
AcDbLine
 10
21.90884203826551
 20
-13.64974715399491
 30
0.0
 11
22.07592817289168
 21
-13.6645038484357
 31
0.0
  0
LINE
  5
33E
330
70
100
AcDbEntity
  8
Livello 3
100
AcDbLine
 10
22.17914742025834
 20
-13.67434282065544
 30
0.0
 11
22.20861847506202
 21
-13.65958259843689
 31
0.0
  0
LINE
  5
33F
330
70
100
AcDbEntity
  8
Livello 3
100
AcDbLine
 10
22.20861847506202
 20
-13.65958259843689
 30
0.0
 11
22.2380930576434
 21
-13.64482943177391
 31
0.0
  0
LINE
  5
340
330
70
100
AcDbEntity
  8
Livello 3
100
AcDbLine
 10
22.2380930576434
 20
-13.64482943177391
 30
0.0
 11
22.26268872368258
 21
-13.62027257066897
 31
0.0
  0
LINE
  5
341
330
70
100
AcDbEntity
  8
Livello 3
100
AcDbLine
 10
22.26268872368258
 20
-13.62027257066897
 30
0.0
 11
22.2872420563895
 21
-13.59571923734178
 31
0.0
  0
LINE
  5
342
330
70
100
AcDbEntity
  8
Livello 3
100
AcDbLine
 10
21.65821107243742
 20
-13.60551587622824
 30
0.0
 11
21.65821107243742
 21
-13.47286437626138
 31
0.0
  0
LINE
  5
343
330
70
100
AcDbEntity
  8
Livello 3
100
AcDbLine
 10
21.65821107243742
 20
-13.47286437626138
 30
0.0
 11
21.65821107243742
 21
-13.34016701518342
 31
0.0
  0
LINE
  5
344
330
70
100
AcDbEntity
  8
Livello 3
100
AcDbLine
 10
21.65821107243742
 20
-13.34016701518342
 30
0.0
 11
21.66312879453418
 21
-13.30577470963649
 31
0.0
  0
LINE
  5
345
330
70
100
AcDbEntity
  8
Livello 3
100
AcDbLine
 10
21.66312879453418
 20
-13.30577470963649
 30
0.0
 11
21.66312879453418
 21
-13.27626132075496
 31
0.0
  0
LINE
  5
346
330
70
100
AcDbEntity
  8
Livello 3
100
AcDbLine
 10
21.66312879453418
 20
-13.27626132075496
 30
0.0
 11
21.67296776650539
 21
-13.24679026520678
 31
0.0
  0
LINE
  5
347
330
70
100
AcDbEntity
  8
Livello 3
100
AcDbLine
 10
21.67296776650539
 20
-13.24679026520678
 30
0.0
 11
21.6828067384766
 21
-13.21731215410309
 31
0.0
  0
LINE
  5
348
330
70
100
AcDbEntity
  8
Livello 3
100
AcDbLine
 10
21.6828067384766
 20
-13.21731215410309
 30
0.0
 11
21.69752109921232
 21
-13.19271648744249
 31
0.0
  0
LINE
  5
349
330
70
100
AcDbEntity
  8
Livello 3
100
AcDbLine
 10
21.69752109921232
 20
-13.19271648744249
 30
0.0
 11
21.70244234908676
 21
-13.18291984855609
 31
0.0
  0
LINE
  5
34A
330
70
100
AcDbEntity
  8
Livello 3
100
AcDbLine
 10
21.70244234908676
 20
-13.18291984855609
 30
0.0
 11
21.71228132105797
 21
-13.17308440411411
 31
0.0
  0
LINE
  5
34B
330
70
100
AcDbEntity
  8
Livello 3
100
AcDbLine
 10
21.71228132105797
 20
-13.17308440411411
 30
0.0
 11
21.72211676525149
 21
-13.1632454318943
 31
0.0
  0
LINE
  5
34C
330
70
100
AcDbEntity
  8
Livello 3
100
AcDbLine
 10
21.72211676525149
 20
-13.1632454318943
 30
0.0
 11
21.73195926500039
 21
-13.1632454318943
 31
0.0
  0
LINE
  5
34D
330
70
100
AcDbEntity
  8
Livello 3
100
AcDbLine
 10
21.73195926500039
 20
-13.1632454318943
 30
0.0
 11
21.74175237586166
 21
-13.15832418189562
 31
0.0
  0
LINE
  5
34E
330
70
100
AcDbEntity
  8
Livello 3
100
AcDbLine
 10
21.74175237586166
 20
-13.15832418189562
 30
0.0
 11
21.75159487561055
 21
-13.15832418189562
 31
0.0
  0
LINE
  5
34F
330
70
100
AcDbEntity
  8
Livello 3
100
AcDbLine
 10
21.75159487561055
 20
-13.15832418189562
 30
0.0
 11
21.76634804190084
 21
-13.1632454318943
 31
0.0
  0
LINE
  5
350
330
70
100
AcDbEntity
  8
Livello 3
100
AcDbLine
 10
21.76634804190084
 20
-13.1632454318943
 30
0.0
 11
21.77614820831748
 21
-13.16816315411529
 31
0.0
  0
LINE
  5
351
330
70
100
AcDbEntity
  8
Livello 3
100
AcDbLine
 10
21.77614820831748
 20
-13.16816315411529
 30
0.0
 11
21.78598718028869
 21
-13.1780021263351
 31
0.0
  0
LINE
  5
352
330
70
100
AcDbEntity
  8
Livello 3
100
AcDbLine
 10
21.78598718028869
 20
-13.1780021263351
 30
0.0
 11
21.79090490238545
 21
-13.18779876522149
 31
0.0
  0
LINE
  5
353
330
70
100
AcDbEntity
  8
Livello 3
100
AcDbLine
 10
21.79090490238545
 20
-13.18779876522149
 30
0.0
 11
21.80074387435666
 21
-13.1976377374413
 31
0.0
  0
LINE
  5
354
330
70
100
AcDbEntity
  8
Livello 3
100
AcDbLine
 10
21.80074387435666
 20
-13.1976377374413
 30
0.0
 11
21.80566159645342
 21
-13.21239443188209
 31
0.0
  0
LINE
  5
355
330
70
100
AcDbEntity
  8
Livello 3
100
AcDbLine
 10
21.80566159645342
 20
-13.21239443188209
 30
0.0
 11
21.81545823509237
 21
-13.24186548743028
 31
0.0
  0
LINE
  5
356
330
70
100
AcDbEntity
  8
Livello 3
100
AcDbLine
 10
21.81545823509237
 20
-13.24186548743028
 30
0.0
 11
21.82037595718913
 21
-13.26646115409075
 31
0.0
  0
LINE
  5
357
330
70
100
AcDbEntity
  8
Livello 3
100
AcDbLine
 10
21.82037595718913
 20
-13.26646115409075
 30
0.0
 11
21.82037595718913
 21
-13.2959392651945
 31
0.0
  0
LINE
  5
358
330
70
100
AcDbEntity
  8
Livello 3
100
AcDbLine
 10
21.82037595718913
 20
-13.2959392651945
 30
0.0
 11
21.81545823509237
 21
-13.32541384852044
 31
0.0
  0
LINE
  5
359
330
70
100
AcDbEntity
  8
Livello 3
100
AcDbLine
 10
21.81545823509237
 20
-13.32541384852044
 30
0.0
 11
21.80566159645342
 21
-13.35000951518098
 31
0.0
  0
LINE
  5
35A
330
70
100
AcDbEntity
  8
Livello 3
100
AcDbLine
 10
21.80566159645342
 20
-13.35000951518098
 30
0.0
 11
21.79090490238545
 21
-13.37948057072916
 31
0.0
  0
LINE
  5
35B
330
70
100
AcDbEntity
  8
Livello 3
100
AcDbLine
 10
21.79090490238545
 20
-13.37948057072916
 30
0.0
 11
21.7712657639976
 21
-13.4089551540551
 31
0.0
  0
LINE
  5
35C
330
70
100
AcDbEntity
  8
Livello 3
100
AcDbLine
 10
21.7712657639976
 20
-13.4089551540551
 30
0.0
 11
21.75651259770731
 21
-13.43842620960329
 31
0.0
  0
LINE
  5
35D
330
70
100
AcDbEntity
  8
Livello 3
100
AcDbLine
 10
21.75651259770731
 20
-13.43842620960329
 30
0.0
 11
21.73683465376489
 21
-13.46794665404038
 31
0.0
  0
LINE
  5
35E
330
70
100
AcDbEntity
  8
Livello 3
100
AcDbLine
 10
21.73683465376489
 20
-13.46794665404038
 30
0.0
 11
21.72703801512594
 21
-13.50233543180956
 31
0.0
  0
LINE
  5
35F
330
70
100
AcDbEntity
  8
Livello 3
100
AcDbLine
 10
21.72703801512594
 20
-13.50233543180956
 30
0.0
 11
21.71719904315473
 21
-13.53672773735656
 31
0.0
  0
LINE
  5
360
330
70
100
AcDbEntity
  8
Livello 3
100
AcDbLine
 10
21.71719904315473
 20
-13.53672773735656
 30
0.0
 11
21.70736359896121
 21
-13.57112357068124
 31
0.0
  0
LINE
  5
361
330
70
100
AcDbEntity
  8
Livello 3
100
AcDbLine
 10
21.70736359896121
 20
-13.57112357068124
 30
0.0
 11
21.70244234908676
 21
-13.60551587622824
 31
0.0
  0
LINE
  5
362
330
70
100
AcDbEntity
  8
Livello 3
100
AcDbLine
 10
21.63365773973049
 20
-13.55636334846276
 30
0.0
 11
21.6238152399816
 21
-13.52689229291457
 31
0.0
  0
LINE
  5
363
330
70
100
AcDbEntity
  8
Livello 3
100
AcDbLine
 10
21.6238152399816
 20
-13.52689229291457
 30
0.0
 11
21.61397979578807
 21
-13.49741770958857
 31
0.0
  0
LINE
  5
364
330
70
100
AcDbEntity
  8
Livello 3
100
AcDbLine
 10
21.61397979578807
 20
-13.49741770958857
 30
0.0
 11
21.59926190727467
 21
-13.46794665404038
 31
0.0
  0
LINE
  5
365
330
70
100
AcDbEntity
  8
Livello 3
100
AcDbLine
 10
21.59926190727467
 20
-13.46794665404038
 30
0.0
 11
21.57958749110994
 21
-13.43842620960329
 31
0.0
  0
LINE
  5
366
330
70
100
AcDbEntity
  8
Livello 3
100
AcDbLine
 10
21.57958749110994
 20
-13.43842620960329
 30
0.0
 11
21.56486960259654
 21
-13.4089551540551
 31
0.0
  0
LINE
  5
367
330
70
100
AcDbEntity
  8
Livello 3
100
AcDbLine
 10
21.56486960259654
 20
-13.4089551540551
 30
0.0
 11
21.55011290852856
 21
-13.37948057072916
 31
0.0
  0
LINE
  5
368
330
70
100
AcDbEntity
  8
Livello 3
100
AcDbLine
 10
21.55011290852856
 20
-13.37948057072916
 30
0.0
 11
21.54027448533978
 21
-13.35488490406863
 31
0.0
  0
LINE
  5
369
330
70
100
AcDbEntity
  8
Livello 3
100
AcDbLine
 10
21.54027448533978
 20
-13.35488490406863
 30
0.0
 11
21.53043849236384
 21
-13.33033157074144
 31
0.0
  0
LINE
  5
36A
330
70
100
AcDbEntity
  8
Livello 3
100
AcDbLine
 10
21.53043849236384
 20
-13.33033157074144
 30
0.0
 11
21.53043849236384
 21
-13.31557134852295
 31
0.0
  0
LINE
  5
36B
330
70
100
AcDbEntity
  8
Livello 3
100
AcDbLine
 10
21.53043849236384
 20
-13.31557134852295
 30
0.0
 11
21.53043849236384
 21
-13.30577470963649
 31
0.0
  0
LINE
  5
36C
330
70
100
AcDbEntity
  8
Livello 3
100
AcDbLine
 10
21.53043849236384
 20
-13.30577470963649
 30
0.0
 11
21.5353562144606
 21
-13.29101801519576
 31
0.0
  0
LINE
  5
36D
330
70
100
AcDbEntity
  8
Livello 3
100
AcDbLine
 10
21.5353562144606
 20
-13.29101801519576
 30
0.0
 11
21.5353562144606
 21
-13.28118257075377
 31
0.0
  0
LINE
  5
36E
330
70
100
AcDbEntity
  8
Livello 3
100
AcDbLine
 10
21.5353562144606
 20
-13.28118257075377
 30
0.0
 11
21.54027448533978
 21
-13.27134359853397
 31
0.0
  0
LINE
  5
36F
330
70
100
AcDbEntity
  8
Livello 3
100
AcDbLine
 10
21.54027448533978
 20
-13.27134359853397
 30
0.0
 11
21.55011290852856
 21
-13.26154343186976
 31
0.0
  0
LINE
  5
370
330
70
100
AcDbEntity
  8
Livello 3
100
AcDbLine
 10
21.55011290852856
 20
-13.26154343186976
 30
0.0
 11
21.55503415840302
 21
-13.25662570964876
 31
0.0
  0
LINE
  5
371
330
70
100
AcDbEntity
  8
Livello 3
100
AcDbLine
 10
21.55503415840302
 20
-13.25662570964876
 30
0.0
 11
21.56486960259654
 21
-13.25170798742777
 31
0.0
  0
LINE
  5
372
330
70
100
AcDbEntity
  8
Livello 3
100
AcDbLine
 10
21.56486960259654
 20
-13.25170798742777
 30
0.0
 11
21.57466624123549
 21
-13.25170798742777
 31
0.0
  0
LINE
  5
373
330
70
100
AcDbEntity
  8
Livello 3
100
AcDbLine
 10
21.57466624123549
 20
-13.25170798742777
 30
0.0
 11
21.58942646308115
 21
-13.25170798742777
 31
0.0
  0
LINE
  5
374
330
70
100
AcDbEntity
  8
Livello 3
100
AcDbLine
 10
21.58942646308115
 20
-13.25170798742777
 30
0.0
 11
21.59926190727467
 21
-13.25170798742777
 31
0.0
  0
LINE
  5
375
330
70
100
AcDbEntity
  8
Livello 3
100
AcDbLine
 10
21.59926190727467
 20
-13.25170798742777
 30
0.0
 11
21.60910440702357
 21
-13.25662570964876
 31
0.0
  0
LINE
  5
376
330
70
100
AcDbEntity
  8
Livello 3
100
AcDbLine
 10
21.60910440702357
 20
-13.25662570964876
 30
0.0
 11
21.61889751788484
 21
-13.26154343186976
 31
0.0
  0
LINE
  5
377
330
70
100
AcDbEntity
  8
Livello 3
100
AcDbLine
 10
21.61889751788484
 20
-13.26154343186976
 30
0.0
 11
21.6238152399816
 21
-13.27134359853397
 31
0.0
  0
LINE
  5
378
330
70
100
AcDbEntity
  8
Livello 3
100
AcDbLine
 10
21.6238152399816
 20
-13.27134359853397
 30
0.0
 11
21.63365773973049
 21
-13.28118257075377
 31
0.0
  0
LINE
  5
379
330
70
100
AcDbEntity
  8
Livello 3
100
AcDbLine
 10
21.63365773973049
 20
-13.28118257075377
 30
0.0
 11
21.63857546182725
 21
-13.29101801519576
 31
0.0
  0
LINE
  5
37A
330
70
100
AcDbEntity
  8
Livello 3
100
AcDbLine
 10
21.63365773973049
 20
-13.76276657063338
 30
0.0
 11
21.6238152399816
 21
-13.79227995951485
 31
0.0
  0
LINE
  5
37B
330
70
100
AcDbEntity
  8
Livello 3
100
AcDbLine
 10
21.6238152399816
 20
-13.79227995951485
 30
0.0
 11
21.60910440702357
 21
-13.82175101506304
 31
0.0
  0
LINE
  5
37C
330
70
100
AcDbEntity
  8
Livello 3
100
AcDbLine
 10
21.60910440702357
 20
-13.82175101506304
 30
0.0
 11
21.59434418517791
 21
-13.85122559838904
 31
0.0
  0
LINE
  5
37D
330
70
100
AcDbEntity
  8
Livello 3
100
AcDbLine
 10
21.59434418517791
 20
-13.85122559838904
 30
0.0
 11
21.57958749110994
 21
-13.8807389872705
 31
0.0
  0
LINE
  5
37E
330
70
100
AcDbEntity
  8
Livello 3
100
AcDbLine
 10
21.57958749110994
 20
-13.8807389872705
 30
0.0
 11
21.55995188049978
 21
-13.91021709837426
 31
0.0
  0
LINE
  5
37F
330
70
100
AcDbEntity
  8
Livello 3
100
AcDbLine
 10
21.55995188049978
 20
-13.91021709837426
 30
0.0
 11
21.54519165865412
 21
-13.93968815392244
 31
0.0
  0
LINE
  5
380
330
70
100
AcDbEntity
  8
Livello 3
100
AcDbLine
 10
21.54519165865412
 20
-13.93968815392244
 30
0.0
 11
21.5353562144606
 21
-13.96428382058298
 31
0.0
  0
LINE
  5
381
330
70
100
AcDbEntity
  8
Livello 3
100
AcDbLine
 10
21.5353562144606
 20
-13.96428382058298
 30
0.0
 11
21.52555604804395
 21
-13.98884068168799
 31
0.0
  0
LINE
  5
382
330
70
100
AcDbEntity
  8
Livello 3
100
AcDbLine
 10
21.52555604804395
 20
-13.98884068168799
 30
0.0
 11
21.52555604804395
 21
-14.00359384835097
 31
0.0
  0
LINE
  5
383
330
70
100
AcDbEntity
  8
Livello 3
100
AcDbLine
 10
21.52555604804395
 20
-14.00359384835097
 30
0.0
 11
21.52555604804395
 21
-14.01339401501518
 31
0.0
  0
LINE
  5
384
330
70
100
AcDbEntity
  8
Livello 3
100
AcDbLine
 10
21.52555604804395
 20
-14.01339401501518
 30
0.0
 11
21.53043849236384
 21
-14.02814718167816
 31
0.0
  0
LINE
  5
385
330
70
100
AcDbEntity
  8
Livello 3
100
AcDbLine
 10
21.53043849236384
 20
-14.02814718167816
 30
0.0
 11
21.53043849236384
 21
-14.03798968167565
 31
0.0
  0
LINE
  5
386
330
70
100
AcDbEntity
  8
Livello 3
100
AcDbLine
 10
21.53043849236384
 20
-14.03798968167565
 30
0.0
 11
21.5353562144606
 21
-14.04778632056211
 31
0.0
  0
LINE
  5
387
330
70
100
AcDbEntity
  8
Livello 3
100
AcDbLine
 10
21.5353562144606
 20
-14.04778632056211
 30
0.0
 11
21.54519165865412
 21
-14.05762529278185
 31
0.0
  0
LINE
  5
388
330
70
100
AcDbEntity
  8
Livello 3
100
AcDbLine
 10
21.54519165865412
 20
-14.05762529278185
 30
0.0
 11
21.55011290852856
 21
-14.06254301500284
 31
0.0
  0
LINE
  5
389
330
70
100
AcDbEntity
  8
Livello 3
100
AcDbLine
 10
21.55011290852856
 20
-14.06254301500284
 30
0.0
 11
21.55995188049978
 21
-14.06746426500165
 31
0.0
  0
LINE
  5
38A
330
70
100
AcDbEntity
  8
Livello 3
100
AcDbLine
 10
21.55995188049978
 20
-14.06746426500165
 30
0.0
 11
21.56974851913873
 21
-14.06746426500165
 31
0.0
  0
LINE
  5
38B
330
70
100
AcDbEntity
  8
Livello 3
100
AcDbLine
 10
21.56974851913873
 20
-14.06746426500165
 30
0.0
 11
21.57958749110994
 21
-14.07238198722265
 31
0.0
  0
LINE
  5
38C
330
70
100
AcDbEntity
  8
Livello 3
100
AcDbLine
 10
21.57958749110994
 20
-14.07238198722265
 30
0.0
 11
21.58942646308115
 21
-14.06746426500165
 31
0.0
  0
LINE
  5
38D
330
70
100
AcDbEntity
  8
Livello 3
100
AcDbLine
 10
21.58942646308115
 20
-14.06746426500165
 30
0.0
 11
21.59926190727467
 21
-14.06254301500284
 31
0.0
  0
LINE
  5
38E
330
70
100
AcDbEntity
  8
Livello 3
100
AcDbLine
 10
21.59926190727467
 20
-14.06254301500284
 30
0.0
 11
21.60910440702357
 21
-14.05762529278185
 31
0.0
  0
LINE
  5
38F
330
70
100
AcDbEntity
  8
Livello 3
100
AcDbLine
 10
21.60910440702357
 20
-14.05762529278185
 30
0.0
 11
21.61889751788484
 21
-14.04778632056211
 31
0.0
  0
LINE
  5
390
330
70
100
AcDbEntity
  8
Livello 3
100
AcDbLine
 10
21.61889751788484
 20
-14.04778632056211
 30
0.0
 11
21.6238152399816
 21
-14.03798968167565
 31
0.0
  0
LINE
  5
391
330
70
100
AcDbEntity
  8
Livello 3
100
AcDbLine
 10
21.6238152399816
 20
-14.03798968167565
 30
0.0
 11
21.63365773973049
 21
-14.02814718167816
 31
0.0
  0
LINE
  5
392
330
70
100
AcDbEntity
  8
Livello 3
100
AcDbLine
 10
21.65821107243742
 20
-13.70873512620238
 30
0.0
 11
21.65821107243742
 21
-13.84630787616804
 31
0.0
  0
LINE
  5
393
330
70
100
AcDbEntity
  8
Livello 3
100
AcDbLine
 10
21.65821107243742
 20
-13.84630787616804
 30
0.0
 11
21.65329335034066
 21
-13.97899818169037
 31
0.0
  0
LINE
  5
394
330
70
100
AcDbEntity
  8
Livello 3
100
AcDbLine
 10
21.65329335034066
 20
-13.97899818169037
 30
0.0
 11
21.65821107243742
 21
-14.01339401501518
 31
0.0
  0
LINE
  5
395
330
70
100
AcDbEntity
  8
Livello 3
100
AcDbLine
 10
21.65821107243742
 20
-14.01339401501518
 30
0.0
 11
21.65821107243742
 21
-14.04290740389664
 31
0.0
  0
LINE
  5
396
330
70
100
AcDbEntity
  8
Livello 3
100
AcDbLine
 10
21.65821107243742
 20
-14.04290740389664
 30
0.0
 11
21.66805059641893
 21
-14.07238198722265
 31
0.0
  0
LINE
  5
397
330
70
100
AcDbEntity
  8
Livello 3
100
AcDbLine
 10
21.66805059641893
 20
-14.07238198722265
 30
0.0
 11
21.67788901637984
 21
-14.10185304277083
 31
0.0
  0
LINE
  5
398
330
70
100
AcDbEntity
  8
Livello 3
100
AcDbLine
 10
21.67788901637984
 20
-14.10185304277083
 30
0.0
 11
21.68772446057336
 21
-14.13133115387452
 31
0.0
  0
LINE
  5
399
330
70
100
AcDbEntity
  8
Livello 3
100
AcDbLine
 10
21.68772446057336
 20
-14.13133115387452
 30
0.0
 11
21.69752109921232
 21
-14.14116659831651
 31
0.0
  0
LINE
  5
39A
330
70
100
AcDbEntity
  8
Livello 3
100
AcDbLine
 10
21.69752109921232
 20
-14.14116659831651
 30
0.0
 11
21.70736359896121
 21
-14.15100557053631
 31
0.0
  0
LINE
  5
39B
330
70
100
AcDbEntity
  8
Livello 3
100
AcDbLine
 10
21.70736359896121
 20
-14.15100557053631
 30
0.0
 11
21.71719904315473
 21
-14.15592682053506
 31
0.0
  0
LINE
  5
39C
330
70
100
AcDbEntity
  8
Livello 3
100
AcDbLine
 10
21.71719904315473
 20
-14.15592682053506
 30
0.0
 11
21.72703801512594
 21
-14.16084454275605
 31
0.0
  0
LINE
  5
39D
330
70
100
AcDbEntity
  8
Livello 3
100
AcDbLine
 10
21.72703801512594
 20
-14.16084454275605
 30
0.0
 11
21.73683465376489
 21
-14.16084454275605
 31
0.0
  0
LINE
  5
39E
330
70
100
AcDbEntity
  8
Livello 3
100
AcDbLine
 10
21.73683465376489
 20
-14.16084454275605
 30
0.0
 11
21.75159487561055
 21
-14.16084454275605
 31
0.0
  0
LINE
  5
39F
330
70
100
AcDbEntity
  8
Livello 3
100
AcDbLine
 10
21.75159487561055
 20
-14.16084454275605
 30
0.0
 11
21.7614308741734
 21
-14.15592682053506
 31
0.0
  0
LINE
  5
3A0
330
70
100
AcDbEntity
  8
Livello 3
100
AcDbLine
 10
21.7614308741734
 20
-14.15592682053506
 30
0.0
 11
21.7712657639976
 21
-14.15100557053631
 31
0.0
  0
LINE
  5
3A1
330
70
100
AcDbEntity
  8
Livello 3
100
AcDbLine
 10
21.7712657639976
 20
-14.15100557053631
 30
0.0
 11
21.78106593041424
 21
-14.14116659831651
 31
0.0
  0
LINE
  5
3A2
330
70
100
AcDbEntity
  8
Livello 3
100
AcDbLine
 10
21.78106593041424
 20
-14.14116659831651
 30
0.0
 11
21.78598718028869
 21
-14.13133115387452
 31
0.0
  0
LINE
  5
3A3
330
70
100
AcDbEntity
  8
Livello 3
100
AcDbLine
 10
21.78598718028869
 20
-14.13133115387452
 30
0.0
 11
21.79582262448221
 21
-14.12153098721031
 31
0.0
  0
LINE
  5
3A4
330
70
100
AcDbEntity
  8
Livello 3
100
AcDbLine
 10
21.79582262448221
 20
-14.12153098721031
 30
0.0
 11
21.80074387435666
 21
-14.10677782054733
 31
0.0
  0
LINE
  5
3A5
330
70
100
AcDbEntity
  8
Livello 3
100
AcDbLine
 10
21.80074387435666
 20
-14.10677782054733
 30
0.0
 11
21.81058284632787
 21
-14.07729970944364
 31
0.0
  0
LINE
  5
3A6
330
70
100
AcDbEntity
  8
Livello 3
100
AcDbLine
 10
21.81058284632787
 20
-14.07729970944364
 30
0.0
 11
21.81545823509237
 21
-14.04778632056211
 31
0.0
  0
LINE
  5
3A7
330
70
100
AcDbEntity
  8
Livello 3
100
AcDbLine
 10
21.81545823509237
 20
-14.04778632056211
 30
0.0
 11
21.81545823509237
 21
-14.01831173723617
 31
0.0
  0
LINE
  5
3A8
330
70
100
AcDbEntity
  8
Livello 3
100
AcDbLine
 10
21.81545823509237
 20
-14.01831173723617
 30
0.0
 11
21.80566159645342
 21
-13.99375840390898
 31
0.0
  0
LINE
  5
3A9
330
70
100
AcDbEntity
  8
Livello 3
100
AcDbLine
 10
21.80566159645342
 20
-13.99375840390898
 30
0.0
 11
21.79582262448221
 21
-13.96428382058298
 31
0.0
  0
LINE
  5
3AA
330
70
100
AcDbEntity
  8
Livello 3
100
AcDbLine
 10
21.79582262448221
 20
-13.96428382058298
 30
0.0
 11
21.78106593041424
 21
-13.93477043170145
 31
0.0
  0
LINE
  5
3AB
330
70
100
AcDbEntity
  8
Livello 3
100
AcDbLine
 10
21.78106593041424
 20
-13.93477043170145
 30
0.0
 11
21.7614308741734
 21
-13.90529232059769
 31
0.0
  0
LINE
  5
3AC
330
70
100
AcDbEntity
  8
Livello 3
100
AcDbLine
 10
21.7614308741734
 20
-13.90529232059769
 30
0.0
 11
21.74667009795842
 21
-13.87582126504951
 31
0.0
  0
LINE
  5
3AD
330
70
100
AcDbEntity
  8
Livello 3
100
AcDbLine
 10
21.74667009795842
 20
-13.87582126504951
 30
0.0
 11
21.73195926500039
 21
-13.84142895950258
 31
0.0
  0
LINE
  5
3AE
330
70
100
AcDbEntity
  8
Livello 3
100
AcDbLine
 10
21.73195926500039
 20
-13.84142895950258
 30
0.0
 11
21.71719904315473
 21
-13.8069943206223
 31
0.0
  0
LINE
  5
3AF
330
70
100
AcDbEntity
  8
Livello 3
100
AcDbLine
 10
21.71719904315473
 20
-13.8069943206223
 30
0.0
 11
21.71228132105797
 21
-13.77260201507537
 31
0.0
  0
LINE
  5
3B0
330
70
100
AcDbEntity
  8
Livello 3
100
AcDbLine
 10
21.71228132105797
 20
-13.77260201507537
 30
0.0
 11
21.70736359896121
 21
-13.73820970952838
 31
0.0
  0
LINE
  5
3B1
330
70
100
AcDbEntity
  8
Livello 3
100
AcDbLine
 10
21.70736359896121
 20
-13.73820970952838
 30
0.0
 11
21.70244234908676
 21
-13.70381387620363
 31
0.0
  0
LINE
  5
3B2
330
70
100
AcDbEntity
  8
Livello 3
100
AcDbLine
 10
21.63365773973049
 20
-13.71365637620118
 30
0.0
 11
21.63365773973049
 21
-13.84630787616804
 31
0.0
  0
LINE
  5
3B3
330
70
100
AcDbEntity
  8
Livello 3
100
AcDbLine
 10
21.63365773973049
 20
-13.84630787616804
 30
0.0
 11
21.62874001763373
 21
-13.98391943168918
 31
0.0
  0
LINE
  5
3B4
330
70
100
AcDbEntity
  8
Livello 3
100
AcDbLine
 10
21.62874001763373
 20
-13.98391943168918
 30
0.0
 11
21.62874001763373
 21
-14.01831173723617
 31
0.0
  0
LINE
  5
3B5
330
70
100
AcDbEntity
  8
Livello 3
100
AcDbLine
 10
21.62874001763373
 20
-14.01831173723617
 30
0.0
 11
21.63365773973049
 21
-14.04778632056211
 31
0.0
  0
LINE
  5
3B6
330
70
100
AcDbEntity
  8
Livello 3
100
AcDbLine
 10
21.63365773973049
 20
-14.04778632056211
 30
0.0
 11
21.64349318392401
 21
-14.08222095944238
 31
0.0
  0
LINE
  5
3B7
330
70
100
AcDbEntity
  8
Livello 3
100
AcDbLine
 10
21.64349318392401
 20
-14.08222095944238
 30
0.0
 11
21.65329335034066
 21
-14.11661326498931
 31
0.0
  0
LINE
  5
3B8
330
70
100
AcDbEntity
  8
Livello 3
100
AcDbLine
 10
21.65329335034066
 20
-14.11661326498931
 30
0.0
 11
21.65821107243742
 21
-14.13133115387452
 31
0.0
  0
LINE
  5
3B9
330
70
100
AcDbEntity
  8
Livello 3
100
AcDbLine
 10
21.65821107243742
 20
-14.13133115387452
 30
0.0
 11
21.66805059641893
 21
-14.1460843205375
 31
0.0
  0
LINE
  5
3BA
330
70
100
AcDbEntity
  8
Livello 3
100
AcDbLine
 10
21.66805059641893
 20
-14.1460843205375
 30
0.0
 11
21.67788901637984
 21
-14.16084454275605
 31
0.0
  0
LINE
  5
3BB
330
70
100
AcDbEntity
  8
Livello 3
100
AcDbLine
 10
21.67788901637984
 20
-14.16084454275605
 30
0.0
 11
21.69260392974612
 21
-14.17064118164251
 31
0.0
  0
LINE
  5
3BC
330
70
100
AcDbEntity
  8
Livello 3
100
AcDbLine
 10
21.69260392974612
 20
-14.17064118164251
 30
0.0
 11
21.70244234908676
 21
-14.18048015386225
 31
0.0
  0
LINE
  5
3BD
330
70
100
AcDbEntity
  8
Livello 3
100
AcDbLine
 10
21.70244234908676
 20
-14.18048015386225
 30
0.0
 11
21.72211676525149
 21
-14.18539787608324
 31
0.0
  0
LINE
  5
3BE
330
70
100
AcDbEntity
  8
Livello 3
100
AcDbLine
 10
21.72211676525149
 20
-14.18539787608324
 30
0.0
 11
21.73683465376489
 21
-14.18539787608324
 31
0.0
  0
LINE
  5
3BF
330
70
100
AcDbEntity
  8
Livello 3
100
AcDbLine
 10
21.73683465376489
 20
-14.18539787608324
 30
0.0
 11
21.75651259770731
 21
-14.18539787608324
 31
0.0
  0
LINE
  5
3C0
330
70
100
AcDbEntity
  8
Livello 3
100
AcDbLine
 10
21.75651259770731
 20
-14.18539787608324
 30
0.0
 11
21.7712657639976
 21
-14.18048015386225
 31
0.0
  0
LINE
  5
3C1
330
70
100
AcDbEntity
  8
Livello 3
100
AcDbLine
 10
21.7712657639976
 20
-14.18048015386225
 30
0.0
 11
21.78598718028869
 21
-14.17064118164251
 31
0.0
  0
LINE
  5
3C2
330
70
100
AcDbEntity
  8
Livello 3
100
AcDbLine
 10
21.78598718028869
 20
-14.17064118164251
 30
0.0
 11
21.80074387435666
 21
-14.16084454275605
 31
0.0
  0
LINE
  5
3C3
330
70
100
AcDbEntity
  8
Livello 3
100
AcDbLine
 10
21.80074387435666
 20
-14.16084454275605
 30
0.0
 11
21.81058284632787
 21
-14.1460843205375
 31
0.0
  0
LINE
  5
3C4
330
70
100
AcDbEntity
  8
Livello 3
100
AcDbLine
 10
21.81058284632787
 20
-14.1460843205375
 30
0.0
 11
21.82037595718913
 21
-14.13133115387452
 31
0.0
  0
LINE
  5
3C5
330
70
100
AcDbEntity
  8
Livello 3
100
AcDbLine
 10
21.82037595718913
 20
-14.13133115387452
 30
0.0
 11
21.82530073484127
 21
-14.11661326498931
 31
0.0
  0
LINE
  5
3C6
330
70
100
AcDbEntity
  8
Livello 3
100
AcDbLine
 10
21.82530073484127
 20
-14.11661326498931
 30
0.0
 11
21.83021845693803
 21
-14.10185304277083
 31
0.0
  0
LINE
  5
3C7
330
70
100
AcDbEntity
  8
Livello 3
100
AcDbLine
 10
21.83021845693803
 20
-14.10185304277083
 30
0.0
 11
21.83513617903479
 21
-14.08222095944238
 31
0.0
  0
LINE
  5
3C8
330
70
100
AcDbEntity
  8
Livello 3
100
AcDbLine
 10
21.83513617903479
 20
-14.08222095944238
 30
0.0
 11
21.84005390113155
 21
-14.06746426500165
 31
0.0
  0
LINE
  5
3C9
330
70
100
AcDbEntity
  8
Livello 3
100
AcDbLine
 10
21.84005390113155
 20
-14.06746426500165
 30
0.0
 11
21.84005390113155
 21
-14.04778632056211
 31
0.0
  0
LINE
  5
3CA
330
70
100
AcDbEntity
  8
Livello 3
100
AcDbLine
 10
21.84005390113155
 20
-14.04778632056211
 30
0.0
 11
21.84005390113155
 21
-14.03307195945466
 31
0.0
  0
LINE
  5
3CB
330
70
100
AcDbEntity
  8
Livello 3
100
AcDbLine
 10
21.84005390113155
 20
-14.03307195945466
 30
0.0
 11
21.84005390113155
 21
-14.01831173723617
 31
0.0
  0
LINE
  5
3CC
330
70
100
AcDbEntity
  8
Livello 3
100
AcDbLine
 10
21.84005390113155
 20
-14.01831173723617
 30
0.0
 11
21.83513617903479
 21
-13.99867612612997
 31
0.0
  0
LINE
  5
3CD
330
70
100
AcDbEntity
  8
Livello 3
100
AcDbLine
 10
21.83513617903479
 20
-13.99867612612997
 30
0.0
 11
21.83021845693803
 21
-13.98391943168918
 31
0.0
  0
LINE
  5
3CE
330
70
100
AcDbEntity
  8
Livello 3
100
AcDbLine
 10
21.83021845693803
 20
-13.98391943168918
 30
0.0
 11
21.82037595718913
 21
-13.95444484836317
 31
0.0
  0
LINE
  5
3CF
330
70
100
AcDbEntity
  8
Livello 3
100
AcDbLine
 10
21.82037595718913
 20
-13.95444484836317
 30
0.0
 11
21.78598718028869
 21
-13.89545687615571
 31
0.0
  0
LINE
  5
3D0
330
70
100
AcDbEntity
  8
Livello 3
100
AcDbLine
 10
21.78598718028869
 20
-13.89545687615571
 30
0.0
 11
21.7712657639976
 21
-13.86598582060752
 31
0.0
  0
LINE
  5
3D1
330
70
100
AcDbEntity
  8
Livello 3
100
AcDbLine
 10
21.7712657639976
 20
-13.86598582060752
 30
0.0
 11
21.75651259770731
 21
-13.83158998728284
 31
0.0
  0
LINE
  5
3D2
330
70
100
AcDbEntity
  8
Livello 3
100
AcDbLine
 10
21.75651259770731
 20
-13.83158998728284
 30
0.0
 11
21.74667009795842
 21
-13.80207307062356
 31
0.0
  0
LINE
  5
3D3
330
70
100
AcDbEntity
  8
Livello 3
100
AcDbLine
 10
21.74667009795842
 20
-13.80207307062356
 30
0.0
 11
21.73683465376489
 21
-13.76768429285438
 31
0.0
  0
LINE
  5
3D4
330
70
100
AcDbEntity
  8
Livello 3
100
AcDbLine
 10
21.73683465376489
 20
-13.76768429285438
 30
0.0
 11
21.73195926500039
 21
-13.73820970952838
 31
0.0
  0
LINE
  5
3D5
330
70
100
AcDbEntity
  8
Livello 3
100
AcDbLine
 10
21.73195926500039
 20
-13.73820970952838
 30
0.0
 11
21.72703801512594
 21
-13.70381387620363
 31
0.0
  0
LINE
  5
3D6
330
70
100
AcDbEntity
  8
Livello 3
100
AcDbLine
 10
21.6238152399816
 20
-13.71365637620118
 30
0.0
 11
21.60418315714912
 21
-13.77260201507537
 31
0.0
  0
LINE
  5
3D7
330
70
100
AcDbEntity
  8
Livello 3
100
AcDbLine
 10
21.60418315714912
 20
-13.77260201507537
 30
0.0
 11
21.58942646308115
 21
-13.80207307062356
 31
0.0
  0
LINE
  5
3D8
330
70
100
AcDbEntity
  8
Livello 3
100
AcDbLine
 10
21.58942646308115
 20
-13.80207307062356
 30
0.0
 11
21.57958749110994
 21
-13.83158998728284
 31
0.0
  0
LINE
  5
3D9
330
70
100
AcDbEntity
  8
Livello 3
100
AcDbLine
 10
21.57958749110994
 20
-13.83158998728284
 30
0.0
 11
21.55995188049978
 21
-13.86106457060878
 31
0.0
  0
LINE
  5
3DA
330
70
100
AcDbEntity
  8
Livello 3
100
AcDbLine
 10
21.55995188049978
 20
-13.86106457060878
 30
0.0
 11
21.54519165865412
 21
-13.89053915393471
 31
0.0
  0
LINE
  5
3DB
330
70
100
AcDbEntity
  8
Livello 3
100
AcDbLine
 10
21.54519165865412
 20
-13.89053915393471
 30
0.0
 11
21.52555604804395
 21
-13.92005254281624
 31
0.0
  0
LINE
  5
3DC
330
70
100
AcDbEntity
  8
Livello 3
100
AcDbLine
 10
21.52555604804395
 20
-13.92005254281624
 30
0.0
 11
21.51080288175367
 21
-13.94952712614218
 31
0.0
  0
LINE
  5
3DD
330
70
100
AcDbEntity
  8
Livello 3
100
AcDbLine
 10
21.51080288175367
 20
-13.94952712614218
 30
0.0
 11
21.50096038200477
 21
-13.97899818169037
 31
0.0
  0
LINE
  5
3DE
330
70
100
AcDbEntity
  8
Livello 3
100
AcDbLine
 10
21.50096038200477
 20
-13.97899818169037
 30
0.0
 11
21.50096038200477
 21
-13.99375840390898
 31
0.0
  0
LINE
  5
3DF
330
70
100
AcDbEntity
  8
Livello 3
100
AcDbLine
 10
21.50096038200477
 20
-13.99375840390898
 30
0.0
 11
21.50096038200477
 21
-14.00847629279418
 31
0.0
  0
LINE
  5
3E0
330
70
100
AcDbEntity
  8
Livello 3
100
AcDbLine
 10
21.50096038200477
 20
-14.00847629279418
 30
0.0
 11
21.50096038200477
 21
-14.02814718167816
 31
0.0
  0
LINE
  5
3E1
330
70
100
AcDbEntity
  8
Livello 3
100
AcDbLine
 10
21.50096038200477
 20
-14.02814718167816
 30
0.0
 11
21.50588515965691
 21
-14.04290740389664
 31
0.0
  0
LINE
  5
3E2
330
70
100
AcDbEntity
  8
Livello 3
100
AcDbLine
 10
21.50588515965691
 20
-14.04290740389664
 30
0.0
 11
21.51080288175367
 21
-14.05762529278185
 31
0.0
  0
LINE
  5
3E3
330
70
100
AcDbEntity
  8
Livello 3
100
AcDbLine
 10
21.51080288175367
 20
-14.05762529278185
 30
0.0
 11
21.52063832594719
 21
-14.07238198722265
 31
0.0
  0
LINE
  5
3E4
330
70
100
AcDbEntity
  8
Livello 3
100
AcDbLine
 10
21.52063832594719
 20
-14.07238198722265
 30
0.0
 11
21.5353562144606
 21
-14.08222095944238
 31
0.0
  0
LINE
  5
3E5
330
70
100
AcDbEntity
  8
Livello 3
100
AcDbLine
 10
21.5353562144606
 20
-14.08222095944238
 30
0.0
 11
21.55011290852856
 21
-14.09201759832884
 31
0.0
  0
LINE
  5
3E6
330
70
100
AcDbEntity
  8
Livello 3
100
AcDbLine
 10
21.55011290852856
 20
-14.09201759832884
 30
0.0
 11
21.56486960259654
 21
-14.09693532054984
 31
0.0
  0
LINE
  5
3E7
330
70
100
AcDbEntity
  8
Livello 3
100
AcDbLine
 10
21.56486960259654
 20
-14.09693532054984
 30
0.0
 11
21.57958749110994
 21
-14.09693532054984
 31
0.0
  0
LINE
  5
3E8
330
70
100
AcDbEntity
  8
Livello 3
100
AcDbLine
 10
21.57958749110994
 20
-14.09693532054984
 30
0.0
 11
21.59434418517791
 21
-14.09201759832884
 31
0.0
  0
LINE
  5
3E9
330
70
100
AcDbEntity
  8
Livello 3
100
AcDbLine
 10
21.59434418517791
 20
-14.09201759832884
 30
0.0
 11
21.61397979578807
 21
-14.08713868166338
 31
0.0
  0
LINE
  5
3EA
330
70
100
AcDbEntity
  8
Livello 3
100
AcDbLine
 10
21.61397979578807
 20
-14.08713868166338
 30
0.0
 11
21.6238152399816
 21
-14.07729970944364
 31
0.0
  0
LINE
  5
3EB
330
70
100
AcDbEntity
  8
Livello 3
100
AcDbLine
 10
21.6238152399816
 20
-14.07729970944364
 30
0.0
 11
21.63857546182725
 21
-14.06746426500165
 31
0.0
  0
LINE
  5
3EC
330
70
100
AcDbEntity
  8
Livello 3
100
AcDbLine
 10
21.6238152399816
 20
-13.60551587622824
 30
0.0
 11
21.60418315714912
 21
-13.54657023735405
 31
0.0
  0
LINE
  5
3ED
330
70
100
AcDbEntity
  8
Livello 3
100
AcDbLine
 10
21.60418315714912
 20
-13.54657023735405
 30
0.0
 11
21.59434418517791
 21
-13.51705332069477
 31
0.0
  0
LINE
  5
3EE
330
70
100
AcDbEntity
  8
Livello 3
100
AcDbLine
 10
21.59434418517791
 20
-13.51705332069477
 30
0.0
 11
21.57958749110994
 21
-13.48757873736877
 31
0.0
  0
LINE
  5
3EF
330
70
100
AcDbEntity
  8
Livello 3
100
AcDbLine
 10
21.57958749110994
 20
-13.48757873736877
 30
0.0
 11
21.56486960259654
 21
-13.45810415404289
 31
0.0
  0
LINE
  5
3F0
330
70
100
AcDbEntity
  8
Livello 3
100
AcDbLine
 10
21.56486960259654
 20
-13.45810415404289
 30
0.0
 11
21.54519165865412
 21
-13.42863309849471
 31
0.0
  0
LINE
  5
3F1
330
70
100
AcDbEntity
  8
Livello 3
100
AcDbLine
 10
21.54519165865412
 20
-13.42863309849471
 30
0.0
 11
21.53043849236384
 21
-13.39911618183536
 31
0.0
  0
LINE
  5
3F2
330
70
100
AcDbEntity
  8
Livello 3
100
AcDbLine
 10
21.53043849236384
 20
-13.39911618183536
 30
0.0
 11
21.51572115201259
 21
-13.36964512628718
 31
0.0
  0
LINE
  5
3F3
330
70
100
AcDbEntity
  8
Livello 3
100
AcDbLine
 10
21.51572115201259
 20
-13.36964512628718
 30
0.0
 11
21.50588515965691
 21
-13.34016701518342
 31
0.0
  0
LINE
  5
3F4
330
70
100
AcDbEntity
  8
Livello 3
100
AcDbLine
 10
21.50588515965691
 20
-13.34016701518342
 30
0.0
 11
21.50588515965691
 21
-13.32541384852044
 31
0.0
  0
LINE
  5
3F5
330
70
100
AcDbEntity
  8
Livello 3
100
AcDbLine
 10
21.50588515965691
 20
-13.32541384852044
 30
0.0
 11
21.50588515965691
 21
-13.30577470963649
 31
0.0
  0
LINE
  5
3F6
330
70
100
AcDbEntity
  8
Livello 3
100
AcDbLine
 10
21.50588515965691
 20
-13.30577470963649
 30
0.0
 11
21.50588515965691
 21
-13.29101801519576
 31
0.0
  0
LINE
  5
3F7
330
70
100
AcDbEntity
  8
Livello 3
100
AcDbLine
 10
21.50588515965691
 20
-13.29101801519576
 30
0.0
 11
21.51080288175367
 21
-13.27626132075496
 31
0.0
  0
LINE
  5
3F8
330
70
100
AcDbEntity
  8
Livello 3
100
AcDbLine
 10
21.51080288175367
 20
-13.27626132075496
 30
0.0
 11
21.52063832594719
 21
-13.26154343186976
 31
0.0
  0
LINE
  5
3F9
330
70
100
AcDbEntity
  8
Livello 3
100
AcDbLine
 10
21.52063832594719
 20
-13.26154343186976
 30
0.0
 11
21.52555604804395
 21
-13.24679026520678
 31
0.0
  0
LINE
  5
3FA
330
70
100
AcDbEntity
  8
Livello 3
100
AcDbLine
 10
21.52555604804395
 20
-13.24679026520678
 30
0.0
 11
21.54027448533978
 21
-13.23694776520929
 31
0.0
  0
LINE
  5
3FB
330
70
100
AcDbEntity
  8
Livello 3
100
AcDbLine
 10
21.54027448533978
 20
-13.23694776520929
 30
0.0
 11
21.55503415840302
 21
-13.22715465410058
 31
0.0
  0
LINE
  5
3FC
330
70
100
AcDbEntity
  8
Livello 3
100
AcDbLine
 10
21.55503415840302
 20
-13.22715465410058
 30
0.0
 11
21.56974851913873
 21
-13.22223340410183
 31
0.0
  0
LINE
  5
3FD
330
70
100
AcDbEntity
  8
Livello 3
100
AcDbLine
 10
21.56974851913873
 20
-13.22223340410183
 30
0.0
 11
21.5845087409844
 21
-13.22223340410183
 31
0.0
  0
LINE
  5
3FE
330
70
100
AcDbEntity
  8
Livello 3
100
AcDbLine
 10
21.5845087409844
 20
-13.22223340410183
 30
0.0
 11
21.60418315714912
 21
-13.22715465410058
 31
0.0
  0
LINE
  5
3FF
330
70
100
AcDbEntity
  8
Livello 3
100
AcDbLine
 10
21.60418315714912
 20
-13.22715465410058
 30
0.0
 11
21.61889751788484
 21
-13.23203004298829
 31
0.0
  0
LINE
  5
400
330
70
100
AcDbEntity
  8
Livello 3
100
AcDbLine
 10
21.61889751788484
 20
-13.23203004298829
 30
0.0
 11
21.63365773973049
 21
-13.24186548743028
 31
0.0
  0
LINE
  5
401
330
70
100
AcDbEntity
  8
Livello 3
100
AcDbLine
 10
21.63365773973049
 20
-13.24186548743028
 30
0.0
 11
21.64349318392401
 21
-13.25170798742777
 31
0.0
  0
LINE
  5
402
330
70
100
AcDbEntity
  8
Livello 3
100
AcDbLine
 10
22.07592817289168
 20
-13.6645038484357
 30
0.0
 11
22.08084589498844
 21
-13.6645038484357
 31
0.0
  0
LINE
  5
403
330
70
100
AcDbEntity
  8
Livello 3
100
AcDbLine
 10
22.08084589498844
 20
-13.6645038484357
 30
0.0
 11
22.09068133918196
 21
-13.6645038484357
 31
0.0
  0
LINE
  5
404
330
70
100
AcDbEntity
  8
Livello 3
100
AcDbLine
 10
22.09068133918196
 20
-13.6645038484357
 30
0.0
 11
22.10052383893086
 21
-13.65958259843689
 31
0.0
  0
LINE
  5
405
330
70
100
AcDbEntity
  8
Livello 3
100
AcDbLine
 10
22.10052383893086
 20
-13.65958259843689
 30
0.0
 11
22.12999489373455
 21
-13.6546648762159
 31
0.0
  0
LINE
  5
406
330
70
100
AcDbEntity
  8
Livello 3
100
AcDbLine
 10
22.12999489373455
 20
-13.6546648762159
 30
0.0
 11
22.15455175421916
 21
-13.64482943177391
 31
0.0
  0
LINE
  5
407
330
70
100
AcDbEntity
  8
Livello 3
100
AcDbLine
 10
22.15455175421916
 20
-13.64482943177391
 30
0.0
 11
22.18402337406772
 21
-13.6350292651097
 31
0.0
  0
LINE
  5
408
330
70
100
AcDbEntity
  8
Livello 3
100
AcDbLine
 10
22.18402337406772
 20
-13.6350292651097
 30
0.0
 11
22.20861847506202
 21
-13.62027257066897
 31
0.0
  0
LINE
  5
409
330
70
100
AcDbEntity
  8
Livello 3
100
AcDbLine
 10
22.20861847506202
 20
-13.62027257066897
 30
0.0
 11
22.22825761344987
 21
-13.60551587622824
 31
0.0
  0
LINE
  5
40A
330
70
100
AcDbEntity
  8
Livello 3
100
AcDbLine
 10
22.22825761344987
 20
-13.60551587622824
 30
0.0
 11
22.2479320296146
 21
-13.59080151512078
 31
0.0
  0
LINE
  5
40B
330
70
100
AcDbEntity
  8
Livello 3
100
AcDbLine
 10
22.2479320296146
 20
-13.59080151512078
 30
0.0
 11
22.26268872368258
 21
-13.56620584846025
 31
0.0
  0
LINE
  5
40C
330
70
100
AcDbEntity
  8
Livello 3
100
AcDbLine
 10
22.2479320296146
 20
-13.54657023735405
 30
0.0
 11
22.30200227823516
 21
-13.62027257066897
 31
0.0
  0
LINE
  5
40D
330
70
100
AcDbEntity
  8
Livello 3
100
AcDbLine
 10
22.30200227823516
 20
-13.62027257066897
 30
0.0
 11
22.42485713621198
 21
-13.52689229291457
 31
0.0
  0
LINE
  5
40E
330
70
100
AcDbEntity
  8
Livello 3
100
AcDbLine
 10
22.42485713621198
 20
-13.52689229291457
 30
0.0
 11
22.37079041536912
 21
-13.45810415404289
 31
0.0
  0
LINE
  5
40F
330
70
100
AcDbEntity
  8
Livello 3
100
AcDbLine
 10
22.37079041536912
 20
-13.45810415404289
 30
0.0
 11
22.2479320296146
 21
-13.54657023735405
 31
0.0
  0
LINE
  5
410
330
70
100
AcDbEntity
  8
Livello 3
100
AcDbLine
 10
21.66312879453418
 20
-13.28610029297476
 30
0.0
 11
21.67296776650539
 21
-13.32541384852044
 31
0.0
  0
LINE
  5
411
330
70
100
AcDbEntity
  8
Livello 3
100
AcDbLine
 10
21.67296776650539
 20
-13.32541384852044
 30
0.0
 11
21.6828067384766
 21
-13.36472387628843
 31
0.0
  0
LINE
  5
412
330
70
100
AcDbEntity
  8
Livello 3
100
AcDbLine
 10
21.6828067384766
 20
-13.36472387628843
 30
0.0
 11
21.68772446057336
 21
-13.40403743183411
 31
0.0
  0
LINE
  5
413
330
70
100
AcDbEntity
  8
Livello 3
100
AcDbLine
 10
21.68772446057336
 20
-13.40403743183411
 30
0.0
 11
21.68772446057336
 21
-13.44335098737991
 31
0.0
  0
LINE
  5
414
330
70
100
AcDbEntity
  8
Livello 3
100
AcDbLine
 10
21.68772446057336
 20
-13.44335098737991
 30
0.0
 11
21.68772446057336
 21
-13.48757873736877
 31
0.0
  0
LINE
  5
415
330
70
100
AcDbEntity
  8
Livello 3
100
AcDbLine
 10
21.68772446057336
 20
-13.48757873736877
 30
0.0
 11
21.68772446057336
 21
-13.52689229291457
 31
0.0
  0
LINE
  5
416
330
70
100
AcDbEntity
  8
Livello 3
100
AcDbLine
 10
21.68772446057336
 20
-13.52689229291457
 30
0.0
 11
21.6828067384766
 21
-13.60551587622824
 31
0.0
  0
LINE
  5
417
330
70
100
AcDbEntity
  8
Livello 3
100
AcDbLine
 10
21.65821107243742
 20
-13.39911618183536
 30
0.0
 11
21.66312879453418
 21
-13.44826870960091
 31
0.0
  0
LINE
  5
418
330
70
100
AcDbEntity
  8
Livello 3
100
AcDbLine
 10
21.66312879453418
 20
-13.44826870960091
 30
0.0
 11
21.66312879453418
 21
-13.50233543180956
 31
0.0
  0
LINE
  5
419
330
70
100
AcDbEntity
  8
Livello 3
100
AcDbLine
 10
21.66312879453418
 20
-13.50233543180956
 30
0.0
 11
21.65821107243742
 21
-13.55148795957504
 31
0.0
  0
LINE
  5
41A
330
70
100
AcDbEntity
  8
Livello 3
100
AcDbLine
 10
21.65821107243742
 20
-13.55148795957504
 30
0.0
 11
21.65329335034066
 21
-13.60551587622824
 31
0.0
  0
LINE
  5
41B
330
70
100
AcDbEntity
  8
Livello 3
100
AcDbLine
 10
21.65821107243742
 20
-14.03307195945466
 30
0.0
 11
21.66312879453418
 21
-14.01339401501518
 31
0.0
  0
LINE
  5
41C
330
70
100
AcDbEntity
  8
Livello 3
100
AcDbLine
 10
21.66312879453418
 20
-14.01339401501518
 30
0.0
 11
21.66805059641893
 21
-13.99375840390898
 31
0.0
  0
LINE
  5
41D
330
70
100
AcDbEntity
  8
Livello 3
100
AcDbLine
 10
21.66805059641893
 20
-13.99375840390898
 30
0.0
 11
21.67788901637984
 21
-13.95444484836317
 31
0.0
  0
LINE
  5
41E
330
70
100
AcDbEntity
  8
Livello 3
100
AcDbLine
 10
21.67788901637984
 20
-13.95444484836317
 30
0.0
 11
21.6828067384766
 21
-13.91021709837426
 31
0.0
  0
LINE
  5
41F
330
70
100
AcDbEntity
  8
Livello 3
100
AcDbLine
 10
21.6828067384766
 20
-13.91021709837426
 30
0.0
 11
21.68772446057336
 21
-13.87090354282851
 31
0.0
  0
LINE
  5
420
330
70
100
AcDbEntity
  8
Livello 3
100
AcDbLine
 10
21.68772446057336
 20
-13.87090354282851
 30
0.0
 11
21.68772446057336
 21
-13.83158998728284
 31
0.0
  0
LINE
  5
421
330
70
100
AcDbEntity
  8
Livello 3
100
AcDbLine
 10
21.68772446057336
 20
-13.83158998728284
 30
0.0
 11
21.6828067384766
 21
-13.78736223729386
 31
0.0
  0
LINE
  5
422
330
70
100
AcDbEntity
  8
Livello 3
100
AcDbLine
 10
21.6828067384766
 20
-13.78736223729386
 30
0.0
 11
21.67788901637984
 21
-13.70873512620238
 31
0.0
  0
LINE
  5
423
330
70
100
AcDbEntity
  8
Livello 3
100
AcDbLine
 10
21.65821107243742
 20
-13.92493145948171
 30
0.0
 11
21.65821107243742
 21
-13.87090354282851
 31
0.0
  0
LINE
  5
424
330
70
100
AcDbEntity
  8
Livello 3
100
AcDbLine
 10
21.65821107243742
 20
-13.87090354282851
 30
0.0
 11
21.65821107243742
 21
-13.81683329284204
 31
0.0
  0
LINE
  5
425
330
70
100
AcDbEntity
  8
Livello 3
100
AcDbLine
 10
21.65821107243742
 20
-13.81683329284204
 30
0.0
 11
21.65821107243742
 21
-13.76276657063338
 31
0.0
  0
LINE
  5
426
330
70
100
AcDbEntity
  8
Livello 3
100
AcDbLine
 10
21.65821107243742
 20
-13.76276657063338
 30
0.0
 11
21.65329335034066
 21
-13.70873512620238
 31
0.0
  0
LINE
  5
427
330
70
100
AcDbEntity
  8
Livello 3
100
AcDbLine
 10
20.96531320122583
 20
-13.55636334846276
 30
0.0
 11
20.99970550590396
 21
-13.55636334846276
 31
0.0
  0
LINE
  5
428
330
70
100
AcDbEntity
  8
Livello 3
100
AcDbLine
 10
20.99970550590396
 20
-13.55636334846276
 30
0.0
 11
21.03413661613666
 21
-13.55636334846276
 31
0.0
  0
LINE
  5
429
330
70
100
AcDbEntity
  8
Livello 3
100
AcDbLine
 10
21.03413661613666
 20
-13.55636334846276
 30
0.0
 11
21.06361472649572
 21
-13.55636334846276
 31
0.0
  0
LINE
  5
42A
330
70
100
AcDbEntity
  8
Livello 3
100
AcDbLine
 10
21.06361472649572
 20
-13.55636334846276
 30
0.0
 11
21.09308578129941
 21
-13.55636334846276
 31
0.0
  0
LINE
  5
42B
330
70
100
AcDbEntity
  8
Livello 3
100
AcDbLine
 10
21.09308578129941
 20
-13.55636334846276
 30
0.0
 11
21.11768198544546
 21
-13.56128107068375
 31
0.0
  0
LINE
  5
42C
330
70
100
AcDbEntity
  8
Livello 3
100
AcDbLine
 10
21.11768198544546
 20
-13.56128107068375
 30
0.0
 11
21.14223531877265
 21
-13.56128107068375
 31
0.0
  0
LINE
  5
42D
330
70
100
AcDbEntity
  8
Livello 3
100
AcDbLine
 10
21.14223531877265
 20
-13.56128107068375
 30
0.0
 11
21.16187391843337
 21
-13.56128107068375
 31
0.0
  0
LINE
  5
42E
330
70
100
AcDbEntity
  8
Livello 3
100
AcDbLine
 10
21.16187391843337
 20
-13.56128107068375
 30
0.0
 11
21.18646958447255
 21
-13.56128107068375
 31
0.0
  0
LINE
  5
42F
330
70
100
AcDbEntity
  8
Livello 3
100
AcDbLine
 10
21.18646958447255
 20
-13.56128107068375
 30
0.0
 11
21.20118448542452
 21
-13.56128107068375
 31
0.0
  0
LINE
  5
430
330
70
100
AcDbEntity
  8
Livello 3
100
AcDbLine
 10
21.20118448542452
 20
-13.56128107068375
 30
0.0
 11
21.220858361373
 21
-13.56128107068375
 31
0.0
  0
LINE
  5
431
330
70
100
AcDbEntity
  8
Livello 3
100
AcDbLine
 10
21.220858361373
 20
-13.56128107068375
 30
0.0
 11
21.23561858321865
 21
-13.56620584846025
 31
0.0
  0
LINE
  5
432
330
70
100
AcDbEntity
  8
Livello 3
100
AcDbLine
 10
21.23561858321865
 20
-13.56620584846025
 30
0.0
 11
21.25033294395437
 21
-13.56620584846025
 31
0.0
  0
LINE
  5
433
330
70
100
AcDbEntity
  8
Livello 3
100
AcDbLine
 10
21.25033294395437
 20
-13.56620584846025
 30
0.0
 11
21.26017544370327
 21
-13.56620584846025
 31
0.0
  0
LINE
  5
434
330
70
100
AcDbEntity
  8
Livello 3
100
AcDbLine
 10
21.26017544370327
 20
-13.56620584846025
 30
0.0
 11
21.27984633209031
 21
-13.56620584846025
 31
0.0
  0
LINE
  5
435
330
70
100
AcDbEntity
  8
Livello 3
100
AcDbLine
 10
21.27984633209031
 20
-13.56620584846025
 30
0.0
 11
21.29456476317899
 21
-13.57112357068124
 31
0.0
  0
LINE
  5
436
330
70
100
AcDbEntity
  8
Livello 3
100
AcDbLine
 10
21.29456476317899
 20
-13.57112357068124
 30
0.0
 11
21.30932444244937
 21
-13.57112357068124
 31
0.0
  0
LINE
  5
437
330
70
100
AcDbEntity
  8
Livello 3
100
AcDbLine
 10
21.30932444244937
 20
-13.57112357068124
 30
0.0
 11
21.31424216454613
 21
-13.57112357068124
 31
0.0
  0
LINE
  5
438
330
70
100
AcDbEntity
  8
Livello 3
100
AcDbLine
 10
21.31424216454613
 20
-13.57112357068124
 30
0.0
 11
21.31915988664289
 21
-13.57604129290224
 31
0.0
  0
LINE
  5
439
330
70
100
AcDbEntity
  8
Livello 3
100
AcDbLine
 10
21.31915988664289
 20
-13.57604129290224
 30
0.0
 11
21.32895652528185
 21
-13.57604129290224
 31
0.0
  0
LINE
  5
43A
330
70
100
AcDbEntity
  8
Livello 3
100
AcDbLine
 10
21.32895652528185
 20
-13.57604129290224
 30
0.0
 11
21.33387777515629
 21
-13.58095901512323
 31
0.0
  0
LINE
  5
43B
330
70
100
AcDbEntity
  8
Livello 3
100
AcDbLine
 10
21.33387777515629
 20
-13.58095901512323
 30
0.0
 11
21.36827007983443
 21
-13.60551587622824
 31
0.0
  0
LINE
  5
43C
330
70
100
AcDbEntity
  8
Livello 3
100
AcDbLine
 10
21.36827007983443
 20
-13.60551587622824
 30
0.0
 11
21.40270119006713
 21
-13.62519029288996
 31
0.0
  0
LINE
  5
43D
330
70
100
AcDbEntity
  8
Livello 3
100
AcDbLine
 10
21.40270119006713
 20
-13.62519029288996
 30
0.0
 11
21.44201474461971
 21
-13.63991170955292
 31
0.0
  0
LINE
  5
43E
330
70
100
AcDbEntity
  8
Livello 3
100
AcDbLine
 10
21.44201474461971
 20
-13.63991170955292
 30
0.0
 11
21.4813282991723
 21
-13.64974715399491
 31
0.0
  0
LINE
  5
43F
330
70
100
AcDbEntity
  8
Livello 3
100
AcDbLine
 10
21.4813282991723
 20
-13.64974715399491
 30
0.0
 11
21.52555604804395
 21
-13.65958259843689
 31
0.0
  0
LINE
  5
440
330
70
100
AcDbEntity
  8
Livello 3
100
AcDbLine
 10
21.52555604804395
 20
-13.65958259843689
 30
0.0
 11
21.60910440702357
 21
-13.66468376510227
 31
0.0
  0
LINE
  5
441
330
70
100
AcDbEntity
  8
Livello 3
100
AcDbLine
 10
21.60910440702357
 20
-13.61043359844923
 30
0.0
 11
21.60910440702357
 21
-13.61043359844923
 31
0.0
  0
LINE
  5
442
330
70
100
AcDbEntity
  8
Livello 3
100
AcDbLine
 10
22.5132808839561
 20
-13.54657023735405
 30
0.0
 11
22.552590910731
 21
-13.54164898735531
 31
0.0
  0
LINE
  5
443
330
70
100
AcDbEntity
  8
Livello 3
100
AcDbLine
 10
22.552590910731
 20
-13.54164898735531
 30
0.0
 11
22.65088948506213
 21
-13.46794665404038
 31
0.0
  0
LINE
  5
444
330
70
100
AcDbEntity
  8
Livello 3
100
AcDbLine
 10
22.38062642957414
 20
-13.37456284850817
 30
0.0
 11
22.4002614701728
 21
-13.33524929296243
 31
0.0
  0
LINE
  5
445
330
70
100
AcDbEntity
  8
Livello 3
100
AcDbLine
 10
22.4002614701728
 20
-13.33524929296243
 30
0.0
 11
22.4985629954427
 21
-13.26646115409075
 31
0.0
  0
LINE
  5
446
330
70
100
AcDbEntity
  8
Livello 3
100
AcDbLine
 10
22.5132808839561
 20
-13.54657023735405
 30
0.0
 11
22.44449274682215
 21
-13.55148795957504
 31
0.0
  0
LINE
  5
447
330
70
100
AcDbEntity
  8
Livello 3
100
AcDbLine
 10
22.44449274682215
 20
-13.55148795957504
 30
0.0
 11
22.35603019352346
 21
-13.43842620960329
 31
0.0
  0
LINE
  5
448
330
70
100
AcDbEntity
  8
Livello 3
100
AcDbLine
 10
22.35603019352346
 20
-13.43842620960329
 30
0.0
 11
22.38062642957414
 21
-13.37456284850817
 31
0.0
  0
LINE
  5
449
330
70
100
AcDbEntity
  8
Livello 3
100
AcDbLine
 10
22.43465377485094
 20
-13.54164898735531
 30
0.0
 11
22.36094791562022
 21
-13.44826870960091
 31
0.0
  0
LINE
  5
44A
330
70
100
AcDbEntity
  8
Livello 3
100
AcDbLine
 10
22.47888505150028
 20
-13.24186548743028
 30
0.0
 11
22.65581015809766
 21
-13.47286437626138
 31
0.0
  0
SPLINE
  5
44B
330
70
100
AcDbEntity
  8
Livello 3
100
AcDbSpline
210
0.0
220
0.0
230
1.0
 70
     8
 71
     3
 72
     8
 73
     4
 74
     0
 42
0.000000001
 43
0.0000000001
 40
0.0
 40
0.0
 40
0.0
 40
0.0
 40
1.0
 40
1.0
 40
1.0
 40
1.0
 10
22.75711087392441
 20
-13.14500682078776
 30
0.0
 10
22.7646315164325
 20
-13.13932709856695
 30
0.0
 10
22.76614846083825
 20
-13.12857090412523
 30
0.0
 10
22.76046873876093
 20
-13.12097207079376
 30
0.0
  0
SPLINE
  5
44C
330
70
100
AcDbEntity
  8
Livello 3
100
AcDbSpline
210
0.0
220
0.0
230
1.0
 70
     8
 71
     3
 72
     8
 73
     4
 74
     0
 42
0.000000001
 43
0.0000000001
 40
0.0
 40
0.0
 40
0.0
 40
0.0
 40
1.0
 40
1.0
 40
1.0
 40
1.0
 10
22.76046873876093
 20
-13.12097207079376
 30
0.0
 10
22.7547890166836
 20
-13.11341204301788
 30
0.0
 10
22.74407162806814
 20
-13.11185276524049
 30
0.0
 10
22.73647632270636
 20
-13.11749368190582
 30
0.0
  0
LINE
  5
44D
330
70
100
AcDbEntity
  8
Livello 3
100
AcDbLine
 10
22.75410815558986
 20
-13.14848873745363
 30
0.0
 11
22.70495915684376
 21
-13.18779876522149
 31
0.0
  0
LINE
  5
44E
330
70
100
AcDbEntity
  8
Livello 3
100
AcDbLine
 10
22.70495915684376
 20
-13.18779876522149
 30
0.0
 11
22.65088948506213
 21
-13.22715465410058
 31
0.0
  0
LINE
  5
44F
330
70
100
AcDbEntity
  8
Livello 3
100
AcDbLine
 10
22.68036349080458
 20
-13.15832418189562
 30
0.0
 11
22.73443726720282
 21
-13.11901062634982
 31
0.0
  0
LINE
  5
450
330
70
100
AcDbEntity
  8
Livello 3
100
AcDbLine
 10
22.55750920730767
 20
-13.25170798742777
 30
0.0
 11
22.62633615173494
 21
-13.1976377374413
 31
0.0
  0
LINE
  5
451
330
70
100
AcDbEntity
  8
Livello 3
100
AcDbLine
 10
22.62633615173494
 20
-13.1976377374413
 30
0.0
 11
22.68528531838681
 21
-13.15832418189562
 31
0.0
  0
LINE
  5
452
330
70
100
AcDbEntity
  8
Livello 3
100
AcDbLine
 10
22.58210429886694
 20
-13.28118257075377
 30
0.0
 11
22.65088948506213
 21
-13.23203004298829
 31
0.0
  0
LINE
  5
453
330
70
100
AcDbEntity
  8
Livello 3
100
AcDbLine
 10
22.73443726720282
 20
-13.46794665404038
 30
0.0
 11
22.68036349080458
 21
-13.48757873736877
 31
0.0
  0
LINE
  5
454
330
70
100
AcDbEntity
  8
Livello 3
100
AcDbLine
 10
22.75899059990975
 20
-13.44826870960091
 30
0.0
 11
22.71479812881497
 21
-13.3893195429489
 31
0.0
  0
LINE
  5
455
330
70
100
AcDbEntity
  8
Livello 3
100
AcDbLine
 10
22.56734760479897
 20
-13.20255898744011
 30
0.0
 11
22.49364527334595
 21
-13.21731215410309
 31
0.0
  0
LINE
  5
456
330
70
100
AcDbEntity
  8
Livello 3
100
AcDbLine
 10
22.65581015809766
 20
-13.47286437626138
 30
0.0
 11
22.66073198505962
 21
-13.47773976514909
 31
0.0
  0
LINE
  5
457
330
70
100
AcDbEntity
  8
Livello 3
100
AcDbLine
 10
22.47888505150028
 20
-13.24679026520678
 30
0.0
 11
22.48380277359704
 21
-13.24679026520678
 31
0.0
  0
LINE
  5
458
330
70
100
AcDbEntity
  8
Livello 3
100
AcDbLine
 10
22.69020246277579
 20
-13.35488490406863
 30
0.0
 11
22.62141785341952
 21
-13.25170798742777
 31
0.0
  0
LINE
  5
459
330
70
100
AcDbEntity
  8
Livello 3
100
AcDbLine
 10
22.59682218738034
 20
-13.22223340410183
 30
0.0
 11
22.58702554874139
 21
-13.21239443188209
 31
0.0
  0
SPLINE
  5
45A
330
70
100
AcDbEntity
  8
Livello 3
100
AcDbSpline
210
0.0
220
0.0
230
1.0
 70
     8
 71
     3
 72
     8
 73
     4
 74
     0
 42
0.000000001
 43
0.0000000001
 40
0.0
 40
0.0
 40
0.0
 40
0.0
 40
1.0
 40
1.0
 40
1.0
 40
1.0
 10
22.73555615170756
 20
-13.46674720959625
 30
0.0
 10
22.7413129059163
 20
-13.46898029292902
 30
0.0
 10
22.74783281837121
 20
-13.46798193181816
 30
0.0
 10
22.75263059614774
 20
-13.46410490404137
 30
0.0
  0
SPLINE
  5
45B
330
70
100
AcDbEntity
  8
Livello 3
100
AcDbSpline
210
0.0
220
0.0
230
1.0
 70
     8
 71
     3
 72
     8
 73
     4
 74
     0
 42
0.000000001
 43
0.0000000001
 40
0.0
 40
0.0
 40
0.0
 40
0.0
 40
1.0
 40
1.0
 40
1.0
 40
1.0
 10
22.75263059614774
 20
-13.46410490404137
 30
0.0
 10
22.75743132217175
 20
-13.46022434848676
 30
0.0
 10
22.75978787766719
 20
-13.45402604293277
 30
0.0
 10
22.75878951658155
 20
-13.44794768182317
 30
0.0
  0
SPLINE
  5
45C
330
70
100
AcDbEntity
  8
Livello 3
100
AcDbSpline
210
0.0
220
0.0
230
1.0
 70
     8
 71
     3
 72
     8
 73
     4
 74
     0
 42
0.000000001
 43
0.0000000001
 40
0.0
 40
0.0
 40
0.0
 40
0.0
 40
1.0
 40
1.0
 40
1.0
 40
1.0
 10
22.49740235658343
 20
-13.21267665410417
 30
0.0
 10
22.48992699566302
 20
-13.2139149041039
 30
0.0
 10
22.48360874582421
 20
-13.21891376521376
 30
0.0
 10
22.48064541256648
 20
-13.22587054298976
 30
0.0
  0
SPLINE
  5
45D
330
70
100
AcDbEntity
  8
Livello 3
100
AcDbSpline
210
0.0
220
0.0
230
1.0
 70
     8
 71
     3
 72
     8
 73
     4
 74
     0
 42
0.000000001
 43
0.0000000001
 40
0.0
 40
0.0
 40
0.0
 40
0.0
 40
1.0
 40
1.0
 40
1.0
 40
1.0
 10
22.48064541256648
 20
-13.22587054298976
 30
0.0
 10
22.47768560708644
 20
-13.23286965409916
 30
0.0
 10
22.47852521817613
 20
-13.24086712631936
 30
0.0
 10
22.48284674584365
 20
-13.2471077652067
 30
0.0
  0
SPLINE
  5
45E
330
70
100
AcDbEntity
  8
Livello 3
100
AcDbSpline
210
0.0
220
0.0
230
1.0
 70
     8
 71
     3
 72
     8
 73
     4
 74
     0
 42
0.000000001
 43
0.0000000001
 40
0.0
 40
0.0
 40
0.0
 40
0.0
 40
1.0
 40
1.0
 40
1.0
 40
1.0
 10
22.86029073621425
 20
-13.27770065408796
 30
0.0
 10
22.86784781834115
 20
-13.27198212631163
 30
0.0
 10
22.8693677082049
 20
-13.26126473742536
 30
0.0
 10
22.86368798612758
 20
-13.25366590409396
 30
0.0
  0
SPLINE
  5
45F
330
70
100
AcDbEntity
  8
Livello 3
100
AcDbSpline
210
0.0
220
0.0
230
1.0
 70
     8
 71
     3
 72
     8
 73
     4
 74
     0
 42
0.000000001
 43
0.0000000001
 40
0.0
 40
0.0
 40
0.0
 40
0.0
 40
1.0
 40
1.0
 40
1.0
 40
1.0
 10
22.86368798612758
 20
-13.25366590409396
 30
0.0
 10
22.85800826405026
 20
-13.24610940409584
 30
0.0
 10
22.84724854210255
 20
-13.24455012631844
 30
0.0
 10
22.83965323674076
 20
-13.25018751520597
 30
0.0
  0
LINE
  5
460
330
70
100
AcDbEntity
  8
Livello 3
100
AcDbLine
 10
22.85729212517964
 20
-13.28118257075377
 30
0.0
 11
22.80813959865585
 21
-13.32049612629945
 31
0.0
  0
LINE
  5
461
330
70
100
AcDbEntity
  8
Livello 3
100
AcDbLine
 10
22.80813959865585
 20
-13.32049612629945
 30
0.0
 11
22.75410815558986
 21
-13.35980262628962
 31
0.0
  0
LINE
  5
462
330
70
100
AcDbEntity
  8
Livello 3
100
AcDbLine
 10
22.66073198505962
 20
-13.38439829295016
 30
0.0
 11
22.72951248955068
 21
-13.33033157074144
 31
0.0
  0
LINE
  5
463
330
70
100
AcDbEntity
  8
Livello 3
100
AcDbLine
 10
22.72951248955068
 20
-13.33033157074144
 30
0.0
 11
22.78358626594893
 21
-13.29101801519576
 31
0.0
  0
LINE
  5
464
330
70
100
AcDbEntity
  8
Livello 3
100
AcDbLine
 10
22.78358626594893
 20
-13.29101801519576
 30
0.0
 11
22.83765651456948
 21
-13.25170798742777
 31
0.0
  0
LINE
  5
465
330
70
100
AcDbEntity
  8
Livello 3
100
AcDbLine
 10
22.68528531838681
 20
-13.41879412627491
 30
0.0
 11
22.75410815558986
 21
-13.36472387628843
 31
0.0
  0
SPLINE
  5
466
330
70
100
AcDbEntity
  8
Livello 3
100
AcDbSpline
210
0.0
220
0.0
230
1.0
 70
     8
 71
     3
 72
     8
 73
     4
 74
     0
 42
0.000000001
 43
0.0000000001
 40
0.0
 40
0.0
 40
0.0
 40
0.0
 40
1.0
 40
1.0
 40
1.0
 40
1.0
 10
15.96756346761793
 20
-14.47778009823238
 30
0.0
 10
15.96756346761793
 20
-14.39231615380931
 30
0.0
 10
15.89825674716387
 20
-14.32300943160444
 30
0.0
 10
15.8127928048998
 20
-14.32300943160444
 30
0.0
  0
SPLINE
  5
467
330
70
100
AcDbEntity
  8
Livello 3
100
AcDbSpline
210
0.0
220
0.0
230
1.0
 70
     8
 71
     3
 72
     8
 73
     4
 74
     0
 42
0.000000001
 43
0.0000000001
 40
0.0
 40
0.0
 40
0.0
 40
0.0
 40
1.0
 40
1.0
 40
1.0
 40
1.0
 10
15.71941252950435
 20
-14.32300943160444
 30
0.0
 10
15.6339097816857
 20
-14.32300943160444
 30
0.0
 10
15.56460306123164
 20
-14.39231615380931
 30
0.0
 10
15.56460306123164
 20
-14.47778009823238
 30
0.0
  0
SPLINE
  5
468
330
70
100
AcDbEntity
  8
Livello 3
100
AcDbSpline
210
0.0
220
0.0
230
1.0
 70
     8
 71
     3
 72
     8
 73
     4
 74
     0
 42
0.000000001
 43
0.0000000001
 40
0.0
 40
0.0
 40
0.0
 40
0.0
 40
1.0
 40
1.0
 40
1.0
 40
1.0
 10
15.76364420900619
 20
-15.60071409795161
 30
0.0
 10
15.9125336634663
 20
-15.60071409795161
 30
0.0
 10
16.03850707691912
 20
-15.49053454242366
 30
0.0
 10
16.05830496530292
 20
-15.34296759801607
 30
0.0
  0
SPLINE
  5
469
330
70
100
AcDbEntity
  8
Livello 3
100
AcDbSpline
210
0.0
220
0.0
230
1.0
 70
     8
 71
     3
 72
     8
 73
     4
 74
     0
 42
0.000000001
 43
0.0000000001
 40
0.0
 40
0.0
 40
0.0
 40
0.0
 40
1.0
 40
1.0
 40
1.0
 40
1.0
 10
16.06066152079836
 20
-15.34092854246108
 30
0.0
 10
16.06366365961066
 20
-15.27569993136619
 30
0.0
 10
16.04394691011367
 20
-15.21143440360448
 30
0.0
 10
16.00495438333068
 20
-15.15908570917314
 30
0.0
  0
SPLINE
  5
46A
330
70
100
AcDbEntity
  8
Livello 3
100
AcDbSpline
210
0.0
220
0.0
230
1.0
 70
     8
 71
     3
 72
     8
 73
     4
 74
     0
 42
0.000000001
 43
0.0000000001
 40
0.0
 40
0.0
 40
0.0
 40
0.0
 40
1.0
 40
1.0
 40
1.0
 40
1.0
 10
15.46898264700446
 20
-15.34296759801607
 30
0.0
 10
15.48878053538826
 20
-15.49053454242366
 30
0.0
 10
15.61471514328651
 20
-15.60071409795161
 30
0.0
 10
15.76364420900619
 20
-15.60071409795161
 30
0.0
  0
SPLINE
  5
46B
330
70
100
AcDbEntity
  8
Livello 3
100
AcDbSpline
210
0.0
220
0.0
230
1.0
 70
     8
 71
     3
 72
     8
 73
     4
 74
     0
 42
0.000000001
 43
0.0000000001
 40
0.0
 40
0.0
 40
0.0
 40
0.0
 40
1.0
 40
1.0
 40
1.0
 40
1.0
 10
15.92133194101962
 20
-14.96148429255593
 30
0.0
 10
15.93632893118525
 20
-15.03146834809393
 30
0.0
 10
15.96432496770055
 20
-15.09801282029958
 30
0.0
 10
16.00387488335822
 20
-15.15768518139574
 30
0.0
  0
SPLINE
  5
46C
330
70
100
AcDbEntity
  8
Livello 3
100
AcDbSpline
210
0.0
220
0.0
230
1.0
 70
     8
 71
     3
 72
     8
 73
     4
 74
     0
 42
0.000000001
 43
0.0000000001
 40
0.0
 40
0.0
 40
0.0
 40
0.0
 40
1.0
 40
1.0
 40
1.0
 40
1.0
 10
15.52725095107346
 20
-15.15908570917314
 30
0.0
 10
15.4882196187359
 20
-15.21143440360448
 30
0.0
 10
15.46854167479348
 20
-15.27569993136619
 30
0.0
 10
15.47154420907912
 20
-15.34092854246108
 30
0.0
  0
SPLINE
  5
46D
330
70
100
AcDbEntity
  8
Livello 3
100
AcDbSpline
210
0.0
220
0.0
230
1.0
 70
     8
 71
     3
 72
     8
 73
     4
 74
     0
 42
0.000000001
 43
0.0000000001
 40
0.0
 40
0.0
 40
0.0
 40
0.0
 40
1.0
 40
1.0
 40
1.0
 40
1.0
 10
15.90949271909944
 20
-14.87022068146759
 30
0.0
 10
15.91329254230205
 20
-14.90049607034893
 30
0.0
 10
15.91812871887912
 20
-14.93060565367471
 30
0.0
 10
15.92392838539782
 20
-14.96056354255613
 30
0.0
  0
SPLINE
  5
46E
330
70
100
AcDbEntity
  8
Livello 3
100
AcDbSpline
210
0.0
220
0.0
230
1.0
 70
     8
 71
     3
 72
     8
 73
     4
 74
     0
 42
0.000000001
 43
0.0000000001
 40
0.0
 40
0.0
 40
0.0
 40
0.0
 40
1.0
 40
1.0
 40
1.0
 40
1.0
 10
15.52341272894916
 20
-15.15768518139574
 30
0.0
 10
15.56292383905226
 20
-15.09801282029958
 30
0.0
 10
15.59095948682712
 20
-15.03146834809393
 30
0.0
 10
15.60595567128776
 20
-14.96148429255593
 30
0.0
  0
SPLINE
  5
46F
330
70
100
AcDbEntity
  8
Livello 3
100
AcDbSpline
210
0.0
220
0.0
230
1.0
 70
     8
 71
     3
 72
     8
 73
     4
 74
     0
 42
0.000000001
 43
0.0000000001
 40
0.0
 40
0.0
 40
0.0
 40
0.0
 40
1.0
 40
1.0
 40
1.0
 40
1.0
 10
15.60335569913187
 20
-14.96056354255613
 30
0.0
 10
15.60915183787289
 20
-14.93060565367471
 30
0.0
 10
15.61399587571019
 20
-14.90049607034893
 30
0.0
 10
15.61779489320794
 20
-14.87022068146759
 30
0.0
  0
SPLINE
  5
470
330
70
100
AcDbEntity
  8
Livello 3
100
AcDbSpline
210
0.0
220
0.0
230
1.0
 70
     8
 71
     3
 72
     8
 73
     4
 74
     0
 42
0.000000001
 43
0.0000000001
 40
0.0
 40
0.0
 40
0.0
 40
0.0
 40
1.0
 40
1.0
 40
1.0
 40
1.0
 10
18.87677356006447
 20
-14.47778009823238
 30
0.0
 10
18.87677356006447
 20
-14.39231615380931
 30
0.0
 10
18.8074668396104
 20
-14.32300943160444
 30
0.0
 10
18.72200642512401
 20
-14.32300943160444
 30
0.0
  0
SPLINE
  5
471
330
70
100
AcDbEntity
  8
Livello 3
100
AcDbSpline
210
0.0
220
0.0
230
1.0
 70
     8
 71
     3
 72
     8
 73
     4
 74
     0
 42
0.000000001
 43
0.0000000001
 40
0.0
 40
0.0
 40
0.0
 40
0.0
 40
1.0
 40
1.0
 40
1.0
 40
1.0
 10
18.62862309717882
 20
-14.32300943160444
 30
0.0
 10
18.54311987413224
 20
-14.32300943160444
 30
0.0
 10
18.47381668145586
 20
-14.39231615380931
 30
0.0
 10
18.47381668145586
 20
-14.47778009823238
 30
0.0
  0
SPLINE
  5
472
330
70
100
AcDbEntity
  8
Livello 3
100
AcDbSpline
210
0.0
220
0.0
230
1.0
 70
     8
 71
     3
 72
     8
 73
     4
 74
     0
 42
0.000000001
 43
0.0000000001
 40
0.0
 40
0.0
 40
0.0
 40
0.0
 40
1.0
 40
1.0
 40
1.0
 40
1.0
 10
18.67285742637791
 20
-15.60071409795161
 30
0.0
 10
18.82174728369053
 20
-15.60071409795161
 30
0.0
 10
18.94772069714334
 20
-15.49053454242366
 30
0.0
 10
18.96751505774946
 20
-15.34296759801607
 30
0.0
  0
SPLINE
  5
473
330
70
100
AcDbEntity
  8
Livello 3
100
AcDbSpline
210
0.0
220
0.0
230
1.0
 70
     8
 71
     3
 72
     8
 73
     4
 74
     0
 42
0.000000001
 43
0.0000000001
 40
0.0
 40
0.0
 40
0.0
 40
0.0
 40
1.0
 40
1.0
 40
1.0
 40
1.0
 10
18.96987514102258
 20
-15.34092854246108
 30
0.0
 10
18.97287727983488
 20
-15.27569993136619
 30
0.0
 10
18.95315700256021
 20
-15.21143440360448
 30
0.0
 10
18.9141680035549
 20
-15.15908570917314
 30
0.0
  0
SPLINE
  5
474
330
70
100
AcDbEntity
  8
Livello 3
100
AcDbSpline
210
0.0
220
0.0
230
1.0
 70
     8
 71
     3
 72
     8
 73
     4
 74
     0
 42
0.000000001
 43
0.0000000001
 40
0.0
 40
0.0
 40
0.0
 40
0.0
 40
1.0
 40
1.0
 40
1.0
 40
1.0
 10
18.37819626722868
 20
-15.34296759801607
 30
0.0
 10
18.39799062783479
 20
-15.49053454242366
 30
0.0
 10
18.52392523573304
 20
-15.60071409795161
 30
0.0
 10
18.67285742637791
 20
-15.60071409795161
 30
0.0
  0
SPLINE
  5
475
330
70
100
AcDbEntity
  8
Livello 3
100
AcDbSpline
210
0.0
220
0.0
230
1.0
 70
     8
 71
     3
 72
     8
 73
     4
 74
     0
 42
0.000000001
 43
0.0000000001
 40
0.0
 40
0.0
 40
0.0
 40
0.0
 40
1.0
 40
1.0
 40
1.0
 40
1.0
 10
18.83054556124384
 20
-14.96148429255593
 30
0.0
 10
18.84554214419457
 20
-15.03146834809393
 30
0.0
 10
18.87353506014709
 20
-15.09801282029958
 30
0.0
 10
18.91308850358244
 20
-15.15768518139574
 30
0.0
  0
SPLINE
  5
476
330
70
100
AcDbEntity
  8
Livello 3
100
AcDbSpline
210
0.0
220
0.0
230
1.0
 70
     8
 71
     3
 72
     8
 73
     4
 74
     0
 42
0.000000001
 43
0.0000000001
 40
0.0
 40
0.0
 40
0.0
 40
0.0
 40
1.0
 40
1.0
 40
1.0
 40
1.0
 10
18.43646504167129
 20
-15.15908570917314
 30
0.0
 10
18.39742971118243
 20
-15.21143440360448
 30
0.0
 10
18.37775882279539
 20
-15.27569993136619
 30
0.0
 10
18.38075390605231
 20
-15.34092854246108
 30
0.0
  0
SPLINE
  5
477
330
70
100
AcDbEntity
  8
Livello 3
100
AcDbSpline
210
0.0
220
0.0
230
1.0
 70
     8
 71
     3
 72
     8
 73
     4
 74
     0
 42
0.000000001
 43
0.0000000001
 40
0.0
 40
0.0
 40
0.0
 40
0.0
 40
1.0
 40
1.0
 40
1.0
 40
1.0
 10
18.81870633932366
 20
-14.87022068146759
 30
0.0
 10
18.8225057558934
 20
-14.90049607034893
 30
0.0
 10
18.82734586688103
 20
-14.93060565367471
 30
0.0
 10
18.83314553339973
 20
-14.96056354255613
 30
0.0
  0
SPLINE
  5
478
330
70
100
AcDbEntity
  8
Livello 3
100
AcDbSpline
210
0.0
220
0.0
230
1.0
 70
     8
 71
     3
 72
     8
 73
     4
 74
     0
 42
0.000000001
 43
0.0000000001
 40
0.0
 40
0.0
 40
0.0
 40
0.0
 40
1.0
 40
1.0
 40
1.0
 40
1.0
 10
18.43754407127014
 20
-15.15768518139574
 30
0.0
 10
18.47705870915093
 20
-15.09801282029958
 30
0.0
 10
18.50505162510344
 20
-15.03146834809393
 30
0.0
 10
18.52008701360874
 20
-14.96148429255593
 30
0.0
  0
SPLINE
  5
479
330
70
100
AcDbEntity
  8
Livello 3
100
AcDbSpline
210
0.0
220
0.0
230
1.0
 70
     8
 71
     3
 72
     8
 73
     4
 74
     0
 42
0.000000001
 43
0.0000000001
 40
0.0
 40
0.0
 40
0.0
 40
0.0
 40
1.0
 40
1.0
 40
1.0
 40
1.0
 10
18.51749056923054
 20
-14.96056354255613
 30
0.0
 10
18.52328670797156
 20
-14.93060565367471
 30
0.0
 10
18.52808801340462
 20
-14.90049607034893
 30
0.0
 10
18.53188390219667
 20
-14.87022068146759
 30
0.0
  0
SPLINE
  5
47A
330
70
100
AcDbEntity
  8
Livello 3
100
AcDbSpline
210
0.0
220
0.0
230
1.0
 70
     8
 71
     3
 72
     8
 73
     4
 74
     0
 42
0.000000001
 43
0.0000000001
 40
0.0
 40
0.0
 40
0.0
 40
0.0
 40
1.0
 40
1.0
 40
1.0
 40
1.0
 10
12.98220629378071
 20
-14.32300943160444
 30
0.0
 10
12.89670354596206
 20
-14.32300943160444
 30
0.0
 10
12.827396825508
 20
-14.39231615380931
 30
0.0
 10
12.827396825508
 20
-14.47778009823238
 30
0.0
  0
SPLINE
  5
47B
330
70
100
AcDbEntity
  8
Livello 3
100
AcDbSpline
210
0.0
220
0.0
230
1.0
 70
     8
 71
     3
 72
     8
 73
     4
 74
     0
 42
0.000000001
 43
0.0000000001
 40
0.0
 40
0.0
 40
0.0
 40
0.0
 40
1.0
 40
1.0
 40
1.0
 40
1.0
 10
13.23035370411661
 20
-14.47778009823238
 30
0.0
 10
13.23035370411661
 20
-14.39231615380931
 30
0.0
 10
13.16104698366254
 20
-14.32300943160444
 30
0.0
 10
13.07558337634483
 20
-14.32300943160444
 30
0.0
  0
SPLINE
  5
47C
330
70
100
AcDbEntity
  8
Livello 3
100
AcDbSpline
210
0.0
220
0.0
230
1.0
 70
     8
 71
     3
 72
     8
 73
     4
 74
     0
 42
0.000000001
 43
0.0000000001
 40
0.0
 40
0.0
 40
0.0
 40
0.0
 40
1.0
 40
1.0
 40
1.0
 40
1.0
 10
12.73177288350313
 20
-15.34296759801607
 30
0.0
 10
12.75156724410924
 20
-15.49053454242366
 30
0.0
 10
12.87750537978518
 20
-15.60071409795161
 30
0.0
 10
13.02643404265236
 20
-15.60071409795161
 30
0.0
  0
SPLINE
  5
47D
330
70
100
AcDbEntity
  8
Livello 3
100
AcDbSpline
210
0.0
220
0.0
230
1.0
 70
     8
 71
     3
 72
     8
 73
     4
 74
     0
 42
0.000000001
 43
0.0000000001
 40
0.0
 40
0.0
 40
0.0
 40
0.0
 40
1.0
 40
1.0
 40
1.0
 40
1.0
 10
12.79004504308288
 20
-15.15908570917314
 30
0.0
 10
12.75100632745689
 20
-15.21143440360448
 30
0.0
 10
12.73133543906985
 20
-15.27569993136619
 30
0.0
 10
12.73433405010445
 20
-15.34092854246108
 30
0.0
  0
SPLINE
  5
47E
330
70
100
AcDbEntity
  8
Livello 3
100
AcDbSpline
210
0.0
220
0.0
230
1.0
 70
     8
 71
     3
 72
     8
 73
     4
 74
     0
 42
0.000000001
 43
0.0000000001
 40
0.0
 40
0.0
 40
0.0
 40
0.0
 40
1.0
 40
1.0
 40
1.0
 40
1.0
 10
13.02643404265236
 20
-15.60071409795161
 30
0.0
 10
13.17532389996498
 20
-15.60071409795161
 30
0.0
 10
13.30125850786323
 20
-15.49053454242366
 30
0.0
 10
13.32109167402391
 20
-15.34296759801607
 30
0.0
  0
SPLINE
  5
47F
330
70
100
AcDbEntity
  8
Livello 3
100
AcDbSpline
210
0.0
220
0.0
230
1.0
 70
     8
 71
     3
 72
     8
 73
     4
 74
     0
 42
0.000000001
 43
0.0000000001
 40
0.0
 40
0.0
 40
0.0
 40
0.0
 40
1.0
 40
1.0
 40
1.0
 40
1.0
 10
12.78620296544783
 20
-15.15768518139574
 30
0.0
 10
12.82571760332862
 20
-15.09801282029958
 30
0.0
 10
12.85371051928113
 20
-15.03146834809393
 30
0.0
 10
12.86874590778643
 20
-14.96148429255593
 30
0.0
  0
SPLINE
  5
480
330
70
100
AcDbEntity
  8
Livello 3
100
AcDbSpline
210
0.0
220
0.0
230
1.0
 70
     8
 71
     3
 72
     8
 73
     4
 74
     0
 42
0.000000001
 43
0.0000000001
 40
0.0
 40
0.0
 40
0.0
 40
0.0
 40
1.0
 40
1.0
 40
1.0
 40
1.0
 10
13.32345528507472
 20
-15.34092854246108
 30
0.0
 10
13.32645389610933
 20
-15.27569993136619
 30
0.0
 10
13.30674067439004
 20
-15.21143440360448
 30
0.0
 10
13.26770615407458
 20
-15.15908570917314
 30
0.0
  0
SPLINE
  5
481
330
70
100
AcDbEntity
  8
Livello 3
100
AcDbSpline
210
0.0
220
0.0
230
1.0
 70
     8
 71
     3
 72
     8
 73
     4
 74
     0
 42
0.000000001
 43
0.0000000001
 40
0.0
 40
0.0
 40
0.0
 40
0.0
 40
1.0
 40
1.0
 40
1.0
 40
1.0
 10
12.86614946340823
 20
-14.96056354255613
 30
0.0
 10
12.87194560214925
 20
-14.93060565367471
 30
0.0
 10
12.87674690758231
 20
-14.90049607034893
 30
0.0
 10
12.88054279637436
 20
-14.87022068146759
 30
0.0
  0
SPLINE
  5
482
330
70
100
AcDbEntity
  8
Livello 3
100
AcDbSpline
210
0.0
220
0.0
230
1.0
 70
     8
 71
     3
 72
     8
 73
     4
 74
     0
 42
0.000000001
 43
0.0000000001
 40
0.0
 40
0.0
 40
0.0
 40
0.0
 40
1.0
 40
1.0
 40
1.0
 40
1.0
 10
13.18412217751829
 20
-14.96148429255593
 30
0.0
 10
13.19911876046903
 20
-15.03146834809393
 30
0.0
 10
13.22711167642154
 20
-15.09801282029958
 30
0.0
 10
13.26666511985689
 20
-15.15768518139574
 30
0.0
  0
SPLINE
  5
483
330
70
100
AcDbEntity
  8
Livello 3
100
AcDbSpline
210
0.0
220
0.0
230
1.0
 70
     8
 71
     3
 72
     8
 73
     4
 74
     0
 42
0.000000001
 43
0.0000000001
 40
0.0
 40
0.0
 40
0.0
 40
0.0
 40
1.0
 40
1.0
 40
1.0
 40
1.0
 10
13.1722864833758
 20
-14.87022068146759
 30
0.0
 10
13.17608237216785
 20
-14.90049607034893
 30
0.0
 10
13.18088367760091
 20
-14.93060565367471
 30
0.0
 10
13.18672214967418
 20
-14.96056354255613
 30
0.0
  0
SPLINE
  5
484
330
70
100
AcDbEntity
  8
Livello 3
100
AcDbSpline
210
0.0
220
0.0
230
1.0
 70
     8
 71
     3
 72
     8
 73
     4
 74
     0
 42
0.000000001
 43
0.0000000001
 40
0.0
 40
0.0
 40
0.0
 40
0.0
 40
1.0
 40
1.0
 40
1.0
 40
1.0
 10
9.886249761654028
 20
-14.32300943160444
 30
0.0
 10
9.800747266052432
 20
-14.32300943160444
 30
0.0
 10
9.731440293381323
 20
-14.39231615380931
 30
0.0
 10
9.731440293381323
 20
-14.47778009823238
 30
0.0
  0
SPLINE
  5
485
330
70
100
AcDbEntity
  8
Livello 3
100
AcDbSpline
210
0.0
220
0.0
230
1.0
 70
     8
 71
     3
 72
     8
 73
     4
 74
     0
 42
0.000000001
 43
0.0000000001
 40
0.0
 40
0.0
 40
0.0
 40
0.0
 40
1.0
 40
1.0
 40
1.0
 40
1.0
 10
10.13441481087836
 20
-14.47778009823238
 30
0.0
 10
10.13439717198993
 20
-14.39231615380931
 30
0.0
 10
10.0651080904243
 20
-14.32300943160444
 30
0.0
 10
9.979605599341043
 20
-14.32300943160444
 30
0.0
  0
SPLINE
  5
486
330
70
100
AcDbEntity
  8
Livello 3
100
AcDbSpline
210
0.0
220
0.0
230
1.0
 70
     8
 71
     3
 72
     8
 73
     4
 74
     0
 42
0.000000001
 43
0.0000000001
 40
0.0
 40
0.0
 40
0.0
 40
0.0
 40
1.0
 40
1.0
 40
1.0
 40
1.0
 10
9.64071996236246
 20
-15.34296759801607
 30
0.0
 10
9.660531961857014
 20
-15.49053454242366
 30
0.0
 10
9.786466569755264
 20
-15.60071409795161
 30
0.0
 10
9.935377593734004
 20
-15.60071409795161
 30
0.0
  0
SPLINE
  5
487
330
70
100
AcDbEntity
  8
Livello 3
100
AcDbSpline
210
0.0
220
0.0
230
1.0
 70
     8
 71
     3
 72
     8
 73
     4
 74
     0
 42
0.000000001
 43
0.0000000001
 40
0.0
 40
0.0
 40
0.0
 40
0.0
 40
1.0
 40
1.0
 40
1.0
 40
1.0
 10
9.694088183223145
 20
-15.15908570917314
 30
0.0
 10
9.655070961996335
 20
-15.21143440360448
 30
0.0
 10
9.635378906943167
 20
-15.27569993136619
 30
0.0
 10
9.638377517977774
 20
-15.34092854246108
 30
0.0
  0
SPLINE
  5
488
330
70
100
AcDbEntity
  8
Livello 3
100
AcDbSpline
210
0.0
220
0.0
230
1.0
 70
     8
 71
     3
 72
     8
 73
     4
 74
     0
 42
0.000000001
 43
0.0000000001
 40
0.0
 40
0.0
 40
0.0
 40
0.0
 40
1.0
 40
1.0
 40
1.0
 40
1.0
 10
9.935377593734004
 20
-15.60071409795161
 30
0.0
 10
10.08428861771275
 20
-15.60071409795161
 30
0.0
 10
10.21024439227712
 20
-15.49053454242366
 30
0.0
 10
10.23005991954937
 20
-15.34296759801607
 30
0.0
  0
SPLINE
  5
489
330
70
100
AcDbEntity
  8
Livello 3
100
AcDbSpline
210
0.0
220
0.0
230
1.0
 70
     8
 71
     3
 72
     8
 73
     4
 74
     0
 42
0.000000001
 43
0.0000000001
 40
0.0
 40
0.0
 40
0.0
 40
0.0
 40
1.0
 40
1.0
 40
1.0
 40
1.0
 10
9.695146516529479
 20
-15.15768518139574
 30
0.0
 10
9.734699959964832
 20
-15.09801282029958
 30
0.0
 10
9.762692875917339
 20
-15.03146834809393
 30
0.0
 10
9.777689458868078
 20
-14.96148429255593
 30
0.0
  0
SPLINE
  5
48A
330
70
100
AcDbEntity
  8
Livello 3
100
AcDbSpline
210
0.0
220
0.0
230
1.0
 70
     8
 71
     3
 72
     8
 73
     4
 74
     0
 42
0.000000001
 43
0.0000000001
 40
0.0
 40
0.0
 40
0.0
 40
0.0
 40
1.0
 40
1.0
 40
1.0
 40
1.0
 10
10.22747758628191
 20
-15.34092854246108
 30
0.0
 10
10.23047619731652
 20
-15.27569993136619
 30
0.0
 10
10.21080530892948
 20
-15.21143440360448
 30
0.0
 10
10.17176692103654
 20
-15.15908570917314
 30
0.0
  0
SPLINE
  5
48B
330
70
100
AcDbEntity
  8
Livello 3
100
AcDbSpline
210
0.0
220
0.0
230
1.0
 70
     8
 71
     3
 72
     8
 73
     4
 74
     0
 42
0.000000001
 43
0.0000000001
 40
0.0
 40
0.0
 40
0.0
 40
0.0
 40
1.0
 40
1.0
 40
1.0
 40
1.0
 10
9.775089486712184
 20
-14.96056354255613
 30
0.0
 10
9.780910319897015
 20
-14.93060565367471
 30
0.0
 10
9.78572926421852
 20
-14.90049607034893
 30
0.0
 10
9.789525153010568
 20
-14.87022068146759
 30
0.0
  0
SPLINE
  5
48C
330
70
100
AcDbEntity
  8
Livello 3
100
AcDbSpline
210
0.0
220
0.0
230
1.0
 70
     8
 71
     3
 72
     8
 73
     4
 74
     0
 42
0.000000001
 43
0.0000000001
 40
0.0
 40
0.0
 40
0.0
 40
0.0
 40
1.0
 40
1.0
 40
1.0
 40
1.0
 10
10.09308336748837
 20
-14.96148429255593
 30
0.0
 10
10.1080834782168
 20
-15.03146834809393
 30
0.0
 10
10.13607639416931
 20
-15.09801282029958
 30
0.0
 10
10.17562983760466
 20
-15.15768518139574
 30
0.0
  0
SPLINE
  5
48D
330
70
100
AcDbEntity
  8
Livello 3
100
AcDbSpline
210
0.0
220
0.0
230
1.0
 70
     8
 71
     3
 72
     8
 73
     4
 74
     0
 42
0.000000001
 43
0.0000000001
 40
0.0
 40
0.0
 40
0.0
 40
0.0
 40
1.0
 40
1.0
 40
1.0
 40
1.0
 10
10.08124767334588
 20
-14.87022068146759
 30
0.0
 10
10.08505087709244
 20
-14.90049607034893
 30
0.0
 10
10.08986603423712
 20
-14.93060565367471
 30
0.0
 10
10.09566217297814
 20
-14.96056354255613
 30
0.0
  0
LINE
  5
48E
330
70
100
AcDbEntity
  8
Livello 3
100
AcDbLine
 10
15.40243817647986
 20
-13.41879412627491
 30
0.0
 11
16.12484943582745
 21
-13.41879412627491
 31
0.0
  0
LINE
  5
48F
330
70
100
AcDbEntity
  8
Livello 3
100
AcDbLine
 10
16.12484943582745
 20
-13.41879412627491
 30
0.0
 11
16.12484943582745
 21
-13.68906070954071
 31
0.0
  0
LINE
  5
490
330
70
100
AcDbEntity
  8
Livello 3
100
AcDbLine
 10
16.12484943582745
 20
-13.68906070954071
 30
0.0
 11
15.40243817647986
 21
-13.68906070954071
 31
0.0
  0
LINE
  5
491
330
70
100
AcDbEntity
  8
Livello 3
100
AcDbLine
 10
15.40243817647986
 20
-13.68906070954071
 30
0.0
 11
15.40243817647986
 21
-13.41879412627491
 31
0.0
  0
LINE
  5
492
330
70
100
AcDbEntity
  8
Livello 3
100
AcDbLine
 10
16.12484943582745
 20
-13.48757873736877
 30
0.0
 11
16.18379507321252
 21
-13.48757873736877
 31
0.0
  0
LINE
  5
493
330
70
100
AcDbEntity
  8
Livello 3
100
AcDbLine
 10
16.18379507321252
 20
-13.48757873736877
 30
0.0
 11
16.18379507321252
 21
-13.62027257066897
 31
0.0
  0
LINE
  5
494
330
70
100
AcDbEntity
  8
Livello 3
100
AcDbLine
 10
16.18379507321252
 20
-13.62027257066897
 30
0.0
 11
16.12484943582745
 21
-13.62027257066897
 31
0.0
  0
LINE
  5
495
330
70
100
AcDbEntity
  8
Livello 3
100
AcDbLine
 10
16.12484943582745
 20
-13.62027257066897
 30
0.0
 11
16.12484943582745
 21
-13.48757873736877
 31
0.0
  0
LINE
  5
496
330
70
100
AcDbEntity
  8
Livello 3
100
AcDbLine
 10
15.40243817647986
 20
-13.48757873736877
 30
0.0
 11
15.34348587577783
 21
-13.48757873736877
 31
0.0
  0
LINE
  5
497
330
70
100
AcDbEntity
  8
Livello 3
100
AcDbLine
 10
15.34348587577783
 20
-13.48757873736877
 30
0.0
 11
15.34348587577783
 21
-13.62027257066897
 31
0.0
  0
LINE
  5
498
330
70
100
AcDbEntity
  8
Livello 3
100
AcDbLine
 10
15.34348587577783
 20
-13.62027257066897
 30
0.0
 11
15.40243817647986
 21
-13.62027257066897
 31
0.0
  0
LINE
  5
499
330
70
100
AcDbEntity
  8
Livello 3
100
AcDbLine
 10
15.40243817647986
 20
-13.62027257066897
 30
0.0
 11
15.40243817647986
 21
-13.48757873736877
 31
0.0
  0
SPLINE
  5
49A
330
70
100
AcDbEntity
  8
Livello 3
100
AcDbSpline
210
0.0
220
0.0
230
1.0
 70
     8
 71
     3
 72
     8
 73
     4
 74
     0
 42
0.000000001
 43
0.0000000001
 40
0.0
 40
0.0
 40
0.0
 40
0.0
 40
1.0
 40
1.0
 40
1.0
 40
1.0
 10
15.84147010972373
 20
-13.41867065405275
 30
0.0
 10
15.85090338726085
 20
-13.38747804294943
 30
0.0
 10
15.83938872088794
 20
-13.35372779295784
 30
0.0
 10
15.81287041600893
 20
-13.33473070962924
 30
0.0
  0
SPLINE
  5
49B
330
70
100
AcDbEntity
  8
Livello 3
100
AcDbSpline
210
0.0
220
0.0
230
1.0
 70
     8
 71
     3
 72
     8
 73
     4
 74
     0
 42
0.000000001
 43
0.0000000001
 40
0.0
 40
0.0
 40
0.0
 40
0.0
 40
1.0
 40
1.0
 40
1.0
 40
1.0
 10
15.81287041600893
 20
-13.33473070962924
 30
0.0
 10
15.78635916668528
 20
-13.31577243185622
 30
0.0
 10
15.75072508426105
 20
-13.31577243185622
 30
0.0
 10
15.72421030715972
 20
-13.33473070962924
 30
0.0
  0
SPLINE
  5
49C
330
70
100
AcDbEntity
  8
Livello 3
100
AcDbSpline
210
0.0
220
0.0
230
1.0
 70
     8
 71
     3
 72
     8
 73
     4
 74
     0
 42
0.000000001
 43
0.0000000001
 40
0.0
 40
0.0
 40
0.0
 40
0.0
 40
1.0
 40
1.0
 40
1.0
 40
1.0
 10
15.72421030715972
 20
-13.33473070962924
 30
0.0
 10
15.69769553005839
 20
-13.35372779295784
 30
0.0
 10
15.68621966924006
 20
-13.38747804294943
 30
0.0
 10
15.6956141412226
 20
-13.41867065405275
 30
0.0
  0
SPLINE
  5
49D
330
70
100
AcDbEntity
  8
Livello 3
100
AcDbSpline
210
0.0
220
0.0
230
1.0
 70
     8
 71
     3
 72
     8
 73
     4
 74
     0
 42
0.000000001
 43
0.0000000001
 40
0.0
 40
0.0
 40
0.0
 40
0.0
 40
1.0
 40
1.0
 40
1.0
 40
1.0
 10
15.80927208276739
 20
-13.41947498738584
 30
0.0
 10
15.82027169359788
 20
-13.39983937627964
 30
0.0
 10
15.81571420899313
 20
-13.3751625707303
 30
0.0
 10
15.79839594415598
 20
-13.36076570962277
 30
0.0
  0
SPLINE
  5
49E
330
70
100
AcDbEntity
  8
Livello 3
100
AcDbSpline
210
0.0
220
0.0
230
1.0
 70
     8
 71
     3
 72
     8
 73
     4
 74
     0
 42
0.000000001
 43
0.0000000001
 40
0.0
 40
0.0
 40
0.0
 40
0.0
 40
1.0
 40
1.0
 40
1.0
 40
1.0
 10
15.79839594415598
 20
-13.36076570962277
 30
0.0
 10
15.78111688904125
 20
-13.34640765407076
 30
0.0
 10
15.75600616745965
 20
-13.34640765407076
 30
0.0
 10
15.73868830679036
 20
-13.36076570962277
 30
0.0
  0
SPLINE
  5
49F
330
70
100
AcDbEntity
  8
Livello 3
100
AcDbSpline
210
0.0
220
0.0
230
1.0
 70
     8
 71
     3
 72
     8
 73
     4
 74
     0
 42
0.000000001
 43
0.0000000001
 40
0.0
 40
0.0
 40
0.0
 40
0.0
 40
1.0
 40
1.0
 40
1.0
 40
1.0
 10
15.73868830679036
 20
-13.36076570962277
 30
0.0
 10
15.72140925167563
 20
-13.3751625707303
 30
0.0
 10
15.71681255734845
 20
-13.39983937627964
 30
0.0
 10
15.72781216817894
 20
-13.41947498738584
 30
0.0
  0
LINE
  5
4A0
330
70
100
AcDbEntity
  8
Livello 3
100
AcDbLine
 10
15.55968181135719
 20
-13.68906070954071
 30
0.0
 11
15.63343000392016
 21
-13.86598582060752
 31
0.0
  0
LINE
  5
4A1
330
70
100
AcDbEntity
  8
Livello 3
100
AcDbLine
 10
15.96756346761793
 20
-13.68906070954071
 30
0.0
 11
15.89385760838722
 21
-13.86598582060752
 31
0.0
  0
LINE
  5
4A2
330
70
100
AcDbEntity
  8
Livello 3
100
AcDbLine
 10
15.89385760838722
 20
-13.86598582060752
 30
0.0
 11
15.63343000392016
 21
-13.86598582060752
 31
0.0
  0
LINE
  5
4A3
330
70
100
AcDbEntity
  8
Livello 3
100
AcDbLine
 10
15.76608150053594
 20
-13.86598582060752
 30
0.0
 11
15.76608150053594
 21
-14.27386043161665
 31
0.0
  0
LINE
  5
4A4
330
70
100
AcDbEntity
  8
Livello 3
100
AcDbLine
 10
15.55968181135719
 20
-14.52940912599725
 30
0.0
 11
15.55968181135719
 21
-14.87338157035573
 31
0.0
  0
LINE
  5
4A5
330
70
100
AcDbEntity
  8
Livello 3
100
AcDbLine
 10
15.55968181135719
 20
-14.87338157035573
 30
0.0
 11
15.96268143117864
 21
-14.87338157035573
 31
0.0
  0
LINE
  5
4A6
330
70
100
AcDbEntity
  8
Livello 3
100
AcDbLine
 10
15.96268143117864
 20
-14.87338157035573
 30
0.0
 11
15.96268143117864
 21
-14.52940912599725
 31
0.0
  0
LINE
  5
4A7
330
70
100
AcDbEntity
  8
Livello 3
100
AcDbLine
 10
15.96268143117864
 20
-14.52940912599725
 30
0.0
 11
15.96268143117864
 21
-14.48026012600952
 31
0.0
  0
LINE
  5
4A8
330
70
100
AcDbEntity
  8
Livello 3
100
AcDbLine
 10
15.81031277718529
 20
-14.32300943160444
 30
0.0
 11
15.71697170901784
 21
-14.32300943160444
 31
0.0
  0
LINE
  5
4A9
330
70
100
AcDbEntity
  8
Livello 3
100
AcDbLine
 10
15.55968181135719
 20
-14.48026012600952
 30
0.0
 11
15.55968181135719
 21
-14.52940912599725
 31
0.0
  0
LINE
  5
4AA
330
70
100
AcDbEntity
  8
Livello 3
100
AcDbLine
 10
15.71697170901784
 20
-14.32300943160444
 30
0.0
 11
15.81031277718529
 21
-14.32300943160444
 31
0.0
  0
LINE
  5
4AB
330
70
100
AcDbEntity
  8
Livello 3
100
AcDbLine
 10
15.81031277718529
 20
-14.32300943160444
 30
0.0
 11
15.81031277718529
 21
-14.27386043161665
 31
0.0
  0
LINE
  5
4AC
330
70
100
AcDbEntity
  8
Livello 3
100
AcDbLine
 10
15.81031277718529
 20
-14.27386043161665
 30
0.0
 11
15.71697170901784
 21
-14.27386043161665
 31
0.0
  0
LINE
  5
4AD
330
70
100
AcDbEntity
  8
Livello 3
100
AcDbLine
 10
15.71697170901784
 20
-14.27386043161665
 30
0.0
 11
15.71697170901784
 21
-14.32300943160444
 31
0.0
  0
LINE
  5
4AE
330
70
100
AcDbEntity
  8
Livello 3
100
AcDbLine
 10
18.31656599102322
 20
-13.41879412627491
 30
0.0
 11
19.03406305605168
 21
-13.41879412627491
 31
0.0
  0
LINE
  5
4AF
330
70
100
AcDbEntity
  8
Livello 3
100
AcDbLine
 10
19.03406305605168
 20
-13.41879412627491
 30
0.0
 11
19.03406305605168
 21
-13.68906070954071
 31
0.0
  0
LINE
  5
4B0
330
70
100
AcDbEntity
  8
Livello 3
100
AcDbLine
 10
19.03406305605168
 20
-13.68906070954071
 30
0.0
 11
18.31656599102322
 21
-13.68906070954071
 31
0.0
  0
LINE
  5
4B1
330
70
100
AcDbEntity
  8
Livello 3
100
AcDbLine
 10
18.31656599102322
 20
-13.68906070954071
 30
0.0
 11
18.31656599102322
 21
-13.41879412627491
 31
0.0
  0
LINE
  5
4B2
330
70
100
AcDbEntity
  8
Livello 3
100
AcDbLine
 10
19.03406305605168
 20
-13.48757873736877
 30
0.0
 11
19.09792994331118
 21
-13.48757873736877
 31
0.0
  0
LINE
  5
4B3
330
70
100
AcDbEntity
  8
Livello 3
100
AcDbLine
 10
19.09792994331118
 20
-13.48757873736877
 30
0.0
 11
19.09792994331118
 21
-13.62027257066897
 31
0.0
  0
LINE
  5
4B4
330
70
100
AcDbEntity
  8
Livello 3
100
AcDbLine
 10
19.09792994331118
 20
-13.62027257066897
 30
0.0
 11
19.03406305605168
 21
-13.62027257066897
 31
0.0
  0
LINE
  5
4B5
330
70
100
AcDbEntity
  8
Livello 3
100
AcDbLine
 10
19.03406305605168
 20
-13.62027257066897
 30
0.0
 11
19.03406305605168
 21
-13.48757873736877
 31
0.0
  0
LINE
  5
4B6
330
70
100
AcDbEntity
  8
Livello 3
100
AcDbLine
 10
18.31656599102322
 20
-13.48757873736877
 30
0.0
 11
18.25270309727283
 21
-13.48757873736877
 31
0.0
  0
LINE
  5
4B7
330
70
100
AcDbEntity
  8
Livello 3
100
AcDbLine
 10
18.25270309727283
 20
-13.48757873736877
 30
0.0
 11
18.25270309727283
 21
-13.62027257066897
 31
0.0
  0
LINE
  5
4B8
330
70
100
AcDbEntity
  8
Livello 3
100
AcDbLine
 10
18.25270309727283
 20
-13.62027257066897
 30
0.0
 11
18.31656599102322
 21
-13.62027257066897
 31
0.0
  0
LINE
  5
4B9
330
70
100
AcDbEntity
  8
Livello 3
100
AcDbLine
 10
18.31656599102322
 20
-13.62027257066897
 30
0.0
 11
18.31656599102322
 21
-13.48757873736877
 31
0.0
  0
SPLINE
  5
4BA
330
70
100
AcDbEntity
  8
Livello 3
100
AcDbSpline
210
0.0
220
0.0
230
1.0
 70
     8
 71
     3
 72
     8
 73
     4
 74
     0
 42
0.000000001
 43
0.0000000001
 40
0.0
 40
0.0
 40
0.0
 40
0.0
 40
1.0
 40
1.0
 40
1.0
 40
1.0
 10
18.75068020217026
 20
-13.41867065405275
 30
0.0
 10
18.76012053526276
 20
-13.38747804294943
 30
0.0
 10
18.74859881333448
 20
-13.35372779295784
 30
0.0
 10
18.72208756401082
 20
-13.33473070962924
 30
0.0
  0
SPLINE
  5
4BB
330
70
100
AcDbEntity
  8
Livello 3
100
AcDbSpline
210
0.0
220
0.0
230
1.0
 70
     8
 71
     3
 72
     8
 73
     4
 74
     0
 42
0.000000001
 43
0.0000000001
 40
0.0
 40
0.0
 40
0.0
 40
0.0
 40
1.0
 40
1.0
 40
1.0
 40
1.0
 10
18.72208756401082
 20
-13.33473070962924
 30
0.0
 10
18.69557278690949
 20
-13.31577243185622
 30
0.0
 10
18.65993870448527
 20
-13.31577243185622
 30
0.0
 10
18.63342392738394
 20
-13.33473070962924
 30
0.0
  0
SPLINE
  5
4BC
330
70
100
AcDbEntity
  8
Livello 3
100
AcDbSpline
210
0.0
220
0.0
230
1.0
 70
     8
 71
     3
 72
     8
 73
     4
 74
     0
 42
0.000000001
 43
0.0000000001
 40
0.0
 40
0.0
 40
0.0
 40
0.0
 40
1.0
 40
1.0
 40
1.0
 40
1.0
 10
18.63342392738394
 20
-13.33473070962924
 30
0.0
 10
18.6069126780603
 20
-13.35372779295784
 30
0.0
 10
18.59543328946427
 20
-13.38747804294943
 30
0.0
 10
18.60483128922451
 20
-13.41867065405275
 30
0.0
  0
SPLINE
  5
4BD
330
70
100
AcDbEntity
  8
Livello 3
100
AcDbSpline
210
0.0
220
0.0
230
1.0
 70
     8
 71
     3
 72
     8
 73
     4
 74
     0
 42
0.000000001
 43
0.0000000001
 40
0.0
 40
0.0
 40
0.0
 40
0.0
 40
1.0
 40
1.0
 40
1.0
 40
1.0
 10
18.7184892307693
 20
-13.41947498738584
 30
0.0
 10
18.7294853138221
 20
-13.39983937627964
 30
0.0
 10
18.7249274250495
 20
-13.3751625707303
 30
0.0
 10
18.70761309215789
 20
-13.36076570962277
 30
0.0
  0
SPLINE
  5
4BE
330
70
100
AcDbEntity
  8
Livello 3
100
AcDbSpline
210
0.0
220
0.0
230
1.0
 70
     8
 71
     3
 72
     8
 73
     4
 74
     0
 42
0.000000001
 43
0.0000000001
 40
0.0
 40
0.0
 40
0.0
 40
0.0
 40
1.0
 40
1.0
 40
1.0
 40
1.0
 10
18.70761309215789
 20
-13.36076570962277
 30
0.0
 10
18.69033403704316
 20
-13.34640765407076
 30
0.0
 10
18.66521978768387
 20
-13.34640765407076
 30
0.0
 10
18.64789839923689
 20
-13.36076570962277
 30
0.0
  0
SPLINE
  5
4BF
330
70
100
AcDbEntity
  8
Livello 3
100
AcDbSpline
210
0.0
220
0.0
230
1.0
 70
     8
 71
     3
 72
     8
 73
     4
 74
     0
 42
0.000000001
 43
0.0000000001
 40
0.0
 40
0.0
 40
0.0
 40
0.0
 40
1.0
 40
1.0
 40
1.0
 40
1.0
 10
18.64789839923689
 20
-13.36076570962277
 30
0.0
 10
18.63062639967754
 20
-13.3751625707303
 30
0.0
 10
18.62602617757267
 20
-13.39983937627964
 30
0.0
 10
18.63702226062548
 20
-13.41947498738584
 30
0.0
  0
LINE
  5
4C0
330
70
100
AcDbEntity
  8
Livello 3
100
AcDbLine
 10
18.46889543158141
 20
-13.68906070954071
 30
0.0
 11
18.54752254068658
 21
-13.86598582060752
 31
0.0
  0
LINE
  5
4C1
330
70
100
AcDbEntity
  8
Livello 3
100
AcDbLine
 10
18.88169480993892
 20
-13.68906070954071
 30
0.0
 11
18.8030717082463
 21
-13.86598582060752
 31
0.0
  0
LINE
  5
4C2
330
70
100
AcDbEntity
  8
Livello 3
100
AcDbLine
 10
18.8030717082463
 20
-13.86598582060752
 30
0.0
 11
18.54752254068658
 21
-13.86598582060752
 31
0.0
  0
LINE
  5
4C3
330
70
100
AcDbEntity
  8
Livello 3
100
AcDbLine
 10
18.67529559716716
 20
-13.86598582060752
 30
0.0
 11
18.67529559716716
 21
-14.27386043161665
 31
0.0
  0
LINE
  5
4C4
330
70
100
AcDbEntity
  8
Livello 3
100
AcDbLine
 10
18.46889543158141
 20
-14.52940912599725
 30
0.0
 11
18.46889543158141
 21
-14.87338157035573
 31
0.0
  0
LINE
  5
4C5
330
70
100
AcDbEntity
  8
Livello 3
100
AcDbLine
 10
18.46889543158141
 20
-14.87338157035573
 30
0.0
 11
18.87677356006447
 21
-14.87338157035573
 31
0.0
  0
LINE
  5
4C6
330
70
100
AcDbEntity
  8
Livello 3
100
AcDbLine
 10
18.87677356006447
 20
-14.87338157035573
 30
0.0
 11
18.87677356006447
 21
-14.52940912599725
 31
0.0
  0
LINE
  5
4C7
330
70
100
AcDbEntity
  8
Livello 3
100
AcDbLine
 10
18.87677356006447
 20
-14.52940912599725
 30
0.0
 11
18.87677356006447
 21
-14.48026012600952
 31
0.0
  0
LINE
  5
4C8
330
70
100
AcDbEntity
  8
Livello 3
100
AcDbLine
 10
18.7195299251872
 20
-14.32300943160444
 30
0.0
 11
18.62618893051276
 21
-14.32300943160444
 31
0.0
  0
LINE
  5
4C9
330
70
100
AcDbEntity
  8
Livello 3
100
AcDbLine
 10
18.46889543158141
 20
-14.48026012600952
 30
0.0
 11
18.46889543158141
 21
-14.52940912599725
 31
0.0
  0
LINE
  5
4CA
330
70
100
AcDbEntity
  8
Livello 3
100
AcDbLine
 10
18.62618893051276
 20
-14.32300943160444
 30
0.0
 11
18.72444764728396
 21
-14.32300943160444
 31
0.0
  0
LINE
  5
4CB
330
70
100
AcDbEntity
  8
Livello 3
100
AcDbLine
 10
18.72444764728396
 20
-14.32300943160444
 30
0.0
 11
18.72444764728396
 21
-14.27386043161665
 31
0.0
  0
LINE
  5
4CC
330
70
100
AcDbEntity
  8
Livello 3
100
AcDbLine
 10
18.72444764728396
 20
-14.27386043161665
 30
0.0
 11
18.62618893051276
 21
-14.27386043161665
 31
0.0
  0
LINE
  5
4CD
330
70
100
AcDbEntity
  8
Livello 3
100
AcDbLine
 10
18.62618893051276
 20
-14.27386043161665
 30
0.0
 11
18.62618893051276
 21
-14.32300943160444
 31
0.0
  0
LINE
  5
4CE
330
70
100
AcDbEntity
  8
Livello 3
100
AcDbLine
 10
13.38272195022937
 20
-13.41879412627491
 30
0.0
 11
12.66522488520091
 21
-13.41879412627491
 31
0.0
  0
LINE
  5
4CF
330
70
100
AcDbEntity
  8
Livello 3
100
AcDbLine
 10
12.66522488520091
 20
-13.41879412627491
 30
0.0
 11
12.66522488520091
 21
-13.68906070954071
 31
0.0
  0
LINE
  5
4D0
330
70
100
AcDbEntity
  8
Livello 3
100
AcDbLine
 10
12.66522488520091
 20
-13.68906070954071
 30
0.0
 11
13.38272195022937
 21
-13.68906070954071
 31
0.0
  0
LINE
  5
4D1
330
70
100
AcDbEntity
  8
Livello 3
100
AcDbLine
 10
13.38272195022937
 20
-13.68906070954071
 30
0.0
 11
13.38272195022937
 21
-13.41879412627491
 31
0.0
  0
LINE
  5
4D2
330
70
100
AcDbEntity
  8
Livello 3
100
AcDbLine
 10
12.66522488520091
 20
-13.48757873736877
 30
0.0
 11
12.60136152571909
 21
-13.48757873736877
 31
0.0
  0
LINE
  5
4D3
330
70
100
AcDbEntity
  8
Livello 3
100
AcDbLine
 10
12.60136152571909
 20
-13.48757873736877
 30
0.0
 11
12.60136152571909
 21
-13.62027257066897
 31
0.0
  0
LINE
  5
4D4
330
70
100
AcDbEntity
  8
Livello 3
100
AcDbLine
 10
12.60136152571909
 20
-13.62027257066897
 30
0.0
 11
12.66522488520091
 21
-13.62027257066897
 31
0.0
  0
LINE
  5
4D5
330
70
100
AcDbEntity
  8
Livello 3
100
AcDbLine
 10
12.66522488520091
 20
-13.62027257066897
 30
0.0
 11
12.66522488520091
 21
-13.48757873736877
 31
0.0
  0
LINE
  5
4D6
330
70
100
AcDbEntity
  8
Livello 3
100
AcDbLine
 10
13.38272195022937
 20
-13.48757873736877
 30
0.0
 11
13.44658883748888
 21
-13.48757873736877
 31
0.0
  0
LINE
  5
4D7
330
70
100
AcDbEntity
  8
Livello 3
100
AcDbLine
 10
13.44658883748888
 20
-13.48757873736877
 30
0.0
 11
13.44658883748888
 21
-13.62027257066897
 31
0.0
  0
LINE
  5
4D8
330
70
100
AcDbEntity
  8
Livello 3
100
AcDbLine
 10
13.44658883748888
 20
-13.62027257066897
 30
0.0
 11
13.38272195022937
 21
-13.62027257066897
 31
0.0
  0
LINE
  5
4D9
330
70
100
AcDbEntity
  8
Livello 3
100
AcDbLine
 10
13.38272195022937
 20
-13.62027257066897
 30
0.0
 11
13.38272195022937
 21
-13.48757873736877
 31
0.0
  0
SPLINE
  5
4DA
330
70
100
AcDbEntity
  8
Livello 3
100
AcDbSpline
210
0.0
220
0.0
230
1.0
 70
     8
 71
     3
 72
     8
 73
     4
 74
     0
 42
0.000000001
 43
0.0000000001
 40
0.0
 40
0.0
 40
0.0
 40
0.0
 40
1.0
 40
1.0
 40
1.0
 40
1.0
 10
13.09933909634796
 20
-13.41867065405275
 30
0.0
 10
13.10877976522542
 20
-13.38747804294943
 30
0.0
 10
13.09725770751217
 20
-13.35372779295784
 30
0.0
 10
13.07074645818852
 20
-13.33473070962924
 30
0.0
  0
SPLINE
  5
4DB
330
70
100
AcDbEntity
  8
Livello 3
100
AcDbSpline
210
0.0
220
0.0
230
1.0
 70
     8
 71
     3
 72
     8
 73
     4
 74
     0
 42
0.000000001
 43
0.0000000001
 40
0.0
 40
0.0
 40
0.0
 40
0.0
 40
1.0
 40
1.0
 40
1.0
 40
1.0
 10
13.07074645818852
 20
-13.33473070962924
 30
0.0
 10
13.0442316810872
 20
-13.31577243185622
 30
0.0
 10
13.00859759866296
 20
-13.31577243185622
 30
0.0
 10
12.98208282156164
 20
-13.33473070962924
 30
0.0
  0
SPLINE
  5
4DC
330
70
100
AcDbEntity
  8
Livello 3
100
AcDbSpline
210
0.0
220
0.0
230
1.0
 70
     8
 71
     3
 72
     8
 73
     4
 74
     0
 42
0.000000001
 43
0.0000000001
 40
0.0
 40
0.0
 40
0.0
 40
0.0
 40
1.0
 40
1.0
 40
1.0
 40
1.0
 10
12.98208282156164
 20
-13.33473070962924
 30
0.0
 10
12.95557157223799
 20
-13.35372779295784
 30
0.0
 10
12.94409218364197
 20
-13.38747804294943
 30
0.0
 10
12.9534901834022
 20
-13.41867065405275
 30
0.0
  0
SPLINE
  5
4DD
330
70
100
AcDbEntity
  8
Livello 3
100
AcDbSpline
210
0.0
220
0.0
230
1.0
 70
     8
 71
     3
 72
     8
 73
     4
 74
     0
 42
0.000000001
 43
0.0000000001
 40
0.0
 40
0.0
 40
0.0
 40
0.0
 40
1.0
 40
1.0
 40
1.0
 40
1.0
 10
13.06714812494699
 20
-13.41947498738584
 30
0.0
 10
13.07814420799979
 20
-13.39983937627964
 30
0.0
 10
13.07358631922719
 20
-13.3751625707303
 30
0.0
 10
13.05627198633558
 20
-13.36076570962277
 30
0.0
  0
SPLINE
  5
4DE
330
70
100
AcDbEntity
  8
Livello 3
100
AcDbSpline
210
0.0
220
0.0
230
1.0
 70
     8
 71
     3
 72
     8
 73
     4
 74
     0
 42
0.000000001
 43
0.0000000001
 40
0.0
 40
0.0
 40
0.0
 40
0.0
 40
1.0
 40
1.0
 40
1.0
 40
1.0
 10
13.05627198633558
 20
-13.36076570962277
 30
0.0
 10
13.03899293122085
 20
-13.34640765407076
 30
0.0
 10
13.01387868186157
 20
-13.34640765407076
 30
0.0
 10
12.99655729341458
 20
-13.36076570962277
 30
0.0
  0
SPLINE
  5
4DF
330
70
100
AcDbEntity
  8
Livello 3
100
AcDbSpline
210
0.0
220
0.0
230
1.0
 70
     8
 71
     3
 72
     8
 73
     4
 74
     0
 42
0.000000001
 43
0.0000000001
 40
0.0
 40
0.0
 40
0.0
 40
0.0
 40
1.0
 40
1.0
 40
1.0
 40
1.0
 10
12.99655729341458
 20
-13.36076570962277
 30
0.0
 10
12.97928529385523
 20
-13.3751625707303
 30
0.0
 10
12.97468507175037
 20
-13.39983937627964
 30
0.0
 10
12.98568115480317
 20
-13.41947498738584
 30
0.0
  0
LINE
  5
4E0
330
70
100
AcDbEntity
  8
Livello 3
100
AcDbLine
 10
13.23035370411661
 20
-13.68906070954071
 30
0.0
 11
13.15173012278913
 21
-13.86598582060752
 31
0.0
  0
LINE
  5
4E1
330
70
100
AcDbEntity
  8
Livello 3
100
AcDbLine
 10
12.81755432575911
 20
-13.68906070954071
 30
0.0
 11
12.89618143486427
 21
-13.86598582060752
 31
0.0
  0
LINE
  5
4E2
330
70
100
AcDbEntity
  8
Livello 3
100
AcDbLine
 10
12.89618143486427
 20
-13.86598582060752
 30
0.0
 11
13.15173012278913
 21
-13.86598582060752
 31
0.0
  0
LINE
  5
4E3
330
70
100
AcDbEntity
  8
Livello 3
100
AcDbLine
 10
13.02395401493786
 20
-13.86598582060752
 30
0.0
 11
13.02395401493786
 21
-14.27386043161665
 31
0.0
  0
LINE
  5
4E4
330
70
100
AcDbEntity
  8
Livello 3
100
AcDbLine
 10
13.23035370411661
 20
-14.52940912599725
 30
0.0
 11
13.23035370411661
 21
-14.87338157035573
 31
0.0
  0
LINE
  5
4E5
330
70
100
AcDbEntity
  8
Livello 3
100
AcDbLine
 10
13.23035370411661
 20
-14.87338157035573
 30
0.0
 11
12.82247557563356
 21
-14.87338157035573
 31
0.0
  0
LINE
  5
4E6
330
70
100
AcDbEntity
  8
Livello 3
100
AcDbLine
 10
12.82247557563356
 20
-14.87338157035573
 30
0.0
 11
12.82247557563356
 21
-14.52940912599725
 31
0.0
  0
LINE
  5
4E7
330
70
100
AcDbEntity
  8
Livello 3
100
AcDbLine
 10
12.82247557563356
 20
-14.52940912599725
 30
0.0
 11
12.82247557563356
 21
-14.48026012600952
 31
0.0
  0
LINE
  5
4E8
330
70
100
AcDbEntity
  8
Livello 3
100
AcDbLine
 10
12.97972273828851
 20
-14.32300943160444
 30
0.0
 11
13.07310654146165
 21
-14.32300943160444
 31
0.0
  0
LINE
  5
4E9
330
70
100
AcDbEntity
  8
Livello 3
100
AcDbLine
 10
13.23035370411661
 20
-14.48026012600952
 30
0.0
 11
13.23035370411661
 21
-14.52940912599725
 31
0.0
  0
LINE
  5
4EA
330
70
100
AcDbEntity
  8
Livello 3
100
AcDbLine
 10
13.07310654146165
 20
-14.32300943160444
 30
0.0
 11
12.97484734952401
 21
-14.32300943160444
 31
0.0
  0
LINE
  5
4EB
330
70
100
AcDbEntity
  8
Livello 3
100
AcDbLine
 10
12.97484734952401
 20
-14.32300943160444
 30
0.0
 11
12.97484734952401
 21
-14.27386043161665
 31
0.0
  0
LINE
  5
4EC
330
70
100
AcDbEntity
  8
Livello 3
100
AcDbLine
 10
12.97484734952401
 20
-14.27386043161665
 30
0.0
 11
13.07310654146165
 21
-14.27386043161665
 31
0.0
  0
LINE
  5
4ED
330
70
100
AcDbEntity
  8
Livello 3
100
AcDbLine
 10
13.07310654146165
 20
-14.27386043161665
 30
0.0
 11
13.07310654146165
 21
-14.32300943160444
 31
0.0
  0
LINE
  5
4EE
330
70
100
AcDbEntity
  8
Livello 3
100
AcDbLine
 10
10.29166550131101
 20
-13.41879412627491
 30
0.0
 11
9.569268353074232
 21
-13.41879412627491
 31
0.0
  0
LINE
  5
4EF
330
70
100
AcDbEntity
  8
Livello 3
100
AcDbLine
 10
9.569268353074232
 20
-13.41879412627491
 30
0.0
 11
9.569268353074232
 21
-13.68906070954071
 31
0.0
  0
LINE
  5
4F0
330
70
100
AcDbEntity
  8
Livello 3
100
AcDbLine
 10
9.569268353074232
 20
-13.68906070954071
 30
0.0
 11
10.29166550131101
 21
-13.68906070954071
 31
0.0
  0
LINE
  5
4F1
330
70
100
AcDbEntity
  8
Livello 3
100
AcDbLine
 10
10.29166550131101
 20
-13.68906070954071
 30
0.0
 11
10.29166550131101
 21
-13.41879412627491
 31
0.0
  0
LINE
  5
4F2
330
70
100
AcDbEntity
  8
Livello 3
100
AcDbLine
 10
9.569268353074232
 20
-13.48757873736877
 30
0.0
 11
9.505383826926282
 21
-13.48757873736877
 31
0.0
  0
LINE
  5
4F3
330
70
100
AcDbEntity
  8
Livello 3
100
AcDbLine
 10
9.505383826926282
 20
-13.48757873736877
 30
0.0
 11
9.505383826926282
 21
-13.62027257066897
 31
0.0
  0
LINE
  5
4F4
330
70
100
AcDbEntity
  8
Livello 3
100
AcDbLine
 10
9.505383826926282
 20
-13.62027257066897
 30
0.0
 11
9.569268353074232
 21
-13.62027257066897
 31
0.0
  0
LINE
  5
4F5
330
70
100
AcDbEntity
  8
Livello 3
100
AcDbLine
 10
9.569268353074232
 20
-13.62027257066897
 30
0.0
 11
9.569268353074232
 21
-13.48757873736877
 31
0.0
  0
LINE
  5
4F6
330
70
100
AcDbEntity
  8
Livello 3
100
AcDbLine
 10
10.29166550131101
 20
-13.48757873736877
 30
0.0
 11
10.3506323053622
 21
-13.48757873736877
 31
0.0
  0
LINE
  5
4F7
330
70
100
AcDbEntity
  8
Livello 3
100
AcDbLine
 10
10.3506323053622
 20
-13.48757873736877
 30
0.0
 11
10.3506323053622
 21
-13.62027257066897
 31
0.0
  0
LINE
  5
4F8
330
70
100
AcDbEntity
  8
Livello 3
100
AcDbLine
 10
10.3506323053622
 20
-13.62027257066897
 30
0.0
 11
10.29166550131101
 21
-13.62027257066897
 31
0.0
  0
LINE
  5
4F9
330
70
100
AcDbEntity
  8
Livello 3
100
AcDbLine
 10
10.29166550131101
 20
-13.62027257066897
 30
0.0
 11
10.29166550131101
 21
-13.48757873736877
 31
0.0
  0
SPLINE
  5
4FA
330
70
100
AcDbEntity
  8
Livello 3
100
AcDbSpline
210
0.0
220
0.0
230
1.0
 70
     8
 71
     3
 72
     8
 73
     4
 74
     0
 42
0.000000001
 43
0.0000000001
 40
0.0
 40
0.0
 40
0.0
 40
0.0
 40
1.0
 40
1.0
 40
1.0
 40
1.0
 10
10.0034037308874
 20
-13.41867065405275
 30
0.0
 10
10.01282289731377
 20
-13.38747804294943
 30
0.0
 10
10.00132234205161
 20
-13.35372779295784
 30
0.0
 10
9.974811092727977
 20
-13.33473070962924
 30
0.0
  0
SPLINE
  5
4FB
330
70
100
AcDbEntity
  8
Livello 3
100
AcDbSpline
210
0.0
220
0.0
230
1.0
 70
     8
 71
     3
 72
     8
 73
     4
 74
     0
 42
0.000000001
 43
0.0000000001
 40
0.0
 40
0.0
 40
0.0
 40
0.0
 40
1.0
 40
1.0
 40
1.0
 40
1.0
 10
9.974811092727977
 20
-13.33473070962924
 30
0.0
 10
9.948296315626645
 20
-13.31577243185622
 30
0.0
 10
9.912641066536286
 20
-13.31577243185622
 30
0.0
 10
9.886126289434956
 20
-13.33473070962924
 30
0.0
  0
SPLINE
  5
4FC
330
70
100
AcDbEntity
  8
Livello 3
100
AcDbSpline
210
0.0
220
0.0
230
1.0
 70
     8
 71
     3
 72
     8
 73
     4
 74
     0
 42
0.000000001
 43
0.0000000001
 40
0.0
 40
0.0
 40
0.0
 40
0.0
 40
1.0
 40
1.0
 40
1.0
 40
1.0
 10
9.886126289434956
 20
-13.33473070962924
 30
0.0
 10
9.859632678999751
 20
-13.35372779295784
 30
0.0
 10
9.848135651515288
 20
-13.38747804294943
 30
0.0
 10
9.857554817941654
 20
-13.41867065405275
 30
0.0
  0
SPLINE
  5
4FD
330
70
100
AcDbEntity
  8
Livello 3
100
AcDbSpline
210
0.0
220
0.0
230
1.0
 70
     8
 71
     3
 72
     8
 73
     4
 74
     0
 42
0.000000001
 43
0.0000000001
 40
0.0
 40
0.0
 40
0.0
 40
0.0
 40
1.0
 40
1.0
 40
1.0
 40
1.0
 10
9.971212759486443
 20
-13.41947498738584
 30
0.0
 10
9.982205314761555
 20
-13.39983937627964
 30
0.0
 10
9.977630043785962
 20
-13.3751625707303
 30
0.0
 10
9.960329565319652
 20
-13.36076570962277
 30
0.0
  0
SPLINE
  5
4FE
330
70
100
AcDbEntity
  8
Livello 3
100
AcDbSpline
210
0.0
220
0.0
230
1.0
 70
     8
 71
     3
 72
     8
 73
     4
 74
     0
 42
0.000000001
 43
0.0000000001
 40
0.0
 40
0.0
 40
0.0
 40
0.0
 40
1.0
 40
1.0
 40
1.0
 40
1.0
 10
9.960329565319652
 20
-13.36076570962277
 30
0.0
 10
9.943015232428042
 20
-13.34640765407076
 30
0.0
 10
9.917922149734886
 20
-13.34640765407076
 30
0.0
 10
9.900621927954032
 20
-13.36076570962277
 30
0.0
  0
SPLINE
  5
4FF
330
70
100
AcDbEntity
  8
Livello 3
100
AcDbSpline
210
0.0
220
0.0
230
1.0
 70
     8
 71
     3
 72
     8
 73
     4
 74
     0
 42
0.000000001
 43
0.0000000001
 40
0.0
 40
0.0
 40
0.0
 40
0.0
 40
1.0
 40
1.0
 40
1.0
 40
1.0
 10
9.900621927954032
 20
-13.36076570962277
 30
0.0
 10
9.883307595062424
 20
-13.3751625707303
 30
0.0
 10
9.878749706289815
 20
-13.39983937627964
 30
0.0
 10
9.889745789342617
 20
-13.41947498738584
 30
0.0
  0
LINE
  5
500
330
70
100
AcDbEntity
  8
Livello 3
100
AcDbLine
 10
10.13441481087836
 20
-13.68906070954071
 30
0.0
 11
10.05579475732857
 21
-13.86598582060752
 31
0.0
  0
LINE
  5
501
330
70
100
AcDbEntity
  8
Livello 3
100
AcDbLine
 10
9.726540210173004
 20
-13.68906070954071
 30
0.0
 11
9.800246069403721
 21
-13.86598582060752
 31
0.0
  0
LINE
  5
502
330
70
100
AcDbEntity
  8
Livello 3
100
AcDbLine
 10
9.800246069403721
 20
-13.86598582060752
 30
0.0
 11
10.05579475732857
 21
-13.86598582060752
 31
0.0
  0
LINE
  5
503
330
70
100
AcDbEntity
  8
Livello 3
100
AcDbLine
 10
9.928018649477303
 20
-13.86598582060752
 30
0.0
 11
9.928018649477303
 21
-14.27386043161665
 31
0.0
  0
LINE
  5
504
330
70
100
AcDbEntity
  8
Livello 3
100
AcDbLine
 10
10.13441481087836
 20
-14.52940912599725
 30
0.0
 11
10.13441481087836
 21
-14.87338157035573
 31
0.0
  0
LINE
  5
505
330
70
100
AcDbEntity
  8
Livello 3
100
AcDbLine
 10
10.13441481087836
 20
-14.87338157035573
 30
0.0
 11
9.726540210173004
 21
-14.87338157035573
 31
0.0
  0
LINE
  5
506
330
70
100
AcDbEntity
  8
Livello 3
100
AcDbLine
 10
9.726540210173004
 20
-14.87338157035573
 30
0.0
 11
9.726540210173004
 21
-14.52940912599725
 31
0.0
  0
LINE
  5
507
330
70
100
AcDbEntity
  8
Livello 3
100
AcDbLine
 10
9.726540210173004
 20
-14.52940912599725
 30
0.0
 11
9.726540210173004
 21
-14.48026012600952
 31
0.0
  0
LINE
  5
508
330
70
100
AcDbEntity
  8
Livello 3
100
AcDbLine
 10
9.883787372827962
 20
-14.32300943160444
 30
0.0
 11
9.97715000933497
 21
-14.32300943160444
 31
0.0
  0
LINE
  5
509
330
70
100
AcDbEntity
  8
Livello 3
100
AcDbLine
 10
10.13441481087836
 20
-14.48026012600952
 30
0.0
 11
10.13441481087836
 21
-14.52940912599725
 31
0.0
  0
LINE
  5
50A
330
70
100
AcDbEntity
  8
Livello 3
100
AcDbLine
 10
9.97715000933497
 20
-14.32300943160444
 30
0.0
 11
9.878869650731198
 21
-14.32300943160444
 31
0.0
  0
LINE
  5
50B
330
70
100
AcDbEntity
  8
Livello 3
100
AcDbLine
 10
9.878869650731198
 20
-14.32300943160444
 30
0.0
 11
9.878869650731198
 21
-14.27386043161665
 31
0.0
  0
LINE
  5
50C
330
70
100
AcDbEntity
  8
Livello 3
100
AcDbLine
 10
9.878869650731198
 20
-14.27386043161665
 30
0.0
 11
9.97715000933497
 21
-14.27386043161665
 31
0.0
  0
LINE
  5
50D
330
70
100
AcDbEntity
  8
Livello 3
100
AcDbLine
 10
9.97715000933497
 20
-14.27386043161665
 30
0.0
 11
9.97715000933497
 21
-14.32300943160444
 31
0.0
  0
LINE
  5
50E
330
70
100
AcDbEntity
  8
Livello 3
100
AcDbLine
 10
10.3506323053622
 20
-13.55148795957504
 30
0.0
 11
12.60136152571909
 21
-13.55148795957504
 31
0.0
  0
LINE
  5
50F
330
70
100
AcDbEntity
  8
Livello 3
100
AcDbLine
 10
13.44658883748888
 20
-13.55148795957504
 30
0.0
 11
14.13388143163581
 21
-13.55148795957504
 31
0.0
  0
LINE
  5
510
330
70
100
AcDbEntity
  8
Livello 3
100
AcDbLine
 10
14.70197674990571
 20
-13.55148795957504
 30
0.0
 11
15.3615480979955
 21
-13.55148795957504
 31
0.0
  0
LINE
  5
511
330
70
100
AcDbEntity
  8
Livello 3
100
AcDbLine
 10
16.18379507321252
 20
-13.55148795957504
 30
0.0
 11
18.25270309727283
 21
-13.55148795957504
 31
0.0
  0
LINE
  5
512
330
70
100
AcDbEntity
  8
Livello 3
100
AcDbLine
 10
19.09792994331118
 20
-13.55148795957504
 30
0.0
 11
20.96531320122583
 21
-13.55148795957504
 31
0.0
  0
LINE
  5
513
330
70
100
AcDbEntity
  8
Livello 3
100
AcDbLine
 10
9.505383826926282
 20
-13.55148795957504
 30
0.0
 11
7.241199662468212
 21
-13.55148795957504
 31
0.0
  0
LINE
  5
514
330
70
100
AcDbEntity
  8
Livello 3
100
AcDbLine
 10
6.188288550441324
 20
-13.26646115409075
 30
0.0
 11
6.738678314177487
 21
-13.26646115409075
 31
0.0
  0
LINE
  5
515
330
70
100
AcDbEntity
  8
Livello 3
100
AcDbLine
 10
6.738678314177487
 20
-13.26646115409075
 30
0.0
 11
6.738678314177487
 21
-13.84142895950258
 31
0.0
  0
LINE
  5
516
330
70
100
AcDbEntity
  8
Livello 3
100
AcDbLine
 10
6.738678314177487
 20
-13.84142895950258
 30
0.0
 11
6.188288550441324
 21
-13.84142895950258
 31
0.0
  0
LINE
  5
517
330
70
100
AcDbEntity
  8
Livello 3
100
AcDbLine
 10
6.188288550441324
 20
-13.84142895950258
 30
0.0
 11
6.188288550441324
 21
-13.26646115409075
 31
0.0
  0
LINE
  5
518
330
70
100
AcDbEntity
  8
Livello 3
100
AcDbLine
 10
7.235018995959227
 20
-13.61535484844798
 30
0.0
 11
7.235018995959227
 21
-13.49249998736758
 31
0.0
  0
LINE
  5
519
330
70
100
AcDbEntity
  8
Livello 3
100
AcDbLine
 10
13.95369629677371
 20
-13.77248559840872
 30
0.0
 11
14.73521194350225
 21
-12.99097698749292
 31
0.0
  0
LINE
  5
51A
330
70
100
AcDbEntity
  8
Livello 3
100
AcDbLine
 10
14.1353204032512
 20
-14.08125434833148
 30
0.0
 11
14.9168395777574
 21
-13.29974926519356
 31
0.0
  0
LINE
  5
51D
330
70
100
AcDbEntity
  8
Livello 3
100
AcDbLine
 10
6.179970922844688
 20
-16.26170402062573
 30
0.0
 11
22.85880585847437
 21
-16.26170402062573
 31
0.0
  0
LINE
  5
51E
330
70
100
AcDbEntity
  8
Livello 3
100
AcDbLine
 10
23.88355392505649
 20
-13.12617436708865
 30
0.0
 11
23.88355392505649
 21
-15.32285103320614
 31
0.0
  0
SPLINE
  5
5B0
330
70
100
AcDbEntity
  8
Livello 3
100
AcDbSpline
210
0.0
220
0.0
230
1.0
 70
     9
 71
     3
 72
    59
 73
    55
 74
     0
 42
0.000000001
 43
0.0000000001
 40
0.0
 40
0.0
 40
0.0
 40
0.0
 40
1.0
 40
1.0
 40
1.0
 40
2.0
 40
2.0
 40
2.0
 40
3.0
 40
3.0
 40
3.0
 40
4.0
 40
4.0
 40
4.0
 40
5.0
 40
5.0
 40
5.0
 40
6.0
 40
6.0
 40
6.0
 40
7.0
 40
7.0
 40
7.0
 40
8.0
 40
8.0
 40
8.0
 40
9.0
 40
9.0
 40
9.0
 40
10.0
 40
10.0
 40
10.0
 40
11.0
 40
11.0
 40
11.0
 40
12.0
 40
12.0
 40
12.0
 40
13.0
 40
13.0
 40
13.0
 40
14.0
 40
14.0
 40
14.0
 40
15.0
 40
15.0
 40
15.0
 40
16.0
 40
16.0
 40
16.0
 40
17.0
 40
17.0
 40
17.0
 40
18.0
 40
18.0
 40
18.0
 40
18.0
 10
13.09477348847978
 20
-17.47442002601333
 30
0.0
 10
13.12652004337635
 20
-17.49474608937631
 30
0.0
 10
13.200176184851
 20
-17.52650986975031
 30
0.0
 10
13.27763915683684
 20
-17.52650986975031
 30
0.0
 10
13.42112738379749
 20
-17.52650986975031
 30
0.0
 10
13.46556911555722
 20
-17.43507703557178
 30
0.0
 10
13.4643116557051
 20
-17.36651963541531
 30
0.0
 10
13.46303697037556
 20
-17.25097113284003
 30
0.0
 10
13.35890895933388
 20
-17.20143065976214
 30
0.0
 10
13.250974117781
 20
-17.20143065976214
 30
0.0
 10
13.250974117781
 20
-17.20143065976214
 30
0.0
 10
13.18875569331739
 20
-17.20143065976214
 30
0.0
 10
13.18875569331739
 20
-17.20143065976214
 30
0.0
 10
13.18875569331739
 20
-17.20143065976214
 30
0.0
 10
13.18875569331739
 20
-17.11761148660601
 30
0.0
 10
13.18875569331739
 20
-17.11761148660601
 30
0.0
 10
13.18875569331739
 20
-17.11761148660601
 30
0.0
 10
13.250974117781
 20
-17.11761148660601
 30
0.0
 10
13.250974117781
 20
-17.11761148660601
 30
0.0
 10
13.33224392027805
 20
-17.11761148660601
 30
0.0
 10
13.43509724599018
 20
-17.07571912550537
 30
0.0
 10
13.43509724599018
 20
-16.97791286467913
 30
0.0
 10
13.43509724599018
 20
-16.91190483518174
 30
0.0
 10
13.39318765941212
 20
-16.85347601575191
 30
0.0
 10
13.29033433369998
 20
-16.85347601575191
 30
0.0
 10
13.22430907872517
 20
-16.85347601575191
 30
0.0
 10
13.16081596893202
 20
-16.88269042546682
 30
0.0
 10
13.12526258352424
 20
-16.90811523014797
 30
0.0
 10
13.12526258352424
 20
-16.90811523014797
 30
0.0
 10
13.09604817380932
 20
-16.82681097669607
 30
0.0
 10
13.09604817380932
 20
-16.82681097669607
 30
0.0
 10
13.13923244571692
 20
-16.79508164727692
 30
0.0
 10
13.22303439339563
 20
-16.76335231785777
 30
0.0
 10
13.31191785691507
 20
-16.76335231785777
 30
0.0
 10
13.47445746190916
 20
-16.76335231785777
 30
0.0
 10
13.5481136033838
 20
-16.85984944239962
 30
0.0
 10
13.5481136033838
 20
-16.96013617197524
 30
0.0
 10
13.5481136033838
 20
-17.04523003046091
 30
0.0
 10
13.49731567045379
 20
-17.11761148660601
 30
0.0
 10
13.3957370300712
 20
-17.15443955734333
 30
0.0
 10
13.3957370300712
 20
-17.15443955734333
 30
0.0
 10
13.3957370300712
 20
-17.15698892800242
 30
0.0
 10
13.3957370300712
 20
-17.15698892800242
 30
0.0
 10
13.49731567045379
 20
-17.17731499136539
 30
0.0
 10
13.57986015828038
 20
-17.25348605254426
 30
0.0
 10
13.57986015828038
 20
-17.3690690060744
 30
0.0
 10
13.57986015828038
 20
-17.50108506506917
 30
0.0
 10
13.47700683256825
 20
-17.6166680185993
 30
0.0
 10
13.27891384216638
 20
-17.6166680185993
 30
0.0
 10
13.18620632265831
 20
-17.6166680185993
 30
0.0
 10
13.10493652016126
 20
-17.58745360888438
 30
0.0
 10
13.06430161891274
 20
-17.56078856982855
 30
0.0
 10
13.06430161891274
 20
-17.56078856982855
 30
0.0
 10
13.09477348847978
 20
-17.47442002601333
 30
0.0
 10
13.09477348847978
 20
-17.47442002601333
 30
0.0
  0
HATCH
  5
5B1
330
70
100
AcDbEntity
  8
Livello 3
 62
   250
420
  1907995
440
 33554687
100
AcDbHatch
 10
0.0
 20
0.0
 30
0.0
210
0.0
220
0.0
230
1.0
  2
SOLID
 70
     1
 71
     0
 91
        1
 92
        1
 93
        1
 72
     4
 94
        3
 73
     0
 74
     0
 95
       59
 96
       55
 40
0.0
 40
0.0
 40
0.0
 40
0.0
 40
1.0
 40
1.0
 40
1.0
 40
2.0
 40
2.0
 40
2.0
 40
3.0
 40
3.0
 40
3.0
 40
4.0
 40
4.0
 40
4.0
 40
5.0
 40
5.0
 40
5.0
 40
6.0
 40
6.0
 40
6.0
 40
7.0
 40
7.0
 40
7.0
 40
8.0
 40
8.0
 40
8.0
 40
9.0
 40
9.0
 40
9.0
 40
10.0
 40
10.0
 40
10.0
 40
11.0
 40
11.0
 40
11.0
 40
12.0
 40
12.0
 40
12.0
 40
13.0
 40
13.0
 40
13.0
 40
14.0
 40
14.0
 40
14.0
 40
15.0
 40
15.0
 40
15.0
 40
16.0
 40
16.0
 40
16.0
 40
17.0
 40
17.0
 40
17.0
 40
18.0
 40
18.0
 40
18.0
 40
18.0
 10
13.09477348847978
 20
-17.47442002601333
 10
13.12652004337635
 20
-17.49474608937631
 10
13.200176184851
 20
-17.52650986975031
 10
13.27763915683684
 20
-17.52650986975031
 10
13.42112738379749
 20
-17.52650986975031
 10
13.46556911555722
 20
-17.43507703557178
 10
13.4643116557051
 20
-17.36651963541531
 10
13.46303697037556
 20
-17.25097113284003
 10
13.35890895933388
 20
-17.20143065976214
 10
13.250974117781
 20
-17.20143065976214
 10
13.250974117781
 20
-17.20143065976214
 10
13.18875569331739
 20
-17.20143065976214
 10
13.18875569331739
 20
-17.20143065976214
 10
13.18875569331739
 20
-17.20143065976214
 10
13.18875569331739
 20
-17.11761148660601
 10
13.18875569331739
 20
-17.11761148660601
 10
13.18875569331739
 20
-17.11761148660601
 10
13.250974117781
 20
-17.11761148660601
 10
13.250974117781
 20
-17.11761148660601
 10
13.33224392027805
 20
-17.11761148660601
 10
13.43509724599018
 20
-17.07571912550537
 10
13.43509724599018
 20
-16.97791286467913
 10
13.43509724599018
 20
-16.91190483518174
 10
13.39318765941212
 20
-16.85347601575191
 10
13.29033433369998
 20
-16.85347601575191
 10
13.22430907872517
 20
-16.85347601575191
 10
13.16081596893202
 20
-16.88269042546682
 10
13.12526258352424
 20
-16.90811523014797
 10
13.12526258352424
 20
-16.90811523014797
 10
13.09604817380932
 20
-16.82681097669607
 10
13.09604817380932
 20
-16.82681097669607
 10
13.13923244571692
 20
-16.79508164727692
 10
13.22303439339563
 20
-16.76335231785777
 10
13.31191785691507
 20
-16.76335231785777
 10
13.47445746190916
 20
-16.76335231785777
 10
13.5481136033838
 20
-16.85984944239962
 10
13.5481136033838
 20
-16.96013617197524
 10
13.5481136033838
 20
-17.04523003046091
 10
13.49731567045379
 20
-17.11761148660601
 10
13.3957370300712
 20
-17.15443955734333
 10
13.3957370300712
 20
-17.15443955734333
 10
13.3957370300712
 20
-17.15698892800242
 10
13.3957370300712
 20
-17.15698892800242
 10
13.49731567045379
 20
-17.17731499136539
 10
13.57986015828038
 20
-17.25348605254426
 10
13.57986015828038
 20
-17.3690690060744
 10
13.57986015828038
 20
-17.50108506506917
 10
13.47700683256825
 20
-17.6166680185993
 10
13.27891384216638
 20
-17.6166680185993
 10
13.18620632265831
 20
-17.6166680185993
 10
13.10493652016126
 20
-17.58745360888438
 10
13.06430161891274
 20
-17.56078856982855
 10
13.06430161891274
 20
-17.56078856982855
 10
13.09477348847978
 20
-17.47442002601333
 10
13.09477348847978
 20
-17.47442002601333
 97
        0
 97
        0
 75
     2
 76
     1
 98
        1
 10
0.0
 20
0.0
450
        0
451
        0
460
0.0
461
0.0
452
        0
462
0.0
453
        0
470

  0
SPLINE
  5
5B2
330
70
100
AcDbEntity
  8
Livello 3
100
AcDbSpline
210
0.0
220
0.0
230
1.0
 70
     9
 71
     3
 72
    17
 73
    13
 74
     0
 42
0.000000001
 43
0.0000000001
 40
0.0
 40
0.0
 40
0.0
 40
0.0
 40
1.0
 40
1.0
 40
1.0
 40
2.0
 40
2.0
 40
2.0
 40
3.0
 40
3.0
 40
3.0
 40
4.0
 40
4.0
 40
4.0
 40
4.0
 10
13.81991441169259
 20
-17.19381699873974
 30
0.0
 10
13.81991441169259
 20
-17.40841199651595
 30
0.0
 10
13.8859396666674
 20
-17.53029947478409
 30
0.0
 10
13.98753553252742
 20
-17.53029947478409
 30
0.0
 10
14.10182657525058
 20
-17.53029947478409
 30
0.0
 10
14.15643133869179
 20
-17.39697427950492
 30
0.0
 10
14.15643133869179
 20
-17.18620333771734
 30
0.0
 10
14.15643133869179
 20
-16.9830116059973
 30
0.0
 10
14.10435872043224
 20
-16.84968641071813
 30
0.0
 10
13.98881021785696
 20
-16.84968641071813
 30
0.0
 10
13.89102118250814
 20
-16.84968641071813
 30
0.0
 10
13.81991441169259
 20
-16.96902451832719
 30
0.0
 10
13.81991441169259
 20
-17.19381699873974
 30
0.0
  0
SPLINE
  5
5B3
330
70
100
AcDbEntity
  8
Livello 3
100
AcDbSpline
210
0.0
220
0.0
230
1.0
 70
     9
 71
     3
 72
    17
 73
    13
 74
     0
 42
0.000000001
 43
0.0000000001
 40
0.0
 40
0.0
 40
0.0
 40
0.0
 40
1.0
 40
1.0
 40
1.0
 40
2.0
 40
2.0
 40
2.0
 40
3.0
 40
3.0
 40
3.0
 40
4.0
 40
4.0
 40
4.0
 40
4.0
 10
14.26817301075587
 20
-17.18110459639916
 30
0.0
 10
14.26817301075587
 20
-17.46174207462762
 30
0.0
 10
14.16404499971419
 20
-17.6166680185993
 30
0.0
 10
13.98117933135713
 20
-17.6166680185993
 30
0.0
 10
13.81991441169259
 20
-17.6166680185993
 30
0.0
 10
13.71070488481017
 20
-17.46553167966139
 30
0.0
 10
13.70817273962851
 20
-17.19254231341019
 30
0.0
 10
13.70817273962851
 20
-16.91569444021552
 30
0.0
 10
13.82752807271499
 20
-16.76335231785777
 30
0.0
 10
13.99514919354982
 20
-16.76335231785777
 30
0.0
 10
14.16912651555494
 20
-16.76335231785777
 30
0.0
 10
14.26817301075587
 20
-16.9182438108746
 30
0.0
 10
14.26817301075587
 20
-17.18110459639916
 30
0.0
  0
HATCH
  5
5B4
330
70
100
AcDbEntity
  8
Livello 3
 62
   250
420
  1907995
440
 33554687
100
AcDbHatch
 10
0.0
 20
0.0
 30
0.0
210
0.0
220
0.0
230
1.0
  2
SOLID
 70
     1
 71
     0
 91
        2
 92
        1
 93
        1
 72
     4
 94
        3
 73
     0
 74
     0
 95
       17
 96
       13
 40
0.0
 40
0.0
 40
0.0
 40
0.0
 40
1.0
 40
1.0
 40
1.0
 40
2.0
 40
2.0
 40
2.0
 40
3.0
 40
3.0
 40
3.0
 40
4.0
 40
4.0
 40
4.0
 40
4.0
 10
13.81991441169259
 20
-17.19381699873974
 10
13.81991441169259
 20
-17.40841199651595
 10
13.8859396666674
 20
-17.53029947478409
 10
13.98753553252742
 20
-17.53029947478409
 10
14.10182657525058
 20
-17.53029947478409
 10
14.15643133869179
 20
-17.39697427950492
 10
14.15643133869179
 20
-17.18620333771734
 10
14.15643133869179
 20
-16.9830116059973
 10
14.10435872043224
 20
-16.84968641071813
 10
13.98881021785696
 20
-16.84968641071813
 10
13.89102118250814
 20
-16.84968641071813
 10
13.81991441169259
 20
-16.96902451832719
 10
13.81991441169259
 20
-17.19381699873974
 97
        0
 97
        0
 92
        1
 93
        1
 72
     4
 94
        3
 73
     0
 74
     0
 95
       17
 96
       13
 40
0.0
 40
0.0
 40
0.0
 40
0.0
 40
1.0
 40
1.0
 40
1.0
 40
2.0
 40
2.0
 40
2.0
 40
3.0
 40
3.0
 40
3.0
 40
4.0
 40
4.0
 40
4.0
 40
4.0
 10
14.26817301075587
 20
-17.18110459639916
 10
14.26817301075587
 20
-17.46174207462762
 10
14.16404499971419
 20
-17.6166680185993
 10
13.98117933135713
 20
-17.6166680185993
 10
13.81991441169259
 20
-17.6166680185993
 10
13.71070488481017
 20
-17.46553167966139
 10
13.70817273962851
 20
-17.19254231341019
 10
13.70817273962851
 20
-16.91569444021552
 10
13.82752807271499
 20
-16.76335231785777
 10
13.99514919354982
 20
-16.76335231785777
 10
14.16912651555494
 20
-16.76335231785777
 10
14.26817301075587
 20
-16.9182438108746
 10
14.26817301075587
 20
-17.18110459639916
 97
        0
 97
        0
 75
     2
 76
     1
 98
        1
 10
0.0
 20
0.0
450
        0
451
        0
460
0.0
461
0.0
452
        0
462
0.0
453
        0
470

  0
SPLINE
  5
5B5
330
70
100
AcDbEntity
  8
Livello 3
100
AcDbSpline
210
0.0
220
0.0
230
1.0
 70
     9
 71
     3
 72
    59
 73
    55
 74
     0
 42
0.000000001
 43
0.0000000001
 40
0.0
 40
0.0
 40
0.0
 40
0.0
 40
1.0
 40
1.0
 40
1.0
 40
2.0
 40
2.0
 40
2.0
 40
3.0
 40
3.0
 40
3.0
 40
4.0
 40
4.0
 40
4.0
 40
5.0
 40
5.0
 40
5.0
 40
6.0
 40
6.0
 40
6.0
 40
7.0
 40
7.0
 40
7.0
 40
8.0
 40
8.0
 40
8.0
 40
9.0
 40
9.0
 40
9.0
 40
10.0
 40
10.0
 40
10.0
 40
11.0
 40
11.0
 40
11.0
 40
12.0
 40
12.0
 40
12.0
 40
13.0
 40
13.0
 40
13.0
 40
14.0
 40
14.0
 40
14.0
 40
15.0
 40
15.0
 40
15.0
 40
16.0
 40
16.0
 40
16.0
 40
17.0
 40
17.0
 40
17.0
 40
18.0
 40
18.0
 40
18.0
 40
18.0
 10
14.39774305195612
 20
-17.47442002601333
 30
0.0
 10
14.42948960685269
 20
-17.49474608937631
 30
0.0
 10
14.50314574832734
 20
-17.52650986975031
 30
0.0
 10
14.58060872031318
 20
-17.52650986975031
 30
0.0
 10
14.72409694727383
 20
-17.52650986975031
 30
0.0
 10
14.76853867903356
 20
-17.43507703557178
 30
0.0
 10
14.76728121918144
 20
-17.36651963541531
 30
0.0
 10
14.7660065338519
 20
-17.25097113284003
 30
0.0
 10
14.66187852281022
 20
-17.20143065976214
 30
0.0
 10
14.55394368125734
 20
-17.20143065976214
 30
0.0
 10
14.55394368125734
 20
-17.20143065976214
 30
0.0
 10
14.49172525679373
 20
-17.20143065976214
 30
0.0
 10
14.49172525679373
 20
-17.20143065976214
 30
0.0
 10
14.49172525679373
 20
-17.20143065976214
 30
0.0
 10
14.49172525679373
 20
-17.11761148660601
 30
0.0
 10
14.49172525679373
 20
-17.11761148660601
 30
0.0
 10
14.49172525679373
 20
-17.11761148660601
 30
0.0
 10
14.55394368125734
 20
-17.11761148660601
 30
0.0
 10
14.55394368125734
 20
-17.11761148660601
 30
0.0
 10
14.63521348375439
 20
-17.11761148660601
 30
0.0
 10
14.73806680946652
 20
-17.07571912550537
 30
0.0
 10
14.73806680946652
 20
-16.97791286467913
 30
0.0
 10
14.73806680946652
 20
-16.91190483518174
 30
0.0
 10
14.69615722288846
 20
-16.85347601575191
 30
0.0
 10
14.59330389717632
 20
-16.85347601575191
 30
0.0
 10
14.52727864220151
 20
-16.85347601575191
 30
0.0
 10
14.46378553240836
 20
-16.88269042546682
 30
0.0
 10
14.42823214700058
 20
-16.90811523014797
 30
0.0
 10
14.42823214700058
 20
-16.90811523014797
 30
0.0
 10
14.39901773728566
 20
-16.82681097669607
 30
0.0
 10
14.39901773728566
 20
-16.82681097669607
 30
0.0
 10
14.44220200919327
 20
-16.79508164727692
 30
0.0
 10
14.52600395687197
 20
-16.76335231785777
 30
0.0
 10
14.61488742039141
 20
-16.76335231785777
 30
0.0
 10
14.7774270253855
 20
-16.76335231785777
 30
0.0
 10
14.85108316686014
 20
-16.85984944239962
 30
0.0
 10
14.85108316686014
 20
-16.96013617197524
 30
0.0
 10
14.85108316686014
 20
-17.04523003046091
 30
0.0
 10
14.80028523393013
 20
-17.11761148660601
 30
0.0
 10
14.69870659354754
 20
-17.15443955734333
 30
0.0
 10
14.69870659354754
 20
-17.15443955734333
 30
0.0
 10
14.69870659354754
 20
-17.15698892800242
 30
0.0
 10
14.69870659354754
 20
-17.15698892800242
 30
0.0
 10
14.80028523393013
 20
-17.17731499136539
 30
0.0
 10
14.88282972175672
 20
-17.25348605254426
 30
0.0
 10
14.88282972175672
 20
-17.3690690060744
 30
0.0
 10
14.88282972175672
 20
-17.50108506506917
 30
0.0
 10
14.77997639604459
 20
-17.6166680185993
 30
0.0
 10
14.58188340564272
 20
-17.6166680185993
 30
0.0
 10
14.48917588613465
 20
-17.6166680185993
 30
0.0
 10
14.4079060836376
 20
-17.58745360888438
 30
0.0
 10
14.36727118238908
 20
-17.56078856982855
 30
0.0
 10
14.36727118238908
 20
-17.56078856982855
 30
0.0
 10
14.39774305195612
 20
-17.47442002601333
 30
0.0
 10
14.39774305195612
 20
-17.47442002601333
 30
0.0
  0
HATCH
  5
5B6
330
70
100
AcDbEntity
  8
Livello 3
 62
   250
420
  1907995
440
 33554687
100
AcDbHatch
 10
0.0
 20
0.0
 30
0.0
210
0.0
220
0.0
230
1.0
  2
SOLID
 70
     1
 71
     0
 91
        1
 92
        1
 93
        1
 72
     4
 94
        3
 73
     0
 74
     0
 95
       59
 96
       55
 40
0.0
 40
0.0
 40
0.0
 40
0.0
 40
1.0
 40
1.0
 40
1.0
 40
2.0
 40
2.0
 40
2.0
 40
3.0
 40
3.0
 40
3.0
 40
4.0
 40
4.0
 40
4.0
 40
5.0
 40
5.0
 40
5.0
 40
6.0
 40
6.0
 40
6.0
 40
7.0
 40
7.0
 40
7.0
 40
8.0
 40
8.0
 40
8.0
 40
9.0
 40
9.0
 40
9.0
 40
10.0
 40
10.0
 40
10.0
 40
11.0
 40
11.0
 40
11.0
 40
12.0
 40
12.0
 40
12.0
 40
13.0
 40
13.0
 40
13.0
 40
14.0
 40
14.0
 40
14.0
 40
15.0
 40
15.0
 40
15.0
 40
16.0
 40
16.0
 40
16.0
 40
17.0
 40
17.0
 40
17.0
 40
18.0
 40
18.0
 40
18.0
 40
18.0
 10
14.39774305195612
 20
-17.47442002601333
 10
14.42948960685269
 20
-17.49474608937631
 10
14.50314574832734
 20
-17.52650986975031
 10
14.58060872031318
 20
-17.52650986975031
 10
14.72409694727383
 20
-17.52650986975031
 10
14.76853867903356
 20
-17.43507703557178
 10
14.76728121918144
 20
-17.36651963541531
 10
14.7660065338519
 20
-17.25097113284003
 10
14.66187852281022
 20
-17.20143065976214
 10
14.55394368125734
 20
-17.20143065976214
 10
14.55394368125734
 20
-17.20143065976214
 10
14.49172525679373
 20
-17.20143065976214
 10
14.49172525679373
 20
-17.20143065976214
 10
14.49172525679373
 20
-17.20143065976214
 10
14.49172525679373
 20
-17.11761148660601
 10
14.49172525679373
 20
-17.11761148660601
 10
14.49172525679373
 20
-17.11761148660601
 10
14.55394368125734
 20
-17.11761148660601
 10
14.55394368125734
 20
-17.11761148660601
 10
14.63521348375439
 20
-17.11761148660601
 10
14.73806680946652
 20
-17.07571912550537
 10
14.73806680946652
 20
-16.97791286467913
 10
14.73806680946652
 20
-16.91190483518174
 10
14.69615722288846
 20
-16.85347601575191
 10
14.59330389717632
 20
-16.85347601575191
 10
14.52727864220151
 20
-16.85347601575191
 10
14.46378553240836
 20
-16.88269042546682
 10
14.42823214700058
 20
-16.90811523014797
 10
14.42823214700058
 20
-16.90811523014797
 10
14.39901773728566
 20
-16.82681097669607
 10
14.39901773728566
 20
-16.82681097669607
 10
14.44220200919327
 20
-16.79508164727692
 10
14.52600395687197
 20
-16.76335231785777
 10
14.61488742039141
 20
-16.76335231785777
 10
14.7774270253855
 20
-16.76335231785777
 10
14.85108316686014
 20
-16.85984944239962
 10
14.85108316686014
 20
-16.96013617197524
 10
14.85108316686014
 20
-17.04523003046091
 10
14.80028523393013
 20
-17.11761148660601
 10
14.69870659354754
 20
-17.15443955734333
 10
14.69870659354754
 20
-17.15443955734333
 10
14.69870659354754
 20
-17.15698892800242
 10
14.69870659354754
 20
-17.15698892800242
 10
14.80028523393013
 20
-17.17731499136539
 10
14.88282972175672
 20
-17.25348605254426
 10
14.88282972175672
 20
-17.3690690060744
 10
14.88282972175672
 20
-17.50108506506917
 10
14.77997639604459
 20
-17.6166680185993
 10
14.58188340564272
 20
-17.6166680185993
 10
14.48917588613465
 20
-17.6166680185993
 10
14.4079060836376
 20
-17.58745360888438
 10
14.36727118238908
 20
-17.56078856982855
 10
14.36727118238908
 20
-17.56078856982855
 10
14.39774305195612
 20
-17.47442002601333
 10
14.39774305195612
 20
-17.47442002601333
 97
        0
 97
        0
 75
     2
 76
     1
 98
        1
 10
0.0
 20
0.0
450
        0
451
        0
460
0.0
461
0.0
452
        0
462
0.0
453
        0
470

  0
SPLINE
  5
5B7
330
70
100
AcDbEntity
  8
Livello 3
100
AcDbSpline
210
0.0
220
0.0
230
1.0
 70
    11
 71
     3
 72
    29
 73
    25
 74
     0
 42
0.000000001
 43
0.0000000001
 40
0.0
 40
0.0
 40
0.0
 40
0.0
 40
1.0
 40
1.0
 40
1.0
 40
2.0
 40
2.0
 40
2.0
 40
3.0
 40
3.0
 40
3.0
 40
4.0
 40
4.0
 40
4.0
 40
5.0
 40
5.0
 40
5.0
 40
6.0
 40
6.0
 40
6.0
 40
7.0
 40
7.0
 40
7.0
 40
8.0
 40
8.0
 40
8.0
 40
8.0
 10
24.35772080554251
 20
-14.7822846100197
 30
0.0
 10
24.35772080554251
 20
-14.7822846100197
 30
0.0
 10
24.35772080554251
 20
-14.78483398067879
 30
0.0
 10
24.35772080554251
 20
-14.78483398067879
 30
0.0
 10
24.35772080554251
 20
-14.78483398067879
 30
0.0
 10
24.43516655205093
 20
-14.92832220763945
 30
0.0
 10
24.43516655205093
 20
-14.92832220763945
 30
0.0
 10
24.43516655205093
 20
-14.92832220763945
 30
0.0
 10
24.35007269356527
 20
-14.94992295633196
 30
0.0
 10
24.35007269356527
 20
-14.94992295633196
 30
0.0
 10
24.35007269356527
 20
-14.94992295633196
 30
0.0
 10
24.25357556902341
 20
-14.76960665863398
 30
0.0
 10
24.25357556902341
 20
-14.76960665863398
 30
0.0
 10
24.25357556902341
 20
-14.76960665863398
 30
0.0
 10
24.25357556902341
 20
-14.67434976846683
 30
0.0
 10
24.25357556902341
 20
-14.67434976846683
 30
0.0
 10
24.25357556902341
 20
-14.67434976846683
 30
0.0
 10
25.07898599633442
 20
-14.67434976846683
 30
0.0
 10
25.07898599633442
 20
-14.67434976846683
 30
0.0
 10
25.07898599633442
 20
-14.67434976846683
 30
0.0
 10
25.07898599633442
 20
-14.7822846100197
 30
0.0
 10
25.07898599633442
 20
-14.7822846100197
 30
0.0
 10
25.07898599633442
 20
-14.7822846100197
 30
0.0
 10
24.35772080554251
 20
-14.7822846100197
 30
0.0
 10
24.35772080554251
 20
-14.7822846100197
 30
0.0
  0
HATCH
  5
5B8
330
70
100
AcDbEntity
  8
Livello 3
 62
   250
420
  1907995
440
 33554687
100
AcDbHatch
 10
0.0
 20
0.0
 30
0.0
210
0.0
220
0.0
230
1.0
  2
SOLID
 70
     1
 71
     0
 91
        1
 92
        1
 93
        1
 72
     4
 94
        3
 73
     0
 74
     0
 95
       29
 96
       25
 40
0.0
 40
0.0
 40
0.0
 40
0.0
 40
1.0
 40
1.0
 40
1.0
 40
2.0
 40
2.0
 40
2.0
 40
3.0
 40
3.0
 40
3.0
 40
4.0
 40
4.0
 40
4.0
 40
5.0
 40
5.0
 40
5.0
 40
6.0
 40
6.0
 40
6.0
 40
7.0
 40
7.0
 40
7.0
 40
8.0
 40
8.0
 40
8.0
 40
8.0
 10
24.35772080554251
 20
-14.7822846100197
 10
24.35772080554251
 20
-14.7822846100197
 10
24.35772080554251
 20
-14.78483398067879
 10
24.35772080554251
 20
-14.78483398067879
 10
24.35772080554251
 20
-14.78483398067879
 10
24.43516655205093
 20
-14.92832220763945
 10
24.43516655205093
 20
-14.92832220763945
 10
24.43516655205093
 20
-14.92832220763945
 10
24.35007269356527
 20
-14.94992295633196
 10
24.35007269356527
 20
-14.94992295633196
 10
24.35007269356527
 20
-14.94992295633196
 10
24.25357556902341
 20
-14.76960665863398
 10
24.25357556902341
 20
-14.76960665863398
 10
24.25357556902341
 20
-14.76960665863398
 10
24.25357556902341
 20
-14.67434976846683
 10
24.25357556902341
 20
-14.67434976846683
 10
24.25357556902341
 20
-14.67434976846683
 10
25.07898599633442
 20
-14.67434976846683
 10
25.07898599633442
 20
-14.67434976846683
 10
25.07898599633442
 20
-14.67434976846683
 10
25.07898599633442
 20
-14.7822846100197
 10
25.07898599633442
 20
-14.7822846100197
 10
25.07898599633442
 20
-14.7822846100197
 10
24.35772080554251
 20
-14.7822846100197
 10
24.35772080554251
 20
-14.7822846100197
 97
        0
 97
        0
 75
     2
 76
     1
 98
        1
 10
0.0
 20
0.0
450
        0
451
        0
460
0.0
461
0.0
452
        0
462
0.0
453
        0
470

  0
SPLINE
  5
5B9
330
70
100
AcDbEntity
  8
Livello 3
100
AcDbSpline
210
0.0
220
0.0
230
1.0
 70
    11
 71
     3
 72
    26
 73
    22
 74
     0
 42
0.000000001
 43
0.0000000001
 40
0.0
 40
0.0
 40
0.0
 40
0.0
 40
1.0
 40
1.0
 40
1.0
 40
2.0
 40
2.0
 40
2.0
 40
3.0
 40
3.0
 40
3.0
 40
4.0
 40
4.0
 40
4.0
 40
5.0
 40
5.0
 40
5.0
 40
6.0
 40
6.0
 40
6.0
 40
7.0
 40
7.0
 40
7.0
 40
7.0
 10
24.76658473773197
 20
-14.0279465025694
 30
0.0
 10
24.76658473773197
 20
-14.0279465025694
 30
0.0
 10
24.49104600082168
 20
-14.0279465025694
 30
0.0
 10
24.49104600082168
 20
-14.0279465025694
 30
0.0
 10
24.4478789543915
 20
-14.0279465025694
 30
0.0
 10
24.40467745700647
 20
-14.02667181723986
 30
0.0
 10
24.36151041057629
 20
-14.02415689753562
 30
0.0
 10
24.36151041057629
 20
-14.02415689753562
 30
0.0
 10
24.36151041057629
 20
-14.0279465025694
 30
0.0
 10
24.36151041057629
 20
-14.0279465025694
 30
0.0
 10
24.40977619832465
 20
-14.05337130725054
 30
0.0
 10
24.44532958373243
 20
-14.07366291965866
 30
0.0
 10
24.48343233979928
 20
-14.09650390272586
 30
0.0
 10
24.48343233979928
 20
-14.09650390272586
 30
0.0
 10
24.76406981802773
 20
-14.29842094911636
 30
0.0
 10
24.76406981802773
 20
-14.29842094911636
 30
0.0
 10
24.76406981802773
 20
-14.29842094911636
 30
0.0
 10
24.76658473773197
 20
-14.29842094911636
 30
0.0
 10
24.76658473773197
 20
-14.29842094911636
 30
0.0
 10
24.76658473773197
 20
-14.29842094911636
 30
0.0
 10
24.76658473773197
 20
-14.0279465025694
 30
0.0
 10
24.76658473773197
 20
-14.0279465025694
 30
0.0
  0
SPLINE
  5
5BA
330
70
100
AcDbEntity
  8
Livello 3
100
AcDbSpline
210
0.0
220
0.0
230
1.0
 70
    11
 71
     3
 72
    38
 73
    34
 74
     0
 42
0.000000001
 43
0.0000000001
 40
0.0
 40
0.0
 40
0.0
 40
0.0
 40
1.0
 40
1.0
 40
1.0
 40
2.0
 40
2.0
 40
2.0
 40
3.0
 40
3.0
 40
3.0
 40
4.0
 40
4.0
 40
4.0
 40
5.0
 40
5.0
 40
5.0
 40
6.0
 40
6.0
 40
6.0
 40
7.0
 40
7.0
 40
7.0
 40
8.0
 40
8.0
 40
8.0
 40
9.0
 40
9.0
 40
9.0
 40
10.0
 40
10.0
 40
10.0
 40
11.0
 40
11.0
 40
11.0
 40
11.0
 10
25.07898599633442
 20
-14.0279465025694
 30
0.0
 10
25.07898599633442
 20
-14.0279465025694
 30
0.0
 10
24.85422796687672
 20
-14.0279465025694
 30
0.0
 10
24.85422796687672
 20
-14.0279465025694
 30
0.0
 10
24.85422796687672
 20
-14.0279465025694
 30
0.0
 10
24.85422796687672
 20
-14.41145453198741
 30
0.0
 10
24.85422796687672
 20
-14.41145453198741
 30
0.0
 10
24.85422796687672
 20
-14.41145453198741
 30
0.0
 10
24.78057182540208
 20
-14.41145453198741
 30
0.0
 10
24.78057182540208
 20
-14.41145453198741
 30
0.0
 10
24.78057182540208
 20
-14.41145453198741
 30
0.0
 10
24.25357556902341
 20
-14.0431738246142
 30
0.0
 10
24.25357556902341
 20
-14.0431738246142
 30
0.0
 10
24.25357556902341
 20
-14.0431738246142
 30
0.0
 10
24.25357556902341
 20
-13.92256103167561
 30
0.0
 10
24.25357556902341
 20
-13.92256103167561
 30
0.0
 10
24.25357556902341
 20
-13.92256103167561
 30
0.0
 10
24.76658473773197
 20
-13.92256103167561
 30
0.0
 10
24.76658473773197
 20
-13.92256103167561
 30
0.0
 10
24.76658473773197
 20
-13.92256103167561
 30
0.0
 10
24.76658473773197
 20
-13.80697807814547
 30
0.0
 10
24.76658473773197
 20
-13.80697807814547
 30
0.0
 10
24.76658473773197
 20
-13.80697807814547
 30
0.0
 10
24.85422796687672
 20
-13.80697807814547
 30
0.0
 10
24.85422796687672
 20
-13.80697807814547
 30
0.0
 10
24.85422796687672
 20
-13.80697807814547
 30
0.0
 10
24.85422796687672
 20
-13.92256103167561
 30
0.0
 10
24.85422796687672
 20
-13.92256103167561
 30
0.0
 10
24.85422796687672
 20
-13.92256103167561
 30
0.0
 10
25.07898599633442
 20
-13.92256103167561
 30
0.0
 10
25.07898599633442
 20
-13.92256103167561
 30
0.0
 10
25.07898599633442
 20
-13.92256103167561
 30
0.0
 10
25.07898599633442
 20
-14.0279465025694
 30
0.0
 10
25.07898599633442
 20
-14.0279465025694
 30
0.0
  0
HATCH
  5
5BB
330
70
100
AcDbEntity
  8
Livello 3
 62
   250
420
  1907995
440
 33554687
100
AcDbHatch
 10
0.0
 20
0.0
 30
0.0
210
0.0
220
0.0
230
1.0
  2
SOLID
 70
     1
 71
     0
 91
        2
 92
        1
 93
        1
 72
     4
 94
        3
 73
     0
 74
     0
 95
       26
 96
       22
 40
0.0
 40
0.0
 40
0.0
 40
0.0
 40
1.0
 40
1.0
 40
1.0
 40
2.0
 40
2.0
 40
2.0
 40
3.0
 40
3.0
 40
3.0
 40
4.0
 40
4.0
 40
4.0
 40
5.0
 40
5.0
 40
5.0
 40
6.0
 40
6.0
 40
6.0
 40
7.0
 40
7.0
 40
7.0
 40
7.0
 10
24.76658473773197
 20
-14.0279465025694
 10
24.76658473773197
 20
-14.0279465025694
 10
24.49104600082168
 20
-14.0279465025694
 10
24.49104600082168
 20
-14.0279465025694
 10
24.4478789543915
 20
-14.0279465025694
 10
24.40467745700647
 20
-14.02667181723986
 10
24.36151041057629
 20
-14.02415689753562
 10
24.36151041057629
 20
-14.02415689753562
 10
24.36151041057629
 20
-14.0279465025694
 10
24.36151041057629
 20
-14.0279465025694
 10
24.40977619832465
 20
-14.05337130725054
 10
24.44532958373243
 20
-14.07366291965866
 10
24.48343233979928
 20
-14.09650390272586
 10
24.48343233979928
 20
-14.09650390272586
 10
24.76406981802773
 20
-14.29842094911636
 10
24.76406981802773
 20
-14.29842094911636
 10
24.76406981802773
 20
-14.29842094911636
 10
24.76658473773197
 20
-14.29842094911636
 10
24.76658473773197
 20
-14.29842094911636
 10
24.76658473773197
 20
-14.29842094911636
 10
24.76658473773197
 20
-14.0279465025694
 10
24.76658473773197
 20
-14.0279465025694
 97
        0
 97
        0
 92
        1
 93
        1
 72
     4
 94
        3
 73
     0
 74
     0
 95
       38
 96
       34
 40
0.0
 40
0.0
 40
0.0
 40
0.0
 40
1.0
 40
1.0
 40
1.0
 40
2.0
 40
2.0
 40
2.0
 40
3.0
 40
3.0
 40
3.0
 40
4.0
 40
4.0
 40
4.0
 40
5.0
 40
5.0
 40
5.0
 40
6.0
 40
6.0
 40
6.0
 40
7.0
 40
7.0
 40
7.0
 40
8.0
 40
8.0
 40
8.0
 40
9.0
 40
9.0
 40
9.0
 40
10.0
 40
10.0
 40
10.0
 40
11.0
 40
11.0
 40
11.0
 40
11.0
 10
25.07898599633442
 20
-14.0279465025694
 10
25.07898599633442
 20
-14.0279465025694
 10
24.85422796687672
 20
-14.0279465025694
 10
24.85422796687672
 20
-14.0279465025694
 10
24.85422796687672
 20
-14.0279465025694
 10
24.85422796687672
 20
-14.41145453198741
 10
24.85422796687672
 20
-14.41145453198741
 10
24.85422796687672
 20
-14.41145453198741
 10
24.78057182540208
 20
-14.41145453198741
 10
24.78057182540208
 20
-14.41145453198741
 10
24.78057182540208
 20
-14.41145453198741
 10
24.25357556902341
 20
-14.0431738246142
 10
24.25357556902341
 20
-14.0431738246142
 10
24.25357556902341
 20
-14.0431738246142
 10
24.25357556902341
 20
-13.92256103167561
 10
24.25357556902341
 20
-13.92256103167561
 10
24.25357556902341
 20
-13.92256103167561
 10
24.76658473773197
 20
-13.92256103167561
 10
24.76658473773197
 20
-13.92256103167561
 10
24.76658473773197
 20
-13.92256103167561
 10
24.76658473773197
 20
-13.80697807814547
 10
24.76658473773197
 20
-13.80697807814547
 10
24.76658473773197
 20
-13.80697807814547
 10
24.85422796687672
 20
-13.80697807814547
 10
24.85422796687672
 20
-13.80697807814547
 10
24.85422796687672
 20
-13.80697807814547
 10
24.85422796687672
 20
-13.92256103167561
 10
24.85422796687672
 20
-13.92256103167561
 10
24.85422796687672
 20
-13.92256103167561
 10
25.07898599633442
 20
-13.92256103167561
 10
25.07898599633442
 20
-13.92256103167561
 10
25.07898599633442
 20
-13.92256103167561
 10
25.07898599633442
 20
-14.0279465025694
 10
25.07898599633442
 20
-14.0279465025694
 97
        0
 97
        0
 75
     2
 76
     1
 98
        1
 10
0.0
 20
0.0
450
        0
451
        0
460
0.0
461
0.0
452
        0
462
0.0
453
        0
470

  0
ENDSEC
  0
SECTION
  2
OBJECTS
  0
DICTIONARY
  5
C
330
0
100
AcDbDictionary
281
     1
  3
ACAD_CIP_PREVIOUS_PRODUCT_INFO
350
59B
  3
ACAD_COLOR
350
63
  3
ACAD_DETAILVIEWSTYLE
350
6A
  3
ACAD_GROUP
350
D
  3
ACAD_LAYOUT
350
62
  3
ACAD_MATERIAL
350
10
  3
ACAD_MLEADERSTYLE
350
66
  3
ACAD_MLINESTYLE
350
5F
  3
ACAD_PLOTSETTINGS
350
61
  3
ACAD_PLOTSTYLENAME
350
E
  3
ACAD_SCALELIST
350
42
  3
ACAD_SECTIONVIEWSTYLE
350
68
  3
ACAD_TABLESTYLE
350
64
  3
ACAD_VISUALSTYLE
350
29
  3
ACDB_RECOMPOSE_DATA
350
5C3
  3
AcDbVariableDictionary
350
558
  0
DICTIONARY
  5
59D
330
70
100
AcDbDictionary
280
     1
281
     1
  3
ACAD_SORTENTS
360
59E
  0
XRECORD
  5
59B
102
{ACAD_REACTORS
330
C
102
}
330
C
100
AcDbXrecord
280
     1
300
ACD
300
2019
300
ACD_F_S
  0
DICTIONARY
  5
63
102
{ACAD_REACTORS
330
C
102
}
330
C
100
AcDbDictionary
281
     1
  0
DICTIONARY
  5
6A
102
{ACAD_REACTORS
330
C
102
}
330
C
100
AcDbDictionary
281
     1
  3
Imperial24
350
6B
  0
DICTIONARY
  5
D
102
{ACAD_REACTORS
330
C
102
}
330
C
100
AcDbDictionary
281
     1
  0
DICTIONARY
  5
62
102
{ACAD_REACTORS
330
C
102
}
330
C
100
AcDbDictionary
281
     1
  3
Layout1
350
6F
  3
Layout2
350
77
  3
Model
350
73
  0
DICTIONARY
  5
10
102
{ACAD_REACTORS
330
C
102
}
330
C
100
AcDbDictionary
281
     1
  3
ByBlock
350
19
  3
ByLayer
350
11
  3
Global
350
21
  0
DICTIONARY
  5
66
102
{ACAD_REACTORS
330
C
102
}
330
C
100
AcDbDictionary
281
     1
  3
Standard
350
67
  0
DICTIONARY
  5
5F
102
{ACAD_REACTORS
330
C
102
}
330
C
100
AcDbDictionary
281
     1
  3
Standard
350
60
  0
DICTIONARY
  5
61
102
{ACAD_REACTORS
330
C
102
}
330
C
100
AcDbDictionary
281
     1
  0
ACDBDICTIONARYWDFLT
  5
E
102
{ACAD_REACTORS
330
C
102
}
330
C
100
AcDbDictionary
281
     1
  3
Normal
350
F
100
AcDbDictionaryWithDefault
340
F
  0
DICTIONARY
  5
42
102
{ACAD_REACTORS
330
C
102
}
330
C
100
AcDbDictionary
281
     1
  3
A0
350
43
  3
A1
350
44
  3
A2
350
45
  3
A3
350
46
  3
A4
350
47
  3
A5
350
48
  3
A6
350
49
  3
A7
350
4A
  3
A8
350
4B
  3
A9
350
4C
  3
B0
350
4D
  3
B1
350
4E
  3
B2
350
4F
  3
B3
350
50
  3
B4
350
51
  3
B5
350
52
  3
B6
350
53
  0
DICTIONARY
  5
68
102
{ACAD_REACTORS
330
C
102
}
330
C
100
AcDbDictionary
281
     1
  3
Imperial24
350
69
  0
DICTIONARY
  5
64
102
{ACAD_REACTORS
330
C
102
}
330
C
100
AcDbDictionary
281
     1
  3
Standard
350
65
  0
DICTIONARY
  5
29
102
{ACAD_REACTORS
330
C
102
}
330
C
100
AcDbDictionary
281
     1
  3
2dWireframe
350
2F
  3
Basic
350
2E
  3
Brighten
350
35
  3
ColorChange
350
39
  3
Conceptual
350
32
  3
Dim
350
34
  3
EdgeColorOff
350
41
  3
Facepattern
350
38
  3
Flat
350
2A
  3
FlatWithEdges
350
2B
  3
Gouraud
350
2C
  3
GouraudWithEdges
350
2D
  3
Hidden
350
31
  3
JitterOff
350
3F
  3
Linepattern
350
37
  3
OverhangOff
350
40
  3
Realistic
350
33
  3
Shaded
350
3E
  3
Shaded with edges
350
3D
  3
Shades of Gray
350
3A
  3
Sketchy
350
3B
  3
Thicken
350
36
  3
Wireframe
350
30
  3
X-Ray
350
3C
  0
XRECORD
  5
5C3
102
{ACAD_REACTORS
330
C
102
}
330
C
100
AcDbXrecord
280
     1
 90
        1
330
65
  0
DICTIONARY
  5
558
102
{ACAD_REACTORS
330
C
102
}
330
C
100
AcDbDictionary
281
     1
  3
CANNOSCALE
350
55D
  3
CMLEADERSTYLE
350
55A
  3
CTABLESTYLE
350
559
  3
CVIEWDETAILSTYLE
350
55B
  3
CVIEWSECTIONSTYLE
350
55C
  0
SORTENTSTABLE
  5
59E
102
{ACAD_REACTORS
330
59D
102
}
330
59D
100
AcDbSortentsTable
330
70
  0
ACDBDETAILVIEWSTYLE
  5
6B
102
{ACAD_XDICTIONARY
360
5C6
102
}
102
{ACAD_REACTORS
330
6A
102
}
330
6A
100
AcDbModelDocViewStyle
 70
     0
  3
Imperial24
290
     0
100
AcDbDetailViewStyle
 70
     0
 71
     0
 90
        3
 71
     1
340
55
 62
   256
 40
0.24
340
0
 62
   256
 40
0.24
300

 40
0.36
280
     3
 71
     2
340
5D
 90
       25
 62
   256
 71
     3
340
55
 62
   256
 40
0.24
 90
        1
 40
0.75
 90
        1
300
%<\AcVar ViewType \f "%tc1">% %<\AcVar ViewDetailId>%\PSCALE %<\AcVar ViewScale \f "%sn">%
 71
     4
340
5D
 90
       25
 62
   256
340
5D
 90
       25
 62
   256
280
     0
  0
LAYOUT
  5
6F
102
{ACAD_REACTORS
330
62
102
}
330
62
100
AcDbPlotSettings
  1

  2

  4

  6

 40
0.0
 41
0.0
 42
0.0
 43
0.0
 44
0.0
 45
0.0
 46
0.0
 47
0.0
 48
0.0
 49
0.0
140
0.0
141
0.0
142
1.0
143
1.0
 70
   688
 72
     0
 73
     0
 74
     5
  7

 75
    16
147
1.0
 76
     0
 77
     2
 78
   300
148
0.0
149
0.0
100
AcDbLayout
  1
Layout1
 70
     1
 71
     1
 10
0.0
 20
0.0
 11
12.0
 21
9.0
 12
0.0
 22
0.0
 32
0.0
 14
1.000000000000000E+20
 24
1.000000000000000E+20
 34
1.000000000000000E+20
 15
-1.000000000000000E+20
 25
-1.000000000000000E+20
 35
-1.000000000000000E+20
146
0.0
 13
0.0
 23
0.0
 33
0.0
 16
1.0
 26
0.0
 36
0.0
 17
0.0
 27
1.0
 37
0.0
 76
     0
330
6C
  0
LAYOUT
  5
77
102
{ACAD_REACTORS
330
62
102
}
330
62
100
AcDbPlotSettings
  1

  2

  4

  6

 40
0.0
 41
0.0
 42
0.0
 43
0.0
 44
0.0
 45
0.0
 46
0.0
 47
0.0
 48
0.0
 49
0.0
140
0.0
141
0.0
142
1.0
143
1.0
 70
   688
 72
     0
 73
     0
 74
     5
  7

 75
    16
147
1.0
 76
     0
 77
     2
 78
   300
148
0.0
149
0.0
100
AcDbLayout
  1
Layout2
 70
     1
 71
     2
 10
0.0
 20
0.0
 11
12.0
 21
9.0
 12
0.0
 22
0.0
 32
0.0
 14
0.0
 24
0.0
 34
0.0
 15
0.0
 25
0.0
 35
0.0
146
0.0
 13
0.0
 23
0.0
 33
0.0
 16
1.0
 26
0.0
 36
0.0
 17
0.0
 27
1.0
 37
0.0
 76
     0
330
74
  0
LAYOUT
  5
73
102
{ACAD_REACTORS
330
62
102
}
330
62
100
AcDbPlotSettings
  1

  2

  4

  6

 40
0.0
 41
0.0
 42
0.0
 43
0.0
 44
0.0
 45
0.0
 46
0.0
 47
0.0
 48
0.0
 49
0.0
140
0.0
141
0.0
142
1.0
143
1.0
 70
  1712
 72
     0
 73
     0
 74
     0
  7

 75
     0
147
1.0
 76
     0
 77
     2
 78
   300
148
0.0
149
0.0
100
AcDbLayout
  1
Model
 70
     1
 71
     0
 10
0.0
 20
0.0
 11
12.0
 21
9.0
 12
0.0
 22
0.0
 32
0.0
 14
0.0
 24
0.0
 34
0.0
 15
0.0
 25
0.0
 35
0.0
146
0.0
 13
0.0
 23
0.0
 33
0.0
 16
1.0
 26
0.0
 36
0.0
 17
0.0
 27
1.0
 37
0.0
 76
     0
330
70
331
57
  0
MATERIAL
  5
19
102
{ACAD_XDICTIONARY
360
1A
102
}
102
{ACAD_REACTORS
330
10
102
}
330
10
100
AcDbMaterial
  1
ByBlock
 72
     0
 43
0.0208333333333333
 43
0.0
 43
0.0
 43
0.0
 43
0.0
 43
0.0208333333333333
 43
0.0
 43
0.0
 43
0.0
 43
0.0
 43
1.0
 43
0.0
 43
0.0
 43
0.0
 43
0.0
 43
1.0
 77
     0
 47
0.0208333333333333
 47
0.0
 47
0.0
 47
0.0
 47
0.0
 47
0.0208333333333333
 47
0.0
 47
0.0
 47
0.0
 47
0.0
 47
1.0
 47
0.0
 47
0.0
 47
0.0
 47
0.0
 47
1.0
171
     0
 49
0.0208333333333333
 49
0.0
 49
0.0
 49
0.0
 49
0.0
 49
0.0208333333333333
 49
0.0
 49
0.0
 49
0.0
 49
0.0
 49
1.0
 49
0.0
 49
0.0
 49
0.0
 49
0.0
 49
1.0
175
     0
142
0.0208333333333333
142
0.0
142
0.0
142
0.0
142
0.0
142
0.0208333333333333
142
0.0
142
0.0
142
0.0
142
0.0
142
1.0
142
0.0
142
0.0
142
0.0
142
0.0
142
1.0
179
     0
144
0.0208333333333333
144
0.0
144
0.0
144
0.0
144
0.0
144
0.0208333333333333
144
0.0
144
0.0
144
0.0
144
0.0
144
1.0
144
0.0
144
0.0
144
0.0
144
0.0
144
1.0
147
0.0208333333333333
147
0.0
147
0.0
147
0.0
147
0.0
147
0.0208333333333333
147
0.0
147
0.0
147
0.0
147
0.0
147
1.0
147
0.0
147
0.0
147
0.0
147
0.0
147
1.0
  0
MATERIAL
  5
11
102
{ACAD_XDICTIONARY
360
12
102
}
102
{ACAD_REACTORS
330
10
102
}
330
10
100
AcDbMaterial
  1
ByLayer
 72
     0
 43
0.0208333333333333
 43
0.0
 43
0.0
 43
0.0
 43
0.0
 43
0.0208333333333333
 43
0.0
 43
0.0
 43
0.0
 43
0.0
 43
1.0
 43
0.0
 43
0.0
 43
0.0
 43
0.0
 43
1.0
 77
     0
 47
0.0208333333333333
 47
0.0
 47
0.0
 47
0.0
 47
0.0
 47
0.0208333333333333
 47
0.0
 47
0.0
 47
0.0
 47
0.0
 47
1.0
 47
0.0
 47
0.0
 47
0.0
 47
0.0
 47
1.0
171
     0
 49
0.0208333333333333
 49
0.0
 49
0.0
 49
0.0
 49
0.0
 49
0.0208333333333333
 49
0.0
 49
0.0
 49
0.0
 49
0.0
 49
1.0
 49
0.0
 49
0.0
 49
0.0
 49
0.0
 49
1.0
175
     0
142
0.0208333333333333
142
0.0
142
0.0
142
0.0
142
0.0
142
0.0208333333333333
142
0.0
142
0.0
142
0.0
142
0.0
142
1.0
142
0.0
142
0.0
142
0.0
142
0.0
142
1.0
179
     0
144
0.0208333333333333
144
0.0
144
0.0
144
0.0
144
0.0
144
0.0208333333333333
144
0.0
144
0.0
144
0.0
144
0.0
144
1.0
144
0.0
144
0.0
144
0.0
144
0.0
144
1.0
147
0.0208333333333333
147
0.0
147
0.0
147
0.0
147
0.0
147
0.0208333333333333
147
0.0
147
0.0
147
0.0
147
0.0
147
1.0
147
0.0
147
0.0
147
0.0
147
0.0
147
1.0
  0
MATERIAL
  5
21
102
{ACAD_XDICTIONARY
360
22
102
}
102
{ACAD_REACTORS
330
10
102
}
330
10
100
AcDbMaterial
  1
Global
 72
     0
 43
0.0208333333333333
 43
0.0
 43
0.0
 43
0.0
 43
0.0
 43
0.0208333333333333
 43
0.0
 43
0.0
 43
0.0
 43
0.0
 43
1.0
 43
0.0
 43
0.0
 43
0.0
 43
0.0
 43
1.0
 77
     0
 47
0.0208333333333333
 47
0.0
 47
0.0
 47
0.0
 47
0.0
 47
0.0208333333333333
 47
0.0
 47
0.0
 47
0.0
 47
0.0
 47
1.0
 47
0.0
 47
0.0
 47
0.0
 47
0.0
 47
1.0
171
     0
 49
0.0208333333333333
 49
0.0
 49
0.0
 49
0.0
 49
0.0
 49
0.0208333333333333
 49
0.0
 49
0.0
 49
0.0
 49
0.0
 49
1.0
 49
0.0
 49
0.0
 49
0.0
 49
0.0
 49
1.0
175
     0
142
0.0208333333333333
142
0.0
142
0.0
142
0.0
142
0.0
142
0.0208333333333333
142
0.0
142
0.0
142
0.0
142
0.0
142
1.0
142
0.0
142
0.0
142
0.0
142
0.0
142
1.0
179
     0
144
0.0208333333333333
144
0.0
144
0.0
144
0.0
144
0.0
144
0.0208333333333333
144
0.0
144
0.0
144
0.0
144
0.0
144
1.0
144
0.0
144
0.0
144
0.0
144
0.0
144
1.0
147
0.0208333333333333
147
0.0
147
0.0
147
0.0
147
0.0
147
0.0208333333333333
147
0.0
147
0.0
147
0.0
147
0.0
147
1.0
147
0.0
147
0.0
147
0.0
147
0.0
147
1.0
  0
MLEADERSTYLE
  5
67
102
{ACAD_REACTORS
330
66
102
}
330
66
100
AcDbMLeaderStyle
179
     2
170
     2
171
     1
172
     0
 90
        2
 40
0.0
 41
0.0
173
     1
 91
-1056964608
340
5B
 92
       -2
290
     1
 42
0.09
291
     1
 43
0.36
  3
Standard
 44
0.18
300

342
55
174
     1
178
     6
175
     1
176
     0
 93
-1056964608
 45
0.18
292
     0
297
     0
 46
0.18
 94
-1056964608
 47
1.0
 49
1.0
140
1.0
293
     1
141
0.0
294
     1
177
     0
142
1.0
295
     0
296
     0
143
0.125
271
     0
272
     9
273
     9
298
     1
  0
MLINESTYLE
  5
60
102
{ACAD_REACTORS
330
5F
102
}
330
5F
100
AcDbMlineStyle
  2
STANDARD
 70
     0
  3

 62
   256
 51
90.0
 52
90.0
 71
     2
 49
0.5
 62
   256
  6
BYLAYER
 49
-0.5
 62
   256
  6
BYLAYER
  0
ACDBPLACEHOLDER
  5
F
102
{ACAD_REACTORS
330
E
102
}
330
E
  0
SCALE
  5
43
102
{ACAD_REACTORS
330
42
102
}
330
42
100
AcDbScale
 70
     0
300
1:1
140
1.0
141
1.0
290
     1
  0
SCALE
  5
44
102
{ACAD_REACTORS
330
42
102
}
330
42
100
AcDbScale
 70
     0
300
1/128" = 1'-0"
140
0.0078125
141
12.0
290
     0
  0
SCALE
  5
45
102
{ACAD_REACTORS
330
42
102
}
330
42
100
AcDbScale
 70
     0
300
1/64" = 1'-0"
140
0.015625
141
12.0
290
     0
  0
SCALE
  5
46
102
{ACAD_REACTORS
330
42
102
}
330
42
100
AcDbScale
 70
     0
300
1/32" = 1'-0"
140
0.03125
141
12.0
290
     0
  0
SCALE
  5
47
102
{ACAD_REACTORS
330
42
102
}
330
42
100
AcDbScale
 70
     0
300
1/16" = 1'-0"
140
0.0625
141
12.0
290
     0
  0
SCALE
  5
48
102
{ACAD_REACTORS
330
42
102
}
330
42
100
AcDbScale
 70
     0
300
3/32" = 1'-0"
140
0.09375
141
12.0
290
     0
  0
SCALE
  5
49
102
{ACAD_REACTORS
330
42
102
}
330
42
100
AcDbScale
 70
     0
300
1/8" = 1'-0"
140
0.125
141
12.0
290
     0
  0
SCALE
  5
4A
102
{ACAD_REACTORS
330
42
102
}
330
42
100
AcDbScale
 70
     0
300
3/16" = 1'-0"
140
0.1875
141
12.0
290
     0
  0
SCALE
  5
4B
102
{ACAD_REACTORS
330
42
102
}
330
42
100
AcDbScale
 70
     0
300
1/4" = 1'-0"
140
0.25
141
12.0
290
     0
  0
SCALE
  5
4C
102
{ACAD_REACTORS
330
42
102
}
330
42
100
AcDbScale
 70
     0
300
3/8" = 1'-0"
140
0.375
141
12.0
290
     0
  0
SCALE
  5
4D
102
{ACAD_REACTORS
330
42
102
}
330
42
100
AcDbScale
 70
     0
300
1/2" = 1'-0"
140
0.5
141
12.0
290
     0
  0
SCALE
  5
4E
102
{ACAD_REACTORS
330
42
102
}
330
42
100
AcDbScale
 70
     0
300
3/4" = 1'-0"
140
0.75
141
12.0
290
     0
  0
SCALE
  5
4F
102
{ACAD_REACTORS
330
42
102
}
330
42
100
AcDbScale
 70
     0
300
1" = 1'-0"
140
1.0
141
12.0
290
     0
  0
SCALE
  5
50
102
{ACAD_REACTORS
330
42
102
}
330
42
100
AcDbScale
 70
     0
300
1-1/2" = 1'-0"
140
1.5
141
12.0
290
     0
  0
SCALE
  5
51
102
{ACAD_REACTORS
330
42
102
}
330
42
100
AcDbScale
 70
     0
300
3" = 1'-0"
140
3.0
141
12.0
290
     0
  0
SCALE
  5
52
102
{ACAD_REACTORS
330
42
102
}
330
42
100
AcDbScale
 70
     0
300
6" = 1'-0"
140
6.0
141
12.0
290
     0
  0
SCALE
  5
53
102
{ACAD_REACTORS
330
42
102
}
330
42
100
AcDbScale
 70
     0
300
1'-0" = 1'-0"
140
12.0
141
12.0
290
     0
  0
ACDBSECTIONVIEWSTYLE
  5
69
102
{ACAD_XDICTIONARY
360
5C4
102
}
102
{ACAD_REACTORS
330
68
102
}
330
68
100
AcDbModelDocViewStyle
 70
     0
  3
Imperial24
290
     0
100
AcDbSectionViewStyle
 70
     0
 71
     0
 90
       78
 71
     1
340
55
 62
   256
 40
0.24
340
0
340
0
 62
   256
 40
0.24
300
I, O, Q, S, X, Z
 40
0.48
 90
        3
 40
0.18
 90
        1
 71
     2
340
5D
 90
       25
 62
   256
340
5D
 90
       50
 62
   256
 40
0.24
 40
0.0
 40
0.24
 71
     3
340
55
 62
   256
 40
0.24
 90
        1
 40
0.75
 90
        1
300
%<\AcVar ViewType \f "%tc1">% %<\AcVar ViewSectionStartId>%-%<\AcVar ViewSectionEndId>%\PSCALE %<\AcVar ViewScale \f "%sn">%
 71
     4
 62
   256
 62
   257
300
ANSI31
 40
1.0
 90
        0
290
     0
290
     0
 90
        6
 40
0.0
 40
1.570796326794896
 40
0.2617993877991494
 40
1.308996938995747
 40
-0.2617993877991494
 40
1.832595714594045
  0
TABLESTYLE
  5
65
102
{ACAD_XDICTIONARY
360
55E
102
}
102
{ACAD_REACTORS
330
64
102
}
330
64
100
AcDbTableStyle
280
     0
  3
Standard
 70
     0
 71
     0
 40
0.06
 41
0.06
280
     0
281
     0
  7
Standard
140
0.18
170
     2
 62
     0
 63
     7
283
     0
 90
      512
 91
        0
  1

274
    -2
284
     1
 64
     0
275
    -2
285
     1
 65
     0
276
    -2
286
     1
 66
     0
277
    -2
287
     1
 67
     0
278
    -2
288
     1
 68
     0
279
    -2
289
     1
 69
     0
  7
Standard
140
0.25
170
     5
 62
     0
 63
     7
283
     0
 90
      512
 91
        0
  1

274
    -2
284
     1
 64
     0
275
    -2
285
     1
 65
     0
276
    -2
286
     1
 66
     0
277
    -2
287
     1
 67
     0
278
    -2
288
     1
 68
     0
279
    -2
289
     1
 69
     0
  7
Standard
140
0.18
170
     5
 62
     0
 63
     7
283
     0
 90
      512
 91
        0
  1

274
    -2
284
     1
 64
     0
275
    -2
285
     1
 65
     0
276
    -2
286
     1
 66
     0
277
    -2
287
     1
 67
     0
278
    -2
288
     1
 68
     0
279
    -2
289
     1
 69
     0
  0
VISUALSTYLE
  5
2F
102
{ACAD_REACTORS
330
29
102
}
330
29
100
AcDbVisualStyle
  2
2dWireframe
 70
     4
177
     3
291
     0
 70
    58
 90
        0
176
     1
 90
        2
176
     1
 90
        0
176
     1
 90
        0
176
     1
 40
0.6
176
     1
 40
30.0
176
     1
 62
     7
420
 16777215
176
     1
 90
        1
176
     1
 90
        4
176
     1
 62
     7
176
     1
 62
   257
176
     1
 90
        1
176
     1
 90
        1
176
     1
 40
1.0
176
     1
 90
        0
176
     1
 62
   257
176
     1
 40
1.0
176
     1
 90
        1
176
     1
 90
        6
176
     1
 90
        2
176
     1
 62
     7
176
     1
 90
        5
176
     1
 90
        0
176
     1
 90
        0
176
     1
290
     0
176
     1
 90
        1
176
     1
 40
0.0
176
     1
 90
        0
176
     1
290
     1
176
     1
290
     1
176
     1
290
     0
176
     1
290
     0
176
     1
290
     0
176
     1
290
     0
176
     1
290
     0
176
     1
290
     0
176
     1
290
     0
176
     1
 90
       50
176
     1
 40
0.0
176
     1
 40
1.0
176
     1
 90
        0
176
     1
 62
    18
420
        0
176
     1
 90
       50
176
     1
 90
        3
176
     1
 62
     5
420
      255
176
     1
290
     0
176
     1
 90
       50
176
     1
 90
       50
176
     1
 90
       50
176
     1
290
     0
176
     1
 90
       50
176
     1
 62
   256
176
     0
 40
1.0
176
     0
 90
        2
176
     1
  1
strokes_ogs.tif
176
     1
290
     0
176
     1
 40
1.0
176
     1
 40
1.0
176
     1
1001
ACAD
1000
AcDbSavedByObjectVersion
1070
     0
  0
VISUALSTYLE
  5
2E
102
{ACAD_REACTORS
330
29
102
}
330
29
100
AcDbVisualStyle
  2
Basic
 70
     7
177
     3
291
     1
 70
    58
 90
        1
176
     1
 90
        0
176
     1
 90
        1
176
     1
 90
        0
176
     1
 40
0.6
176
     1
 40
30.0
176
     1
 62
     7
420
 16777215
176
     1
 90
        0
176
     1
 90
        4
176
     1
 62
     7
176
     1
 62
   257
176
     1
 90
        1
176
     1
 90
        1
176
     1
 40
1.0
176
     1
 90
        8
176
     1
 62
     7
176
     1
 40
1.0
176
     1
 90
        1
176
     1
 90
        6
176
     1
 90
        2
176
     1
 62
     7
176
     1
 90
        5
176
     1
 90
        0
176
     1
 90
        0
176
     1
290
     0
176
     1
 90
        1
176
     1
 40
0.0
176
     1
 90
        0
176
     1
290
     0
176
     1
290
     1
176
     1
290
     1
176
     1
290
     0
176
     1
290
     0
176
     1
290
     0
176
     1
290
     0
176
     1
290
     0
176
     1
290
     0
176
     1
 90
       50
176
     1
 40
0.0
176
     1
 40
1.0
176
     1
 90
        0
176
     1
 62
    18
420
        0
176
     1
 90
       50
176
     1
 90
        3
176
     1
 62
     5
420
      255
176
     1
290
     0
176
     1
 90
       50
176
     1
 90
       50
176
     1
 90
       50
176
     1
290
     0
176
     1
 90
       50
176
     1
 62
   256
176
     0
 40
1.0
176
     0
 90
        2
176
     1
  1
strokes_ogs.tif
176
     1
290
     0
176
     1
 40
1.0
176
     1
 40
1.0
176
     1
1001
ACAD
1000
AcDbSavedByObjectVersion
1070
     0
  0
VISUALSTYLE
  5
35
102
{ACAD_REACTORS
330
29
102
}
330
29
100
AcDbVisualStyle
  2
Brighten
 70
    12
177
     3
291
     1
 70
    58
 90
        2
176
     1
 90
        2
176
     1
 90
        0
176
     1
 90
        0
176
     1
 40
0.6
176
     1
 40
30.0
176
     1
 62
     7
420
 16777215
176
     1
 90
        1
176
     1
 90
        4
176
     1
 62
     7
176
     1
 62
   257
176
     1
 90
        1
176
     1
 90
        1
176
     1
 40
1.0
176
     1
 90
        8
176
     1
 62
     7
176
     1
 40
1.0
176
     1
 90
        1
176
     1
 90
        6
176
     1
 90
        2
176
     1
 62
     7
176
     1
 90
        5
176
     1
 90
        0
176
     1
 90
        0
176
     1
290
     0
176
     1
 90
        1
176
     1
 40
50.0
176
     1
 90
        0
176
     1
290
     0
176
     1
290
     1
176
     1
290
     1
176
     1
290
     0
176
     1
290
     0
176
     1
290
     0
176
     1
290
     0
176
     1
290
     0
176
     1
290
     0
176
     1
 90
       50
176
     1
 40
0.0
176
     1
 40
1.0
176
     1
 90
        0
176
     1
 62
    18
420
        0
176
     1
 90
       50
176
     1
 90
        3
176
     1
 62
     5
420
      255
176
     1
290
     0
176
     1
 90
       50
176
     1
 90
       50
176
     1
 90
       50
176
     1
290
     0
176
     1
 90
       50
176
     1
 62
   256
176
     0
 40
1.0
176
     0
 90
        2
176
     1
  1
strokes_ogs.tif
176
     1
290
     0
176
     1
 40
1.0
176
     1
 40
1.0
176
     1
1001
ACAD
1000
AcDbSavedByObjectVersion
1070
     0
  0
VISUALSTYLE
  5
39
102
{ACAD_REACTORS
330
29
102
}
330
29
100
AcDbVisualStyle
  2
ColorChange
 70
    16
177
     3
291
     1
 70
    58
 90
        2
176
     1
 90
        2
176
     1
 90
        3
176
     1
 90
        0
176
     1
 40
0.6
176
     1
 40
30.0
176
     1
 62
     8
420
  8421504
176
     1
 90
        1
176
     1
 90
        4
176
     1
 62
     7
176
     1
 62
   257
176
     1
 90
        1
176
     1
 90
        1
176
     1
 40
1.0
176
     1
 90
        8
176
     1
 62
     8
420
  8421504
176
     1
 40
1.0
176
     1
 90
        1
176
     1
 90
        6
176
     1
 90
        2
176
     1
 62
     7
176
     1
 90
        5
176
     1
 90
        0
176
     1
 90
        0
176
     1
290
     0
176
     1
 90
        1
176
     1
 40
0.0
176
     1
 90
        0
176
     1
290
     0
176
     1
290
     1
176
     1
290
     1
176
     1
290
     0
176
     1
290
     0
176
     1
290
     0
176
     1
290
     0
176
     1
290
     0
176
     1
290
     0
176
     1
 90
       50
176
     1
 40
0.0
176
     1
 40
1.0
176
     1
 90
        0
176
     1
 62
    18
420
        0
176
     1
 90
       50
176
     1
 90
        3
176
     1
 62
     5
420
      255
176
     1
290
     0
176
     1
 90
       50
176
     1
 90
       50
176
     1
 90
       50
176
     1
290
     0
176
     1
 90
       50
176
     1
 62
   256
176
     0
 40
1.0
176
     0
 90
        2
176
     1
  1
strokes_ogs.tif
176
     1
290
     0
176
     1
 40
1.0
176
     1
 40
1.0
176
     1
1001
ACAD
1000
AcDbSavedByObjectVersion
1070
     0
  0
VISUALSTYLE
  5
32
102
{ACAD_REACTORS
330
29
102
}
330
29
100
AcDbVisualStyle
  2
Conceptual
 70
     9
177
     3
291
     0
 70
    58
 90
        3
176
     1
 90
        2
176
     1
 90
        0
176
     1
 90
        0
176
     1
 40
0.6
176
     1
 40
30.0
176
     1
 62
     7
420
 16777215
176
     1
 90
        2
176
     1
 90
        2
176
     1
 62
     7
176
     1
 62
   257
176
     1
 90
        1
176
     1
 90
        1
176
     1
 40
179.0
176
     1
 90
        8
176
     1
 62
     7
176
     1
 40
1.0
176
     1
 90
        1
176
     1
 90
        6
176
     1
 90
        2
176
     1
 62
     7
176
     1
 90
        3
176
     1
 90
        0
176
     1
 90
        0
176
     1
290
     0
176
     1
 90
        1
176
     1
 40
0.0
176
     1
 90
        0
176
     1
290
     0
176
     1
290
     1
176
     1
290
     1
176
     1
290
     0
176
     1
290
     0
176
     1
290
     0
176
     1
290
     0
176
     1
290
     0
176
     1
290
     0
176
     1
 90
       50
176
     1
 40
0.0
176
     1
 40
1.0
176
     1
 90
        0
176
     1
 62
    18
420
        0
176
     1
 90
       50
176
     1
 90
        3
176
     1
 62
     5
420
      255
176
     1
290
     0
176
     1
 90
       50
176
     1
 90
       50
176
     1
 90
       50
176
     1
290
     0
176
     1
 90
       50
176
     1
 62
   256
176
     0
 40
1.0
176
     0
 90
        2
176
     1
  1
strokes_ogs.tif
176
     1
290
     0
176
     1
 40
1.0
176
     1
 40
1.0
176
     1
1001
ACAD
1000
AcDbSavedByObjectVersion
1070
     0
  0
VISUALSTYLE
  5
34
102
{ACAD_REACTORS
330
29
102
}
330
29
100
AcDbVisualStyle
  2
Dim
 70
    11
177
     3
291
     1
 70
    58
 90
        2
176
     1
 90
        2
176
     1
 90
        0
176
     1
 90
        0
176
     1
 40
0.6
176
     1
 40
30.0
176
     1
 62
     7
420
 16777215
176
     1
 90
        1
176
     1
 90
        4
176
     1
 62
     7
176
     1
 62
   257
176
     1
 90
        1
176
     1
 90
        1
176
     1
 40
1.0
176
     1
 90
        8
176
     1
 62
     7
176
     1
 40
1.0
176
     1
 90
        1
176
     1
 90
        6
176
     1
 90
        2
176
     1
 62
     7
176
     1
 90
        5
176
     1
 90
        0
176
     1
 90
        0
176
     1
290
     0
176
     1
 90
        1
176
     1
 40
-50.0
176
     1
 90
        0
176
     1
290
     0
176
     1
290
     1
176
     1
290
     1
176
     1
290
     0
176
     1
290
     0
176
     1
290
     0
176
     1
290
     0
176
     1
290
     0
176
     1
290
     0
176
     1
 90
       50
176
     1
 40
0.0
176
     1
 40
1.0
176
     1
 90
        0
176
     1
 62
    18
420
        0
176
     1
 90
       50
176
     1
 90
        3
176
     1
 62
     5
420
      255
176
     1
290
     0
176
     1
 90
       50
176
     1
 90
       50
176
     1
 90
       50
176
     1
290
     0
176
     1
 90
       50
176
     1
 62
   256
176
     0
 40
1.0
176
     0
 90
        2
176
     1
  1
strokes_ogs.tif
176
     1
290
     0
176
     1
 40
1.0
176
     1
 40
1.0
176
     1
1001
ACAD
1000
AcDbSavedByObjectVersion
1070
     0
  0
VISUALSTYLE
  5
41
102
{ACAD_REACTORS
330
29
102
}
330
29
100
AcDbVisualStyle
  2
EdgeColorOff
 70
    22
177
     3
291
     1
 70
    58
 90
        2
176
     0
 90
        2
176
     0
 90
        0
176
     0
 90
        0
176
     0
 40
0.6
176
     0
 40
30.0
176
     0
 62
     7
420
 16777215
176
     0
 90
        1
176
     0
 90
        4
176
     0
 62
     7
176
     0
 62
   257
176
     0
 90
        1
176
     0
 90
        1
176
     0
 40
1.0
176
     0
 90
        8
176
     2
 62
     7
176
     0
 40
1.0
176
     0
 90
        1
176
     0
 90
        6
176
     0
 90
        2
176
     0
 62
     7
176
     0
 90
        5
176
     0
 90
        0
176
     0
 90
        0
176
     0
290
     0
176
     0
 90
        1
176
     0
 40
0.0
176
     0
 90
        0
176
     0
290
     0
176
     0
290
     1
176
     0
290
     1
176
     0
290
     0
176
     0
290
     0
176
     0
290
     0
176
     0
290
     0
176
     0
290
     0
176
     0
290
     0
176
     0
 90
       50
176
     0
 40
0.0
176
     0
 40
1.0
176
     0
 90
        0
176
     0
 62
    18
420
        0
176
     0
 90
       50
176
     0
 90
        3
176
     0
 62
     5
420
      255
176
     0
290
     0
176
     0
 90
       50
176
     0
 90
       50
176
     0
 90
       50
176
     0
290
     0
176
     0
 90
       50
176
     0
 62
   256
176
     0
 40
1.0
176
     0
 90
        2
176
     0
  1
strokes_ogs.tif
176
     0
290
     0
176
     0
 40
1.0
176
     0
 40
1.0
176
     0
1001
ACAD
1000
AcDbSavedByObjectVersion
1070
     0
  0
VISUALSTYLE
  5
38
102
{ACAD_REACTORS
330
29
102
}
330
29
100
AcDbVisualStyle
  2
Facepattern
 70
    15
177
     3
291
     1
 70
    58
 90
        2
176
     1
 90
        2
176
     1
 90
        0
176
     1
 90
        0
176
     1
 40
0.6
176
     1
 40
30.0
176
     1
 62
     7
420
 16777215
176
     1
 90
        1
176
     1
 90
        4
176
     1
 62
     7
176
     1
 62
   257
176
     1
 90
        1
176
     1
 90
        1
176
     1
 40
1.0
176
     1
 90
        8
176
     1
 62
     7
176
     1
 40
1.0
176
     1
 90
        1
176
     1
 90
        6
176
     1
 90
        2
176
     1
 62
     7
176
     1
 90
        5
176
     1
 90
        0
176
     1
 90
        0
176
     1
290
     0
176
     1
 90
        1
176
     1
 40
0.0
176
     1
 90
        0
176
     1
290
     0
176
     1
290
     1
176
     1
290
     1
176
     1
290
     0
176
     1
290
     0
176
     1
290
     0
176
     1
290
     0
176
     1
290
     0
176
     1
290
     0
176
     1
 90
       50
176
     1
 40
0.0
176
     1
 40
1.0
176
     1
 90
        0
176
     1
 62
    18
420
        0
176
     1
 90
       50
176
     1
 90
        3
176
     1
 62
     5
420
      255
176
     1
290
     0
176
     1
 90
       50
176
     1
 90
       50
176
     1
 90
       50
176
     1
290
     0
176
     1
 90
       50
176
     1
 62
   256
176
     0
 40
1.0
176
     0
 90
        2
176
     1
  1
strokes_ogs.tif
176
     1
290
     0
176
     1
 40
1.0
176
     1
 40
1.0
176
     1
1001
ACAD
1000
AcDbSavedByObjectVersion
1070
     0
  0
VISUALSTYLE
  5
2A
102
{ACAD_REACTORS
330
29
102
}
330
29
100
AcDbVisualStyle
  2
Flat
 70
     0
177
     3
291
     1
 70
    58
 90
        2
176
     1
 90
        1
176
     1
 90
        1
176
     1
 90
        2
176
     1
 40
0.6
176
     1
 40
30.0
176
     1
 62
     7
420
 16777215
176
     1
 90
        0
176
     1
 90
        0
176
     1
 62
     7
176
     1
 62
   257
176
     1
 90
        1
176
     1
 90
        1
176
     1
 40
1.0
176
     1
 90
        8
176
     1
 62
     7
176
     1
 40
1.0
176
     1
 90
        1
176
     1
 90
        6
176
     1
 90
        2
176
     1
 62
     7
176
     1
 90
        5
176
     1
 90
        0
176
     1
 90
        0
176
     1
290
     0
176
     1
 90
       13
176
     1
 40
0.0
176
     1
 90
        0
176
     1
290
     0
176
     1
290
     1
176
     1
290
     1
176
     1
290
     0
176
     1
290
     0
176
     1
290
     0
176
     1
290
     0
176
     1
290
     0
176
     1
290
     0
176
     1
 90
       50
176
     1
 40
0.0
176
     1
 40
1.0
176
     1
 90
        0
176
     1
 62
    18
420
        0
176
     1
 90
       50
176
     1
 90
        3
176
     1
 62
     5
420
      255
176
     1
290
     0
176
     1
 90
       50
176
     1
 90
       50
176
     1
 90
       50
176
     1
290
     0
176
     1
 90
       50
176
     1
 62
   256
176
     0
 40
1.0
176
     0
 90
        2
176
     1
  1
strokes_ogs.tif
176
     1
290
     0
176
     1
 40
1.0
176
     1
 40
1.0
176
     1
1001
ACAD
1000
AcDbSavedByObjectVersion
1070
     0
  0
VISUALSTYLE
  5
2B
102
{ACAD_REACTORS
330
29
102
}
330
29
100
AcDbVisualStyle
  2
FlatWithEdges
 70
     1
177
     3
291
     1
 70
    58
 90
        2
176
     1
 90
        1
176
     1
 90
        1
176
     1
 90
        2
176
     1
 40
0.6
176
     1
 40
30.0
176
     1
 62
     7
420
 16777215
176
     1
 90
        1
176
     1
 90
        0
176
     1
 62
     7
176
     1
 62
   257
176
     1
 90
        1
176
     1
 90
        1
176
     1
 40
1.0
176
     1
 90
        0
176
     1
 62
   257
176
     1
 40
1.0
176
     1
 90
        1
176
     1
 90
        6
176
     1
 90
        2
176
     1
 62
     7
176
     1
 90
        5
176
     1
 90
        0
176
     1
 90
        0
176
     1
290
     0
176
     1
 90
       13
176
     1
 40
0.0
176
     1
 90
        0
176
     1
290
     0
176
     1
290
     1
176
     1
290
     1
176
     1
290
     0
176
     1
290
     0
176
     1
290
     0
176
     1
290
     0
176
     1
290
     0
176
     1
290
     0
176
     1
 90
       50
176
     1
 40
0.0
176
     1
 40
1.0
176
     1
 90
        0
176
     1
 62
    18
420
        0
176
     1
 90
       50
176
     1
 90
        3
176
     1
 62
     5
420
      255
176
     1
290
     0
176
     1
 90
       50
176
     1
 90
       50
176
     1
 90
       50
176
     1
290
     0
176
     1
 90
       50
176
     1
 62
   256
176
     0
 40
1.0
176
     0
 90
        2
176
     1
  1
strokes_ogs.tif
176
     1
290
     0
176
     1
 40
1.0
176
     1
 40
1.0
176
     1
1001
ACAD
1000
AcDbSavedByObjectVersion
1070
     0
  0
VISUALSTYLE
  5
2C
102
{ACAD_REACTORS
330
29
102
}
330
29
100
AcDbVisualStyle
  2
Gouraud
 70
     2
177
     3
291
     1
 70
    58
 90
        2
176
     1
 90
        2
176
     1
 90
        1
176
     1
 90
        2
176
     1
 40
0.6
176
     1
 40
30.0
176
     1
 62
     7
420
 16777215
176
     1
 90
        0
176
     1
 90
        0
176
     1
 62
     7
176
     1
 62
   257
176
     1
 90
        1
176
     1
 90
        1
176
     1
 40
1.0
176
     1
 90
        0
176
     1
 62
     7
176
     1
 40
1.0
176
     1
 90
        1
176
     1
 90
        6
176
     1
 90
        2
176
     1
 62
     7
176
     1
 90
        5
176
     1
 90
        0
176
     1
 90
        0
176
     1
290
     0
176
     1
 90
       13
176
     1
 40
0.0
176
     1
 90
        0
176
     1
290
     0
176
     1
290
     1
176
     1
290
     1
176
     1
290
     0
176
     1
290
     0
176
     1
290
     0
176
     1
290
     0
176
     1
290
     0
176
     1
290
     0
176
     1
 90
       50
176
     1
 40
0.0
176
     1
 40
1.0
176
     1
 90
        0
176
     1
 62
    18
420
        0
176
     1
 90
       50
176
     1
 90
        3
176
     1
 62
     5
420
      255
176
     1
290
     0
176
     1
 90
       50
176
     1
 90
       50
176
     1
 90
       50
176
     1
290
     0
176
     1
 90
       50
176
     1
 62
   256
176
     0
 40
1.0
176
     0
 90
        2
176
     1
  1
strokes_ogs.tif
176
     1
290
     0
176
     1
 40
1.0
176
     1
 40
1.0
176
     1
1001
ACAD
1000
AcDbSavedByObjectVersion
1070
     0
  0
VISUALSTYLE
  5
2D
102
{ACAD_REACTORS
330
29
102
}
330
29
100
AcDbVisualStyle
  2
GouraudWithEdges
 70
     3
177
     3
291
     1
 70
    58
 90
        2
176
     1
 90
        2
176
     1
 90
        1
176
     1
 90
        2
176
     1
 40
0.6
176
     1
 40
30.0
176
     1
 62
     7
420
 16777215
176
     1
 90
        1
176
     1
 90
        0
176
     1
 62
     7
176
     1
 62
   257
176
     1
 90
        1
176
     1
 90
        1
176
     1
 40
1.0
176
     1
 90
        0
176
     1
 62
   257
176
     1
 40
1.0
176
     1
 90
        1
176
     1
 90
        6
176
     1
 90
        2
176
     1
 62
     7
176
     1
 90
        5
176
     1
 90
        0
176
     1
 90
        0
176
     1
290
     0
176
     1
 90
       13
176
     1
 40
0.0
176
     1
 90
        0
176
     1
290
     0
176
     1
290
     1
176
     1
290
     1
176
     1
290
     0
176
     1
290
     0
176
     1
290
     0
176
     1
290
     0
176
     1
290
     0
176
     1
290
     0
176
     1
 90
       50
176
     1
 40
0.0
176
     1
 40
1.0
176
     1
 90
        0
176
     1
 62
    18
420
        0
176
     1
 90
       50
176
     1
 90
        3
176
     1
 62
     5
420
      255
176
     1
290
     0
176
     1
 90
       50
176
     1
 90
       50
176
     1
 90
       50
176
     1
290
     0
176
     1
 90
       50
176
     1
 62
   256
176
     0
 40
1.0
176
     0
 90
        2
176
     1
  1
strokes_ogs.tif
176
     1
290
     0
176
     1
 40
1.0
176
     1
 40
1.0
176
     1
1001
ACAD
1000
AcDbSavedByObjectVersion
1070
     0
  0
VISUALSTYLE
  5
31
102
{ACAD_REACTORS
330
29
102
}
330
29
100
AcDbVisualStyle
  2
Hidden
 70
     6
177
     3
291
     0
 70
    58
 90
        1
176
     1
 90
        2
176
     1
 90
        2
176
     1
 90
        0
176
     1
 40
0.6
176
     1
 40
30.0
176
     1
 62
     7
420
 16777215
176
     1
 90
        2
176
     1
 90
        2
176
     1
 62
     7
176
     1
 62
   257
176
     1
 90
        2
176
     1
 90
        1
176
     1
 40
40.0
176
     1
 90
        0
176
     1
 62
   257
176
     1
 40
1.0
176
     1
 90
        1
176
     1
 90
        6
176
     1
 90
        2
176
     1
 62
     7
176
     1
 90
        3
176
     1
 90
        0
176
     1
 90
        0
176
     1
290
     0
176
     1
 90
        1
176
     1
 40
0.0
176
     1
 90
        0
176
     1
290
     0
176
     1
290
     1
176
     1
290
     1
176
     1
290
     0
176
     1
290
     0
176
     1
290
     0
176
     1
290
     0
176
     1
290
     0
176
     1
290
     0
176
     1
 90
       50
176
     1
 40
0.0
176
     1
 40
1.0
176
     1
 90
        0
176
     1
 62
    18
420
        0
176
     1
 90
       50
176
     1
 90
        3
176
     1
 62
     5
420
      255
176
     1
290
     0
176
     1
 90
       50
176
     1
 90
       50
176
     1
 90
       50
176
     1
290
     0
176
     1
 90
       50
176
     1
 62
   256
176
     0
 40
1.0
176
     0
 90
        2
176
     1
  1
strokes_ogs.tif
176
     1
290
     0
176
     1
 40
1.0
176
     1
 40
1.0
176
     1
1001
ACAD
1000
AcDbSavedByObjectVersion
1070
     0
  0
VISUALSTYLE
  5
3F
102
{ACAD_REACTORS
330
29
102
}
330
29
100
AcDbVisualStyle
  2
JitterOff
 70
    20
177
     3
291
     1
 70
    58
 90
        2
176
     0
 90
        2
176
     0
 90
        0
176
     0
 90
        0
176
     0
 40
0.6
176
     0
 40
30.0
176
     0
 62
     7
420
 16777215
176
     0
 90
        1
176
     0
 90
        4
176
     0
 62
     7
176
     0
 62
   257
176
     0
 90
        1
176
     0
 90
        1
176
     0
 40
1.0
176
     0
 90
       10
176
     2
 62
     7
176
     0
 40
1.0
176
     0
 90
        1
176
     0
 90
        6
176
     0
 90
        2
176
     0
 62
     7
176
     0
 90
        5
176
     0
 90
        0
176
     0
 90
        0
176
     0
290
     0
176
     0
 90
        1
176
     0
 40
0.0
176
     0
 90
        0
176
     0
290
     0
176
     0
290
     1
176
     0
290
     1
176
     0
290
     0
176
     0
290
     0
176
     0
290
     0
176
     0
290
     0
176
     0
290
     0
176
     0
290
     0
176
     0
 90
       50
176
     0
 40
0.0
176
     0
 40
1.0
176
     0
 90
        0
176
     0
 62
    18
420
        0
176
     0
 90
       50
176
     0
 90
        3
176
     0
 62
     5
420
      255
176
     0
290
     0
176
     0
 90
       50
176
     0
 90
       50
176
     0
 90
       50
176
     0
290
     0
176
     0
 90
       50
176
     0
 62
   256
176
     0
 40
1.0
176
     0
 90
        2
176
     0
  1
strokes_ogs.tif
176
     0
290
     0
176
     0
 40
1.0
176
     0
 40
1.0
176
     0
1001
ACAD
1000
AcDbSavedByObjectVersion
1070
     0
  0
VISUALSTYLE
  5
37
102
{ACAD_REACTORS
330
29
102
}
330
29
100
AcDbVisualStyle
  2
Linepattern
 70
    14
177
     3
291
     1
 70
    58
 90
        2
176
     1
 90
        2
176
     1
 90
        0
176
     1
 90
        0
176
     1
 40
0.6
176
     1
 40
30.0
176
     1
 62
     7
420
 16777215
176
     1
 90
        1
176
     1
 90
        4
176
     1
 62
     7
176
     1
 62
   257
176
     1
 90
        7
176
     1
 90
        7
176
     1
 40
1.0
176
     1
 90
        8
176
     1
 62
     7
176
     1
 40
1.0
176
     1
 90
        1
176
     1
 90
        6
176
     1
 90
        2
176
     1
 62
     7
176
     1
 90
        5
176
     1
 90
        0
176
     1
 90
        0
176
     1
290
     0
176
     1
 90
        1
176
     1
 40
0.0
176
     1
 90
        0
176
     1
290
     0
176
     1
290
     1
176
     1
290
     1
176
     1
290
     0
176
     1
290
     0
176
     1
290
     0
176
     1
290
     0
176
     1
290
     0
176
     1
290
     0
176
     1
 90
       50
176
     1
 40
0.0
176
     1
 40
1.0
176
     1
 90
        0
176
     1
 62
    18
420
        0
176
     1
 90
       50
176
     1
 90
        3
176
     1
 62
     5
420
      255
176
     1
290
     0
176
     1
 90
       50
176
     1
 90
       50
176
     1
 90
       50
176
     1
290
     0
176
     1
 90
       50
176
     1
 62
   256
176
     0
 40
1.0
176
     0
 90
        2
176
     1
  1
strokes_ogs.tif
176
     1
290
     0
176
     1
 40
1.0
176
     1
 40
1.0
176
     1
1001
ACAD
1000
AcDbSavedByObjectVersion
1070
     0
  0
VISUALSTYLE
  5
40
102
{ACAD_REACTORS
330
29
102
}
330
29
100
AcDbVisualStyle
  2
OverhangOff
 70
    21
177
     3
291
     1
 70
    58
 90
        2
176
     0
 90
        2
176
     0
 90
        0
176
     0
 90
        0
176
     0
 40
0.6
176
     0
 40
30.0
176
     0
 62
     7
420
 16777215
176
     0
 90
        1
176
     0
 90
        4
176
     0
 62
     7
176
     0
 62
   257
176
     0
 90
        1
176
     0
 90
        1
176
     0
 40
1.0
176
     0
 90
        9
176
     2
 62
     7
176
     0
 40
1.0
176
     0
 90
        1
176
     0
 90
        6
176
     0
 90
        2
176
     0
 62
     7
176
     0
 90
        5
176
     0
 90
        0
176
     0
 90
        0
176
     0
290
     0
176
     0
 90
        1
176
     0
 40
0.0
176
     0
 90
        0
176
     0
290
     0
176
     0
290
     1
176
     0
290
     1
176
     0
290
     0
176
     0
290
     0
176
     0
290
     0
176
     0
290
     0
176
     0
290
     0
176
     0
290
     0
176
     0
 90
       50
176
     0
 40
0.0
176
     0
 40
1.0
176
     0
 90
        0
176
     0
 62
    18
420
        0
176
     0
 90
       50
176
     0
 90
        3
176
     0
 62
     5
420
      255
176
     0
290
     0
176
     0
 90
       50
176
     0
 90
       50
176
     0
 90
       50
176
     0
290
     0
176
     0
 90
       50
176
     0
 62
   256
176
     0
 40
1.0
176
     0
 90
        2
176
     0
  1
strokes_ogs.tif
176
     0
290
     0
176
     0
 40
1.0
176
     0
 40
1.0
176
     0
1001
ACAD
1000
AcDbSavedByObjectVersion
1070
     0
  0
VISUALSTYLE
  5
33
102
{ACAD_REACTORS
330
29
102
}
330
29
100
AcDbVisualStyle
  2
Realistic
 70
     8
177
     3
291
     0
 70
    58
 90
        2
176
     1
 90
        3
176
     1
 90
        0
176
     1
 90
        2
176
     1
 40
0.6
176
     1
 40
30.0
176
     1
 62
     7
420
 16777215
176
     1
 90
        0
176
     1
 90
        0
176
     1
 62
     7
176
     1
 62
   257
176
     1
 90
        1
176
     1
 90
        1
176
     1
 40
1.0
176
     1
 90
        8
176
     1
 62
   257
176
     1
 40
1.0
176
     1
 90
        1
176
     1
 90
        6
176
     1
 90
        2
176
     1
 62
     7
176
     1
 90
        3
176
     1
 90
        0
176
     1
 90
        0
176
     1
290
     0
176
     1
 90
       13
176
     1
 40
0.0
176
     1
 90
        0
176
     1
290
     0
176
     1
290
     1
176
     1
290
     1
176
     1
290
     0
176
     1
290
     0
176
     1
290
     0
176
     1
290
     0
176
     1
290
     0
176
     1
290
     0
176
     1
 90
       50
176
     1
 40
0.0
176
     1
 40
1.0
176
     1
 90
        0
176
     1
 62
    18
420
        0
176
     1
 90
       50
176
     1
 90
        3
176
     1
 62
     5
420
      255
176
     1
290
     0
176
     1
 90
       50
176
     1
 90
       50
176
     1
 90
       50
176
     1
290
     0
176
     1
 90
       50
176
     1
 62
   256
176
     0
 40
1.0
176
     0
 90
        2
176
     1
  1
strokes_ogs.tif
176
     1
290
     0
176
     1
 40
1.0
176
     1
 40
1.0
176
     1
1001
ACAD
1000
AcDbSavedByObjectVersion
1070
     0
  0
VISUALSTYLE
  5
3E
102
{ACAD_REACTORS
330
29
102
}
330
29
100
AcDbVisualStyle
  2
Shaded
 70
    27
177
     3
291
     0
 70
    58
 90
        2
176
     1
 90
        2
176
     1
 90
        1
176
     1
 90
        2
176
     1
 40
0.6
176
     1
 40
30.0
176
     1
 62
     7
420
 16777215
176
     1
 90
        0
176
     1
 90
        4
176
     1
 62
     7
176
     1
 62
   257
176
     1
 90
        1
176
     1
 90
        1
176
     1
 40
1.0
176
     1
 90
        8
176
     1
 62
   257
176
     1
 40
1.0
176
     1
 90
        1
176
     1
 90
        6
176
     1
 90
        2
176
     1
 62
     8
420
  7895160
176
     1
 90
        3
176
     1
 90
        0
176
     1
 90
        0
176
     1
290
     0
176
     1
 90
        5
176
     1
 40
0.0
176
     1
 90
        0
176
     1
290
     0
176
     1
290
     1
176
     1
290
     1
176
     1
290
     0
176
     1
290
     0
176
     1
290
     0
176
     1
290
     0
176
     1
290
     0
176
     1
290
     0
176
     1
 90
       50
176
     1
 40
0.0
176
     1
 40
1.0
176
     1
 90
        0
176
     1
 62
    18
420
        0
176
     1
 90
       50
176
     1
 90
        3
176
     1
 62
     5
420
      255
176
     1
290
     0
176
     1
 90
       50
176
     1
 90
       50
176
     1
 90
       50
176
     1
290
     0
176
     1
 90
       50
176
     1
 62
   256
176
     0
 40
1.0
176
     0
 90
        2
176
     1
  1
strokes_ogs.tif
176
     1
290
     0
176
     1
 40
1.0
176
     1
 40
1.0
176
     1
1001
ACAD
1000
AcDbSavedByObjectVersion
1070
     0
  0
VISUALSTYLE
  5
3D
102
{ACAD_REACTORS
330
29
102
}
330
29
100
AcDbVisualStyle
  2
Shaded with edges
 70
    26
177
     3
291
     0
 70
    58
 90
        2
176
     1
 90
        2
176
     1
 90
        1
176
     1
 90
        2
176
     1
 40
0.6
176
     1
 40
30.0
176
     1
 62
     7
420
 16777215
176
     1
 90
        1
176
     1
 90
        2
176
     1
 62
     7
176
     1
 62
   257
176
     1
 90
        2
176
     1
 90
        1
176
     1
 40
1.0
176
     1
 90
        8
176
     1
 62
   257
176
     1
 40
1.0
176
     1
 90
        1
176
     1
 90
        6
176
     1
 90
        2
176
     1
 62
     7
176
     1
 90
        3
176
     1
 90
        0
176
     1
 90
        0
176
     1
290
     0
176
     1
 90
        5
176
     1
 40
0.0
176
     1
 90
        0
176
     1
290
     0
176
     1
290
     1
176
     1
290
     1
176
     1
290
     0
176
     1
290
     0
176
     1
290
     0
176
     1
290
     0
176
     1
290
     0
176
     1
290
     0
176
     1
 90
       50
176
     1
 40
0.0
176
     1
 40
1.0
176
     1
 90
        0
176
     1
 62
    18
420
        0
176
     1
 90
       50
176
     1
 90
        3
176
     1
 62
     5
420
      255
176
     1
290
     0
176
     1
 90
       50
176
     1
 90
       50
176
     1
 90
       50
176
     1
290
     0
176
     1
 90
       50
176
     1
 62
   256
176
     0
 40
1.0
176
     0
 90
        2
176
     1
  1
strokes_ogs.tif
176
     1
290
     0
176
     1
 40
1.0
176
     1
 40
1.0
176
     1
1001
ACAD
1000
AcDbSavedByObjectVersion
1070
     0
  0
VISUALSTYLE
  5
3A
102
{ACAD_REACTORS
330
29
102
}
330
29
100
AcDbVisualStyle
  2
Shades of Gray
 70
    23
177
     3
291
     0
 70
    58
 90
        2
176
     1
 90
        2
176
     1
 90
        3
176
     1
 90
        0
176
     1
 40
0.6
176
     1
 40
30.0
176
     1
 62
     7
420
 16777215
176
     1
 90
        2
176
     1
 90
        2
176
     1
 62
     7
176
     1
 62
     7
176
     1
 90
        1
176
     1
 90
        1
176
     1
 40
40.0
176
     1
 90
        8
176
     1
 62
     7
176
     1
 40
1.0
176
     1
 90
        1
176
     1
 90
        6
176
     1
 90
        2
176
     1
 62
     7
176
     1
 90
        3
176
     1
 90
        0
176
     1
 90
        0
176
     1
290
     0
176
     1
 90
        1
176
     1
 40
0.0
176
     1
 90
        0
176
     1
290
     0
176
     1
290
     1
176
     1
290
     1
176
     1
290
     0
176
     1
290
     0
176
     1
290
     0
176
     1
290
     0
176
     1
290
     0
176
     1
290
     0
176
     1
 90
       50
176
     1
 40
0.0
176
     1
 40
1.0
176
     1
 90
        0
176
     1
 62
    18
420
        0
176
     1
 90
       50
176
     1
 90
        3
176
     1
 62
     5
420
      255
176
     1
290
     0
176
     1
 90
       50
176
     1
 90
       50
176
     1
 90
       50
176
     1
290
     0
176
     1
 90
       50
176
     1
 62
   256
176
     0
 40
1.0
176
     0
 90
        2
176
     1
  1
strokes_ogs.tif
176
     1
290
     0
176
     1
 40
1.0
176
     1
 40
1.0
176
     1
1001
ACAD
1000
AcDbSavedByObjectVersion
1070
     0
  0
VISUALSTYLE
  5
3B
102
{ACAD_REACTORS
330
29
102
}
330
29
100
AcDbVisualStyle
  2
Sketchy
 70
    24
177
     3
291
     0
 70
    58
 90
        1
176
     1
 90
        2
176
     1
 90
        2
176
     1
 90
        0
176
     1
 40
0.6
176
     1
 40
30.0
176
     1
 62
     7
420
 16777215
176
     1
 90
        2
176
     1
 90
        2
176
     1
 62
     7
176
     1
 62
     7
176
     1
 90
        1
176
     1
 90
        1
176
     1
 40
40.0
176
     1
 90
       11
176
     1
 62
     7
176
     1
 40
1.0
176
     1
 90
        1
176
     1
 90
        6
176
     1
 90
        2
176
     1
 62
     7
176
     1
 90
        6
176
     1
 90
        0
176
     1
 90
        0
176
     1
290
     0
176
     1
 90
        1
176
     1
 40
0.0
176
     1
 90
        0
176
     1
290
     0
176
     1
290
     1
176
     1
290
     1
176
     1
290
     0
176
     1
290
     0
176
     1
290
     0
176
     1
290
     0
176
     1
290
     0
176
     1
290
     0
176
     1
 90
       50
176
     1
 40
0.0
176
     1
 40
1.0
176
     1
 90
        0
176
     1
 62
    18
420
        0
176
     1
 90
       50
176
     1
 90
        3
176
     1
 62
     5
420
      255
176
     1
290
     0
176
     1
 90
       50
176
     1
 90
       50
176
     1
 90
       50
176
     1
290
     0
176
     1
 90
       50
176
     1
 62
   256
176
     0
 40
1.0
176
     0
 90
        2
176
     1
  1
strokes_ogs.tif
176
     1
290
     0
176
     1
 40
1.0
176
     1
 40
1.0
176
     1
1001
ACAD
1000
AcDbSavedByObjectVersion
1070
     0
  0
VISUALSTYLE
  5
36
102
{ACAD_REACTORS
330
29
102
}
330
29
100
AcDbVisualStyle
  2
Thicken
 70
    13
177
     3
291
     1
 70
    58
 90
        2
176
     1
 90
        2
176
     1
 90
        0
176
     1
 90
        0
176
     1
 40
0.6
176
     1
 40
30.0
176
     1
 62
     7
420
 16777215
176
     1
 90
        1
176
     1
 90
        4
176
     1
 62
     7
176
     1
 62
   257
176
     1
 90
        1
176
     1
 90
        1
176
     1
 40
1.0
176
     1
 90
       12
176
     1
 62
     7
176
     1
 40
1.0
176
     1
 90
        1
176
     1
 90
        6
176
     1
 90
        2
176
     1
 62
     7
176
     1
 90
        5
176
     1
 90
        0
176
     1
 90
        0
176
     1
290
     0
176
     1
 90
        1
176
     1
 40
0.0
176
     1
 90
        0
176
     1
290
     0
176
     1
290
     1
176
     1
290
     1
176
     1
290
     0
176
     1
290
     0
176
     1
290
     0
176
     1
290
     0
176
     1
290
     0
176
     1
290
     0
176
     1
 90
       50
176
     1
 40
0.0
176
     1
 40
1.0
176
     1
 90
        0
176
     1
 62
    18
420
        0
176
     1
 90
       50
176
     1
 90
        3
176
     1
 62
     5
420
      255
176
     1
290
     0
176
     1
 90
       50
176
     1
 90
       50
176
     1
 90
       50
176
     1
290
     0
176
     1
 90
       50
176
     1
 62
   256
176
     0
 40
1.0
176
     0
 90
        2
176
     1
  1
strokes_ogs.tif
176
     1
290
     0
176
     1
 40
1.0
176
     1
 40
1.0
176
     1
1001
ACAD
1000
AcDbSavedByObjectVersion
1070
     0
  0
VISUALSTYLE
  5
30
102
{ACAD_REACTORS
330
29
102
}
330
29
100
AcDbVisualStyle
  2
Wireframe
 70
     5
177
     3
291
     0
 70
    58
 90
        0
176
     1
 90
        2
176
     1
 90
        0
176
     1
 90
        0
176
     1
 40
0.6
176
     1
 40
30.0
176
     1
 62
     7
420
 16777215
176
     1
 90
        1
176
     1
 90
        4
176
     1
 62
     7
176
     1
 62
   257
176
     1
 90
        1
176
     1
 90
        1
176
     1
 40
1.0
176
     1
 90
        0
176
     1
 62
   257
176
     1
 40
1.0
176
     1
 90
        1
176
     1
 90
        6
176
     1
 90
        2
176
     1
 62
     7
176
     1
 90
        3
176
     1
 90
        0
176
     1
 90
        0
176
     1
290
     0
176
     1
 90
        1
176
     1
 40
0.0
176
     1
 90
        0
176
     1
290
     0
176
     1
290
     1
176
     1
290
     1
176
     1
290
     0
176
     1
290
     0
176
     1
290
     0
176
     1
290
     0
176
     1
290
     0
176
     1
290
     0
176
     1
 90
       50
176
     1
 40
0.0
176
     1
 40
1.0
176
     1
 90
        0
176
     1
 62
    18
420
        0
176
     1
 90
       50
176
     1
 90
        3
176
     1
 62
     5
420
      255
176
     1
290
     0
176
     1
 90
       50
176
     1
 90
       50
176
     1
 90
       50
176
     1
290
     0
176
     1
 90
       50
176
     1
 62
   256
176
     0
 40
1.0
176
     0
 90
        2
176
     1
  1
strokes_ogs.tif
176
     1
290
     0
176
     1
 40
1.0
176
     1
 40
1.0
176
     1
1001
ACAD
1000
AcDbSavedByObjectVersion
1070
     0
  0
VISUALSTYLE
  5
3C
102
{ACAD_REACTORS
330
29
102
}
330
29
100
AcDbVisualStyle
  2
X-Ray
 70
    25
177
     3
291
     0
 70
    58
 90
        2
176
     1
 90
        2
176
     1
 90
        1
176
     1
 90
        1
176
     1
 40
0.5
176
     1
 40
30.0
176
     1
 62
     7
420
 16777215
176
     1
 90
        1
176
     1
 90
        0
176
     1
 62
     7
176
     1
 62
   257
176
     1
 90
        1
176
     1
 90
        1
176
     1
 40
1.0
176
     1
 90
        8
176
     1
 62
     7
176
     1
 40
1.0
176
     1
 90
        1
176
     1
 90
        6
176
     1
 90
        2
176
     1
 62
     7
176
     1
 90
        3
176
     1
 90
        0
176
     1
 90
        0
176
     1
290
     0
176
     1
 90
       13
176
     1
 40
0.0
176
     1
 90
        0
176
     1
290
     0
176
     1
290
     1
176
     1
290
     1
176
     1
290
     0
176
     1
290
     0
176
     1
290
     0
176
     1
290
     0
176
     1
290
     0
176
     1
290
     0
176
     1
 90
       50
176
     1
 40
0.0
176
     1
 40
1.0
176
     1
 90
        0
176
     1
 62
    18
420
        0
176
     1
 90
       50
176
     1
 90
        3
176
     1
 62
     5
420
      255
176
     1
290
     0
176
     1
 90
       50
176
     1
 90
       50
176
     1
 90
       50
176
     1
290
     0
176
     1
 90
       50
176
     1
 62
   256
176
     0
 40
1.0
176
     0
 90
        2
176
     1
  1
strokes_ogs.tif
176
     1
290
     0
176
     1
 40
1.0
176
     1
 40
1.0
176
     1
1001
ACAD
1000
AcDbSavedByObjectVersion
1070
     0
  0
DICTIONARYVAR
  5
55D
102
{ACAD_REACTORS
330
558
102
}
330
558
100
DictionaryVariables
280
     0
  1
1:1
  0
DICTIONARYVAR
  5
55A
102
{ACAD_REACTORS
330
558
102
}
330
558
100
DictionaryVariables
280
     0
  1
STANDARD
  0
DICTIONARYVAR
  5
559
102
{ACAD_REACTORS
330
558
102
}
330
558
100
DictionaryVariables
280
     0
  1
STANDARD
  0
DICTIONARYVAR
  5
55B
102
{ACAD_REACTORS
330
558
102
}
330
558
100
DictionaryVariables
280
     0
  1
Imperial24
  0
DICTIONARYVAR
  5
55C
102
{ACAD_REACTORS
330
558
102
}
330
558
100
DictionaryVariables
280
     0
  1
Imperial24
  0
DICTIONARY
  5
5C6
330
6B
100
AcDbDictionary
280
     1
281
     1
  3
ACAD_XREC_ROUNDTRIP
360
5C7
  0
DICTIONARY
  5
1A
330
19
100
AcDbDictionary
280
     1
281
     1
  3
BUMPTILE
360
1C
  3
DIFFUSETILE
360
1B
  3
OPACITYTILE
360
1F
  3
REFLECTIONTILE
360
1E
  3
REFRACTIONTILE
360
20
  3
SPECULARTILE
360
1D
  0
DICTIONARY
  5
12
330
11
100
AcDbDictionary
280
     1
281
     1
  3
BUMPTILE
360
14
  3
DIFFUSETILE
360
13
  3
OPACITYTILE
360
17
  3
REFLECTIONTILE
360
16
  3
REFRACTIONTILE
360
18
  3
SPECULARTILE
360
15
  0
DICTIONARY
  5
22
330
21
100
AcDbDictionary
280
     1
281
     1
  3
BUMPTILE
360
24
  3
DIFFUSETILE
360
23
  3
OPACITYTILE
360
27
  3
REFLECTIONTILE
360
26
  3
REFRACTIONTILE
360
28
  3
SPECULARTILE
360
25
  0
DICTIONARY
  5
5C4
330
69
100
AcDbDictionary
280
     1
281
     1
  3
ACAD_XREC_ROUNDTRIP
360
5C5
  0
DICTIONARY
  5
55E
330
65
100
AcDbDictionary
280
     1
281
     1
  3
ACAD_ROUNDTRIP_2008_TABLESTYLE_CELLSTYLEMAP
360
5C2
  0
XRECORD
  5
5C7
102
{ACAD_REACTORS
330
5C6
102
}
330
5C6
100
AcDbXrecord
280
     1
102
DISPLAYNAME
  1
Imperial24
102
FLAGS
 90
        0
  0
XRECORD
  5
1C
102
{ACAD_REACTORS
330
1A
102
}
330
1A
100
AcDbXrecord
280
     1
270
     1
271
     1
  0
XRECORD
  5
1B
102
{ACAD_REACTORS
330
1A
102
}
330
1A
100
AcDbXrecord
280
     1
270
     1
271
     1
  0
XRECORD
  5
1F
102
{ACAD_REACTORS
330
1A
102
}
330
1A
100
AcDbXrecord
280
     1
270
     1
271
     1
  0
XRECORD
  5
1E
102
{ACAD_REACTORS
330
1A
102
}
330
1A
100
AcDbXrecord
280
     1
270
     1
271
     1
  0
XRECORD
  5
20
102
{ACAD_REACTORS
330
1A
102
}
330
1A
100
AcDbXrecord
280
     1
270
     1
271
     1
  0
XRECORD
  5
1D
102
{ACAD_REACTORS
330
1A
102
}
330
1A
100
AcDbXrecord
280
     1
270
     1
271
     1
  0
XRECORD
  5
14
102
{ACAD_REACTORS
330
12
102
}
330
12
100
AcDbXrecord
280
     1
270
     1
271
     1
  0
XRECORD
  5
13
102
{ACAD_REACTORS
330
12
102
}
330
12
100
AcDbXrecord
280
     1
270
     1
271
     1
  0
XRECORD
  5
17
102
{ACAD_REACTORS
330
12
102
}
330
12
100
AcDbXrecord
280
     1
270
     1
271
     1
  0
XRECORD
  5
16
102
{ACAD_REACTORS
330
12
102
}
330
12
100
AcDbXrecord
280
     1
270
     1
271
     1
  0
XRECORD
  5
18
102
{ACAD_REACTORS
330
12
102
}
330
12
100
AcDbXrecord
280
     1
270
     1
271
     1
  0
XRECORD
  5
15
102
{ACAD_REACTORS
330
12
102
}
330
12
100
AcDbXrecord
280
     1
270
     1
271
     1
  0
XRECORD
  5
24
102
{ACAD_REACTORS
330
22
102
}
330
22
100
AcDbXrecord
280
     1
270
     1
271
     1
  0
XRECORD
  5
23
102
{ACAD_REACTORS
330
22
102
}
330
22
100
AcDbXrecord
280
     1
270
     1
271
     1
  0
XRECORD
  5
27
102
{ACAD_REACTORS
330
22
102
}
330
22
100
AcDbXrecord
280
     1
270
     1
271
     1
  0
XRECORD
  5
26
102
{ACAD_REACTORS
330
22
102
}
330
22
100
AcDbXrecord
280
     1
270
     1
271
     1
  0
XRECORD
  5
28
102
{ACAD_REACTORS
330
22
102
}
330
22
100
AcDbXrecord
280
     1
270
     1
271
     1
  0
XRECORD
  5
25
102
{ACAD_REACTORS
330
22
102
}
330
22
100
AcDbXrecord
280
     1
270
     1
271
     1
  0
XRECORD
  5
5C5
102
{ACAD_REACTORS
330
5C4
102
}
330
5C4
100
AcDbXrecord
280
     1
102
DISPLAYNAME
  1
Imperial24
102
FLAGS
 90
        0
  0
CELLSTYLEMAP
  5
5C2
102
{ACAD_REACTORS
330
55E
102
}
330
55E
100
AcDbCellStyleMap
 90
        3
300
CELLSTYLE
  1
TABLEFORMAT_BEGIN
 90
        5
170
     1
 91
        0
 92
    32768
 62
   257
 93
        1
300
CONTENTFORMAT
  1
CONTENTFORMAT_BEGIN
 90
        0
 91
        0
 92
      512
 93
        0
300

 40
0.0
140
1.0
 94
        5
 62
     0
340
55
144
0.25
309
CONTENTFORMAT_END
171
     1
301
MARGIN
  1
CELLMARGIN_BEGIN
 40
0.06
 40
0.06
 40
0.06
 40
0.06
 40
0.18
 40
0.18
309
CELLMARGIN_END
 94
        6
 95
        1
302
GRIDFORMAT
  1
GRIDFORMAT_BEGIN
 90
        0
 91
        1
 62
     0
 92
       -2
340
0
 93
        0
 40
0.045
309
GRIDFORMAT_END
 95
        2
302
GRIDFORMAT
  1
GRIDFORMAT_BEGIN
 90
        0
 91
        1
 62
     0
 92
       -2
340
0
 93
        0
 40
0.045
309
GRIDFORMAT_END
 95
        4
302
GRIDFORMAT
  1
GRIDFORMAT_BEGIN
 90
        0
 91
        1
 62
     0
 92
       -2
340
0
 93
        0
 40
0.045
309
GRIDFORMAT_END
 95
        8
302
GRIDFORMAT
  1
GRIDFORMAT_BEGIN
 90
        0
 91
        1
 62
     0
 92
       -2
340
0
 93
        0
 40
0.045
309
GRIDFORMAT_END
 95
       16
302
GRIDFORMAT
  1
GRIDFORMAT_BEGIN
 90
        0
 91
        1
 62
     0
 92
       -2
340
0
 93
        0
 40
0.045
309
GRIDFORMAT_END
 95
       32
302
GRIDFORMAT
  1
GRIDFORMAT_BEGIN
 90
        0
 91
        1
 62
     0
 92
       -2
340
0
 93
        0
 40
0.045
309
GRIDFORMAT_END
309
TABLEFORMAT_END
  1
CELLSTYLE_BEGIN
 90
        1
 91
        1
300
_TITLE
309
CELLSTYLE_END
300
CELLSTYLE
  1
TABLEFORMAT_BEGIN
 90
        5
170
     1
 91
        0
 92
        0
 62
   257
 93
        1
300
CONTENTFORMAT
  1
CONTENTFORMAT_BEGIN
 90
        0
 91
        0
 92
      512
 93
        0
300

 40
0.0
140
1.0
 94
        5
 62
     0
340
55
144
0.18
309
CONTENTFORMAT_END
171
     1
301
MARGIN
  1
CELLMARGIN_BEGIN
 40
0.06
 40
0.06
 40
0.06
 40
0.06
 40
0.18
 40
0.18
309
CELLMARGIN_END
 94
        6
 95
        1
302
GRIDFORMAT
  1
GRIDFORMAT_BEGIN
 90
        0
 91
        1
 62
     0
 92
       -2
340
0
 93
        0
 40
0.045
309
GRIDFORMAT_END
 95
        2
302
GRIDFORMAT
  1
GRIDFORMAT_BEGIN
 90
        0
 91
        1
 62
     0
 92
       -2
340
0
 93
        0
 40
0.045
309
GRIDFORMAT_END
 95
        4
302
GRIDFORMAT
  1
GRIDFORMAT_BEGIN
 90
        0
 91
        1
 62
     0
 92
       -2
340
0
 93
        0
 40
0.045
309
GRIDFORMAT_END
 95
        8
302
GRIDFORMAT
  1
GRIDFORMAT_BEGIN
 90
        0
 91
        1
 62
     0
 92
       -2
340
0
 93
        0
 40
0.045
309
GRIDFORMAT_END
 95
       16
302
GRIDFORMAT
  1
GRIDFORMAT_BEGIN
 90
        0
 91
        1
 62
     0
 92
       -2
340
0
 93
        0
 40
0.045
309
GRIDFORMAT_END
 95
       32
302
GRIDFORMAT
  1
GRIDFORMAT_BEGIN
 90
        0
 91
        1
 62
     0
 92
       -2
340
0
 93
        0
 40
0.045
309
GRIDFORMAT_END
309
TABLEFORMAT_END
  1
CELLSTYLE_BEGIN
 90
        2
 91
        1
300
_HEADER
309
CELLSTYLE_END
300
CELLSTYLE
  1
TABLEFORMAT_BEGIN
 90
        5
170
     1
 91
        0
 92
        0
 62
   257
 93
        1
300
CONTENTFORMAT
  1
CONTENTFORMAT_BEGIN
 90
        0
 91
        0
 92
      512
 93
        0
300

 40
0.0
140
1.0
 94
        2
 62
     0
340
55
144
0.18
309
CONTENTFORMAT_END
171
     1
301
MARGIN
  1
CELLMARGIN_BEGIN
 40
0.06
 40
0.06
 40
0.06
 40
0.06
 40
0.18
 40
0.18
309
CELLMARGIN_END
 94
        6
 95
        1
302
GRIDFORMAT
  1
GRIDFORMAT_BEGIN
 90
        0
 91
        1
 62
     0
 92
       -2
340
0
 93
        0
 40
0.045
309
GRIDFORMAT_END
 95
        2
302
GRIDFORMAT
  1
GRIDFORMAT_BEGIN
 90
        0
 91
        1
 62
     0
 92
       -2
340
0
 93
        0
 40
0.045
309
GRIDFORMAT_END
 95
        4
302
GRIDFORMAT
  1
GRIDFORMAT_BEGIN
 90
        0
 91
        1
 62
     0
 92
       -2
340
0
 93
        0
 40
0.045
309
GRIDFORMAT_END
 95
        8
302
GRIDFORMAT
  1
GRIDFORMAT_BEGIN
 90
        0
 91
        1
 62
     0
 92
       -2
340
0
 93
        0
 40
0.045
309
GRIDFORMAT_END
 95
       16
302
GRIDFORMAT
  1
GRIDFORMAT_BEGIN
 90
        0
 91
        1
 62
     0
 92
       -2
340
0
 93
        0
 40
0.045
309
GRIDFORMAT_END
 95
       32
302
GRIDFORMAT
  1
GRIDFORMAT_BEGIN
 90
        0
 91
        1
 62
     0
 92
       -2
340
0
 93
        0
 40
0.045
309
GRIDFORMAT_END
309
TABLEFORMAT_END
  1
CELLSTYLE_BEGIN
 90
        3
 91
        2
300
_DATA
309
CELLSTYLE_END
  0
ENDSEC
  0
EOF
