  0
SECTION
  2
HEADER
  9
$ACADVER
  1
AC1027
  9
$ACADMAINTVER
 70
   125
  9
$DWGCODEPAGE
  3
ANSI_1252
  9
$LASTSAVEDBY
  1
andrea.ragusa
  9
$REQUIREDVERSIONS
160
                 0
  9
$INSBASE
 10
0.0
 20
0.0
 30
0.0
  9
$EXTMIN
 10
0.0192270521298497
 20
0.0589148761458773
 30
-0.0015258207003583
  9
$EXTMAX
 10
12.80456593353835
 20
8.442856190543238
 30
0.0000000349246037
  9
$LIMMIN
 10
0.0
 20
0.0
  9
$LIMMAX
 10
420.0
 20
297.0
  9
$ORTHOMODE
 70
     0
  9
$REGENMODE
 70
     1
  9
$FILLMODE
 70
     1
  9
$QTEXTMODE
 70
     0
  9
$MIRRTEXT
 70
     0
  9
$LTSCALE
 40
1.0
  9
$ATTMODE
 70
     1
  9
$TEXTSIZE
 40
2.5
  9
$TRACEWID
 40
1.0
  9
$TEXTSTYLE
  7
Standard
  9
$CLAYER
  8
0
  9
$CELTYPE
  6
ByLayer
  9
$CECOLOR
 62
   256
  9
$CELTSCALE
 40
1.0
  9
$DISPSILH
 70
     0
  9
$DIMSCALE
 40
1.0
  9
$DIMASZ
 40
2.5
  9
$DIMEXO
 40
0.625
  9
$DIMDLI
 40
3.75
  9
$DIMRND
 40
0.0
  9
$DIMDLE
 40
0.0
  9
$DIMEXE
 40
1.25
  9
$DIMTP
 40
0.0
  9
$DIMTM
 40
0.0
  9
$DIMTXT
 40
2.5
  9
$DIMCEN
 40
2.5
  9
$DIMTSZ
 40
0.0
  9
$DIMTOL
 70
     0
  9
$DIMLIM
 70
     0
  9
$DIMTIH
 70
     0
  9
$DIMTOH
 70
     0
  9
$DIMSE1
 70
     0
  9
$DIMSE2
 70
     0
  9
$DIMTAD
 70
     1
  9
$DIMZIN
 70
     8
  9
$DIMBLK
  1

  9
$DIMASO
 70
     1
  9
$DIMSHO
 70
     1
  9
$DIMPOST
  1

  9
$DIMAPOST
  1

  9
$DIMALT
 70
     0
  9
$DIMALTD
 70
     3
  9
$DIMALTF
 40
0.03937007874016
  9
$DIMLFAC
 40
1.0
  9
$DIMTOFL
 70
     1
  9
$DIMTVP
 40
0.0
  9
$DIMTIX
 70
     0
  9
$DIMSOXD
 70
     0
  9
$DIMSAH
 70
     0
  9
$DIMBLK1
  1

  9
$DIMBLK2
  1

  9
$DIMSTYLE
  2
ISO-25
  9
$DIMCLRD
 70
     0
  9
$DIMCLRE
 70
     0
  9
$DIMCLRT
 70
     0
  9
$DIMTFAC
 40
1.0
  9
$DIMGAP
 40
0.625
  9
$DIMJUST
 70
     0
  9
$DIMSD1
 70
     0
  9
$DIMSD2
 70
     0
  9
$DIMTOLJ
 70
     0
  9
$DIMTZIN
 70
     8
  9
$DIMALTZ
 70
     0
  9
$DIMALTTZ
 70
     0
  9
$DIMUPT
 70
     0
  9
$DIMDEC
 70
     2
  9
$DIMTDEC
 70
     2
  9
$DIMALTU
 70
     2
  9
$DIMALTTD
 70
     3
  9
$DIMTXSTY
  7
Standard
  9
$DIMAUNIT
 70
     0
  9
$DIMADEC
 70
     0
  9
$DIMALTRND
 40
0.0
  9
$DIMAZIN
 70
     0
  9
$DIMDSEP
 70
    44
  9
$DIMATFIT
 70
     3
  9
$DIMFRAC
 70
     0
  9
$DIMLDRBLK
  1

  9
$DIMLUNIT
 70
     2
  9
$DIMLWD
 70
    -2
  9
$DIMLWE
 70
    -2
  9
$DIMTMOVE
 70
     0
  9
$DIMFXL
 40
1.0
  9
$DIMFXLON
 70
     0
  9
$DIMJOGANG
 40
0.7853981633974483
  9
$DIMTFILL
 70
     0
  9
$DIMTFILLCLR
 70
     0
  9
$DIMARCSYM
 70
     0
  9
$DIMLTYPE
  6

  9
$DIMLTEX1
  6

  9
$DIMLTEX2
  6

  9
$DIMTXTDIRECTION
 70
     0
  9
$LUNITS
 70
     2
  9
$LUPREC
 70
     4
  9
$SKETCHINC
 40
1.0
  9
$FILLETRAD
 40
0.0
  9
$AUNITS
 70
     0
  9
$AUPREC
 70
     0
  9
$MENU
  1
.
  9
$ELEVATION
 40
0.0
  9
$PELEVATION
 40
0.0
  9
$THICKNESS
 40
0.0
  9
$LIMCHECK
 70
     0
  9
$CHAMFERA
 40
0.0
  9
$CHAMFERB
 40
0.0
  9
$CHAMFERC
 40
0.0
  9
$CHAMFERD
 40
0.0
  9
$SKPOLY
 70
     0
  9
$TDCREATE
 40
2459060.477824074
  9
$TDUCREATE
 40
2459060.394490741
  9
$TDUPDATE
 40
2459060.478182871
  9
$TDUUPDATE
 40
2459060.394849537
  9
$TDINDWG
 40
0.0003587963
  9
$TDUSRTIMER
 40
0.0003587963
  9
$USRTIMER
 70
     1
  9
$ANGBASE
 50
0.0
  9
$ANGDIR
 70
     0
  9
$PDMODE
 70
     0
  9
$PDSIZE
 40
0.0
  9
$PLINEWID
 40
0.0
  9
$SPLFRAME
 70
     0
  9
$SPLINETYPE
 70
     6
  9
$SPLINESEGS
 70
     8
  9
$HANDSEED
  5
354
  9
$SURFTAB1
 70
     6
  9
$SURFTAB2
 70
     6
  9
$SURFTYPE
 70
     6
  9
$SURFU
 70
     6
  9
$SURFV
 70
     6
  9
$UCSBASE
  2

  9
$UCSNAME
  2

  9
$UCSORG
 10
0.0
 20
0.0
 30
0.0
  9
$UCSXDIR
 10
1.0
 20
0.0
 30
0.0
  9
$UCSYDIR
 10
0.0
 20
1.0
 30
0.0
  9
$UCSORTHOREF
  2

  9
$UCSORTHOVIEW
 70
     0
  9
$UCSORGTOP
 10
0.0
 20
0.0
 30
0.0
  9
$UCSORGBOTTOM
 10
0.0
 20
0.0
 30
0.0
  9
$UCSORGLEFT
 10
0.0
 20
0.0
 30
0.0
  9
$UCSORGRIGHT
 10
0.0
 20
0.0
 30
0.0
  9
$UCSORGFRONT
 10
0.0
 20
0.0
 30
0.0
  9
$UCSORGBACK
 10
0.0
 20
0.0
 30
0.0
  9
$PUCSBASE
  2

  9
$PUCSNAME
  2

  9
$PUCSORG
 10
0.0
 20
0.0
 30
0.0
  9
$PUCSXDIR
 10
1.0
 20
0.0
 30
0.0
  9
$PUCSYDIR
 10
0.0
 20
1.0
 30
0.0
  9
$PUCSORTHOREF
  2

  9
$PUCSORTHOVIEW
 70
     0
  9
$PUCSORGTOP
 10
0.0
 20
0.0
 30
0.0
  9
$PUCSORGBOTTOM
 10
0.0
 20
0.0
 30
0.0
  9
$PUCSORGLEFT
 10
0.0
 20
0.0
 30
0.0
  9
$PUCSORGRIGHT
 10
0.0
 20
0.0
 30
0.0
  9
$PUCSORGFRONT
 10
0.0
 20
0.0
 30
0.0
  9
$PUCSORGBACK
 10
0.0
 20
0.0
 30
0.0
  9
$USERI1
 70
     0
  9
$USERI2
 70
     0
  9
$USERI3
 70
     0
  9
$USERI4
 70
     0
  9
$USERI5
 70
     0
  9
$USERR1
 40
0.0
  9
$USERR2
 40
0.0
  9
$USERR3
 40
0.0
  9
$USERR4
 40
0.0
  9
$USERR5
 40
0.0
  9
$WORLDVIEW
 70
     1
  9
$SHADEDGE
 70
     3
  9
$SHADEDIF
 70
    70
  9
$TILEMODE
 70
     1
  9
$MAXACTVP
 70
    64
  9
$PINSBASE
 10
0.0
 20
0.0
 30
0.0
  9
$PLIMCHECK
 70
     0
  9
$PEXTMIN
 10
0.0
 20
0.0
 30
0.0
  9
$PEXTMAX
 10
0.0
 20
0.0
 30
0.0
  9
$PLIMMIN
 10
0.0
 20
0.0
  9
$PLIMMAX
 10
12.0
 20
9.0
  9
$UNITMODE
 70
     0
  9
$VISRETAIN
 70
     1
  9
$PLINEGEN
 70
     0
  9
$PSLTSCALE
 70
     1
  9
$TREEDEPTH
 70
  3020
  9
$CMLSTYLE
  2
Standard
  9
$CMLJUST
 70
     0
  9
$CMLSCALE
 40
20.0
  9
$PROXYGRAPHICS
 70
     1
  9
$MEASUREMENT
 70
     1
  9
$CELWEIGHT
370
    -1
  9
$ENDCAPS
280
     0
  9
$JOINSTYLE
280
     0
  9
$LWDISPLAY
290
     0
  9
$INSUNITS
 70
     4
  9
$HYPERLINKBASE
  1

  9
$STYLESHEET
  1

  9
$XEDIT
290
     1
  9
$CEPSNTYPE
380
     0
  9
$PSTYLEMODE
290
     1
  9
$FINGERPRINTGUID
  2
{A68A5BBE-CCC9-344C-9970-2802DBD0521B}
  9
$VERSIONGUID
  2
{AAC2F71A-EB01-8C4A-9A08-4B345C5BCCBF}
  9
$EXTNAMES
290
     1
  9
$PSVPSCALE
 40
0.0
  9
$OLESTARTUP
290
     0
  9
$SORTENTS
280
   127
  9
$INDEXCTL
280
     0
  9
$HIDETEXT
280
     1
  9
$XCLIPFRAME
280
     2
  9
$HALOGAP
280
     0
  9
$OBSCOLOR
 70
   257
  9
$OBSLTYPE
280
     0
  9
$INTERSECTIONDISPLAY
280
     0
  9
$INTERSECTIONCOLOR
 70
   257
  9
$DIMASSOC
280
     2
  9
$PROJECTNAME
  1

  9
$CAMERADISPLAY
290
     0
  9
$LENSLENGTH
 40
50.0
  9
$CAMERAHEIGHT
 40
0.0
  9
$STEPSPERSEC
 40
2.0
  9
$STEPSIZE
 40
6.0
  9
$3DDWFPREC
 40
2.0
  9
$PSOLWIDTH
 40
5.0
  9
$PSOLHEIGHT
 40
80.0
  9
$LOFTANG1
 40
1.570796326794896
  9
$LOFTANG2
 40
1.570796326794896
  9
$LOFTMAG1
 40
0.0
  9
$LOFTMAG2
 40
0.0
  9
$LOFTPARAM
 70
     7
  9
$LOFTNORMALS
280
     1
  9
$LATITUDE
 40
37.795
  9
$LONGITUDE
 40
-122.394
  9
$NORTHDIRECTION
 40
0.0
  9
$TIMEZONE
 70
 -8000
  9
$LIGHTGLYPHDISPLAY
280
     1
  9
$TILEMODELIGHTSYNCH
280
     1
  9
$CMATERIAL
347
EC
  9
$SOLIDHIST
280
     0
  9
$SHOWHIST
280
     1
  9
$DWFFRAME
280
     2
  9
$DGNFRAME
280
     0
  9
$REALWORLDSCALE
290
     1
  9
$INTERFERECOLOR
 62
     1
  9
$INTERFEREOBJVS
345
F9
  9
$INTERFEREVPVS
346
F6
  9
$CSHADOW
280
     0
  9
$SHADOWPLANELOCATION
 40
0.0
  0
ENDSEC
  0
SECTION
  2
CLASSES
  0
CLASS
  1
ACDBDICTIONARYWDFLT
  2
AcDbDictionaryWithDefault
  3
ObjectDBX Classes
 90
        0
 91
        1
280
     0
281
     0
  0
CLASS
  1
DICTIONARYVAR
  2
AcDbDictionaryVar
  3
ObjectDBX Classes
 90
        0
 91
       11
280
     0
281
     0
  0
CLASS
  1
TABLESTYLE
  2
AcDbTableStyle
  3
ObjectDBX Classes
 90
     4095
 91
        1
280
     0
281
     0
  0
CLASS
  1
MATERIAL
  2
AcDbMaterial
  3
ObjectDBX Classes
 90
     1153
 91
        3
280
     0
281
     0
  0
CLASS
  1
VISUALSTYLE
  2
AcDbVisualStyle
  3
ObjectDBX Classes
 90
     4095
 91
       24
280
     0
281
     0
  0
CLASS
  1
SCALE
  2
AcDbScale
  3
ObjectDBX Classes
 90
     1153
 91
       17
280
     0
281
     0
  0
CLASS
  1
MLEADERSTYLE
  2
AcDbMLeaderStyle
  3
ACDB_MLEADERSTYLE_CLASS
 90
     4095
 91
        2
280
     0
281
     0
  0
CLASS
  1
CELLSTYLEMAP
  2
AcDbCellStyleMap
  3
ObjectDBX Classes
 90
     1152
 91
        1
280
     0
281
     0
  0
CLASS
  1
EXACXREFPANELOBJECT
  2
ExAcXREFPanelObject
  3
EXAC_ESW
 90
     1025
 91
        0
280
     0
281
     0
  0
CLASS
  1
NPOCOLLECTION
  2
AcDbImpNonPersistentObjectsCollection
  3
ObjectDBX Classes
 90
     1153
 91
        0
280
     0
281
     0
  0
CLASS
  1
LAYER_INDEX
  2
AcDbLayerIndex
  3
ObjectDBX Classes
 90
        0
 91
        0
280
     0
281
     0
  0
CLASS
  1
SPATIAL_INDEX
  2
AcDbSpatialIndex
  3
ObjectDBX Classes
 90
        0
 91
        0
280
     0
281
     0
  0
CLASS
  1
IDBUFFER
  2
AcDbIdBuffer
  3
ObjectDBX Classes
 90
        0
 91
        0
280
     0
281
     0
  0
CLASS
  1
ACDBSECTIONVIEWSTYLE
  2
AcDbSectionViewStyle
  3
ObjectDBX Classes
 90
     1025
 91
        2
280
     0
281
     0
  0
CLASS
  1
ACDBDETAILVIEWSTYLE
  2
AcDbDetailViewStyle
  3
ObjectDBX Classes
 90
     1025
 91
        2
280
     0
281
     0
  0
CLASS
  1
SORTENTSTABLE
  2
AcDbSortentsTable
  3
ObjectDBX Classes
 90
        0
 91
        1
280
     0
281
     0
  0
ENDSEC
  0
SECTION
  2
TABLES
  0
TABLE
  2
VPORT
  5
8
330
0
100
AcDbSymbolTable
 70
     1
1001
ACAD
1000
DbSaveVer
1071
      208
  0
VPORT
  5
EA
330
8
100
AcDbSymbolTableRecord
100
AcDbViewportTableRecord
  2
*Active
 70
     0
 10
0.0
 20
0.0
 11
1.0
 21
1.0
 12
6.411896492834102
 22
4.250885533344558
 13
0.0
 23
0.0
 14
10.0
 24
10.0
 15
10.0
 25
10.0
 16
0.0
 26
0.0
 36
1.0
 17
0.0
 27
0.0
 37
0.0
 40
8.443969533832188
 41
2.283154121863799
 42
50.0
 43
0.0
 44
0.0
 50
0.0
 51
0.0
 71
     0
 72
  1000
 73
     1
 74
     3
 75
     0
 76
     1
 77
     0
 78
     0
281
     0
 65
     1
110
0.0
120
0.0
130
0.0
111
1.0
121
0.0
131
0.0
112
0.0
122
1.0
132
0.0
 79
     0
146
0.0
348
F5
 60
     3
 61
     5
292
     1
282
     1
141
0.0
142
0.0
 63
   250
421
  3355443
1001
ACAD_NAV_VCDISPLAY
1070
     3
  0
ENDTAB
  0
TABLE
  2
LTYPE
  5
5
330
0
100
AcDbSymbolTable
 70
     1
  0
LTYPE
  5
14
330
5
100
AcDbSymbolTableRecord
100
AcDbLinetypeTableRecord
  2
ByBlock
 70
     0
  3

 72
    65
 73
     0
 40
0.0
  0
LTYPE
  5
15
330
5
100
AcDbSymbolTableRecord
100
AcDbLinetypeTableRecord
  2
ByLayer
 70
     0
  3

 72
    65
 73
     0
 40
0.0
  0
LTYPE
  5
16
330
5
100
AcDbSymbolTableRecord
100
AcDbLinetypeTableRecord
  2
Continuous
 70
     0
  3
Solid line
 72
    65
 73
     0
 40
0.0
  0
ENDTAB
  0
TABLE
  2
LAYER
  5
2
102
{ACAD_XDICTIONARY
360
1FF
102
}
330
0
100
AcDbSymbolTable
 70
     2
  0
LAYER
  5
10
102
{ACAD_XDICTIONARY
360
13C
102
}
330
2
100
AcDbSymbolTableRecord
100
AcDbLayerTableRecord
  2
0
 70
     0
 62
     7
  6
Continuous
370
    -3
390
F
347
EE
348
0
  0
LAYER
  5
28C
330
2
100
AcDbSymbolTableRecord
100
AcDbLayerTableRecord
  2
Livello 1
 70
     0
 62
     7
  6
Continuous
370
    -3
390
F
347
EE
348
0
  0
ENDTAB
  0
TABLE
  2
STYLE
  5
3
330
0
100
AcDbSymbolTable
 70
     2
  0
STYLE
  5
11
330
3
100
AcDbSymbolTableRecord
100
AcDbTextStyleTableRecord
  2
Standard
 70
     0
 40
0.0
 41
1.0
 50
0.0
 71
     0
 42
2.5
  3
arial.ttf
  4

1001
ACAD
1000
Arial
1071
       34
  0
STYLE
  5
132
330
3
100
AcDbSymbolTableRecord
100
AcDbTextStyleTableRecord
  2
Annotativa
 70
     0
 40
0.0
 41
1.0
 50
0.0
 71
     0
 42
2.5
  3
arial.ttf
  4

1001
AcadAnnotative
1000
AnnotativeData
1002
{
1070
     1
1070
     1
1002
}
1001
ACAD
1000
Arial
1071
       34
  0
ENDTAB
  0
TABLE
  2
VIEW
  5
6
330
0
100
AcDbSymbolTable
 70
     0
  0
ENDTAB
  0
TABLE
  2
UCS
  5
7
330
0
100
AcDbSymbolTable
 70
     0
  0
ENDTAB
  0
TABLE
  2
APPID
  5
9
330
0
100
AcDbSymbolTable
 70
     8
  0
APPID
  5
12
330
9
100
AcDbSymbolTableRecord
100
AcDbRegAppTableRecord
  2
ACAD
 70
     0
  0
APPID
  5
9E
330
9
100
AcDbSymbolTableRecord
100
AcDbRegAppTableRecord
  2
ACAD_PSEXT
 70
     0
  0
APPID
  5
133
330
9
100
AcDbSymbolTableRecord
100
AcDbRegAppTableRecord
  2
AcadAnnoPO
 70
     0
  0
APPID
  5
134
330
9
100
AcDbSymbolTableRecord
100
AcDbRegAppTableRecord
  2
AcadAnnotative
 70
     0
  0
APPID
  5
135
330
9
100
AcDbSymbolTableRecord
100
AcDbRegAppTableRecord
  2
ACAD_DSTYLE_DIMJAG
 70
     0
  0
APPID
  5
136
330
9
100
AcDbSymbolTableRecord
100
AcDbRegAppTableRecord
  2
ACAD_DSTYLE_DIMTALN
 70
     0
  0
APPID
  5
165
330
9
100
AcDbSymbolTableRecord
100
AcDbRegAppTableRecord
  2
ACAD_MLEADERVER
 70
     0
  0
APPID
  5
217
330
9
100
AcDbSymbolTableRecord
100
AcDbRegAppTableRecord
  2
ACAD_NAV_VCDISPLAY
 70
     0
  0
ENDTAB
  0
TABLE
  2
DIMSTYLE
  5
A
330
0
100
AcDbSymbolTable
 70
     3
100
AcDbDimStyleTable
 71
     2
340
27
340
137
  0
DIMSTYLE
105
1B0
330
A
100
AcDbSymbolTableRecord
100
AcDbDimStyleTableRecord
  2
Standard
 70
     0
340
11
  0
DIMSTYLE
105
137
330
A
100
AcDbSymbolTableRecord
100
AcDbDimStyleTableRecord
  2
Annotativa
 70
     0
 40
0.0
 41
2.5
 42
0.625
 43
3.75
 44
1.25
 73
     0
 74
     0
 77
     1
 78
     8
140
2.5
141
2.5
143
0.03937007874016
147
0.625
171
     3
172
     1
271
     2
272
     2
274
     3
278
    44
283
     0
284
     8
340
11
1001
AcadAnnotative
1000
AnnotativeData
1002
{
1070
     1
1070
     1
1002
}
1001
ACAD_DSTYLE_DIMJAG
1070
   388
1040
1.5
1001
ACAD_DSTYLE_DIMTALN
1070
   392
1070
     0
  0
DIMSTYLE
105
27
330
A
100
AcDbSymbolTableRecord
100
AcDbDimStyleTableRecord
  2
ISO-25
 70
     0
 41
2.5
 42
0.625
 43
3.75
 44
1.25
 73
     0
 74
     0
 77
     1
 78
     8
140
2.5
141
2.5
143
0.03937007874016
147
0.625
171
     3
172
     1
271
     2
272
     2
274
     3
278
    44
283
     0
284
     8
340
11
  0
ENDTAB
  0
TABLE
  2
BLOCK_RECORD
  5
1
330
0
100
AcDbSymbolTable
 70
     2
  0
BLOCK_RECORD
  5
1F
102
{ACAD_XDICTIONARY
360
1CE
102
}
330
1
100
AcDbSymbolTableRecord
100
AcDbBlockTableRecord
  2
*Model_Space
340
22
 70
     0
280
     1
281
     0
  0
BLOCK_RECORD
  5
D2
330
1
100
AcDbSymbolTableRecord
100
AcDbBlockTableRecord
  2
*Paper_Space
340
D3
 70
     0
280
     1
281
     0
  0
BLOCK_RECORD
  5
D6
330
1
100
AcDbSymbolTableRecord
100
AcDbBlockTableRecord
  2
*Paper_Space0
340
D7
 70
     0
280
     1
281
     0
  0
ENDTAB
  0
ENDSEC
  0
SECTION
  2
BLOCKS
  0
BLOCK
  5
20
330
1F
100
AcDbEntity
  8
0
100
AcDbBlockBegin
  2
*Model_Space
 70
     0
 10
0.0
 20
0.0
 30
0.0
  3
*Model_Space
  1

  0
ENDBLK
  5
21
330
1F
100
AcDbEntity
  8
0
100
AcDbBlockEnd
  0
BLOCK
  5
D4
330
D2
100
AcDbEntity
 67
     1
  8
0
100
AcDbBlockBegin
  2
*Paper_Space
 70
     0
 10
0.0
 20
0.0
 30
0.0
  3
*Paper_Space
  1

  0
ENDBLK
  5
D5
330
D2
100
AcDbEntity
 67
     1
  8
0
100
AcDbBlockEnd
  0
BLOCK
  5
D8
330
D6
100
AcDbEntity
 67
     1
  8
0
100
AcDbBlockBegin
  2
*Paper_Space0
 70
     0
 10
0.0
 20
0.0
 30
0.0
  3
*Paper_Space0
  1

  0
ENDBLK
  5
D9
330
D6
100
AcDbEntity
 67
     1
  8
0
100
AcDbBlockEnd
  0
ENDSEC
  0
SECTION
  2
ENTITIES
  0
SPLINE
  5
2ED
330
1F
100
AcDbEntity
  8
Livello 1
370
     0
100
AcDbSpline
210
0.0
220
0.0
230
1.0
 70
     9
 71
     3
 72
    23
 73
    19
 74
     0
 42
0.000000001
 43
0.0000000001
 40
0.0
 40
0.0
 40
0.0
 40
0.0
 40
1.0
 40
1.0
 40
1.0
 40
2.0
 40
2.0
 40
2.0
 40
3.0
 40
3.0
 40
3.0
 40
4.0
 40
4.0
 40
4.0
 40
5.0
 40
5.0
 40
5.0
 40
6.0
 40
6.0
 40
6.0
 40
6.0
 10
11.21178970094915
 20
6.807373852232153
 30
0.0
 10
11.20261713421966
 20
6.807373852232153
 30
0.0
 10
11.19556141717703
 20
6.814782153265866
 30
0.0
 10
11.19556141717703
 20
6.823600790263853
 30
0.0
 10
11.19556141717703
 20
6.823600790263853
 30
0.0
 10
11.19556141717703
 20
6.849706808747576
 30
0.0
 10
11.19556141717703
 20
6.849706808747576
 30
0.0
 10
11.19556141717703
 20
6.85887937547708
 30
0.0
 10
11.20261713421966
 20
6.866287676510786
 30
0.0
 10
11.21178970094915
 20
6.866287676510786
 30
0.0
 10
11.2209609219382
 20
6.866287676510786
 30
0.0
 10
11.22801663898084
 20
6.85887937547708
 30
0.0
 10
11.22801663898084
 20
6.849706808747576
 30
0.0
 10
11.22801663898084
 20
6.849706808747576
 30
0.0
 10
11.22801663898084
 20
6.823600790263853
 30
0.0
 10
11.22801663898084
 20
6.823600790263853
 30
0.0
 10
11.22801663898084
 20
6.814782153265866
 30
0.0
 10
11.2209609219382
 20
6.807373852232153
 30
0.0
 10
11.21178970094915
 20
6.807373852232153
 30
0.0
  0
SPLINE
  5
2EE
330
1F
100
AcDbEntity
  8
Livello 1
370
     0
100
AcDbSpline
210
0.0
220
0.0
230
1.0
 70
     9
 71
     3
 72
    23
 73
    19
 74
     0
 42
0.000000001
 43
0.0000000001
 40
0.0
 40
0.0
 40
0.0
 40
0.0
 40
1.0
 40
1.0
 40
1.0
 40
2.0
 40
2.0
 40
2.0
 40
3.0
 40
3.0
 40
3.0
 40
4.0
 40
4.0
 40
4.0
 40
5.0
 40
5.0
 40
5.0
 40
6.0
 40
6.0
 40
6.0
 40
6.0
 10
11.21178970094915
 20
5.558222601493284
 30
0.0
 10
11.20261713421966
 20
5.558222601493284
 30
0.0
 10
11.19556141717703
 20
5.565630902526997
 30
0.0
 10
11.19556141717703
 20
5.574449539524984
 30
0.0
 10
11.19556141717703
 20
5.574449539524984
 30
0.0
 10
11.19556141717703
 20
5.600555558008721
 30
0.0
 10
11.19556141717703
 20
5.600555558008721
 30
0.0
 10
11.19556141717703
 20
5.60972812473819
 30
0.0
 10
11.20261713421966
 20
5.617136425771903
 30
0.0
 10
11.21178970094915
 20
5.617136425771903
 30
0.0
 10
11.2209609219382
 20
5.617136425771903
 30
0.0
 10
11.22801663898084
 20
5.60972812473819
 30
0.0
 10
11.22801663898084
 20
5.600555558008721
 30
0.0
 10
11.22801663898084
 20
5.600555558008721
 30
0.0
 10
11.22801663898084
 20
5.574449539524984
 30
0.0
 10
11.22801663898084
 20
5.574449539524984
 30
0.0
 10
11.22801663898084
 20
5.565630902526997
 30
0.0
 10
11.2209609219382
 20
5.558222601493284
 30
0.0
 10
11.21178970094915
 20
5.558222601493284
 30
0.0
  0
SPLINE
  5
2EF
330
1F
100
AcDbEntity
  8
Livello 1
370
     0
100
AcDbSpline
210
0.0
220
0.0
230
1.0
 70
     9
 71
     3
 72
    26
 73
    22
 74
     0
 42
0.000000001
 43
0.0000000001
 40
0.0
 40
0.0
 40
0.0
 40
0.0
 40
1.0
 40
1.0
 40
1.0
 40
2.0
 40
2.0
 40
2.0
 40
3.0
 40
3.0
 40
3.0
 40
4.0
 40
4.0
 40
4.0
 40
5.0
 40
5.0
 40
5.0
 40
6.0
 40
6.0
 40
6.0
 40
7.0
 40
7.0
 40
7.0
 40
7.0
 10
11.20914397527571
 20
5.53991380302579
 30
0.0
 10
11.20843746155315
 20
5.53991380302579
 30
0.0
 10
11.207732293571
 20
5.53991380302579
 30
0.0
 10
11.20667319585738
 20
5.53991380302579
 30
0.0
 10
11.19785455885939
 20
5.541324138990049
 30
0.0
 10
11.19185659378997
 20
5.549791537737398
 30
0.0
 10
11.19291569150359
 20
5.558610174735377
 30
0.0
 10
11.19291569150359
 20
5.558610174735377
 30
0.0
 10
11.19573770917255
 20
5.576955308194335
 30
0.0
 10
11.19573770917255
 20
5.576955308194335
 30
0.0
 10
11.19679546114576
 20
5.585773945192329
 30
0.0
 10
11.20491027590205
 20
5.592124494252828
 30
0.0
 10
11.21408284263152
 20
5.590712812548126
 30
0.0
 10
11.2229014796295
 20
5.589302476583853
 30
0.0
 10
11.22925202869001
 20
5.581187661827584
 30
0.0
 10
11.2278403469853
 20
5.572016440838538
 30
0.0
 10
11.2278403469853
 20
5.572016440838538
 30
0.0
 10
11.22537091330741
 20
5.55402389137064
 30
0.0
 10
11.22537091330741
 20
5.55402389137064
 30
0.0
 10
11.22396057734313
 20
5.545910422354793
 30
0.0
 10
11.21725744429155
 20
5.53991380302579
 30
0.0
 10
11.20914397527571
 20
5.53991380302579
 30
0.0
  0
SPLINE
  5
2F0
330
1F
100
AcDbEntity
  8
Livello 1
370
     0
100
AcDbSpline
210
0.0
220
0.0
230
1.0
 70
     9
 71
     3
 72
    32
 73
    28
 74
     0
 42
0.000000001
 43
0.0000000001
 40
0.0
 40
0.0
 40
0.0
 40
0.0
 40
1.0
 40
1.0
 40
1.0
 40
2.0
 40
2.0
 40
2.0
 40
3.0
 40
3.0
 40
3.0
 40
4.0
 40
4.0
 40
4.0
 40
5.0
 40
5.0
 40
5.0
 40
6.0
 40
6.0
 40
6.0
 40
7.0
 40
7.0
 40
7.0
 40
8.0
 40
8.0
 40
8.0
 40
9.0
 40
9.0
 40
9.0
 40
9.0
 10
11.12292507779564
 20
7.562600686658434
 30
0.0
 10
11.11622194474406
 20
7.562600686658434
 30
0.0
 10
11.10951881169249
 20
7.566833040291676
 30
0.0
 10
11.10740196200565
 20
7.573888757334323
 30
0.0
 10
11.10740196200565
 20
7.573888757334323
 30
0.0
 10
11.10493252832775
 20
7.581649642359096
 30
0.0
 10
11.10493252832775
 20
7.581649642359096
 30
0.0
 10
11.10422736034561
 20
7.583413908054872
 30
0.0
 10
11.10387477635455
 20
7.58517817375062
 30
0.0
 10
11.10387477635455
 20
7.586941093705974
 30
0.0
 10
11.10387477635455
 20
7.586941093705974
 30
0.0
 10
11.10387477635455
 20
7.604933643173858
 30
0.0
 10
11.10387477635455
 20
7.604933643173858
 30
0.0
 10
11.10387477635455
 20
7.61410620990334
 30
0.0
 10
11.11128307738826
 20
7.621514510937046
 30
0.0
 10
11.1204542983773
 20
7.621514510937046
 30
0.0
 10
11.12927428111572
 20
7.621514510937046
 30
0.0
 10
11.13668258214943
 20
7.61410620990334
 30
0.0
 10
11.13668258214943
 20
7.604933643173858
 30
0.0
 10
11.13668258214943
 20
7.604933643173858
 30
0.0
 10
11.1384468478452
 20
7.584119076036998
 30
0.0
 10
11.1384468478452
 20
7.584119076036998
 30
0.0
 10
11.14126886551416
 20
7.575653023030085
 30
0.0
 10
11.13668258214943
 20
7.566127872309536
 30
0.0
 10
11.12786394515144
 20
7.563305854640574
 30
0.0
 10
11.12645226344675
 20
7.562953270649501
 30
0.0
 10
11.12468799775098
 20
7.562600686658434
 30
0.0
 10
11.12292507779564
 20
7.562600686658434
 30
0.0
  0
SPLINE
  5
2F1
330
1F
100
AcDbEntity
  8
Livello 1
370
     0
100
AcDbSpline
210
0.0
220
0.0
230
1.0
 70
     9
 71
     3
 72
    44
 73
    40
 74
     0
 42
0.000000001
 43
0.0000000001
 40
0.0
 40
0.0
 40
0.0
 40
0.0
 40
1.0
 40
1.0
 40
1.0
 40
2.0
 40
2.0
 40
2.0
 40
3.0
 40
3.0
 40
3.0
 40
4.0
 40
4.0
 40
4.0
 40
5.0
 40
5.0
 40
5.0
 40
6.0
 40
6.0
 40
6.0
 40
7.0
 40
7.0
 40
7.0
 40
8.0
 40
8.0
 40
8.0
 40
9.0
 40
9.0
 40
9.0
 40
10.0
 40
10.0
 40
10.0
 40
11.0
 40
11.0
 40
11.0
 40
12.0
 40
12.0
 40
12.0
 40
13.0
 40
13.0
 40
13.0
 40
13.0
 10
6.06349149166833
 20
6.19590304711091
 30
0.0
 10
6.062784977945767
 20
6.19590304711091
 30
0.0
 10
6.062079809963627
 20
6.19590304711091
 30
0.0
 10
6.06172722597256
 20
6.19590304711091
 30
0.0
 10
6.052554659243085
 20
6.196960799084124
 30
0.0
 10
6.046204110182578
 20
6.20507426809997
 30
0.0
 10
6.047263207896207
 20
6.214246834829445
 30
0.0
 10
6.047263207896207
 20
6.214246834829445
 30
0.0
 10
6.052554659243085
 20
6.258696641031718
 30
0.0
 10
6.052554659243085
 20
6.258696641031718
 30
0.0
 10
6.083246961091553
 20
6.395927175021114
 30
0.0
 10
6.195783158301914
 20
6.456957848986569
 30
0.0
 10
6.293855337435935
 20
6.456957848986569
 30
0.0
 10
6.413445905948513
 20
6.456957848986569
 30
0.0
 10
6.507638315440352
 20
6.379700236989414
 30
0.0
 10
6.534096917915157
 20
6.260108322736407
 30
0.0
 10
6.534096917915157
 20
6.260108322736407
 30
0.0
 10
6.539740953253101
 20
6.214246834829445
 30
0.0
 10
6.539740953253101
 20
6.214246834829445
 30
0.0
 10
6.540798705226301
 20
6.20507426809997
 30
0.0
 10
6.534449501906223
 20
6.196960799084124
 30
0.0
 10
6.525276935176734
 20
6.19590304711091
 30
0.0
 10
6.515399200465125
 20
6.194843949397288
 30
0.0
 10
6.508343483422493
 20
6.201547082448868
 30
0.0
 10
6.507285731449272
 20
6.210365719446834
 30
0.0
 10
6.507285731449272
 20
6.210365719446834
 30
0.0
 10
6.501994280102394
 20
6.254816871389536
 30
0.0
 10
6.501994280102394
 20
6.254816871389536
 30
0.0
 10
6.474123995922901
 20
6.379346307257932
 30
0.0
 10
6.372524631137771
 20
6.42415004319168
 30
0.0
 10
6.293855337435935
 20
6.42415004319168
 30
0.0
 10
6.214832114002589
 20
6.42415004319168
 30
0.0
 10
6.1128801652264
 20
6.379346307257932
 30
0.0
 10
6.084657297055827
 20
6.25305260569376
 30
0.0
 10
6.084657297055827
 20
6.25305260569376
 30
0.0
 10
6.079718429700022
 20
6.210365719446834
 30
0.0
 10
6.079718429700022
 20
6.210365719446834
 30
0.0
 10
6.078660677726816
 20
6.201899666439928
 30
0.0
 10
6.071604960684183
 20
6.19590304711091
 30
0.0
 10
6.06349149166833
 20
6.19590304711091
 30
0.0
  0
SPLINE
  5
2F2
330
1F
100
AcDbEntity
  8
Livello 1
370
     0
100
AcDbSpline
210
0.0
220
0.0
230
1.0
 70
     9
 71
     3
 72
    47
 73
    43
 74
     0
 42
0.000000001
 43
0.0000000001
 40
0.0
 40
0.0
 40
0.0
 40
0.0
 40
1.0
 40
1.0
 40
1.0
 40
2.0
 40
2.0
 40
2.0
 40
3.0
 40
3.0
 40
3.0
 40
4.0
 40
4.0
 40
4.0
 40
5.0
 40
5.0
 40
5.0
 40
6.0
 40
6.0
 40
6.0
 40
7.0
 40
7.0
 40
7.0
 40
8.0
 40
8.0
 40
8.0
 40
9.0
 40
9.0
 40
9.0
 40
10.0
 40
10.0
 40
10.0
 40
11.0
 40
11.0
 40
11.0
 40
12.0
 40
12.0
 40
12.0
 40
13.0
 40
13.0
 40
13.0
 40
14.0
 40
14.0
 40
14.0
 40
14.0
 10
6.293961650929411
 20
5.966950883047999
 30
0.0
 10
6.293961650929411
 20
5.966950883047999
 30
0.0
 10
6.293607721197929
 20
5.966950883047999
 30
0.0
 10
6.293607721197929
 20
5.966950883047999
 30
0.0
 10
6.195182958072841
 20
5.966950883047999
 30
0.0
 10
6.082294176871414
 20
6.027980211273032
 30
0.0
 10
6.052660972736575
 20
6.164152993289235
 30
0.0
 10
6.052660972736575
 20
6.164152993289235
 30
0.0
 10
6.047369521389697
 20
6.210367065187263
 30
0.0
 10
6.047369521389697
 20
6.210367065187263
 30
0.0
 10
6.046310423676061
 20
6.219185702185264
 30
0.0
 10
6.052660972736575
 20
6.227300516941532
 30
0.0
 10
6.061480955474984
 20
6.228358268914732
 30
0.0
 10
6.07100476045511
 20
6.229769950619434
 30
0.0
 10
6.078766991220305
 20
6.223066817567854
 30
0.0
 10
6.079824743193512
 20
6.214246834829445
 30
0.0
 10
6.079824743193512
 20
6.214246834829445
 30
0.0
 10
6.084763610549323
 20
6.169797028627179
 30
0.0
 10
6.084763610549323
 20
6.169797028627179
 30
0.0
 10
6.112279964997327
 20
6.044561079036228
 30
0.0
 10
6.214585843505012
 20
5.999758688842902
 30
0.0
 10
6.293607721197929
 20
5.999758688842902
 30
0.0
 10
6.293607721197929
 20
5.999758688842902
 30
0.0
 10
6.293961650929411
 20
5.999758688842902
 30
0.0
 10
6.293961650929411
 20
5.999758688842902
 30
0.0
 10
6.372630944631268
 20
5.999758688842902
 30
0.0
 10
6.474582893407458
 20
6.044561079036228
 30
0.0
 10
6.502453177586957
 20
6.171208710331875
 30
0.0
 10
6.502453177586957
 20
6.171208710331875
 30
0.0
 10
6.507038115211265
 20
6.214246834829445
 30
0.0
 10
6.507038115211265
 20
6.214246834829445
 30
0.0
 10
6.508097212924901
 20
6.223066817567854
 30
0.0
 10
6.515505513958615
 20
6.229417366628354
 30
0.0
 10
6.525383248670223
 20
6.228358268914732
 30
0.0
 10
6.534203231408632
 20
6.227300516941532
 30
0.0
 10
6.540552434728731
 20
6.219185702185264
 30
0.0
 10
6.539494682755517
 20
6.210367065187263
 30
0.0
 10
6.539494682755517
 20
6.210367065187263
 30
0.0
 10
6.534555815399706
 20
6.165917258985004
 30
0.0
 10
6.534555815399706
 20
6.165917258985004
 30
0.0
 10
6.507744628933842
 20
6.044208495045161
 30
0.0
 10
6.413552219442003
 20
5.966950883047999
 30
0.0
 10
6.293961650929411
 20
5.966950883047999
 30
0.0
  0
SPLINE
  5
2F3
330
1F
100
AcDbEntity
  8
Livello 1
370
     0
100
AcDbSpline
210
0.0
220
0.0
230
1.0
 70
    11
 71
     3
 72
    41
 73
    37
 74
     0
 42
0.000000001
 43
0.0000000001
 40
0.0
 40
0.0
 40
0.0
 40
0.0
 40
1.0
 40
1.0
 40
1.0
 40
2.0
 40
2.0
 40
2.0
 40
3.0
 40
3.0
 40
3.0
 40
4.0
 40
4.0
 40
4.0
 40
5.0
 40
5.0
 40
5.0
 40
6.0
 40
6.0
 40
6.0
 40
7.0
 40
7.0
 40
7.0
 40
8.0
 40
8.0
 40
8.0
 40
9.0
 40
9.0
 40
9.0
 40
10.0
 40
10.0
 40
10.0
 40
11.0
 40
11.0
 40
11.0
 40
12.0
 40
12.0
 40
12.0
 40
12.0
 10
3.288187164291407
 20
5.613185331887265
 30
0.0
 10
3.287834580300341
 20
5.613185331887265
 30
0.0
 10
3.287481996309274
 20
5.613185331887265
 30
0.0
 10
3.287129412318201
 20
5.613185331887265
 30
0.0
 10
3.287129412318201
 20
5.613185331887265
 30
0.0
 10
3.247971057462805
 20
5.61565476556516
 30
0.0
 10
3.247971057462805
 20
5.61565476556516
 30
0.0
 10
3.247971057462805
 20
5.61565476556516
 30
0.0
 10
3.205638100947382
 20
5.626590252249989
 30
0.0
 10
3.205638100947382
 20
5.626590252249989
 30
0.0
 10
3.079695637633868
 20
5.673509492130158
 30
0.0
 10
3.008787228956798
 20
5.784987937367318
 30
0.0
 10
3.023603831024217
 20
5.91128163893147
 30
0.0
 10
3.03842043309163
 20
6.037929270227117
 30
0.0
 10
3.134377108279238
 20
6.130709998014253
 30
0.0
 10
3.267726526886043
 20
6.147290865777449
 30
0.0
 10
3.267726526886043
 20
6.147290865777449
 30
0.0
 10
3.309001731428267
 20
6.147643449768516
 30
0.0
 10
3.309001731428267
 20
6.147643449768516
 30
0.0
 10
3.309001731428267
 20
6.147643449768516
 30
0.0
 10
3.351687271934764
 20
6.139176051021181
 30
0.0
 10
3.351687271934764
 20
6.139176051021181
 30
0.0
 10
3.469514920492002
 20
6.108837678904194
 30
0.0
 10
3.548890727916415
 20
6.012882349457015
 30
0.0
 10
3.554534763254359
 20
5.894702116908703
 30
0.0
 10
3.56053138258337
 20
5.774403688933134
 30
0.0
 10
3.489976903637803
 20
5.669275792756486
 30
0.0
 10
3.374618688758459
 20
5.62729542023213
 30
0.0
 10
3.374618688758459
 20
5.62729542023213
 30
0.0
 10
3.334048652198369
 20
5.6163599335473
 30
0.0
 10
3.334048652198369
 20
5.6163599335473
 30
0.0
 10
3.334048652198369
 20
5.6163599335473
 30
0.0
 10
3.289246262005043
 20
5.613185331887265
 30
0.0
 10
3.289246262005043
 20
5.613185331887265
 30
0.0
 10
3.288893678013977
 20
5.613185331887265
 30
0.0
 10
3.288539748282481
 20
5.613185331887265
 30
0.0
 10
3.288187164291407
 20
5.613185331887265
 30
0.0
  0
SPLINE
  5
2F4
330
1F
100
AcDbEntity
  8
Livello 1
370
     0
100
AcDbSpline
210
0.0
220
0.0
230
1.0
 70
    11
 71
     3
 72
    35
 73
    31
 74
     0
 42
0.000000001
 43
0.0000000001
 40
0.0
 40
0.0
 40
0.0
 40
0.0
 40
1.0
 40
1.0
 40
1.0
 40
2.0
 40
2.0
 40
2.0
 40
3.0
 40
3.0
 40
3.0
 40
4.0
 40
4.0
 40
4.0
 40
5.0
 40
5.0
 40
5.0
 40
6.0
 40
6.0
 40
6.0
 40
7.0
 40
7.0
 40
7.0
 40
8.0
 40
8.0
 40
8.0
 40
9.0
 40
9.0
 40
9.0
 40
10.0
 40
10.0
 40
10.0
 40
10.0
 10
3.305827129768232
 20
6.115188227964686
 30
0.0
 10
3.305827129768232
 20
6.115188227964686
 30
0.0
 10
3.269843376572865
 20
6.114834298233205
 30
0.0
 10
3.269843376572865
 20
6.114834298233205
 30
0.0
 10
3.128379143209812
 20
6.097195678496802
 30
0.0
 10
3.06593813328007
 20
5.992067782320155
 30
0.0
 10
3.056060398568462
 20
5.907401869289294
 30
0.0
 10
3.046182663856846
 20
5.823439778500151
 30
0.0
 10
3.081812487320711
 20
5.707376395638675
 30
0.0
 10
3.21551583565899
 20
5.657635138089538
 30
0.0
 10
3.21551583565899
 20
5.657635138089538
 30
0.0
 10
3.25326250880969
 20
5.647757403377916
 30
0.0
 10
3.25326250880969
 20
5.647757403377916
 30
0.0
 10
3.25326250880969
 20
5.647757403377916
 30
0.0
 10
3.288187164291407
 20
5.645640553691073
 30
0.0
 10
3.288187164291407
 20
5.645640553691073
 30
0.0
 10
3.288187164291407
 20
5.645640553691073
 30
0.0
 10
3.329109784842565
 20
5.648462571360049
 30
0.0
 10
3.329109784842565
 20
5.648462571360049
 30
0.0
 10
3.329109784842565
 20
5.648462571360049
 30
0.0
 10
3.364740954046844
 20
5.658340306071664
 30
0.0
 10
3.364740954046844
 20
5.658340306071664
 30
0.0
 10
3.464928637127265
 20
5.69502922724915
 30
0.0
 10
3.527018408806341
 20
5.787457371045221
 30
0.0
 10
3.522079541450551
 20
5.893290435204001
 30
0.0
 10
3.518198426067947
 20
5.975486914556967
 30
0.0
 10
3.469162336500943
 20
6.074970775395684
 30
0.0
 10
3.344278970901051
 20
6.107425997199499
 30
0.0
 10
3.344278970901051
 20
6.107425997199499
 30
0.0
 10
3.305827129768232
 20
6.115188227964686
 30
0.0
 10
3.305827129768232
 20
6.115188227964686
 30
0.0
  0
SPLINE
  5
2F5
330
1F
100
AcDbEntity
  8
Livello 1
370
     0
100
AcDbSpline
210
0.0
220
0.0
230
1.0
 70
     9
 71
     3
 72
    41
 73
    37
 74
     0
 42
0.000000001
 43
0.0000000001
 40
0.0
 40
0.0
 40
0.0
 40
0.0
 40
1.0
 40
1.0
 40
1.0
 40
2.0
 40
2.0
 40
2.0
 40
3.0
 40
3.0
 40
3.0
 40
4.0
 40
4.0
 40
4.0
 40
5.0
 40
5.0
 40
5.0
 40
6.0
 40
6.0
 40
6.0
 40
7.0
 40
7.0
 40
7.0
 40
8.0
 40
8.0
 40
8.0
 40
9.0
 40
9.0
 40
9.0
 40
10.0
 40
10.0
 40
10.0
 40
11.0
 40
11.0
 40
11.0
 40
12.0
 40
12.0
 40
12.0
 40
12.0
 10
5.609571900937758
 20
5.60320128368216
 30
0.0
 10
5.606043369546235
 20
5.60320128368216
 30
0.0
 10
5.602868767886192
 20
5.604611619646433
 30
0.0
 10
5.599692820485714
 20
5.607433637315409
 30
0.0
 10
5.356629222337524
 20
5.714325799187825
 30
0.0
 10
5.203524334307502
 20
5.946099980919704
 30
0.0
 10
5.202465236593866
 20
6.211389827909442
 30
0.0
 10
5.201760068611733
 20
6.475973161176639
 30
0.0
 10
5.352749452695341
 20
6.708453856631081
 30
0.0
 10
5.596870802816752
 20
6.817814106440977
 30
0.0
 10
5.596870802816752
 20
6.817814106440977
 30
0.0
 10
5.606395953537301
 20
6.820990053841441
 30
0.0
 10
5.606395953537301
 20
6.820990053841441
 30
0.0
 10
5.614863352284629
 20
6.82381207151041
 30
0.0
 10
5.624034573273689
 20
6.819225788145679
 30
0.0
 10
5.62685793668308
 20
6.81040580540727
 30
0.0
 10
5.629679954352056
 20
6.801939752400343
 30
0.0
 10
5.625093670987311
 20
6.792767185670875
 30
0.0
 10
5.616626272239983
 20
6.789945168001892
 30
0.0
 10
5.616626272239983
 20
6.789945168001892
 30
0.0
 10
5.608865387215196
 20
6.787475734323997
 30
0.0
 10
5.608865387215196
 20
6.787475734323997
 30
0.0
 10
5.378148957456524
 20
6.684112103843119
 30
0.0
 10
5.234215290415548
 20
6.463273408796055
 30
0.0
 10
5.235274388129177
 20
6.211389827909442
 30
0.0
 10
5.236332140102383
 20
5.959153663031791
 30
0.0
 10
5.382030072839128
 20
5.739020135966853
 30
0.0
 10
5.615215936275703
 20
5.636714257459182
 30
0.0
 10
5.617332785962545
 20
5.635656505485975
 30
0.0
 10
5.618743121926804
 20
5.634597407772346
 30
0.0
 10
5.620154803631507
 20
5.633187071808073
 30
0.0
 10
5.62685793668308
 20
5.626836522747566
 30
0.0
 10
5.627915688656294
 20
5.615194522340182
 30
0.0
 10
5.621565139595773
 20
5.608845319020112
 30
0.0
 10
5.618037953944664
 20
5.605316787628566
 30
0.0
 10
5.613804254571007
 20
5.60320128368216
 30
0.0
 10
5.609571900937758
 20
5.60320128368216
 30
0.0
  0
SPLINE
  5
2F6
330
1F
100
AcDbEntity
  8
Livello 1
370
     0
100
AcDbSpline
210
0.0
220
0.0
230
1.0
 70
     9
 71
     3
 72
    23
 73
    19
 74
     0
 42
0.000000001
 43
0.0000000001
 40
0.0
 40
0.0
 40
0.0
 40
0.0
 40
1.0
 40
1.0
 40
1.0
 40
2.0
 40
2.0
 40
2.0
 40
3.0
 40
3.0
 40
3.0
 40
4.0
 40
4.0
 40
4.0
 40
5.0
 40
5.0
 40
5.0
 40
6.0
 40
6.0
 40
6.0
 40
6.0
 10
5.726411776023837
 20
5.600026682022118
 30
0.0
 10
5.726411776023837
 20
5.600026682022118
 30
0.0
 10
5.611406145135568
 20
5.600026682022118
 30
0.0
 10
5.611406145135568
 20
5.600026682022118
 30
0.0
 10
5.602233578406085
 20
5.600026682022118
 30
0.0
 10
5.595177861363453
 20
5.607434983055831
 30
0.0
 10
5.595177861363453
 20
5.616253620053797
 30
0.0
 10
5.595177861363453
 20
5.625426186783293
 30
0.0
 10
5.602233578406085
 20
5.632834487816992
 30
0.0
 10
5.611406145135568
 20
5.632834487816992
 30
0.0
 10
5.611406145135568
 20
5.632834487816992
 30
0.0
 10
5.726411776023837
 20
5.632834487816992
 30
0.0
 10
5.726411776023837
 20
5.632834487816992
 30
0.0
 10
5.735582997012883
 20
5.632834487816992
 30
0.0
 10
5.74263871405553
 20
5.625426186783293
 30
0.0
 10
5.74263871405553
 20
5.616253620053797
 30
0.0
 10
5.74263871405553
 20
5.607434983055831
 30
0.0
 10
5.735582997012883
 20
5.600026682022118
 30
0.0
 10
5.726411776023837
 20
5.600026682022118
 30
0.0
  0
SPLINE
  5
2F7
330
1F
100
AcDbEntity
  8
Livello 1
370
     0
100
AcDbSpline
210
0.0
220
0.0
230
1.0
 70
     9
 71
     3
 72
    23
 73
    19
 74
     0
 42
0.000000001
 43
0.0000000001
 40
0.0
 40
0.0
 40
0.0
 40
0.0
 40
1.0
 40
1.0
 40
1.0
 40
2.0
 40
2.0
 40
2.0
 40
3.0
 40
3.0
 40
3.0
 40
4.0
 40
4.0
 40
4.0
 40
5.0
 40
5.0
 40
5.0
 40
6.0
 40
6.0
 40
6.0
 40
6.0
 10
5.726411776023837
 20
6.789063708024229
 30
0.0
 10
5.726411776023837
 20
6.789063708024229
 30
0.0
 10
5.611406145135568
 20
6.789063708024229
 30
0.0
 10
5.611406145135568
 20
6.789063708024229
 30
0.0
 10
5.602233578406085
 20
6.789063708024229
 30
0.0
 10
5.595177861363453
 20
6.796472009057943
 30
0.0
 10
5.595177861363453
 20
6.805290646055929
 30
0.0
 10
5.595177861363453
 20
6.814463212785405
 30
0.0
 10
5.602233578406085
 20
6.821871513819118
 30
0.0
 10
5.611406145135568
 20
6.821871513819118
 30
0.0
 10
5.611406145135568
 20
6.821871513819118
 30
0.0
 10
5.726411776023837
 20
6.821871513819118
 30
0.0
 10
5.726411776023837
 20
6.821871513819118
 30
0.0
 10
5.735582997012883
 20
6.821871513819118
 30
0.0
 10
5.74263871405553
 20
6.814463212785405
 30
0.0
 10
5.74263871405553
 20
6.805290646055929
 30
0.0
 10
5.74263871405553
 20
6.796472009057943
 30
0.0
 10
5.735582997012883
 20
6.789063708024229
 30
0.0
 10
5.726411776023837
 20
6.789063708024229
 30
0.0
  0
SPLINE
  5
2F8
330
1F
100
AcDbEntity
  8
Livello 1
370
     0
100
AcDbSpline
210
0.0
220
0.0
230
1.0
 70
     9
 71
     3
 72
    32
 73
    28
 74
     0
 42
0.000000001
 43
0.0000000001
 40
0.0
 40
0.0
 40
0.0
 40
0.0
 40
1.0
 40
1.0
 40
1.0
 40
2.0
 40
2.0
 40
2.0
 40
3.0
 40
3.0
 40
3.0
 40
4.0
 40
4.0
 40
4.0
 40
5.0
 40
5.0
 40
5.0
 40
6.0
 40
6.0
 40
6.0
 40
7.0
 40
7.0
 40
7.0
 40
8.0
 40
8.0
 40
8.0
 40
9.0
 40
9.0
 40
9.0
 40
9.0
 10
3.591260019423295
 20
7.024296442645592
 30
0.0
 10
3.582087452693805
 20
7.024296442645592
 30
0.0
 10
3.575031735651165
 20
7.031704743679306
 30
0.0
 10
3.575031735651165
 20
7.040523380677292
 30
0.0
 10
3.575031735651165
 20
7.040523380677292
 30
0.0
 10
3.575031735651165
 20
7.095557435313729
 30
0.0
 10
3.575031735651165
 20
7.095557435313729
 30
0.0
 10
3.575031735651165
 20
7.10437607231173
 30
0.0
 10
3.582087452693805
 20
7.111784373345422
 30
0.0
 10
3.591260019423295
 20
7.111784373345422
 30
0.0
 10
3.591260019423295
 20
7.111784373345422
 30
0.0
 10
5.726270473279313
 20
7.111784373345422
 30
0.0
 10
5.726270473279313
 20
7.111784373345422
 30
0.0
 10
5.735443040008803
 20
7.111784373345422
 30
0.0
 10
5.742851341042509
 20
7.10437607231173
 30
0.0
 10
5.742851341042509
 20
7.095557435313729
 30
0.0
 10
5.742851341042509
 20
7.086384868584254
 30
0.0
 10
5.735443040008803
 20
7.079329151541614
 30
0.0
 10
5.726270473279313
 20
7.079329151541614
 30
0.0
 10
5.726270473279313
 20
7.079329151541614
 30
0.0
 10
3.607486957454987
 20
7.079329151541614
 30
0.0
 10
3.607486957454987
 20
7.079329151541614
 30
0.0
 10
3.607486957454987
 20
7.079329151541614
 30
0.0
 10
3.607486957454987
 20
7.040523380677292
 30
0.0
 10
3.607486957454987
 20
7.040523380677292
 30
0.0
 10
3.607486957454987
 20
7.031704743679306
 30
0.0
 10
3.600431240412348
 20
7.024296442645592
 30
0.0
 10
3.591260019423295
 20
7.024296442645592
 30
0.0
  0
SPLINE
  5
2F9
330
1F
100
AcDbEntity
  8
Livello 1
370
     0
100
AcDbSpline
210
0.0
220
0.0
230
1.0
 70
     9
 71
     3
 72
    20
 73
    16
 74
     0
 42
0.000000001
 43
0.0000000001
 40
0.0
 40
0.0
 40
0.0
 40
0.0
 40
1.0
 40
1.0
 40
1.0
 40
2.0
 40
2.0
 40
2.0
 40
3.0
 40
3.0
 40
3.0
 40
4.0
 40
4.0
 40
4.0
 40
5.0
 40
5.0
 40
5.0
 40
5.0
 10
3.591295008674315
 20
5.366170639854423
 30
0.0
 10
3.582122441944839
 20
5.366170639854423
 30
0.0
 10
3.575066724902193
 20
5.372167259183449
 30
0.0
 10
3.575066724902193
 20
5.381339825912917
 30
0.0
 10
3.575066724902193
 20
5.381339825912917
 30
0.0
 10
3.575066724902193
 20
5.383809259590819
 30
0.0
 10
3.575066724902193
 20
5.383809259590819
 30
0.0
 10
3.575066724902193
 20
5.392627896588805
 30
0.0
 10
3.582122441944839
 20
5.400036197622512
 30
0.0
 10
3.591295008674315
 20
5.400036197622512
 30
0.0
 10
3.600466229663375
 20
5.400036197622512
 30
0.0
 10
3.607521946706008
 20
5.392627896588805
 30
0.0
 10
3.607521946706008
 20
5.383809259590819
 30
0.0
 10
3.607521946706008
 20
5.374636692861336
 30
0.0
 10
3.600466229663375
 20
5.366170639854423
 30
0.0
 10
3.591295008674315
 20
5.366170639854423
 30
0.0
  0
SPLINE
  5
2FA
330
1F
100
AcDbEntity
  8
Livello 1
370
     0
100
AcDbSpline
210
0.0
220
0.0
230
1.0
 70
     9
 71
     3
 72
    23
 73
    19
 74
     0
 42
0.000000001
 43
0.0000000001
 40
0.0
 40
0.0
 40
0.0
 40
0.0
 40
1.0
 40
1.0
 40
1.0
 40
2.0
 40
2.0
 40
2.0
 40
3.0
 40
3.0
 40
3.0
 40
4.0
 40
4.0
 40
4.0
 40
5.0
 40
5.0
 40
5.0
 40
6.0
 40
6.0
 40
6.0
 40
6.0
 10
3.591295008674315
 20
5.311242898711476
 30
0.0
 10
3.582122441944839
 20
5.311242898711476
 30
0.0
 10
3.575066724902193
 20
5.317239518040487
 30
0.0
 10
3.575066724902193
 20
5.32641208476997
 30
0.0
 10
3.575066724902193
 20
5.32641208476997
 30
0.0
 10
3.575066724902193
 20
5.38109220967491
 30
0.0
 10
3.575066724902193
 20
5.38109220967491
 30
0.0
 10
3.575066724902193
 20
5.390264776404393
 30
0.0
 10
3.582122441944839
 20
5.39732049344704
 30
0.0
 10
3.591295008674315
 20
5.39732049344704
 30
0.0
 10
3.600466229663375
 20
5.39732049344704
 30
0.0
 10
3.607521946706008
 20
5.390264776404393
 30
0.0
 10
3.607521946706008
 20
5.38109220967491
 30
0.0
 10
3.607521946706008
 20
5.38109220967491
 30
0.0
 10
3.607521946706008
 20
5.328881518447879
 30
0.0
 10
3.607521946706008
 20
5.328881518447879
 30
0.0
 10
3.607521946706008
 20
5.319708951718389
 30
0.0
 10
3.600466229663375
 20
5.311242898711476
 30
0.0
 10
3.591295008674315
 20
5.311242898711476
 30
0.0
  0
SPLINE
  5
2FB
330
1F
100
AcDbEntity
  8
Livello 1
370
     0
100
AcDbSpline
210
0.0
220
0.0
230
1.0
 70
     9
 71
     3
 72
    23
 73
    19
 74
     0
 42
0.000000001
 43
0.0000000001
 40
0.0
 40
0.0
 40
0.0
 40
0.0
 40
1.0
 40
1.0
 40
1.0
 40
2.0
 40
2.0
 40
2.0
 40
3.0
 40
3.0
 40
3.0
 40
4.0
 40
4.0
 40
4.0
 40
5.0
 40
5.0
 40
5.0
 40
6.0
 40
6.0
 40
6.0
 40
6.0
 10
5.726411776023837
 20
5.309972519751283
 30
0.0
 10
5.726411776023837
 20
5.309972519751283
 30
0.0
 10
3.591399976427375
 20
5.309972519751283
 30
0.0
 10
3.591399976427375
 20
5.309972519751283
 30
0.0
 10
3.582227409697907
 20
5.309972519751283
 30
0.0
 10
3.5748191086642
 20
5.317380820784997
 30
0.0
 10
3.5748191086642
 20
5.326199457782983
 30
0.0
 10
3.5748191086642
 20
5.335372024512459
 30
0.0
 10
3.582227409697907
 20
5.342780325546179
 30
0.0
 10
3.591399976427375
 20
5.342780325546179
 30
0.0
 10
3.591399976427375
 20
5.342780325546179
 30
0.0
 10
5.726411776023837
 20
5.342780325546179
 30
0.0
 10
5.726411776023837
 20
5.342780325546179
 30
0.0
 10
5.735582997012883
 20
5.342780325546179
 30
0.0
 10
5.74263871405553
 20
5.335372024512459
 30
0.0
 10
5.74263871405553
 20
5.326199457782983
 30
0.0
 10
5.74263871405553
 20
5.317380820784997
 30
0.0
 10
5.735582997012883
 20
5.309972519751283
 30
0.0
 10
5.726411776023837
 20
5.309972519751283
 30
0.0
  0
SPLINE
  5
2FC
330
1F
100
AcDbEntity
  8
Livello 1
370
     0
100
AcDbSpline
210
0.0
220
0.0
230
1.0
 70
     9
 71
     3
 72
    23
 73
    19
 74
     0
 42
0.000000001
 43
0.0000000001
 40
0.0
 40
0.0
 40
0.0
 40
0.0
 40
1.0
 40
1.0
 40
1.0
 40
2.0
 40
2.0
 40
2.0
 40
3.0
 40
3.0
 40
3.0
 40
4.0
 40
4.0
 40
4.0
 40
5.0
 40
5.0
 40
5.0
 40
6.0
 40
6.0
 40
6.0
 40
6.0
 10
3.591331343665764
 20
6.898849211808084
 30
0.0
 10
3.582158776936275
 20
6.898849211808084
 30
0.0
 10
3.575103059893635
 20
6.906257512841797
 30
0.0
 10
3.575103059893635
 20
6.915076149839784
 30
0.0
 10
3.575103059893635
 20
6.915076149839784
 30
0.0
 10
3.575103059893635
 20
7.040664683421802
 30
0.0
 10
3.575103059893635
 20
7.040664683421802
 30
0.0
 10
3.575103059893635
 20
7.049484666160211
 30
0.0
 10
3.582158776936275
 20
7.056892967193931
 30
0.0
 10
3.591331343665764
 20
7.056892967193931
 30
0.0
 10
3.600502564654817
 20
7.056892967193931
 30
0.0
 10
3.607558281697457
 20
7.049484666160211
 30
0.0
 10
3.607558281697457
 20
7.040664683421802
 30
0.0
 10
3.607558281697457
 20
7.040664683421802
 30
0.0
 10
3.607558281697457
 20
6.915076149839784
 30
0.0
 10
3.607558281697457
 20
6.915076149839784
 30
0.0
 10
3.607558281697457
 20
6.906257512841797
 30
0.0
 10
3.600502564654817
 20
6.898849211808084
 30
0.0
 10
3.591331343665764
 20
6.898849211808084
 30
0.0
  0
SPLINE
  5
2FD
330
1F
100
AcDbEntity
  8
Livello 1
370
     0
100
AcDbSpline
210
0.0
220
0.0
230
1.0
 70
     9
 71
     3
 72
    23
 73
    19
 74
     0
 42
0.000000001
 43
0.0000000001
 40
0.0
 40
0.0
 40
0.0
 40
0.0
 40
1.0
 40
1.0
 40
1.0
 40
2.0
 40
2.0
 40
2.0
 40
3.0
 40
3.0
 40
3.0
 40
4.0
 40
4.0
 40
4.0
 40
5.0
 40
5.0
 40
5.0
 40
6.0
 40
6.0
 40
6.0
 40
6.0
 10
3.591331343665764
 20
6.789063708024229
 30
0.0
 10
3.582158776936275
 20
6.789063708024229
 30
0.0
 10
3.575103059893635
 20
6.796472009057943
 30
0.0
 10
3.575103059893635
 20
6.805290646055929
 30
0.0
 10
3.575103059893635
 20
6.805290646055929
 30
0.0
 10
3.575103059893635
 20
6.915357409588388
 30
0.0
 10
3.575103059893635
 20
6.915357409588388
 30
0.0
 10
3.575103059893635
 20
6.924177392326797
 30
0.0
 10
3.582158776936275
 20
6.931585693360503
 30
0.0
 10
3.591331343665764
 20
6.931585693360503
 30
0.0
 10
3.600502564654817
 20
6.931585693360503
 30
0.0
 10
3.607558281697457
 20
6.924177392326797
 30
0.0
 10
3.607558281697457
 20
6.915357409588388
 30
0.0
 10
3.607558281697457
 20
6.915357409588388
 30
0.0
 10
3.607558281697457
 20
6.805290646055929
 30
0.0
 10
3.607558281697457
 20
6.805290646055929
 30
0.0
 10
3.607558281697457
 20
6.796472009057943
 30
0.0
 10
3.600502564654817
 20
6.789063708024229
 30
0.0
 10
3.591331343665764
 20
6.789063708024229
 30
0.0
  0
SPLINE
  5
2FE
330
1F
100
AcDbEntity
  8
Livello 1
370
     0
100
AcDbSpline
210
0.0
220
0.0
230
1.0
 70
     9
 71
     3
 72
    23
 73
    19
 74
     0
 42
0.000000001
 43
0.0000000001
 40
0.0
 40
0.0
 40
0.0
 40
0.0
 40
1.0
 40
1.0
 40
1.0
 40
2.0
 40
2.0
 40
2.0
 40
3.0
 40
3.0
 40
3.0
 40
4.0
 40
4.0
 40
4.0
 40
5.0
 40
5.0
 40
5.0
 40
6.0
 40
6.0
 40
6.0
 40
6.0
 10
3.591331343665764
 20
5.490242523978672
 30
0.0
 10
3.582158776936275
 20
5.490242523978672
 30
0.0
 10
3.575103059893635
 20
5.497650825012399
 30
0.0
 10
3.575103059893635
 20
5.506469462010379
 30
0.0
 10
3.575103059893635
 20
5.506469462010379
 30
0.0
 10
3.575103059893635
 20
6.82444726099051
 30
0.0
 10
3.575103059893635
 20
6.82444726099051
 30
0.0
 10
3.575103059893635
 20
6.833619827719985
 30
0.0
 10
3.582158776936275
 20
6.841028128753691
 30
0.0
 10
3.591331343665764
 20
6.841028128753691
 30
0.0
 10
3.600502564654817
 20
6.841028128753691
 30
0.0
 10
3.607558281697457
 20
6.833619827719985
 30
0.0
 10
3.607558281697457
 20
6.82444726099051
 30
0.0
 10
3.607558281697457
 20
6.82444726099051
 30
0.0
 10
3.607558281697457
 20
5.506469462010379
 30
0.0
 10
3.607558281697457
 20
5.506469462010379
 30
0.0
 10
3.607558281697457
 20
5.497650825012399
 30
0.0
 10
3.600502564654817
 20
5.490242523978672
 30
0.0
 10
3.591331343665764
 20
5.490242523978672
 30
0.0
  0
SPLINE
  5
2FF
330
1F
100
AcDbEntity
  8
Livello 1
370
     0
100
AcDbSpline
210
0.0
220
0.0
230
1.0
 70
     9
 71
     3
 72
    26
 73
    22
 74
     0
 42
0.000000001
 43
0.0000000001
 40
0.0
 40
0.0
 40
0.0
 40
0.0
 40
1.0
 40
1.0
 40
1.0
 40
2.0
 40
2.0
 40
2.0
 40
3.0
 40
3.0
 40
3.0
 40
4.0
 40
4.0
 40
4.0
 40
5.0
 40
5.0
 40
5.0
 40
6.0
 40
6.0
 40
6.0
 40
7.0
 40
7.0
 40
7.0
 40
7.0
 10
3.591295008674315
 20
5.367439673074187
 30
0.0
 10
3.591295008674315
 20
5.367439673074187
 30
0.0
 10
3.591295008674315
 20
5.367439673074187
 30
0.0
 10
3.591295008674315
 20
5.367439673074187
 30
0.0
 10
3.582122441944839
 20
5.367439673074187
 30
0.0
 10
3.575066724902193
 20
5.3748479741079
 30
0.0
 10
3.575066724902193
 20
5.383666611105894
 30
0.0
 10
3.575066724902193
 20
5.383666611105894
 30
0.0
 10
3.575066724902193
 20
5.506433127018929
 30
0.0
 10
3.575066724902193
 20
5.506433127018929
 30
0.0
 10
3.575066724902193
 20
5.515605693748412
 30
0.0
 10
3.582475025935906
 20
5.523013994782118
 30
0.0
 10
3.591295008674315
 20
5.523013994782118
 30
0.0
 10
3.600466229663375
 20
5.523013994782118
 30
0.0
 10
3.607521946706008
 20
5.515605693748412
 30
0.0
 10
3.607521946706008
 20
5.506433127018929
 30
0.0
 10
3.607521946706008
 20
5.506433127018929
 30
0.0
 10
3.607521946706008
 20
5.383666611105894
 30
0.0
 10
3.607521946706008
 20
5.383666611105894
 30
0.0
 10
3.607521946706008
 20
5.3748479741079
 30
0.0
 10
3.600466229663375
 20
5.367439673074187
 30
0.0
 10
3.591295008674315
 20
5.367439673074187
 30
0.0
  0
SPLINE
  5
300
330
1F
100
AcDbEntity
  8
Livello 1
370
     0
100
AcDbSpline
210
0.0
220
0.0
230
1.0
 70
     9
 71
     3
 72
    23
 73
    19
 74
     0
 42
0.000000001
 43
0.0000000001
 40
0.0
 40
0.0
 40
0.0
 40
0.0
 40
1.0
 40
1.0
 40
1.0
 40
2.0
 40
2.0
 40
2.0
 40
3.0
 40
3.0
 40
3.0
 40
4.0
 40
4.0
 40
4.0
 40
5.0
 40
5.0
 40
5.0
 40
6.0
 40
6.0
 40
6.0
 40
6.0
 10
2.883128716872732
 20
6.112259896802235
 30
0.0
 10
2.874308734134331
 20
6.112259896802235
 30
0.0
 10
2.866900433100617
 20
6.11931426810446
 30
0.0
 10
2.866900433100617
 20
6.128486834833928
 30
0.0
 10
2.866900433100617
 20
6.128486834833928
 30
0.0
 10
2.864078415431634
 20
6.355676078941499
 30
0.0
 10
2.864078415431634
 20
6.355676078941499
 30
0.0
 10
2.864078415431634
 20
6.364848645670981
 30
0.0
 10
2.871134132474281
 20
6.372256946704673
 30
0.0
 10
2.880305353463334
 20
6.372256946704673
 30
0.0
 10
2.890889601897505
 20
6.371903016973192
 30
0.0
 10
2.896886221226523
 20
6.365201229662041
 30
0.0
 10
2.896886221226523
 20
6.356028662932573
 30
0.0
 10
2.896886221226523
 20
6.356028662932573
 30
0.0
 10
2.899355654904432
 20
6.128839418825009
 30
0.0
 10
2.899355654904432
 20
6.128839418825009
 30
0.0
 10
2.899708238895499
 20
6.119668197835942
 30
0.0
 10
2.892299937861785
 20
6.112259896802235
 30
0.0
 10
2.883128716872732
 20
6.112259896802235
 30
0.0
  0
SPLINE
  5
301
330
1F
100
AcDbEntity
  8
Livello 1
370
     0
100
AcDbSpline
210
0.0
220
0.0
230
1.0
 70
     9
 71
     3
 72
    23
 73
    19
 74
     0
 42
0.000000001
 43
0.0000000001
 40
0.0
 40
0.0
 40
0.0
 40
0.0
 40
1.0
 40
1.0
 40
1.0
 40
2.0
 40
2.0
 40
2.0
 40
3.0
 40
3.0
 40
3.0
 40
4.0
 40
4.0
 40
4.0
 40
5.0
 40
5.0
 40
5.0
 40
6.0
 40
6.0
 40
6.0
 40
6.0
 10
2.883128716872732
 20
5.584328619977029
 30
0.0
 10
2.873956150143264
 20
5.584328619977029
 30
0.0
 10
2.866900433100617
 20
5.591736921010735
 30
0.0
 10
2.866900433100617
 20
5.600555558008721
 30
0.0
 10
2.866900433100617
 20
5.600555558008721
 30
0.0
 10
2.866900433100617
 20
5.663350497669945
 30
0.0
 10
2.866900433100617
 20
5.663350497669945
 30
0.0
 10
2.866900433100617
 20
5.672523064399413
 30
0.0
 10
2.873956150143264
 20
5.679577435701638
 30
0.0
 10
2.883128716872732
 20
5.679577435701638
 30
0.0
 10
2.892299937861785
 20
5.679577435701638
 30
0.0
 10
2.899355654904432
 20
5.672523064399413
 30
0.0
 10
2.899355654904432
 20
5.663350497669945
 30
0.0
 10
2.899355654904432
 20
5.663350497669945
 30
0.0
 10
2.899355654904432
 20
5.600555558008721
 30
0.0
 10
2.899355654904432
 20
5.600555558008721
 30
0.0
 10
2.899355654904432
 20
5.591736921010735
 30
0.0
 10
2.892299937861785
 20
5.584328619977029
 30
0.0
 10
2.883128716872732
 20
5.584328619977029
 30
0.0
  0
SPLINE
  5
302
330
1F
100
AcDbEntity
  8
Livello 1
370
     0
100
AcDbSpline
210
0.0
220
0.0
230
1.0
 70
     9
 71
     3
 72
    23
 73
    19
 74
     0
 42
0.000000001
 43
0.0000000001
 40
0.0
 40
0.0
 40
0.0
 40
0.0
 40
1.0
 40
1.0
 40
1.0
 40
2.0
 40
2.0
 40
2.0
 40
3.0
 40
3.0
 40
3.0
 40
4.0
 40
4.0
 40
4.0
 40
5.0
 40
5.0
 40
5.0
 40
6.0
 40
6.0
 40
6.0
 40
6.0
 10
2.883128716872732
 20
6.067810090599969
 30
0.0
 10
2.873956150143264
 20
6.067810090599969
 30
0.0
 10
2.866900433100617
 20
6.075218391633683
 30
0.0
 10
2.866900433100617
 20
6.084037028631662
 30
0.0
 10
2.866900433100617
 20
6.084037028631662
 30
0.0
 10
2.866900433100617
 20
6.128486834833928
 30
0.0
 10
2.866900433100617
 20
6.128486834833928
 30
0.0
 10
2.866900433100617
 20
6.137659401563411
 30
0.0
 10
2.873956150143264
 20
6.145067702597117
 30
0.0
 10
2.883128716872732
 20
6.145067702597117
 30
0.0
 10
2.892299937861785
 20
6.145067702597117
 30
0.0
 10
2.899355654904432
 20
6.137659401563411
 30
0.0
 10
2.899355654904432
 20
6.128486834833928
 30
0.0
 10
2.899355654904432
 20
6.128486834833928
 30
0.0
 10
2.899355654904432
 20
6.084037028631662
 30
0.0
 10
2.899355654904432
 20
6.084037028631662
 30
0.0
 10
2.899355654904432
 20
6.075218391633683
 30
0.0
 10
2.892299937861785
 20
6.067810090599969
 30
0.0
 10
2.883128716872732
 20
6.067810090599969
 30
0.0
  0
SPLINE
  5
303
330
1F
100
AcDbEntity
  8
Livello 1
370
     0
100
AcDbSpline
210
0.0
220
0.0
230
1.0
 70
     9
 71
     3
 72
    26
 73
    22
 74
     0
 42
0.000000001
 43
0.0000000001
 40
0.0
 40
0.0
 40
0.0
 40
0.0
 40
1.0
 40
1.0
 40
1.0
 40
2.0
 40
2.0
 40
2.0
 40
3.0
 40
3.0
 40
3.0
 40
4.0
 40
4.0
 40
4.0
 40
5.0
 40
5.0
 40
5.0
 40
6.0
 40
6.0
 40
6.0
 40
7.0
 40
7.0
 40
7.0
 40
7.0
 10
2.880482991199301
 20
6.067810090599969
 30
0.0
 10
2.871310424469811
 20
6.067810090599969
 30
0.0
 10
2.864254707427171
 20
6.075218391633683
 30
0.0
 10
2.864254707427171
 20
6.084037028631662
 30
0.0
 10
2.864254707427171
 20
6.084037028631662
 30
0.0
 10
2.864254707427171
 20
6.141540516946001
 30
0.0
 10
2.864254707427171
 20
6.141540516946001
 30
0.0
 10
2.864254707427171
 20
6.150711737935068
 30
0.0
 10
2.871310424469811
 20
6.157767454977708
 30
0.0
 10
2.880482991199301
 20
6.157767454977708
 30
0.0
 10
2.889654212188347
 20
6.157767454977708
 30
0.0
 10
2.898121610935689
 20
6.150711737935068
 30
0.0
 10
2.898121610935689
 20
6.141540516946001
 30
0.0
 10
2.898121610935689
 20
6.139071083268113
 30
0.0
 10
2.897769026944615
 20
6.136601649590211
 30
0.0
 10
2.896709929231008
 20
6.134484799903368
 30
0.0
 10
2.896709929231008
 20
6.134484799903368
 30
0.0
 10
2.896709929231008
 20
6.084037028631662
 30
0.0
 10
2.896709929231008
 20
6.084037028631662
 30
0.0
 10
2.896709929231008
 20
6.075218391633683
 30
0.0
 10
2.889654212188347
 20
6.067810090599969
 30
0.0
 10
2.880482991199301
 20
6.067810090599969
 30
0.0
  0
SPLINE
  5
304
330
1F
100
AcDbEntity
  8
Livello 1
370
     0
100
AcDbSpline
210
0.0
220
0.0
230
1.0
 70
     9
 71
     3
 72
    23
 73
    19
 74
     0
 42
0.000000001
 43
0.0000000001
 40
0.0
 40
0.0
 40
0.0
 40
0.0
 40
1.0
 40
1.0
 40
1.0
 40
2.0
 40
2.0
 40
2.0
 40
3.0
 40
3.0
 40
3.0
 40
4.0
 40
4.0
 40
4.0
 40
5.0
 40
5.0
 40
5.0
 40
6.0
 40
6.0
 40
6.0
 40
6.0
 10
2.880482991199301
 20
6.125277243922866
 30
0.0
 10
2.871310424469811
 20
6.125277243922866
 30
0.0
 10
2.864254707427171
 20
6.132685544956579
 30
0.0
 10
2.864254707427171
 20
6.141504181954566
 30
0.0
 10
2.864254707427171
 20
6.141504181954566
 30
0.0
 10
2.864254707427171
 20
6.402912913561721
 30
0.0
 10
2.864254707427171
 20
6.402912913561721
 30
0.0
 10
2.864254707427171
 20
6.412085480291189
 30
0.0
 10
2.871310424469811
 20
6.419139851593399
 30
0.0
 10
2.880482991199301
 20
6.419139851593399
 30
0.0
 10
2.889654212188347
 20
6.419139851593399
 30
0.0
 10
2.896709929231008
 20
6.412085480291189
 30
0.0
 10
2.896709929231008
 20
6.402912913561721
 30
0.0
 10
2.896709929231008
 20
6.402912913561721
 30
0.0
 10
2.896709929231008
 20
6.141504181954566
 30
0.0
 10
2.896709929231008
 20
6.141504181954566
 30
0.0
 10
2.896709929231008
 20
6.132685544956579
 30
0.0
 10
2.889654212188347
 20
6.125277243922866
 30
0.0
 10
2.880482991199301
 20
6.125277243922866
 30
0.0
  0
SPLINE
  5
305
330
1F
100
AcDbEntity
  8
Livello 1
370
     0
100
AcDbSpline
210
0.0
220
0.0
230
1.0
 70
     9
 71
     3
 72
    20
 73
    16
 74
     0
 42
0.000000001
 43
0.0000000001
 40
0.0
 40
0.0
 40
0.0
 40
0.0
 40
1.0
 40
1.0
 40
1.0
 40
2.0
 40
2.0
 40
2.0
 40
3.0
 40
3.0
 40
3.0
 40
4.0
 40
4.0
 40
4.0
 40
5.0
 40
5.0
 40
5.0
 40
5.0
 10
2.883128716872732
 20
6.067810090599969
 30
0.0
 10
2.883128716872732
 20
6.067810090599969
 30
0.0
 10
2.880305353463334
 20
6.067810090599969
 30
0.0
 10
2.880305353463334
 20
6.067810090599969
 30
0.0
 10
2.871486716465348
 20
6.067810090599969
 30
0.0
 10
2.864078415431634
 20
6.075218391633683
 30
0.0
 10
2.864078415431634
 20
6.084037028631662
 30
0.0
 10
2.864078415431634
 20
6.093209595361152
 30
0.0
 10
2.871486716465348
 20
6.100617896394844
 30
0.0
 10
2.880305353463334
 20
6.100617896394844
 30
0.0
 10
2.889477920192817
 20
6.100617896394844
 30
0.0
 10
2.898297902931233
 20
6.093209595361152
 30
0.0
 10
2.898297902931233
 20
6.084037028631662
 30
0.0
 10
2.898297902931233
 20
6.075218391633683
 30
0.0
 10
2.892299937861785
 20
6.067810090599969
 30
0.0
 10
2.883128716872732
 20
6.067810090599969
 30
0.0
  0
SPLINE
  5
306
330
1F
100
AcDbEntity
  8
Livello 1
370
     0
100
AcDbSpline
210
0.0
220
0.0
230
1.0
 70
     9
 71
     3
 72
    23
 73
    19
 74
     0
 42
0.000000001
 43
0.0000000001
 40
0.0
 40
0.0
 40
0.0
 40
0.0
 40
1.0
 40
1.0
 40
1.0
 40
2.0
 40
2.0
 40
2.0
 40
3.0
 40
3.0
 40
3.0
 40
4.0
 40
4.0
 40
4.0
 40
5.0
 40
5.0
 40
5.0
 40
6.0
 40
6.0
 40
6.0
 40
6.0
 10
3.13663526071059
 20
6.386615997027973
 30
0.0
 10
3.13663526071059
 20
6.386615997027973
 30
0.0
 10
3.053025753912507
 20
6.386615997027973
 30
0.0
 10
3.053025753912507
 20
6.386615997027973
 30
0.0
 10
3.043854532923454
 20
6.386615997027973
 30
0.0
 10
3.036798815880807
 20
6.39402429806168
 30
0.0
 10
3.036798815880807
 20
6.402842935059666
 30
0.0
 10
3.036798815880807
 20
6.412015501789142
 30
0.0
 10
3.043854532923454
 20
6.419423802822862
 30
0.0
 10
3.053025753912507
 20
6.419423802822862
 30
0.0
 10
3.053025753912507
 20
6.419423802822862
 30
0.0
 10
3.13663526071059
 20
6.419423802822862
 30
0.0
 10
3.13663526071059
 20
6.419423802822862
 30
0.0
 10
3.145806481699651
 20
6.419423802822862
 30
0.0
 10
3.152862198742298
 20
6.412015501789142
 30
0.0
 10
3.152862198742298
 20
6.402842935059666
 30
0.0
 10
3.152862198742298
 20
6.39402429806168
 30
0.0
 10
3.145806481699651
 20
6.386615997027973
 30
0.0
 10
3.13663526071059
 20
6.386615997027973
 30
0.0
  0
SPLINE
  5
307
330
1F
100
AcDbEntity
  8
Livello 1
370
     0
100
AcDbSpline
210
0.0
220
0.0
230
1.0
 70
     9
 71
     3
 72
    23
 73
    19
 74
     0
 42
0.000000001
 43
0.0000000001
 40
0.0
 40
0.0
 40
0.0
 40
0.0
 40
1.0
 40
1.0
 40
1.0
 40
2.0
 40
2.0
 40
2.0
 40
3.0
 40
3.0
 40
3.0
 40
4.0
 40
4.0
 40
4.0
 40
5.0
 40
5.0
 40
5.0
 40
6.0
 40
6.0
 40
6.0
 40
6.0
 10
3.13663526071059
 20
6.386615997027973
 30
0.0
 10
3.127462693981115
 20
6.386615997027973
 30
0.0
 10
3.120406976938468
 20
6.39402429806168
 30
0.0
 10
3.120406976938468
 20
6.402842935059666
 30
0.0
 10
3.120406976938468
 20
6.402842935059666
 30
0.0
 10
3.120406976938468
 20
6.674834569360569
 30
0.0
 10
3.120406976938468
 20
6.674834569360569
 30
0.0
 10
3.120406976938468
 20
6.683654552098971
 30
0.0
 10
3.127462693981115
 20
6.691062853132692
 30
0.0
 10
3.13663526071059
 20
6.691062853132692
 30
0.0
 10
3.145806481699651
 20
6.691062853132692
 30
0.0
 10
3.152862198742298
 20
6.683654552098971
 30
0.0
 10
3.152862198742298
 20
6.674834569360569
 30
0.0
 10
3.152862198742298
 20
6.674834569360569
 30
0.0
 10
3.152862198742298
 20
6.402842935059666
 30
0.0
 10
3.152862198742298
 20
6.402842935059666
 30
0.0
 10
3.152862198742298
 20
6.39402429806168
 30
0.0
 10
3.145806481699651
 20
6.386615997027973
 30
0.0
 10
3.13663526071059
 20
6.386615997027973
 30
0.0
  0
SPLINE
  5
308
330
1F
100
AcDbEntity
  8
Livello 1
370
     0
100
AcDbSpline
210
0.0
220
0.0
230
1.0
 70
     9
 71
     3
 72
    23
 73
    19
 74
     0
 42
0.000000001
 43
0.0000000001
 40
0.0
 40
0.0
 40
0.0
 40
0.0
 40
1.0
 40
1.0
 40
1.0
 40
2.0
 40
2.0
 40
2.0
 40
3.0
 40
3.0
 40
3.0
 40
4.0
 40
4.0
 40
4.0
 40
5.0
 40
5.0
 40
5.0
 40
6.0
 40
6.0
 40
6.0
 40
6.0
 10
3.13663526071059
 20
6.65839500434189
 30
0.0
 10
3.13663526071059
 20
6.65839500434189
 30
0.0
 10
3.053025753912507
 20
6.65839500434189
 30
0.0
 10
3.053025753912507
 20
6.65839500434189
 30
0.0
 10
3.043854532923454
 20
6.65839500434189
 30
0.0
 10
3.036798815880807
 20
6.665803305375604
 30
0.0
 10
3.036798815880807
 20
6.674621942373583
 30
0.0
 10
3.036798815880807
 20
6.683794509103073
 30
0.0
 10
3.043854532923454
 20
6.691202810136779
 30
0.0
 10
3.053025753912507
 20
6.691202810136779
 30
0.0
 10
3.053025753912507
 20
6.691202810136779
 30
0.0
 10
3.13663526071059
 20
6.691202810136779
 30
0.0
 10
3.13663526071059
 20
6.691202810136779
 30
0.0
 10
3.145806481699651
 20
6.691202810136779
 30
0.0
 10
3.152862198742298
 20
6.683794509103073
 30
0.0
 10
3.152862198742298
 20
6.674621942373583
 30
0.0
 10
3.152862198742298
 20
6.665803305375604
 30
0.0
 10
3.145806481699651
 20
6.65839500434189
 30
0.0
 10
3.13663526071059
 20
6.65839500434189
 30
0.0
  0
SPLINE
  5
309
330
1F
100
AcDbEntity
  8
Livello 1
370
     0
100
AcDbSpline
210
0.0
220
0.0
230
1.0
 70
     9
 71
     3
 72
    20
 73
    16
 74
     0
 42
0.000000001
 43
0.0000000001
 40
0.0
 40
0.0
 40
0.0
 40
0.0
 40
1.0
 40
1.0
 40
1.0
 40
2.0
 40
2.0
 40
2.0
 40
3.0
 40
3.0
 40
3.0
 40
4.0
 40
4.0
 40
4.0
 40
5.0
 40
5.0
 40
5.0
 40
5.0
 10
2.979860538544521
 20
6.940653292336911
 30
0.0
 10
2.970687971815024
 20
6.940653292336911
 30
0.0
 10
2.963632254772385
 20
6.948061593370638
 30
0.0
 10
2.963632254772385
 20
6.956880230368604
 30
0.0
 10
2.963632254772385
 20
6.966052797098093
 30
0.0
 10
2.970687971815024
 20
6.974518850104999
 30
0.0
 10
2.979860538544521
 20
6.974518850104999
 30
0.0
 10
2.989031759533567
 20
6.974518850104999
 30
0.0
 10
2.996087476576207
 20
6.968522230775995
 30
0.0
 10
2.996087476576207
 20
6.959702248037586
 30
0.0
 10
2.996087476576207
 20
6.959702248037586
 30
0.0
 10
2.996087476576207
 20
6.956880230368604
 30
0.0
 10
2.996087476576207
 20
6.956880230368604
 30
0.0
 10
2.996087476576207
 20
6.948061593370638
 30
0.0
 10
2.989031759533567
 20
6.940653292336911
 30
0.0
 10
2.979860538544521
 20
6.940653292336911
 30
0.0
  0
SPLINE
  5
30A
330
1F
100
AcDbEntity
  8
Livello 1
370
     0
100
AcDbSpline
210
0.0
220
0.0
230
1.0
 70
     9
 71
     3
 72
    50
 73
    46
 74
     0
 42
0.000000001
 43
0.0000000001
 40
0.0
 40
0.0
 40
0.0
 40
0.0
 40
1.0
 40
1.0
 40
1.0
 40
2.0
 40
2.0
 40
2.0
 40
3.0
 40
3.0
 40
3.0
 40
4.0
 40
4.0
 40
4.0
 40
5.0
 40
5.0
 40
5.0
 40
6.0
 40
6.0
 40
6.0
 40
7.0
 40
7.0
 40
7.0
 40
8.0
 40
8.0
 40
8.0
 40
9.0
 40
9.0
 40
9.0
 40
10.0
 40
10.0
 40
10.0
 40
11.0
 40
11.0
 40
11.0
 40
12.0
 40
12.0
 40
12.0
 40
13.0
 40
13.0
 40
13.0
 40
14.0
 40
14.0
 40
14.0
 40
15.0
 40
15.0
 40
15.0
 40
15.0
 10
2.883128716872732
 20
6.789063708024229
 30
0.0
 10
2.88242220315017
 20
6.789063708024229
 30
0.0
 10
2.882069619159111
 20
6.789063708024229
 30
0.0
 10
2.88136445117697
 20
6.789063708024229
 30
0.0
 10
2.872191884447488
 20
6.790121459997436
 30
0.0
 10
2.865841335386981
 20
6.798234929013283
 30
0.0
 10
2.866900433100617
 20
6.807054911751691
 30
0.0
 10
2.866900433100617
 20
6.807054911751691
 30
0.0
 10
2.872191884447488
 20
6.854326735622933
 30
0.0
 10
2.872191884447488
 20
6.854326735622933
 30
0.0
 10
2.872191884447488
 20
6.856091001318695
 30
0.0
 10
2.872897052429628
 20
6.857855267014464
 30
0.0
 10
2.873603566152191
 20
6.859618186969804
 30
0.0
 10
2.873603566152191
 20
6.859618186969804
 30
0.0
 10
2.894769371539688
 20
6.901598559494161
 30
0.0
 10
2.894769371539688
 20
6.901598559494161
 30
0.0
 10
2.894769371539688
 20
6.901598559494161
 30
0.0
 10
2.925109089397096
 20
6.941110844081052
 30
0.0
 10
2.925109089397096
 20
6.941110844081052
 30
0.0
 10
2.926166841370303
 20
6.942521180045332
 30
0.0
 10
2.927578523074998
 20
6.943580277758961
 30
0.0
 10
2.929341443030338
 20
6.944638029732153
 30
0.0
 10
2.929341443030338
 20
6.944638029732153
 30
0.0
 10
2.971323161295131
 20
6.970744048215898
 30
0.0
 10
2.971323161295131
 20
6.970744048215898
 30
0.0
 10
2.978731462328838
 20
6.975682915571709
 30
0.0
 10
2.988961781031512
 20
6.9732134818938
 30
0.0
 10
2.993548064396264
 20
6.96580518086008
 30
0.0
 10
2.998486931752061
 20
6.958042950094892
 30
0.0
 10
2.996017498074166
 20
6.947812631392217
 30
0.0
 10
2.988609197040453
 20
6.943226348027472
 30
0.0
 10
2.988609197040453
 20
6.943226348027472
 30
0.0
 10
2.949096912453569
 20
6.91853201124843
 30
0.0
 10
2.949096912453569
 20
6.91853201124843
 30
0.0
 10
2.949096912453569
 20
6.91853201124843
 30
0.0
 10
2.921933141996625
 20
6.884312523748839
 30
0.0
 10
2.921933141996625
 20
6.884312523748839
 30
0.0
 10
2.921933141996625
 20
6.884312523748839
 30
0.0
 10
2.904294522260236
 20
6.847977532302842
 30
0.0
 10
2.904294522260236
 20
6.847977532302842
 30
0.0
 10
2.904294522260236
 20
6.847977532302842
 30
0.0
 10
2.899355654904432
 20
6.80352638036016
 30
0.0
 10
2.899355654904432
 20
6.80352638036016
 30
0.0
 10
2.898297902931233
 20
6.795412911344321
 30
0.0
 10
2.891242185888579
 20
6.789063708024229
 30
0.0
 10
2.883128716872732
 20
6.789063708024229
 30
0.0
  0
SPLINE
  5
30B
330
1F
100
AcDbEntity
  8
Livello 1
370
     0
100
AcDbSpline
210
0.0
220
0.0
230
1.0
 70
     9
 71
     3
 72
    23
 73
    19
 74
     0
 42
0.000000001
 43
0.0000000001
 40
0.0
 40
0.0
 40
0.0
 40
0.0
 40
1.0
 40
1.0
 40
1.0
 40
2.0
 40
2.0
 40
2.0
 40
3.0
 40
3.0
 40
3.0
 40
4.0
 40
4.0
 40
4.0
 40
5.0
 40
5.0
 40
5.0
 40
6.0
 40
6.0
 40
6.0
 40
6.0
 10
3.053027099652929
 20
6.65839500434189
 30
0.0
 10
3.053027099652929
 20
6.65839500434189
 30
0.0
 10
2.880517980450314
 20
6.65839500434189
 30
0.0
 10
2.880517980450314
 20
6.65839500434189
 30
0.0
 10
2.871345413720838
 20
6.65839500434189
 30
0.0
 10
2.864289696678198
 20
6.665803305375604
 30
0.0
 10
2.864289696678198
 20
6.674621942373583
 30
0.0
 10
2.864289696678198
 20
6.683794509103073
 30
0.0
 10
2.871345413720838
 20
6.691202810136779
 30
0.0
 10
2.880517980450314
 20
6.691202810136779
 30
0.0
 10
2.880517980450314
 20
6.691202810136779
 30
0.0
 10
3.053027099652929
 20
6.691202810136779
 30
0.0
 10
3.053027099652929
 20
6.691202810136779
 30
0.0
 10
3.062198320641975
 20
6.691202810136779
 30
0.0
 10
3.069254037684622
 20
6.683794509103073
 30
0.0
 10
3.069254037684622
 20
6.674621942373583
 30
0.0
 10
3.069254037684622
 20
6.665803305375604
 30
0.0
 10
3.062198320641975
 20
6.65839500434189
 30
0.0
 10
3.053027099652929
 20
6.65839500434189
 30
0.0
  0
SPLINE
  5
30C
330
1F
100
AcDbEntity
  8
Livello 1
370
     0
100
AcDbSpline
210
0.0
220
0.0
230
1.0
 70
     9
 71
     3
 72
    23
 73
    19
 74
     0
 42
0.000000001
 43
0.0000000001
 40
0.0
 40
0.0
 40
0.0
 40
0.0
 40
1.0
 40
1.0
 40
1.0
 40
2.0
 40
2.0
 40
2.0
 40
3.0
 40
3.0
 40
3.0
 40
4.0
 40
4.0
 40
4.0
 40
5.0
 40
5.0
 40
5.0
 40
6.0
 40
6.0
 40
6.0
 40
6.0
 10
2.880482991199301
 20
6.65839500434189
 30
0.0
 10
2.871310424469811
 20
6.65839500434189
 30
0.0
 10
2.864254707427171
 20
6.665803305375604
 30
0.0
 10
2.864254707427171
 20
6.674621942373583
 30
0.0
 10
2.864254707427171
 20
6.674621942373583
 30
0.0
 10
2.864254707427171
 20
6.805503273042901
 30
0.0
 10
2.864254707427171
 20
6.805503273042901
 30
0.0
 10
2.864254707427171
 20
6.814321910040888
 30
0.0
 10
2.871310424469811
 20
6.821730211074608
 30
0.0
 10
2.880482991199301
 20
6.821730211074608
 30
0.0
 10
2.889654212188347
 20
6.821730211074608
 30
0.0
 10
2.896709929231008
 20
6.814321910040888
 30
0.0
 10
2.896709929231008
 20
6.805503273042901
 30
0.0
 10
2.896709929231008
 20
6.805503273042901
 30
0.0
 10
2.896709929231008
 20
6.674621942373583
 30
0.0
 10
2.896709929231008
 20
6.674621942373583
 30
0.0
 10
2.896709929231008
 20
6.665803305375604
 30
0.0
 10
2.889654212188347
 20
6.65839500434189
 30
0.0
 10
2.880482991199301
 20
6.65839500434189
 30
0.0
  0
SPLINE
  5
30D
330
1F
100
AcDbEntity
  8
Livello 1
370
     0
100
AcDbSpline
210
0.0
220
0.0
230
1.0
 70
     9
 71
     3
 72
    20
 73
    16
 74
     0
 42
0.000000001
 43
0.0000000001
 40
0.0
 40
0.0
 40
0.0
 40
0.0
 40
1.0
 40
1.0
 40
1.0
 40
2.0
 40
2.0
 40
2.0
 40
3.0
 40
3.0
 40
3.0
 40
4.0
 40
4.0
 40
4.0
 40
5.0
 40
5.0
 40
5.0
 40
5.0
 10
2.883128716872732
 20
6.789063708024229
 30
0.0
 10
2.883128716872732
 20
6.789063708024229
 30
0.0
 10
2.880305353463334
 20
6.789063708024229
 30
0.0
 10
2.880305353463334
 20
6.789063708024229
 30
0.0
 10
2.871486716465348
 20
6.789063708024229
 30
0.0
 10
2.864078415431634
 20
6.796472009057943
 30
0.0
 10
2.864078415431634
 20
6.805290646055929
 30
0.0
 10
2.864078415431634
 20
6.814463212785405
 30
0.0
 10
2.871486716465348
 20
6.821871513819118
 30
0.0
 10
2.880305353463334
 20
6.821871513819118
 30
0.0
 10
2.889477920192817
 20
6.821871513819118
 30
0.0
 10
2.898297902931233
 20
6.814463212785405
 30
0.0
 10
2.898297902931233
 20
6.805290646055929
 30
0.0
 10
2.898297902931233
 20
6.796472009057943
 30
0.0
 10
2.892299937861785
 20
6.789063708024229
 30
0.0
 10
2.883128716872732
 20
6.789063708024229
 30
0.0
  0
SPLINE
  5
30E
330
1F
100
AcDbEntity
  8
Livello 1
370
     0
100
AcDbSpline
210
0.0
220
0.0
230
1.0
 70
     9
 71
     3
 72
    23
 73
    19
 74
     0
 42
0.000000001
 43
0.0000000001
 40
0.0
 40
0.0
 40
0.0
 40
0.0
 40
1.0
 40
1.0
 40
1.0
 40
2.0
 40
2.0
 40
2.0
 40
3.0
 40
3.0
 40
3.0
 40
4.0
 40
4.0
 40
4.0
 40
5.0
 40
5.0
 40
5.0
 40
6.0
 40
6.0
 40
6.0
 40
6.0
 10
3.053027099652929
 20
6.386615997027973
 30
0.0
 10
3.053027099652929
 20
6.386615997027973
 30
0.0
 10
2.880517980450314
 20
6.386615997027973
 30
0.0
 10
2.880517980450314
 20
6.386615997027973
 30
0.0
 10
2.871345413720838
 20
6.386615997027973
 30
0.0
 10
2.864289696678198
 20
6.39402429806168
 30
0.0
 10
2.864289696678198
 20
6.402842935059666
 30
0.0
 10
2.864289696678198
 20
6.412015501789142
 30
0.0
 10
2.871345413720838
 20
6.419423802822862
 30
0.0
 10
2.880517980450314
 20
6.419423802822862
 30
0.0
 10
2.880517980450314
 20
6.419423802822862
 30
0.0
 10
3.053027099652929
 20
6.419423802822862
 30
0.0
 10
3.053027099652929
 20
6.419423802822862
 30
0.0
 10
3.062198320641975
 20
6.419423802822862
 30
0.0
 10
3.069254037684622
 20
6.412015501789142
 30
0.0
 10
3.069254037684622
 20
6.402842935059666
 30
0.0
 10
3.069254037684622
 20
6.39402429806168
 30
0.0
 10
3.062198320641975
 20
6.386615997027973
 30
0.0
 10
3.053027099652929
 20
6.386615997027973
 30
0.0
  0
SPLINE
  5
30F
330
1F
100
AcDbEntity
  8
Livello 1
370
     0
100
AcDbSpline
210
0.0
220
0.0
230
1.0
 70
     9
 71
     3
 72
    47
 73
    43
 74
     0
 42
0.000000001
 43
0.0000000001
 40
0.0
 40
0.0
 40
0.0
 40
0.0
 40
1.0
 40
1.0
 40
1.0
 40
2.0
 40
2.0
 40
2.0
 40
3.0
 40
3.0
 40
3.0
 40
4.0
 40
4.0
 40
4.0
 40
5.0
 40
5.0
 40
5.0
 40
6.0
 40
6.0
 40
6.0
 40
7.0
 40
7.0
 40
7.0
 40
8.0
 40
8.0
 40
8.0
 40
9.0
 40
9.0
 40
9.0
 40
10.0
 40
10.0
 40
10.0
 40
11.0
 40
11.0
 40
11.0
 40
12.0
 40
12.0
 40
12.0
 40
13.0
 40
13.0
 40
13.0
 40
14.0
 40
14.0
 40
14.0
 40
14.0
 10
2.979860538544521
 20
5.448473432700872
 30
0.0
 10
2.976684591144049
 20
5.448473432700872
 30
0.0
 10
2.973862573475088
 20
5.449178600683012
 30
0.0
 10
2.971040555806112
 20
5.450942866378788
 30
0.0
 10
2.971040555806112
 20
5.450942866378788
 30
0.0
 10
2.934351634628619
 20
5.474578105444187
 30
0.0
 10
2.934351634628619
 20
5.474578105444187
 30
0.0
 10
2.93329253691499
 20
5.475283273426313
 30
0.0
 10
2.93223478494179
 20
5.476342371139956
 30
0.0
 10
2.931177032968577
 20
5.477400123113156
 30
0.0
 10
2.931177032968577
 20
5.477400123113156
 30
0.0
 10
2.902601580806944
 20
5.508797592943778
 30
0.0
 10
2.902601580806944
 20
5.508797592943778
 30
0.0
 10
2.902601580806944
 20
5.508797592943778
 30
0.0
 10
2.879317579992182
 20
5.551130549459209
 30
0.0
 10
2.879317579992182
 20
5.551130549459209
 30
0.0
 10
2.879317579992182
 20
5.551130549459209
 30
0.0
 10
2.867324341334153
 20
5.596639453375097
 30
0.0
 10
2.867324341334153
 20
5.596639453375097
 30
0.0
 10
2.865207491647311
 20
5.605459436113505
 30
0.0
 10
2.870498942994181
 20
5.614278073111499
 30
0.0
 10
2.879317579992182
 20
5.616394922798328
 30
0.0
 10
2.887784978739517
 20
5.618511772485163
 30
0.0
 10
2.896957545468985
 20
5.613220321138285
 30
0.0
 10
2.899074395155828
 20
5.604752922390943
 30
0.0
 10
2.899074395155828
 20
5.604752922390943
 30
0.0
 10
2.90930471385851
 20
5.562772549866572
 30
0.0
 10
2.90930471385851
 20
5.562772549866572
 30
0.0
 10
2.90930471385851
 20
5.562772549866572
 30
0.0
 10
2.929060183281734
 20
5.527495310393796
 30
0.0
 10
2.929060183281734
 20
5.527495310393796
 30
0.0
 10
2.929060183281734
 20
5.527495310393796
 30
0.0
 10
2.953754520060776
 20
5.501036707918999
 30
0.0
 10
2.953754520060776
 20
5.501036707918999
 30
0.0
 10
2.953754520060776
 20
5.501036707918999
 30
0.0
 10
2.9886791755425
 20
5.478459220826792
 30
0.0
 10
2.9886791755425
 20
5.478459220826792
 30
0.0
 10
2.996440060567273
 20
5.473520353470973
 30
0.0
 10
2.998556910254116
 20
5.463642618759365
 30
0.0
 10
2.993618042898305
 20
5.455881733734578
 30
0.0
 10
2.990443441238262
 20
5.451295450369848
 30
0.0
 10
2.985151989891384
 20
5.448473432700872
 30
0.0
 10
2.979860538544521
 20
5.448473432700872
 30
0.0
  0
SPLINE
  5
310
330
1F
100
AcDbEntity
  8
Livello 1
370
     0
100
AcDbSpline
210
0.0
220
0.0
230
1.0
 70
     9
 71
     3
 72
    23
 73
    19
 74
     0
 42
0.000000001
 43
0.0000000001
 40
0.0
 40
0.0
 40
0.0
 40
0.0
 40
1.0
 40
1.0
 40
1.0
 40
2.0
 40
2.0
 40
2.0
 40
3.0
 40
3.0
 40
3.0
 40
4.0
 40
4.0
 40
4.0
 40
5.0
 40
5.0
 40
5.0
 40
6.0
 40
6.0
 40
6.0
 40
6.0
 10
2.880482991199301
 20
5.649662971818194
 30
0.0
 10
2.871310424469811
 20
5.649662971818194
 30
0.0
 10
2.864254707427171
 20
5.657071272851908
 30
0.0
 10
2.864254707427171
 20
5.665889909849894
 30
0.0
 10
2.864254707427171
 20
5.665889909849894
 30
0.0
 10
2.864254707427171
 20
5.691995928333625
 30
0.0
 10
2.864254707427171
 20
5.691995928333625
 30
0.0
 10
2.864254707427171
 20
5.701168495063086
 30
0.0
 10
2.871310424469811
 20
5.708576796096821
 30
0.0
 10
2.880482991199301
 20
5.708576796096821
 30
0.0
 10
2.889654212188347
 20
5.708576796096821
 30
0.0
 10
2.896709929231008
 20
5.701168495063086
 30
0.0
 10
2.896709929231008
 20
5.691995928333625
 30
0.0
 10
2.896709929231008
 20
5.691995928333625
 30
0.0
 10
2.896709929231008
 20
5.665889909849894
 30
0.0
 10
2.896709929231008
 20
5.665889909849894
 30
0.0
 10
2.896709929231008
 20
5.657071272851908
 30
0.0
 10
2.889654212188347
 20
5.649662971818194
 30
0.0
 10
2.880482991199301
 20
5.649662971818194
 30
0.0
  0
SPLINE
  5
311
330
1F
100
AcDbEntity
  8
Livello 1
370
     0
100
AcDbSpline
210
0.0
220
0.0
230
1.0
 70
     9
 71
     3
 72
    20
 73
    16
 74
     0
 42
0.000000001
 43
0.0000000001
 40
0.0
 40
0.0
 40
0.0
 40
0.0
 40
1.0
 40
1.0
 40
1.0
 40
2.0
 40
2.0
 40
2.0
 40
3.0
 40
3.0
 40
3.0
 40
4.0
 40
4.0
 40
4.0
 40
5.0
 40
5.0
 40
5.0
 40
5.0
 10
2.883128716872732
 20
5.60260242919351
 30
0.0
 10
2.873956150143264
 20
5.60260242919351
 30
0.0
 10
2.865488751395915
 20
5.610010730227223
 30
0.0
 10
2.865488751395915
 20
5.61882936722521
 30
0.0
 10
2.865488751395915
 20
5.628001933954692
 30
0.0
 10
2.871486716465348
 20
5.635410234988398
 30
0.0
 10
2.880305353463334
 20
5.635410234988398
 30
0.0
 10
2.880305353463334
 20
5.635410234988398
 30
0.0
 10
2.883128716872732
 20
5.635410234988398
 30
0.0
 10
2.883128716872732
 20
5.635410234988398
 30
0.0
 10
2.892299937861785
 20
5.635410234988398
 30
0.0
 10
2.899355654904432
 20
5.628001933954692
 30
0.0
 10
2.899355654904432
 20
5.61882936722521
 30
0.0
 10
2.899355654904432
 20
5.610010730227223
 30
0.0
 10
2.892299937861785
 20
5.60260242919351
 30
0.0
 10
2.883128716872732
 20
5.60260242919351
 30
0.0
  0
SPLINE
  5
312
330
1F
100
AcDbEntity
  8
Livello 1
370
     0
100
AcDbSpline
210
0.0
220
0.0
230
1.0
 70
     9
 71
     3
 72
    20
 73
    16
 74
     0
 42
0.000000001
 43
0.0000000001
 40
0.0
 40
0.0
 40
0.0
 40
0.0
 40
1.0
 40
1.0
 40
1.0
 40
2.0
 40
2.0
 40
2.0
 40
3.0
 40
3.0
 40
3.0
 40
4.0
 40
4.0
 40
4.0
 40
5.0
 40
5.0
 40
5.0
 40
5.0
 10
2.883128716872732
 20
5.675803979552959
 30
0.0
 10
2.873956150143264
 20
5.675803979552959
 30
0.0
 10
2.865488751395915
 20
5.683212280586651
 30
0.0
 10
2.865488751395915
 20
5.692030917584652
 30
0.0
 10
2.865488751395915
 20
5.70120348431412
 30
0.0
 10
2.871486716465348
 20
5.708611785347834
 30
0.0
 10
2.880305353463334
 20
5.708611785347834
 30
0.0
 10
2.880305353463334
 20
5.708611785347834
 30
0.0
 10
2.883128716872732
 20
5.708611785347834
 30
0.0
 10
2.883128716872732
 20
5.708611785347834
 30
0.0
 10
2.892299937861785
 20
5.708611785347834
 30
0.0
 10
2.899355654904432
 20
5.70120348431412
 30
0.0
 10
2.899355654904432
 20
5.692030917584652
 30
0.0
 10
2.899355654904432
 20
5.683212280586651
 30
0.0
 10
2.892299937861785
 20
5.675803979552959
 30
0.0
 10
2.883128716872732
 20
5.675803979552959
 30
0.0
  0
SPLINE
  5
313
330
1F
100
AcDbEntity
  8
Livello 1
370
     0
100
AcDbSpline
210
0.0
220
0.0
230
1.0
 70
     9
 71
     3
 72
    23
 73
    19
 74
     0
 42
0.000000001
 43
0.0000000001
 40
0.0
 40
0.0
 40
0.0
 40
0.0
 40
1.0
 40
1.0
 40
1.0
 40
2.0
 40
2.0
 40
2.0
 40
3.0
 40
3.0
 40
3.0
 40
4.0
 40
4.0
 40
4.0
 40
5.0
 40
5.0
 40
5.0
 40
6.0
 40
6.0
 40
6.0
 40
6.0
 10
2.880482991199301
 20
5.675803979552959
 30
0.0
 10
2.871310424469811
 20
5.675803979552959
 30
0.0
 10
2.864254707427171
 20
5.683212280586651
 30
0.0
 10
2.864254707427171
 20
5.692030917584652
 30
0.0
 10
2.864254707427171
 20
5.692030917584652
 30
0.0
 10
2.864254707427171
 20
6.083967050129622
 30
0.0
 10
2.864254707427171
 20
6.083967050129622
 30
0.0
 10
2.864254707427171
 20
6.093139616859097
 30
0.0
 10
2.871310424469811
 20
6.100547917892804
 30
0.0
 10
2.880482991199301
 20
6.100547917892804
 30
0.0
 10
2.889654212188347
 20
6.100547917892804
 30
0.0
 10
2.896709929231008
 20
6.093139616859097
 30
0.0
 10
2.896709929231008
 20
6.083967050129622
 30
0.0
 10
2.896709929231008
 20
6.083967050129622
 30
0.0
 10
2.896709929231008
 20
5.692030917584652
 30
0.0
 10
2.896709929231008
 20
5.692030917584652
 30
0.0
 10
2.896709929231008
 20
5.683212280586651
 30
0.0
 10
2.889654212188347
 20
5.675803979552959
 30
0.0
 10
2.880482991199301
 20
5.675803979552959
 30
0.0
  0
SPLINE
  5
314
330
1F
100
AcDbEntity
  8
Livello 1
370
     0
100
AcDbSpline
210
0.0
220
0.0
230
1.0
 70
     9
 71
     3
 72
    26
 73
    22
 74
     0
 42
0.000000001
 43
0.0000000001
 40
0.0
 40
0.0
 40
0.0
 40
0.0
 40
1.0
 40
1.0
 40
1.0
 40
2.0
 40
2.0
 40
2.0
 40
3.0
 40
3.0
 40
3.0
 40
4.0
 40
4.0
 40
4.0
 40
5.0
 40
5.0
 40
5.0
 40
6.0
 40
6.0
 40
6.0
 40
7.0
 40
7.0
 40
7.0
 40
7.0
 10
2.880482991199301
 20
6.65839500434189
 30
0.0
 10
2.871310424469811
 20
6.65839500434189
 30
0.0
 10
2.864254707427171
 20
6.665803305375604
 30
0.0
 10
2.864254707427171
 20
6.674621942373583
 30
0.0
 10
2.864254707427171
 20
6.674621942373583
 30
0.0
 10
2.864254707427171
 20
6.805503273042901
 30
0.0
 10
2.864254707427171
 20
6.805503273042901
 30
0.0
 10
2.864254707427171
 20
6.814321910040888
 30
0.0
 10
2.871310424469811
 20
6.821730211074608
 30
0.0
 10
2.880482991199301
 20
6.821730211074608
 30
0.0
 10
2.889654212188347
 20
6.821730211074608
 30
0.0
 10
2.898121610935689
 20
6.814321910040888
 30
0.0
 10
2.898121610935689
 20
6.805503273042901
 30
0.0
 10
2.898121610935689
 20
6.803033839364999
 30
0.0
 10
2.897769026944615
 20
6.800564405687097
 30
0.0
 10
2.896709929231008
 20
6.798447556000262
 30
0.0
 10
2.896709929231008
 20
6.798447556000262
 30
0.0
 10
2.896709929231008
 20
6.674621942373583
 30
0.0
 10
2.896709929231008
 20
6.674621942373583
 30
0.0
 10
2.896709929231008
 20
6.665803305375604
 30
0.0
 10
2.889654212188347
 20
6.65839500434189
 30
0.0
 10
2.880482991199301
 20
6.65839500434189
 30
0.0
  0
SPLINE
  5
315
330
1F
100
AcDbEntity
  8
Livello 1
370
     0
100
AcDbSpline
210
0.0
220
0.0
230
1.0
 70
     9
 71
     3
 72
    20
 73
    16
 74
     0
 42
0.000000001
 43
0.0000000001
 40
0.0
 40
0.0
 40
0.0
 40
0.0
 40
1.0
 40
1.0
 40
1.0
 40
2.0
 40
2.0
 40
2.0
 40
3.0
 40
3.0
 40
3.0
 40
4.0
 40
4.0
 40
4.0
 40
5.0
 40
5.0
 40
5.0
 40
5.0
 10
2.883128716872732
 20
6.65839500434189
 30
0.0
 10
2.873956150143264
 20
6.65839500434189
 30
0.0
 10
2.865488751395915
 20
6.665803305375604
 30
0.0
 10
2.865488751395915
 20
6.674621942373583
 30
0.0
 10
2.865488751395915
 20
6.683794509103073
 30
0.0
 10
2.871486716465348
 20
6.691202810136779
 30
0.0
 10
2.880305353463334
 20
6.691202810136779
 30
0.0
 10
2.880305353463334
 20
6.691202810136779
 30
0.0
 10
2.883128716872732
 20
6.691202810136779
 30
0.0
 10
2.883128716872732
 20
6.691202810136779
 30
0.0
 10
2.892299937861785
 20
6.691202810136779
 30
0.0
 10
2.899355654904432
 20
6.683794509103073
 30
0.0
 10
2.899355654904432
 20
6.674621942373583
 30
0.0
 10
2.899355654904432
 20
6.665803305375604
 30
0.0
 10
2.892299937861785
 20
6.65839500434189
 30
0.0
 10
2.883128716872732
 20
6.65839500434189
 30
0.0
  0
SPLINE
  5
316
330
1F
100
AcDbEntity
  8
Livello 1
370
     0
100
AcDbSpline
210
0.0
220
0.0
230
1.0
 70
     9
 71
     3
 72
    26
 73
    22
 74
     0
 42
0.000000001
 43
0.0000000001
 40
0.0
 40
0.0
 40
0.0
 40
0.0
 40
1.0
 40
1.0
 40
1.0
 40
2.0
 40
2.0
 40
2.0
 40
3.0
 40
3.0
 40
3.0
 40
4.0
 40
4.0
 40
4.0
 40
5.0
 40
5.0
 40
5.0
 40
6.0
 40
6.0
 40
6.0
 40
7.0
 40
7.0
 40
7.0
 40
7.0
 10
2.979860538544521
 20
6.943299018010364
 30
0.0
 10
2.973157405492933
 20
6.943299018010364
 30
0.0
 10
2.9671594404235
 20
6.947178787652539
 30
0.0
 10
2.964690006745598
 20
6.953881920704112
 30
0.0
 10
2.961515405085556
 20
6.962347973711025
 30
0.0
 10
2.965749104459227
 20
6.971873124431567
 30
0.0
 10
2.974215157466154
 20
6.975047726091609
 30
0.0
 10
2.974215157466154
 20
6.975047726091609
 30
0.0
 10
2.995029724603007
 20
6.982809956856819
 30
0.0
 10
2.995029724603007
 20
6.982809956856819
 30
0.0
 10
3.003495777609913
 20
6.985984558516854
 30
0.0
 10
3.012668344339402
 20
6.981750859143183
 30
0.0
 10
3.015842945999445
 20
6.97328480613627
 30
0.0
 10
3.019017547659473
 20
6.964817407388927
 30
0.0
 10
3.014785194026231
 20
6.955292256668371
 30
0.0
 10
3.006317795278881
 20
6.952117655008343
 30
0.0
 10
3.006317795278881
 20
6.952117655008343
 30
0.0
 10
2.985504573882458
 20
6.944356769983571
 30
0.0
 10
2.985504573882458
 20
6.944356769983571
 30
0.0
 10
2.983740308186696
 20
6.94365160200143
 30
0.0
 10
2.981623458499861
 20
6.943299018010364
 30
0.0
 10
2.979860538544521
 20
6.943299018010364
 30
0.0
  0
SPLINE
  5
317
330
1F
100
AcDbEntity
  8
Livello 1
370
     0
100
AcDbSpline
210
0.0
220
0.0
230
1.0
 70
     9
 71
     3
 72
    26
 73
    22
 74
     0
 42
0.000000001
 43
0.0000000001
 40
0.0
 40
0.0
 40
0.0
 40
0.0
 40
1.0
 40
1.0
 40
1.0
 40
2.0
 40
2.0
 40
2.0
 40
3.0
 40
3.0
 40
3.0
 40
4.0
 40
4.0
 40
4.0
 40
5.0
 40
5.0
 40
5.0
 40
6.0
 40
6.0
 40
6.0
 40
7.0
 40
7.0
 40
7.0
 40
7.0
 10
3.000710094932401
 20
5.440641223433622
 30
0.0
 10
2.998945829236625
 20
5.440641223433622
 30
0.0
 10
2.996828979549789
 20
5.440993807424689
 30
0.0
 10
2.995064713854027
 20
5.441698975406829
 30
0.0
 10
2.995064713854027
 20
5.441698975406829
 30
0.0
 10
2.97425149245759
 20
5.449459860431616
 30
0.0
 10
2.97425149245759
 20
5.449459860431616
 30
0.0
 10
2.965784093710254
 20
5.452634462091658
 30
0.0
 10
2.961551740077013
 20
5.4621596128122
 30
0.0
 10
2.964726341737041
 20
5.470627011559543
 30
0.0
 10
2.967900943397083
 20
5.479093064566463
 30
0.0
 10
2.977426094117625
 20
5.483326763940127
 30
0.0
 10
2.985539563133478
 20
5.480152162280084
 30
0.0
 10
2.985539563133478
 20
5.480152162280084
 30
0.0
 10
3.006354130270338
 20
5.472389931514882
 30
0.0
 10
3.006354130270338
 20
5.472389931514882
 30
0.0
 10
3.014820183277265
 20
5.469215329854833
 30
0.0
 10
3.019053882650922
 20
5.459690179134298
 30
0.0
 10
3.015879280990887
 20
5.451224126127371
 30
0.0
 10
3.013409847312978
 20
5.444520993075805
 30
0.0
 10
3.007411882243545
 20
5.440641223433622
 30
0.0
 10
3.000710094932401
 20
5.440641223433622
 30
0.0
  0
SPLINE
  5
318
330
1F
100
AcDbEntity
  8
Livello 1
370
     0
100
AcDbSpline
210
0.0
220
0.0
230
1.0
 70
     9
 71
     3
 72
    50
 73
    46
 74
     0
 42
0.000000001
 43
0.0000000001
 40
0.0
 40
0.0
 40
0.0
 40
0.0
 40
1.0
 40
1.0
 40
1.0
 40
2.0
 40
2.0
 40
2.0
 40
3.0
 40
3.0
 40
3.0
 40
4.0
 40
4.0
 40
4.0
 40
5.0
 40
5.0
 40
5.0
 40
6.0
 40
6.0
 40
6.0
 40
7.0
 40
7.0
 40
7.0
 40
8.0
 40
8.0
 40
8.0
 40
9.0
 40
9.0
 40
9.0
 40
10.0
 40
10.0
 40
10.0
 40
11.0
 40
11.0
 40
11.0
 40
12.0
 40
12.0
 40
12.0
 40
13.0
 40
13.0
 40
13.0
 40
14.0
 40
14.0
 40
14.0
 40
15.0
 40
15.0
 40
15.0
 40
15.0
 10
3.02427535549576
 20
6.95631636513098
 30
0.0
 10
3.01651312473055
 20
6.95631636513098
 30
0.0
 10
3.009457407687911
 20
6.961960400468932
 30
0.0
 10
3.00804707172363
 20
6.970073869484792
 30
0.0
 10
3.006635390018942
 20
6.978893852223201
 30
0.0
 10
3.012985939079435
 20
6.987359905230107
 30
0.0
 10
3.021804576077435
 20
6.988771586934809
 30
0.0
 10
3.021804576077435
 20
6.988771586934809
 30
0.0
 10
3.105414082875512
 20
7.00182392330646
 30
0.0
 10
3.105414082875512
 20
7.00182392330646
 30
0.0
 10
3.105414082875512
 20
7.00182392330646
 30
0.0
 10
3.226063749101726
 20
7.0240488264076
 30
0.0
 10
3.226063749101726
 20
7.0240488264076
 30
0.0
 10
3.228180598788554
 20
7.025107924121229
 30
0.0
 10
3.230650032466471
 20
7.025460508112303
 30
0.0
 10
3.233119466144373
 20
7.025460508112303
 30
0.0
 10
3.233119466144373
 20
7.025460508112303
 30
0.0
 10
3.591188695180825
 20
7.025460508112303
 30
0.0
 10
3.591188695180825
 20
7.025460508112303
 30
0.0
 10
3.600361261910293
 20
7.025460508112303
 30
0.0
 10
3.607769562944021
 20
7.018404791069642
 30
0.0
 10
3.607769562944021
 20
7.009232224340173
 30
0.0
 10
3.607769562944021
 20
7.000059657610698
 30
0.0
 10
3.600361261910293
 20
6.993003940568051
 30
0.0
 10
3.591188695180825
 20
6.993003940568051
 30
0.0
 10
3.591188695180825
 20
6.993003940568051
 30
0.0
 10
3.235236315831194
 20
6.991946188594837
 30
0.0
 10
3.235236315831194
 20
6.991946188594837
 30
0.0
 10
3.233119466144373
 20
6.990888436621638
 30
0.0
 10
3.230650032466471
 20
6.99018192289909
 30
0.0
 10
3.228180598788554
 20
6.99018192289909
 30
0.0
 10
3.228180598788554
 20
6.99018192289909
 30
0.0
 10
3.222889147441691
 20
6.99018192289909
 30
0.0
 10
3.222889147441691
 20
6.99018192289909
 30
0.0
 10
3.222889147441691
 20
6.99018192289909
 30
0.0
 10
3.179144509221544
 20
6.982773621865369
 30
0.0
 10
3.179144509221544
 20
6.982773621865369
 30
0.0
 10
3.179144509221544
 20
6.982773621865369
 30
0.0
 10
3.111058118213456
 20
6.969721285493719
 30
0.0
 10
3.111058118213456
 20
6.969721285493719
 30
0.0
 10
3.111058118213456
 20
6.969721285493719
 30
0.0
 10
3.026744789173662
 20
6.956668949122047
 30
0.0
 10
3.026744789173662
 20
6.956668949122047
 30
0.0
 10
3.026038275451099
 20
6.95631636513098
 30
0.0
 10
3.024980523477886
 20
6.95631636513098
 30
0.0
 10
3.02427535549576
 20
6.95631636513098
 30
0.0
  0
SPLINE
  5
319
330
1F
100
AcDbEntity
  8
Livello 1
370
     0
100
AcDbSpline
210
0.0
220
0.0
230
1.0
 70
     9
 71
     3
 72
    26
 73
    22
 74
     0
 42
0.000000001
 43
0.0000000001
 40
0.0
 40
0.0
 40
0.0
 40
0.0
 40
1.0
 40
1.0
 40
1.0
 40
2.0
 40
2.0
 40
2.0
 40
3.0
 40
3.0
 40
3.0
 40
4.0
 40
4.0
 40
4.0
 40
5.0
 40
5.0
 40
5.0
 40
6.0
 40
6.0
 40
6.0
 40
7.0
 40
7.0
 40
7.0
 40
7.0
 10
3.000710094932401
 20
6.951129881537184
 30
0.0
 10
2.993300448158258
 20
6.951129881537184
 30
0.0
 10
2.986598660847114
 20
6.956421332884055
 30
0.0
 10
2.984834395151345
 20
6.963829633917761
 30
0.0
 10
2.98271754546451
 20
6.972648270915762
 30
0.0
 10
2.988361580802447
 20
6.981468253654156
 30
0.0
 10
2.997181563540863
 20
6.983232519349932
 30
0.0
 10
2.997181563540863
 20
6.983232519349932
 30
0.0
 10
3.020818148346691
 20
6.988523970696803
 30
0.0
 10
3.020818148346691
 20
6.988523970696803
 30
0.0
 10
3.029989369335758
 20
6.990286890652143
 30
0.0
 10
3.038456768083086
 20
6.984995439305279
 30
0.0
 10
3.040221033778855
 20
6.976176802307286
 30
0.0
 10
3.042336537725255
 20
6.967356819568877
 30
0.0
 10
3.03669250238731
 20
6.95853818257089
 30
0.0
 10
3.027873865389331
 20
6.956773916875128
 30
0.0
 10
3.027873865389331
 20
6.956773916875128
 30
0.0
 10
3.004237280583502
 20
6.95148246552825
 30
0.0
 10
3.004237280583502
 20
6.95148246552825
 30
0.0
 10
3.003179528610296
 20
6.951129881537184
 30
0.0
 10
3.001767846905593
 20
6.951129881537184
 30
0.0
 10
3.000710094932401
 20
6.951129881537184
 30
0.0
  0
SPLINE
  5
31A
330
1F
100
AcDbEntity
  8
Livello 1
370
     0
100
AcDbSpline
210
0.0
220
0.0
230
1.0
 70
     9
 71
     3
 72
    23
 73
    19
 74
     0
 42
0.000000001
 43
0.0000000001
 40
0.0
 40
0.0
 40
0.0
 40
0.0
 40
1.0
 40
1.0
 40
1.0
 40
2.0
 40
2.0
 40
2.0
 40
3.0
 40
3.0
 40
3.0
 40
4.0
 40
4.0
 40
4.0
 40
5.0
 40
5.0
 40
5.0
 40
6.0
 40
6.0
 40
6.0
 40
6.0
 10
3.591331343665764
 20
5.396191417231364
 30
0.0
 10
3.591331343665764
 20
5.396191417231364
 30
0.0
 10
3.23608413229828
 20
5.396191417231364
 30
0.0
 10
3.23608413229828
 20
5.396191417231364
 30
0.0
 10
3.226911565568798
 20
5.396191417231364
 30
0.0
 10
3.219503264535084
 20
5.40359971826507
 30
0.0
 10
3.219503264535084
 20
5.412418355263056
 30
0.0
 10
3.219503264535084
 20
5.421590921992532
 30
0.0
 10
3.226911565568798
 20
5.428999223026252
 30
0.0
 10
3.23608413229828
 20
5.428999223026252
 30
0.0
 10
3.23608413229828
 20
5.428999223026252
 30
0.0
 10
3.591331343665764
 20
5.428999223026252
 30
0.0
 10
3.591331343665764
 20
5.428999223026252
 30
0.0
 10
3.600502564654817
 20
5.428999223026252
 30
0.0
 10
3.607558281697457
 20
5.421590921992532
 30
0.0
 10
3.607558281697457
 20
5.412418355263056
 30
0.0
 10
3.607558281697457
 20
5.40359971826507
 30
0.0
 10
3.600502564654817
 20
5.396191417231364
 30
0.0
 10
3.591331343665764
 20
5.396191417231364
 30
0.0
  0
SPLINE
  5
31B
330
1F
100
AcDbEntity
  8
Livello 1
370
     0
100
AcDbSpline
210
0.0
220
0.0
230
1.0
 70
     9
 71
     3
 72
    41
 73
    37
 74
     0
 42
0.000000001
 43
0.0000000001
 40
0.0
 40
0.0
 40
0.0
 40
0.0
 40
1.0
 40
1.0
 40
1.0
 40
2.0
 40
2.0
 40
2.0
 40
3.0
 40
3.0
 40
3.0
 40
4.0
 40
4.0
 40
4.0
 40
5.0
 40
5.0
 40
5.0
 40
6.0
 40
6.0
 40
6.0
 40
7.0
 40
7.0
 40
7.0
 40
8.0
 40
8.0
 40
8.0
 40
9.0
 40
9.0
 40
9.0
 40
10.0
 40
10.0
 40
10.0
 40
11.0
 40
11.0
 40
11.0
 40
12.0
 40
12.0
 40
12.0
 40
12.0
 10
3.234072250364512
 20
5.396791617460422
 30
0.0
 10
3.231248886955107
 20
5.396791617460422
 30
0.0
 10
3.228426869286138
 20
5.397496785442562
 30
0.0
 10
3.225957435608222
 20
5.399613635129405
 30
0.0
 10
3.19632423147339
 20
5.402788236789447
 30
0.0
 10
3.166338443347484
 20
5.408079688136325
 30
0.0
 10
3.137762991185837
 20
5.413371139483196
 30
0.0
 10
3.114832920102564
 20
5.41760483885686
 30
0.0
 10
3.091901503278869
 20
5.421838538230538
 30
0.0
 10
3.068971432195596
 20
5.42501313989058
 30
0.0
 10
3.068971432195596
 20
5.42501313989058
 30
0.0
 10
3.020640510610725
 20
5.435596042584329
 30
0.0
 10
3.020640510610725
 20
5.435596042584329
 30
0.0
 10
3.011821873612746
 20
5.437712892271157
 30
0.0
 10
3.006176492534379
 20
5.44653287500958
 30
0.0
 10
3.008293342221222
 20
5.455351512007553
 30
0.0
 10
3.010410191908043
 20
5.464171494745968
 30
0.0
 10
3.018877590655385
 20
5.469462946092846
 30
0.0
 10
3.027696227653379
 20
5.467698680397077
 30
0.0
 10
3.027696227653379
 20
5.467698680397077
 30
0.0
 10
3.074969397265043
 20
5.457115777703329
 30
0.0
 10
3.074969397265043
 20
5.457115777703329
 30
0.0
 10
3.09684037063468
 20
5.454293760034353
 30
0.0
 10
3.120124371449442
 20
5.450060060660689
 30
0.0
 10
3.143407026523775
 20
5.445473777295944
 30
0.0
 10
3.173394160390117
 20
5.440182325949074
 30
0.0
 10
3.204437700489236
 20
5.434538290611129
 30
0.0
 10
3.234777418346652
 20
5.431363688951087
 30
0.0
 10
3.238657187988813
 20
5.431009759219591
 30
0.0
 10
3.242185719380337
 20
5.429246839264251
 30
0.0
 10
3.244655153058261
 20
5.426777405586342
 30
0.0
 10
3.251004356378338
 20
5.420426856525843
 30
0.0
 10
3.25241603808304
 20
5.408784856118465
 30
0.0
 10
3.246065489022541
 20
5.402435652798381
 30
0.0
 10
3.242538303371418
 20
5.398907121406843
 30
0.0
 10
3.238304603997754
 20
5.396791617460422
 30
0.0
 10
3.234072250364512
 20
5.396791617460422
 30
0.0
  0
SPLINE
  5
31C
330
1F
100
AcDbEntity
  8
Livello 1
370
     0
100
AcDbSpline
210
0.0
220
0.0
230
1.0
 70
     9
 71
     3
 72
    26
 73
    22
 74
     0
 42
0.000000001
 43
0.0000000001
 40
0.0
 40
0.0
 40
0.0
 40
0.0
 40
1.0
 40
1.0
 40
1.0
 40
2.0
 40
2.0
 40
2.0
 40
3.0
 40
3.0
 40
3.0
 40
4.0
 40
4.0
 40
4.0
 40
5.0
 40
5.0
 40
5.0
 40
6.0
 40
6.0
 40
6.0
 40
7.0
 40
7.0
 40
7.0
 40
7.0
 10
3.02427535549576
 20
5.435349772086759
 30
0.0
 10
3.023216257782124
 20
5.435349772086759
 30
0.0
 10
3.021804576077435
 20
5.435349772086759
 30
0.0
 10
3.020746824104222
 20
5.435702356077818
 30
0.0
 10
3.020746824104222
 20
5.435702356077818
 30
0.0
 10
2.9971102392984
 20
5.440993807424689
 30
0.0
 10
2.9971102392984
 20
5.440993807424689
 30
0.0
 10
2.988291602300407
 20
5.443110657111539
 30
0.0
 10
2.982647566962455
 20
5.451576710118452
 30
0.0
 10
2.984763070908883
 20
5.460396692856861
 30
0.0
 10
2.986879920595704
 20
5.469215329854833
 30
0.0
 10
2.995347319343053
 20
5.474506781201718
 30
0.0
 10
3.00416595634104
 20
5.472743861246378
 30
0.0
 10
3.00416595634104
 20
5.472743861246378
 30
0.0
 10
3.027802541146868
 20
5.467452409899493
 30
0.0
 10
3.027802541146868
 20
5.467452409899493
 30
0.0
 10
3.036622523885277
 20
5.465688144203731
 30
0.0
 10
3.042266559223222
 20
5.456868161465322
 30
0.0
 10
3.040149709536379
 20
5.448049524467336
 30
0.0
 10
3.038385443840617
 20
5.440641223433622
 30
0.0
 10
3.031683656529473
 20
5.435349772086759
 30
0.0
 10
3.02427535549576
 20
5.435349772086759
 30
0.0
  0
SPLINE
  5
31D
330
1F
100
AcDbEntity
  8
Livello 1
370
     0
100
AcDbSpline
210
0.0
220
0.0
230
1.0
 70
     9
 71
     3
 72
   260
 73
   256
 74
     0
 42
0.000000001
 43
0.0000000001
 40
0.0
 40
0.0
 40
0.0
 40
0.0
 40
1.0
 40
1.0
 40
1.0
 40
2.0
 40
2.0
 40
2.0
 40
3.0
 40
3.0
 40
3.0
 40
4.0
 40
4.0
 40
4.0
 40
5.0
 40
5.0
 40
5.0
 40
6.0
 40
6.0
 40
6.0
 40
7.0
 40
7.0
 40
7.0
 40
8.0
 40
8.0
 40
8.0
 40
9.0
 40
9.0
 40
9.0
 40
10.0
 40
10.0
 40
10.0
 40
11.0
 40
11.0
 40
11.0
 40
12.0
 40
12.0
 40
12.0
 40
13.0
 40
13.0
 40
13.0
 40
14.0
 40
14.0
 40
14.0
 40
15.0
 40
15.0
 40
15.0
 40
16.0
 40
16.0
 40
16.0
 40
17.0
 40
17.0
 40
17.0
 40
18.0
 40
18.0
 40
18.0
 40
19.0
 40
19.0
 40
19.0
 40
20.0
 40
20.0
 40
20.0
 40
21.0
 40
21.0
 40
21.0
 40
22.0
 40
22.0
 40
22.0
 40
23.0
 40
23.0
 40
23.0
 40
24.0
 40
24.0
 40
24.0
 40
25.0
 40
25.0
 40
25.0
 40
26.0
 40
26.0
 40
26.0
 40
27.0
 40
27.0
 40
27.0
 40
28.0
 40
28.0
 40
28.0
 40
29.0
 40
29.0
 40
29.0
 40
30.0
 40
30.0
 40
30.0
 40
31.0
 40
31.0
 40
31.0
 40
32.0
 40
32.0
 40
32.0
 40
33.0
 40
33.0
 40
33.0
 40
34.0
 40
34.0
 40
34.0
 40
35.0
 40
35.0
 40
35.0
 40
36.0
 40
36.0
 40
36.0
 40
37.0
 40
37.0
 40
37.0
 40
38.0
 40
38.0
 40
38.0
 40
39.0
 40
39.0
 40
39.0
 40
40.0
 40
40.0
 40
40.0
 40
41.0
 40
41.0
 40
41.0
 40
42.0
 40
42.0
 40
42.0
 40
43.0
 40
43.0
 40
43.0
 40
44.0
 40
44.0
 40
44.0
 40
45.0
 40
45.0
 40
45.0
 40
46.0
 40
46.0
 40
46.0
 40
47.0
 40
47.0
 40
47.0
 40
48.0
 40
48.0
 40
48.0
 40
49.0
 40
49.0
 40
49.0
 40
50.0
 40
50.0
 40
50.0
 40
51.0
 40
51.0
 40
51.0
 40
52.0
 40
52.0
 40
52.0
 40
53.0
 40
53.0
 40
53.0
 40
54.0
 40
54.0
 40
54.0
 40
55.0
 40
55.0
 40
55.0
 40
56.0
 40
56.0
 40
56.0
 40
57.0
 40
57.0
 40
57.0
 40
58.0
 40
58.0
 40
58.0
 40
59.0
 40
59.0
 40
59.0
 40
60.0
 40
60.0
 40
60.0
 40
61.0
 40
61.0
 40
61.0
 40
62.0
 40
62.0
 40
62.0
 40
63.0
 40
63.0
 40
63.0
 40
64.0
 40
64.0
 40
64.0
 40
65.0
 40
65.0
 40
65.0
 40
66.0
 40
66.0
 40
66.0
 40
67.0
 40
67.0
 40
67.0
 40
68.0
 40
68.0
 40
68.0
 40
69.0
 40
69.0
 40
69.0
 40
70.0
 40
70.0
 40
70.0
 40
71.0
 40
71.0
 40
71.0
 40
72.0
 40
72.0
 40
72.0
 40
73.0
 40
73.0
 40
73.0
 40
74.0
 40
74.0
 40
74.0
 40
75.0
 40
75.0
 40
75.0
 40
76.0
 40
76.0
 40
76.0
 40
77.0
 40
77.0
 40
77.0
 40
78.0
 40
78.0
 40
78.0
 40
79.0
 40
79.0
 40
79.0
 40
80.0
 40
80.0
 40
80.0
 40
81.0
 40
81.0
 40
81.0
 40
82.0
 40
82.0
 40
82.0
 40
83.0
 40
83.0
 40
83.0
 40
84.0
 40
84.0
 40
84.0
 40
85.0
 40
85.0
 40
85.0
 40
85.0
 10
4.189783455925955
 20
7.079152859546084
 30
0.0
 10
4.18590234054335
 20
7.079152859546084
 30
0.0
 10
4.181668641169679
 20
7.080563195510364
 30
0.0
 10
4.178494039509629
 20
7.083737797170392
 30
0.0
 10
4.172143490449123
 20
7.090088346230899
 30
0.0
 10
4.171790906458063
 20
7.100318664933588
 30
0.0
 10
4.178141455518563
 20
7.106669213994088
 30
0.0
 10
4.178141455518563
 20
7.106669213994088
 30
0.0
 10
4.232821580423518
 20
7.165583038272707
 30
0.0
 10
4.232821580423518
 20
7.165583038272707
 30
0.0
 10
4.233526748405658
 20
7.166993374236987
 30
0.0
 10
4.234585846119287
 20
7.16840505594169
 30
0.0
 10
4.235643598092501
 20
7.169816737646371
 30
0.0
 10
4.235643598092501
 20
7.169816737646371
 30
0.0
 10
4.246227846526657
 20
7.180399640340141
 30
0.0
 10
4.246227846526657
 20
7.180399640340141
 30
0.0
 10
4.247285598499871
 20
7.181457392313333
 30
0.0
 10
4.248697280204581
 20
7.182516490026962
 30
0.0
 10
4.250460200159913
 20
7.183221658009109
 30
0.0
 10
4.250460200159913
 20
7.183221658009109
 30
0.0
 10
4.25081278415098
 20
7.18392682599125
 30
0.0
 10
4.25081278415098
 20
7.18392682599125
 30
0.0
 10
4.252577049846756
 20
7.187102773391707
 30
0.0
 10
4.255046483524644
 20
7.189572207069609
 30
0.0
 10
4.2582210851847
 20
7.190982543033889
 30
0.0
 10
4.2582210851847
 20
7.190982543033889
 30
0.0
 10
4.261397032585151
 20
7.192746808729651
 30
0.0
 10
4.261397032585151
 20
7.192746808729651
 30
0.0
 10
4.263159952540505
 20
7.194157144693932
 30
0.0
 10
4.264924218236266
 20
7.195921410389694
 30
0.0
 10
4.265983315949895
 20
7.196273994380753
 30
0.0
 10
4.265983315949895
 20
7.196273994380753
 30
0.0
 10
4.266688483932036
 20
7.196980508103322
 30
0.0
 10
4.266688483932036
 20
7.196980508103322
 30
0.0
 10
4.268098819896309
 20
7.200155109763365
 30
0.0
 10
4.2709221833057
 20
7.20262454344126
 30
0.0
 10
4.274096784965735
 20
7.20403487940554
 30
0.0
 10
4.274096784965735
 20
7.20403487940554
 30
0.0
 10
4.282210253981602
 20
7.208268578779211
 30
0.0
 10
4.282210253981602
 20
7.208268578779211
 30
0.0
 10
4.283974519677364
 20
7.209680260483906
 30
0.0
 10
4.286091369364193
 20
7.211444526179676
 30
0.0
 10
4.286796537346333
 20
7.211797110170749
 30
0.0
 10
4.286796537346333
 20
7.211797110170749
 30
0.0
 10
4.287501705328473
 20
7.212502278152889
 30
0.0
 10
4.287501705328473
 20
7.212502278152889
 30
0.0
 10
4.289265971024235
 20
7.215676879812932
 30
0.0
 10
4.291735404702137
 20
7.218146313490819
 30
0.0
 10
4.294910006362179
 20
7.219910579186581
 30
0.0
 10
4.294910006362179
 20
7.219910579186581
 30
0.0
 10
4.303377405109522
 20
7.22414427856026
 30
0.0
 10
4.303377405109522
 20
7.22414427856026
 30
0.0
 10
4.304787741073802
 20
7.22555461452454
 30
0.0
 10
4.306904590760623
 20
7.227318880220302
 30
0.0
 10
4.307963688474266
 20
7.227671464211361
 30
0.0
 10
4.307963688474266
 20
7.227671464211361
 30
0.0
 10
4.321368608836984
 20
7.234374597262949
 30
0.0
 10
4.321368608836984
 20
7.234374597262949
 30
0.0
 10
4.323132874532745
 20
7.236138862958711
 30
0.0
 10
4.325249724219588
 20
7.237549198922977
 30
0.0
 10
4.326307476192788
 20
7.238254366905117
 30
0.0
 10
4.326307476192788
 20
7.238254366905117
 30
0.0
 10
4.336537794895477
 20
7.243193234260921
 30
0.0
 10
4.336537794895477
 20
7.243193234260921
 30
0.0
 10
4.338654644582312
 20
7.244252331974557
 30
0.0
 10
4.340771494269155
 20
7.245662667938823
 30
0.0
 10
4.342535759964903
 20
7.246721765652466
 30
0.0
 10
4.347122043329648
 20
7.250248951303582
 30
0.0
 10
4.354177760372294
 20
7.255187818659372
 30
0.0
 10
4.363701565352414
 20
7.255894332381949
 30
0.0
 10
4.365113247057124
 20
7.256952084355148
 30
0.0
 10
4.366877512752878
 20
7.25871635005091
 30
0.0
 10
4.367935264726085
 20
7.259068934041977
 30
0.0
 10
4.367935264726085
 20
7.259068934041977
 30
0.0
 10
4.37851951316027
 20
7.264360385388854
 30
0.0
 10
4.37851951316027
 20
7.264360385388854
 30
0.0
 10
4.380988946838172
 20
7.265419483102483
 30
0.0
 10
4.383104450784578
 20
7.266124651084624
 30
0.0
 10
4.385927814193976
 20
7.266124651084624
 30
0.0
 10
4.385927814193976
 20
7.266124651084624
 30
0.0
 10
4.386985566167183
 20
7.266124651084624
 30
0.0
 10
4.386985566167183
 20
7.266124651084624
 30
0.0
 10
4.386985566167183
 20
7.266124651084624
 30
0.0
 10
4.394041283209809
 20
7.269651836735739
 30
0.0
 10
4.394041283209809
 20
7.269651836735739
 30
0.0
 10
4.396158132896658
 20
7.270710934449368
 30
0.0
 10
4.398274982583501
 20
7.271063518440442
 30
0.0
 10
4.4003904865299
 20
7.271063518440442
 30
0.0
 10
4.401097000252455
 20
7.271768686422568
 30
0.0
 10
4.401802168234596
 20
7.272121270413641
 30
0.0
 10
4.402154752225669
 20
7.272121270413641
 30
0.0
 10
4.402154752225669
 20
7.272121270413641
 30
0.0
 10
4.407446203572547
 20
7.27494328808261
 30
0.0
 10
4.407446203572547
 20
7.27494328808261
 30
0.0
 10
4.409563053259375
 20
7.276002385796232
 30
0.0
 10
4.412032486937292
 20
7.276354969787306
 30
0.0
 10
4.414501920615187
 20
7.276354969787306
 30
0.0
 10
4.414501920615187
 20
7.276354969787306
 30
0.0
 10
4.417677868015651
 20
7.277412721760512
 30
0.0
 10
4.417677868015651
 20
7.277412721760512
 30
0.0
 10
4.420147301693553
 20
7.278471819474148
 30
0.0
 10
4.422616735371455
 20
7.279176987456288
 30
0.0
 10
4.425086169049365
 20
7.279176987456288
 30
0.0
 10
4.425086169049365
 20
7.279176987456288
 30
0.0
 10
4.428260770709407
 20
7.279882155438414
 30
0.0
 10
4.428260770709407
 20
7.279882155438414
 30
0.0
 10
4.430377620396235
 20
7.281293837143117
 30
0.0
 10
4.432847054074152
 20
7.28164642113419
 30
0.0
 10
4.435316487752047
 20
7.28164642113419
 30
0.0
 10
4.435316487752047
 20
7.28164642113419
 30
0.0
 10
4.438491089412089
 20
7.282705518847819
 30
0.0
 10
4.438491089412089
 20
7.282705518847819
 30
0.0
 10
4.440607939098931
 20
7.283763270821012
 30
0.0
 10
4.4434299567679
 20
7.284468438803152
 30
0.0
 10
4.445899390445795
 20
7.284468438803152
 30
0.0
 10
4.445899390445795
 20
7.284468438803152
 30
0.0
 10
4.449073992105837
 20
7.285174952525714
 30
0.0
 10
4.449073992105837
 20
7.285174952525714
 30
0.0
 10
4.45119084179268
 20
7.286232704498914
 30
0.0
 10
4.453660275470582
 20
7.286937872481068
 30
0.0
 10
4.456129709148484
 20
7.286937872481068
 30
0.0
 10
4.456129709148484
 20
7.286937872481068
 30
0.0
 10
4.470946311215904
 20
7.288702138176823
 30
0.0
 10
4.470946311215904
 20
7.288702138176823
 30
0.0
 10
4.489996612657002
 20
7.291876739836865
 30
0.0
 10
4.511868931767054
 20
7.295052687237323
 30
0.0
 10
4.530212719485589
 20
7.294698757505841
 30
0.0
 10
4.530212719485589
 20
7.294698757505841
 30
0.0
 10
4.545030667293445
 20
7.294698757505841
 30
0.0
 10
4.545030667293445
 20
7.294698757505841
 30
0.0
 10
4.554201888282491
 20
7.294698757505841
 30
0.0
 10
4.561610189316205
 20
7.287290456472121
 30
0.0
 10
4.561610189316205
 20
7.278471819474148
 30
0.0
 10
4.561610189316205
 20
7.269299252744666
 30
0.0
 10
4.554201888282491
 20
7.262243535702033
 30
0.0
 10
4.545030667293445
 20
7.262243535702033
 30
0.0
 10
4.545030667293445
 20
7.262243535702033
 30
0.0
 10
4.529507551503456
 20
7.262243535702033
 30
0.0
 10
4.529507551503456
 20
7.262243535702033
 30
0.0
 10
4.513633197462823
 20
7.262596119693093
 30
0.0
 10
4.493877728039599
 20
7.25942151803305
 30
0.0
 10
4.476237762562767
 20
7.256599500364075
 30
0.0
 10
4.476237762562767
 20
7.256599500364075
 30
0.0
 10
4.458246558835313
 20
7.253424898704032
 30
0.0
 10
4.458246558835313
 20
7.253424898704032
 30
0.0
 10
4.456129709148484
 20
7.252365800990403
 30
0.0
 10
4.453660275470582
 20
7.251660633008263
 30
0.0
 10
4.45119084179268
 20
7.251660633008263
 30
0.0
 10
4.45119084179268
 20
7.251660633008263
 30
0.0
 10
4.448016240132631
 20
7.250955465026123
 30
0.0
 10
4.448016240132631
 20
7.250955465026123
 30
0.0
 10
4.445899390445795
 20
7.249543783321442
 30
0.0
 10
4.443077372776834
 20
7.249191199330368
 30
0.0
 10
4.440607939098931
 20
7.249191199330368
 30
0.0
 10
4.440607939098931
 20
7.249191199330368
 30
0.0
 10
4.437433337438882
 20
7.248132101616739
 30
0.0
 10
4.437433337438882
 20
7.248132101616739
 30
0.0
 10
4.435316487752047
 20
7.24707434964354
 30
0.0
 10
4.432847054074152
 20
7.2463691816614
 30
0.0
 10
4.430377620396235
 20
7.2463691816614
 30
0.0
 10
4.430377620396235
 20
7.2463691816614
 30
0.0
 10
4.426849089004704
 20
7.245310083947764
 30
0.0
 10
4.426849089004704
 20
7.245310083947764
 30
0.0
 10
4.424732239317869
 20
7.244252331974557
 30
0.0
 10
4.422262805639974
 20
7.243899747983483
 30
0.0
 10
4.419793371962057
 20
7.243899747983483
 30
0.0
 10
4.419793371962057
 20
7.243899747983483
 30
0.0
 10
4.418030452006725
 20
7.243547163992424
 30
0.0
 10
4.418030452006725
 20
7.243547163992424
 30
0.0
 10
4.414854504606253
 20
7.241077730314536
 30
0.0
 10
4.409915637250442
 20
7.238608296636613
 30
0.0
 10
4.406741035590407
 20
7.238608296636613
 30
0.0
 10
4.406741035590407
 20
7.238608296636613
 30
0.0
 10
4.405329353885704
 20
7.238608296636613
 30
0.0
 10
4.405329353885704
 20
7.238608296636613
 30
0.0
 10
4.405329353885704
 20
7.238608296636613
 30
0.0
 10
4.398274982583501
 20
7.235079765245089
 30
0.0
 10
4.398274982583501
 20
7.235079765245089
 30
0.0
 10
4.395805548905592
 20
7.234022013271875
 30
0.0
 10
4.393688699218749
 20
7.233315499549313
 30
0.0
 10
4.39086668154978
 20
7.233315499549313
 30
0.0
 10
4.39086668154978
 20
7.233315499549313
 30
0.0
 10
4.38486871648034
 20
7.230846065871403
 30
0.0
 10
4.38486871648034
 20
7.230846065871403
 30
0.0
 10
4.383104450784578
 20
7.229435729907145
 30
0.0
 10
4.380988946838172
 20
7.227671464211361
 30
0.0
 10
4.379929849124536
 20
7.227318880220302
 30
0.0
 10
4.379929849124536
 20
7.227318880220302
 30
0.0
 10
4.374638397777665
 20
7.22449686255134
 30
0.0
 10
4.374638397777665
 20
7.22449686255134
 30
0.0
 10
4.37181638010869
 20
7.223085180846624
 30
0.0
 10
4.367935264726085
 20
7.222732596855564
 30
0.0
 10
4.364760663066043
 20
7.223085180846624
 30
0.0
 10
4.365113247057124
 20
7.223085180846624
 30
0.0
 10
4.3626438133792
 20
7.221322260891284
 30
0.0
 10
4.361232131674512
 20
7.220263163177662
 30
0.0
 10
4.358410114005536
 20
7.218146313490819
 30
0.0
 10
4.354530344363368
 20
7.215324295821844
 30
0.0
 10
4.34994406099863
 20
7.213560030126089
 30
0.0
 10
4.34994406099863
 20
7.213560030126089
 30
0.0
 10
4.342888343955983
 20
7.210032844474973
 30
0.0
 10
4.342888343955983
 20
7.210032844474973
 30
0.0
 10
4.341124078260222
 20
7.208621162770285
 30
0.0
 10
4.339361158304875
 20
7.206858242814931
 30
0.0
 10
4.338302060591239
 20
7.206504313083442
 30
0.0
 10
4.338302060591239
 20
7.206504313083442
 30
0.0
 10
4.324544556237448
 20
7.199449941781224
 30
0.0
 10
4.324544556237448
 20
7.199449941781224
 30
0.0
 10
4.322780290541679
 20
7.198038260076536
 30
0.0
 10
4.321016024845917
 20
7.196273994380753
 30
0.0
 10
4.319958272872703
 20
7.195921410389694
 30
0.0
 10
4.319958272872703
 20
7.195921410389694
 30
0.0
 10
4.31396030780327
 20
7.192746808729651
 30
0.0
 10
4.31396030780327
 20
7.192746808729651
 30
0.0
 10
4.312549971838997
 20
7.189572207069609
 30
0.0
 10
4.310080538161095
 20
7.187102773391707
 30
0.0
 10
4.306904590760623
 20
7.185338507695938
 30
0.0
 10
4.306904590760623
 20
7.185338507695938
 30
0.0
 10
4.303729989100588
 20
7.18392682599125
 30
0.0
 10
4.303729989100588
 20
7.18392682599125
 30
0.0
 10
4.301965723404826
 20
7.182516490026962
 30
0.0
 10
4.299848873717984
 20
7.180752224331193
 30
0.0
 10
4.299143705735843
 20
7.180047056349053
 30
0.0
 10
4.299143705735843
 20
7.180047056349053
 30
0.0
 10
4.29314708640684
 20
7.176871108948596
 30
0.0
 10
4.29314708640684
 20
7.176871108948596
 30
0.0
 10
4.291735404702137
 20
7.173696507288553
 30
0.0
 10
4.288913387033169
 20
7.171227073610651
 30
0.0
 10
4.285738785373126
 20
7.169816737646371
 30
0.0
 10
4.285738785373126
 20
7.169816737646371
 30
0.0
 10
4.282916767704151
 20
7.168052471950616
 30
0.0
 10
4.282916767704151
 20
7.168052471950616
 30
0.0
 10
4.281152502008382
 20
7.166640790245914
 30
0.0
 10
4.27903565232156
 20
7.164876524550152
 30
0.0
 10
4.277977900348346
 20
7.164523940559078
 30
0.0
 10
4.277977900348346
 20
7.164523940559078
 30
0.0
 10
4.277623970616865
 20
7.163818772576945
 30
0.0
 10
4.277623970616865
 20
7.163818772576945
 30
0.0
 10
4.275861050661504
 20
7.160996754907962
 30
0.0
 10
4.273391616983616
 20
7.158174737239001
 30
0.0
 10
4.270215669583151
 20
7.156763055534298
 30
0.0
 10
4.270215669583151
 20
7.156763055534298
 30
0.0
 10
4.267393651914169
 20
7.155352719570025
 30
0.0
 10
4.267393651914169
 20
7.155352719570025
 30
0.0
 10
4.267393651914169
 20
7.155352719570025
 30
0.0
 10
4.259280182898315
 20
7.145474984858402
 30
0.0
 10
4.259280182898315
 20
7.145474984858402
 30
0.0
 10
4.258575014916189
 20
7.144063303153714
 30
0.0
 10
4.25751591720256
 20
7.143005551180507
 30
0.0
 10
4.256458165229361
 20
7.141593869475812
 30
0.0
 10
4.256458165229361
 20
7.141593869475812
 30
0.0
 10
4.20142411059291
 20
7.084091726901888
 30
0.0
 10
4.20142411059291
 20
7.084091726901888
 30
0.0
 10
4.198249508932867
 20
7.080915779501431
 30
0.0
 10
4.194015809559189
 20
7.079152859546084
 30
0.0
 10
4.189783455925955
 20
7.079152859546084
 30
0.0
  0
SPLINE
  5
31E
330
1F
100
AcDbEntity
  8
Livello 1
370
     0
100
AcDbSpline
210
0.0
220
0.0
230
1.0
 70
     9
 71
     3
 72
    32
 73
    28
 74
     0
 42
0.000000001
 43
0.0000000001
 40
0.0
 40
0.0
 40
0.0
 40
0.0
 40
1.0
 40
1.0
 40
1.0
 40
2.0
 40
2.0
 40
2.0
 40
3.0
 40
3.0
 40
3.0
 40
4.0
 40
4.0
 40
4.0
 40
5.0
 40
5.0
 40
5.0
 40
6.0
 40
6.0
 40
6.0
 40
7.0
 40
7.0
 40
7.0
 40
8.0
 40
8.0
 40
8.0
 40
9.0
 40
9.0
 40
9.0
 40
9.0
 10
4.796101420963985
 20
7.079152859546084
 30
0.0
 10
4.786928854234503
 20
7.079152859546084
 30
0.0
 10
4.77987313719187
 20
7.08656116057979
 30
0.0
 10
4.77987313719187
 20
7.095379797577784
 30
0.0
 10
4.77987313719187
 20
7.095379797577784
 30
0.0
 10
4.77987313719187
 20
7.25942151803305
 30
0.0
 10
4.77987313719187
 20
7.25942151803305
 30
0.0
 10
4.77987313719187
 20
7.25942151803305
 30
0.0
 10
4.5452755920506
 20
7.25942151803305
 30
0.0
 10
4.5452755920506
 20
7.25942151803305
 30
0.0
 10
4.536103025321118
 20
7.25942151803305
 30
0.0
 10
4.529047308278478
 20
7.266829819066764
 30
0.0
 10
4.529047308278478
 20
7.276002385796232
 30
0.0
 10
4.529047308278478
 20
7.284821022794233
 30
0.0
 10
4.536103025321118
 20
7.292229323827939
 30
0.0
 10
4.5452755920506
 20
7.292229323827939
 30
0.0
 10
4.5452755920506
 20
7.292229323827939
 30
0.0
 10
4.796101420963985
 20
7.292229323827939
 30
0.0
 10
4.796101420963985
 20
7.292229323827939
 30
0.0
 10
4.805272641953038
 20
7.292229323827939
 30
0.0
 10
4.812328358995685
 20
7.284821022794233
 30
0.0
 10
4.812328358995685
 20
7.276002385796232
 30
0.0
 10
4.812328358995685
 20
7.276002385796232
 30
0.0
 10
4.812328358995685
 20
7.095379797577784
 30
0.0
 10
4.812328358995685
 20
7.095379797577784
 30
0.0
 10
4.812328358995685
 20
7.08656116057979
 30
0.0
 10
4.805272641953038
 20
7.079152859546084
 30
0.0
 10
4.796101420963985
 20
7.079152859546084
 30
0.0
  0
SPLINE
  5
31F
330
1F
100
AcDbEntity
  8
Livello 1
370
     0
100
AcDbSpline
210
0.0
220
0.0
230
1.0
 70
     9
 71
     3
 72
   233
 73
   229
 74
     0
 42
0.000000001
 43
0.0000000001
 40
0.0
 40
0.0
 40
0.0
 40
0.0
 40
1.0
 40
1.0
 40
1.0
 40
2.0
 40
2.0
 40
2.0
 40
3.0
 40
3.0
 40
3.0
 40
4.0
 40
4.0
 40
4.0
 40
5.0
 40
5.0
 40
5.0
 40
6.0
 40
6.0
 40
6.0
 40
7.0
 40
7.0
 40
7.0
 40
8.0
 40
8.0
 40
8.0
 40
9.0
 40
9.0
 40
9.0
 40
10.0
 40
10.0
 40
10.0
 40
11.0
 40
11.0
 40
11.0
 40
12.0
 40
12.0
 40
12.0
 40
13.0
 40
13.0
 40
13.0
 40
14.0
 40
14.0
 40
14.0
 40
15.0
 40
15.0
 40
15.0
 40
16.0
 40
16.0
 40
16.0
 40
17.0
 40
17.0
 40
17.0
 40
18.0
 40
18.0
 40
18.0
 40
19.0
 40
19.0
 40
19.0
 40
20.0
 40
20.0
 40
20.0
 40
21.0
 40
21.0
 40
21.0
 40
22.0
 40
22.0
 40
22.0
 40
23.0
 40
23.0
 40
23.0
 40
24.0
 40
24.0
 40
24.0
 40
25.0
 40
25.0
 40
25.0
 40
26.0
 40
26.0
 40
26.0
 40
27.0
 40
27.0
 40
27.0
 40
28.0
 40
28.0
 40
28.0
 40
29.0
 40
29.0
 40
29.0
 40
30.0
 40
30.0
 40
30.0
 40
31.0
 40
31.0
 40
31.0
 40
32.0
 40
32.0
 40
32.0
 40
33.0
 40
33.0
 40
33.0
 40
34.0
 40
34.0
 40
34.0
 40
35.0
 40
35.0
 40
35.0
 40
36.0
 40
36.0
 40
36.0
 40
37.0
 40
37.0
 40
37.0
 40
38.0
 40
38.0
 40
38.0
 40
39.0
 40
39.0
 40
39.0
 40
40.0
 40
40.0
 40
40.0
 40
41.0
 40
41.0
 40
41.0
 40
42.0
 40
42.0
 40
42.0
 40
43.0
 40
43.0
 40
43.0
 40
44.0
 40
44.0
 40
44.0
 40
45.0
 40
45.0
 40
45.0
 40
46.0
 40
46.0
 40
46.0
 40
47.0
 40
47.0
 40
47.0
 40
48.0
 40
48.0
 40
48.0
 40
49.0
 40
49.0
 40
49.0
 40
50.0
 40
50.0
 40
50.0
 40
51.0
 40
51.0
 40
51.0
 40
52.0
 40
52.0
 40
52.0
 40
53.0
 40
53.0
 40
53.0
 40
54.0
 40
54.0
 40
54.0
 40
55.0
 40
55.0
 40
55.0
 40
56.0
 40
56.0
 40
56.0
 40
57.0
 40
57.0
 40
57.0
 40
58.0
 40
58.0
 40
58.0
 40
59.0
 40
59.0
 40
59.0
 40
60.0
 40
60.0
 40
60.0
 40
61.0
 40
61.0
 40
61.0
 40
62.0
 40
62.0
 40
62.0
 40
63.0
 40
63.0
 40
63.0
 40
64.0
 40
64.0
 40
64.0
 40
65.0
 40
65.0
 40
65.0
 40
66.0
 40
66.0
 40
66.0
 40
67.0
 40
67.0
 40
67.0
 40
68.0
 40
68.0
 40
68.0
 40
69.0
 40
69.0
 40
69.0
 40
70.0
 40
70.0
 40
70.0
 40
71.0
 40
71.0
 40
71.0
 40
72.0
 40
72.0
 40
72.0
 40
73.0
 40
73.0
 40
73.0
 40
74.0
 40
74.0
 40
74.0
 40
75.0
 40
75.0
 40
75.0
 40
76.0
 40
76.0
 40
76.0
 40
76.0
 10
4.796101420963985
 20
5.155738555505585
 30
0.0
 10
4.796101420963985
 20
5.155738555505585
 30
0.0
 10
4.5452755920506
 20
5.155738555505585
 30
0.0
 10
4.5452755920506
 20
5.155738555505585
 30
0.0
 10
4.542806158372691
 20
5.155738555505585
 30
0.0
 10
4.540336724694775
 20
5.156443723487726
 30
0.0
 10
4.537867291016873
 20
5.157501475460932
 30
0.0
 10
4.537867291016873
 20
5.157501475460932
 30
0.0
 10
4.536103025321118
 20
5.158560573174561
 30
0.0
 10
4.536103025321118
 20
5.158560573174561
 30
0.0
 10
4.536103025321118
 20
5.158560573174561
 30
0.0
 10
4.529401238009967
 20
5.158560573174561
 30
0.0
 10
4.529401238009967
 20
5.158560573174561
 30
0.0
 10
4.510350936568869
 20
5.157148891469866
 30
0.0
 10
4.498708936161492
 20
5.158913157165628
 30
0.0
 10
4.48742086548561
 20
5.16103000685247
 30
0.0
 10
4.481070316425096
 20
5.16208775882567
 30
0.0
 10
4.47436718337353
 20
5.163146856539299
 30
0.0
 10
4.465548546375543
 20
5.163499440530372
 30
0.0
 10
4.463431696688701
 20
5.163852024521439
 30
0.0
 10
4.461314847001865
 20
5.164204608512505
 30
0.0
 10
4.459550581306118
 20
5.165262360485705
 30
0.0
 10
4.459550581306118
 20
5.165262360485705
 30
0.0
 10
4.457786315610341
 20
5.166321458199334
 30
0.0
 10
4.457786315610341
 20
5.166321458199334
 30
0.0
 10
4.457786315610341
 20
5.166321458199334
 30
0.0
 10
4.45108452829919
 20
5.166321458199334
 30
0.0
 10
4.45108452829919
 20
5.166321458199334
 30
0.0
 10
4.448615094621274
 20
5.166321458199334
 30
0.0
 10
4.446145660943372
 20
5.1666740421904
 30
0.0
 10
4.44367622726547
 20
5.168085723895103
 30
0.0
 10
4.44367622726547
 20
5.168085723895103
 30
0.0
 10
4.440854209596501
 20
5.16879089187725
 30
0.0
 10
4.440854209596501
 20
5.16879089187725
 30
0.0
 10
4.438030846187118
 20
5.16879089187725
 30
0.0
 10
4.435561412509194
 20
5.169496059859376
 30
0.0
 10
4.433444562822373
 20
5.170555157573005
 30
0.0
 10
4.433444562822373
 20
5.170555157573005
 30
0.0
 10
4.430269961162331
 20
5.171260325555145
 30
0.0
 10
4.430269961162331
 20
5.171260325555145
 30
0.0
 10
4.427800527484414
 20
5.171260325555145
 30
0.0
 10
4.425331093806512
 20
5.171965493537285
 30
0.0
 10
4.42286166012861
 20
5.173024591250907
 30
0.0
 10
4.42286166012861
 20
5.173024591250907
 30
0.0
 10
4.419687058468582
 20
5.174082343224121
 30
0.0
 10
4.419687058468582
 20
5.174082343224121
 30
0.0
 10
4.415453359094904
 20
5.174082343224121
 30
0.0
 10
4.411219659721233
 20
5.17584660891989
 30
0.0
 10
4.40804505806119
 20
5.179021210579932
 30
0.0
 10
4.40804505806119
 20
5.179021210579932
 30
0.0
 10
4.406634722096917
 20
5.179373794570999
 30
0.0
 10
4.406634722096917
 20
5.179373794570999
 30
0.0
 10
4.404165288419015
 20
5.179373794570999
 30
0.0
 10
4.401695854741113
 20
5.180078962553139
 30
0.0
 10
4.39957900505427
 20
5.181138060266754
 30
0.0
 10
4.39957900505427
 20
5.181138060266754
 30
0.0
 10
4.391111606306935
 20
5.184312661926803
 30
0.0
 10
4.391111606306935
 20
5.184312661926803
 30
0.0
 10
4.388289588637952
 20
5.184312661926803
 30
0.0
 10
4.385820154960057
 20
5.185017829908936
 30
0.0
 10
4.383703305273215
 20
5.186076927622565
 30
0.0
 10
4.383703305273215
 20
5.186076927622565
 30
0.0
 10
4.378411853926344
 20
5.188898945291541
 30
0.0
 10
4.378411853926344
 20
5.188898945291541
 30
0.0
 10
4.377000172221649
 20
5.189604113273681
 30
0.0
 10
4.375589836257368
 20
5.190663210987302
 30
0.0
 10
4.37417815455268
 20
5.191720962960502
 30
0.0
 10
4.37417815455268
 20
5.191720962960502
 30
0.0
 10
4.3727678185884
 20
5.192426130942642
 30
0.0
 10
4.3727678185884
 20
5.192426130942642
 30
0.0
 10
4.370298384910498
 20
5.192426130942642
 30
0.0
 10
4.367476367241529
 20
5.192780060674138
 30
0.0
 10
4.365359517554693
 20
5.194190396638411
 30
0.0
 10
4.349131233782571
 20
5.202305211394687
 30
0.0
 10
4.333962047724078
 20
5.211476432383733
 30
0.0
 10
4.318440277674511
 20
5.220648999113215
 30
0.0
 10
4.318440277674511
 20
5.220648999113215
 30
0.0
 10
4.300095144215568
 20
5.230526733824831
 30
0.0
 10
4.300095144215568
 20
5.230526733824831
 30
0.0
 10
4.298330878519799
 20
5.231231901806978
 30
0.0
 10
4.296920542555525
 20
5.232643583511659
 30
0.0
 10
4.295861444841897
 20
5.233701335484866
 30
0.0
 10
4.295861444841897
 20
5.233701335484866
 30
0.0
 10
4.292334259190788
 20
5.235818185171709
 30
0.0
 10
4.292334259190788
 20
5.235818185171709
 30
0.0
 10
4.290569993495019
 20
5.236523353153842
 30
0.0
 10
4.289159657530753
 20
5.237582450867471
 30
0.0
 10
4.288100559817124
 20
5.238992786831751
 30
0.0
 10
4.288100559817124
 20
5.238992786831751
 30
0.0
 10
4.284573374166015
 20
5.241109636518586
 30
0.0
 10
4.284573374166015
 20
5.241109636518586
 30
0.0
 10
4.282809108470239
 20
5.241816150241149
 30
0.0
 10
4.281397426765543
 20
5.242873902214341
 30
0.0
 10
4.27998709080127
 20
5.244285583919044
 30
0.0
 10
4.27998709080127
 20
5.244285583919044
 30
0.0
 10
4.271167108062861
 20
5.251341300961691
 30
0.0
 10
4.271167108062861
 20
5.251341300961691
 30
0.0
 10
4.269404188107522
 20
5.252399052934897
 30
0.0
 10
4.267992506402819
 20
5.253810734639593
 30
0.0
 10
4.266580824698117
 20
5.25522107060388
 30
0.0
 10
4.260936789360172
 20
5.261571619664373
 30
0.0
 10
4.259879037386973
 20
5.261924203655446
 30
0.0
 10
4.258114771691211
 20
5.263334539619712
 30
0.0
 10
4.256350505995435
 20
5.264393637333341
 30
0.0
 10
4.254233656308592
 20
5.265803973297629
 30
0.0
 10
4.250001302675364
 20
5.269332504689153
 30
0.0
 10
4.250001302675364
 20
5.269332504689153
 30
0.0
 10
4.233067850921095
 20
5.285913372452348
 30
0.0
 10
4.233067850921095
 20
5.285913372452348
 30
0.0
 10
4.226717301860603
 20
5.292262575772433
 30
0.0
 10
4.226717301860603
 20
5.302846824206611
 30
0.0
 10
4.233067850921095
 20
5.309196027526674
 30
0.0
 10
4.239417054241179
 20
5.31554657658718
 30
0.0
 10
4.250001302675364
 20
5.31554657658718
 30
0.0
 10
4.256350505995435
 20
5.309196027526674
 30
0.0
 10
4.256350505995435
 20
5.309196027526674
 30
0.0
 10
4.27187362178541
 20
5.293321673486055
 30
0.0
 10
4.27187362178541
 20
5.293321673486055
 30
0.0
 10
4.273283957749697
 20
5.292262575772433
 30
0.0
 10
4.274695639454385
 20
5.291204823799219
 30
0.0
 10
4.276105975418666
 20
5.290499655817079
 30
0.0
 10
4.27998709080127
 20
5.288030222139177
 30
0.0
 10
4.282456524479172
 20
5.285913372452348
 30
0.0
 10
4.288805727799264
 20
5.279562823391842
 30
0.0
 10
4.288805727799264
 20
5.279562823391842
 30
0.0
 10
4.291275161477159
 20
5.278151141687139
 30
0.0
 10
4.291275161477159
 20
5.278151141687139
 30
0.0
 10
4.292686843181861
 20
5.277445973705006
 30
0.0
 10
4.29409852488655
 20
5.276388221731799
 30
0.0
 10
4.295156276859763
 20
5.275329124018163
 30
0.0
 10
4.295156276859763
 20
5.275329124018163
 30
0.0
 10
4.304328843589239
 20
5.267568238993391
 30
0.0
 10
4.304328843589239
 20
5.267568238993391
 30
0.0
 10
4.305739179553512
 20
5.26686307101125
 30
0.0
 10
4.3071508612582
 20
5.265803973297629
 30
0.0
 10
4.308208613231414
 20
5.264746221324415
 30
0.0
 10
4.308208613231414
 20
5.264746221324415
 30
0.0
 10
4.312089728614019
 20
5.262276787646513
 30
0.0
 10
4.312089728614019
 20
5.262276787646513
 30
0.0
 10
4.313853994309781
 20
5.261571619664373
 30
0.0
 10
4.315264330274054
 20
5.260512521950751
 30
0.0
 10
4.31632342798769
 20
5.259454769977537
 30
0.0
 10
4.31632342798769
 20
5.259454769977537
 30
0.0
 10
4.335372383688365
 20
5.248517937552293
 30
0.0
 10
4.335372383688365
 20
5.248517937552293
 30
0.0
 10
4.348778649791505
 20
5.240404468536446
 30
0.0
 10
4.362537499885718
 20
5.232290999520593
 30
0.0
 10
4.376647588230582
 20
5.224882698486894
 30
0.0
 10
4.376647588230582
 20
5.224882698486894
 30
0.0
 10
4.378059269935278
 20
5.224882698486894
 30
0.0
 10
4.378059269935278
 20
5.224882698486894
 30
0.0
 10
4.380528703613187
 20
5.224882698486894
 30
0.0
 10
4.382998137291089
 20
5.22453011449582
 30
0.0
 10
4.385114986977932
 20
5.223118432791117
 30
0.0
 10
4.385114986977932
 20
5.223118432791117
 30
0.0
 10
4.390406438324795
 20
5.220648999113215
 30
0.0
 10
4.390406438324795
 20
5.220648999113215
 30
0.0
 10
4.392170704020564
 20
5.219943831131089
 30
0.0
 10
4.393581039984837
 20
5.218884733417453
 30
0.0
 10
4.394640137698466
 20
5.217474397453173
 30
0.0
 10
4.394640137698466
 20
5.217474397453173
 30
0.0
 10
4.396050473662739
 20
5.217121813462107
 30
0.0
 10
4.396050473662739
 20
5.217121813462107
 30
0.0
 10
4.398872491331722
 20
5.217121813462107
 30
0.0
 10
4.401341925009624
 20
5.216415299739551
 30
0.0
 10
4.403458774696453
 20
5.215357547766345
 30
0.0
 10
4.403458774696453
 20
5.215357547766345
 30
0.0
 10
4.411926173443795
 20
5.2118290163748
 30
0.0
 10
4.411926173443795
 20
5.2118290163748
 30
0.0
 10
4.414395607121697
 20
5.2118290163748
 30
0.0
 10
4.416865040799599
 20
5.211476432383733
 30
0.0
 10
4.419334474477501
 20
5.210066096419467
 30
0.0
 10
4.419334474477501
 20
5.210066096419467
 30
0.0
 10
4.424625925824372
 20
5.207596662741565
 30
0.0
 10
4.424625925824372
 20
5.207596662741565
 30
0.0
 10
4.424978509815446
 20
5.207244078750498
 30
0.0
 10
4.425683677797586
 20
5.206890149019002
 30
0.0
 10
4.426036261788652
 20
5.206537565027936
 30
0.0
 10
4.428153111475488
 20
5.206537565027936
 30
0.0
 10
4.430269961162331
 20
5.205832397045796
 30
0.0
 10
4.432386810849159
 20
5.205127229063663
 30
0.0
 10
4.432386810849159
 20
5.205127229063663
 30
0.0
 10
4.435561412509194
 20
5.204068131350034
 30
0.0
 10
4.435561412509194
 20
5.204068131350034
 30
0.0
 10
4.438030846187118
 20
5.204068131350034
 30
0.0
 10
4.440500279865005
 20
5.203362963367894
 30
0.0
 10
4.442617129551841
 20
5.202305211394687
 30
0.0
 10
4.442617129551841
 20
5.202305211394687
 30
0.0
 10
4.445793076952305
 20
5.201598697672125
 30
0.0
 10
4.445793076952305
 20
5.201598697672125
 30
0.0
 10
4.448615094621274
 20
5.201598697672125
 30
0.0
 10
4.45108452829919
 20
5.200893529689999
 30
0.0
 10
4.453201377986019
 20
5.199835777716792
 30
0.0
 10
4.453201377986019
 20
5.199835777716792
 30
0.0
 10
4.454964297941359
 20
5.198776680003156
 30
0.0
 10
4.454964297941359
 20
5.198776680003156
 30
0.0
 10
4.454964297941359
 20
5.198776680003156
 30
0.0
 10
4.461667430992939
 20
5.198776680003156
 30
0.0
 10
4.461667430992939
 20
5.198776680003156
 30
0.0
 10
4.464136864670841
 20
5.198776680003156
 30
0.0
 10
4.46660629834875
 20
5.198424096012089
 30
0.0
 10
4.469075732026652
 20
5.197012414307387
 30
0.0
 10
4.469075732026652
 20
5.197012414307387
 30
0.0
 10
4.471192581713474
 20
5.19595466233418
 30
0.0
 10
4.471192581713474
 20
5.19595466233418
 30
0.0
 10
4.479658634720401
 20
5.195249494352047
 30
0.0
 10
4.486361767771981
 20
5.194190396638411
 30
0.0
 10
4.492712316832474
 20
5.193132644665212
 30
0.0
 10
4.503295219526222
 20
5.191368378969443
 30
0.0
 10
4.512115202264631
 20
5.189956697264747
 30
0.0
 10
4.528342140296338
 20
5.191015794978376
 30
0.0
 10
4.528342140296338
 20
5.191015794978376
 30
0.0
 10
4.539984140703715
 20
5.191015794978376
 30
0.0
 10
4.539984140703715
 20
5.191015794978376
 30
0.0
 10
4.542453574381617
 20
5.191015794978376
 30
0.0
 10
4.544923008059519
 20
5.190310626996236
 30
0.0
 10
4.547392441737436
 20
5.189251529282607
 30
0.0
 10
4.547392441737436
 20
5.189251529282607
 30
0.0
 10
4.549156707433198
 20
5.188546361300474
 30
0.0
 10
4.549156707433198
 20
5.188546361300474
 30
0.0
 10
4.549156707433198
 20
5.188546361300474
 30
0.0
 10
4.796101420963985
 20
5.188546361300474
 30
0.0
 10
4.796101420963985
 20
5.188546361300474
 30
0.0
 10
4.805272641953038
 20
5.188546361300474
 30
0.0
 10
4.812328358995685
 20
5.181138060266754
 30
0.0
 10
4.812328358995685
 20
5.171965493537285
 30
0.0
 10
4.812328358995685
 20
5.163146856539299
 30
0.0
 10
4.805272641953038
 20
5.155738555505585
 30
0.0
 10
4.796101420963985
 20
5.155738555505585
 30
0.0
  0
SPLINE
  5
320
330
1F
100
AcDbEntity
  8
Livello 1
370
     0
100
AcDbSpline
210
0.0
220
0.0
230
1.0
 70
     9
 71
     3
 72
    26
 73
    22
 74
     0
 42
0.000000001
 43
0.0000000001
 40
0.0
 40
0.0
 40
0.0
 40
0.0
 40
1.0
 40
1.0
 40
1.0
 40
2.0
 40
2.0
 40
2.0
 40
3.0
 40
3.0
 40
3.0
 40
4.0
 40
4.0
 40
4.0
 40
5.0
 40
5.0
 40
5.0
 40
6.0
 40
6.0
 40
6.0
 40
7.0
 40
7.0
 40
7.0
 40
7.0
 10
4.244674862077452
 20
5.278575049920675
 30
0.0
 10
4.240441162703788
 20
5.278575049920675
 30
0.0
 10
4.236207463330117
 20
5.279985385884948
 30
0.0
 10
4.233032861670082
 20
5.283159987544983
 30
0.0
 10
4.233032861670082
 20
5.283159987544983
 30
0.0
 10
4.201635391839467
 20
5.314557457375606
 30
0.0
 10
4.201635391839467
 20
5.314557457375606
 30
0.0
 10
4.19528484277896
 20
5.321260590427179
 30
0.0
 10
4.19528484277896
 20
5.331490909129868
 30
0.0
 10
4.201635391839467
 20
5.337841458190368
 30
0.0
 10
4.20798594089998
 20
5.344190661510438
 30
0.0
 10
4.218568843593722
 20
5.344190661510438
 30
0.0
 10
4.224918046913806
 20
5.337841458190368
 30
0.0
 10
4.224918046913806
 20
5.337841458190368
 30
0.0
 10
4.256315516744415
 20
5.30644398835976
 30
0.0
 10
4.256315516744415
 20
5.30644398835976
 30
0.0
 10
4.262666065804921
 20
5.300093439299253
 30
0.0
 10
4.262666065804921
 20
5.289863120596571
 30
0.0
 10
4.256315516744415
 20
5.283159987544983
 30
0.0
 10
4.253140915084372
 20
5.279985385884948
 30
0.0
 10
4.248907215710694
 20
5.278575049920675
 30
0.0
 10
4.244674862077452
 20
5.278575049920675
 30
0.0
  0
SPLINE
  5
321
330
1F
100
AcDbEntity
  8
Livello 1
370
     0
100
AcDbSpline
210
0.0
220
0.0
230
1.0
 70
     9
 71
     3
 72
    23
 73
    19
 74
     0
 42
0.000000001
 43
0.0000000001
 40
0.0
 40
0.0
 40
0.0
 40
0.0
 40
1.0
 40
1.0
 40
1.0
 40
2.0
 40
2.0
 40
2.0
 40
3.0
 40
3.0
 40
3.0
 40
4.0
 40
4.0
 40
4.0
 40
5.0
 40
5.0
 40
5.0
 40
6.0
 40
6.0
 40
6.0
 40
6.0
 10
4.796101420963985
 20
5.155738555505585
 30
0.0
 10
4.786928854234503
 20
5.155738555505585
 30
0.0
 10
4.77987313719187
 20
5.163146856539299
 30
0.0
 10
4.77987313719187
 20
5.171965493537285
 30
0.0
 10
4.77987313719187
 20
5.171965493537285
 30
0.0
 10
4.77987313719187
 20
5.326129479280943
 30
0.0
 10
4.77987313719187
 20
5.326129479280943
 30
0.0
 10
4.77987313719187
 20
5.335302046010411
 30
0.0
 10
4.786928854234503
 20
5.342710347044139
 30
0.0
 10
4.796101420963985
 20
5.342710347044139
 30
0.0
 10
4.805272641953038
 20
5.342710347044139
 30
0.0
 10
4.812328358995685
 20
5.335302046010411
 30
0.0
 10
4.812328358995685
 20
5.326129479280943
 30
0.0
 10
4.812328358995685
 20
5.326129479280943
 30
0.0
 10
4.812328358995685
 20
5.171965493537285
 30
0.0
 10
4.812328358995685
 20
5.171965493537285
 30
0.0
 10
4.812328358995685
 20
5.163146856539299
 30
0.0
 10
4.805272641953038
 20
5.155738555505585
 30
0.0
 10
4.796101420963985
 20
5.155738555505585
 30
0.0
  0
SPLINE
  5
322
330
1F
100
AcDbEntity
  8
Livello 1
370
     0
100
AcDbSpline
210
0.0
220
0.0
230
1.0
 70
     9
 71
     3
 72
    23
 73
    19
 74
     0
 42
0.000000001
 43
0.0000000001
 40
0.0
 40
0.0
 40
0.0
 40
0.0
 40
1.0
 40
1.0
 40
1.0
 40
2.0
 40
2.0
 40
2.0
 40
3.0
 40
3.0
 40
3.0
 40
4.0
 40
4.0
 40
4.0
 40
5.0
 40
5.0
 40
5.0
 40
6.0
 40
6.0
 40
6.0
 40
6.0
 10
11.146490338359
 20
7.390162891698288
 30
0.0
 10
11.13731777162952
 20
7.390162891698288
 30
0.0
 10
11.13026205458688
 20
7.397571192732002
 30
0.0
 10
11.13026205458688
 20
7.406389829729981
 30
0.0
 10
11.13026205458688
 20
7.406389829729981
 30
0.0
 10
11.13026205458688
 20
7.411681281076866
 30
0.0
 10
11.13026205458688
 20
7.411681281076866
 30
0.0
 10
11.13026205458688
 20
7.420853847806334
 30
0.0
 10
11.13731777162952
 20
7.427909564848981
 30
0.0
 10
11.146490338359
 20
7.427909564848981
 30
0.0
 10
11.15566155934806
 20
7.427909564848981
 30
0.0
 10
11.16271727639069
 20
7.420853847806334
 30
0.0
 10
11.16271727639069
 20
7.411681281076866
 30
0.0
 10
11.16271727639069
 20
7.411681281076866
 30
0.0
 10
11.16271727639069
 20
7.406389829729981
 30
0.0
 10
11.16271727639069
 20
7.406389829729981
 30
0.0
 10
11.16271727639069
 20
7.397571192732002
 30
0.0
 10
11.15566155934806
 20
7.390162891698288
 30
0.0
 10
11.146490338359
 20
7.390162891698288
 30
0.0
  0
SPLINE
  5
323
330
1F
100
AcDbEntity
  8
Livello 1
370
     0
100
AcDbSpline
210
0.0
220
0.0
230
1.0
 70
     9
 71
     3
 72
    38
 73
    34
 74
     0
 42
0.000000001
 43
0.0000000001
 40
0.0
 40
0.0
 40
0.0
 40
0.0
 40
1.0
 40
1.0
 40
1.0
 40
2.0
 40
2.0
 40
2.0
 40
3.0
 40
3.0
 40
3.0
 40
4.0
 40
4.0
 40
4.0
 40
5.0
 40
5.0
 40
5.0
 40
6.0
 40
6.0
 40
6.0
 40
7.0
 40
7.0
 40
7.0
 40
8.0
 40
8.0
 40
8.0
 40
9.0
 40
9.0
 40
9.0
 40
10.0
 40
10.0
 40
10.0
 40
11.0
 40
11.0
 40
11.0
 40
11.0
 10
11.146490338359
 20
7.395383018802682
 30
0.0
 10
11.13872810759379
 20
7.395383018802682
 30
0.0
 10
11.13202632028265
 20
7.400674470149567
 30
0.0
 10
11.13061463857794
 20
7.40843535517434
 30
0.0
 10
11.13061463857794
 20
7.40843535517434
 30
0.0
 10
11.12779262090898
 20
7.421487691545991
 30
0.0
 10
11.12779262090898
 20
7.421487691545991
 30
0.0
 10
11.12461801924894
 20
7.452532577385539
 30
0.0
 10
11.12179465583955
 20
7.475815232459872
 30
0.0
 10
11.11474028453733
 20
7.507565286281568
 30
0.0
 10
11.11474028453733
 20
7.507565286281568
 30
0.0
 10
11.11227085085941
 20
7.520971552384715
 30
0.0
 10
11.11227085085941
 20
7.520971552384715
 30
0.0
 10
11.11050658516366
 20
7.529790189382701
 30
0.0
 10
11.11615062050159
 20
7.538257588130036
 30
0.0
 10
11.12497060324001
 20
7.540021853825791
 30
0.0
 10
11.13414182422906
 20
7.541784773781152
 30
0.0
 10
11.14260922297641
 20
7.536140738443194
 30
0.0
 10
11.14437348867216
 20
7.527320755704799
 30
0.0
 10
11.14437348867216
 20
7.527320755704799
 30
0.0
 10
11.14684292235008
 20
7.514268419333134
 30
0.0
 10
11.14684292235008
 20
7.514268419333134
 30
0.0
 10
11.15389863939272
 20
7.481106683806757
 30
0.0
 10
11.15672065706168
 20
7.457118860750284
 30
0.0
 10
11.16024784271279
 20
7.426426558901802
 30
0.0
 10
11.16024784271279
 20
7.426426558901802
 30
0.0
 10
11.16236469239963
 20
7.414784558494424
 30
0.0
 10
11.16236469239963
 20
7.414784558494424
 30
0.0
 10
11.16412895809539
 20
7.405965921496431
 30
0.0
 10
11.15848357701702
 20
7.39749852274911
 30
0.0
 10
11.14966494001904
 20
7.395735602793756
 30
0.0
 10
11.14860584230541
 20
7.395383018802682
 30
0.0
 10
11.1475480903322
 20
7.395383018802682
 30
0.0
 10
11.146490338359
 20
7.395383018802682
 30
0.0
  0
SPLINE
  5
324
330
1F
100
AcDbEntity
  8
Livello 1
370
     0
100
AcDbSpline
210
0.0
220
0.0
230
1.0
 70
     9
 71
     3
 72
    23
 73
    19
 74
     0
 42
0.000000001
 43
0.0000000001
 40
0.0
 40
0.0
 40
0.0
 40
0.0
 40
1.0
 40
1.0
 40
1.0
 40
2.0
 40
2.0
 40
2.0
 40
3.0
 40
3.0
 40
3.0
 40
4.0
 40
4.0
 40
4.0
 40
5.0
 40
5.0
 40
5.0
 40
6.0
 40
6.0
 40
6.0
 40
6.0
 10
11.16479913682651
 20
5.584328619977029
 30
0.0
 10
11.16479913682651
 20
5.584328619977029
 30
0.0
 10
11.15421488839233
 20
5.584328619977029
 30
0.0
 10
11.15421488839233
 20
5.584328619977029
 30
0.0
 10
11.14539625139434
 20
5.584328619977029
 30
0.0
 10
11.13798795036063
 20
5.591736921010735
 30
0.0
 10
11.13798795036063
 20
5.600555558008721
 30
0.0
 10
11.13798795036063
 20
5.60972812473819
 30
0.0
 10
11.14539625139434
 20
5.617136425771903
 30
0.0
 10
11.15421488839233
 20
5.617136425771903
 30
0.0
 10
11.15421488839233
 20
5.617136425771903
 30
0.0
 10
11.16479913682651
 20
5.617136425771903
 30
0.0
 10
11.16479913682651
 20
5.617136425771903
 30
0.0
 10
11.17397035781555
 20
5.617136425771903
 30
0.0
 10
11.18102607485821
 20
5.60972812473819
 30
0.0
 10
11.18102607485821
 20
5.600555558008721
 30
0.0
 10
11.18102607485821
 20
5.591736921010735
 30
0.0
 10
11.17397035781555
 20
5.584328619977029
 30
0.0
 10
11.16479913682651
 20
5.584328619977029
 30
0.0
  0
SPLINE
  5
325
330
1F
100
AcDbEntity
  8
Livello 1
370
     0
100
AcDbSpline
210
0.0
220
0.0
230
1.0
 70
     9
 71
     3
 72
    65
 73
    61
 74
     0
 42
0.000000001
 43
0.0000000001
 40
0.0
 40
0.0
 40
0.0
 40
0.0
 40
1.0
 40
1.0
 40
1.0
 40
2.0
 40
2.0
 40
2.0
 40
3.0
 40
3.0
 40
3.0
 40
4.0
 40
4.0
 40
4.0
 40
5.0
 40
5.0
 40
5.0
 40
6.0
 40
6.0
 40
6.0
 40
7.0
 40
7.0
 40
7.0
 40
8.0
 40
8.0
 40
8.0
 40
9.0
 40
9.0
 40
9.0
 40
10.0
 40
10.0
 40
10.0
 40
11.0
 40
11.0
 40
11.0
 40
12.0
 40
12.0
 40
12.0
 40
13.0
 40
13.0
 40
13.0
 40
14.0
 40
14.0
 40
14.0
 40
15.0
 40
15.0
 40
15.0
 40
16.0
 40
16.0
 40
16.0
 40
17.0
 40
17.0
 40
17.0
 40
18.0
 40
18.0
 40
18.0
 40
19.0
 40
19.0
 40
19.0
 40
20.0
 40
20.0
 40
20.0
 40
20.0
 10
11.12818153989148
 20
4.886568938873658
 30
0.0
 10
11.12641727419573
 20
4.886568938873658
 30
0.0
 10
11.12465300849995
 20
4.886921522864724
 30
0.0
 10
11.12288874280419
 20
4.887274106855798
 30
0.0
 10
11.11442268979728
 20
4.890096124524767
 30
0.0
 10
11.10983640643254
 20
4.899621275245316
 30
0.0
 10
11.1126584241015
 20
4.908087328252221
 30
0.0
 10
11.1126584241015
 20
4.908087328252221
 30
0.0
 10
11.11794987544839
 20
4.923610444042218
 30
0.0
 10
11.11794987544839
 20
4.923610444042218
 30
0.0
 10
11.12218357482205
 20
4.955006568132404
 30
0.0
 10
11.12747502616893
 20
4.989226055631981
 30
0.0
 10
11.1327664775158
 20
5.023092959140505
 30
0.0
 10
11.1327664775158
 20
5.023092959140505
 30
0.0
 10
11.13453074321158
 20
5.033677207574676
 30
0.0
 10
11.13453074321158
 20
5.033677207574676
 30
0.0
 10
11.13453074321158
 20
5.033677207574676
 30
0.0
 10
11.13453074321158
 20
5.034029791565743
 30
0.0
 10
11.13453074321158
 20
5.034029791565743
 30
0.0
 10
11.1331204072473
 20
5.036851809234718
 30
0.0
 10
11.13241389352473
 20
5.04002641089476
 30
0.0
 10
11.1327664775158
 20
5.043201012554789
 30
0.0
 10
11.1327664775158
 20
5.043201012554789
 30
0.0
 10
11.1355898409252
 20
5.069307031038533
 30
0.0
 10
11.1355898409252
 20
5.069307031038533
 30
0.0
 10
11.1355898409252
 20
5.069307031038533
 30
0.0
 10
11.16169451366852
 20
5.265803973297629
 30
0.0
 10
11.16169451366852
 20
5.265803973297629
 30
0.0
 10
11.16169451366852
 20
5.265803973297629
 30
0.0
 10
11.19309198349913
 20
5.557905006753244
 30
0.0
 10
11.19309198349913
 20
5.557905006753244
 30
0.0
 10
11.19379715148125
 20
5.56707622774229
 30
0.0
 10
11.20155803650604
 20
5.573426776802797
 30
0.0
 10
11.21108318722659
 20
5.572367679089175
 30
0.0
 10
11.219903169965
 20
5.571662511107035
 30
0.0
 10
11.22660630301657
 20
5.563549042091189
 30
0.0
 10
11.22554720530294
 20
5.554376475361713
 30
0.0
 10
11.22554720530294
 20
5.554376475361713
 30
0.0
 10
11.19414973547233
 20
5.261924203655446
 30
0.0
 10
11.19414973547233
 20
5.261924203655446
 30
0.0
 10
11.19414973547233
 20
5.261924203655446
 30
0.0
 10
11.16592821304219
 20
5.044612694259505
 30
0.0
 10
11.16592821304219
 20
5.044612694259505
 30
0.0
 10
11.16592821304219
 20
5.044612694259505
 30
0.0
 10
11.16628079703325
 20
5.043554942286291
 30
0.0
 10
11.16628079703325
 20
5.043554942286291
 30
0.0
 10
11.16769247873795
 20
5.040378994885827
 30
0.0
 10
11.16839764672008
 20
5.036851809234718
 30
0.0
 10
11.16769247873795
 20
5.03332327784318
 30
0.0
 10
11.16769247873795
 20
5.03332327784318
 30
0.0
 10
11.16522304506005
 20
5.01780150779362
 30
0.0
 10
11.16522304506005
 20
5.01780150779362
 30
0.0
 10
11.15993024797275
 20
4.98393460428511
 30
0.0
 10
11.15463879662588
 20
4.950067700776585
 30
0.0
 10
11.14969992927007
 20
4.916202143008511
 30
0.0
 10
11.14969992927007
 20
4.916202143008511
 30
0.0
 10
11.14370330994104
 20
4.897857009549547
 30
0.0
 10
11.14370330994104
 20
4.897857009549547
 30
0.0
 10
11.14123387626315
 20
4.890801292506907
 30
0.0
 10
11.13488332720265
 20
4.886568938873658
 30
0.0
 10
11.12818153989148
 20
4.886568938873658
 30
0.0
  0
SPLINE
  5
326
330
1F
100
AcDbEntity
  8
Livello 1
370
     0
100
AcDbSpline
210
0.0
220
0.0
230
1.0
 70
     9
 71
     3
 72
    26
 73
    22
 74
     0
 42
0.000000001
 43
0.0000000001
 40
0.0
 40
0.0
 40
0.0
 40
0.0
 40
1.0
 40
1.0
 40
1.0
 40
2.0
 40
2.0
 40
2.0
 40
3.0
 40
3.0
 40
3.0
 40
4.0
 40
4.0
 40
4.0
 40
5.0
 40
5.0
 40
5.0
 40
6.0
 40
6.0
 40
6.0
 40
7.0
 40
7.0
 40
7.0
 40
7.0
 10
11.21044934348692
 20
6.840710534013652
 30
0.0
 10
11.21044934348692
 20
6.840710534013652
 30
0.0
 10
11.21044934348692
 20
6.840710534013652
 30
0.0
 10
11.21044934348692
 20
6.840710534013652
 30
0.0
 10
11.21044934348692
 20
6.840710534013652
 30
0.0
 10
5.734278974542114
 20
6.851646020698474
 30
0.0
 10
5.734278974542114
 20
6.851646020698474
 30
0.0
 10
5.725107753553054
 20
6.851646020698474
 30
0.0
 10
5.718052036510407
 20
6.85905432173218
 30
0.0
 10
5.718052036510407
 20
6.868226888461656
 30
0.0
 10
5.718052036510407
 20
6.877045525459642
 30
0.0
 10
5.725107753553054
 20
6.884453826493363
 30
0.0
 10
5.734278974542114
 20
6.884453826493363
 30
0.0
 10
5.734278974542114
 20
6.884453826493363
 30
0.0
 10
11.21044934348692
 20
6.873518339808533
 30
0.0
 10
11.21044934348692
 20
6.873518339808533
 30
0.0
 10
11.21962056447597
 20
6.873518339808533
 30
0.0
 10
11.22667628151862
 20
6.866110038774827
 30
0.0
 10
11.22667628151862
 20
6.856937472045338
 30
0.0
 10
11.22667628151862
 20
6.848118835047358
 30
0.0
 10
11.21962056447597
 20
6.840710534013652
 30
0.0
 10
11.21044934348692
 20
6.840710534013652
 30
0.0
  0
SPLINE
  5
327
330
1F
100
AcDbEntity
  8
Livello 1
370
     0
100
AcDbSpline
210
0.0
220
0.0
230
1.0
 70
     9
 71
     3
 72
    23
 73
    19
 74
     0
 42
0.000000001
 43
0.0000000001
 40
0.0
 40
0.0
 40
0.0
 40
0.0
 40
1.0
 40
1.0
 40
1.0
 40
2.0
 40
2.0
 40
2.0
 40
3.0
 40
3.0
 40
3.0
 40
4.0
 40
4.0
 40
4.0
 40
5.0
 40
5.0
 40
5.0
 40
6.0
 40
6.0
 40
6.0
 40
6.0
 10
5.734278974542114
 20
5.53991380302579
 30
0.0
 10
5.725106407812624
 20
5.53991380302579
 30
0.0
 10
5.718050690769985
 20
5.547322104059482
 30
0.0
 10
5.718050690769985
 20
5.556140741057475
 30
0.0
 10
5.718050690769985
 20
5.556140741057475
 30
0.0
 10
5.718050690769985
 20
5.600590547259756
 30
0.0
 10
5.718050690769985
 20
5.600590547259756
 30
0.0
 10
5.718050690769985
 20
5.609763113989224
 30
0.0
 10
5.725106407812624
 20
5.61717141502293
 30
0.0
 10
5.734278974542114
 20
5.61717141502293
 30
0.0
 10
5.74345019553116
 20
5.61717141502293
 30
0.0
 10
5.750505912573792
 20
5.609763113989224
 30
0.0
 10
5.750505912573792
 20
5.600590547259756
 30
0.0
 10
5.750505912573792
 20
5.600590547259756
 30
0.0
 10
5.750505912573792
 20
5.556140741057475
 30
0.0
 10
5.750505912573792
 20
5.556140741057475
 30
0.0
 10
5.750505912573792
 20
5.547322104059482
 30
0.0
 10
5.74345019553116
 20
5.53991380302579
 30
0.0
 10
5.734278974542114
 20
5.53991380302579
 30
0.0
  0
SPLINE
  5
328
330
1F
100
AcDbEntity
  8
Livello 1
370
     0
100
AcDbSpline
210
0.0
220
0.0
230
1.0
 70
     9
 71
     3
 72
    23
 73
    19
 74
     0
 42
0.000000001
 43
0.0000000001
 40
0.0
 40
0.0
 40
0.0
 40
0.0
 40
1.0
 40
1.0
 40
1.0
 40
2.0
 40
2.0
 40
2.0
 40
3.0
 40
3.0
 40
3.0
 40
4.0
 40
4.0
 40
4.0
 40
5.0
 40
5.0
 40
5.0
 40
6.0
 40
6.0
 40
6.0
 40
6.0
 10
11.14906608553039
 20
5.584328619977029
 30
0.0
 10
11.14906608553039
 20
5.584328619977029
 30
0.0
 10
5.734278974542114
 20
5.584328619977029
 30
0.0
 10
5.734278974542114
 20
5.584328619977029
 30
0.0
 10
5.725107753553054
 20
5.584328619977029
 30
0.0
 10
5.718052036510407
 20
5.591736921010735
 30
0.0
 10
5.718052036510407
 20
5.600555558008721
 30
0.0
 10
5.718052036510407
 20
5.60972812473819
 30
0.0
 10
5.725107753553054
 20
5.617136425771903
 30
0.0
 10
5.734278974542114
 20
5.617136425771903
 30
0.0
 10
5.734278974542114
 20
5.617136425771903
 30
0.0
 10
11.14906608553039
 20
5.617136425771903
 30
0.0
 10
11.14906608553039
 20
5.617136425771903
 30
0.0
 10
11.15823730651945
 20
5.617136425771903
 30
0.0
 10
11.16529302356208
 20
5.60972812473819
 30
0.0
 10
11.16529302356208
 20
5.600555558008721
 30
0.0
 10
11.16529302356208
 20
5.591736921010735
 30
0.0
 10
11.15823730651945
 20
5.584328619977029
 30
0.0
 10
11.14906608553039
 20
5.584328619977029
 30
0.0
  0
SPLINE
  5
329
330
1F
100
AcDbEntity
  8
Livello 1
370
     0
100
AcDbSpline
210
0.0
220
0.0
230
1.0
 70
     9
 71
     3
 72
    23
 73
    19
 74
     0
 42
0.000000001
 43
0.0000000001
 40
0.0
 40
0.0
 40
0.0
 40
0.0
 40
1.0
 40
1.0
 40
1.0
 40
2.0
 40
2.0
 40
2.0
 40
3.0
 40
3.0
 40
3.0
 40
4.0
 40
4.0
 40
4.0
 40
5.0
 40
5.0
 40
5.0
 40
6.0
 40
6.0
 40
6.0
 40
6.0
 10
5.734278974542114
 20
6.808679220443373
 30
0.0
 10
5.725106407812624
 20
6.808679220443373
 30
0.0
 10
5.718050690769985
 20
6.814675839772391
 30
0.0
 10
5.718050690769985
 20
6.823848406501859
 30
0.0
 10
5.718050690769985
 20
6.823848406501859
 30
0.0
 10
5.718050690769985
 20
6.868298212704125
 30
0.0
 10
5.718050690769985
 20
6.868298212704125
 30
0.0
 10
5.718050690769985
 20
6.877116849702112
 30
0.0
 10
5.725106407812624
 20
6.884525150735825
 30
0.0
 10
5.734278974542114
 20
6.884525150735825
 30
0.0
 10
5.74345019553116
 20
6.884525150735825
 30
0.0
 10
5.750505912573792
 20
6.877116849702112
 30
0.0
 10
5.750505912573792
 20
6.868298212704125
 30
0.0
 10
5.750505912573792
 20
6.868298212704125
 30
0.0
 10
5.750505912573792
 20
6.826317840179761
 30
0.0
 10
5.750505912573792
 20
6.826317840179761
 30
0.0
 10
5.750505912573792
 20
6.817145273450293
 30
0.0
 10
5.74345019553116
 20
6.808679220443373
 30
0.0
 10
5.734278974542114
 20
6.808679220443373
 30
0.0
  0
SPLINE
  5
32A
330
1F
100
AcDbEntity
  8
Livello 1
370
     0
100
AcDbSpline
210
0.0
220
0.0
230
1.0
 70
     9
 71
     3
 72
    32
 73
    28
 74
     0
 42
0.000000001
 43
0.0000000001
 40
0.0
 40
0.0
 40
0.0
 40
0.0
 40
1.0
 40
1.0
 40
1.0
 40
2.0
 40
2.0
 40
2.0
 40
3.0
 40
3.0
 40
3.0
 40
4.0
 40
4.0
 40
4.0
 40
5.0
 40
5.0
 40
5.0
 40
6.0
 40
6.0
 40
6.0
 40
7.0
 40
7.0
 40
7.0
 40
8.0
 40
8.0
 40
8.0
 40
9.0
 40
9.0
 40
9.0
 40
9.0
 10
11.1256057927201
 20
4.873516602501993
 30
0.0
 10
11.12313501330176
 20
4.873516602501993
 30
0.0
 10
11.12066557962386
 20
4.874221770484133
 30
0.0
 10
11.11819614594596
 20
4.875279522457347
 30
0.0
 10
11.11819614594596
 20
4.875279522457347
 30
0.0
 10
11.11325727859015
 20
4.877748956135249
 30
0.0
 10
11.11325727859015
 20
4.877748956135249
 30
0.0
 10
11.10514380957431
 20
4.881630071517861
 30
0.0
 10
11.1016166239232
 20
4.891507806229469
 30
0.0
 10
11.10584897755645
 20
4.899621275245316
 30
0.0
 10
11.10726065926115
 20
4.902795876905358
 30
0.0
 10
11.10973009293905
 20
4.90526531058326
 30
0.0
 10
11.11219952661695
 20
4.906676992287962
 30
0.0
 10
11.11431637630379
 20
4.915143045294875
 30
0.0
 10
11.12242984531963
 20
4.920788426373242
 30
0.0
 10
11.13124982805805
 20
4.919024160677473
 30
0.0
 10
11.14006846505603
 20
4.917259894981711
 30
0.0
 10
11.14606643012547
 20
4.908441257983724
 30
0.0
 10
11.14430216442969
 20
4.899621275245316
 30
0.0
 10
11.14430216442969
 20
4.899621275245316
 30
0.0
 10
11.14148014676073
 20
4.886568938873658
 30
0.0
 10
11.14148014676073
 20
4.886568938873658
 30
0.0
 10
11.14077497877859
 20
4.881630071517861
 30
0.0
 10
11.13724644738705
 20
4.87739637214419
 30
0.0
 10
11.13266016402231
 20
4.875279522457347
 30
0.0
 10
11.13054466007591
 20
4.874221770484133
 30
0.0
 10
11.12807522639801
 20
4.873516602501993
 30
0.0
 10
11.1256057927201
 20
4.873516602501993
 30
0.0
  0
SPLINE
  5
32B
330
1F
100
AcDbEntity
  8
Livello 1
370
     0
100
AcDbSpline
210
0.0
220
0.0
230
1.0
 70
     9
 71
     3
 72
    23
 73
    19
 74
     0
 42
0.000000001
 43
0.0000000001
 40
0.0
 40
0.0
 40
0.0
 40
0.0
 40
1.0
 40
1.0
 40
1.0
 40
2.0
 40
2.0
 40
2.0
 40
3.0
 40
3.0
 40
3.0
 40
4.0
 40
4.0
 40
4.0
 40
5.0
 40
5.0
 40
5.0
 40
6.0
 40
6.0
 40
6.0
 40
6.0
 10
5.734278974542114
 20
4.735897149530089
 30
0.0
 10
5.725106407812624
 20
4.735897149530089
 30
0.0
 10
5.718050690769985
 20
4.743305450563802
 30
0.0
 10
5.718050690769985
 20
4.752124087561789
 30
0.0
 10
5.718050690769985
 20
4.752124087561789
 30
0.0
 10
5.718050690769985
 20
5.55610440606604
 30
0.0
 10
5.718050690769985
 20
5.55610440606604
 30
0.0
 10
5.718050690769985
 20
5.565276972795508
 30
0.0
 10
5.725106407812624
 20
5.572685273829222
 30
0.0
 10
5.734278974542114
 20
5.572685273829222
 30
0.0
 10
5.74345019553116
 20
5.572685273829222
 30
0.0
 10
5.750505912573792
 20
5.565276972795508
 30
0.0
 10
5.750505912573792
 20
5.55610440606604
 30
0.0
 10
5.750505912573792
 20
5.55610440606604
 30
0.0
 10
5.750505912573792
 20
4.752124087561789
 30
0.0
 10
5.750505912573792
 20
4.752124087561789
 30
0.0
 10
5.750505912573792
 20
4.743305450563802
 30
0.0
 10
5.74345019553116
 20
4.735897149530089
 30
0.0
 10
5.734278974542114
 20
4.735897149530089
 30
0.0
  0
SPLINE
  5
32C
330
1F
100
AcDbEntity
  8
Livello 1
370
     0
100
AcDbSpline
210
0.0
220
0.0
230
1.0
 70
     9
 71
     3
 72
    23
 73
    19
 74
     0
 42
0.000000001
 43
0.0000000001
 40
0.0
 40
0.0
 40
0.0
 40
0.0
 40
1.0
 40
1.0
 40
1.0
 40
2.0
 40
2.0
 40
2.0
 40
3.0
 40
3.0
 40
3.0
 40
4.0
 40
4.0
 40
4.0
 40
5.0
 40
5.0
 40
5.0
 40
6.0
 40
6.0
 40
6.0
 40
6.0
 10
11.15435753687727
 20
5.584328619977029
 30
0.0
 10
11.15435753687727
 20
5.584328619977029
 30
0.0
 10
11.14906473978997
 20
5.584328619977029
 30
0.0
 10
11.14906473978997
 20
5.584328619977029
 30
0.0
 10
11.14024610279198
 20
5.584328619977029
 30
0.0
 10
11.13283780175827
 20
5.591736921010735
 30
0.0
 10
11.13283780175827
 20
5.600555558008721
 30
0.0
 10
11.13283780175827
 20
5.60972812473819
 30
0.0
 10
11.14024610279198
 20
5.617136425771903
 30
0.0
 10
11.14906473978997
 20
5.617136425771903
 30
0.0
 10
11.14906473978997
 20
5.617136425771903
 30
0.0
 10
11.15435753687727
 20
5.617136425771903
 30
0.0
 10
11.15435753687727
 20
5.617136425771903
 30
0.0
 10
11.16352875786632
 20
5.617136425771903
 30
0.0
 10
11.17058447490897
 20
5.60972812473819
 30
0.0
 10
11.17058447490897
 20
5.600555558008721
 30
0.0
 10
11.17058447490897
 20
5.591736921010735
 30
0.0
 10
11.16352875786632
 20
5.584328619977029
 30
0.0
 10
11.15435753687727
 20
5.584328619977029
 30
0.0
  0
SPLINE
  5
32D
330
1F
100
AcDbEntity
  8
Livello 1
370
     0
100
AcDbSpline
210
0.0
220
0.0
230
1.0
 70
     9
 71
     3
 72
    23
 73
    19
 74
     0
 42
0.000000001
 43
0.0000000001
 40
0.0
 40
0.0
 40
0.0
 40
0.0
 40
1.0
 40
1.0
 40
1.0
 40
2.0
 40
2.0
 40
2.0
 40
3.0
 40
3.0
 40
3.0
 40
4.0
 40
4.0
 40
4.0
 40
5.0
 40
5.0
 40
5.0
 40
6.0
 40
6.0
 40
6.0
 40
6.0
 10
5.734278974542114
 20
5.584328619977029
 30
0.0
 10
5.725106407812624
 20
5.584328619977029
 30
0.0
 10
5.718050690769985
 20
5.591736921010735
 30
0.0
 10
5.718050690769985
 20
5.600555558008721
 30
0.0
 10
5.718050690769985
 20
5.600555558008721
 30
0.0
 10
5.718050690769985
 20
6.82363577951488
 30
0.0
 10
5.718050690769985
 20
6.82363577951488
 30
0.0
 10
5.718050690769985
 20
6.832808346244355
 30
0.0
 10
5.725106407812624
 20
6.839864063287002
 30
0.0
 10
5.734278974542114
 20
6.839864063287002
 30
0.0
 10
5.74345019553116
 20
6.839864063287002
 30
0.0
 10
5.750505912573792
 20
6.832808346244355
 30
0.0
 10
5.750505912573792
 20
6.82363577951488
 30
0.0
 10
5.750505912573792
 20
6.82363577951488
 30
0.0
 10
5.750505912573792
 20
5.600555558008721
 30
0.0
 10
5.750505912573792
 20
5.600555558008721
 30
0.0
 10
5.750505912573792
 20
5.591736921010735
 30
0.0
 10
5.74345019553116
 20
5.584328619977029
 30
0.0
 10
5.734278974542114
 20
5.584328619977029
 30
0.0
  0
SPLINE
  5
32E
330
1F
100
AcDbEntity
  8
Livello 1
370
     0
100
AcDbSpline
210
0.0
220
0.0
230
1.0
 70
     9
 71
     3
 72
    23
 73
    19
 74
     0
 42
0.000000001
 43
0.0000000001
 40
0.0
 40
0.0
 40
0.0
 40
0.0
 40
1.0
 40
1.0
 40
1.0
 40
2.0
 40
2.0
 40
2.0
 40
3.0
 40
3.0
 40
3.0
 40
4.0
 40
4.0
 40
4.0
 40
5.0
 40
5.0
 40
5.0
 40
6.0
 40
6.0
 40
6.0
 40
6.0
 10
11.2118596794512
 20
6.807373852232153
 30
0.0
 10
11.2118596794512
 20
6.807373852232153
 30
0.0
 10
11.2065668823639
 20
6.807373852232153
 30
0.0
 10
11.2065668823639
 20
6.807373852232153
 30
0.0
 10
11.19774824536591
 20
6.807373852232153
 30
0.0
 10
11.1903399443322
 20
6.814782153265866
 30
0.0
 10
11.1903399443322
 20
6.823600790263853
 30
0.0
 10
11.1903399443322
 20
6.832773356993335
 30
0.0
 10
11.19774824536591
 20
6.840181658027042
 30
0.0
 10
11.2065668823639
 20
6.840181658027042
 30
0.0
 10
11.2065668823639
 20
6.840181658027042
 30
0.0
 10
11.2118596794512
 20
6.840181658027042
 30
0.0
 10
11.2118596794512
 20
6.840181658027042
 30
0.0
 10
11.22103090044025
 20
6.840181658027042
 30
0.0
 10
11.2280866174829
 20
6.832773356993335
 30
0.0
 10
11.2280866174829
 20
6.823600790263853
 30
0.0
 10
11.2280866174829
 20
6.814782153265866
 30
0.0
 10
11.22103090044025
 20
6.807373852232153
 30
0.0
 10
11.2118596794512
 20
6.807373852232153
 30
0.0
  0
SPLINE
  5
32F
330
1F
100
AcDbEntity
  8
Livello 1
370
     0
100
AcDbSpline
210
0.0
220
0.0
230
1.0
 70
     9
 71
     3
 72
    38
 73
    34
 74
     0
 42
0.000000001
 43
0.0000000001
 40
0.0
 40
0.0
 40
0.0
 40
0.0
 40
1.0
 40
1.0
 40
1.0
 40
2.0
 40
2.0
 40
2.0
 40
3.0
 40
3.0
 40
3.0
 40
4.0
 40
4.0
 40
4.0
 40
5.0
 40
5.0
 40
5.0
 40
6.0
 40
6.0
 40
6.0
 40
7.0
 40
7.0
 40
7.0
 40
8.0
 40
8.0
 40
8.0
 40
9.0
 40
9.0
 40
9.0
 40
10.0
 40
10.0
 40
10.0
 40
11.0
 40
11.0
 40
11.0
 40
11.0
 10
11.2118596794512
 20
5.584328619977029
 30
0.0
 10
11.2115057497197
 20
5.584328619977029
 30
0.0
 10
11.21115316572862
 20
5.584328619977029
 30
0.0
 10
11.21115316572862
 20
5.584328619977029
 30
0.0
 10
11.20198059899915
 20
5.584681203968088
 30
0.0
 10
11.19492622769694
 20
5.592442088992875
 30
0.0
 10
11.19563139567906
 20
5.601614655722343
 30
0.0
 10
11.19563139567906
 20
5.601614655722343
 30
0.0
 10
11.20092284702595
 20
5.700744586829571
 30
0.0
 10
11.20092284702595
 20
5.700744586829571
 30
0.0
 10
11.22314775012707
 20
6.064105267212909
 30
0.0
 10
11.22244258214493
 20
6.427467293336661
 30
0.0
 10
11.19810082935697
 20
6.78095023900839
 30
0.0
 10
11.19810082935697
 20
6.78095023900839
 30
0.0
 10
11.19316196200116
 20
6.82187285955954
 30
0.0
 10
11.19316196200116
 20
6.82187285955954
 30
0.0
 10
11.19175028029648
 20
6.830691496557534
 30
0.0
 10
11.19810082935697
 20
6.838806311313796
 30
0.0
 10
11.20727339608645
 20
6.839864063287002
 30
0.0
 10
11.216798546807
 20
6.841275744991698
 30
0.0
 10
11.2242068478407
 20
6.834572611940117
 30
0.0
 10
11.22561718380499
 20
6.825752629201723
 30
0.0
 10
11.22561718380499
 20
6.825752629201723
 30
0.0
 10
11.2305560511608
 20
6.783772256677352
 30
0.0
 10
11.2305560511608
 20
6.783772256677352
 30
0.0
 10
11.25525038793982
 20
6.428172461318787
 30
0.0
 10
11.2559569016624
 20
6.063400099230769
 30
0.0
 10
11.23337806882976
 20
5.698980321133809
 30
0.0
 10
11.23337806882976
 20
5.698980321133809
 30
0.0
 10
11.2280866174829
 20
5.599850390026581
 30
0.0
 10
11.2280866174829
 20
5.599850390026581
 30
0.0
 10
11.22773403349181
 20
5.59103040728818
 30
0.0
 10
11.22032573245811
 20
5.584328619977029
 30
0.0
 10
11.2118596794512
 20
5.584328619977029
 30
0.0
  0
SPLINE
  5
330
330
1F
100
AcDbEntity
  8
Livello 1
370
     0
100
AcDbSpline
210
0.0
220
0.0
230
1.0
 70
     9
 71
     3
 72
    23
 73
    19
 74
     0
 42
0.000000001
 43
0.0000000001
 40
0.0
 40
0.0
 40
0.0
 40
0.0
 40
1.0
 40
1.0
 40
1.0
 40
2.0
 40
2.0
 40
2.0
 40
3.0
 40
3.0
 40
3.0
 40
4.0
 40
4.0
 40
4.0
 40
5.0
 40
5.0
 40
5.0
 40
6.0
 40
6.0
 40
6.0
 40
6.0
 10
11.2118596794512
 20
5.584328619977029
 30
0.0
 10
11.2118596794512
 20
5.584328619977029
 30
0.0
 10
11.2065668823639
 20
5.584328619977029
 30
0.0
 10
11.2065668823639
 20
5.584328619977029
 30
0.0
 10
11.19774824536591
 20
5.584328619977029
 30
0.0
 10
11.1903399443322
 20
5.591736921010735
 30
0.0
 10
11.1903399443322
 20
5.600555558008721
 30
0.0
 10
11.1903399443322
 20
5.60972812473819
 30
0.0
 10
11.19774824536591
 20
5.617136425771903
 30
0.0
 10
11.2065668823639
 20
5.617136425771903
 30
0.0
 10
11.2065668823639
 20
5.617136425771903
 30
0.0
 10
11.2118596794512
 20
5.617136425771903
 30
0.0
 10
11.2118596794512
 20
5.617136425771903
 30
0.0
 10
11.22103090044025
 20
5.617136425771903
 30
0.0
 10
11.2280866174829
 20
5.60972812473819
 30
0.0
 10
11.2280866174829
 20
5.600555558008721
 30
0.0
 10
11.2280866174829
 20
5.591736921010735
 30
0.0
 10
11.22103090044025
 20
5.584328619977029
 30
0.0
 10
11.2118596794512
 20
5.584328619977029
 30
0.0
  0
SPLINE
  5
331
330
1F
100
AcDbEntity
  8
Livello 1
370
     0
100
AcDbSpline
210
0.0
220
0.0
230
1.0
 70
     9
 71
     3
 72
    23
 73
    19
 74
     0
 42
0.000000001
 43
0.0000000001
 40
0.0
 40
0.0
 40
0.0
 40
0.0
 40
1.0
 40
1.0
 40
1.0
 40
2.0
 40
2.0
 40
2.0
 40
3.0
 40
3.0
 40
3.0
 40
4.0
 40
4.0
 40
4.0
 40
5.0
 40
5.0
 40
5.0
 40
6.0
 40
6.0
 40
6.0
 40
6.0
 10
11.20660321735534
 20
5.584328619977029
 30
0.0
 10
11.20660321735534
 20
5.584328619977029
 30
0.0
 10
11.16497542882205
 20
5.584328619977029
 30
0.0
 10
11.16497542882205
 20
5.584328619977029
 30
0.0
 10
11.15580286209256
 20
5.584328619977029
 30
0.0
 10
11.14839456105886
 20
5.591736921010735
 30
0.0
 10
11.14839456105886
 20
5.600555558008721
 30
0.0
 10
11.14839456105886
 20
5.60972812473819
 30
0.0
 10
11.15580286209256
 20
5.617136425771903
 30
0.0
 10
11.16497542882205
 20
5.617136425771903
 30
0.0
 10
11.16497542882205
 20
5.617136425771903
 30
0.0
 10
11.20660321735534
 20
5.617136425771903
 30
0.0
 10
11.20660321735534
 20
5.617136425771903
 30
0.0
 10
11.2157744383444
 20
5.617136425771903
 30
0.0
 10
11.22283015538704
 20
5.60972812473819
 30
0.0
 10
11.22283015538704
 20
5.600555558008721
 30
0.0
 10
11.22283015538704
 20
5.591736921010735
 30
0.0
 10
11.2157744383444
 20
5.584328619977029
 30
0.0
 10
11.20660321735534
 20
5.584328619977029
 30
0.0
  0
SPLINE
  5
332
330
1F
100
AcDbEntity
  8
Livello 1
370
     0
100
AcDbSpline
210
0.0
220
0.0
230
1.0
 70
     9
 71
     3
 72
    23
 73
    19
 74
     0
 42
0.000000001
 43
0.0000000001
 40
0.0
 40
0.0
 40
0.0
 40
0.0
 40
1.0
 40
1.0
 40
1.0
 40
2.0
 40
2.0
 40
2.0
 40
3.0
 40
3.0
 40
3.0
 40
4.0
 40
4.0
 40
4.0
 40
5.0
 40
5.0
 40
5.0
 40
6.0
 40
6.0
 40
6.0
 40
6.0
 10
11.2118596794512
 20
6.807373852232153
 30
0.0
 10
11.20268711272172
 20
6.807373852232153
 30
0.0
 10
11.19563139567906
 20
6.814782153265866
 30
0.0
 10
11.19563139567906
 20
6.823600790263853
 30
0.0
 10
11.19563139567906
 20
6.823600790263853
 30
0.0
 10
11.19563139567906
 20
6.849706808747576
 30
0.0
 10
11.19563139567906
 20
6.849706808747576
 30
0.0
 10
11.19563139567906
 20
6.85887937547708
 30
0.0
 10
11.20268711272172
 20
6.866287676510786
 30
0.0
 10
11.2118596794512
 20
6.866287676510786
 30
0.0
 10
11.22103090044025
 20
6.866287676510786
 30
0.0
 10
11.2280866174829
 20
6.85887937547708
 30
0.0
 10
11.2280866174829
 20
6.849706808747576
 30
0.0
 10
11.2280866174829
 20
6.849706808747576
 30
0.0
 10
11.2280866174829
 20
6.823600790263853
 30
0.0
 10
11.2280866174829
 20
6.823600790263853
 30
0.0
 10
11.2280866174829
 20
6.814782153265866
 30
0.0
 10
11.22103090044025
 20
6.807373852232153
 30
0.0
 10
11.2118596794512
 20
6.807373852232153
 30
0.0
  0
SPLINE
  5
333
330
1F
100
AcDbEntity
  8
Livello 1
370
     0
100
AcDbSpline
210
0.0
220
0.0
230
1.0
 70
     9
 71
     3
 72
    23
 73
    19
 74
     0
 42
0.000000001
 43
0.0000000001
 40
0.0
 40
0.0
 40
0.0
 40
0.0
 40
1.0
 40
1.0
 40
1.0
 40
2.0
 40
2.0
 40
2.0
 40
3.0
 40
3.0
 40
3.0
 40
4.0
 40
4.0
 40
4.0
 40
5.0
 40
5.0
 40
5.0
 40
6.0
 40
6.0
 40
6.0
 40
6.0
 10
11.2118596794512
 20
5.558222601493284
 30
0.0
 10
11.20268711272172
 20
5.558222601493284
 30
0.0
 10
11.19563139567906
 20
5.565630902526997
 30
0.0
 10
11.19563139567906
 20
5.574449539524984
 30
0.0
 10
11.19563139567906
 20
5.574449539524984
 30
0.0
 10
11.19563139567906
 20
5.600555558008721
 30
0.0
 10
11.19563139567906
 20
5.600555558008721
 30
0.0
 10
11.19563139567906
 20
5.60972812473819
 30
0.0
 10
11.20268711272172
 20
5.617136425771903
 30
0.0
 10
11.2118596794512
 20
5.617136425771903
 30
0.0
 10
11.22103090044025
 20
5.617136425771903
 30
0.0
 10
11.2280866174829
 20
5.60972812473819
 30
0.0
 10
11.2280866174829
 20
5.600555558008721
 30
0.0
 10
11.2280866174829
 20
5.600555558008721
 30
0.0
 10
11.2280866174829
 20
5.574449539524984
 30
0.0
 10
11.2280866174829
 20
5.574449539524984
 30
0.0
 10
11.2280866174829
 20
5.565630902526997
 30
0.0
 10
11.22103090044025
 20
5.558222601493284
 30
0.0
 10
11.2118596794512
 20
5.558222601493284
 30
0.0
  0
SPLINE
  5
334
330
1F
100
AcDbEntity
  8
Livello 1
370
     0
100
AcDbSpline
210
0.0
220
0.0
230
1.0
 70
     9
 71
     3
 72
    35
 73
    31
 74
     0
 42
0.000000001
 43
0.0000000001
 40
0.0
 40
0.0
 40
0.0
 40
0.0
 40
1.0
 40
1.0
 40
1.0
 40
2.0
 40
2.0
 40
2.0
 40
3.0
 40
3.0
 40
3.0
 40
4.0
 40
4.0
 40
4.0
 40
5.0
 40
5.0
 40
5.0
 40
6.0
 40
6.0
 40
6.0
 40
7.0
 40
7.0
 40
7.0
 40
8.0
 40
8.0
 40
8.0
 40
9.0
 40
9.0
 40
9.0
 40
10.0
 40
10.0
 40
10.0
 40
10.0
 10
11.14906608553039
 20
5.022494104651855
 30
0.0
 10
11.14871215579891
 20
5.022494104651855
 30
0.0
 10
11.14800698781676
 20
5.022494104651855
 30
0.0
 10
11.14765440382569
 20
5.022494104651855
 30
0.0
 10
11.13848183709622
 20
5.023551856625076
 30
0.0
 10
11.13177870404465
 20
5.031312741649827
 30
0.0
 10
11.13283780175827
 20
5.04013272438825
 30
0.0
 10
11.13283780175827
 20
5.04013272438825
 30
0.0
 10
11.13530723543618
 20
5.069060760540956
 30
0.0
 10
11.13530723543618
 20
5.069060760540956
 30
0.0
 10
11.13530723543618
 20
5.069060760540956
 30
0.0
 10
11.16176583791098
 20
5.265910286791118
 30
0.0
 10
11.16176583791098
 20
5.265910286791118
 30
0.0
 10
11.16176583791098
 20
5.265910286791118
 30
0.0
 10
11.19280937801011
 20
5.558009974506326
 30
0.0
 10
11.19280937801011
 20
5.558009974506326
 30
0.0
 10
11.19386847572372
 20
5.566829957244713
 30
0.0
 10
11.20127677675745
 20
5.573179160564798
 30
0.0
 10
11.21080192747799
 20
5.572473992582665
 30
0.0
 10
11.21997314846705
 20
5.571416240609458
 30
0.0
 10
11.22632369752755
 20
5.563654009844256
 30
0.0
 10
11.22561852954541
 20
5.55448278885521
 30
0.0
 10
11.22561852954541
 20
5.55448278885521
 30
0.0
 10
11.19422105971479
 20
5.261676587417433
 30
0.0
 10
11.19422105971479
 20
5.261676587417433
 30
0.0
 10
11.19422105971479
 20
5.261676587417433
 30
0.0
 10
11.16529302356208
 20
5.037310706719274
 30
0.0
 10
11.16529302356208
 20
5.037310706719274
 30
0.0
 10
11.16458785557994
 20
5.028843307971939
 30
0.0
 10
11.1575321385373
 20
5.022494104651855
 30
0.0
 10
11.14906608553039
 20
5.022494104651855
 30
0.0
  0
SPLINE
  5
335
330
1F
100
AcDbEntity
  8
Livello 1
370
     0
100
AcDbSpline
210
0.0
220
0.0
230
1.0
 70
     9
 71
     3
 72
    26
 73
    22
 74
     0
 42
0.000000001
 43
0.0000000001
 40
0.0
 40
0.0
 40
0.0
 40
0.0
 40
1.0
 40
1.0
 40
1.0
 40
2.0
 40
2.0
 40
2.0
 40
3.0
 40
3.0
 40
3.0
 40
4.0
 40
4.0
 40
4.0
 40
5.0
 40
5.0
 40
5.0
 40
6.0
 40
6.0
 40
6.0
 40
7.0
 40
7.0
 40
7.0
 40
7.0
 10
11.14906608553039
 20
4.998963833339502
 30
0.0
 10
11.14835957180784
 20
4.998963833339502
 30
0.0
 10
11.14765440382569
 20
4.998963833339502
 30
0.0
 10
11.14694923584356
 20
4.998963833339502
 30
0.0
 10
11.13812925310515
 20
5.000021585312723
 30
0.0
 10
11.13177870404465
 20
5.008487638319635
 30
0.0
 10
11.13283780175827
 20
5.017307621058044
 30
0.0
 10
11.13283780175827
 20
5.017307621058044
 30
0.0
 10
11.13530723543618
 20
5.038120842454475
 30
0.0
 10
11.13530723543618
 20
5.038120842454475
 30
0.0
 10
11.13671757140044
 20
5.047293409183964
 30
0.0
 10
11.14447980216566
 20
5.053643958244471
 30
0.0
 10
11.15365102315471
 20
5.052584860530835
 30
0.0
 10
11.16282358988418
 20
5.051174524566555
 30
0.0
 10
11.16882155495362
 20
5.043061055550708
 30
0.0
 10
11.16776245724
 20
5.034241072812292
 30
0.0
 10
11.16776245724
 20
5.034241072812292
 30
0.0
 10
11.16529302356208
 20
5.013426505675433
 30
0.0
 10
11.16529302356208
 20
5.013426505675433
 30
0.0
 10
11.16423527158888
 20
5.004960452668527
 30
0.0
 10
11.15717955454625
 20
4.998963833339502
 30
0.0
 10
11.14906608553039
 20
4.998963833339502
 30
0.0
  0
SPLINE
  5
336
330
1F
100
AcDbEntity
  8
Livello 1
370
     0
100
AcDbSpline
210
0.0
220
0.0
230
1.0
 70
     9
 71
     3
 72
    38
 73
    34
 74
     0
 42
0.000000001
 43
0.0000000001
 40
0.0
 40
0.0
 40
0.0
 40
0.0
 40
1.0
 40
1.0
 40
1.0
 40
2.0
 40
2.0
 40
2.0
 40
3.0
 40
3.0
 40
3.0
 40
4.0
 40
4.0
 40
4.0
 40
5.0
 40
5.0
 40
5.0
 40
6.0
 40
6.0
 40
6.0
 40
7.0
 40
7.0
 40
7.0
 40
8.0
 40
8.0
 40
8.0
 40
9.0
 40
9.0
 40
9.0
 40
10.0
 40
10.0
 40
10.0
 40
11.0
 40
11.0
 40
11.0
 40
11.0
 10
11.12031434137322
 20
7.588776683644212
 30
0.0
 10
11.11290469459909
 20
7.588776683644212
 30
0.0
 10
11.10620290728794
 20
7.593715551000016
 30
0.0
 10
11.10443864159218
 20
7.601123852033722
 30
0.0
 10
11.10443864159218
 20
7.601123852033722
 30
0.0
 10
11.09914719024529
 20
7.62193707343016
 30
0.0
 10
11.09914719024529
 20
7.62193707343016
 30
0.0
 10
11.08433058817787
 20
7.657214312902937
 30
0.0
 10
11.0561077200073
 20
7.681203481699839
 30
0.0
 10
11.01800846286555
 20
7.6882591987425
 30
0.0
 10
11.01800846286555
 20
7.6882591987425
 30
0.0
 10
10.99790040945125
 20
7.690728632420402
 30
0.0
 10
10.99790040945125
 20
7.690728632420402
 30
0.0
 10
10.98908042671284
 20
7.691787730134031
 30
0.0
 10
10.98272987765233
 20
7.700253783140951
 30
0.0
 10
10.98378897536595
 20
7.709073765879359
 30
0.0
 10
10.98519931133023
 20
7.717892402877332
 30
0.0
 10
10.99260761236394
 20
7.724242951937831
 30
0.0
 10
11.00213276308449
 20
7.72318385422421
 30
0.0
 10
11.00213276308449
 20
7.72318385422421
 30
0.0
 10
11.02294733022135
 20
7.720714420546308
 30
0.0
 10
11.02294733022135
 20
7.720714420546308
 30
0.0
 10
11.07268858777049
 20
7.711189269825759
 30
0.0
 10
11.11043526092119
 20
7.67979314573558
 30
0.0
 10
11.13019207608483
 20
7.632167392132835
 30
0.0
 10
11.13019207608483
 20
7.632167392132835
 30
0.0
 10
11.13618869541385
 20
7.609237321049576
 30
0.0
 10
11.13618869541385
 20
7.609237321049576
 30
0.0
 10
11.13830554510069
 20
7.60041733831116
 30
0.0
 10
11.13301409375381
 20
7.591598701313174
 30
0.0
 10
11.1241941110154
 20
7.589129267635279
 30
0.0
 10
11.1231363590422
 20
7.588776683644212
 30
0.0
 10
11.1217246773375
 20
7.588776683644212
 30
0.0
 10
11.12031434137322
 20
7.588776683644212
 30
0.0
  0
SPLINE
  5
337
330
1F
100
AcDbEntity
  8
Livello 1
370
     0
100
AcDbSpline
210
0.0
220
0.0
230
1.0
 70
     9
 71
     3
 72
    32
 73
    28
 74
     0
 42
0.000000001
 43
0.0000000001
 40
0.0
 40
0.0
 40
0.0
 40
0.0
 40
1.0
 40
1.0
 40
1.0
 40
2.0
 40
2.0
 40
2.0
 40
3.0
 40
3.0
 40
3.0
 40
4.0
 40
4.0
 40
4.0
 40
5.0
 40
5.0
 40
5.0
 40
6.0
 40
6.0
 40
6.0
 40
7.0
 40
7.0
 40
7.0
 40
8.0
 40
8.0
 40
8.0
 40
9.0
 40
9.0
 40
9.0
 40
9.0
 10
11.12814520490004
 20
7.50774292401752
 30
0.0
 10
11.12003039014377
 20
7.50774292401752
 30
0.0
 10
11.11297467310114
 20
7.513739543346538
 30
0.0
 10
11.11191692112793
 20
7.521853012362377
 30
0.0
 10
11.11191692112793
 20
7.521853012362377
 30
0.0
 10
11.10662546978104
 20
7.558189349548797
 30
0.0
 10
11.10662546978104
 20
7.558189349548797
 30
0.0
 10
11.10662546978104
 20
7.558189349548797
 30
0.0
 10
11.10662546978104
 20
7.57900391668565
 30
0.0
 10
11.10662546978104
 20
7.57900391668565
 30
0.0
 10
11.10662546978104
 20
7.587822553683643
 30
0.0
 10
11.11403377081477
 20
7.595230854717364
 30
0.0
 10
11.12285240781275
 20
7.595230854717364
 30
0.0
 10
11.13202497454222
 20
7.595230854717364
 30
0.0
 10
11.13908069158487
 20
7.587822553683643
 30
0.0
 10
11.13908069158487
 20
7.57900391668565
 30
0.0
 10
11.13908069158487
 20
7.57900391668565
 30
0.0
 10
11.13908069158487
 20
7.560658783226692
 30
0.0
 10
11.13908069158487
 20
7.560658783226692
 30
0.0
 10
11.13908069158487
 20
7.560658783226692
 30
0.0
 10
11.14437214293175
 20
7.526439295727122
 30
0.0
 10
11.14437214293175
 20
7.526439295727122
 30
0.0
 10
11.14543124064537
 20
7.517620658729136
 30
0.0
 10
11.13943327557594
 20
7.509153259981793
 30
0.0
 10
11.13061463857794
 20
7.50774292401752
 30
0.0
 10
11.12955554086433
 20
7.50774292401752
 30
0.0
 10
11.12885037288218
 20
7.50774292401752
 30
0.0
 10
11.12814520490004
 20
7.50774292401752
 30
0.0
  0
SPLINE
  5
338
330
1F
100
AcDbEntity
  8
Livello 1
370
     0
100
AcDbSpline
210
0.0
220
0.0
230
1.0
 70
     9
 71
     3
 72
    26
 73
    22
 74
     0
 42
0.000000001
 43
0.0000000001
 40
0.0
 40
0.0
 40
0.0
 40
0.0
 40
1.0
 40
1.0
 40
1.0
 40
2.0
 40
2.0
 40
2.0
 40
3.0
 40
3.0
 40
3.0
 40
4.0
 40
4.0
 40
4.0
 40
5.0
 40
5.0
 40
5.0
 40
6.0
 40
6.0
 40
6.0
 40
7.0
 40
7.0
 40
7.0
 40
7.0
 10
11.21577578408482
 20
6.810583443143229
 30
0.0
 10
11.20766096932855
 20
6.810583443143229
 30
0.0
 10
11.20060525228591
 20
6.816580062472233
 30
0.0
 10
11.1995475003127
 20
6.825046115479153
 30
0.0
 10
11.1995475003127
 20
6.825046115479153
 30
0.0
 10
11.1328727910093
 20
7.407129986963141
 30
0.0
 10
11.1328727910093
 20
7.407129986963141
 30
0.0
 10
11.13181369329567
 20
7.416302553692617
 30
0.0
 10
11.13816424235618
 20
7.424416022708463
 30
0.0
 10
11.14733680908564
 20
7.425475120422092
 30
0.0
 10
11.15686061406577
 20
7.425827704413158
 30
0.0
 10
11.16426891509949
 20
7.419829739343718
 30
0.0
 10
11.16532801281311
 20
7.411011102345739
 30
0.0
 10
11.16532801281311
 20
7.411011102345739
 30
0.0
 10
11.23200272211651
 20
6.828927230861751
 30
0.0
 10
11.23200272211651
 20
6.828927230861751
 30
0.0
 10
11.23306181983013
 20
6.81975466413229
 30
0.0
 10
11.22671127076963
 20
6.811641195116429
 30
0.0
 10
11.21753870404016
 20
6.810583443143229
 30
0.0
 10
11.21683353605802
 20
6.810583443143229
 30
0.0
 10
11.21648095206694
 20
6.810583443143229
 30
0.0
 10
11.21577578408482
 20
6.810583443143229
 30
0.0
  0
SPLINE
  5
339
330
1F
100
AcDbEntity
  8
Livello 1
370
     0
100
AcDbSpline
210
0.0
220
0.0
230
1.0
 70
     9
 71
     3
 72
    32
 73
    28
 74
     0
 42
0.000000001
 43
0.0000000001
 40
0.0
 40
0.0
 40
0.0
 40
0.0
 40
1.0
 40
1.0
 40
1.0
 40
2.0
 40
2.0
 40
2.0
 40
3.0
 40
3.0
 40
3.0
 40
4.0
 40
4.0
 40
4.0
 40
5.0
 40
5.0
 40
5.0
 40
6.0
 40
6.0
 40
6.0
 40
7.0
 40
7.0
 40
7.0
 40
8.0
 40
8.0
 40
8.0
 40
9.0
 40
9.0
 40
9.0
 40
9.0
 10
5.734278974542114
 20
6.851823658434433
 30
0.0
 10
5.725106407812624
 20
6.851823658434433
 30
0.0
 10
5.718050690769985
 20
6.859231959468139
 30
0.0
 10
5.718050690769985
 20
6.868050596466126
 30
0.0
 10
5.718050690769985
 20
6.868050596466126
 30
0.0
 10
5.718050690769985
 20
7.706956916192517
 30
0.0
 10
5.718050690769985
 20
7.706956916192517
 30
0.0
 10
5.718050690769985
 20
7.71612813718157
 30
0.0
 10
5.725458991803691
 20
7.723536438215283
 30
0.0
 10
5.73463155853318
 20
7.723536438215283
 30
0.0
 10
5.73463155853318
 20
7.723536438215283
 30
0.0
 10
11.00019220539319
 20
7.723536438215283
 30
0.0
 10
11.00019220539319
 20
7.723536438215283
 30
0.0
 10
11.0090121881316
 20
7.723536438215283
 30
0.0
 10
11.0164204891653
 20
7.71612813718157
 30
0.0
 10
11.0164204891653
 20
7.706956916192517
 30
0.0
 10
11.0164204891653
 20
7.698136933454108
 30
0.0
 10
11.0090121881316
 20
7.690728632420402
 30
0.0
 10
11.00019220539319
 20
7.690728632420402
 30
0.0
 10
11.00019220539319
 20
7.690728632420402
 30
0.0
 10
5.750858496564873
 20
7.690728632420402
 30
0.0
 10
5.750858496564873
 20
7.690728632420402
 30
0.0
 10
5.750858496564873
 20
7.690728632420402
 30
0.0
 10
5.750505912573792
 20
6.868050596466126
 30
0.0
 10
5.750505912573792
 20
6.868050596466126
 30
0.0
 10
5.750505912573792
 20
6.859231959468139
 30
0.0
 10
5.74345019553116
 20
6.851823658434433
 30
0.0
 10
5.734278974542114
 20
6.851823658434433
 30
0.0
  0
SPLINE
  5
33A
330
1F
100
AcDbEntity
  8
Livello 1
370
     0
100
AcDbSpline
210
0.0
220
0.0
230
1.0
 70
     9
 71
     3
 72
    35
 73
    31
 74
     0
 42
0.000000001
 43
0.0000000001
 40
0.0
 40
0.0
 40
0.0
 40
0.0
 40
1.0
 40
1.0
 40
1.0
 40
2.0
 40
2.0
 40
2.0
 40
3.0
 40
3.0
 40
3.0
 40
4.0
 40
4.0
 40
4.0
 40
5.0
 40
5.0
 40
5.0
 40
6.0
 40
6.0
 40
6.0
 40
7.0
 40
7.0
 40
7.0
 40
8.0
 40
8.0
 40
8.0
 40
9.0
 40
9.0
 40
9.0
 40
10.0
 40
10.0
 40
10.0
 40
10.0
 10
5.736783397471029
 20
4.701042472550412
 30
0.0
 10
5.727610830741561
 20
4.701042472550412
 30
0.0
 10
5.720555113698914
 20
4.708450773584118
 30
0.0
 10
5.720555113698914
 20
4.717269410582105
 30
0.0
 10
5.720555113698914
 20
4.726441977311587
 30
0.0
 10
5.727610830741561
 20
4.733850278345293
 30
0.0
 10
5.736783397471029
 20
4.733850278345293
 30
0.0
 10
5.736783397471029
 20
4.733850278345293
 30
0.0
 10
10.99705259298416
 20
4.733850278345293
 30
0.0
 10
10.99705259298416
 20
4.733850278345293
 30
0.0
 10
11.00446089401787
 20
4.737377463996402
 30
0.0
 10
11.04502958483755
 20
4.762778314498007
 30
0.0
 10
11.11099912615881
 20
4.897186830818434
 30
0.0
 10
11.11488024154141
 20
4.904947715843221
 30
0.0
 10
11.12405280827088
 20
4.908474901494322
 30
0.0
 10
11.13216627728674
 20
4.904947715843221
 30
0.0
 10
11.14027974630259
 20
4.90141918445169
 30
0.0
 10
11.14416086168519
 20
4.892247963462622
 30
0.0
 10
11.14098626002515
 20
4.884133148706361
 30
0.0
 10
11.14098626002515
 20
4.884133148706361
 30
0.0
 10
11.127579993922
 20
4.849913661206763
 30
0.0
 10
11.127579993922
 20
4.849913661206763
 30
0.0
 10
11.12616965795772
 20
4.845681307573514
 30
0.0
 10
11.1226411265662
 20
4.842505360173056
 30
0.0
 10
11.11876001118359
 20
4.840742440217717
 30
0.0
 10
11.05138013389805
 20
4.716564242599979
 30
0.0
 10
11.01116402706945
 20
4.702805392505752
 30
0.0
 10
11.00304921231318
 20
4.701395056541471
 30
0.0
 10
11.00304921231318
 20
4.701395056541471
 30
0.0
 10
5.736783397471029
 20
4.701042472550412
 30
0.0
 10
5.736783397471029
 20
4.701042472550412
 30
0.0
  0
SPLINE
  5
33B
330
1F
100
AcDbEntity
  8
Livello 1
 62
     1
370
    50
100
AcDbSpline
210
0.0
220
0.0
230
1.0
 70
    27
 71
     3
 72
    11
 73
     7
 74
     0
 42
0.000000001
 43
0.0000000001
 40
0.0
 40
0.0
 40
0.0
 40
0.0
 40
1.0
 40
1.0
 40
1.0
 40
2.0
 40
2.0
 40
2.0
 40
2.0
 10
2.911033990303259
 20
6.671342372960474
 30
0.0
 10
2.911033990303259
 20
6.671342372960474
 30
0.0
 10
11.18402573026314
 20
6.671342372960474
 30
0.0
 10
11.18402573026314
 20
6.671342372960474
 30
0.0
 10
11.18402573026314
 20
6.671342372960474
 30
0.0
 10
2.911033990303259
 20
6.671342372960474
 30
0.0
 10
2.911033990303259
 20
6.671342372960474
 30
0.0
  0
MTEXT
  5
33C
330
1F
100
AcDbEntity
  8
Livello 1
100
AcDbMText
 10
0.3020268443321115
 20
5.243733830345249
 30
0.0
 40
2.123016666135912
 41
0.0
 46
0.0
 71
     7
 72
     1
  1
\fSource Sans Pro SemiBold|b0|i0|c0|p34;\W1;L
 73
     1
 44
1.0
  0
POLYLINE
  5
33D
330
1F
100
AcDbEntity
  8
Livello 1
370
     9
100
AcDb2dPolyline
 66
     1
 10
0.0
 20
0.0
 30
0.0
  0
VERTEX
  5
33E
330
33D
100
AcDbEntity
  8
Livello 1
370
     9
100
AcDbVertex
100
AcDb2dVertex
 10
11.00050410290183
 20
3.836513043036575
 30
0.0
  0
VERTEX
  5
33F
330
33D
100
AcDbEntity
  8
Livello 1
370
     9
100
AcDbVertex
100
AcDb2dVertex
 10
5.858415139937001
 20
3.836513043036575
 30
0.0
  0
SEQEND
  5
340
330
33D
100
AcDbEntity
  8
Livello 1
370
     9
  0
MTEXT
  5
341
330
1F
100
AcDbEntity
  8
Livello 1
100
AcDbMText
 10
4.503889722523901
 20
0.8652608354935154
 30
0.0
 40
1.998133332833799
 41
0.0
 46
0.0
 71
     7
 72
     1
  1
\fSource Sans Pro Light|b0|i0|c0|p34;\W1;64 mm
 73
     1
 44
1.0
  0
ENDSEC
  0
SECTION
  2
OBJECTS
  0
DICTIONARY
  5
C
330
0
100
AcDbDictionary
281
     1
  3
ACAD_CIP_PREVIOUS_PRODUCT_INFO
350
216
  3
ACAD_COLOR
350
6B
  3
ACAD_DETAILVIEWSTYLE
350
21B
  3
ACAD_GROUP
350
D
  3
ACAD_LAYOUT
350
1A
  3
ACAD_MATERIAL
350
6A
  3
ACAD_MLEADERSTYLE
350
12D
  3
ACAD_MLINESTYLE
350
17
  3
ACAD_PLOTSETTINGS
350
19
  3
ACAD_PLOTSTYLENAME
350
E
  3
ACAD_SCALELIST
350
10C
  3
ACAD_SECTIONVIEWSTYLE
350
219
  3
ACAD_TABLESTYLE
350
7E
  3
ACAD_VISUALSTYLE
350
EF
  3
ACDB_RECOMPOSE_DATA
350
343
  3
AcDbVariableDictionary
350
5E
  3
AcDsDecomposeData
350
349
  0
DICTIONARY
  5
1FF
330
2
100
AcDbDictionary
280
     1
281
     1
  3
ACAD_LAYERSTATES
360
200
  0
DICTIONARY
  5
13C
330
10
100
AcDbDictionary
280
     1
281
     1
  0
DICTIONARY
  5
1CE
330
1F
100
AcDbDictionary
280
     1
281
     1
  0
XRECORD
  5
216
102
{ACAD_REACTORS
330
C
102
}
330
C
100
AcDbXrecord
280
     1
300
ACD
300
2020
300

  0
DICTIONARY
  5
6B
102
{ACAD_REACTORS
330
C
102
}
330
C
100
AcDbDictionary
281
     1
  0
DICTIONARY
  5
21B
102
{ACAD_REACTORS
330
C
102
}
330
C
100
AcDbDictionary
281
     1
  3
Imperial24
350
28E
  3
Metric50
350
21C
  0
DICTIONARY
  5
D
102
{ACAD_REACTORS
330
C
102
}
330
C
100
AcDbDictionary
281
     1
  0
DICTIONARY
  5
1A
102
{ACAD_REACTORS
330
C
102
}
330
C
100
AcDbDictionary
281
     1
  3
Layout1
350
D3
  3
Layout2
350
D7
  3
Model
350
22
  0
DICTIONARY
  5
6A
102
{ACAD_REACTORS
330
C
102
}
330
C
100
AcDbDictionary
281
     1
  3
ByBlock
350
ED
  3
ByLayer
350
EC
  3
Global
350
EE
  0
DICTIONARY
  5
12D
102
{ACAD_REACTORS
330
C
102
}
330
C
100
AcDbDictionary
281
     1
  3
Annotativa
350
13B
  3
Standard
350
12E
  0
DICTIONARY
  5
17
102
{ACAD_REACTORS
330
C
102
}
330
C
100
AcDbDictionary
281
     1
  3
Standard
350
18
  0
DICTIONARY
  5
19
102
{ACAD_REACTORS
330
C
102
}
330
C
100
AcDbDictionary
281
     1
  0
ACDBDICTIONARYWDFLT
  5
E
102
{ACAD_REACTORS
330
C
102
}
330
C
100
AcDbDictionary
281
     1
  3
Normal
350
F
100
AcDbDictionaryWithDefault
340
F
  0
DICTIONARY
  5
10C
102
{ACAD_REACTORS
330
C
102
}
330
C
100
AcDbDictionary
281
     1
  3
A0
350
10D
  3
A1
350
1BE
  3
A2
350
1BF
  3
A3
350
1C0
  3
A4
350
1C1
  3
A5
350
1C2
  3
A6
350
1C3
  3
A7
350
1C4
  3
A8
350
1C5
  3
A9
350
1C6
  3
B0
350
1C7
  3
B1
350
1C8
  3
B2
350
1C9
  3
B3
350
1CA
  3
B4
350
1CB
  3
B5
350
1CC
  3
B6
350
1CD
  0
DICTIONARY
  5
219
102
{ACAD_REACTORS
330
C
102
}
330
C
100
AcDbDictionary
281
     1
  3
Imperial24
350
28D
  3
Metric50
350
21A
  0
DICTIONARY
  5
7E
102
{ACAD_REACTORS
330
C
102
}
330
C
100
AcDbDictionary
281
     1
  3
Standard
350
7F
  0
DICTIONARY
  5
EF
102
{ACAD_REACTORS
330
C
102
}
330
C
100
AcDbDictionary
281
     1
  3
2dWireframe
350
F5
  3
Basic
350
F4
  3
Brighten
350
FB
  3
ColorChange
350
FF
  3
Conceptual
350
F8
  3
Dim
350
FA
  3
EdgeColorOff
350
1E6
  3
Facepattern
350
FE
  3
Flat
350
F0
  3
FlatWithEdges
350
F1
  3
Gouraud
350
F2
  3
GouraudWithEdges
350
F3
  3
Hidden
350
F7
  3
JitterOff
350
1E4
  3
Linepattern
350
FD
  3
OverhangOff
350
1E5
  3
Realistic
350
F9
  3
Shaded
350
1F3
  3
Shaded with edges
350
1F2
  3
Shades of Gray
350
1EF
  3
Sketchy
350
1F0
  3
Thicken
350
FC
  3
Wireframe
350
F6
  3
X-Ray
350
1F1
  0
XRECORD
  5
343
102
{ACAD_REACTORS
330
C
102
}
330
C
100
AcDbXrecord
280
     1
 90
        1
330
7F
  0
DICTIONARY
  5
5E
102
{ACAD_REACTORS
330
C
102
}
330
C
100
AcDbDictionary
281
     1
  3
CANNOSCALE
350
146
  3
CENTEREXE
350
259
  3
CENTERLTYPEFILE
350
25A
  3
CMLEADERSTYLE
350
145
  3
CTABLESTYLE
350
84
  3
CVIEWDETAILSTYLE
350
227
  3
CVIEWSECTIONSTYLE
350
228
  3
DIMASSOC
350
5F
  3
HIDETEXT
350
63
  3
LAYEREVAL
350
1AE
  3
LAYERNOTIFY
350
1AF
  0
DICTIONARY
  5
349
102
{ACAD_REACTORS
330
C
102
}
330
C
100
AcDbDictionary
281
     1
  3
AcDsRecords
350
34B
  3
AcDsSchemas
350
34A
1001
ACAD
1070
     2
  0
DICTIONARY
  5
200
102
{ACAD_REACTORS
330
1FF
102
}
330
1FF
100
AcDbDictionary
281
     1
  0
ACDBDETAILVIEWSTYLE
  5
28E
102
{ACAD_XDICTIONARY
360
352
102
}
102
{ACAD_REACTORS
330
21B
102
}
330
21B
100
AcDbModelDocViewStyle
 70
     0
  3
Imperial24
290
     0
100
AcDbDetailViewStyle
 70
     0
 71
     0
 90
        3
 71
     1
340
11
 62
   256
 40
0.24
340
0
 62
   256
 40
0.24
300

 40
0.36
280
     3
 71
     2
340
16
 90
       25
 62
   256
 71
     3
340
11
 62
   256
 40
0.24
 90
        1
 40
0.75
 90
        1
300
%<\AcVar ViewType \f "%tc1">% %<\AcVar ViewDetailId>%\PSCALA %<\AcVar ViewScale \f "%sn">%
 71
     4
340
16
 90
       25
 62
   256
340
16
 90
       25
 62
   256
280
     0
  0
ACDBDETAILVIEWSTYLE
  5
21C
102
{ACAD_XDICTIONARY
360
34E
102
}
102
{ACAD_REACTORS
330
21B
102
}
330
21B
100
AcDbModelDocViewStyle
 70
     0
  3
Metric50
290
     0
100
AcDbDetailViewStyle
 70
     0
 71
     0
 90
        3
 71
     1
340
11
 62
   256
 40
5.0
340
0
 62
   256
 40
5.0
300

 40
0.0
280
     1
 71
     2
340
16
 90
       25
 62
   256
 71
     3
340
11
 62
   256
 40
5.0
 90
        0
 40
15.0
 90
        1
300
%<\AcVar ViewDetailId>% (%<\AcVar ViewScale \f "%sn">%)
 71
     4
340
16
 90
       25
 62
   256
340
16
 90
       25
 62
   256
280
     0
  0
LAYOUT
  5
D3
102
{ACAD_REACTORS
330
1A
102
}
330
1A
100
AcDbPlotSettings
  1

  2
C:\Documents and Settings\basas\Application Data\Autodesk\AutoCAD 2005\R16.1\enu\plotters\Default Windows System Printer.pc3
  4

  6

 40
0.0
 41
0.0
 42
0.0
 43
0.0
 44
0.0
 45
0.0
 46
0.0
 47
0.0
 48
0.0
 49
0.0
140
0.0
141
0.0
142
1.0
143
1.0
 70
   688
 72
     0
 73
     0
 74
     5
  7

 75
    16
147
1.0
 76
     0
 77
     2
 78
   300
148
0.0
149
0.0
100
AcDbLayout
  1
Layout1
 70
     1
 71
     1
 10
0.0
 20
0.0
 11
12.0
 21
9.0
 12
0.0
 22
0.0
 32
0.0
 14
0.0
 24
0.0
 34
0.0
 15
0.0
 25
0.0
 35
0.0
146
0.0
 13
0.0
 23
0.0
 33
0.0
 16
1.0
 26
0.0
 36
0.0
 17
0.0
 27
1.0
 37
0.0
 76
     0
330
D2
  0
LAYOUT
  5
D7
102
{ACAD_REACTORS
330
1A
102
}
330
1A
100
AcDbPlotSettings
  1

  2
C:\Documents and Settings\basas\Application Data\Autodesk\AutoCAD 2005\R16.1\enu\plotters\Default Windows System Printer.pc3
  4

  6

 40
0.0
 41
0.0
 42
0.0
 43
0.0
 44
0.0
 45
0.0
 46
0.0
 47
0.0
 48
0.0
 49
0.0
140
0.0
141
0.0
142
1.0
143
1.0
 70
   688
 72
     0
 73
     0
 74
     5
  7

 75
    16
147
1.0
 76
     0
 77
     2
 78
   300
148
0.0
149
0.0
100
AcDbLayout
  1
Layout2
 70
     1
 71
     2
 10
0.0
 20
0.0
 11
12.0
 21
9.0
 12
0.0
 22
0.0
 32
0.0
 14
0.0
 24
0.0
 34
0.0
 15
0.0
 25
0.0
 35
0.0
146
0.0
 13
0.0
 23
0.0
 33
0.0
 16
1.0
 26
0.0
 36
0.0
 17
0.0
 27
1.0
 37
0.0
 76
     0
330
D6
  0
LAYOUT
  5
22
102
{ACAD_XDICTIONARY
360
205
102
}
102
{ACAD_REACTORS
330
1A
102
}
330
1A
100
AcDbPlotSettings
  1

  2
none_device
  4
ISO_A4_(210.00_x_297.00_MM)
  6

 40
7.5
 41
20.0
 42
7.5
 43
20.0
 44
210.0
 45
297.0
 46
11.54999923706054
 47
-13.65000009536743
 48
0.0
 49
0.0
140
0.0
141
0.0
142
1.0
143
8.704084754739808
 70
 11952
 72
     1
 73
     0
 74
     0
  7

 75
     0
147
0.1148885871608098
 76
     0
 77
     2
 78
   300
148
0.0
149
0.0
100
AcDbLayout
  1
Model
 70
     1
 71
     0
 10
0.0
 20
0.0
 11
12.0
 21
9.0
 12
0.0
 22
0.0
 32
0.0
 14
0.0
 24
0.0
 34
0.0
 15
0.0
 25
0.0
 35
0.0
146
0.0
 13
0.0
 23
0.0
 33
0.0
 16
1.0
 26
0.0
 36
0.0
 17
0.0
 27
1.0
 37
0.0
 76
     0
330
1F
331
EA
1001
ACAD_PSEXT
1000
None
1000
None
1000
Not applicable
1000
The layout will not be plotted unless a new plotter configuration name is selected.
1070
     0
  0
MATERIAL
  5
ED
102
{ACAD_XDICTIONARY
360
1F9
102
}
102
{ACAD_REACTORS
330
6A
102
}
330
6A
100
AcDbMaterial
  1
ByBlock
 94
       63
  0
MATERIAL
  5
EC
102
{ACAD_XDICTIONARY
360
1F7
102
}
102
{ACAD_REACTORS
330
6A
102
}
330
6A
100
AcDbMaterial
  1
ByLayer
 94
       63
  0
MATERIAL
  5
EE
102
{ACAD_XDICTIONARY
360
173
102
}
102
{ACAD_REACTORS
330
6A
102
}
330
6A
100
AcDbMaterial
  1
Global
 43
0.0007999999797903
 43
0.0
 43
0.0
 43
0.0
 43
0.0
 43
0.0007999999797903
 43
0.0
 43
0.0
 43
0.0
 43
0.0
 43
1.0
 43
0.0
 43
0.0
 43
0.0
 43
0.0
 43
1.0
 49
0.0007999999797903
 49
0.0
 49
0.0
 49
0.0
 49
0.0
 49
0.0007999999797903
 49
0.0
 49
0.0
 49
0.0
 49
0.0
 49
1.0
 49
0.0
 49
0.0
 49
0.0
 49
0.0
 49
1.0
142
0.0007999999797903
142
0.0
142
0.0
142
0.0
142
0.0
142
0.0007999999797903
142
0.0
142
0.0
142
0.0
142
0.0
142
1.0
142
0.0
142
0.0
142
0.0
142
0.0
142
1.0
144
0.0007999999797903
144
0.0
144
0.0
144
0.0
144
0.0
144
0.0007999999797903
144
0.0
144
0.0
144
0.0
144
0.0
144
1.0
144
0.0
144
0.0
144
0.0
144
0.0
144
1.0
 94
       63
1001
ACAD
1070
    -1
1070
     3
1070
     0
1000

1071
        0
1070
     0
  0
MLEADERSTYLE
  5
13B
102
{ACAD_REACTORS
330
12D
102
}
330
12D
100
AcDbMLeaderStyle
179
     2
170
     2
171
     1
172
     0
 90
        2
 40
0.0
 41
0.0
173
     1
 91
-1056964608
340
14
 92
       -2
290
     1
 42
2.0
291
     1
 43
8.0
  3
Standard
 44
4.0
300

342
11
174
     1
178
     1
175
     1
176
     0
 93
-1056964608
 45
4.0
292
     0
297
     0
 46
4.0
 94
-1056964608
 47
1.0
 49
1.0
140
1.0
293
     1
141
0.0
294
     1
177
     0
142
1.0
295
     0
296
     1
143
3.75
271
     0
272
     9
273
     9
298
     0
  0
MLEADERSTYLE
  5
12E
102
{ACAD_REACTORS
330
12D
102
}
330
12D
100
AcDbMLeaderStyle
179
     2
170
     2
171
     1
172
     0
 90
        2
 40
0.0
 41
0.0
173
     1
 91
-1056964608
340
14
 92
       -2
290
     1
 42
2.0
291
     1
 43
8.0
  3
Standard
 44
4.0
300

342
11
174
     1
178
     1
175
     1
176
     0
 93
-1056964608
 45
4.0
292
     0
297
     0
 46
4.0
 94
-1056964608
 47
1.0
 49
1.0
140
1.0
293
     1
141
0.0
294
     1
177
     0
142
1.0
295
     0
296
     0
143
3.75
271
     0
272
     9
273
     9
298
     0
  0
MLINESTYLE
  5
18
102
{ACAD_REACTORS
330
17
102
}
330
17
100
AcDbMlineStyle
  2
STANDARD
 70
     0
  3

 62
   256
 51
90.0
 52
90.0
 71
     2
 49
0.5
 62
   256
  6
BYLAYER
 49
-0.5
 62
   256
  6
BYLAYER
  0
ACDBPLACEHOLDER
  5
F
102
{ACAD_REACTORS
330
E
102
}
330
E
  0
SCALE
  5
10D
102
{ACAD_REACTORS
330
10C
102
}
330
10C
100
AcDbScale
 70
     0
300
1:1
140
1.0
141
1.0
290
     1
  0
SCALE
  5
1BE
102
{ACAD_REACTORS
330
10C
102
}
330
10C
100
AcDbScale
 70
     0
300
1:2
140
1.0
141
2.0
290
     0
  0
SCALE
  5
1BF
102
{ACAD_REACTORS
330
10C
102
}
330
10C
100
AcDbScale
 70
     0
300
1:4
140
1.0
141
4.0
290
     0
  0
SCALE
  5
1C0
102
{ACAD_REACTORS
330
10C
102
}
330
10C
100
AcDbScale
 70
     0
300
1:5
140
1.0
141
5.0
290
     0
  0
SCALE
  5
1C1
102
{ACAD_REACTORS
330
10C
102
}
330
10C
100
AcDbScale
 70
     0
300
1:8
140
1.0
141
8.0
290
     0
  0
SCALE
  5
1C2
102
{ACAD_REACTORS
330
10C
102
}
330
10C
100
AcDbScale
 70
     0
300
1:10
140
1.0
141
10.0
290
     0
  0
SCALE
  5
1C3
102
{ACAD_REACTORS
330
10C
102
}
330
10C
100
AcDbScale
 70
     0
300
1:16
140
1.0
141
16.0
290
     0
  0
SCALE
  5
1C4
102
{ACAD_REACTORS
330
10C
102
}
330
10C
100
AcDbScale
 70
     0
300
1:20
140
1.0
141
20.0
290
     0
  0
SCALE
  5
1C5
102
{ACAD_REACTORS
330
10C
102
}
330
10C
100
AcDbScale
 70
     0
300
1:30
140
1.0
141
30.0
290
     0
  0
SCALE
  5
1C6
102
{ACAD_REACTORS
330
10C
102
}
330
10C
100
AcDbScale
 70
     0
300
1:40
140
1.0
141
40.0
290
     0
  0
SCALE
  5
1C7
102
{ACAD_REACTORS
330
10C
102
}
330
10C
100
AcDbScale
 70
     0
300
1:50
140
1.0
141
50.0
290
     0
  0
SCALE
  5
1C8
102
{ACAD_REACTORS
330
10C
102
}
330
10C
100
AcDbScale
 70
     0
300
1:100
140
1.0
141
100.0
290
     0
  0
SCALE
  5
1C9
102
{ACAD_REACTORS
330
10C
102
}
330
10C
100
AcDbScale
 70
     0
300
2:1
140
2.0
141
1.0
290
     0
  0
SCALE
  5
1CA
102
{ACAD_REACTORS
330
10C
102
}
330
10C
100
AcDbScale
 70
     0
300
4:1
140
4.0
141
1.0
290
     0
  0
SCALE
  5
1CB
102
{ACAD_REACTORS
330
10C
102
}
330
10C
100
AcDbScale
 70
     0
300
8:1
140
8.0
141
1.0
290
     0
  0
SCALE
  5
1CC
102
{ACAD_REACTORS
330
10C
102
}
330
10C
100
AcDbScale
 70
     0
300
10:1
140
10.0
141
1.0
290
     0
  0
SCALE
  5
1CD
102
{ACAD_REACTORS
330
10C
102
}
330
10C
100
AcDbScale
 70
     0
300
100:1
140
100.0
141
1.0
290
     0
  0
ACDBSECTIONVIEWSTYLE
  5
28D
102
{ACAD_XDICTIONARY
360
350
102
}
102
{ACAD_REACTORS
330
219
102
}
330
219
100
AcDbModelDocViewStyle
 70
     0
  3
Imperial24
290
     0
100
AcDbSectionViewStyle
 70
     0
 71
     0
 90
       78
 71
     1
340
11
 62
   256
 40
0.24
340
0
340
0
 62
   256
 40
0.24
300
I, O, Q, S, X, Z
 40
0.48
 90
        3
 40
0.18
 90
        1
 71
     2
340
16
 90
       25
 62
   256
340
16
 90
       50
 62
   256
 40
0.24
 40
0.0
 40
0.24
 71
     3
340
11
 62
   256
 40
0.24
 90
        1
 40
0.75
 90
        1
300
%<\AcVar ViewType \f "%tc1">% %<\AcVar ViewSectionStartId>%-%<\AcVar ViewSectionEndId>%\PSCALA %<\AcVar ViewScale \f "%sn">%
 71
     4
 62
   256
 62
   257
300
ANSI31
 40
1.0
 90
        0
290
     0
290
     0
 90
        6
 40
0.0
 40
1.570796326794896
 40
0.2617993877991494
 40
1.308996938995747
 40
-0.2617993877991494
 40
1.832595714594046
  0
ACDBSECTIONVIEWSTYLE
  5
21A
102
{ACAD_XDICTIONARY
360
34C
102
}
102
{ACAD_REACTORS
330
219
102
}
330
219
100
AcDbModelDocViewStyle
 70
     0
  3
Metric50
290
     0
100
AcDbSectionViewStyle
 70
     0
 71
     0
 90
      102
 71
     1
340
11
 62
   256
 40
5.0
340
0
340
0
 62
   256
 40
5.0
300
I, O, Q, S, X, Z
 40
10.0
 90
        0
 40
2.5
 90
        0
 71
     2
340
16
 90
       25
 62
   256
340
16
 90
       50
 62
   256
 40
5.0
 40
2.5
 40
5.0
 71
     3
340
11
 62
   256
 40
5.0
 90
        0
 40
15.0
 90
        1
300
%<\AcVar ViewSectionStartId>%-%<\AcVar ViewSectionEndId>% (%<\AcVar ViewScale \f "%sn">%)
 71
     4
 62
   256
 62
   257
300
ANSI31
 40
1.0
 90
        0
290
     0
290
     0
 90
        6
 40
0.0
 40
1.570796326794896
 40
0.2617993877991494
 40
1.308996938995747
 40
-0.2617993877991494
 40
1.832595714594046
  0
TABLESTYLE
  5
7F
102
{ACAD_XDICTIONARY
360
162
102
}
102
{ACAD_REACTORS
330
7E
102
}
330
7E
100
AcDbTableStyle
280
     0
  3
Standard
 70
     0
 71
     0
 40
1.5
 41
1.5
280
     0
281
     0
  7
Standard
140
4.5
170
     2
 62
     0
 63
     7
283
     0
 90
      512
 91
        0
  1

274
    -2
284
     1
 64
     0
275
    -2
285
     1
 65
     0
276
    -2
286
     1
 66
     0
277
    -2
287
     1
 67
     0
278
    -2
288
     1
 68
     0
279
    -2
289
     1
 69
     0
  7
Standard
140
6.0
170
     5
 62
     0
 63
     7
283
     0
 90
      512
 91
        0
  1

274
    -2
284
     1
 64
     0
275
    -2
285
     1
 65
     0
276
    -2
286
     1
 66
     0
277
    -2
287
     1
 67
     0
278
    -2
288
     1
 68
     0
279
    -2
289
     1
 69
     0
  7
Standard
140
4.5
170
     5
 62
     0
 63
     7
283
     0
 90
      512
 91
        0
  1

274
    -2
284
     1
 64
     0
275
    -2
285
     1
 65
     0
276
    -2
286
     1
 66
     0
277
    -2
287
     1
 67
     0
278
    -2
288
     1
 68
     0
279
    -2
289
     1
 69
     0
  0
VISUALSTYLE
  5
F5
102
{ACAD_REACTORS
330
EF
102
}
330
EF
100
AcDbVisualStyle
  2
2dWireframe
 70
     4
177
     3
291
     0
 70
    58
 90
        0
176
     1
 90
        2
176
     1
 90
        1
176
     1
 90
        0
176
     1
 40
0.6
176
     1
 40
30.0
176
     1
 62
     7
420
 16777215
176
     1
 90
        1
176
     1
 90
        4
176
     1
 62
     7
176
     1
 62
   257
176
     1
 90
        1
176
     1
 90
        1
176
     1
 40
1.0
176
     1
 90
        0
176
     1
 62
   257
176
     1
 40
1.0
176
     1
 90
        1
176
     1
 90
        6
176
     1
 90
        2
176
     1
 62
     7
176
     1
 90
        5
176
     1
 90
        0
176
     1
 90
        0
176
     1
290
     0
176
     1
 90
        1
176
     1
 40
0.0
176
     1
 90
        0
176
     1
290
     1
176
     1
290
     1
176
     1
290
     0
176
     1
290
     0
176
     1
290
     0
176
     1
290
     0
176
     1
290
     0
176
     1
290
     0
176
     1
290
     0
176
     1
 90
       50
176
     1
 40
0.0
176
     1
 40
1.0
176
     1
 90
        0
176
     1
 62
    18
420
        0
176
     1
 90
       50
176
     1
 90
        3
176
     1
 62
     5
420
      255
176
     1
290
     0
176
     1
 90
       50
176
     1
 90
       50
176
     1
 90
       50
176
     1
290
     0
176
     1
 90
       50
176
     1
 62
   256
176
     0
 40
1.0
176
     0
 90
        2
176
     1
  1
strokes_ogs.tif
176
     1
290
     0
176
     1
 40
1.0
176
     1
 40
1.0
176
     1
1001
ACAD
1000
AcDbSavedByObjectVersion
1070
     0
  0
VISUALSTYLE
  5
F4
102
{ACAD_REACTORS
330
EF
102
}
330
EF
100
AcDbVisualStyle
  2
Basic
 70
     7
177
     3
291
     1
 70
    58
 90
        1
176
     1
 90
        0
176
     1
 90
        1
176
     1
 90
        0
176
     1
 40
0.6
176
     1
 40
30.0
176
     1
 62
     7
420
 16777215
176
     1
 90
        0
176
     1
 90
        4
176
     1
 62
     7
176
     1
 62
   257
176
     1
 90
        1
176
     1
 90
        1
176
     1
 40
1.0
176
     1
 90
        8
176
     1
 62
     7
176
     1
 40
1.0
176
     1
 90
        1
176
     1
 90
        6
176
     1
 90
        2
176
     1
 62
     7
176
     1
 90
        5
176
     1
 90
        0
176
     1
 90
        0
176
     1
290
     0
176
     1
 90
        1
176
     1
 40
0.0
176
     1
 90
        0
176
     1
290
     0
176
     1
290
     1
176
     1
290
     1
176
     1
290
     0
176
     1
290
     0
176
     1
290
     0
176
     1
290
     0
176
     1
290
     0
176
     1
290
     0
176
     1
 90
       50
176
     1
 40
0.0
176
     1
 40
1.0
176
     1
 90
        0
176
     1
 62
    18
420
        0
176
     1
 90
       50
176
     1
 90
        3
176
     1
 62
     5
420
      255
176
     1
290
     0
176
     1
 90
       50
176
     1
 90
       50
176
     1
 90
       50
176
     1
290
     0
176
     1
 90
       50
176
     1
 62
   256
176
     0
 40
1.0
176
     0
 90
        2
176
     1
  1
strokes_ogs.tif
176
     1
290
     0
176
     1
 40
1.0
176
     1
 40
1.0
176
     1
1001
ACAD
1000
AcDbSavedByObjectVersion
1070
     0
  0
VISUALSTYLE
  5
FB
102
{ACAD_REACTORS
330
EF
102
}
330
EF
100
AcDbVisualStyle
  2
Brighten
 70
    12
177
     3
291
     1
 70
    58
 90
        2
176
     1
 90
        2
176
     1
 90
        1
176
     1
 90
        0
176
     1
 40
0.6
176
     1
 40
30.0
176
     1
 62
     7
420
 16777215
176
     1
 90
        1
176
     1
 90
        4
176
     1
 62
     7
176
     1
 62
   257
176
     1
 90
        1
176
     1
 90
        1
176
     1
 40
1.0
176
     1
 90
        8
176
     1
 62
     7
176
     1
 40
1.0
176
     1
 90
        1
176
     1
 90
        6
176
     1
 90
        2
176
     1
 62
     7
176
     1
 90
        5
176
     1
 90
        0
176
     1
 90
        0
176
     1
290
     0
176
     1
 90
        1
176
     1
 40
50.0
176
     1
 90
        0
176
     1
290
     0
176
     1
290
     1
176
     1
290
     1
176
     1
290
     0
176
     1
290
     0
176
     1
290
     0
176
     1
290
     0
176
     1
290
     0
176
     1
290
     0
176
     1
 90
       50
176
     1
 40
0.0
176
     1
 40
1.0
176
     1
 90
        0
176
     1
 62
    18
420
        0
176
     1
 90
       50
176
     1
 90
        3
176
     1
 62
     5
420
      255
176
     1
290
     0
176
     1
 90
       50
176
     1
 90
       50
176
     1
 90
       50
176
     1
290
     0
176
     1
 90
       50
176
     1
 62
   256
176
     0
 40
1.0
176
     0
 90
        2
176
     1
  1
strokes_ogs.tif
176
     1
290
     0
176
     1
 40
1.0
176
     1
 40
1.0
176
     1
1001
ACAD
1000
AcDbSavedByObjectVersion
1070
     0
  0
VISUALSTYLE
  5
FF
102
{ACAD_REACTORS
330
EF
102
}
330
EF
100
AcDbVisualStyle
  2
ColorChange
 70
    16
177
     3
291
     1
 70
    58
 90
        2
176
     1
 90
        2
176
     1
 90
        3
176
     1
 90
        0
176
     1
 40
0.6
176
     1
 40
30.0
176
     1
 62
     8
420
  8421504
176
     1
 90
        1
176
     1
 90
        4
176
     1
 62
     7
176
     1
 62
   257
176
     1
 90
        1
176
     1
 90
        1
176
     1
 40
1.0
176
     1
 90
        8
176
     1
 62
     8
420
  8421504
176
     1
 40
1.0
176
     1
 90
        1
176
     1
 90
        6
176
     1
 90
        2
176
     1
 62
     7
176
     1
 90
        5
176
     1
 90
        0
176
     1
 90
        0
176
     1
290
     0
176
     1
 90
        1
176
     1
 40
0.0
176
     1
 90
        0
176
     1
290
     0
176
     1
290
     1
176
     1
290
     1
176
     1
290
     0
176
     1
290
     0
176
     1
290
     0
176
     1
290
     0
176
     1
290
     0
176
     1
290
     0
176
     1
 90
       50
176
     1
 40
0.0
176
     1
 40
1.0
176
     1
 90
        0
176
     1
 62
    18
420
        0
176
     1
 90
       50
176
     1
 90
        3
176
     1
 62
     5
420
      255
176
     1
290
     0
176
     1
 90
       50
176
     1
 90
       50
176
     1
 90
       50
176
     1
290
     0
176
     1
 90
       50
176
     1
 62
   256
176
     0
 40
1.0
176
     0
 90
        2
176
     1
  1
strokes_ogs.tif
176
     1
290
     0
176
     1
 40
1.0
176
     1
 40
1.0
176
     1
1001
ACAD
1000
AcDbSavedByObjectVersion
1070
     0
  0
VISUALSTYLE
  5
F8
102
{ACAD_REACTORS
330
EF
102
}
330
EF
100
AcDbVisualStyle
  2
Conceptual
 70
     9
177
     3
291
     0
 70
    58
 90
        3
176
     1
 90
        2
176
     1
 90
        1
176
     1
 90
        0
176
     1
 40
0.6
176
     1
 40
30.0
176
     1
 62
     7
420
 16777215
176
     1
 90
        2
176
     1
 90
        2
176
     1
 62
     7
176
     1
 62
   257
176
     1
 90
        1
176
     1
 90
        1
176
     1
 40
40.0
176
     1
 90
        8
176
     1
 62
     7
176
     1
 40
1.0
176
     1
 90
        1
176
     1
 90
        6
176
     1
 90
        2
176
     1
 62
     7
176
     1
 90
        3
176
     1
 90
        0
176
     1
 90
        0
176
     1
290
     0
176
     1
 90
        1
176
     1
 40
0.0
176
     1
 90
        0
176
     1
290
     0
176
     1
290
     1
176
     1
290
     1
176
     1
290
     0
176
     1
290
     0
176
     1
290
     0
176
     1
290
     0
176
     1
290
     0
176
     1
290
     0
176
     1
 90
       50
176
     1
 40
0.0
176
     1
 40
1.0
176
     1
 90
        0
176
     1
 62
    18
420
        0
176
     1
 90
       50
176
     1
 90
        3
176
     1
 62
     5
420
      255
176
     1
290
     0
176
     1
 90
       50
176
     1
 90
       50
176
     1
 90
       50
176
     1
290
     0
176
     1
 90
       50
176
     1
 62
   256
176
     0
 40
1.0
176
     0
 90
        2
176
     1
  1
strokes_ogs.tif
176
     1
290
     0
176
     1
 40
1.0
176
     1
 40
1.0
176
     1
1001
ACAD
1000
AcDbSavedByObjectVersion
1070
     0
  0
VISUALSTYLE
  5
FA
102
{ACAD_REACTORS
330
EF
102
}
330
EF
100
AcDbVisualStyle
  2
Dim
 70
    11
177
     3
291
     1
 70
    58
 90
        2
176
     1
 90
        2
176
     1
 90
        1
176
     1
 90
        0
176
     1
 40
0.6
176
     1
 40
30.0
176
     1
 62
     7
420
 16777215
176
     1
 90
        1
176
     1
 90
        4
176
     1
 62
     7
176
     1
 62
   257
176
     1
 90
        1
176
     1
 90
        1
176
     1
 40
1.0
176
     1
 90
        8
176
     1
 62
     7
176
     1
 40
1.0
176
     1
 90
        1
176
     1
 90
        6
176
     1
 90
        2
176
     1
 62
     7
176
     1
 90
        5
176
     1
 90
        0
176
     1
 90
        0
176
     1
290
     0
176
     1
 90
        1
176
     1
 40
-50.0
176
     1
 90
        0
176
     1
290
     0
176
     1
290
     1
176
     1
290
     1
176
     1
290
     0
176
     1
290
     0
176
     1
290
     0
176
     1
290
     0
176
     1
290
     0
176
     1
290
     0
176
     1
 90
       50
176
     1
 40
0.0
176
     1
 40
1.0
176
     1
 90
        0
176
     1
 62
    18
420
        0
176
     1
 90
       50
176
     1
 90
        3
176
     1
 62
     5
420
      255
176
     1
290
     0
176
     1
 90
       50
176
     1
 90
       50
176
     1
 90
       50
176
     1
290
     0
176
     1
 90
       50
176
     1
 62
   256
176
     0
 40
1.0
176
     0
 90
        2
176
     1
  1
strokes_ogs.tif
176
     1
290
     0
176
     1
 40
1.0
176
     1
 40
1.0
176
     1
1001
ACAD
1000
AcDbSavedByObjectVersion
1070
     0
  0
VISUALSTYLE
  5
1E6
102
{ACAD_REACTORS
330
EF
102
}
330
EF
100
AcDbVisualStyle
  2
EdgeColorOff
 70
    22
177
     3
291
     1
 70
    58
 90
        2
176
     0
 90
        2
176
     0
 90
        0
176
     0
 90
        0
176
     0
 40
0.6
176
     0
 40
30.0
176
     0
 62
     7
420
 16777215
176
     0
 90
        1
176
     0
 90
        4
176
     0
 62
     7
176
     0
 62
   257
176
     0
 90
        1
176
     0
 90
        1
176
     0
 40
1.0
176
     0
 90
        8
176
     2
 62
     7
176
     0
 40
1.0
176
     0
 90
        1
176
     0
 90
        6
176
     0
 90
        2
176
     0
 62
     7
176
     0
 90
        5
176
     0
 90
        0
176
     0
 90
        0
176
     0
290
     0
176
     0
 90
        1
176
     0
 40
0.0
176
     0
 90
        0
176
     0
290
     0
176
     1
290
     1
176
     1
290
     1
176
     1
290
     0
176
     1
290
     0
176
     1
290
     0
176
     1
290
     0
176
     1
290
     0
176
     1
290
     0
176
     1
 90
       50
176
     1
 40
0.0
176
     1
 40
1.0
176
     1
 90
        0
176
     1
 62
    18
420
        0
176
     1
 90
       50
176
     1
 90
        3
176
     1
 62
     5
420
      255
176
     1
290
     0
176
     1
 90
       50
176
     1
 90
       50
176
     1
 90
       50
176
     1
290
     0
176
     1
 90
       50
176
     1
 62
   256
176
     0
 40
1.0
176
     0
 90
        2
176
     1
  1
strokes_ogs.tif
176
     1
290
     0
176
     1
 40
1.0
176
     1
 40
1.0
176
     1
1001
ACAD
1000
AcDbSavedByObjectVersion
1070
     0
  0
VISUALSTYLE
  5
FE
102
{ACAD_REACTORS
330
EF
102
}
330
EF
100
AcDbVisualStyle
  2
Facepattern
 70
    15
177
     3
291
     1
 70
    58
 90
        2
176
     1
 90
        2
176
     1
 90
        1
176
     1
 90
        0
176
     1
 40
0.6
176
     1
 40
30.0
176
     1
 62
     7
420
 16777215
176
     1
 90
        1
176
     1
 90
        4
176
     1
 62
     7
176
     1
 62
   257
176
     1
 90
        1
176
     1
 90
        1
176
     1
 40
1.0
176
     1
 90
        8
176
     1
 62
     7
176
     1
 40
1.0
176
     1
 90
        1
176
     1
 90
        6
176
     1
 90
        2
176
     1
 62
     7
176
     1
 90
        5
176
     1
 90
        0
176
     1
 90
        0
176
     1
290
     0
176
     1
 90
        1
176
     1
 40
0.0
176
     1
 90
        0
176
     1
290
     0
176
     1
290
     1
176
     1
290
     1
176
     1
290
     0
176
     1
290
     0
176
     1
290
     0
176
     1
290
     0
176
     1
290
     0
176
     1
290
     0
176
     1
 90
       50
176
     1
 40
0.0
176
     1
 40
1.0
176
     1
 90
        0
176
     1
 62
    18
420
        0
176
     1
 90
       50
176
     1
 90
        3
176
     1
 62
     5
420
      255
176
     1
290
     0
176
     1
 90
       50
176
     1
 90
       50
176
     1
 90
       50
176
     1
290
     0
176
     1
 90
       50
176
     1
 62
   256
176
     0
 40
1.0
176
     0
 90
        2
176
     1
  1
strokes_ogs.tif
176
     1
290
     0
176
     1
 40
1.0
176
     1
 40
1.0
176
     1
1001
ACAD
1000
AcDbSavedByObjectVersion
1070
     0
  0
VISUALSTYLE
  5
F0
102
{ACAD_REACTORS
330
EF
102
}
330
EF
100
AcDbVisualStyle
  2
Flat
 70
     0
177
     3
291
     1
 70
    58
 90
        2
176
     1
 90
        1
176
     1
 90
        1
176
     1
 90
        2
176
     1
 40
0.6
176
     1
 40
30.0
176
     1
 62
     7
420
 16777215
176
     1
 90
        0
176
     1
 90
        0
176
     1
 62
     7
176
     1
 62
   257
176
     1
 90
        1
176
     1
 90
        1
176
     1
 40
1.0
176
     1
 90
        8
176
     1
 62
     7
176
     1
 40
1.0
176
     1
 90
        1
176
     1
 90
        6
176
     1
 90
        2
176
     1
 62
     7
176
     1
 90
        5
176
     1
 90
        0
176
     1
 90
        0
176
     1
290
     0
176
     1
 90
       13
176
     1
 40
0.0
176
     1
 90
        0
176
     1
290
     0
176
     1
290
     1
176
     1
290
     1
176
     1
290
     0
176
     1
290
     0
176
     1
290
     0
176
     1
290
     0
176
     1
290
     0
176
     1
290
     0
176
     1
 90
       50
176
     1
 40
0.0
176
     1
 40
1.0
176
     1
 90
        0
176
     1
 62
    18
420
        0
176
     1
 90
       50
176
     1
 90
        3
176
     1
 62
     5
420
      255
176
     1
290
     0
176
     1
 90
       50
176
     1
 90
       50
176
     1
 90
       50
176
     1
290
     0
176
     1
 90
       50
176
     1
 62
   256
176
     0
 40
1.0
176
     0
 90
        2
176
     1
  1
strokes_ogs.tif
176
     1
290
     0
176
     1
 40
1.0
176
     1
 40
1.0
176
     1
1001
ACAD
1000
AcDbSavedByObjectVersion
1070
     0
  0
VISUALSTYLE
  5
F1
102
{ACAD_REACTORS
330
EF
102
}
330
EF
100
AcDbVisualStyle
  2
FlatWithEdges
 70
     1
177
     3
291
     1
 70
    58
 90
        2
176
     1
 90
        1
176
     1
 90
        1
176
     1
 90
        2
176
     1
 40
0.6
176
     1
 40
30.0
176
     1
 62
     7
420
 16777215
176
     1
 90
        1
176
     1
 90
        0
176
     1
 62
     7
176
     1
 62
   257
176
     1
 90
        1
176
     1
 90
        1
176
     1
 40
1.0
176
     1
 90
        0
176
     1
 62
   257
176
     1
 40
1.0
176
     1
 90
        1
176
     1
 90
        6
176
     1
 90
        2
176
     1
 62
     7
176
     1
 90
        5
176
     1
 90
        0
176
     1
 90
        0
176
     1
290
     0
176
     1
 90
       13
176
     1
 40
0.0
176
     1
 90
        0
176
     1
290
     0
176
     1
290
     1
176
     1
290
     1
176
     1
290
     0
176
     1
290
     0
176
     1
290
     0
176
     1
290
     0
176
     1
290
     0
176
     1
290
     0
176
     1
 90
       50
176
     1
 40
0.0
176
     1
 40
1.0
176
     1
 90
        0
176
     1
 62
    18
420
        0
176
     1
 90
       50
176
     1
 90
        3
176
     1
 62
     5
420
      255
176
     1
290
     0
176
     1
 90
       50
176
     1
 90
       50
176
     1
 90
       50
176
     1
290
     0
176
     1
 90
       50
176
     1
 62
   256
176
     0
 40
1.0
176
     0
 90
        2
176
     1
  1
strokes_ogs.tif
176
     1
290
     0
176
     1
 40
1.0
176
     1
 40
1.0
176
     1
1001
ACAD
1000
AcDbSavedByObjectVersion
1070
     0
  0
VISUALSTYLE
  5
F2
102
{ACAD_REACTORS
330
EF
102
}
330
EF
100
AcDbVisualStyle
  2
Gouraud
 70
     2
177
     3
291
     1
 70
    58
 90
        2
176
     1
 90
        2
176
     1
 90
        1
176
     1
 90
        2
176
     1
 40
0.6
176
     1
 40
30.0
176
     1
 62
     7
420
 16777215
176
     1
 90
        0
176
     1
 90
        0
176
     1
 62
     7
176
     1
 62
   257
176
     1
 90
        1
176
     1
 90
        1
176
     1
 40
1.0
176
     1
 90
        0
176
     1
 62
     7
176
     1
 40
1.0
176
     1
 90
        1
176
     1
 90
        6
176
     1
 90
        2
176
     1
 62
     7
176
     1
 90
        5
176
     1
 90
        0
176
     1
 90
        0
176
     1
290
     0
176
     1
 90
       13
176
     1
 40
0.0
176
     1
 90
        0
176
     1
290
     0
176
     1
290
     1
176
     1
290
     1
176
     1
290
     0
176
     1
290
     0
176
     1
290
     0
176
     1
290
     0
176
     1
290
     0
176
     1
290
     0
176
     1
 90
       50
176
     1
 40
0.0
176
     1
 40
1.0
176
     1
 90
        0
176
     1
 62
    18
420
        0
176
     1
 90
       50
176
     1
 90
        3
176
     1
 62
     5
420
      255
176
     1
290
     0
176
     1
 90
       50
176
     1
 90
       50
176
     1
 90
       50
176
     1
290
     0
176
     1
 90
       50
176
     1
 62
   256
176
     0
 40
1.0
176
     0
 90
        2
176
     1
  1
strokes_ogs.tif
176
     1
290
     0
176
     1
 40
1.0
176
     1
 40
1.0
176
     1
1001
ACAD
1000
AcDbSavedByObjectVersion
1070
     0
  0
VISUALSTYLE
  5
F3
102
{ACAD_REACTORS
330
EF
102
}
330
EF
100
AcDbVisualStyle
  2
GouraudWithEdges
 70
     3
177
     3
291
     1
 70
    58
 90
        2
176
     1
 90
        2
176
     1
 90
        1
176
     1
 90
        2
176
     1
 40
0.6
176
     1
 40
30.0
176
     1
 62
     7
420
 16777215
176
     1
 90
        1
176
     1
 90
        0
176
     1
 62
     7
176
     1
 62
   257
176
     1
 90
        1
176
     1
 90
        1
176
     1
 40
1.0
176
     1
 90
        0
176
     1
 62
   257
176
     1
 40
1.0
176
     1
 90
        1
176
     1
 90
        6
176
     1
 90
        2
176
     1
 62
     7
176
     1
 90
        5
176
     1
 90
        0
176
     1
 90
        0
176
     1
290
     0
176
     1
 90
       13
176
     1
 40
0.0
176
     1
 90
        0
176
     1
290
     0
176
     1
290
     1
176
     1
290
     1
176
     1
290
     0
176
     1
290
     0
176
     1
290
     0
176
     1
290
     0
176
     1
290
     0
176
     1
290
     0
176
     1
 90
       50
176
     1
 40
0.0
176
     1
 40
1.0
176
     1
 90
        0
176
     1
 62
    18
420
        0
176
     1
 90
       50
176
     1
 90
        3
176
     1
 62
     5
420
      255
176
     1
290
     0
176
     1
 90
       50
176
     1
 90
       50
176
     1
 90
       50
176
     1
290
     0
176
     1
 90
       50
176
     1
 62
   256
176
     0
 40
1.0
176
     0
 90
        2
176
     1
  1
strokes_ogs.tif
176
     1
290
     0
176
     1
 40
1.0
176
     1
 40
1.0
176
     1
1001
ACAD
1000
AcDbSavedByObjectVersion
1070
     0
  0
VISUALSTYLE
  5
F7
102
{ACAD_REACTORS
330
EF
102
}
330
EF
100
AcDbVisualStyle
  2
Hidden
 70
     6
177
     3
291
     0
 70
    58
 90
        1
176
     1
 90
        2
176
     1
 90
        2
176
     1
 90
        0
176
     1
 40
0.6
176
     1
 40
30.0
176
     1
 62
     7
420
 16777215
176
     1
 90
        2
176
     1
 90
        2
176
     1
 62
     7
176
     1
 62
   257
176
     1
 90
        2
176
     1
 90
        1
176
     1
 40
40.0
176
     1
 90
        0
176
     1
 62
   257
176
     1
 40
1.0
176
     1
 90
        1
176
     1
 90
        6
176
     1
 90
        2
176
     1
 62
     7
176
     1
 90
        3
176
     1
 90
        0
176
     1
 90
        0
176
     1
290
     0
176
     1
 90
        1
176
     1
 40
0.0
176
     1
 90
        0
176
     1
290
     0
176
     1
290
     1
176
     1
290
     1
176
     1
290
     0
176
     1
290
     0
176
     1
290
     0
176
     1
290
     0
176
     1
290
     0
176
     1
290
     0
176
     1
 90
       50
176
     1
 40
0.0
176
     1
 40
1.0
176
     1
 90
        0
176
     1
 62
    18
420
        0
176
     1
 90
       50
176
     1
 90
        3
176
     1
 62
     5
420
      255
176
     1
290
     0
176
     1
 90
       50
176
     1
 90
       50
176
     1
 90
       50
176
     1
290
     0
176
     1
 90
       50
176
     1
 62
   256
176
     0
 40
1.0
176
     0
 90
        2
176
     1
  1
strokes_ogs.tif
176
     1
290
     0
176
     1
 40
1.0
176
     1
 40
1.0
176
     1
1001
ACAD
1000
AcDbSavedByObjectVersion
1070
     0
  0
VISUALSTYLE
  5
1E4
102
{ACAD_REACTORS
330
EF
102
}
330
EF
100
AcDbVisualStyle
  2
JitterOff
 70
    20
177
     3
291
     1
 70
    58
 90
        2
176
     0
 90
        2
176
     0
 90
        0
176
     0
 90
        0
176
     0
 40
0.6
176
     0
 40
30.0
176
     0
 62
     7
420
 16777215
176
     0
 90
        1
176
     0
 90
        4
176
     0
 62
     7
176
     0
 62
   257
176
     0
 90
        1
176
     0
 90
        1
176
     0
 40
1.0
176
     0
 90
       10
176
     2
 62
     7
176
     0
 40
1.0
176
     0
 90
        1
176
     0
 90
        6
176
     0
 90
        2
176
     0
 62
     7
176
     0
 90
        5
176
     0
 90
        0
176
     0
 90
        0
176
     0
290
     0
176
     0
 90
        1
176
     0
 40
0.0
176
     0
 90
        0
176
     0
290
     0
176
     1
290
     1
176
     1
290
     1
176
     1
290
     0
176
     1
290
     0
176
     1
290
     0
176
     1
290
     0
176
     1
290
     0
176
     1
290
     0
176
     1
 90
       50
176
     1
 40
0.0
176
     1
 40
1.0
176
     1
 90
        0
176
     1
 62
    18
420
        0
176
     1
 90
       50
176
     1
 90
        3
176
     1
 62
     5
420
      255
176
     1
290
     0
176
     1
 90
       50
176
     1
 90
       50
176
     1
 90
       50
176
     1
290
     0
176
     1
 90
       50
176
     1
 62
   256
176
     0
 40
1.0
176
     0
 90
        2
176
     1
  1
strokes_ogs.tif
176
     1
290
     0
176
     1
 40
1.0
176
     1
 40
1.0
176
     1
1001
ACAD
1000
AcDbSavedByObjectVersion
1070
     0
  0
VISUALSTYLE
  5
FD
102
{ACAD_REACTORS
330
EF
102
}
330
EF
100
AcDbVisualStyle
  2
Linepattern
 70
    14
177
     3
291
     1
 70
    58
 90
        2
176
     1
 90
        2
176
     1
 90
        1
176
     1
 90
        0
176
     1
 40
0.6
176
     1
 40
30.0
176
     1
 62
     7
420
 16777215
176
     1
 90
        1
176
     1
 90
        4
176
     1
 62
     7
176
     1
 62
   257
176
     1
 90
        7
176
     1
 90
        7
176
     1
 40
1.0
176
     1
 90
        8
176
     1
 62
     7
176
     1
 40
1.0
176
     1
 90
        1
176
     1
 90
        6
176
     1
 90
        2
176
     1
 62
     7
176
     1
 90
        5
176
     1
 90
        0
176
     1
 90
        0
176
     1
290
     0
176
     1
 90
        1
176
     1
 40
0.0
176
     1
 90
        0
176
     1
290
     0
176
     1
290
     1
176
     1
290
     1
176
     1
290
     0
176
     1
290
     0
176
     1
290
     0
176
     1
290
     0
176
     1
290
     0
176
     1
290
     0
176
     1
 90
       50
176
     1
 40
0.0
176
     1
 40
1.0
176
     1
 90
        0
176
     1
 62
    18
420
        0
176
     1
 90
       50
176
     1
 90
        3
176
     1
 62
     5
420
      255
176
     1
290
     0
176
     1
 90
       50
176
     1
 90
       50
176
     1
 90
       50
176
     1
290
     0
176
     1
 90
       50
176
     1
 62
   256
176
     0
 40
1.0
176
     0
 90
        2
176
     1
  1
strokes_ogs.tif
176
     1
290
     0
176
     1
 40
1.0
176
     1
 40
1.0
176
     1
1001
ACAD
1000
AcDbSavedByObjectVersion
1070
     0
  0
VISUALSTYLE
  5
1E5
102
{ACAD_REACTORS
330
EF
102
}
330
EF
100
AcDbVisualStyle
  2
OverhangOff
 70
    21
177
     3
291
     1
 70
    58
 90
        2
176
     0
 90
        2
176
     0
 90
        0
176
     0
 90
        0
176
     0
 40
0.6
176
     0
 40
30.0
176
     0
 62
     7
420
 16777215
176
     0
 90
        1
176
     0
 90
        4
176
     0
 62
     7
176
     0
 62
   257
176
     0
 90
        1
176
     0
 90
        1
176
     0
 40
1.0
176
     0
 90
        9
176
     2
 62
     7
176
     0
 40
1.0
176
     0
 90
        1
176
     0
 90
        6
176
     0
 90
        2
176
     0
 62
     7
176
     0
 90
        5
176
     0
 90
        0
176
     0
 90
        0
176
     0
290
     0
176
     0
 90
        1
176
     0
 40
0.0
176
     0
 90
        0
176
     0
290
     0
176
     1
290
     1
176
     1
290
     1
176
     1
290
     0
176
     1
290
     0
176
     1
290
     0
176
     1
290
     0
176
     1
290
     0
176
     1
290
     0
176
     1
 90
       50
176
     1
 40
0.0
176
     1
 40
1.0
176
     1
 90
        0
176
     1
 62
    18
420
        0
176
     1
 90
       50
176
     1
 90
        3
176
     1
 62
     5
420
      255
176
     1
290
     0
176
     1
 90
       50
176
     1
 90
       50
176
     1
 90
       50
176
     1
290
     0
176
     1
 90
       50
176
     1
 62
   256
176
     0
 40
1.0
176
     0
 90
        2
176
     1
  1
strokes_ogs.tif
176
     1
290
     0
176
     1
 40
1.0
176
     1
 40
1.0
176
     1
1001
ACAD
1000
AcDbSavedByObjectVersion
1070
     0
  0
VISUALSTYLE
  5
F9
102
{ACAD_REACTORS
330
EF
102
}
330
EF
100
AcDbVisualStyle
  2
Realistic
 70
     8
177
     3
291
     0
 70
    58
 90
        2
176
     1
 90
        3
176
     1
 90
        0
176
     1
 90
        2
176
     1
 40
0.6
176
     1
 40
30.0
176
     1
 62
     7
420
 16777215
176
     1
 90
        0
176
     1
 90
        0
176
     1
 62
     7
176
     1
 62
   257
176
     1
 90
        1
176
     1
 90
        1
176
     1
 40
1.0
176
     1
 90
        8
176
     1
 62
   257
176
     1
 40
1.0
176
     1
 90
        1
176
     1
 90
        6
176
     1
 90
        2
176
     1
 62
     7
176
     1
 90
        3
176
     1
 90
        0
176
     1
 90
        0
176
     1
290
     0
176
     1
 90
       13
176
     1
 40
0.0
176
     1
 90
        0
176
     1
290
     0
176
     1
290
     1
176
     1
290
     1
176
     1
290
     0
176
     1
290
     0
176
     1
290
     0
176
     1
290
     0
176
     1
290
     0
176
     1
290
     0
176
     1
 90
       50
176
     1
 40
0.0
176
     1
 40
1.0
176
     1
 90
        0
176
     1
 62
    18
420
        0
176
     1
 90
       50
176
     1
 90
        3
176
     1
 62
     5
420
      255
176
     1
290
     0
176
     1
 90
       50
176
     1
 90
       50
176
     1
 90
       50
176
     1
290
     0
176
     1
 90
       50
176
     1
 62
   256
176
     0
 40
1.0
176
     0
 90
        2
176
     1
  1
strokes_ogs.tif
176
     1
290
     0
176
     1
 40
1.0
176
     1
 40
1.0
176
     1
1001
ACAD
1000
AcDbSavedByObjectVersion
1070
     0
  0
VISUALSTYLE
  5
1F3
102
{ACAD_REACTORS
330
EF
102
}
330
EF
100
AcDbVisualStyle
  2
Shaded
 70
    27
177
     3
291
     0
 70
    58
 90
        2
176
     1
 90
        2
176
     1
 90
        1
176
     1
 90
        2
176
     1
 40
0.6
176
     1
 40
30.0
176
     1
 62
     7
420
 16777215
176
     1
 90
        0
176
     1
 90
        4
176
     1
 62
     7
176
     1
 62
   257
176
     1
 90
        1
176
     1
 90
        1
176
     1
 40
1.0
176
     1
 90
        8
176
     1
 62
   257
176
     1
 40
1.0
176
     1
 90
        1
176
     1
 90
        6
176
     1
 90
        2
176
     1
 62
     8
420
  7895160
176
     1
 90
        3
176
     1
 90
        0
176
     1
 90
        0
176
     1
290
     0
176
     1
 90
        5
176
     1
 40
0.0
176
     1
 90
        0
176
     1
290
     0
176
     1
290
     1
176
     1
290
     1
176
     1
290
     0
176
     1
290
     0
176
     1
290
     0
176
     1
290
     0
176
     1
290
     0
176
     1
290
     0
176
     1
 90
       50
176
     1
 40
0.0
176
     1
 40
1.0
176
     1
 90
        0
176
     1
 62
    18
420
        0
176
     1
 90
       50
176
     1
 90
        3
176
     1
 62
     5
420
      255
176
     1
290
     0
176
     1
 90
       50
176
     1
 90
       50
176
     1
 90
       50
176
     1
290
     0
176
     1
 90
       50
176
     1
 62
   256
176
     0
 40
1.0
176
     0
 90
        2
176
     1
  1
strokes_ogs.tif
176
     1
290
     0
176
     1
 40
1.0
176
     1
 40
1.0
176
     1
1001
ACAD
1000
AcDbSavedByObjectVersion
1070
     0
  0
VISUALSTYLE
  5
1F2
102
{ACAD_REACTORS
330
EF
102
}
330
EF
100
AcDbVisualStyle
  2
Shaded with edges
 70
    26
177
     3
291
     0
 70
    58
 90
        2
176
     1
 90
        2
176
     1
 90
        1
176
     1
 90
        2
176
     1
 40
0.6
176
     1
 40
30.0
176
     1
 62
     7
420
 16777215
176
     1
 90
        1
176
     1
 90
        2
176
     1
 62
     7
176
     1
 62
   257
176
     1
 90
        2
176
     1
 90
        1
176
     1
 40
1.0
176
     1
 90
        8
176
     1
 62
   257
176
     1
 40
1.0
176
     1
 90
        1
176
     1
 90
        6
176
     1
 90
        2
176
     1
 62
     7
176
     1
 90
        3
176
     1
 90
        0
176
     1
 90
        0
176
     1
290
     0
176
     1
 90
        5
176
     1
 40
0.0
176
     1
 90
        0
176
     1
290
     0
176
     1
290
     1
176
     1
290
     1
176
     1
290
     0
176
     1
290
     0
176
     1
290
     0
176
     1
290
     0
176
     1
290
     0
176
     1
290
     0
176
     1
 90
       50
176
     1
 40
0.0
176
     1
 40
1.0
176
     1
 90
        0
176
     1
 62
    18
420
        0
176
     1
 90
       50
176
     1
 90
        3
176
     1
 62
     5
420
      255
176
     1
290
     0
176
     1
 90
       50
176
     1
 90
       50
176
     1
 90
       50
176
     1
290
     0
176
     1
 90
       50
176
     1
 62
   256
176
     0
 40
1.0
176
     0
 90
        2
176
     1
  1
strokes_ogs.tif
176
     1
290
     0
176
     1
 40
1.0
176
     1
 40
1.0
176
     1
1001
ACAD
1000
AcDbSavedByObjectVersion
1070
     0
  0
VISUALSTYLE
  5
1EF
102
{ACAD_REACTORS
330
EF
102
}
330
EF
100
AcDbVisualStyle
  2
Shades of Gray
 70
    23
177
     3
291
     0
 70
    58
 90
        2
176
     1
 90
        2
176
     1
 90
        3
176
     1
 90
        0
176
     1
 40
0.6
176
     1
 40
30.0
176
     1
 62
     7
420
 16777215
176
     1
 90
        2
176
     1
 90
        2
176
     1
 62
     7
176
     1
 62
     7
176
     1
 90
        1
176
     1
 90
        1
176
     1
 40
40.0
176
     1
 90
        8
176
     1
 62
     7
176
     1
 40
1.0
176
     1
 90
        1
176
     1
 90
        6
176
     1
 90
        2
176
     1
 62
     7
176
     1
 90
        3
176
     1
 90
        0
176
     1
 90
        0
176
     1
290
     0
176
     1
 90
        1
176
     1
 40
0.0
176
     1
 90
        0
176
     1
290
     0
176
     1
290
     1
176
     1
290
     1
176
     1
290
     0
176
     1
290
     0
176
     1
290
     0
176
     1
290
     0
176
     1
290
     0
176
     1
290
     0
176
     1
 90
       50
176
     1
 40
0.0
176
     1
 40
1.0
176
     1
 90
        0
176
     1
 62
    18
420
        0
176
     1
 90
       50
176
     1
 90
        3
176
     1
 62
     5
420
      255
176
     1
290
     0
176
     1
 90
       50
176
     1
 90
       50
176
     1
 90
       50
176
     1
290
     0
176
     1
 90
       50
176
     1
 62
   256
176
     0
 40
1.0
176
     0
 90
        2
176
     1
  1
strokes_ogs.tif
176
     1
290
     0
176
     1
 40
1.0
176
     1
 40
1.0
176
     1
1001
ACAD
1000
AcDbSavedByObjectVersion
1070
     0
  0
VISUALSTYLE
  5
1F0
102
{ACAD_REACTORS
330
EF
102
}
330
EF
100
AcDbVisualStyle
  2
Sketchy
 70
    24
177
     3
291
     0
 70
    58
 90
        1
176
     1
 90
        2
176
     1
 90
        2
176
     1
 90
        0
176
     1
 40
0.6
176
     1
 40
30.0
176
     1
 62
     7
420
 16777215
176
     1
 90
        2
176
     1
 90
        2
176
     1
 62
     7
176
     1
 62
     7
176
     1
 90
        1
176
     1
 90
        1
176
     1
 40
40.0
176
     1
 90
       11
176
     1
 62
     7
176
     1
 40
1.0
176
     1
 90
        1
176
     1
 90
        6
176
     1
 90
        2
176
     1
 62
     7
176
     1
 90
        6
176
     1
 90
        0
176
     1
 90
        0
176
     1
290
     0
176
     1
 90
        1
176
     1
 40
0.0
176
     1
 90
        0
176
     1
290
     0
176
     1
290
     1
176
     1
290
     1
176
     1
290
     0
176
     1
290
     0
176
     1
290
     0
176
     1
290
     0
176
     1
290
     0
176
     1
290
     0
176
     1
 90
       50
176
     1
 40
0.0
176
     1
 40
1.0
176
     1
 90
        0
176
     1
 62
    18
420
        0
176
     1
 90
       50
176
     1
 90
        3
176
     1
 62
     5
420
      255
176
     1
290
     0
176
     1
 90
       50
176
     1
 90
       50
176
     1
 90
       50
176
     1
290
     0
176
     1
 90
       50
176
     1
 62
   256
176
     0
 40
1.0
176
     0
 90
        2
176
     1
  1
strokes_ogs.tif
176
     1
290
     0
176
     1
 40
1.0
176
     1
 40
1.0
176
     1
1001
ACAD
1000
AcDbSavedByObjectVersion
1070
     0
  0
VISUALSTYLE
  5
FC
102
{ACAD_REACTORS
330
EF
102
}
330
EF
100
AcDbVisualStyle
  2
Thicken
 70
    13
177
     3
291
     1
 70
    58
 90
        2
176
     1
 90
        2
176
     1
 90
        1
176
     1
 90
        0
176
     1
 40
0.6
176
     1
 40
30.0
176
     1
 62
     7
420
 16777215
176
     1
 90
        1
176
     1
 90
        4
176
     1
 62
     7
176
     1
 62
   257
176
     1
 90
        1
176
     1
 90
        1
176
     1
 40
1.0
176
     1
 90
       12
176
     1
 62
     7
176
     1
 40
1.0
176
     1
 90
        1
176
     1
 90
        6
176
     1
 90
        2
176
     1
 62
     7
176
     1
 90
        5
176
     1
 90
        0
176
     1
 90
        0
176
     1
290
     0
176
     1
 90
        1
176
     1
 40
0.0
176
     1
 90
        0
176
     1
290
     0
176
     1
290
     1
176
     1
290
     1
176
     1
290
     0
176
     1
290
     0
176
     1
290
     0
176
     1
290
     0
176
     1
290
     0
176
     1
290
     0
176
     1
 90
       50
176
     1
 40
0.0
176
     1
 40
1.0
176
     1
 90
        0
176
     1
 62
    18
420
        0
176
     1
 90
       50
176
     1
 90
        3
176
     1
 62
     5
420
      255
176
     1
290
     0
176
     1
 90
       50
176
     1
 90
       50
176
     1
 90
       50
176
     1
290
     0
176
     1
 90
       50
176
     1
 62
   256
176
     0
 40
1.0
176
     0
 90
        2
176
     1
  1
strokes_ogs.tif
176
     1
290
     0
176
     1
 40
1.0
176
     1
 40
1.0
176
     1
1001
ACAD
1000
AcDbSavedByObjectVersion
1070
     0
  0
VISUALSTYLE
  5
F6
102
{ACAD_REACTORS
330
EF
102
}
330
EF
100
AcDbVisualStyle
  2
Wireframe
 70
     5
177
     3
291
     0
 70
    58
 90
        0
176
     1
 90
        2
176
     1
 90
        0
176
     1
 90
        0
176
     1
 40
0.6
176
     1
 40
30.0
176
     1
 62
     7
420
 16777215
176
     1
 90
        1
176
     1
 90
        4
176
     1
 62
     7
176
     1
 62
   257
176
     1
 90
        1
176
     1
 90
        1
176
     1
 40
1.0
176
     1
 90
        0
176
     1
 62
   257
176
     1
 40
1.0
176
     1
 90
        1
176
     1
 90
        6
176
     1
 90
        2
176
     1
 62
     7
176
     1
 90
        3
176
     1
 90
        0
176
     1
 90
        0
176
     1
290
     0
176
     1
 90
        1
176
     1
 40
0.0
176
     1
 90
        0
176
     1
290
     0
176
     1
290
     1
176
     1
290
     1
176
     1
290
     0
176
     1
290
     0
176
     1
290
     0
176
     1
290
     0
176
     1
290
     0
176
     1
290
     0
176
     1
 90
       50
176
     1
 40
0.0
176
     1
 40
1.0
176
     1
 90
        0
176
     1
 62
    18
420
        0
176
     1
 90
       50
176
     1
 90
        3
176
     1
 62
     5
420
      255
176
     1
290
     0
176
     1
 90
       50
176
     1
 90
       50
176
     1
 90
       50
176
     1
290
     0
176
     1
 90
       50
176
     1
 62
   256
176
     0
 40
1.0
176
     0
 90
        2
176
     1
  1
strokes_ogs.tif
176
     1
290
     0
176
     1
 40
1.0
176
     1
 40
1.0
176
     1
1001
ACAD
1000
AcDbSavedByObjectVersion
1070
     0
  0
VISUALSTYLE
  5
1F1
102
{ACAD_REACTORS
330
EF
102
}
330
EF
100
AcDbVisualStyle
  2
X-Ray
 70
    25
177
     3
291
     0
 70
    58
 90
        2
176
     1
 90
        2
176
     1
 90
        1
176
     1
 90
        1
176
     1
 40
0.5
176
     1
 40
30.0
176
     1
 62
     7
420
 16777215
176
     1
 90
        1
176
     1
 90
        0
176
     1
 62
     7
176
     1
 62
   257
176
     1
 90
        1
176
     1
 90
        1
176
     1
 40
1.0
176
     1
 90
        8
176
     1
 62
     7
176
     1
 40
1.0
176
     1
 90
        1
176
     1
 90
        6
176
     1
 90
        2
176
     1
 62
     7
176
     1
 90
        3
176
     1
 90
        0
176
     1
 90
        0
176
     1
290
     0
176
     1
 90
       13
176
     1
 40
0.0
176
     1
 90
        0
176
     1
290
     0
176
     1
290
     1
176
     1
290
     1
176
     1
290
     0
176
     1
290
     0
176
     1
290
     0
176
     1
290
     0
176
     1
290
     0
176
     1
290
     0
176
     1
 90
       50
176
     1
 40
0.0
176
     1
 40
1.0
176
     1
 90
        0
176
     1
 62
    18
420
        0
176
     1
 90
       50
176
     1
 90
        3
176
     1
 62
     5
420
      255
176
     1
290
     0
176
     1
 90
       50
176
     1
 90
       50
176
     1
 90
       50
176
     1
290
     0
176
     1
 90
       50
176
     1
 62
   256
176
     0
 40
1.0
176
     0
 90
        2
176
     1
  1
strokes_ogs.tif
176
     1
290
     0
176
     1
 40
1.0
176
     1
 40
1.0
176
     1
1001
ACAD
1000
AcDbSavedByObjectVersion
1070
     0
  0
DICTIONARYVAR
  5
146
102
{ACAD_REACTORS
330
5E
102
}
330
5E
100
DictionaryVariables
280
     0
  1
1:1
  0
DICTIONARYVAR
  5
259
102
{ACAD_REACTORS
330
5E
102
}
330
5E
100
DictionaryVariables
280
     0
  1
3.500000
  0
DICTIONARYVAR
  5
25A
102
{ACAD_REACTORS
330
5E
102
}
330
5E
100
DictionaryVariables
280
     0
  1
acadiso.lin
  0
DICTIONARYVAR
  5
145
102
{ACAD_REACTORS
330
5E
102
}
330
5E
100
DictionaryVariables
280
     0
  1
STANDARD
  0
DICTIONARYVAR
  5
84
102
{ACAD_REACTORS
330
5E
102
}
330
5E
100
DictionaryVariables
280
     0
  1
STANDARD
  0
DICTIONARYVAR
  5
227
102
{ACAD_REACTORS
330
5E
102
}
330
5E
100
DictionaryVariables
280
     0
  1
Metric50
  0
DICTIONARYVAR
  5
228
102
{ACAD_REACTORS
330
5E
102
}
330
5E
100
DictionaryVariables
280
     0
  1
Metric50
  0
DICTIONARYVAR
  5
5F
102
{ACAD_REACTORS
330
5E
102
}
330
5E
100
DictionaryVariables
280
     0
  1
2
  0
DICTIONARYVAR
  5
63
102
{ACAD_REACTORS
330
5E
102
}
330
5E
100
DictionaryVariables
280
     0
  1
1
  0
DICTIONARYVAR
  5
1AE
102
{ACAD_REACTORS
330
5E
102
}
330
5E
100
DictionaryVariables
280
     0
  1
0
  0
DICTIONARYVAR
  5
1AF
102
{ACAD_REACTORS
330
5E
102
}
330
5E
100
DictionaryVariables
280
     0
  1
0
  0
DICTIONARY
  5
34B
102
{ACAD_REACTORS
330
349
102
}
330
349
100
AcDbDictionary
281
     1
  0
DICTIONARY
  5
34A
102
{ACAD_REACTORS
330
349
102
}
330
349
100
AcDbDictionary
281
     1
  3
1669994692800
350
344
  3
1669994692816
350
345
  3
1669994692832
350
346
  3
1669994692848
350
347
  3
1669994692864
350
348
  0
DICTIONARY
  5
352
330
28E
100
AcDbDictionary
280
     1
281
     1
  3
ACAD_XREC_ROUNDTRIP
360
353
  0
DICTIONARY
  5
34E
330
21C
100
AcDbDictionary
280
     1
281
     1
  3
ACAD_XREC_ROUNDTRIP
360
34F
  0
DICTIONARY
  5
205
330
22
100
AcDbDictionary
280
     1
281
     1
  0
DICTIONARY
  5
1F9
330
ED
100
AcDbDictionary
280
     1
281
     1
  3
FBXASSET
360
1FA
  0
DICTIONARY
  5
1F7
330
EC
100
AcDbDictionary
280
     1
281
     1
  3
FBXASSET
360
1F8
  0
DICTIONARY
  5
173
330
EE
100
AcDbDictionary
280
     1
281
     1
  3
BUMPTILE
360
175
  3
DIFFUSETILE
360
174
  3
FBXASSET
360
1FB
  3
OPACITYTILE
360
176
  3
REFLECTIONTILE
360
177
  0
DICTIONARY
  5
350
330
28D
100
AcDbDictionary
280
     1
281
     1
  3
ACAD_XREC_ROUNDTRIP
360
351
  0
DICTIONARY
  5
34C
330
21A
100
AcDbDictionary
280
     1
281
     1
  3
ACAD_XREC_ROUNDTRIP
360
34D
  0
DICTIONARY
  5
162
330
7F
100
AcDbDictionary
280
     1
281
     1
  3
ACAD_ROUNDTRIP_2008_TABLESTYLE_CELLSTYLEMAP
360
342
  0
XRECORD
  5
344
102
{ACAD_REACTORS
330
34A
102
}
330
34A
100
AcDbXrecord
280
     1
  1
AcDb_Thumbnail_Schema
102
{ATTRRECORD
341
345
  2
AcDbDs::TreatedAsObjectData
280
     1
291
     1
102
ATTRRECORD}
102
{ATTRRECORD
341
346
  2
AcDbDs::Legacy
280
     1
291
     1
102
ATTRRECORD}
  2
AcDbDs::ID
280
    10
 91
        8
102
{ATTRRECORD
341
347
  2
AcDs:Indexable
280
     1
291
     1
102
ATTRRECORD}
102
{ATTRRECORD
341
348
  2
AcDbDs::HandleAttribute
280
     7
282
     1
102
ATTRRECORD}
  2
Thumbnail_Data
280
    15
 91
        0
  0
XRECORD
  5
345
102
{ACAD_REACTORS
330
34A
102
}
330
34A
100
AcDbXrecord
280
     1
  1
AcDbDs::TreatedAsObjectDataSchema
  2
AcDbDs::TreatedAsObjectData
280
     1
 91
        0
  0
XRECORD
  5
346
102
{ACAD_REACTORS
330
34A
102
}
330
34A
100
AcDbXrecord
280
     1
  1
AcDbDs::LegacySchema
  2
AcDbDs::Legacy
280
     1
 91
        0
  0
XRECORD
  5
347
102
{ACAD_REACTORS
330
34A
102
}
330
34A
100
AcDbXrecord
280
     1
  1
AcDbDs::IndexedPropertySchema
  2
AcDs:Indexable
280
     1
 91
        0
  0
XRECORD
  5
348
102
{ACAD_REACTORS
330
34A
102
}
330
34A
100
AcDbXrecord
280
     1
  1
AcDbDs::HandleAttributeSchema
  2
AcDbDs::HandleAttribute
280
     7
 91
        1
284
     1
  0
XRECORD
  5
353
102
{ACAD_REACTORS
330
352
102
}
330
352
100
AcDbXrecord
280
     1
102
DISPLAYNAME
  1
Imperial24
102
FLAGS
 90
        0
  0
XRECORD
  5
34F
102
{ACAD_REACTORS
330
34E
102
}
330
34E
100
AcDbXrecord
280
     1
102
DISPLAYNAME
  1
Metric50
102
FLAGS
 90
        0
  0
XRECORD
  5
1FA
102
{ACAD_REACTORS
330
1F9
102
}
330
1F9
100
AcDbXrecord
280
     1
 70
     1
 90
429727718
  1
D62C5603-E3A1-4AEA-B7FB-FE5D8D0755AF
310
504B03040A0000080000CC70623B3DEE336E79000000790000001B0000006175746F6465736B2D64657369676E2D7061636B6167652E786D6C3C3F786D6C2076657273696F6E3D22312E302220656E636F64696E673D227574662D3822203F3E3C666F726D6174733E3C666F726D61743E687474703A2F2F736368656D612E
310
6175746F6465736B2E636F6D2F64657369676E2D7061636B6167652F323030393C2F666F726D61743E3C2F666F726D6174733E504B0304140006080800CC70623BD486FD9CA0000000F4000000130000005B436F6E74656E745F54797065735D2E786D6C7D8EC10E82300C865F65E91D8A1E8C310C0EEA1BF002731658846E
310
D98AC1B77784ABF1D8FE5FBFBF75BBCE937A534CCEB38643598122B6FEE978D0B0485F9C41B54DDD7D022595594E1A469170414C76A4D9A4D207E29CF43ECE46F218070CC6BECC4078ACAA135ACF422C856C0E68EA1BF5669944DDD7BCDE7B1F8E415D77AECB980613C2E4AC91FC167A2B244592486606FC29C8FD7F045B9A
310
EF7053A7E60B504B0304140006080800CC70623B853B8169EB0000007C01000008000000636F72652E786D6C8D90416EC3201045AF62CDB6C206821CC7C244919D9CA01740401C94182C03558F5F9C3852BBEB6A467FFE9B197D7EFC9E1EC5975982F5AE035262288C535E5B377690E21535501C055FBC8FBF6C503839990E
310
5619041F179FE64D52DE45E362569DD7661365082642A11EB9E920A89B99642953CC8E702F67A9EE7234257977194EC9EAE275C4EABCCF5EAD5940D4AC6F0E35A568B8F43562CD7046CD199FD07E60174276A7BE677B5EADB0E0D14EEFFB6A31321A0D82627C4084204C3F096B71DD52F6819B16635EADF63F509AF53FA164
310
5DDCD1EDDD17164090FCC8732078B56691CB33A85CD7DCC40F504B0304140006080800CC70623B55019EA25F0000007C00000007000000636E782E786D6C4DCB3B0E80201045D1AD90E915ED2CF8AC45050C11660C8261F98AB1B07AC9C97D42D718D865D3E909258CFD00CCE24AC6E326A164D74DC0B4128928FF32603847
310
2BA13128B1252AC747C6BAB984FC68F0B87FE8960A5C09FE86CFB69FBA01504B0304140006080800CC70623BDBABAAF470010000D40300000C0000006662782F636F72652E786D6CC553D16E823014FD95A6AF4B694182CC941A83FA05FB810A9511A125A5257EFE2E82712ECEB8A7F100CD39F7F69E734AF9FADC366850B6
310
AF8DCE7018308C942E4C59EB2AC3DE1D498AD15A706B8CFB56869196ADCAF00863C12B6B7C374385D14E6907A836A59A41D9F7CA615434B0C8705F7CAA5606D23BA8E84F41278B93AC54100640439DE0BDB320004D43C63716C7C399D30917DCFBBA9CD9BA8469F5B156168B24CED3F7248AC8769F27244EB73B92EED8862C
310
B7F13E0C179B3C8F979C8ECD82BBBABDAA2BAC924E9558448CBD9330242CFA08E3154B5651FCC6D215639C8EE5774DBE2B5F6CF2B5768B68963BB5F5588420E442FC700B1139D4CB01F450C1E918227C2E09DF070D8140C84E1E9AAB8F1340832A9CB13130A5F1376A908D57309505ECF2A0DF179C4E9D30F5B239B87E3823
310
7A79C6F31DE1A8A5AEC08474B03C7837EAE4938639B44E5932B833D2C6B6B279CDC613877FA26EE21F4A2A4C63EC7F29A2F301D1F9F7A0E37D145F504B0304140006080800CC70623B9C113CC27E0000009D0000000B0000006662782F636E782E786D6C4DCCDF0A83201C86E15B91DFB94BFB330DD428C8FB886521330DA7
310
6397BF1A1DECE883878F57749FCDA1B7892F1BBC047A23808C7F84D9FA55424E0BE6803A256208E9EF06C84F9B91703228B1C690F78B66B34CD9A5439DF5CF0BFBF65E35BCA1B8D6A5C6F540381E886698B5741C695F9503EBA150A2F8958E3DC3EA0B504B0304140006080800CC70623B7DF2F77C2A010000120200003100
310
00006662782F41393633353835312D344632462D344230382D423046372D3739314545314133324237412F636F72652E786D6C8D51DB8EC22014FC15C2939B0D2DB4B45643319AE817EC0F6041255A68B86CFCFC856D4D76DF7CE190393373060EDB3DC707F856CE6B6B7A480A0C81328395DA5C7B18C3057510EC3873D686
310
3F34088C18550F330C39BB3A1BA7051AAC09CA84841A2BD5020AEF55806078A44B0FFD7053A328440C89E1EFC52486BBB8AA8214A99D789CF9E05200300FC927E4FB4D5B375D43103D5527440FB843077C5AA3F5861C8F645F5787F59E95B390B318B55CE45AA638FAA2957BD7248B390B7A7CC51F9C124149C82B8C378810
310
84AB2F42B7B8DD56F413775B8C5999E9FF4471926F8AA236A1AE96B8B3CC434E5839373893369E1FAF30EA395917409EB7F26AF8801C171837A4A6AC9C89E9F9C9B1A58BA30FD6A5EF5DDDCF894B9AD9B6A59C957943A9FCAE2FD5BC4DFE03504B0304140006080800CC70623BAD7543B64E01000033030000300000006662
310
782F41393633353835312D344632462D344230382D423046372D3739314545314133324237412F636E782E786D6CD593CD6EC32010845F0571AD6CE3D48AD20813A9873E410FBD12D82434182C7EAAE6EDBB2424CD25871E7B41D6EC30B3FA84F9E67BB2E40B4234DE8DB46F1925E094D7C6ED479AD3AE5951B2113C789FEE
310
6C943839C1488B4C05DF079FE72A69D8C96C13AAD6B8631503449F83828872B949AC57D26200B826A308D316B4064D6E46FCDA41C05550DC9E483A00797BFD207EFB092A45DE9514C1BBD22178396BD39D891265658C238DEA00936C654E5E433CB65A26D9F6EDB5EBC14EBF49A45CB856E66048291F6939A9A81BB5C89177
310
38143CA680F4AA299D66A042CEB3354A2684DC9D8D178FE0D9B8B41CAAD720F880EE7EF93C0C18769E099ECC04D5A102C8049A8A05632F4DDF376CF1DE0F6BB65C2F8627B65A33C6BB62177CEBBDAD973006829F89F22E814B54F4BC2BE347F8AA8F681390B50FA73F804400B5F542E796F19FF974E7F78DB802FE05E20750
310
4B0304140006080800CC70623BE75B7789680500003C100000340000006662782F41393633353835312D344632462D344230382D423046372D3739314545314133324237412F6F626A656374732E786D6CAD575B8F9B3818FD2B887D06C22499CB8AA1CA655245D5B455A356FB305264C061D8018C6C3393D95FBFC7600890
310
A4CD5EF210B0B1BFEBF98E3F7B1FF6596ABC522E1296DF9BAE3D320D9A872C4AF2F8DE2CE5CEBA358D0FBEC719939D65A691938CDE9B6ADAF4BD98B3B2D05311DD91329583D9D5FC0F438434A7A611A644887B5384CF34233629258BA878B12322891DEFF6B66BD70BFB62634E8AE781D082709A4B588AF91C528CDA28B73F
310
1C998EEF39EABBEFA97FBD6A7C7E9553F9D3D79FE442923C3C523610337627CB87ABE99D359D4CC6D6E4FACAB5E6ABF9D2726FC6A3C5F56271377BB88362213924694B38DD99FE47C48627A1E7D49F5A8BB5E1A74C0A599ED3B0F21F1E56366B89112D681E218F0915D0D6F17AD41FBA2A369DCF6335D62ABBD39779D5DDD1
310
11D4D8DE3CBB96B2E04FB8202E41051754A1AA8E8F76B4C6DFE810B580B1547F4B84911149794252234D024EF8BBE963A95AE27B3D310A9D5C215C7960FAEE415ED75694C6AFB17BCACA5D99A60A9AA65F217B0BFC53292ACB92BF283FAD0D3621576592CB5BED907C2FA8E9DF794E35E97BEA31BED21FEB401ABB94C44839
310
DCACBF0E1C5DA8DA5B2F4DFFD32AD86F543D9E565E7056502E157C00AD2671CD534549AB752FCA9CDA00677A313F04E51B22FF19E57B300579E3C97EB29F682D92935CEC18CF901B7B54FD8C51F362B56FC72FE0B3C1EAE335EDCCBF5AEC39ADB17DC238973F804BA5E6F6BFE7AF1FB32E523BE9F3BD571418E3631DCA4D48
310
5250CF639223210A9446CA30052EDF057BD35F8329C1ECD84552BF0DC8D18BE7BCE23BFE6BD960AB4A7DE79923A103BEBD80F911CBAA2C60DB19B01CF164A5583B772EE6D3FFA56666CBCDA74DC97724A48F9A58967497E489C4D979006FD7A05E227A1EBDD0F737C623387A9C844D3709995625106D157315F8B8392CD4E0
310
A0B9A720C4BE9829CEF37EA1E13111214D53925356365ADA634861B52519DD27A00AEB808EAF0628E6F435519D446F45CF2C9CF5214F0A15B2F6D06B79DA3EE3CBF7F56780D2F4E7EF73A0F5E5B02A38D07DC852C6B7C1FBB6664213E0C39E3EBA7FF4E1AD23EA2829407C85E586727488B751B2DB9502BC7B228A3FD68B6E
310
A65A22397E690AA8D158D7E404EC8CDA235CC3B7D1898680131CEC2CDF2638C65196279577750F15884AEE19F94199155B92B13297978469D4F8D358DF0AEF7631E28DC8F0D9F437D5D39A83B2231A1D52D543813A824EF8D44BCFF2FA6A31BD1E8DAD87F1CCB526B3879935BF59CDADD5C37479BB1CDD4CA7B3556B516589
310
EF352754B706114D9C885EC9131DE6EFEB43D99AFE2391C2F958179413D7CFEF6B1B6DB1E7600F00DE6E5C67454A339A4BA2E0FBA85ED26F045D454F463DBFCE484C2F90F2E5E3666003662ED8F755951A7D1BECD5B30B550B2785C8E7320B7292A4838DDA71BBC863ED7613CAF659337A3354231D4FF4A182A54904C2898C
310
98B28C4AD0CE056CCF332A80986E571EE9DBC305BB5FEB7E509220A58D25CF042D712A806AC0AD0C657FDEF80D2D9CEAA2EE4D1C76F60BFE74219A06527D6F82DF6412526107381E55E353090704D085B52408A8913C4ED159D79BDA71BB4BC506F4831350EB6F975CD22D69BF7AC49B91A2C0A9DDA3D5CA36AD20FC478E37
310
E61844E2352865EBCB61A275A65283CAAA9DD27703B4102F5AF51EF5F573B75CBB5AD38BC845F7A49F82A0966A49C2E3EA5EA0ECD326CD965F1DB402C6FA8B51A4658C5C5E2EC9E214602E55810345408596591009A82E7E7FFACA19EEA299B14A0081A705CB3296EBC14CDF658DCD336EA6D1136881AAEB87B81AB9EE53D5
310
F5EB8BC8362082DA24122F98680A4E7930C01A0079749CEA14382A0783E5EBA5A10F8C098456A03D6A4AEB6BB881E2513747552A5DB22C7EDAF83BD5528081A365F7FF06504B0304140006080000CC70623B000000000000000000000000350000006662782F41393633353835312D344632462D344230382D423046372D37
310
39314545314133324237412F76657274696365732E62696E504B0304140006080800CC70623BF270F1330600000004000000360000006662782F41393633353835312D344632462D344230382D423046372D3739314545314133324237412F747269616E676C65732E62696E636660600000504B0304140006080000CC7062
310
3B000000000000000000000000370000006662782F41393633353835312D344632462D344230382D423046372D3739314545314133324237412F617474726962757465732E62696E504B0304140006080800CC70623B08DA0BD19000000041010000360000006662782F41393633353835312D344632462D344230382D4230
310
46372D3739314545314133324237412F6469726563746F72792E786D6C858F410AC3201045AF22B36F53E9A60B35CBEEBAE80D244E44489C6234F4F835464A48035D0DF398FF9F8AF63D0E6CC63039F212F8F9020C7D47C6792B21C5FE7403D62A1188E2E60C98D7234A5830286103A55745067B9D86B8A3CF9C7F90C11DE6
310
07FB144396D7B6A82D282E9A152AD114D5EF2CB866EEE831B8EEA07A7BB5A8D7D61A2BAAEB7FD5F70921FF497D00504B0304140006080800CC70623BEDD1DC58FD000000A00100003B0000006662782F41393633353835312D344632462D344230382D423046372D3739314545314133324237412F7265736F75726365732F
310
636F72652E786D6C8D504B6E833010BD0A9A6D65B00922041947112427E8052C33A156828DFCA97AFC9A40A576D7CDCCE87D344F8F9FBFE667F689CE6B6B3A6039850C8DB2A336530731DC4903D95970676DF82583CCC8193B5861107C72362E3BA4AC096842428D1D7107A5F7182053CF7474E0D507CE32973124857FE48B
310
540F3961CEF244279DE03EB81420DB9EAC1384436FA353E879B1B182C7A8C75DA3C7F453DF353A1075D537A7BA6464B8F535A99AE14A9A2BBD90E350DD183B5CFABE3AF262350B1EF4FC9351399401471025A527C218A1E53BAB5A5AB765F5469B96525EACF23FA6B88CFF34456DC2A1DCE36E360F82A5202F42F062ED2BAD
310
579969AFDD8A6F504B010214000A0000080000CC70623B3DEE336E79000000790000001B00000000000000000000000000000000006175746F6465736B2D64657369676E2D7061636B6167652E786D6C504B01021400140006080800CC70623BD486FD9CA0000000F40000001300000000000000000000000000B20000005B
310
436F6E74656E745F54797065735D2E786D6C504B01021400140006080800CC70623B853B8169EB0000007C010000080000000000000000000000000083010000636F72652E786D6C504B01021400140006080800CC70623B55019EA25F0000007C000000070000000000000000000000000094020000636E782E786D6C504B
310
01021400140006080800CC70623BDBABAAF470010000D40300000C00000000000000000000000000180300006662782F636F72652E786D6C504B01021400140006080800CC70623B9C113CC27E0000009D0000000B00000000000000000000000000B20400006662782F636E782E786D6C504B01021400140006080800CC70
310
623B7DF2F77C2A010000120200003100000000000000000000000000590500006662782F41393633353835312D344632462D344230382D423046372D3739314545314133324237412F636F72652E786D6C504B01021400140006080800CC70623BAD7543B64E010000330300003000000000000000000000000000D2060000
310
6662782F41393633353835312D344632462D344230382D423046372D3739314545314133324237412F636E782E786D6C504B01021400140006080800CC70623BE75B7789680500003C10000034000000000000000000000000006E0800006662782F41393633353835312D344632462D344230382D423046372D3739314545
310
314133324237412F6F626A656374732E786D6C504B01021400140006080000CC70623B0000000000000000000000003500000000000000000000000000280E00006662782F41393633353835312D344632462D344230382D423046372D3739314545314133324237412F76657274696365732E62696E504B01021400140006
310
080800CC70623BF270F133060000000400000036000000000000000000000000007B0E00006662782F41393633353835312D344632462D344230382D423046372D3739314545314133324237412F747269616E676C65732E62696E504B01021400140006080000CC70623B0000000000000000000000003700000000000000
310
000000000000D50E00006662782F41393633353835312D344632462D344230382D423046372D3739314545314133324237412F617474726962757465732E62696E504B01021400140006080800CC70623B08DA0BD1900000004101000036000000000000000000000000002A0F00006662782F41393633353835312D344632
310
462D344230382D423046372D3739314545314133324237412F6469726563746F72792E786D6C504B01021400140006080800CC70623BEDD1DC58FD000000A00100003B000000000000000000000000000E1000006662782F41393633353835312D344632462D344230382D423046372D3739314545314133324237412F7265
310
736F75726365732F636F72652E786D6C504B0506000000000E000E0080040000641100000000
  0
XRECORD
  5
1F8
102
{ACAD_REACTORS
330
1F7
102
}
330
1F7
100
AcDbXrecord
280
     1
 70
     1
 90
429727718
  1
30362254-06B7-45E0-A893-8CFA70E3D6BC
310
504B03040A0000080000CC70623B3DEE336E79000000790000001B0000006175746F6465736B2D64657369676E2D7061636B6167652E786D6C3C3F786D6C2076657273696F6E3D22312E302220656E636F64696E673D227574662D3822203F3E3C666F726D6174733E3C666F726D61743E687474703A2F2F736368656D612E
310
6175746F6465736B2E636F6D2F64657369676E2D7061636B6167652F323030393C2F666F726D61743E3C2F666F726D6174733E504B0304140006080800CC70623BD486FD9CA0000000F4000000130000005B436F6E74656E745F54797065735D2E786D6C7D8EC10E82300C865F65E91D8A1E8C310C0EEA1BF002731658846E
310
D98AC1B77784ABF1D8FE5FBFBF75BBCE937A534CCEB38643598122B6FEE978D0B0485F9C41B54DDD7D022595594E1A469170414C76A4D9A4D207E29CF43ECE46F218070CC6BECC4078ACAA135ACF422C856C0E68EA1BF5669944DDD7BCDE7B1F8E415D77AECB980613C2E4AC91FC167A2B244592486606FC29C8FD7F045B9A
310
EF7053A7E60B504B0304140006080800CC70623B1EC5D7A3EB0000007C01000008000000636F72652E786D6C8D90416EC3201045AF82665B6103C6756C6122AB4D4ED00B204C5C94182C03558F5F9C3852BBEB6A467FFE9B197D71FC9E6FE8CBACC17AD7032D0820E3B41FAD9B7A48F1820F808E52ACDEC75F36404ECDA687
310
4D0629A6D5A76597B477D1B89855E747B38B2A041301E95B6E7A08FAD3CCAA50296647B8168BD2573599823EBB0CA76447F43862C7BCCF5EAC59410E4DDD9C7973C2755553CCCFA4C603E3040F1565ED3B1FDE4E432BCA0D9622DAF9795FAF464533826484B498524CD807E51D79ED187F21878E10516EF63F505AC67F42C9
310
BA58B1FDDD071640D2FCC87D2045B96591CB3DA85CB7DCE40F504B0304140006080800CC70623B55019EA25F0000007C00000007000000636E782E786D6C4DCB3B0E80201045D1AD90E915ED2CF8AC45050C11660C8261F98AB1B07AC9C97D42D718D865D3E909258CFD00CCE24AC6E326A164D74DC0B4128928FF32603847
310
2BA13128B1252AC747C6BAB984FC68F0B87FE8960A5C09FE86CFB69FBA01504B0304140006080800CC70623B8C9102E971010000D40300000C0000006662782F636F72652E786D6CC5535B6E833010BC8AE5DF0A6C08340F1947A84D4ED00B38C6A128602363A31CBFCB234A53A551FA553EC09AD9F5CE8C31DB9E9B1AF5CA
310
7695D1198E428A91D2D214952E33ECDD315861B4E5CC1AE3BE9561A445A3323CC098B3D21ADFCE9034DA29ED00D5A6503328BA4E398C640D8B0C77F253352214DE4145770A5B214FA2546114020D759C75CE8200340D19DE981F0F6746269C33EFAB6266AB02A655C74A59CCF365BADC27CB5D902ED22848F6340DF238A141
310
BE88E2F57B92BFEDF23523433367AE6A2EEAA455C2A902F398D2751045018D3FA264435F3771F242571B4A1919CA6F9A7C5B3CD9E42BED16F12C776AEB308F40C848FC700B1139D4891EF410CEC810227CC6846F8386402064270EF5C5C709A05E49676C024C61FC95EA45ED154CA5211D1FF4FB8291A913A68E9B83EBBB33
310
E2A7673CDE118E5AE8124C0807CB8377834E366998436B950D7A7746DAD846D4CFD978E0F04FD455FC5D49D2D4C6FE9722321F10997F0F32DC47FE05504B0304140006080800CC70623BFFEA85907E0000009D0000000B0000006662782F636E782E786D6C4DCCD10A83201886E15B91FFDC95D95A811AB6F23E625948A6C3
310
E9D8E5AF46073BFAE0E1E365ED67B3E8ADC3CB78C7815C7240DA3DFC64DCC221C519D7805AC182F7F1EF06C88D9BE6703008B6049F9E274D7A1E938DBB5AE3D6131B2589BA0D3D965551E0B2EA732C9B9A624AAEB41E3A557677029960D9AFB4EF11165F504B0304140006080800CC70623B4FEEA4082C0100001202000031
310
0000006662782F39464131463745442D413632322D343644302D413938332D3331353338454246344243312F636F72652E786D6C8D515B6EC32010BC0AE2AB55850DD871ED0813254D72825EC00192A2C460F1A872FC42ED48ED5F7E00CDCECCCEB26C731F6FE05B39AFADE921293004CA082BB5B9F43086336A21D870E6AC
310
0D7F68109861543DCC30E4ECE26C9C164858139409093556AA051CBC570102714B8F1E7AF1A5C6A11862480C7F2DA6415C878B2A4891CA89C7990F2E050073937C42DE1DB7E4F87ED8A36D4329AA9B3D46DBAEAD504556557BD81DEBDD0761E52CE42C462D17B996298E3E6BE59E35C962CE821E1FF18553435012728A7187
310
0841987E927A8D9B35ADDF70BBC6989599FE4F1427F9A4286A132ABAC49D651EF234CD5CE04CDA78BA3DC2A8FB645D00B9DF8B57E215725C60BCA2A463E54C4CE327C7A65E1C7DB02E7DEFCBF594B864C5CA6CDBD49C957943E9FA5D5FBAF336F90F504B0304140006080800CC70623BAD7543B64E01000033030000300000
310
006662782F39464131463745442D413632322D343644302D413938332D3331353338454246344243312F636E782E786D6CD593CD6EC32010845F0571AD6CE3D48AD20813A9873E410FBD12D82434182C7EAAE6EDBB2424CD25871E7B41D6EC30B3FA84F9E67BB2E40B4234DE8DB46F1925E094D7C6ED479AD3AE5951B2113C
310
789FEE6C943839C1488B4C05DF079FE72A69D8C96C13AAD6B8631503449F83828872B949AC57D26200B826A308D316B4064D6E46FCDA41C05550DC9E483A00797BFD207EFB092A45DE9514C1BBD22178396BD39D891265658C238DEA00936C654E5E433CB65A26D9F6EDB5EBC14EBF49A45CB856E66048291F6939A9A81BB5
310
C8917738143CA680F4AA299D66A042CEB3354A2684DC9D8D178FE0D9B8B41CAAD720F880EE7EF93C0C18769E099ECC04D5A102C8049A8A05632F4DDF376CF1DE0F6BB65C2F8627B65A33C6BB62177CEBBDAD973006829F89F22E814B54F4BC2BE347F8AA8F681390B50FA73F804400B5F542E796F19FF974E7F78DB802FE05
310
E207504B0304140006080800CC70623B16AB87BA640500003C100000340000006662782F39464131463745442D413632322D343644302D413938332D3331353338454246344243312F6F626A656374732E786D6CAD575B6FA33818FD2B887DE6924B3BED8A326A92B68A663B534DD4D13E548A0C38942D60649B369D5FBFC7
310
600890A493BDE42160637FD7F31D7FF63E6FB3D478A55C242CBF3247B66B1A340F5994E4F19559CA8D75611A9F7D8F33263BCB4C232719BD32D5B4E97B316765A1A722BA21652A07B3B7B33F0D11D29C9A46981221AE4C113ED38CD8A4942CA2E2C58E882476BCD9DA23BB5ED8171B73523C0F841684D35CC252CCE79062D4
310
468DFA43D7747CCF51DF7D4FFDEB5593E3AB9CCA9FBEFE241792E4E19EB28198C968BAB8199F5D5A67D3E9C49A9E8F47D6EC76B6B0469F26EEFC7C3EBFBCBEB98462213924694B38DD98FE1D62C393D073EA4FADC5DAF04326852CCF6958F90F0F2B9BB5C48816348F90C7840A68EB78EDF68723159BCEE7891A6B95DDE9D3
310
BCEAEEE8086A6C6F9E5D4B59F0175C10A7A0820BAA5055C7473B5AE3CFDD452D602CD5DF12616444529E90D448938013FE6EFA58AA96F85E4F8C42275708571E98FE6827AF6B2B4AE3D7D83D64E5A64C53054DD3AF90BD06FEA9149565C94FCA0F6B834DC85599E4F2423B24DF0B6AFA979E534DFA9E7A4CC6FA631D486393
310
921829879BF5D781A373557BCB85E97FB90DB62B558F8795179C15944B051F40AB495CF35451D26A4727654E6D8033BD98EF82F21D91FF8AF2DD9982BCF1643BDD4EB516C9492E368C67C88DED563FC36D5EACF66DFF057C3658BDBFA69DF9578B3DA735B64F18C7F20770A9D45CFCF7FCF563D6456A277DBEF78A02637CA2
310
43B90A490AEAB94F72244481D24819A6C0E59B606BFA4B3025981DBB48EAB701D97BF19C577CC77F2D1B6C55A9EF3C732474C0B727303F625995056C3B02963D9EAC146BE78EC5FCEC7FA999EBC5EACBAAE41B12D27B4D2C0BBA49F244E2ECDC81B76B502F113D8F5EE8FB1BE3111CDD4FC2AA9B844CAB1288B68AB90A7CDC
310
1C166AB0D3DC5310625FCC14E779BFD0709F8890A629C9292B1B2DED31A4B0DA928CEE135085754027E3018A397D4D5427D15BD1330B677DC8934285AC3DF45A9EB68FF8F2B8FC0A509AFEECFD0FF2DE25CC6047F7214B195F07EFEB9A094D800F7BFAE8FED187B78EA8A3A400F115961BCAD1215E47C966530AF0EE8128FE
310
58CEBB996A8964FFA529A046635D9353B0336A8F700DDF46271A024E70B0B37C9DE01847591E54DED53D54202AB947E4076556AC49C6CA5C9E1226B7F1A7B1BE15DEED62C41B91E1B3E9AFAAA735036547343A925075041DF0A9979E893B391F8FCFA6967B3EFB644DCF6E5CEBFAE272625DCC6FAF3FB93793C5F90CE1EF57
310
407342756B10D1C489E8953CD1617E5CEECAD6F4EF8914CE5D5D504E5C3F1F9736DA62CFC11E00BCDDB8CC8A9466349744C1F75EBDA4DF09BA8A9E8C7A7E9991989E20E5DBDD6A6003664ED8F7A04A8DBE0DF6EAD9B9AA858342E47399053949D2C146EDB85DE4B176BB0965FBAC19BD19AA918E27FA50C1D22402E144464C
310
59462568E704B6E71915404CB72B8FF4EDE184DDAF753F284990D2C6926782963815403548A70C657FDEF80D2D9CEAA2AE4C1C76F60BFE74219A06527D6582DF6412526107381E55E353090704D085B52408D0933C4ED159D79BDA71BB4BC506F4831350EB6F979CD22D69BF7AC49B91A2C0A9DDA3D5CA36AD20FC478E37E6
310
1844E2352865EBCB6EA275A652E3836BE04EFB400BF1A2556F515F1FBB35B2AB35BD889C744FFA1004B5544B121E57F70215746DD2F5E2C1412B602CBF19455AC6C8E5E9922C4E01E65215385004546899059180EAFCF7A707CE7017CD8CDB0410789AB32C63B91E5CEBBBACB17AC6CD347A022D5075FD106377347AAABA7E
310
7D11590744509B44E205134DC1290F06580320F78E537D3D73540E06CB970B431F185308AD40BBD794D6D77003C5A36E8EAA54BA64597CD8F83BD552A080A365F7FF06504B0304140006080000CC70623B000000000000000000000000350000006662782F39464131463745442D413632322D343644302D413938332D3331
310
353338454246344243312F76657274696365732E62696E504B0304140006080800CC70623BF270F1330600000004000000360000006662782F39464131463745442D413632322D343644302D413938332D3331353338454246344243312F747269616E676C65732E62696E636660600000504B0304140006080000CC70623B
310
000000000000000000000000370000006662782F39464131463745442D413632322D343644302D413938332D3331353338454246344243312F617474726962757465732E62696E504B0304140006080800CC70623B08DA0BD19000000041010000360000006662782F39464131463745442D413632322D343644302D413938
310
332D3331353338454246344243312F6469726563746F72792E786D6C858F410AC3201045AF22B36F53E9A60B35CBEEBAE80D244E44489C6234F4F835464A48035D0DF398FF9F8AF63D0E6CC63039F212F8F9020C7D47C6792B21C5FE7403D62A1188E2E60C98D7234A5830286103A55745067B9D86B8A3CF9C7F90C11DE607
310
FB144396D7B6A82D282E9A152AD114D5EF2CB866EEE831B8EEA07A7BB5A8D7D61A2BAAEB7FD5F70921FF497D00504B0304140006080800CC70623B0D6EF93BFE000000A00100003B0000006662782F39464131463745442D413632322D343644302D413938332D3331353338454246344243312F7265736F75726365732F63
310
6F72652E786D6C8D50596E833010BD0A9ADFCA60B334011947A8694ED00B586642AC041B79A97AFC9A40A5F6AF3F33A3B7689E1E3F7DCD8FEC139DD7D6F4C0720A191A65476DA61E62B892236427C19DB5E1970C322367EC618541F0C9D9B8EC90B226A009093576C41D94DE63804C3DD2D18357379C652E63480A7FCF17A9
310
EE72C29CE5894E3AC17D702940B63D59270887DE46A7D0F36263058F518FBB468FE9A7BE6A7420864373B8D4873369AA8691FA421B3294352543C5CAF65C0F6FEF43CB8BD52C78D0F34F46E550061C419494B6843142CB0F5677F4B52BEB177AEC28E5C52AFF638ACBF84F53D42654E51E77B379102C05791282176B5F693D
310
CB4C7BED567C03504B010214000A0000080000CC70623B3DEE336E79000000790000001B00000000000000000000000000000000006175746F6465736B2D64657369676E2D7061636B6167652E786D6C504B01021400140006080800CC70623BD486FD9CA0000000F40000001300000000000000000000000000B20000005B
310
436F6E74656E745F54797065735D2E786D6C504B01021400140006080800CC70623B1EC5D7A3EB0000007C010000080000000000000000000000000083010000636F72652E786D6C504B01021400140006080800CC70623B55019EA25F0000007C000000070000000000000000000000000094020000636E782E786D6C504B
310
01021400140006080800CC70623B8C9102E971010000D40300000C00000000000000000000000000180300006662782F636F72652E786D6C504B01021400140006080800CC70623BFFEA85907E0000009D0000000B00000000000000000000000000B30400006662782F636E782E786D6C504B01021400140006080800CC70
310
623B4FEEA4082C0100001202000031000000000000000000000000005A0500006662782F39464131463745442D413632322D343644302D413938332D3331353338454246344243312F636F72652E786D6C504B01021400140006080800CC70623BAD7543B64E010000330300003000000000000000000000000000D5060000
310
6662782F39464131463745442D413632322D343644302D413938332D3331353338454246344243312F636E782E786D6C504B01021400140006080800CC70623B16AB87BA640500003C1000003400000000000000000000000000710800006662782F39464131463745442D413632322D343644302D413938332D3331353338
310
454246344243312F6F626A656374732E786D6C504B01021400140006080000CC70623B0000000000000000000000003500000000000000000000000000270E00006662782F39464131463745442D413632322D343644302D413938332D3331353338454246344243312F76657274696365732E62696E504B01021400140006
310
080800CC70623BF270F133060000000400000036000000000000000000000000007A0E00006662782F39464131463745442D413632322D343644302D413938332D3331353338454246344243312F747269616E676C65732E62696E504B01021400140006080000CC70623B0000000000000000000000003700000000000000
310
000000000000D40E00006662782F39464131463745442D413632322D343644302D413938332D3331353338454246344243312F617474726962757465732E62696E504B01021400140006080800CC70623B08DA0BD190000000410100003600000000000000000000000000290F00006662782F39464131463745442D413632
310
322D343644302D413938332D3331353338454246344243312F6469726563746F72792E786D6C504B01021400140006080800CC70623B0D6EF93BFE000000A00100003B000000000000000000000000000D1000006662782F39464131463745442D413632322D343644302D413938332D3331353338454246344243312F7265
310
736F75726365732F636F72652E786D6C504B0506000000000E000E0080040000641100000000
  0
XRECORD
  5
175
102
{ACAD_REACTORS
330
173
102
}
330
173
100
AcDbXrecord
280
     1
270
     1
271
     1
  0
XRECORD
  5
174
102
{ACAD_REACTORS
330
173
102
}
330
173
100
AcDbXrecord
280
     1
270
     1
271
     1
  0
XRECORD
  5
1FB
102
{ACAD_REACTORS
330
173
102
}
330
173
100
AcDbXrecord
280
     1
 70
     0
 90
1673772943
  1
ECE7A1D2-D628-4531-984C-D00F80459256
310
504B03040A0000080000CC70623B3DEE336E79000000790000001B0000006175746F6465736B2D64657369676E2D7061636B6167652E786D6C3C3F786D6C2076657273696F6E3D22312E302220656E636F64696E673D227574662D3822203F3E3C666F726D6174733E3C666F726D61743E687474703A2F2F736368656D612E
310
6175746F6465736B2E636F6D2F64657369676E2D7061636B6167652F323030393C2F666F726D61743E3C2F666F726D6174733E504B0304140006080800CC70623BD486FD9CA0000000F4000000130000005B436F6E74656E745F54797065735D2E786D6C7D8EC10E82300C865F65E91D8A1E8C310C0EEA1BF002731658846E
310
D98AC1B77784ABF1D8FE5FBFBF75BBCE937A534CCEB38643598122B6FEE978D0B0485F9C41B54DDD7D022595594E1A469170414C76A4D9A4D207E29CF43ECE46F218070CC6BECC4078ACAA135ACF422C856C0E68EA1BF5669944DDD7BCDE7B1F8E415D77AECB980613C2E4AC91FC167A2B244592486606FC29C8FD7F045B9A
310
EF7053A7E60B504B0304140006080800CC70623BD9DDAED0EC0000007C01000008000000636F72652E786D6C8D90416EC3201045AF82665B61836D9CD8C2444DD39CA01740405C94182C03558F5F9C3852BBEB6A467FFE9B197D7EF89E6EE8CB2CC17A37002D0820E394D7D68D03A478C17B4007C117EFE32F1B20272733C0
310
2A83E0E3E2D3BC49CABB685CCCAAF3DA6CA20CC14440EA969B0182FA34932C648AD911AEC52CD5558EA6A0CF2EC329598D1E47ACCEFBECC59A050463A7EA5833865FEBDD0E37353BE3EE8DBDE3F6786A48D375FBF6CC78B9C282473B3DEFABC5C86834888A900E538A49F5419B9EB47DD5BC907D4F082F57FB1F28CDFA9F50
310
B22ED6D5F6EE030B20687EE43E10BC5CB3C8E51E54AE6B6EE207504B0304140006080800CC70623B55019EA25F0000007C00000007000000636E782E786D6C4DCB3B0E80201045D1AD90E915ED2CF8AC45050C11660C8261F98AB1B07AC9C97D42D718D865D3E909258CFD00CCE24AC6E326A164D74DC0B4128928FF326038
310
472BA13128B1252AC747C6BAB984FC68F0B87FE8960A5C09FE86CFB69FBA01504B0304140006080800CC70623BA24EB22D72010000D40300000C0000006662782F636F72652E786D6CC5535B6E833010BC8AE5DF0A6C5E49888CA3A6694ED00B38E05014B091B1518EDFE511A5A9D228FD2A1F60CDEC7A67C6986DCE4D8D7A
310
69BA4AAB0C073EC548AA5C17952A33ECECD15B61B4E1CC686DBF9561A44423333CC098B3D268D7CE50AE9595CA02AA74216750749DB418E5352C32DCE59FB211BE70162ABA93DF8AFC244AE9073ED050C759670D0840D390E18DF9F1706664C23973AE2A66B62A605A75ACA4C13C4976E1364A12EF355A2EBD384AF65EFA96
310
BC7B8BED2EA6719AAE16FB8491A199335B351775B991C2CA02F390D2D40B028F861F41BCA68B7518BFD0D59A524686F29B26D7164F36B94AD9289CE54E6D1DE6010819891F6E21228B3AD1831EC219194284CF98F06DD01008846CC5A1BEF83801D4CBDC6A1303536877A57A513B0953A94FC707FDBE6064EA84A9E3E6E0FA
310
EE8CF0E9198F7784A316AA0413C2C2F2E0ECA0934D1AE6D05A69BCDE9E91D2A611F573361E38FC1375157F5752AE6B6DFE4B11990F88CCBF0719EE23FF02504B0304140006080800CC70623B408A7D3B7C0000009D0000000B0000006662782F636E782E786D6C4DCCD10A83201886E15B91FFDC552A92A0064DBC8F581632
310
D3703A76F9ABD1C18E3E78F878E5F0D9027ABBFCF2292AE86E2D20171F69F6715550CB827B40839639A5F2770314A7CD293819B45C73AAFB45B35BA61ACAA1C1C7E7855C58C15BC331339661262CC762340413D68D77DA5B42298546CBE6573AF60CEB2F504B0304140006080800CC70623B449FB9BD290100001202000031
310
0000006662782F36394639363044362D344446342D343946362D394244322D3234314243333846323333332F636F72652E786D6C8D515B6EC32010BC0AE22B55850D98B871848994463E412FE002495162B07854397EA176A4F62F3F2C9A9D991D587EB84F37F0AD7D30CEF6905418026DA553C65E7A98E219ED203808EE9D
310
8B7F6810D871D23D2C3014FCE25D9A57483A1BB58D19B54EE9151C43D0110279CB971E06F9A5A7B11A53CC8C70ADE6515EC78BAE4895DB992778883E0700CB907242D17643D7E2538BD869608875438BBAE38922CAC8F1BDD90DB4691A5E2F42C153326A951B95E398B3D1FE599322163C9AE9115F7A3D46ADA0A018778810
310
84E907617BDCEE297BC5BB3DC6BC2EF47FA234AB2745C9D8D8D035EE220B50105E2F0DC1954B9FB747187D9F9D8FA0CCDB042D5FA0C015C65B42DF78BD10F3F3B363CB56C7109DCFDFBBB97E662ED92EB62D13BC2E1BCAE5777DB9966D8A1F504B0304140006080800CC70623BAD7543B64E01000033030000300000006662
310
782F36394639363044362D344446342D343946362D394244322D3234314243333846323333332F636E782E786D6CD593CD6EC32010845F0571AD6CE3D48AD20813A9873E410FBD12D82434182C7EAAE6EDBB2424CD25871E7B41D6EC30B3FA84F9E67BB2E40B4234DE8DB46F1925E094D7C6ED479AD3AE5951B2113C789FEE
310
6C943839C1488B4C05DF079FE72A69D8C96C13AAD6B8631503449F83828872B949AC57D26200B826A308D316B4064D6E46FCDA41C05550DC9E483A00797BFD207EFB092A45DE9514C1BBD22178396BD39D891265658C238DEA00936C654E5E433CB65A26D9F6EDB5EBC14EBF49A45CB856E66048291F6939A9A81BB5C89177
310
38143CA680F4AA299D66A042CEB3354A2684DC9D8D178FE0D9B8B41CAAD720F880EE7EF93C0C18769E099ECC04D5A102C8049A8A05632F4DDF376CF1DE0F6BB65C2F8627B65A33C6BB62177CEBBDAD973006829F89F22E814B54F4BC2BE347F8AA8F681390B50FA73F804400B5F542E796F19FF974E7F78DB802FE05E20750
310
4B0304140006080800CC70623B8D05915C650500003B100000340000006662782F36394639363044362D344446342D343946362D394244322D3234314243333846323333332F6F626A656374732E786D6CAD575B6FA33814FE2B887D06429276DA1565D4266D158D3A339A6846FB502932E050B66023DB74D2FDF5FB190C01
310
9276B2973C046C8ECFF53B17071F77456EBD502133CEAE6CDF9DD81665314F32965ED995DA3A17B6F5310C04E7AA47665B8C14F4CAD6DB7618A48257A5D94AE89654B91AEDDEDDFC61C998326A5B714EA4BCB265FC440BE2924AF184CA6737218AB8E976E7FA6E4338649B0A523E8D98964450A6A029F619B8588D52FE7039
310
B1BD30F0F4F730D0FF866AF6369557DB33949F31A9088B0F848DD8CCFCF9F2767A76E99CCDE733677E3EF59D9BBB9BA5E37F984D16E78BC5E5F5ED25044B25C0C96822E8D60EEFE11B91C581D77CEA34368A1F5329E68CD1B8B61F16D63A1B8E092D294B10C78C4A48EB593D192E7DED9BDEE7995E1B91FDEDD3ACEA9FE831
310
6A756F9F7D4D79F4274C90A7A04248AA51D5F8C718DAE06FB2F75AC4796EBE65D22A88A22223B995679120E2D50E41AA49C260C046A35368846B0BECD0DFF3EBEB8AD4F835768F69B9ADF25C43D30E6B646F807FAA64AD59F61715C7A54127C4AACA98BA3006A9D792DAE165E0D59B61A01FB3A9F9D838D2DAE62445C86166
310
F37564E842E7DE6A69879FEEA2DD5AE7E371E1A5E025154AC307D06A03D73EB5978C58FFA4C8E9033066E0F3BD53BEC1F39F91BE7B55103791EDE6BBB991A2046172CB4581D8B893FA674DDA17A77B3B7C413D1B511FD2743BFF8A38F03A658705E3ADF8015C3A3417FF3D7E439FF591DA0B5F18BC20C1B8981957AE6392A3
310
F43C640C01D1A0B4728E2DD4F26DB4B3C3152A252A3B4E913CEC1C72F012782FF88EFF8637AA552DBEF76408E8A8DE9E50F9E1CB3A2DA0DB1B6039A893B56063DC5B3E3FFB5F72E67AB9FEB4AEC496C4F4C1149625DD662C53E89D7BF0F6151A046260D1337DFDC94502430F83B0EE07A130A224BCAD7DAE1D9FB6CD422FF6
310
920702629C4BB9AE79C12F243C6432A6794E18E5552BA56B431AAB5D91317302B2B071E86C3A42B1A02F999E24061403B5D0EB639195DA655DD3EBEAB4FB862DDF579F014AD0E73C22F99E28DA57FB98E75C6CA2D74D53086D600F4786E0FE3144B771A8A7B900F03594DB8A633CBC49B2EDB69228BB479CF863B5E807AAAB
310
23872F6DFEB4129B949CA33823F58830E86D65621E10047D9DB34D862E8EAC3C2ABC2F7B2C40D67CDFE01F5545B92105AF983AC54D93D69E56FB8E797F88913F898A9FEC705D3F9D1B54EC8426FB500D40A03BD0119B06E1B95DDC7EB8F6975367793EBD70E66733DFB9BC982F9CE564727731999F5D4ECFCE3B8D6A4DC2A0
310
6D50FD148437D110834A64C6CDDF57FBACB5C307A2A477DFE4939736CFEF2B175371E0E10CF0DD1D5C15654E0BCA14D1E87DD02FF93782A162C0A3D95F1524A52770F972BF1EE9809D13CE7DD599467F8ECE9ADD85CE85A34CD45355448C64F9E8A031DC2D596ACC6E5DD93D9B82DE2EF5CAF81363A8E47996A0DE24564A79
310
4115AACE09C55E14540231FDA13C319787134EBF34E3A022514E5B4D9E0826E25C02D5805B15ABE1BEF51B26383D445DD9E875EE33FE4C22DA16427D65A3BCA92CA6D28DD01DF5DC53330704308475351050232CCD31583787BA75774AFB06E5070DD0C8EF484E19968C5D83BA5B90B244D31E54D55A372320FE4786B7EA58
310
44E135AA5467CB7EA333A61683CC6A8C3257034C10CF46F40EF9F5BE59BE5BD30C3C72D235E95D10345C1D45445A5F0BB47E46A5EBE5570F9380B5FA629579952296A773720405982B9DE04011506178964401AA8BDF1FBF0A8EAB6861DD6580C0E38217056766716DAEB2D6FA0917D3E4116581EADB879C4E7CFFB11EFACD
310
3D641311495D92C8676CB409A72D18610D803CE8A626049E8EC1887CB5B44CC39883690DDA8399B4B9855B481E7D71D4A9D22F96E5BB73BF5793020C02137BF837504B0304140006080000CC70623B000000000000000000000000350000006662782F36394639363044362D344446342D343946362D394244322D32343142
310
43333846323333332F76657274696365732E62696E504B0304140006080800CC70623BF270F1330600000004000000360000006662782F36394639363044362D344446342D343946362D394244322D3234314243333846323333332F747269616E676C65732E62696E636660600000504B0304140006080000CC70623B0000
310
00000000000000000000370000006662782F36394639363044362D344446342D343946362D394244322D3234314243333846323333332F617474726962757465732E62696E504B0304140006080800CC70623B08DA0BD19000000041010000360000006662782F36394639363044362D344446342D343946362D394244322D
310
3234314243333846323333332F6469726563746F72792E786D6C858F410AC3201045AF22B36F53E9A60B35CBEEBAE80D244E44489C6234F4F835464A48035D0DF398FF9F8AF63D0E6CC63039F212F8F9020C7D47C6792B21C5FE7403D62A1188E2E60C98D7234A5830286103A55745067B9D86B8A3CF9C7F90C11DE607FB14
310
4396D7B6A82D282E9A152AD114D5EF2CB866EEE831B8EEA07A7BB5A8D7D61A2BAAEB7FD5F70921FF497D00504B0304140006080800CC70623BCA768048FE000000A00100003B0000006662782F36394639363044362D344446342D343946362D394244322D3234314243333846323333332F7265736F75726365732F636F72
310
652E786D6C8D50596E833010BD0A9ADFCA60D600328E9AA639412F609909B1126CE4A5EAF16B0295DABFFECC8CDEA2797AECF8353F924FB44E193D409E5248504B332A3D0D10FC95B4901C39B3C6F85F3248B49871801506CE266BC2B243D2688FDA47549B11775038871E12F988C7004EDE7016A9083E2ADC3D5D84BC8B09
310
D33C8D74D471E6BC8D0192EDC93A815B742658898E651BCB59086ADC356A8C3FD555A1055ED7E7E254D615792D0F075295F585746FF53B694EE78A565DD736979A65AB9933AFE69F8CD2A2F038022F28ED489E135A7CE4554F9BBEA85E68DB53CAB255FEC71496F19FA6A0B42F8B3DEE6673C0F318E4497096AD7DC5F52C33
310
EEB55BFE0D504B010214000A0000080000CC70623B3DEE336E79000000790000001B00000000000000000000000000000000006175746F6465736B2D64657369676E2D7061636B6167652E786D6C504B01021400140006080800CC70623BD486FD9CA0000000F40000001300000000000000000000000000B20000005B436F
310
6E74656E745F54797065735D2E786D6C504B01021400140006080800CC70623BD9DDAED0EC0000007C010000080000000000000000000000000083010000636F72652E786D6C504B01021400140006080800CC70623B55019EA25F0000007C000000070000000000000000000000000095020000636E782E786D6C504B0102
310
1400140006080800CC70623BA24EB22D72010000D40300000C00000000000000000000000000190300006662782F636F72652E786D6C504B01021400140006080800CC70623B408A7D3B7C0000009D0000000B00000000000000000000000000B50400006662782F636E782E786D6C504B01021400140006080800CC70623B
310
449FB9BD290100001202000031000000000000000000000000005A0500006662782F36394639363044362D344446342D343946362D394244322D3234314243333846323333332F636F72652E786D6C504B01021400140006080800CC70623BAD7543B64E010000330300003000000000000000000000000000D20600006662
310
782F36394639363044362D344446342D343946362D394244322D3234314243333846323333332F636E782E786D6C504B01021400140006080800CC70623B8D05915C650500003B10000034000000000000000000000000006E0800006662782F36394639363044362D344446342D343946362D394244322D32343142433338
310
46323333332F6F626A656374732E786D6C504B01021400140006080000CC70623B0000000000000000000000003500000000000000000000000000250E00006662782F36394639363044362D344446342D343946362D394244322D3234314243333846323333332F76657274696365732E62696E504B010214001400060808
310
00CC70623BF270F13306000000040000003600000000000000000000000000780E00006662782F36394639363044362D344446342D343946362D394244322D3234314243333846323333332F747269616E676C65732E62696E504B01021400140006080000CC70623B00000000000000000000000037000000000000000000
310
00000000D20E00006662782F36394639363044362D344446342D343946362D394244322D3234314243333846323333332F617474726962757465732E62696E504B01021400140006080800CC70623B08DA0BD190000000410100003600000000000000000000000000270F00006662782F36394639363044362D344446342D
310
343946362D394244322D3234314243333846323333332F6469726563746F72792E786D6C504B01021400140006080800CC70623BCA768048FE000000A00100003B000000000000000000000000000B1000006662782F36394639363044362D344446342D343946362D394244322D3234314243333846323333332F7265736F
310
75726365732F636F72652E786D6C504B0506000000000E000E0080040000621100000000
  0
XRECORD
  5
176
102
{ACAD_REACTORS
330
173
102
}
330
173
100
AcDbXrecord
280
     1
270
     1
271
     1
  0
XRECORD
  5
177
102
{ACAD_REACTORS
330
173
102
}
330
173
100
AcDbXrecord
280
     1
270
     1
271
     1
  0
XRECORD
  5
351
102
{ACAD_REACTORS
330
350
102
}
330
350
100
AcDbXrecord
280
     1
102
DISPLAYNAME
  1
Imperial24
102
FLAGS
 90
        0
  0
XRECORD
  5
34D
102
{ACAD_REACTORS
330
34C
102
}
330
34C
100
AcDbXrecord
280
     1
102
DISPLAYNAME
  1
Metric50
102
FLAGS
 90
        0
  0
CELLSTYLEMAP
  5
342
102
{ACAD_REACTORS
330
162
102
}
330
162
100
AcDbCellStyleMap
 90
        3
300
CELLSTYLE
  1
TABLEFORMAT_BEGIN
 90
        5
170
     1
 91
        0
 92
    32768
 62
   257
 93
        1
300
CONTENTFORMAT
  1
CONTENTFORMAT_BEGIN
 90
        0
 91
        0
 92
      512
 93
        0
300

 40
0.0
140
1.0
 94
        5
 62
     0
340
11
144
6.0
309
CONTENTFORMAT_END
171
     1
301
MARGIN
  1
CELLMARGIN_BEGIN
 40
1.5
 40
1.5
 40
1.5
 40
1.5
 40
4.5
 40
4.5
309
CELLMARGIN_END
 94
        6
 95
        1
302
GRIDFORMAT
  1
GRIDFORMAT_BEGIN
 90
        0
 91
        1
 62
     0
 92
       -2
340
14
 93
        0
 40
1.125
309
GRIDFORMAT_END
 95
        2
302
GRIDFORMAT
  1
GRIDFORMAT_BEGIN
 90
        0
 91
        1
 62
     0
 92
       -2
340
14
 93
        0
 40
1.125
309
GRIDFORMAT_END
 95
        4
302
GRIDFORMAT
  1
GRIDFORMAT_BEGIN
 90
        0
 91
        1
 62
     0
 92
       -2
340
14
 93
        0
 40
1.125
309
GRIDFORMAT_END
 95
        8
302
GRIDFORMAT
  1
GRIDFORMAT_BEGIN
 90
        0
 91
        1
 62
     0
 92
       -2
340
14
 93
        0
 40
1.125
309
GRIDFORMAT_END
 95
       16
302
GRIDFORMAT
  1
GRIDFORMAT_BEGIN
 90
        0
 91
        1
 62
     0
 92
       -2
340
14
 93
        0
 40
1.125
309
GRIDFORMAT_END
 95
       32
302
GRIDFORMAT
  1
GRIDFORMAT_BEGIN
 90
        0
 91
        1
 62
     0
 92
       -2
340
14
 93
        0
 40
1.125
309
GRIDFORMAT_END
309
TABLEFORMAT_END
  1
CELLSTYLE_BEGIN
 90
        1
 91
        1
300
_TITLE
309
CELLSTYLE_END
300
CELLSTYLE
  1
TABLEFORMAT_BEGIN
 90
        5
170
     1
 91
        0
 92
        0
 62
   257
 93
        1
300
CONTENTFORMAT
  1
CONTENTFORMAT_BEGIN
 90
        0
 91
        0
 92
      512
 93
        0
300

 40
0.0
140
1.0
 94
        5
 62
     0
340
11
144
4.5
309
CONTENTFORMAT_END
171
     1
301
MARGIN
  1
CELLMARGIN_BEGIN
 40
1.5
 40
1.5
 40
1.5
 40
1.5
 40
4.5
 40
4.5
309
CELLMARGIN_END
 94
        6
 95
        1
302
GRIDFORMAT
  1
GRIDFORMAT_BEGIN
 90
        0
 91
        1
 62
     0
 92
       -2
340
14
 93
        0
 40
1.125
309
GRIDFORMAT_END
 95
        2
302
GRIDFORMAT
  1
GRIDFORMAT_BEGIN
 90
        0
 91
        1
 62
     0
 92
       -2
340
14
 93
        0
 40
1.125
309
GRIDFORMAT_END
 95
        4
302
GRIDFORMAT
  1
GRIDFORMAT_BEGIN
 90
        0
 91
        1
 62
     0
 92
       -2
340
14
 93
        0
 40
1.125
309
GRIDFORMAT_END
 95
        8
302
GRIDFORMAT
  1
GRIDFORMAT_BEGIN
 90
        0
 91
        1
 62
     0
 92
       -2
340
14
 93
        0
 40
1.125
309
GRIDFORMAT_END
 95
       16
302
GRIDFORMAT
  1
GRIDFORMAT_BEGIN
 90
        0
 91
        1
 62
     0
 92
       -2
340
14
 93
        0
 40
1.125
309
GRIDFORMAT_END
 95
       32
302
GRIDFORMAT
  1
GRIDFORMAT_BEGIN
 90
        0
 91
        1
 62
     0
 92
       -2
340
14
 93
        0
 40
1.125
309
GRIDFORMAT_END
309
TABLEFORMAT_END
  1
CELLSTYLE_BEGIN
 90
        2
 91
        1
300
_HEADER
309
CELLSTYLE_END
300
CELLSTYLE
  1
TABLEFORMAT_BEGIN
 90
        5
170
     1
 91
        0
 92
        0
 62
   257
 93
        1
300
CONTENTFORMAT
  1
CONTENTFORMAT_BEGIN
 90
        0
 91
        0
 92
      512
 93
        0
300

 40
0.0
140
1.0
 94
        2
 62
     0
340
11
144
4.5
309
CONTENTFORMAT_END
171
     1
301
MARGIN
  1
CELLMARGIN_BEGIN
 40
1.5
 40
1.5
 40
1.5
 40
1.5
 40
4.5
 40
4.5
309
CELLMARGIN_END
 94
        6
 95
        1
302
GRIDFORMAT
  1
GRIDFORMAT_BEGIN
 90
        0
 91
        1
 62
     0
 92
       -2
340
14
 93
        0
 40
1.125
309
GRIDFORMAT_END
 95
        2
302
GRIDFORMAT
  1
GRIDFORMAT_BEGIN
 90
        0
 91
        1
 62
     0
 92
       -2
340
14
 93
        0
 40
1.125
309
GRIDFORMAT_END
 95
        4
302
GRIDFORMAT
  1
GRIDFORMAT_BEGIN
 90
        0
 91
        1
 62
     0
 92
       -2
340
14
 93
        0
 40
1.125
309
GRIDFORMAT_END
 95
        8
302
GRIDFORMAT
  1
GRIDFORMAT_BEGIN
 90
        0
 91
        1
 62
     0
 92
       -2
340
14
 93
        0
 40
1.125
309
GRIDFORMAT_END
 95
       16
302
GRIDFORMAT
  1
GRIDFORMAT_BEGIN
 90
        0
 91
        1
 62
     0
 92
       -2
340
14
 93
        0
 40
1.125
309
GRIDFORMAT_END
 95
       32
302
GRIDFORMAT
  1
GRIDFORMAT_BEGIN
 90
        0
 91
        1
 62
     0
 92
       -2
340
14
 93
        0
 40
1.125
309
GRIDFORMAT_END
309
TABLEFORMAT_END
  1
CELLSTYLE_BEGIN
 90
        3
 91
        2
300
_DATA
309
CELLSTYLE_END
  0
ENDSEC
  0
SECTION
  2
ACDSDATA
 70
     2
 71
     8
  0
ACDSSCHEMA
 90
        0
  1
AcDb_Thumbnail_Schema
  2
AcDbDs::ID
280
    10
 91
        8
  2
Thumbnail_Data
280
    15
 91
        0
101
ACDSRECORD
 95
        0
 90
        1
  2
AcDbDs::TreatedAsObjectData
280
     1
291
     1
101
ACDSRECORD
 95
        0
 90
        2
  2
AcDbDs::Legacy
280
     1
291
     1
101
ACDSRECORD
  1
AcDbDs::ID
 90
        3
  2
AcDs:Indexable
280
     1
291
     1
101
ACDSRECORD
  1
AcDbDs::ID
 90
        4
  2
AcDbDs::HandleAttribute
280
     7
282
     1
  0
ACDSSCHEMA
 90
        1
  1
AcDbDs::TreatedAsObjectDataSchema
  2
AcDbDs::TreatedAsObjectData
280
     1
 91
        0
  0
ACDSSCHEMA
 90
        2
  1
AcDbDs::LegacySchema
  2
AcDbDs::Legacy
280
     1
 91
        0
  0
ACDSSCHEMA
 90
        3
  1
AcDbDs::IndexedPropertySchema
  2
AcDs:Indexable
280
     1
 91
        0
  0
ACDSSCHEMA
 90
        4
  1
AcDbDs::HandleAttributeSchema
  2
AcDbDs::HandleAttribute
280
     7
 91
        1
284
     1
  0
ACDSRECORD
 90
        0
  2
AcDbDs::ID
280
    10
320
22
  2
Thumbnail_Data
280
    15
 94
      896
310
89504E470D0A1A0A0000000D49484452000001000000009108030000001BE1960600000300504C5445212830FFFFFF2128300000000000000000000000000000000000000000000000000000330000660000990000CC0000FF0033000033330033660033990033CC0033FF0066000066330066660066990066CC0066FF0099
310
000099330099660099990099CC0099FF00CC0000CC3300CC6600CC9900CCCC00CCFF00FF0000FF3300FF6600FF9900FFCC00FFFF3300003300333300663300993300CC3300FF3333003333333333663333993333CC3333FF3366003366333366663366993366CC3366FF3399003399333399663399993399CC3399FF33CC00
310
33CC3333CC6633CC9933CCCC33CCFF33FF0033FF3333FF6633FF9933FFCC33FFFF6600006600336600666600996600CC6600FF6633006633336633666633996633CC6633FF6666006666336666666666996666CC6666FF6699006699336699666699996699CC6699FF66CC0066CC3366CC6666CC9966CCCC66CCFF66FF0066
310
FF3366FF6666FF9966FFCC66FFFF9900009900339900669900999900CC9900FF9933009933339933669933999933CC9933FF9966009966339966669966999966CC9966FF9999009999339999669999999999CC9999FF99CC0099CC3399CC6699CC9999CCCC99CCFF99FF0099FF3399FF6699FF9999FFCC99FFFFCC0000CC00
310
33CC0066CC0099CC00CCCC00FFCC3300CC3333CC3366CC3399CC33CCCC33FFCC6600CC6633CC6666CC6699CC66CCCC66FFCC9900CC9933CC9966CC9999CC99CCCC99FFCCCC00CCCC33CCCC66CCCC99CCCCCCCCCCFFCCFF00CCFF33CCFF66CCFF99CCFFCCCCFFFFFF0000FF0033FF0066FF0099FF00CCFF00FFFF3300FF3333
310
FF3366FF3399FF33CCFF33FFFF6600FF6633FF6666FF6699FF66CCFF66FFFF9900FF9933FF9966FF9999FF99CCFF99FFFFCC00FFCC33FFCC66FFCC99FFCCCCFFCCFFFFFF00FFFF33FFFF66FFFF99FFFFCCFFFFFF0000000D0D0D1A1A1A2828283535354343435050505D5D5D6B6B6B787878868686939393A1A1A1AEAEAEBB
310
BBBBC9C9C9D6D6D6E4E4E4F1F1F1FFFFFF0000000000000000000000000000000000000000000000000000000000002E4550F10000003B4944415478DAEDC13101000000C2A0F54F6D0B2FA0000000000000000000000000000000000000000000000000000000000000000000000000CE06919100016C9A5B1B0000000049
310
454E44AE426082
  0
ENDSEC
  0
EOF
