  0
SECTION
  2
HEADER
  9
$ACADVER
  1
AC1027
  9
$ACADMAINTVER
 70
   125
  9
$DWGCODEPAGE
  3
ANSI_1252
  9
$LASTSAVEDBY
  1
andrea.ragusa
  9
$REQUIREDVERSIONS
160
                 0
  9
$INSBASE
 10
0.0
 20
0.0
 30
0.0
  9
$EXTMIN
 10
-0.1430474359187198
 20
0.0589148761458773
 30
-0.0015258207003583
  9
$EXTMAX
 10
12.90069630474397
 20
8.442856190543238
 30
0.0000000349246037
  9
$LIMMIN
 10
0.0
 20
0.0
  9
$LIMMAX
 10
420.0
 20
297.0
  9
$ORTHOMODE
 70
     0
  9
$REGENMODE
 70
     1
  9
$FILLMODE
 70
     1
  9
$QTEXTMODE
 70
     0
  9
$MIRRTEXT
 70
     0
  9
$LTSCALE
 40
1.0
  9
$ATTMODE
 70
     1
  9
$TEXTSIZE
 40
2.5
  9
$TRACEWID
 40
1.0
  9
$TEXTSTYLE
  7
Standard
  9
$CLAYER
  8
0
  9
$CELTYPE
  6
ByLayer
  9
$CECOLOR
 62
   256
  9
$CELTSCALE
 40
1.0
  9
$DISPSILH
 70
     0
  9
$DIMSCALE
 40
1.0
  9
$DIMASZ
 40
2.5
  9
$DIMEXO
 40
0.625
  9
$DIMDLI
 40
3.75
  9
$DIMRND
 40
0.0
  9
$DIMDLE
 40
0.0
  9
$DIMEXE
 40
1.25
  9
$DIMTP
 40
0.0
  9
$DIMTM
 40
0.0
  9
$DIMTXT
 40
2.5
  9
$DIMCEN
 40
2.5
  9
$DIMTSZ
 40
0.0
  9
$DIMTOL
 70
     0
  9
$DIMLIM
 70
     0
  9
$DIMTIH
 70
     0
  9
$DIMTOH
 70
     0
  9
$DIMSE1
 70
     0
  9
$DIMSE2
 70
     0
  9
$DIMTAD
 70
     1
  9
$DIMZIN
 70
     8
  9
$DIMBLK
  1

  9
$DIMASO
 70
     1
  9
$DIMSHO
 70
     1
  9
$DIMPOST
  1

  9
$DIMAPOST
  1

  9
$DIMALT
 70
     0
  9
$DIMALTD
 70
     3
  9
$DIMALTF
 40
0.03937007874016
  9
$DIMLFAC
 40
1.0
  9
$DIMTOFL
 70
     1
  9
$DIMTVP
 40
0.0
  9
$DIMTIX
 70
     0
  9
$DIMSOXD
 70
     0
  9
$DIMSAH
 70
     0
  9
$DIMBLK1
  1

  9
$DIMBLK2
  1

  9
$DIMSTYLE
  2
ISO-25
  9
$DIMCLRD
 70
     0
  9
$DIMCLRE
 70
     0
  9
$DIMCLRT
 70
     0
  9
$DIMTFAC
 40
1.0
  9
$DIMGAP
 40
0.625
  9
$DIMJUST
 70
     0
  9
$DIMSD1
 70
     0
  9
$DIMSD2
 70
     0
  9
$DIMTOLJ
 70
     0
  9
$DIMTZIN
 70
     8
  9
$DIMALTZ
 70
     0
  9
$DIMALTTZ
 70
     0
  9
$DIMUPT
 70
     0
  9
$DIMDEC
 70
     2
  9
$DIMTDEC
 70
     2
  9
$DIMALTU
 70
     2
  9
$DIMALTTD
 70
     3
  9
$DIMTXSTY
  7
Standard
  9
$DIMAUNIT
 70
     0
  9
$DIMADEC
 70
     0
  9
$DIMALTRND
 40
0.0
  9
$DIMAZIN
 70
     0
  9
$DIMDSEP
 70
    44
  9
$DIMATFIT
 70
     3
  9
$DIMFRAC
 70
     0
  9
$DIMLDRBLK
  1

  9
$DIMLUNIT
 70
     2
  9
$DIMLWD
 70
    -2
  9
$DIMLWE
 70
    -2
  9
$DIMTMOVE
 70
     0
  9
$DIMFXL
 40
1.0
  9
$DIMFXLON
 70
     0
  9
$DIMJOGANG
 40
0.7853981633974483
  9
$DIMTFILL
 70
     0
  9
$DIMTFILLCLR
 70
     0
  9
$DIMARCSYM
 70
     0
  9
$DIMLTYPE
  6

  9
$DIMLTEX1
  6

  9
$DIMLTEX2
  6

  9
$DIMTXTDIRECTION
 70
     0
  9
$LUNITS
 70
     2
  9
$LUPREC
 70
     4
  9
$SKETCHINC
 40
1.0
  9
$FILLETRAD
 40
0.0
  9
$AUNITS
 70
     0
  9
$AUPREC
 70
     0
  9
$MENU
  1
.
  9
$ELEVATION
 40
0.0
  9
$PELEVATION
 40
0.0
  9
$THICKNESS
 40
0.0
  9
$LIMCHECK
 70
     0
  9
$CHAMFERA
 40
0.0
  9
$CHAMFERB
 40
0.0
  9
$CHAMFERC
 40
0.0
  9
$CHAMFERD
 40
0.0
  9
$SKPOLY
 70
     0
  9
$TDCREATE
 40
2459060.478263889
  9
$TDUCREATE
 40
2459060.394930556
  9
$TDUPDATE
 40
2459060.478622685
  9
$TDUUPDATE
 40
2459060.395289352
  9
$TDINDWG
 40
0.0003587963
  9
$TDUSRTIMER
 40
0.0003587963
  9
$USRTIMER
 70
     1
  9
$ANGBASE
 50
0.0
  9
$ANGDIR
 70
     0
  9
$PDMODE
 70
     0
  9
$PDSIZE
 40
0.0
  9
$PLINEWID
 40
0.0
  9
$SPLFRAME
 70
     0
  9
$SPLINETYPE
 70
     6
  9
$SPLINESEGS
 70
     8
  9
$HANDSEED
  5
358
  9
$SURFTAB1
 70
     6
  9
$SURFTAB2
 70
     6
  9
$SURFTYPE
 70
     6
  9
$SURFU
 70
     6
  9
$SURFV
 70
     6
  9
$UCSBASE
  2

  9
$UCSNAME
  2

  9
$UCSORG
 10
0.0
 20
0.0
 30
0.0
  9
$UCSXDIR
 10
1.0
 20
0.0
 30
0.0
  9
$UCSYDIR
 10
0.0
 20
1.0
 30
0.0
  9
$UCSORTHOREF
  2

  9
$UCSORTHOVIEW
 70
     0
  9
$UCSORGTOP
 10
0.0
 20
0.0
 30
0.0
  9
$UCSORGBOTTOM
 10
0.0
 20
0.0
 30
0.0
  9
$UCSORGLEFT
 10
0.0
 20
0.0
 30
0.0
  9
$UCSORGRIGHT
 10
0.0
 20
0.0
 30
0.0
  9
$UCSORGFRONT
 10
0.0
 20
0.0
 30
0.0
  9
$UCSORGBACK
 10
0.0
 20
0.0
 30
0.0
  9
$PUCSBASE
  2

  9
$PUCSNAME
  2

  9
$PUCSORG
 10
0.0
 20
0.0
 30
0.0
  9
$PUCSXDIR
 10
1.0
 20
0.0
 30
0.0
  9
$PUCSYDIR
 10
0.0
 20
1.0
 30
0.0
  9
$PUCSORTHOREF
  2

  9
$PUCSORTHOVIEW
 70
     0
  9
$PUCSORGTOP
 10
0.0
 20
0.0
 30
0.0
  9
$PUCSORGBOTTOM
 10
0.0
 20
0.0
 30
0.0
  9
$PUCSORGLEFT
 10
0.0
 20
0.0
 30
0.0
  9
$PUCSORGRIGHT
 10
0.0
 20
0.0
 30
0.0
  9
$PUCSORGFRONT
 10
0.0
 20
0.0
 30
0.0
  9
$PUCSORGBACK
 10
0.0
 20
0.0
 30
0.0
  9
$USERI1
 70
     0
  9
$USERI2
 70
     0
  9
$USERI3
 70
     0
  9
$USERI4
 70
     0
  9
$USERI5
 70
     0
  9
$USERR1
 40
0.0
  9
$USERR2
 40
0.0
  9
$USERR3
 40
0.0
  9
$USERR4
 40
0.0
  9
$USERR5
 40
0.0
  9
$WORLDVIEW
 70
     1
  9
$SHADEDGE
 70
     3
  9
$SHADEDIF
 70
    70
  9
$TILEMODE
 70
     1
  9
$MAXACTVP
 70
    64
  9
$PINSBASE
 10
0.0
 20
0.0
 30
0.0
  9
$PLIMCHECK
 70
     0
  9
$PEXTMIN
 10
0.0
 20
0.0
 30
0.0
  9
$PEXTMAX
 10
0.0
 20
0.0
 30
0.0
  9
$PLIMMIN
 10
0.0
 20
0.0
  9
$PLIMMAX
 10
12.0
 20
9.0
  9
$UNITMODE
 70
     0
  9
$VISRETAIN
 70
     1
  9
$PLINEGEN
 70
     0
  9
$PSLTSCALE
 70
     1
  9
$TREEDEPTH
 70
  3020
  9
$CMLSTYLE
  2
Standard
  9
$CMLJUST
 70
     0
  9
$CMLSCALE
 40
20.0
  9
$PROXYGRAPHICS
 70
     1
  9
$MEASUREMENT
 70
     1
  9
$CELWEIGHT
370
    -1
  9
$ENDCAPS
280
     0
  9
$JOINSTYLE
280
     0
  9
$LWDISPLAY
290
     0
  9
$INSUNITS
 70
     4
  9
$HYPERLINKBASE
  1

  9
$STYLESHEET
  1

  9
$XEDIT
290
     1
  9
$CEPSNTYPE
380
     0
  9
$PSTYLEMODE
290
     1
  9
$FINGERPRINTGUID
  2
{0424CBDF-6E3D-DF4A-ADCA-7AC3FF53FAB4}
  9
$VERSIONGUID
  2
{FEBE1319-215E-EC45-A2CE-F394EA966DAA}
  9
$EXTNAMES
290
     1
  9
$PSVPSCALE
 40
0.0
  9
$OLESTARTUP
290
     0
  9
$SORTENTS
280
   127
  9
$INDEXCTL
280
     0
  9
$HIDETEXT
280
     1
  9
$XCLIPFRAME
280
     2
  9
$HALOGAP
280
     0
  9
$OBSCOLOR
 70
   257
  9
$OBSLTYPE
280
     0
  9
$INTERSECTIONDISPLAY
280
     0
  9
$INTERSECTIONCOLOR
 70
   257
  9
$DIMASSOC
280
     2
  9
$PROJECTNAME
  1

  9
$CAMERADISPLAY
290
     0
  9
$LENSLENGTH
 40
50.0
  9
$CAMERAHEIGHT
 40
0.0
  9
$STEPSPERSEC
 40
2.0
  9
$STEPSIZE
 40
6.0
  9
$3DDWFPREC
 40
2.0
  9
$PSOLWIDTH
 40
5.0
  9
$PSOLHEIGHT
 40
80.0
  9
$LOFTANG1
 40
1.570796326794896
  9
$LOFTANG2
 40
1.570796326794896
  9
$LOFTMAG1
 40
0.0
  9
$LOFTMAG2
 40
0.0
  9
$LOFTPARAM
 70
     7
  9
$LOFTNORMALS
280
     1
  9
$LATITUDE
 40
37.795
  9
$LONGITUDE
 40
-122.394
  9
$NORTHDIRECTION
 40
0.0
  9
$TIMEZONE
 70
 -8000
  9
$LIGHTGLYPHDISPLAY
280
     1
  9
$TILEMODELIGHTSYNCH
280
     1
  9
$CMATERIAL
347
EC
  9
$SOLIDHIST
280
     0
  9
$SHOWHIST
280
     1
  9
$DWFFRAME
280
     2
  9
$DGNFRAME
280
     0
  9
$REALWORLDSCALE
290
     1
  9
$INTERFERECOLOR
 62
     1
  9
$INTERFEREOBJVS
345
F9
  9
$INTERFEREVPVS
346
F6
  9
$CSHADOW
280
     0
  9
$SHADOWPLANELOCATION
 40
0.0
  0
ENDSEC
  0
SECTION
  2
CLASSES
  0
CLASS
  1
ACDBDICTIONARYWDFLT
  2
AcDbDictionaryWithDefault
  3
ObjectDBX Classes
 90
        0
 91
        1
280
     0
281
     0
  0
CLASS
  1
DICTIONARYVAR
  2
AcDbDictionaryVar
  3
ObjectDBX Classes
 90
        0
 91
       11
280
     0
281
     0
  0
CLASS
  1
TABLESTYLE
  2
AcDbTableStyle
  3
ObjectDBX Classes
 90
     4095
 91
        1
280
     0
281
     0
  0
CLASS
  1
MATERIAL
  2
AcDbMaterial
  3
ObjectDBX Classes
 90
     1153
 91
        3
280
     0
281
     0
  0
CLASS
  1
VISUALSTYLE
  2
AcDbVisualStyle
  3
ObjectDBX Classes
 90
     4095
 91
       24
280
     0
281
     0
  0
CLASS
  1
SCALE
  2
AcDbScale
  3
ObjectDBX Classes
 90
     1153
 91
       17
280
     0
281
     0
  0
CLASS
  1
MLEADERSTYLE
  2
AcDbMLeaderStyle
  3
ACDB_MLEADERSTYLE_CLASS
 90
     4095
 91
        2
280
     0
281
     0
  0
CLASS
  1
CELLSTYLEMAP
  2
AcDbCellStyleMap
  3
ObjectDBX Classes
 90
     1152
 91
        1
280
     0
281
     0
  0
CLASS
  1
EXACXREFPANELOBJECT
  2
ExAcXREFPanelObject
  3
EXAC_ESW
 90
     1025
 91
        0
280
     0
281
     0
  0
CLASS
  1
NPOCOLLECTION
  2
AcDbImpNonPersistentObjectsCollection
  3
ObjectDBX Classes
 90
     1153
 91
        0
280
     0
281
     0
  0
CLASS
  1
LAYER_INDEX
  2
AcDbLayerIndex
  3
ObjectDBX Classes
 90
        0
 91
        0
280
     0
281
     0
  0
CLASS
  1
SPATIAL_INDEX
  2
AcDbSpatialIndex
  3
ObjectDBX Classes
 90
        0
 91
        0
280
     0
281
     0
  0
CLASS
  1
IDBUFFER
  2
AcDbIdBuffer
  3
ObjectDBX Classes
 90
        0
 91
        0
280
     0
281
     0
  0
CLASS
  1
ACDBSECTIONVIEWSTYLE
  2
AcDbSectionViewStyle
  3
ObjectDBX Classes
 90
     1025
 91
        2
280
     0
281
     0
  0
CLASS
  1
ACDBDETAILVIEWSTYLE
  2
AcDbDetailViewStyle
  3
ObjectDBX Classes
 90
     1025
 91
        2
280
     0
281
     0
  0
CLASS
  1
SORTENTSTABLE
  2
AcDbSortentsTable
  3
ObjectDBX Classes
 90
        0
 91
        1
280
     0
281
     0
  0
ENDSEC
  0
SECTION
  2
TABLES
  0
TABLE
  2
VPORT
  5
8
330
0
100
AcDbSymbolTable
 70
     1
1001
ACAD
1000
DbSaveVer
1071
      208
  0
VPORT
  5
EA
330
8
100
AcDbSymbolTableRecord
100
AcDbViewportTableRecord
  2
*Active
 70
     0
 10
0.0
 20
0.0
 11
1.0
 21
1.0
 12
6.459961678436912
 22
4.250885533344558
 13
0.0
 23
0.0
 14
10.0
 24
10.0
 15
10.0
 25
10.0
 16
0.0
 26
0.0
 36
1.0
 17
0.0
 27
0.0
 37
0.0
 40
8.443969533832188
 41
2.283154121863799
 42
50.0
 43
0.0
 44
0.0
 50
0.0
 51
0.0
 71
     0
 72
  1000
 73
     1
 74
     3
 75
     0
 76
     1
 77
     0
 78
     0
281
     0
 65
     1
110
0.0
120
0.0
130
0.0
111
1.0
121
0.0
131
0.0
112
0.0
122
1.0
132
0.0
 79
     0
146
0.0
348
F5
 60
     3
 61
     5
292
     1
282
     1
141
0.0
142
0.0
 63
   250
421
  3355443
1001
ACAD_NAV_VCDISPLAY
1070
     3
  0
ENDTAB
  0
TABLE
  2
LTYPE
  5
5
330
0
100
AcDbSymbolTable
 70
     1
  0
LTYPE
  5
14
330
5
100
AcDbSymbolTableRecord
100
AcDbLinetypeTableRecord
  2
ByBlock
 70
     0
  3

 72
    65
 73
     0
 40
0.0
  0
LTYPE
  5
15
330
5
100
AcDbSymbolTableRecord
100
AcDbLinetypeTableRecord
  2
ByLayer
 70
     0
  3

 72
    65
 73
     0
 40
0.0
  0
LTYPE
  5
16
330
5
100
AcDbSymbolTableRecord
100
AcDbLinetypeTableRecord
  2
Continuous
 70
     0
  3
Solid line
 72
    65
 73
     0
 40
0.0
  0
ENDTAB
  0
TABLE
  2
LAYER
  5
2
102
{ACAD_XDICTIONARY
360
1FF
102
}
330
0
100
AcDbSymbolTable
 70
     2
  0
LAYER
  5
10
102
{ACAD_XDICTIONARY
360
13C
102
}
330
2
100
AcDbSymbolTableRecord
100
AcDbLayerTableRecord
  2
0
 70
     0
 62
     7
  6
Continuous
370
    -3
390
F
347
EE
348
0
  0
LAYER
  5
28C
330
2
100
AcDbSymbolTableRecord
100
AcDbLayerTableRecord
  2
Livello 1
 70
     0
 62
     7
  6
Continuous
370
    -3
390
F
347
EE
348
0
  0
ENDTAB
  0
TABLE
  2
STYLE
  5
3
330
0
100
AcDbSymbolTable
 70
     2
  0
STYLE
  5
11
330
3
100
AcDbSymbolTableRecord
100
AcDbTextStyleTableRecord
  2
Standard
 70
     0
 40
0.0
 41
1.0
 50
0.0
 71
     0
 42
2.5
  3
arial.ttf
  4

1001
ACAD
1000
Arial
1071
       34
  0
STYLE
  5
132
330
3
100
AcDbSymbolTableRecord
100
AcDbTextStyleTableRecord
  2
Annotativa
 70
     0
 40
0.0
 41
1.0
 50
0.0
 71
     0
 42
2.5
  3
arial.ttf
  4

1001
AcadAnnotative
1000
AnnotativeData
1002
{
1070
     1
1070
     1
1002
}
1001
ACAD
1000
Arial
1071
       34
  0
ENDTAB
  0
TABLE
  2
VIEW
  5
6
330
0
100
AcDbSymbolTable
 70
     0
  0
ENDTAB
  0
TABLE
  2
UCS
  5
7
330
0
100
AcDbSymbolTable
 70
     0
  0
ENDTAB
  0
TABLE
  2
APPID
  5
9
330
0
100
AcDbSymbolTable
 70
     8
  0
APPID
  5
12
330
9
100
AcDbSymbolTableRecord
100
AcDbRegAppTableRecord
  2
ACAD
 70
     0
  0
APPID
  5
9E
330
9
100
AcDbSymbolTableRecord
100
AcDbRegAppTableRecord
  2
ACAD_PSEXT
 70
     0
  0
APPID
  5
133
330
9
100
AcDbSymbolTableRecord
100
AcDbRegAppTableRecord
  2
AcadAnnoPO
 70
     0
  0
APPID
  5
134
330
9
100
AcDbSymbolTableRecord
100
AcDbRegAppTableRecord
  2
AcadAnnotative
 70
     0
  0
APPID
  5
135
330
9
100
AcDbSymbolTableRecord
100
AcDbRegAppTableRecord
  2
ACAD_DSTYLE_DIMJAG
 70
     0
  0
APPID
  5
136
330
9
100
AcDbSymbolTableRecord
100
AcDbRegAppTableRecord
  2
ACAD_DSTYLE_DIMTALN
 70
     0
  0
APPID
  5
165
330
9
100
AcDbSymbolTableRecord
100
AcDbRegAppTableRecord
  2
ACAD_MLEADERVER
 70
     0
  0
APPID
  5
217
330
9
100
AcDbSymbolTableRecord
100
AcDbRegAppTableRecord
  2
ACAD_NAV_VCDISPLAY
 70
     0
  0
ENDTAB
  0
TABLE
  2
DIMSTYLE
  5
A
330
0
100
AcDbSymbolTable
 70
     3
100
AcDbDimStyleTable
 71
     2
340
27
340
137
  0
DIMSTYLE
105
1B0
330
A
100
AcDbSymbolTableRecord
100
AcDbDimStyleTableRecord
  2
Standard
 70
     0
340
11
  0
DIMSTYLE
105
137
330
A
100
AcDbSymbolTableRecord
100
AcDbDimStyleTableRecord
  2
Annotativa
 70
     0
 40
0.0
 41
2.5
 42
0.625
 43
3.75
 44
1.25
 73
     0
 74
     0
 77
     1
 78
     8
140
2.5
141
2.5
143
0.03937007874016
147
0.625
171
     3
172
     1
271
     2
272
     2
274
     3
278
    44
283
     0
284
     8
340
11
1001
AcadAnnotative
1000
AnnotativeData
1002
{
1070
     1
1070
     1
1002
}
1001
ACAD_DSTYLE_DIMJAG
1070
   388
1040
1.5
1001
ACAD_DSTYLE_DIMTALN
1070
   392
1070
     0
  0
DIMSTYLE
105
27
330
A
100
AcDbSymbolTableRecord
100
AcDbDimStyleTableRecord
  2
ISO-25
 70
     0
 41
2.5
 42
0.625
 43
3.75
 44
1.25
 73
     0
 74
     0
 77
     1
 78
     8
140
2.5
141
2.5
143
0.03937007874016
147
0.625
171
     3
172
     1
271
     2
272
     2
274
     3
278
    44
283
     0
284
     8
340
11
  0
ENDTAB
  0
TABLE
  2
BLOCK_RECORD
  5
1
330
0
100
AcDbSymbolTable
 70
     2
  0
BLOCK_RECORD
  5
1F
102
{ACAD_XDICTIONARY
360
1CE
102
}
330
1
100
AcDbSymbolTableRecord
100
AcDbBlockTableRecord
  2
*Model_Space
340
22
 70
     0
280
     1
281
     0
  0
BLOCK_RECORD
  5
D2
330
1
100
AcDbSymbolTableRecord
100
AcDbBlockTableRecord
  2
*Paper_Space
340
D3
 70
     0
280
     1
281
     0
  0
BLOCK_RECORD
  5
D6
330
1
100
AcDbSymbolTableRecord
100
AcDbBlockTableRecord
  2
*Paper_Space0
340
D7
 70
     0
280
     1
281
     0
  0
ENDTAB
  0
ENDSEC
  0
SECTION
  2
BLOCKS
  0
BLOCK
  5
20
330
1F
100
AcDbEntity
  8
0
100
AcDbBlockBegin
  2
*Model_Space
 70
     0
 10
0.0
 20
0.0
 30
0.0
  3
*Model_Space
  1

  0
ENDBLK
  5
21
330
1F
100
AcDbEntity
  8
0
100
AcDbBlockEnd
  0
BLOCK
  5
D4
330
D2
100
AcDbEntity
 67
     1
  8
0
100
AcDbBlockBegin
  2
*Paper_Space
 70
     0
 10
0.0
 20
0.0
 30
0.0
  3
*Paper_Space
  1

  0
ENDBLK
  5
D5
330
D2
100
AcDbEntity
 67
     1
  8
0
100
AcDbBlockEnd
  0
BLOCK
  5
D8
330
D6
100
AcDbEntity
 67
     1
  8
0
100
AcDbBlockBegin
  2
*Paper_Space0
 70
     0
 10
0.0
 20
0.0
 30
0.0
  3
*Paper_Space0
  1

  0
ENDBLK
  5
D9
330
D6
100
AcDbEntity
 67
     1
  8
0
100
AcDbBlockEnd
  0
ENDSEC
  0
SECTION
  2
ENTITIES
  0
SPLINE
  5
2EF
330
1F
100
AcDbEntity
  8
Livello 1
370
     0
100
AcDbSpline
210
0.0
220
0.0
230
1.0
 70
     9
 71
     3
 72
    23
 73
    19
 74
     0
 42
0.000000001
 43
0.0000000001
 40
0.0
 40
0.0
 40
0.0
 40
0.0
 40
1.0
 40
1.0
 40
1.0
 40
2.0
 40
2.0
 40
2.0
 40
3.0
 40
3.0
 40
3.0
 40
4.0
 40
4.0
 40
4.0
 40
5.0
 40
5.0
 40
5.0
 40
6.0
 40
6.0
 40
6.0
 40
6.0
 10
11.22696681334539
 20
6.970449397433071
 30
0.0
 10
11.21779424661592
 20
6.970449397433071
 30
0.0
 10
11.21073852957327
 20
6.977857698466777
 30
0.0
 10
11.21073852957327
 20
6.986676335464757
 30
0.0
 10
11.21073852957327
 20
6.986676335464757
 30
0.0
 10
11.21073852957327
 20
7.012782353948495
 30
0.0
 10
11.21073852957327
 20
7.012782353948495
 30
0.0
 10
11.21073852957327
 20
7.021954920677984
 30
0.0
 10
11.21779424661592
 20
7.029363221711683
 30
0.0
 10
11.22696681334539
 20
7.029363221711683
 30
0.0
 10
11.23613803433443
 20
7.029363221711683
 30
0.0
 10
11.24319375137708
 20
7.021954920677984
 30
0.0
 10
11.24319375137708
 20
7.012782353948495
 30
0.0
 10
11.24319375137708
 20
7.012782353948495
 30
0.0
 10
11.24319375137708
 20
6.986676335464757
 30
0.0
 10
11.24319375137708
 20
6.986676335464757
 30
0.0
 10
11.24319375137708
 20
6.977857698466777
 30
0.0
 10
11.23613803433443
 20
6.970449397433071
 30
0.0
 10
11.22696681334539
 20
6.970449397433071
 30
0.0
  0
SPLINE
  5
2F0
330
1F
100
AcDbEntity
  8
Livello 1
370
     0
100
AcDbSpline
210
0.0
220
0.0
230
1.0
 70
     9
 71
     3
 72
    23
 73
    19
 74
     0
 42
0.000000001
 43
0.0000000001
 40
0.0
 40
0.0
 40
0.0
 40
0.0
 40
1.0
 40
1.0
 40
1.0
 40
2.0
 40
2.0
 40
2.0
 40
3.0
 40
3.0
 40
3.0
 40
4.0
 40
4.0
 40
4.0
 40
5.0
 40
5.0
 40
5.0
 40
6.0
 40
6.0
 40
6.0
 40
6.0
 10
11.22696681334539
 20
5.721228168192155
 30
0.0
 10
11.21779424661592
 20
5.721228168192155
 30
0.0
 10
11.21073852957327
 20
5.728636469225854
 30
0.0
 10
11.21073852957327
 20
5.737455106223848
 30
0.0
 10
11.21073852957327
 20
5.737455106223848
 30
0.0
 10
11.21073852957327
 20
5.763561124707592
 30
0.0
 10
11.21073852957327
 20
5.763561124707592
 30
0.0
 10
11.21073852957327
 20
5.772733691437061
 30
0.0
 10
11.21779424661592
 20
5.780141992470767
 30
0.0
 10
11.22696681334539
 20
5.780141992470767
 30
0.0
 10
11.23613803433443
 20
5.780141992470767
 30
0.0
 10
11.24319375137708
 20
5.772733691437061
 30
0.0
 10
11.24319375137708
 20
5.763561124707592
 30
0.0
 10
11.24319375137708
 20
5.763561124707592
 30
0.0
 10
11.24319375137708
 20
5.737455106223848
 30
0.0
 10
11.24319375137708
 20
5.737455106223848
 30
0.0
 10
11.24319375137708
 20
5.728636469225854
 30
0.0
 10
11.23613803433443
 20
5.721228168192155
 30
0.0
 10
11.22696681334539
 20
5.721228168192155
 30
0.0
  0
SPLINE
  5
2F1
330
1F
100
AcDbEntity
  8
Livello 1
370
     0
100
AcDbSpline
210
0.0
220
0.0
230
1.0
 70
     9
 71
     3
 72
    26
 73
    22
 74
     0
 42
0.000000001
 43
0.0000000001
 40
0.0
 40
0.0
 40
0.0
 40
0.0
 40
1.0
 40
1.0
 40
1.0
 40
2.0
 40
2.0
 40
2.0
 40
3.0
 40
3.0
 40
3.0
 40
4.0
 40
4.0
 40
4.0
 40
5.0
 40
5.0
 40
5.0
 40
6.0
 40
6.0
 40
6.0
 40
7.0
 40
7.0
 40
7.0
 40
7.0
 10
11.22432108767195
 20
5.702954358975667
 30
0.0
 10
11.22361457394939
 20
5.702954358975667
 30
0.0
 10
11.22290940596725
 20
5.702954358975667
 30
0.0
 10
11.22185030825362
 20
5.703306942966726
 30
0.0
 10
11.21303167125564
 20
5.70436469493994
 30
0.0
 10
11.20703370618621
 20
5.712832093687275
 30
0.0
 10
11.20809280389983
 20
5.721650730685254
 30
0.0
 10
11.20809280389983
 20
5.721650730685254
 30
0.0
 10
11.21091482156881
 20
5.739995864144219
 30
0.0
 10
11.21091482156881
 20
5.739995864144219
 30
0.0
 10
11.21197257354201
 20
5.748814501142206
 30
0.0
 10
11.22008738829829
 20
5.755165050202712
 30
0.0
 10
11.22925995502775
 20
5.753753368498003
 30
0.0
 10
11.23807859202574
 20
5.752343032533744
 30
0.0
 10
11.24442914108625
 20
5.744228217777461
 30
0.0
 10
11.24301745938156
 20
5.735056996788415
 30
0.0
 10
11.24301745938156
 20
5.735056996788415
 30
0.0
 10
11.24054802570366
 20
5.717064447320517
 30
0.0
 10
11.24054802570366
 20
5.717064447320517
 30
0.0
 10
11.23913768973936
 20
5.708950978304685
 30
0.0
 10
11.23243455668779
 20
5.702954358975667
 30
0.0
 10
11.22432108767195
 20
5.702954358975667
 30
0.0
  0
SPLINE
  5
2F2
330
1F
100
AcDbEntity
  8
Livello 1
370
     0
100
AcDbSpline
210
0.0
220
0.0
230
1.0
 70
     9
 71
     3
 72
    32
 73
    28
 74
     0
 42
0.000000001
 43
0.0000000001
 40
0.0
 40
0.0
 40
0.0
 40
0.0
 40
1.0
 40
1.0
 40
1.0
 40
2.0
 40
2.0
 40
2.0
 40
3.0
 40
3.0
 40
3.0
 40
4.0
 40
4.0
 40
4.0
 40
5.0
 40
5.0
 40
5.0
 40
6.0
 40
6.0
 40
6.0
 40
7.0
 40
7.0
 40
7.0
 40
8.0
 40
8.0
 40
8.0
 40
9.0
 40
9.0
 40
9.0
 40
9.0
 10
11.13810219019186
 20
7.725676231859324
 30
0.0
 10
11.1313990571403
 20
7.725676231859324
 30
0.0
 10
11.12469592408874
 20
7.729908585492573
 30
0.0
 10
11.12257907440189
 20
7.736964302535227
 30
0.0
 10
11.12257907440189
 20
7.736964302535227
 30
0.0
 10
11.12010964072399
 20
7.744725187559993
 30
0.0
 10
11.12010964072399
 20
7.744725187559993
 30
0.0
 10
11.11940447274185
 20
7.746489453255769
 30
0.0
 10
11.11905188875079
 20
7.748253718951538
 30
0.0
 10
11.11905188875079
 20
7.750016638906878
 30
0.0
 10
11.11905188875079
 20
7.750016638906878
 30
0.0
 10
11.11905188875079
 20
7.768009188374769
 30
0.0
 10
11.11905188875079
 20
7.768009188374769
 30
0.0
 10
11.11905188875079
 20
7.777181755104237
 30
0.0
 10
11.1264601897845
 20
7.784590056137965
 30
0.0
 10
11.13563141077356
 20
7.784590056137965
 30
0.0
 10
11.14445139351196
 20
7.784590056137965
 30
0.0
 10
11.15185969454568
 20
7.777181755104237
 30
0.0
 10
11.15185969454568
 20
7.768009188374769
 30
0.0
 10
11.15185969454568
 20
7.768009188374769
 30
0.0
 10
11.15362396024143
 20
7.747194621237909
 30
0.0
 10
11.15362396024143
 20
7.747194621237909
 30
0.0
 10
11.15644597791042
 20
7.738728568230989
 30
0.0
 10
11.15185969454568
 20
7.729203417510454
 30
0.0
 10
11.14339364153875
 20
7.726381399841471
 30
0.0
 10
11.14162937584299
 20
7.726028815850412
 30
0.0
 10
11.13986511014722
 20
7.725676231859324
 30
0.0
 10
11.13810219019186
 20
7.725676231859324
 30
0.0
  0
SPLINE
  5
2F3
330
1F
100
AcDbEntity
  8
Livello 1
370
     0
100
AcDbSpline
210
0.0
220
0.0
230
1.0
 70
     9
 71
     3
 72
    44
 73
    40
 74
     0
 42
0.000000001
 43
0.0000000001
 40
0.0
 40
0.0
 40
0.0
 40
0.0
 40
1.0
 40
1.0
 40
1.0
 40
2.0
 40
2.0
 40
2.0
 40
3.0
 40
3.0
 40
3.0
 40
4.0
 40
4.0
 40
4.0
 40
5.0
 40
5.0
 40
5.0
 40
6.0
 40
6.0
 40
6.0
 40
7.0
 40
7.0
 40
7.0
 40
8.0
 40
8.0
 40
8.0
 40
9.0
 40
9.0
 40
9.0
 40
10.0
 40
10.0
 40
10.0
 40
11.0
 40
11.0
 40
11.0
 40
12.0
 40
12.0
 40
12.0
 40
13.0
 40
13.0
 40
13.0
 40
13.0
 10
6.078704939056009
 20
6.358908613809774
 30
0.0
 10
6.077998425333461
 20
6.358908613809774
 30
0.0
 10
6.077293257351321
 20
6.358908613809774
 30
0.0
 10
6.076940673360248
 20
6.358908613809774
 30
0.0
 10
6.067768106630779
 20
6.359966365782987
 30
0.0
 10
6.061417557570266
 20
6.36807983479882
 30
0.0
 10
6.062476655283894
 20
6.377252401528309
 30
0.0
 10
6.062476655283894
 20
6.377252401528309
 30
0.0
 10
6.067768106630779
 20
6.421702207730582
 30
0.0
 10
6.067768106630779
 20
6.421702207730582
 30
0.0
 10
6.098460408479247
 20
6.558932741719978
 30
0.0
 10
6.210996605689608
 20
6.619963415685425
 30
0.0
 10
6.309068784823615
 20
6.619963415685425
 30
0.0
 10
6.428659353336207
 20
6.619963415685425
 30
0.0
 10
6.522851762828032
 20
6.542705803688278
 30
0.0
 10
6.549310365302837
 20
6.423113889435271
 30
0.0
 10
6.549310365302837
 20
6.423113889435271
 30
0.0
 10
6.554954400640781
 20
6.377252401528309
 30
0.0
 10
6.554954400640781
 20
6.377252401528309
 30
0.0
 10
6.556012152613988
 20
6.36807983479882
 30
0.0
 10
6.549662949293903
 20
6.359966365782987
 30
0.0
 10
6.540490382564428
 20
6.358908613809774
 30
0.0
 10
6.530612647852819
 20
6.357849516096145
 30
0.0
 10
6.523556930810173
 20
6.364552649147732
 30
0.0
 10
6.522499178836966
 20
6.373371286145705
 30
0.0
 10
6.522499178836966
 20
6.373371286145705
 30
0.0
 10
6.517207727490081
 20
6.4178224380884
 30
0.0
 10
6.517207727490081
 20
6.4178224380884
 30
0.0
 10
6.489337443310581
 20
6.542351873956782
 30
0.0
 10
6.387738078525465
 20
6.587155609890537
 30
0.0
 10
6.309068784823615
 20
6.587155609890537
 30
0.0
 10
6.230045561390276
 20
6.587155609890537
 30
0.0
 10
6.128093612614087
 20
6.542351873956782
 30
0.0
 10
6.099870744443506
 20
6.416058172392624
 30
0.0
 10
6.099870744443506
 20
6.416058172392624
 30
0.0
 10
6.094931877087702
 20
6.373371286145705
 30
0.0
 10
6.094931877087702
 20
6.373371286145705
 30
0.0
 10
6.093874125114503
 20
6.364905233138792
 30
0.0
 10
6.086818408071856
 20
6.358908613809774
 30
0.0
 10
6.078704939056009
 20
6.358908613809774
 30
0.0
  0
SPLINE
  5
2F4
330
1F
100
AcDbEntity
  8
Livello 1
370
     0
100
AcDbSpline
210
0.0
220
0.0
230
1.0
 70
     9
 71
     3
 72
    47
 73
    43
 74
     0
 42
0.000000001
 43
0.0000000001
 40
0.0
 40
0.0
 40
0.0
 40
0.0
 40
1.0
 40
1.0
 40
1.0
 40
2.0
 40
2.0
 40
2.0
 40
3.0
 40
3.0
 40
3.0
 40
4.0
 40
4.0
 40
4.0
 40
5.0
 40
5.0
 40
5.0
 40
6.0
 40
6.0
 40
6.0
 40
7.0
 40
7.0
 40
7.0
 40
8.0
 40
8.0
 40
8.0
 40
9.0
 40
9.0
 40
9.0
 40
10.0
 40
10.0
 40
10.0
 40
11.0
 40
11.0
 40
11.0
 40
12.0
 40
12.0
 40
12.0
 40
13.0
 40
13.0
 40
13.0
 40
14.0
 40
14.0
 40
14.0
 40
14.0
 10
6.309173752576683
 20
6.12999143899789
 30
0.0
 10
6.309173752576683
 20
6.12999143899789
 30
0.0
 10
6.308819822845187
 20
6.12999143899789
 30
0.0
 10
6.308819822845187
 20
6.12999143899789
 30
0.0
 10
6.210395059720113
 20
6.12999143899789
 30
0.0
 10
6.097506278518672
 20
6.191020767222923
 30
0.0
 10
6.067873074383825
 20
6.327193549239119
 30
0.0
 10
6.067873074383825
 20
6.327193549239119
 30
0.0
 10
6.062581623036962
 20
6.37340762113714
 30
0.0
 10
6.062581623036962
 20
6.37340762113714
 30
0.0
 10
6.061522525323333
 20
6.38222625813514
 30
0.0
 10
6.067873074383825
 20
6.390341072891409
 30
0.0
 10
6.076693057122248
 20
6.391398824864623
 30
0.0
 10
6.085511694120221
 20
6.392810506569311
 30
0.0
 10
6.09397909286757
 20
6.386107373517745
 30
0.0
 10
6.095036844840784
 20
6.377287390779322
 30
0.0
 10
6.095036844840784
 20
6.377287390779322
 30
0.0
 10
6.099975712196588
 20
6.332837584577063
 30
0.0
 10
6.099975712196588
 20
6.332837584577063
 30
0.0
 10
6.127492066644599
 20
6.207601634986104
 30
0.0
 10
6.229797945152277
 20
6.162799244792779
 30
0.0
 10
6.308819822845187
 20
6.162799244792779
 30
0.0
 10
6.308819822845187
 20
6.162799244792779
 30
0.0
 10
6.309173752576683
 20
6.162799244792779
 30
0.0
 10
6.309173752576683
 20
6.162799244792779
 30
0.0
 10
6.387843046278533
 20
6.162799244792779
 30
0.0
 10
6.489794995054722
 20
6.207601634986104
 30
0.0
 10
6.51731134950274
 20
6.334249266281766
 30
0.0
 10
6.51731134950274
 20
6.334249266281766
 30
0.0
 10
6.522250216858537
 20
6.377287390779322
 30
0.0
 10
6.522250216858537
 20
6.377287390779322
 30
0.0
 10
6.523309314572166
 20
6.386107373517745
 30
0.0
 10
6.530717615605887
 20
6.392457922578252
 30
0.0
 10
6.540595350317495
 20
6.391398824864623
 30
0.0
 10
6.549415333055904
 20
6.390341072891409
 30
0.0
 10
6.555764536375988
 20
6.38222625813514
 30
0.0
 10
6.554706784402789
 20
6.37340762113714
 30
0.0
 10
6.554706784402789
 20
6.37340762113714
 30
0.0
 10
6.54976791704697
 20
6.328957814934895
 30
0.0
 10
6.54976791704697
 20
6.328957814934895
 30
0.0
 10
6.522956730581107
 20
6.207601634986104
 30
0.0
 10
6.428764321089268
 20
6.12999143899789
 30
0.0
 10
6.309173752576683
 20
6.12999143899789
 30
0.0
  0
SPLINE
  5
2F5
330
1F
100
AcDbEntity
  8
Livello 1
370
     0
100
AcDbSpline
210
0.0
220
0.0
230
1.0
 70
     9
 71
     3
 72
    38
 73
    34
 74
     0
 42
0.000000001
 43
0.0000000001
 40
0.0
 40
0.0
 40
0.0
 40
0.0
 40
1.0
 40
1.0
 40
1.0
 40
2.0
 40
2.0
 40
2.0
 40
3.0
 40
3.0
 40
3.0
 40
4.0
 40
4.0
 40
4.0
 40
5.0
 40
5.0
 40
5.0
 40
6.0
 40
6.0
 40
6.0
 40
7.0
 40
7.0
 40
7.0
 40
8.0
 40
8.0
 40
8.0
 40
9.0
 40
9.0
 40
9.0
 40
10.0
 40
10.0
 40
10.0
 40
11.0
 40
11.0
 40
11.0
 40
11.0
 10
3.324178843824505
 20
6.466329651668807
 30
0.0
 10
3.324178843824505
 20
6.466329651668807
 30
0.0
 10
3.285020488969117
 20
6.466329651668807
 30
0.0
 10
3.285020488969117
 20
6.466329651668807
 30
0.0
 10
3.149554220675483
 20
6.482910519431989
 30
0.0
 10
3.053598891228311
 20
6.575689901478703
 30
0.0
 10
3.038782289160884
 20
6.70233753277435
 30
0.0
 10
3.023965687093458
 20
6.828632580078924
 30
0.0
 10
3.094874095770528
 20
6.940109679575662
 30
0.0
 10
3.219052293388287
 20
6.986676335464757
 30
0.0
 10
3.219052293388287
 20
6.986676335464757
 30
0.0
 10
3.259973568199001
 20
6.99725923815852
 30
0.0
 10
3.259973568199001
 20
6.99725923815852
 30
0.0
 10
3.259973568199001
 20
6.99725923815852
 30
0.0
 10
3.30230787045486
 20
7.000435185558984
 30
0.0
 10
3.30230787045486
 20
7.000435185558984
 30
0.0
 10
3.30230787045486
 20
7.000435185558984
 30
0.0
 10
3.346051162934578
 20
6.997965751881075
 30
0.0
 10
3.346051162934578
 20
6.997965751881075
 30
0.0
 10
3.346051162934578
 20
6.997965751881075
 30
0.0
 10
3.388385465190424
 20
6.987028919455845
 30
0.0
 10
3.388385465190424
 20
6.987028919455845
 30
0.0
 10
3.50515401603404
 20
6.944343378949326
 30
0.0
 10
3.57570984072003
 20
6.839215482772672
 30
0.0
 10
3.569713221391026
 20
6.718918400537539
 30
0.0
 10
3.564067840312652
 20
6.600738167989234
 30
0.0
 10
3.484693378628669
 20
6.504781492801626
 30
0.0
 10
3.367570898053564
 20
6.474443120684647
 30
0.0
 10
3.367570898053564
 20
6.474443120684647
 30
0.0
 10
3.327354791224962
 20
6.466329651668807
 30
0.0
 10
3.327354791224962
 20
6.466329651668807
 30
0.0
 10
3.326295693511347
 20
6.466329651668807
 30
0.0
 10
3.325237941538141
 20
6.466329651668807
 30
0.0
 10
3.324178843824505
 20
6.466329651668807
 30
0.0
  0
SPLINE
  5
2F6
330
1F
100
AcDbEntity
  8
Livello 1
370
     0
100
AcDbSpline
210
0.0
220
0.0
230
1.0
 70
    11
 71
     3
 72
    35
 73
    31
 74
     0
 42
0.000000001
 43
0.0000000001
 40
0.0
 40
0.0
 40
0.0
 40
0.0
 40
1.0
 40
1.0
 40
1.0
 40
2.0
 40
2.0
 40
2.0
 40
3.0
 40
3.0
 40
3.0
 40
4.0
 40
4.0
 40
4.0
 40
5.0
 40
5.0
 40
5.0
 40
6.0
 40
6.0
 40
6.0
 40
7.0
 40
7.0
 40
7.0
 40
8.0
 40
8.0
 40
8.0
 40
9.0
 40
9.0
 40
9.0
 40
10.0
 40
10.0
 40
10.0
 40
10.0
 10
3.30230787045486
 20
6.967979963755169
 30
0.0
 10
3.30230787045486
 20
6.967979963755169
 30
0.0
 10
3.265265019545886
 20
6.965156600345771
 30
0.0
 10
3.265265019545886
 20
6.965156600345771
 30
0.0
 10
3.265265019545886
 20
6.965156600345771
 30
0.0
 10
3.228930028099888
 20
6.955278865634163
 30
0.0
 10
3.228930028099888
 20
6.955278865634163
 30
0.0
 10
3.096990945457363
 20
6.906242776067145
 30
0.0
 10
3.061359776253077
 20
6.790179393205683
 30
0.0
 10
3.071237510964685
 20
6.706218648156948
 30
0.0
 10
3.081115245676315
 20
6.621551389385672
 30
0.0
 10
3.143557601346458
 20
6.516776077200077
 30
0.0
 10
3.287137338655952
 20
6.498784873472622
 30
0.0
 10
3.287137338655952
 20
6.498784873472622
 30
0.0
 10
3.322768507860239
 20
6.498784873472622
 30
0.0
 10
3.322768507860239
 20
6.498784873472622
 30
0.0
 10
3.322768507860239
 20
6.498784873472622
 30
0.0
 10
3.360162597019851
 20
6.506545758497402
 30
0.0
 10
3.360162597019851
 20
6.506545758497402
 30
0.0
 10
3.484340794637603
 20
6.538648396310136
 30
0.0
 10
3.533376884204606
 20
6.638132257148846
 30
0.0
 10
3.537256653846789
 20
6.720328736501805
 30
0.0
 10
3.542549450934082
 20
6.826163146401036
 30
0.0
 10
3.480107095263939
 20
6.91858994445667
 30
0.0
 10
3.378860314469889
 20
6.955985379356718
 30
0.0
 10
3.378860314469889
 20
6.955985379356718
 30
0.0
 10
3.34111229557876
 20
6.965863114068326
 30
0.0
 10
3.34111229557876
 20
6.965863114068326
 30
0.0
 10
3.34111229557876
 20
6.965863114068326
 30
0.0
 10
3.30230787045486
 20
6.967979963755169
 30
0.0
 10
3.30230787045486
 20
6.967979963755169
 30
0.0
  0
SPLINE
  5
2F7
330
1F
100
AcDbEntity
  8
Livello 1
370
     0
100
AcDbSpline
210
0.0
220
0.0
230
1.0
 70
     9
 71
     3
 72
    41
 73
    37
 74
     0
 42
0.000000001
 43
0.0000000001
 40
0.0
 40
0.0
 40
0.0
 40
0.0
 40
1.0
 40
1.0
 40
1.0
 40
2.0
 40
2.0
 40
2.0
 40
3.0
 40
3.0
 40
3.0
 40
4.0
 40
4.0
 40
4.0
 40
5.0
 40
5.0
 40
5.0
 40
6.0
 40
6.0
 40
6.0
 40
7.0
 40
7.0
 40
7.0
 40
8.0
 40
8.0
 40
8.0
 40
9.0
 40
9.0
 40
9.0
 40
10.0
 40
10.0
 40
10.0
 40
11.0
 40
11.0
 40
11.0
 40
12.0
 40
12.0
 40
12.0
 40
12.0
 10
5.624891661818928
 20
5.764442584685262
 30
0.0
 10
5.623127396123166
 20
5.764442584685262
 30
0.0
 10
5.621363130427404
 20
5.764795168676322
 30
0.0
 10
5.619598864731635
 20
5.765147752667395
 30
0.0
 10
5.619598864731635
 20
5.765147752667395
 30
0.0
 10
5.611837979706855
 20
5.767969770336364
 30
0.0
 10
5.611837979706855
 20
5.767969770336364
 30
0.0
 10
5.366304947880763
 20
5.877683949877756
 30
0.0
 10
5.215315563797148
 20
6.110164645332204
 30
0.0
 10
5.21602207751971
 20
6.37474797859938
 30
0.0
 10
5.217079829492902
 20
6.639683895857636
 30
0.0
 10
5.369832133531872
 20
6.871105493598449
 30
0.0
 10
5.614659997375831
 20
6.979055407444064
 30
0.0
 10
5.621010546436338
 20
6.982936522826683
 30
0.0
 10
5.629830529174732
 20
6.98258393883561
 30
0.0
 10
5.63512198052161
 20
6.977292487488725
 30
0.0
 10
5.641471183841701
 20
6.970941938428232
 30
0.0
 10
5.642882865546397
 20
6.96176937169875
 30
0.0
 10
5.636179732494831
 20
6.955772752369739
 30
0.0
 10
5.634769396530558
 20
6.954361070665036
 30
0.0
 10
5.630535697156872
 20
6.950481301022854
 30
0.0
 10
5.62877143146111
 20
6.949774787300299
 30
0.0
 10
5.395232984033469
 20
6.847116324801547
 30
0.0
 10
5.249887635287798
 20
6.626984143477052
 30
0.0
 10
5.248829883314598
 20
6.37474797859938
 30
0.0
 10
5.247772131341385
 20
6.123216981703855
 30
0.0
 10
5.391704452641931
 20
5.902378286656791
 30
0.0
 10
5.623832564105306
 20
5.798308142453336
 30
0.0
 10
5.623832564105306
 20
5.798308142453336
 30
0.0
 10
5.630183113165813
 20
5.796191292766508
 30
0.0
 10
5.630183113165813
 20
5.796191292766508
 30
0.0
 10
5.638649166172719
 20
5.793369275097532
 30
0.0
 10
5.643235449537463
 20
5.784198054108486
 30
0.0
 10
5.640413431868495
 20
5.775378071370077
 30
0.0
 10
5.6379439981906
 20
5.768674938318504
 30
0.0
 10
5.631593449130086
 20
5.764442584685262
 30
0.0
 10
5.624891661818928
 20
5.764442584685262
 30
0.0
  0
SPLINE
  5
2F8
330
1F
100
AcDbEntity
  8
Livello 1
370
     0
100
AcDbSpline
210
0.0
220
0.0
230
1.0
 70
     9
 71
     3
 72
    23
 73
    19
 74
     0
 42
0.000000001
 43
0.0000000001
 40
0.0
 40
0.0
 40
0.0
 40
0.0
 40
1.0
 40
1.0
 40
1.0
 40
2.0
 40
2.0
 40
2.0
 40
3.0
 40
3.0
 40
3.0
 40
4.0
 40
4.0
 40
4.0
 40
5.0
 40
5.0
 40
5.0
 40
6.0
 40
6.0
 40
6.0
 40
6.0
 10
5.741625223411531
 20
5.763102227223022
 30
0.0
 10
5.741625223411531
 20
5.763102227223022
 30
0.0
 10
5.626619592523255
 20
5.763102227223022
 30
0.0
 10
5.626619592523255
 20
5.763102227223022
 30
0.0
 10
5.617447025793779
 20
5.763102227223022
 30
0.0
 10
5.610391308751133
 20
5.770510528256743
 30
0.0
 10
5.610391308751133
 20
5.779329165254715
 30
0.0
 10
5.610391308751133
 20
5.788501731984204
 30
0.0
 10
5.617447025793779
 20
5.795910033017911
 30
0.0
 10
5.626619592523255
 20
5.795910033017911
 30
0.0
 10
5.626619592523255
 20
5.795910033017911
 30
0.0
 10
5.741625223411531
 20
5.795910033017911
 30
0.0
 10
5.741625223411531
 20
5.795910033017911
 30
0.0
 10
5.750796444400577
 20
5.795910033017911
 30
0.0
 10
5.75785216144321
 20
5.788501731984204
 30
0.0
 10
5.75785216144321
 20
5.779329165254715
 30
0.0
 10
5.75785216144321
 20
5.770510528256743
 30
0.0
 10
5.750796444400577
 20
5.763102227223022
 30
0.0
 10
5.741625223411531
 20
5.763102227223022
 30
0.0
  0
SPLINE
  5
2F9
330
1F
100
AcDbEntity
  8
Livello 1
370
     0
100
AcDbSpline
210
0.0
220
0.0
230
1.0
 70
     9
 71
     3
 72
    23
 73
    19
 74
     0
 42
0.000000001
 43
0.0000000001
 40
0.0
 40
0.0
 40
0.0
 40
0.0
 40
1.0
 40
1.0
 40
1.0
 40
2.0
 40
2.0
 40
2.0
 40
3.0
 40
3.0
 40
3.0
 40
4.0
 40
4.0
 40
4.0
 40
5.0
 40
5.0
 40
5.0
 40
6.0
 40
6.0
 40
6.0
 40
6.0
 10
5.741625223411531
 20
6.952140598965563
 30
0.0
 10
5.741625223411531
 20
6.952140598965563
 30
0.0
 10
5.626619592523255
 20
6.952140598965563
 30
0.0
 10
5.626619592523255
 20
6.952140598965563
 30
0.0
 10
5.617447025793779
 20
6.952140598965563
 30
0.0
 10
5.610391308751133
 20
6.959548899999276
 30
0.0
 10
5.610391308751133
 20
6.968367536997249
 30
0.0
 10
5.610391308751133
 20
6.977540103726731
 30
0.0
 10
5.617447025793779
 20
6.984948404760444
 30
0.0
 10
5.626619592523255
 20
6.984948404760444
 30
0.0
 10
5.626619592523255
 20
6.984948404760444
 30
0.0
 10
5.741625223411531
 20
6.984948404760444
 30
0.0
 10
5.741625223411531
 20
6.984948404760444
 30
0.0
 10
5.750796444400577
 20
6.984948404760444
 30
0.0
 10
5.75785216144321
 20
6.977540103726731
 30
0.0
 10
5.75785216144321
 20
6.968367536997249
 30
0.0
 10
5.75785216144321
 20
6.959548899999276
 30
0.0
 10
5.750796444400577
 20
6.952140598965563
 30
0.0
 10
5.741625223411531
 20
6.952140598965563
 30
0.0
  0
SPLINE
  5
2FA
330
1F
100
AcDbEntity
  8
Livello 1
370
     0
100
AcDbSpline
210
0.0
220
0.0
230
1.0
 70
     9
 71
     3
 72
    32
 73
    28
 74
     0
 42
0.000000001
 43
0.0000000001
 40
0.0
 40
0.0
 40
0.0
 40
0.0
 40
1.0
 40
1.0
 40
1.0
 40
2.0
 40
2.0
 40
2.0
 40
3.0
 40
3.0
 40
3.0
 40
4.0
 40
4.0
 40
4.0
 40
5.0
 40
5.0
 40
5.0
 40
6.0
 40
6.0
 40
6.0
 40
7.0
 40
7.0
 40
7.0
 40
8.0
 40
8.0
 40
8.0
 40
9.0
 40
9.0
 40
9.0
 40
9.0
 10
5.741625223411531
 20
5.501834798360384
 30
0.0
 10
5.741625223411531
 20
5.501834798360384
 30
0.0
 10
3.606613423815069
 20
5.501834798360384
 30
0.0
 10
3.606613423815069
 20
5.501834798360384
 30
0.0
 10
3.597440857085594
 20
5.501834798360384
 30
0.0
 10
3.590032556051887
 20
5.509243099394112
 30
0.0
 10
3.590032556051887
 20
5.518061736392077
 30
0.0
 10
3.590032556051887
 20
5.518061736392077
 30
0.0
 10
3.590032556051887
 20
5.573095791028528
 30
0.0
 10
3.590032556051887
 20
5.573095791028528
 30
0.0
 10
3.590032556051887
 20
5.581914428026522
 30
0.0
 10
3.597440857085594
 20
5.589322729060228
 30
0.0
 10
3.606613423815069
 20
5.589322729060228
 30
0.0
 10
3.615433406553478
 20
5.589322729060228
 30
0.0
 10
3.622841707587191
 20
5.581914428026522
 30
0.0
 10
3.622841707587191
 20
5.573095791028528
 30
0.0
 10
3.622841707587191
 20
5.573095791028528
 30
0.0
 10
3.622841707587191
 20
5.534642604155273
 30
0.0
 10
3.622841707587191
 20
5.534642604155273
 30
0.0
 10
3.622841707587191
 20
5.534642604155273
 30
0.0
 10
5.741625223411531
 20
5.534642604155273
 30
0.0
 10
5.741625223411531
 20
5.534642604155273
 30
0.0
 10
5.750796444400577
 20
5.534642604155273
 30
0.0
 10
5.75785216144321
 20
5.527234303121566
 30
0.0
 10
5.75785216144321
 20
5.518061736392077
 30
0.0
 10
5.75785216144321
 20
5.509243099394112
 30
0.0
 10
5.750796444400577
 20
5.501834798360384
 30
0.0
 10
5.741625223411531
 20
5.501834798360384
 30
0.0
  0
SPLINE
  5
2FB
330
1F
100
AcDbEntity
  8
Livello 1
370
     0
100
AcDbSpline
210
0.0
220
0.0
230
1.0
 70
     9
 71
     3
 72
    20
 73
    16
 74
     0
 42
0.000000001
 43
0.0000000001
 40
0.0
 40
0.0
 40
0.0
 40
0.0
 40
1.0
 40
1.0
 40
1.0
 40
2.0
 40
2.0
 40
2.0
 40
3.0
 40
3.0
 40
3.0
 40
4.0
 40
4.0
 40
4.0
 40
5.0
 40
5.0
 40
5.0
 40
5.0
 10
3.606473466810989
 20
7.213619309074744
 30
0.0
 10
3.597300900081499
 20
7.213619309074744
 30
0.0
 10
3.590245183038852
 20
7.221027610108464
 30
0.0
 10
3.590245183038852
 20
7.229846247106451
 30
0.0
 10
3.590245183038852
 20
7.239018813835926
 30
0.0
 10
3.597300900081499
 20
7.247484866842846
 30
0.0
 10
3.606473466810989
 20
7.247484866842846
 30
0.0
 10
3.615644687800035
 20
7.247484866842846
 30
0.0
 10
3.622700404842682
 20
7.241488247513828
 30
0.0
 10
3.622700404842682
 20
7.232668264775419
 30
0.0
 10
3.622700404842682
 20
7.232668264775419
 30
0.0
 10
3.622700404842682
 20
7.229846247106451
 30
0.0
 10
3.622700404842682
 20
7.229846247106451
 30
0.0
 10
3.622700404842682
 20
7.221027610108464
 30
0.0
 10
3.615644687800035
 20
7.213619309074744
 30
0.0
 10
3.606473466810989
 20
7.213619309074744
 30
0.0
  0
SPLINE
  5
2FC
330
1F
100
AcDbEntity
  8
Livello 1
370
     0
100
AcDbSpline
210
0.0
220
0.0
230
1.0
 70
     9
 71
     3
 72
    23
 73
    19
 74
     0
 42
0.000000001
 43
0.0000000001
 40
0.0
 40
0.0
 40
0.0
 40
0.0
 40
1.0
 40
1.0
 40
1.0
 40
2.0
 40
2.0
 40
2.0
 40
3.0
 40
3.0
 40
3.0
 40
4.0
 40
4.0
 40
4.0
 40
5.0
 40
5.0
 40
5.0
 40
6.0
 40
6.0
 40
6.0
 40
6.0
 10
3.606473466810989
 20
7.216230045497169
 30
0.0
 10
3.597300900081499
 20
7.216230045497169
 30
0.0
 10
3.590245183038852
 20
7.223638346530876
 30
0.0
 10
3.590245183038852
 20
7.232456983528855
 30
0.0
 10
3.590245183038852
 20
7.232456983528855
 30
0.0
 10
3.590245183038852
 20
7.284667674755908
 30
0.0
 10
3.590245183038852
 20
7.284667674755908
 30
0.0
 10
3.590245183038852
 20
7.293840241485384
 30
0.0
 10
3.597300900081499
 20
7.302307640232733
 30
0.0
 10
3.606473466810989
 20
7.302307640232733
 30
0.0
 10
3.615644687800035
 20
7.302307640232733
 30
0.0
 10
3.622700404842682
 20
7.296309675163286
 30
0.0
 10
3.622700404842682
 20
7.287491038165313
 30
0.0
 10
3.622700404842682
 20
7.287491038165313
 30
0.0
 10
3.622700404842682
 20
7.232456983528855
 30
0.0
 10
3.622700404842682
 20
7.232456983528855
 30
0.0
 10
3.622700404842682
 20
7.223638346530876
 30
0.0
 10
3.615644687800035
 20
7.216230045497169
 30
0.0
 10
3.606473466810989
 20
7.216230045497169
 30
0.0
  0
SPLINE
  5
2FD
330
1F
100
AcDbEntity
  8
Livello 1
370
     0
100
AcDbSpline
210
0.0
220
0.0
230
1.0
 70
     9
 71
     3
 72
    23
 73
    19
 74
     0
 42
0.000000001
 43
0.0000000001
 40
0.0
 40
0.0
 40
0.0
 40
0.0
 40
1.0
 40
1.0
 40
1.0
 40
2.0
 40
2.0
 40
2.0
 40
3.0
 40
3.0
 40
3.0
 40
4.0
 40
4.0
 40
4.0
 40
5.0
 40
5.0
 40
5.0
 40
6.0
 40
6.0
 40
6.0
 40
6.0
 10
5.741625223411531
 20
7.271086462397661
 30
0.0
 10
5.741625223411531
 20
7.271086462397661
 30
0.0
 10
3.606613423815069
 20
7.271086462397661
 30
0.0
 10
3.606613423815069
 20
7.271086462397661
 30
0.0
 10
3.597440857085594
 20
7.271086462397661
 30
0.0
 10
3.590032556051887
 20
7.278494763431361
 30
0.0
 10
3.590032556051887
 20
7.287313400429354
 30
0.0
 10
3.590032556051887
 20
7.296485967158815
 30
0.0
 10
3.597440857085594
 20
7.303894268192543
 30
0.0
 10
3.606613423815069
 20
7.303894268192543
 30
0.0
 10
3.606613423815069
 20
7.303894268192543
 30
0.0
 10
5.741625223411531
 20
7.303894268192543
 30
0.0
 10
5.741625223411531
 20
7.303894268192543
 30
0.0
 10
5.750796444400577
 20
7.303894268192543
 30
0.0
 10
5.75785216144321
 20
7.296485967158815
 30
0.0
 10
5.75785216144321
 20
7.287313400429354
 30
0.0
 10
5.75785216144321
 20
7.278494763431361
 30
0.0
 10
5.750796444400577
 20
7.271086462397661
 30
0.0
 10
5.741625223411531
 20
7.271086462397661
 30
0.0
  0
SPLINE
  5
2FE
330
1F
100
AcDbEntity
  8
Livello 1
370
     0
100
AcDbSpline
210
0.0
220
0.0
230
1.0
 70
     9
 71
     3
 72
    23
 73
    19
 74
     0
 42
0.000000001
 43
0.0000000001
 40
0.0
 40
0.0
 40
0.0
 40
0.0
 40
1.0
 40
1.0
 40
1.0
 40
2.0
 40
2.0
 40
2.0
 40
3.0
 40
3.0
 40
3.0
 40
4.0
 40
4.0
 40
4.0
 40
5.0
 40
5.0
 40
5.0
 40
6.0
 40
6.0
 40
6.0
 40
6.0
 10
3.606543445313029
 20
5.556727550252311
 30
0.0
 10
3.597370878583539
 20
5.556727550252311
 30
0.0
 10
3.590315161540907
 20
5.564135851286032
 30
0.0
 10
3.590315161540907
 20
5.572954488284025
 30
0.0
 10
3.590315161540907
 20
5.572954488284025
 30
0.0
 10
3.590315161540907
 20
5.698543021866036
 30
0.0
 10
3.590315161540907
 20
5.698543021866036
 30
0.0
 10
3.590315161540907
 20
5.707715588595505
 30
0.0
 10
3.597370878583539
 20
5.714771305638159
 30
0.0
 10
3.606543445313029
 20
5.714771305638159
 30
0.0
 10
3.615714666302075
 20
5.714771305638159
 30
0.0
 10
3.622770383344722
 20
5.707715588595505
 30
0.0
 10
3.622770383344722
 20
5.698543021866036
 30
0.0
 10
3.622770383344722
 20
5.698543021866036
 30
0.0
 10
3.622770383344722
 20
5.572954488284025
 30
0.0
 10
3.622770383344722
 20
5.572954488284025
 30
0.0
 10
3.622770383344722
 20
5.564135851286032
 30
0.0
 10
3.615714666302075
 20
5.556727550252311
 30
0.0
 10
3.606543445313029
 20
5.556727550252311
 30
0.0
  0
SPLINE
  5
2FF
330
1F
100
AcDbEntity
  8
Livello 1
370
     0
100
AcDbSpline
210
0.0
220
0.0
230
1.0
 70
     9
 71
     3
 72
    23
 73
    19
 74
     0
 42
0.000000001
 43
0.0000000001
 40
0.0
 40
0.0
 40
0.0
 40
0.0
 40
1.0
 40
1.0
 40
1.0
 40
2.0
 40
2.0
 40
2.0
 40
3.0
 40
3.0
 40
3.0
 40
4.0
 40
4.0
 40
4.0
 40
5.0
 40
5.0
 40
5.0
 40
6.0
 40
6.0
 40
6.0
 40
6.0
 10
3.606543445313029
 20
5.682174781089834
 30
0.0
 10
3.597370878583539
 20
5.682174781089834
 30
0.0
 10
3.590315161540907
 20
5.68958308212354
 30
0.0
 10
3.590315161540907
 20
5.698401719121534
 30
0.0
 10
3.590315161540907
 20
5.698401719121534
 30
0.0
 10
3.590315161540907
 20
5.808115898662919
 30
0.0
 10
3.590315161540907
 20
5.808115898662919
 30
0.0
 10
3.590315161540907
 20
5.817288465392387
 30
0.0
 10
3.597370878583539
 20
5.824696766426107
 30
0.0
 10
3.606543445313029
 20
5.824696766426107
 30
0.0
 10
3.615714666302075
 20
5.824696766426107
 30
0.0
 10
3.622770383344722
 20
5.817288465392387
 30
0.0
 10
3.622770383344722
 20
5.808115898662919
 30
0.0
 10
3.622770383344722
 20
5.808115898662919
 30
0.0
 10
3.622770383344722
 20
5.698401719121534
 30
0.0
 10
3.622770383344722
 20
5.698401719121534
 30
0.0
 10
3.622770383344722
 20
5.68958308212354
 30
0.0
 10
3.615714666302075
 20
5.682174781089834
 30
0.0
 10
3.606543445313029
 20
5.682174781089834
 30
0.0
  0
SPLINE
  5
300
330
1F
100
AcDbEntity
  8
Livello 1
370
     0
100
AcDbSpline
210
0.0
220
0.0
230
1.0
 70
     9
 71
     3
 72
    23
 73
    19
 74
     0
 42
0.000000001
 43
0.0000000001
 40
0.0
 40
0.0
 40
0.0
 40
0.0
 40
1.0
 40
1.0
 40
1.0
 40
2.0
 40
2.0
 40
2.0
 40
3.0
 40
3.0
 40
3.0
 40
4.0
 40
4.0
 40
4.0
 40
5.0
 40
5.0
 40
5.0
 40
6.0
 40
6.0
 40
6.0
 40
6.0
 10
3.606543445313029
 20
5.772840004930557
 30
0.0
 10
3.597370878583539
 20
5.772840004930557
 30
0.0
 10
3.590315161540907
 20
5.780248305964263
 30
0.0
 10
3.590315161540907
 20
5.789066942962243
 30
0.0
 10
3.590315161540907
 20
5.789066942962243
 30
0.0
 10
3.590315161540907
 20
7.107044741942374
 30
0.0
 10
3.590315161540907
 20
7.107044741942374
 30
0.0
 10
3.590315161540907
 20
7.116217308671856
 30
0.0
 10
3.597370878583539
 20
7.12362560970557
 30
0.0
 10
3.606543445313029
 20
7.12362560970557
 30
0.0
 10
3.615714666302075
 20
7.12362560970557
 30
0.0
 10
3.622770383344722
 20
7.116217308671856
 30
0.0
 10
3.622770383344722
 20
7.107044741942374
 30
0.0
 10
3.622770383344722
 20
7.107044741942374
 30
0.0
 10
3.622770383344722
 20
5.789066942962243
 30
0.0
 10
3.622770383344722
 20
5.789066942962243
 30
0.0
 10
3.622770383344722
 20
5.780248305964263
 30
0.0
 10
3.615714666302075
 20
5.772840004930557
 30
0.0
 10
3.606543445313029
 20
5.772840004930557
 30
0.0
  0
SPLINE
  5
301
330
1F
100
AcDbEntity
  8
Livello 1
370
     0
100
AcDbSpline
210
0.0
220
0.0
230
1.0
 70
     9
 71
     3
 72
    23
 73
    19
 74
     0
 42
0.000000001
 43
0.0000000001
 40
0.0
 40
0.0
 40
0.0
 40
0.0
 40
1.0
 40
1.0
 40
1.0
 40
2.0
 40
2.0
 40
2.0
 40
3.0
 40
3.0
 40
3.0
 40
4.0
 40
4.0
 40
4.0
 40
5.0
 40
5.0
 40
5.0
 40
6.0
 40
6.0
 40
6.0
 40
6.0
 10
3.606543445313029
 20
7.090781468919239
 30
0.0
 10
3.597370878583539
 20
7.090781468919239
 30
0.0
 10
3.590315161540907
 20
7.098189769952952
 30
0.0
 10
3.590315161540907
 20
7.107008406950932
 30
0.0
 10
3.590315161540907
 20
7.107008406950932
 30
0.0
 10
3.590315161540907
 20
7.229774922863981
 30
0.0
 10
3.590315161540907
 20
7.229774922863981
 30
0.0
 10
3.590315161540907
 20
7.238947489593456
 30
0.0
 10
3.597370878583539
 20
7.246355790627163
 30
0.0
 10
3.606543445313029
 20
7.246355790627163
 30
0.0
 10
3.615362082311008
 20
7.246355790627163
 30
0.0
 10
3.622770383344722
 20
7.238947489593456
 30
0.0
 10
3.622770383344722
 20
7.229774922863981
 30
0.0
 10
3.622770383344722
 20
7.229774922863981
 30
0.0
 10
3.622770383344722
 20
7.107008406950932
 30
0.0
 10
3.622770383344722
 20
7.107008406950932
 30
0.0
 10
3.622770383344722
 20
7.098189769952952
 30
0.0
 10
3.615714666302075
 20
7.090781468919239
 30
0.0
 10
3.606543445313029
 20
7.090781468919239
 30
0.0
  0
SPLINE
  5
302
330
1F
100
AcDbEntity
  8
Livello 1
370
     0
100
AcDbSpline
210
0.0
220
0.0
230
1.0
 70
     9
 71
     3
 72
    26
 73
    22
 74
     0
 42
0.000000001
 43
0.0000000001
 40
0.0
 40
0.0
 40
0.0
 40
0.0
 40
1.0
 40
1.0
 40
1.0
 40
2.0
 40
2.0
 40
2.0
 40
3.0
 40
3.0
 40
3.0
 40
4.0
 40
4.0
 40
4.0
 40
5.0
 40
5.0
 40
5.0
 40
6.0
 40
6.0
 40
6.0
 40
7.0
 40
7.0
 40
7.0
 40
7.0
 10
2.895696438586988
 20
6.241433549243602
 30
0.0
 10
2.895696438586988
 20
6.241433549243602
 30
0.0
 10
2.895342508855492
 20
6.241433549243602
 30
0.0
 10
2.895342508855492
 20
6.241433549243602
 30
0.0
 10
2.886523871857505
 20
6.241433549243602
 30
0.0
 10
2.879115570823792
 20
6.248841850277322
 30
0.0
 10
2.879468154814851
 20
6.258013071266375
 30
0.0
 10
2.879468154814851
 20
6.258013071266375
 30
0.0
 10
2.88193758849276
 20
6.485202315373925
 30
0.0
 10
2.88193758849276
 20
6.485202315373925
 30
0.0
 10
2.88193758849276
 20
6.494374882103421
 30
0.0
 10
2.887934207821778
 20
6.500018917441359
 30
0.0
 10
2.898518456255956
 20
6.501430599146054
 30
0.0
 10
2.907689677245002
 20
6.501430599146054
 30
0.0
 10
2.914745394287642
 20
6.494022298112348
 30
0.0
 10
2.914745394287642
 20
6.484849731382873
 30
0.0
 10
2.914745394287642
 20
6.484849731382873
 30
0.0
 10
2.911923376618688
 20
6.257660487275302
 30
0.0
 10
2.911923376618688
 20
6.257660487275302
 30
0.0
 10
2.911923376618688
 20
6.248487920545827
 30
0.0
 10
2.90451507558496
 20
6.241433549243602
 30
0.0
 10
2.895696438586988
 20
6.241433549243602
 30
0.0
  0
SPLINE
  5
303
330
1F
100
AcDbEntity
  8
Livello 1
370
     0
100
AcDbSpline
210
0.0
220
0.0
230
1.0
 70
     9
 71
     3
 72
    23
 73
    19
 74
     0
 42
0.000000001
 43
0.0000000001
 40
0.0
 40
0.0
 40
0.0
 40
0.0
 40
1.0
 40
1.0
 40
1.0
 40
2.0
 40
2.0
 40
2.0
 40
3.0
 40
3.0
 40
3.0
 40
4.0
 40
4.0
 40
4.0
 40
5.0
 40
5.0
 40
5.0
 40
6.0
 40
6.0
 40
6.0
 40
6.0
 10
2.898342164260412
 20
6.934006746753162
 30
0.0
 10
2.889169597530944
 20
6.934006746753162
 30
0.0
 10
2.88211388048829
 20
6.941415047786883
 30
0.0
 10
2.88211388048829
 20
6.950233684784862
 30
0.0
 10
2.88211388048829
 20
6.950233684784862
 30
0.0
 10
2.88211388048829
 20
7.013028624446079
 30
0.0
 10
2.88211388048829
 20
7.013028624446079
 30
0.0
 10
2.88211388048829
 20
7.022201191175554
 30
0.0
 10
2.889169597530944
 20
7.029255562477779
 30
0.0
 10
2.898342164260412
 20
7.029255562477779
 30
0.0
 10
2.907513385249465
 20
7.029255562477779
 30
0.0
 10
2.914569102292112
 20
7.022201191175554
 30
0.0
 10
2.914569102292112
 20
7.013028624446079
 30
0.0
 10
2.914569102292112
 20
7.013028624446079
 30
0.0
 10
2.914569102292112
 20
6.950233684784862
 30
0.0
 10
2.914569102292112
 20
6.950233684784862
 30
0.0
 10
2.914569102292112
 20
6.941415047786883
 30
0.0
 10
2.907513385249465
 20
6.934006746753162
 30
0.0
 10
2.898342164260412
 20
6.934006746753162
 30
0.0
  0
SPLINE
  5
304
330
1F
100
AcDbEntity
  8
Livello 1
370
     0
100
AcDbSpline
210
0.0
220
0.0
230
1.0
 70
     9
 71
     3
 72
    23
 73
    19
 74
     0
 42
0.000000001
 43
0.0000000001
 40
0.0
 40
0.0
 40
0.0
 40
0.0
 40
1.0
 40
1.0
 40
1.0
 40
2.0
 40
2.0
 40
2.0
 40
3.0
 40
3.0
 40
3.0
 40
4.0
 40
4.0
 40
4.0
 40
5.0
 40
5.0
 40
5.0
 40
6.0
 40
6.0
 40
6.0
 40
6.0
 10
2.898342164260412
 20
6.468799085346702
 30
0.0
 10
2.889169597530944
 20
6.468799085346702
 30
0.0
 10
2.88211388048829
 20
6.476207386380416
 30
0.0
 10
2.88211388048829
 20
6.485026023378402
 30
0.0
 10
2.88211388048829
 20
6.485026023378402
 30
0.0
 10
2.88211388048829
 20
6.529475829580668
 30
0.0
 10
2.88211388048829
 20
6.529475829580668
 30
0.0
 10
2.88211388048829
 20
6.538648396310136
 30
0.0
 10
2.889169597530944
 20
6.546056697343857
 30
0.0
 10
2.898342164260412
 20
6.546056697343857
 30
0.0
 10
2.907513385249465
 20
6.546056697343857
 30
0.0
 10
2.914569102292112
 20
6.538648396310136
 30
0.0
 10
2.914569102292112
 20
6.529475829580668
 30
0.0
 10
2.914569102292112
 20
6.529475829580668
 30
0.0
 10
2.914569102292112
 20
6.485026023378402
 30
0.0
 10
2.914569102292112
 20
6.485026023378402
 30
0.0
 10
2.914569102292112
 20
6.476207386380416
 30
0.0
 10
2.907513385249465
 20
6.468799085346702
 30
0.0
 10
2.898342164260412
 20
6.468799085346702
 30
0.0
  0
SPLINE
  5
305
330
1F
100
AcDbEntity
  8
Livello 1
370
     0
100
AcDbSpline
210
0.0
220
0.0
230
1.0
 70
     9
 71
     3
 72
    26
 73
    22
 74
     0
 42
0.000000001
 43
0.0000000001
 40
0.0
 40
0.0
 40
0.0
 40
0.0
 40
1.0
 40
1.0
 40
1.0
 40
2.0
 40
2.0
 40
2.0
 40
3.0
 40
3.0
 40
3.0
 40
4.0
 40
4.0
 40
4.0
 40
5.0
 40
5.0
 40
5.0
 40
6.0
 40
6.0
 40
6.0
 40
7.0
 40
7.0
 40
7.0
 40
7.0
 10
2.898342164260412
 20
6.455746748975052
 30
0.0
 10
2.889169597530944
 20
6.455746748975052
 30
0.0
 10
2.879291862819329
 20
6.463155050008758
 30
0.0
 10
2.879291862819329
 20
6.471973687006752
 30
0.0
 10
2.879291862819329
 20
6.471973687006752
 30
0.0
 10
2.879291862819329
 20
6.52947717532109
 30
0.0
 10
2.879291862819329
 20
6.52947717532109
 30
0.0
 10
2.879291862819329
 20
6.538648396310136
 30
0.0
 10
2.886700163853035
 20
6.546056697343857
 30
0.0
 10
2.895518800851029
 20
6.546056697343857
 30
0.0
 10
2.904691367580504
 20
6.546056697343857
 30
0.0
 10
2.91209966861421
 20
6.538648396310136
 30
0.0
 10
2.91209966861421
 20
6.52947717532109
 30
0.0
 10
2.91209966861421
 20
6.52947717532109
 30
0.0
 10
2.91209966861421
 20
6.477971652076185
 30
0.0
 10
2.91209966861421
 20
6.477971652076185
 30
0.0
 10
2.91280483659635
 20
6.476207386380416
 30
0.0
 10
2.913511350318913
 20
6.474090536693573
 30
0.0
 10
2.913511350318913
 20
6.471973687006752
 30
0.0
 10
2.913511350318913
 20
6.463155050008758
 30
0.0
 10
2.907513385249465
 20
6.455746748975052
 30
0.0
 10
2.898342164260412
 20
6.455746748975052
 30
0.0
  0
SPLINE
  5
306
330
1F
100
AcDbEntity
  8
Livello 1
370
     0
100
AcDbSpline
210
0.0
220
0.0
230
1.0
 70
     9
 71
     3
 72
    23
 73
    19
 74
     0
 42
0.000000001
 43
0.0000000001
 40
0.0
 40
0.0
 40
0.0
 40
0.0
 40
1.0
 40
1.0
 40
1.0
 40
2.0
 40
2.0
 40
2.0
 40
3.0
 40
3.0
 40
3.0
 40
4.0
 40
4.0
 40
4.0
 40
5.0
 40
5.0
 40
5.0
 40
6.0
 40
6.0
 40
6.0
 40
6.0
 10
2.895696438586988
 20
6.194409341610374
 30
0.0
 10
2.886523871857505
 20
6.194409341610374
 30
0.0
 10
2.879468154814851
 20
6.201817642644073
 30
0.0
 10
2.879468154814851
 20
6.210636279642066
 30
0.0
 10
2.879468154814851
 20
6.210636279642066
 30
0.0
 10
2.879468154814851
 20
6.472045011249207
 30
0.0
 10
2.879468154814851
 20
6.472045011249207
 30
0.0
 10
2.879468154814851
 20
6.481217577978689
 30
0.0
 10
2.886523871857505
 20
6.488271949280914
 30
0.0
 10
2.895696438586988
 20
6.488271949280914
 30
0.0
 10
2.904867659576034
 20
6.488271949280914
 30
0.0
 10
2.911923376618688
 20
6.481217577978689
 30
0.0
 10
2.911923376618688
 20
6.472045011249207
 30
0.0
 10
2.911923376618688
 20
6.472045011249207
 30
0.0
 10
2.911923376618688
 20
6.210636279642066
 30
0.0
 10
2.911923376618688
 20
6.210636279642066
 30
0.0
 10
2.911923376618688
 20
6.201817642644073
 30
0.0
 10
2.904867659576034
 20
6.194409341610374
 30
0.0
 10
2.895696438586988
 20
6.194409341610374
 30
0.0
  0
SPLINE
  5
307
330
1F
100
AcDbEntity
  8
Livello 1
370
     0
100
AcDbSpline
210
0.0
220
0.0
230
1.0
 70
     9
 71
     3
 72
    20
 73
    16
 74
     0
 42
0.000000001
 43
0.0000000001
 40
0.0
 40
0.0
 40
0.0
 40
0.0
 40
1.0
 40
1.0
 40
1.0
 40
2.0
 40
2.0
 40
2.0
 40
3.0
 40
3.0
 40
3.0
 40
4.0
 40
4.0
 40
4.0
 40
5.0
 40
5.0
 40
5.0
 40
5.0
 10
2.898342164260412
 20
6.513248891548968
 30
0.0
 10
2.898342164260412
 20
6.513248891548968
 30
0.0
 10
2.895518800851029
 20
6.513248891548968
 30
0.0
 10
2.895518800851029
 20
6.513248891548968
 30
0.0
 10
2.886700163853035
 20
6.513248891548968
 30
0.0
 10
2.879291862819329
 20
6.520657192582675
 30
0.0
 10
2.879291862819329
 20
6.529475829580668
 30
0.0
 10
2.879291862819329
 20
6.538648396310136
 30
0.0
 10
2.886700163853035
 20
6.546056697343857
 30
0.0
 10
2.895518800851029
 20
6.546056697343857
 30
0.0
 10
2.904691367580504
 20
6.546056697343857
 30
0.0
 10
2.913511350318913
 20
6.538648396310136
 30
0.0
 10
2.913511350318913
 20
6.529475829580668
 30
0.0
 10
2.913511350318913
 20
6.520657192582675
 30
0.0
 10
2.907513385249465
 20
6.513248891548968
 30
0.0
 10
2.898342164260412
 20
6.513248891548968
 30
0.0
  0
SPLINE
  5
308
330
1F
100
AcDbEntity
  8
Livello 1
370
     0
100
AcDbSpline
210
0.0
220
0.0
230
1.0
 70
     9
 71
     3
 72
    23
 73
    19
 74
     0
 42
0.000000001
 43
0.0000000001
 40
0.0
 40
0.0
 40
0.0
 40
0.0
 40
1.0
 40
1.0
 40
1.0
 40
2.0
 40
2.0
 40
2.0
 40
3.0
 40
3.0
 40
3.0
 40
4.0
 40
4.0
 40
4.0
 40
5.0
 40
5.0
 40
5.0
 40
6.0
 40
6.0
 40
6.0
 40
6.0
 10
3.151848708098277
 20
6.194409341610374
 30
0.0
 10
3.151848708098277
 20
6.194409341610374
 30
0.0
 10
3.068239201300187
 20
6.194409341610374
 30
0.0
 10
3.068239201300187
 20
6.194409341610374
 30
0.0
 10
3.059067980311141
 20
6.194409341610374
 30
0.0
 10
3.052012263268494
 20
6.201817642644073
 30
0.0
 10
3.052012263268494
 20
6.210636279642066
 30
0.0
 10
3.052012263268494
 20
6.219808846371535
 30
0.0
 10
3.059067980311141
 20
6.227217147405255
 30
0.0
 10
3.068239201300187
 20
6.227217147405255
 30
0.0
 10
3.068239201300187
 20
6.227217147405255
 30
0.0
 10
3.151848708098277
 20
6.227217147405255
 30
0.0
 10
3.151848708098277
 20
6.227217147405255
 30
0.0
 10
3.161019929087331
 20
6.227217147405255
 30
0.0
 10
3.16807564612997
 20
6.219808846371535
 30
0.0
 10
3.16807564612997
 20
6.210636279642066
 30
0.0
 10
3.16807564612997
 20
6.201817642644073
 30
0.0
 10
3.161019929087331
 20
6.194409341610374
 30
0.0
 10
3.151848708098277
 20
6.194409341610374
 30
0.0
  0
SPLINE
  5
309
330
1F
100
AcDbEntity
  8
Livello 1
370
     0
100
AcDbSpline
210
0.0
220
0.0
230
1.0
 70
     9
 71
     3
 72
    23
 73
    19
 74
     0
 42
0.000000001
 43
0.0000000001
 40
0.0
 40
0.0
 40
0.0
 40
0.0
 40
1.0
 40
1.0
 40
1.0
 40
2.0
 40
2.0
 40
2.0
 40
3.0
 40
3.0
 40
3.0
 40
4.0
 40
4.0
 40
4.0
 40
5.0
 40
5.0
 40
5.0
 40
6.0
 40
6.0
 40
6.0
 40
6.0
 10
3.151848708098277
 20
5.922593999305007
 30
0.0
 10
3.142676141368795
 20
5.922593999305007
 30
0.0
 10
3.135620424326148
 20
5.930002300338706
 30
0.0
 10
3.135620424326148
 20
5.9388209373367
 30
0.0
 10
3.135620424326148
 20
5.9388209373367
 30
0.0
 10
3.135620424326148
 20
6.210812571637603
 30
0.0
 10
3.135620424326148
 20
6.210812571637603
 30
0.0
 10
3.135620424326148
 20
6.219632554376005
 30
0.0
 10
3.142676141368795
 20
6.227040855409718
 30
0.0
 10
3.151848708098277
 20
6.227040855409718
 30
0.0
 10
3.161019929087331
 20
6.227040855409718
 30
0.0
 10
3.16807564612997
 20
6.219632554376005
 30
0.0
 10
3.16807564612997
 20
6.210812571637603
 30
0.0
 10
3.16807564612997
 20
6.210812571637603
 30
0.0
 10
3.16807564612997
 20
5.9388209373367
 30
0.0
 10
3.16807564612997
 20
5.9388209373367
 30
0.0
 10
3.16807564612997
 20
5.930002300338706
 30
0.0
 10
3.161019929087331
 20
5.922593999305007
 30
0.0
 10
3.151848708098277
 20
5.922593999305007
 30
0.0
  0
SPLINE
  5
30A
330
1F
100
AcDbEntity
  8
Livello 1
370
     0
100
AcDbSpline
210
0.0
220
0.0
230
1.0
 70
     9
 71
     3
 72
    23
 73
    19
 74
     0
 42
0.000000001
 43
0.0000000001
 40
0.0
 40
0.0
 40
0.0
 40
0.0
 40
1.0
 40
1.0
 40
1.0
 40
2.0
 40
2.0
 40
2.0
 40
3.0
 40
3.0
 40
3.0
 40
4.0
 40
4.0
 40
4.0
 40
5.0
 40
5.0
 40
5.0
 40
6.0
 40
6.0
 40
6.0
 40
6.0
 10
3.151848708098277
 20
5.922593999305007
 30
0.0
 10
3.151848708098277
 20
5.922593999305007
 30
0.0
 10
3.068239201300187
 20
5.922593999305007
 30
0.0
 10
3.068239201300187
 20
5.922593999305007
 30
0.0
 10
3.059067980311141
 20
5.922593999305007
 30
0.0
 10
3.052012263268494
 20
5.930002300338706
 30
0.0
 10
3.052012263268494
 20
5.9388209373367
 30
0.0
 10
3.052012263268494
 20
5.947993504066182
 30
0.0
 10
3.059067980311141
 20
5.955401805099889
 30
0.0
 10
3.068239201300187
 20
5.955401805099889
 30
0.0
 10
3.068239201300187
 20
5.955401805099889
 30
0.0
 10
3.151848708098277
 20
5.955401805099889
 30
0.0
 10
3.151848708098277
 20
5.955401805099889
 30
0.0
 10
3.161019929087331
 20
5.955401805099889
 30
0.0
 10
3.16807564612997
 20
5.947993504066182
 30
0.0
 10
3.16807564612997
 20
5.9388209373367
 30
0.0
 10
3.16807564612997
 20
5.930002300338706
 30
0.0
 10
3.161019929087331
 20
5.922593999305007
 30
0.0
 10
3.151848708098277
 20
5.922593999305007
 30
0.0
  0
SPLINE
  5
30B
330
1F
100
AcDbEntity
  8
Livello 1
370
     0
100
AcDbSpline
210
0.0
220
0.0
230
1.0
 70
     9
 71
     3
 72
    20
 73
    16
 74
     0
 42
0.000000001
 43
0.0000000001
 40
0.0
 40
0.0
 40
0.0
 40
0.0
 40
1.0
 40
1.0
 40
1.0
 40
2.0
 40
2.0
 40
2.0
 40
3.0
 40
3.0
 40
3.0
 40
4.0
 40
4.0
 40
4.0
 40
5.0
 40
5.0
 40
5.0
 40
5.0
 10
2.995038996681181
 20
5.639030343098774
 30
0.0
 10
2.985866429951691
 20
5.639030343098774
 30
0.0
 10
2.978810712909059
 20
5.645026962427785
 30
0.0
 10
2.978810712909059
 20
5.65419952915726
 30
0.0
 10
2.978810712909059
 20
5.65419952915726
 30
0.0
 10
2.978810712909059
 20
5.656668962835162
 30
0.0
 10
2.978810712909059
 20
5.656668962835162
 30
0.0
 10
2.978810712909059
 20
5.665840183824215
 30
0.0
 10
2.985866429951691
 20
5.672895900866862
 30
0.0
 10
2.995038996681181
 20
5.672895900866862
 30
0.0
 10
3.004210217670241
 20
5.672895900866862
 30
0.0
 10
3.011265934712874
 20
5.665840183824215
 30
0.0
 10
3.011265934712874
 20
5.656668962835162
 30
0.0
 10
3.011265934712874
 20
5.64749639610568
 30
0.0
 10
3.004210217670241
 20
5.639030343098774
 30
0.0
 10
2.995038996681181
 20
5.639030343098774
 30
0.0
  0
SPLINE
  5
30C
330
1F
100
AcDbEntity
  8
Livello 1
370
     0
100
AcDbSpline
210
0.0
220
0.0
230
1.0
 70
     9
 71
     3
 72
    50
 73
    46
 74
     0
 42
0.000000001
 43
0.0000000001
 40
0.0
 40
0.0
 40
0.0
 40
0.0
 40
1.0
 40
1.0
 40
1.0
 40
2.0
 40
2.0
 40
2.0
 40
3.0
 40
3.0
 40
3.0
 40
4.0
 40
4.0
 40
4.0
 40
5.0
 40
5.0
 40
5.0
 40
6.0
 40
6.0
 40
6.0
 40
7.0
 40
7.0
 40
7.0
 40
8.0
 40
8.0
 40
8.0
 40
9.0
 40
9.0
 40
9.0
 40
10.0
 40
10.0
 40
10.0
 40
11.0
 40
11.0
 40
11.0
 40
12.0
 40
12.0
 40
12.0
 40
13.0
 40
13.0
 40
13.0
 40
14.0
 40
14.0
 40
14.0
 40
15.0
 40
15.0
 40
15.0
 40
15.0
 10
2.995038996681181
 20
5.640335711309987
 30
0.0
 10
2.99221563327179
 20
5.640335711309987
 30
0.0
 10
2.989041031611748
 20
5.641040879292106
 30
0.0
 10
2.986219013942772
 20
5.642805144987882
 30
0.0
 10
2.986219013942772
 20
5.642805144987882
 30
0.0
 10
2.944591225409475
 20
5.66890981773119
 30
0.0
 10
2.944591225409475
 20
5.66890981773119
 30
0.0
 10
2.942826959713706
 20
5.669968915444826
 30
0.0
 10
2.941416623749432
 20
5.671379251409099
 30
0.0
 10
2.940357526035811
 20
5.672790933113802
 30
0.0
 10
2.940357526035811
 20
5.672790933113802
 30
0.0
 10
2.911429489883097
 20
5.709479854291281
 30
0.0
 10
2.911429489883097
 20
5.709479854291281
 30
0.0
 10
2.911429489883097
 20
5.709479854291281
 30
0.0
 10
2.888852002790898
 20
5.753929660493554
 30
0.0
 10
2.888852002790898
 20
5.753929660493554
 30
0.0
 10
2.888146834808758
 20
5.755693926189316
 30
0.0
 10
2.887441666826617
 20
5.757456846144656
 30
0.0
 10
2.887087737095122
 20
5.759573695831491
 30
0.0
 10
2.887087737095122
 20
5.759573695831491
 30
0.0
 10
2.882148869739317
 20
5.806492935711659
 30
0.0
 10
2.882148869739317
 20
5.806492935711659
 30
0.0
 10
2.881091117766111
 20
5.815312918450068
 30
0.0
 10
2.887441666826617
 20
5.823426387465914
 30
0.0
 10
2.89661288781567
 20
5.82448548517955
 30
0.0
 10
2.905432870554079
 20
5.824838069170617
 30
0.0
 10
2.91354633956994
 20
5.819194033832673
 30
0.0
 10
2.914605437283569
 20
5.810021467103204
 30
0.0
 10
2.914605437283569
 20
5.810021467103204
 30
0.0
 10
2.919544304639366
 20
5.765924244891998
 30
0.0
 10
2.919544304639366
 20
5.765924244891998
 30
0.0
 10
2.919544304639366
 20
5.765924244891998
 30
0.0
 10
2.93894719007153
 20
5.72676589003661
 30
0.0
 10
2.93894719007153
 20
5.72676589003661
 30
0.0
 10
2.93894719007153
 20
5.72676589003661
 30
0.0
 10
2.964346694832705
 20
5.695368420205994
 30
0.0
 10
2.964346694832705
 20
5.695368420205994
 30
0.0
 10
2.964346694832705
 20
5.695368420205994
 30
0.0
 10
3.003857633679167
 20
5.670674083426959
 30
0.0
 10
3.003857633679167
 20
5.670674083426959
 30
0.0
 10
3.011265934712874
 20
5.665735216071155
 30
0.0
 10
3.013735368390776
 20
5.655504897368473
 30
0.0
 10
3.008796501034971
 20
5.648096596334752
 30
0.0
 10
3.005974483366003
 20
5.643157728978948
 30
0.0
 10
3.000330448028059
 20
5.640335711309987
 30
0.0
 10
2.995038996681181
 20
5.640335711309987
 30
0.0
  0
SPLINE
  5
30D
330
1F
100
AcDbEntity
  8
Livello 1
370
     0
100
AcDbSpline
210
0.0
220
0.0
230
1.0
 70
     9
 71
     3
 72
    23
 73
    19
 74
     0
 42
0.000000001
 43
0.0000000001
 40
0.0
 40
0.0
 40
0.0
 40
0.0
 40
1.0
 40
1.0
 40
1.0
 40
2.0
 40
2.0
 40
2.0
 40
3.0
 40
3.0
 40
3.0
 40
4.0
 40
4.0
 40
4.0
 40
5.0
 40
5.0
 40
5.0
 40
6.0
 40
6.0
 40
6.0
 40
6.0
 10
3.068204212049174
 20
5.922593999305007
 30
0.0
 10
3.068204212049174
 20
5.922593999305007
 30
0.0
 10
2.895695092846565
 20
5.922593999305007
 30
0.0
 10
2.895695092846565
 20
5.922593999305007
 30
0.0
 10
2.886522526117083
 20
5.922593999305007
 30
0.0
 10
2.879466809074436
 20
5.930002300338706
 30
0.0
 10
2.879466809074436
 20
5.9388209373367
 30
0.0
 10
2.879466809074436
 20
5.947993504066182
 30
0.0
 10
2.886522526117083
 20
5.955401805099889
 30
0.0
 10
2.895695092846565
 20
5.955401805099889
 30
0.0
 10
2.895695092846565
 20
5.955401805099889
 30
0.0
 10
3.068204212049174
 20
5.955401805099889
 30
0.0
 10
3.068204212049174
 20
5.955401805099889
 30
0.0
 10
3.07737543303822
 20
5.955401805099889
 30
0.0
 10
3.08443115008086
 20
5.947993504066182
 30
0.0
 10
3.08443115008086
 20
5.9388209373367
 30
0.0
 10
3.08443115008086
 20
5.930002300338706
 30
0.0
 10
3.07737543303822
 20
5.922593999305007
 30
0.0
 10
3.068204212049174
 20
5.922593999305007
 30
0.0
  0
SPLINE
  5
30E
330
1F
100
AcDbEntity
  8
Livello 1
370
     0
100
AcDbSpline
210
0.0
220
0.0
230
1.0
 70
     9
 71
     3
 72
    23
 73
    19
 74
     0
 42
0.000000001
 43
0.0000000001
 40
0.0
 40
0.0
 40
0.0
 40
0.0
 40
1.0
 40
1.0
 40
1.0
 40
2.0
 40
2.0
 40
2.0
 40
3.0
 40
3.0
 40
3.0
 40
4.0
 40
4.0
 40
4.0
 40
5.0
 40
5.0
 40
5.0
 40
6.0
 40
6.0
 40
6.0
 40
6.0
 10
2.895696438586988
 20
5.791923949882239
 30
0.0
 10
2.886523871857505
 20
5.791923949882239
 30
0.0
 10
2.879468154814851
 20
5.799332250915945
 30
0.0
 10
2.879468154814851
 20
5.808150887913932
 30
0.0
 10
2.879468154814851
 20
5.808150887913932
 30
0.0
 10
2.879468154814851
 20
5.939032218583257
 30
0.0
 10
2.879468154814851
 20
5.939032218583257
 30
0.0
 10
2.879468154814851
 20
5.947850855581236
 30
0.0
 10
2.886523871857505
 20
5.955259156614964
 30
0.0
 10
2.895696438586988
 20
5.955259156614964
 30
0.0
 10
2.904867659576034
 20
5.955259156614964
 30
0.0
 10
2.911923376618688
 20
5.947850855581236
 30
0.0
 10
2.911923376618688
 20
5.939032218583257
 30
0.0
 10
2.911923376618688
 20
5.939032218583257
 30
0.0
 10
2.911923376618688
 20
5.808150887913932
 30
0.0
 10
2.911923376618688
 20
5.808150887913932
 30
0.0
 10
2.911923376618688
 20
5.799332250915945
 30
0.0
 10
2.904867659576034
 20
5.791923949882239
 30
0.0
 10
2.895696438586988
 20
5.791923949882239
 30
0.0
  0
SPLINE
  5
30F
330
1F
100
AcDbEntity
  8
Livello 1
370
     0
100
AcDbSpline
210
0.0
220
0.0
230
1.0
 70
     9
 71
     3
 72
    20
 73
    16
 74
     0
 42
0.000000001
 43
0.0000000001
 40
0.0
 40
0.0
 40
0.0
 40
0.0
 40
1.0
 40
1.0
 40
1.0
 40
2.0
 40
2.0
 40
2.0
 40
3.0
 40
3.0
 40
3.0
 40
4.0
 40
4.0
 40
4.0
 40
5.0
 40
5.0
 40
5.0
 40
5.0
 10
2.898342164260412
 20
5.791923949882239
 30
0.0
 10
2.898342164260412
 20
5.791923949882239
 30
0.0
 10
2.895518800851029
 20
5.791923949882239
 30
0.0
 10
2.895518800851029
 20
5.791923949882239
 30
0.0
 10
2.886700163853035
 20
5.791923949882239
 30
0.0
 10
2.879291862819329
 20
5.799332250915945
 30
0.0
 10
2.879291862819329
 20
5.808150887913932
 30
0.0
 10
2.879291862819329
 20
5.817323454643414
 30
0.0
 10
2.886700163853035
 20
5.824731755677127
 30
0.0
 10
2.895518800851029
 20
5.824731755677127
 30
0.0
 10
2.904691367580504
 20
5.824731755677127
 30
0.0
 10
2.913511350318913
 20
5.817323454643414
 30
0.0
 10
2.913511350318913
 20
5.808150887913932
 30
0.0
 10
2.913511350318913
 20
5.799332250915945
 30
0.0
 10
2.907513385249465
 20
5.791923949882239
 30
0.0
 10
2.898342164260412
 20
5.791923949882239
 30
0.0
  0
SPLINE
  5
310
330
1F
100
AcDbEntity
  8
Livello 1
370
     0
100
AcDbSpline
210
0.0
220
0.0
230
1.0
 70
     9
 71
     3
 72
    23
 73
    19
 74
     0
 42
0.000000001
 43
0.0000000001
 40
0.0
 40
0.0
 40
0.0
 40
0.0
 40
1.0
 40
1.0
 40
1.0
 40
2.0
 40
2.0
 40
2.0
 40
3.0
 40
3.0
 40
3.0
 40
4.0
 40
4.0
 40
4.0
 40
5.0
 40
5.0
 40
5.0
 40
6.0
 40
6.0
 40
6.0
 40
6.0
 10
3.068204212049174
 20
6.194409341610374
 30
0.0
 10
3.068204212049174
 20
6.194409341610374
 30
0.0
 10
2.895695092846565
 20
6.194409341610374
 30
0.0
 10
2.895695092846565
 20
6.194409341610374
 30
0.0
 10
2.886522526117083
 20
6.194409341610374
 30
0.0
 10
2.879466809074436
 20
6.201817642644073
 30
0.0
 10
2.879466809074436
 20
6.210636279642066
 30
0.0
 10
2.879466809074436
 20
6.219808846371535
 30
0.0
 10
2.886522526117083
 20
6.227217147405255
 30
0.0
 10
2.895695092846565
 20
6.227217147405255
 30
0.0
 10
2.895695092846565
 20
6.227217147405255
 30
0.0
 10
3.068204212049174
 20
6.227217147405255
 30
0.0
 10
3.068204212049174
 20
6.227217147405255
 30
0.0
 10
3.07737543303822
 20
6.227217147405255
 30
0.0
 10
3.08443115008086
 20
6.219808846371535
 30
0.0
 10
3.08443115008086
 20
6.210636279642066
 30
0.0
 10
3.08443115008086
 20
6.201817642644073
 30
0.0
 10
3.07737543303822
 20
6.194409341610374
 30
0.0
 10
3.068204212049174
 20
6.194409341610374
 30
0.0
  0
SPLINE
  5
311
330
1F
100
AcDbEntity
  8
Livello 1
370
     0
100
AcDbSpline
210
0.0
220
0.0
230
1.0
 70
     9
 71
     3
 72
    47
 73
    43
 74
     0
 42
0.000000001
 43
0.0000000001
 40
0.0
 40
0.0
 40
0.0
 40
0.0
 40
1.0
 40
1.0
 40
1.0
 40
2.0
 40
2.0
 40
2.0
 40
3.0
 40
3.0
 40
3.0
 40
4.0
 40
4.0
 40
4.0
 40
5.0
 40
5.0
 40
5.0
 40
6.0
 40
6.0
 40
6.0
 40
7.0
 40
7.0
 40
7.0
 40
8.0
 40
8.0
 40
8.0
 40
9.0
 40
9.0
 40
9.0
 40
10.0
 40
10.0
 40
10.0
 40
11.0
 40
11.0
 40
11.0
 40
12.0
 40
12.0
 40
12.0
 40
13.0
 40
13.0
 40
13.0
 40
14.0
 40
14.0
 40
14.0
 40
14.0
 10
2.898342164260412
 20
6.996695372920896
 30
0.0
 10
2.896930482555717
 20
6.996695372920896
 30
0.0
 10
2.895518800851029
 20
6.997047956911956
 30
0.0
 10
2.894461048877815
 20
6.997047956911956
 30
0.0
 10
2.885641066139399
 20
6.999517390589879
 30
0.0
 10
2.880349614792535
 20
7.008336027587851
 30
0.0
 10
2.882466464479364
 20
7.017156010326253
 30
0.0
 10
2.882466464479364
 20
7.017156010326253
 30
0.0
 10
2.893049367173112
 20
7.05878379885955
 30
0.0
 10
2.893049367173112
 20
7.05878379885955
 30
0.0
 10
2.893049367173112
 20
7.05878379885955
 30
0.0
 10
2.915274270274252
 20
7.101821923357121
 30
0.0
 10
2.915274270274252
 20
7.101821923357121
 30
0.0
 10
2.915274270274252
 20
7.101821923357121
 30
0.0
 10
2.946319156113794
 20
7.136395340588201
 30
0.0
 10
2.946319156113794
 20
7.136395340588201
 30
0.0
 10
2.947378253827423
 20
7.137453092561401
 30
0.0
 10
2.948436005800637
 20
7.138510844534607
 30
0.0
 10
2.949493757773836
 20
7.13921735825717
 30
0.0
 10
2.949493757773836
 20
7.13921735825717
 30
0.0
 10
2.98618267895133
 20
7.162852597322576
 30
0.0
 10
2.98618267895133
 20
7.162852597322576
 30
0.0
 10
2.993944909716525
 20
7.167438880687313
 30
0.0
 10
3.003822644428147
 20
7.165322031000478
 30
0.0
 10
3.008761511783959
 20
7.157561145975705
 30
0.0
 10
3.013700379139756
 20
7.150152844941992
 30
0.0
 10
3.01158352945292
 20
7.13992252623931
 30
0.0
 10
3.003822644428147
 20
7.135336242874565
 30
0.0
 10
3.003822644428147
 20
7.135336242874565
 30
0.0
 10
2.968896643205994
 20
7.112758755782373
 30
0.0
 10
2.968896643205994
 20
7.112758755782373
 30
0.0
 10
2.968896643205994
 20
7.112758755782373
 30
0.0
 10
2.941732872749057
 20
7.083125551647519
 30
0.0
 10
2.941732872749057
 20
7.083125551647519
 30
0.0
 10
2.941732872749057
 20
7.083125551647519
 30
0.0
 10
2.923036501039455
 20
7.047141798452166
 30
0.0
 10
2.923036501039455
 20
7.047141798452166
 30
0.0
 10
2.923036501039455
 20
7.047141798452166
 30
0.0
 10
2.914216518301046
 20
7.009042541310414
 30
0.0
 10
2.914216518301046
 20
7.009042541310414
 30
0.0
 10
2.912452252605284
 20
7.0016342402767
 30
0.0
 10
2.90575046529414
 20
6.996695372920896
 30
0.0
 10
2.898342164260412
 20
6.996695372920896
 30
0.0
  0
SPLINE
  5
312
330
1F
100
AcDbEntity
  8
Livello 1
370
     0
100
AcDbSpline
210
0.0
220
0.0
230
1.0
 70
     9
 71
     3
 72
    23
 73
    19
 74
     0
 42
0.000000001
 43
0.0000000001
 40
0.0
 40
0.0
 40
0.0
 40
0.0
 40
1.0
 40
1.0
 40
1.0
 40
2.0
 40
2.0
 40
2.0
 40
3.0
 40
3.0
 40
3.0
 40
4.0
 40
4.0
 40
4.0
 40
5.0
 40
5.0
 40
5.0
 40
6.0
 40
6.0
 40
6.0
 40
6.0
 10
2.895696438586988
 20
6.905256348336422
 30
0.0
 10
2.886523871857505
 20
6.905256348336422
 30
0.0
 10
2.879468154814851
 20
6.912664649370128
 30
0.0
 10
2.879468154814851
 20
6.921483286368101
 30
0.0
 10
2.879468154814851
 20
6.921483286368101
 30
0.0
 10
2.879468154814851
 20
6.947589304851845
 30
0.0
 10
2.879468154814851
 20
6.947589304851845
 30
0.0
 10
2.879468154814851
 20
6.956761871581313
 30
0.0
 10
2.886523871857505
 20
6.964170172615034
 30
0.0
 10
2.895696438586988
 20
6.964170172615034
 30
0.0
 10
2.904867659576034
 20
6.964170172615034
 30
0.0
 10
2.911923376618688
 20
6.956761871581313
 30
0.0
 10
2.911923376618688
 20
6.947589304851845
 30
0.0
 10
2.911923376618688
 20
6.947589304851845
 30
0.0
 10
2.911923376618688
 20
6.921483286368101
 30
0.0
 10
2.911923376618688
 20
6.921483286368101
 30
0.0
 10
2.911923376618688
 20
6.912664649370128
 30
0.0
 10
2.904867659576034
 20
6.905256348336422
 30
0.0
 10
2.895696438586988
 20
6.905256348336422
 30
0.0
  0
SPLINE
  5
313
330
1F
100
AcDbEntity
  8
Livello 1
370
     0
100
AcDbSpline
210
0.0
220
0.0
230
1.0
 70
     9
 71
     3
 72
    20
 73
    16
 74
     0
 42
0.000000001
 43
0.0000000001
 40
0.0
 40
0.0
 40
0.0
 40
0.0
 40
1.0
 40
1.0
 40
1.0
 40
2.0
 40
2.0
 40
2.0
 40
3.0
 40
3.0
 40
3.0
 40
4.0
 40
4.0
 40
4.0
 40
5.0
 40
5.0
 40
5.0
 40
5.0
 10
2.898342164260412
 20
6.978386574453381
 30
0.0
 10
2.889169597530944
 20
6.978386574453381
 30
0.0
 10
2.880702198783602
 20
6.985794875487087
 30
0.0
 10
2.880702198783602
 20
6.994613512485074
 30
0.0
 10
2.880702198783602
 20
7.003786079214563
 30
0.0
 10
2.886700163853035
 20
7.011194380248269
 30
0.0
 10
2.895518800851029
 20
7.011194380248269
 30
0.0
 10
2.895518800851029
 20
7.011194380248269
 30
0.0
 10
2.898342164260412
 20
7.011194380248269
 30
0.0
 10
2.898342164260412
 20
7.011194380248269
 30
0.0
 10
2.907513385249465
 20
7.011194380248269
 30
0.0
 10
2.914569102292112
 20
7.003786079214563
 30
0.0
 10
2.914569102292112
 20
6.994613512485074
 30
0.0
 10
2.914569102292112
 20
6.985794875487087
 30
0.0
 10
2.907513385249465
 20
6.978386574453381
 30
0.0
 10
2.898342164260412
 20
6.978386574453381
 30
0.0
  0
SPLINE
  5
314
330
1F
100
AcDbEntity
  8
Livello 1
370
     0
100
AcDbSpline
210
0.0
220
0.0
230
1.0
 70
     9
 71
     3
 72
    20
 73
    16
 74
     0
 42
0.000000001
 43
0.0000000001
 40
0.0
 40
0.0
 40
0.0
 40
0.0
 40
1.0
 40
1.0
 40
1.0
 40
2.0
 40
2.0
 40
2.0
 40
3.0
 40
3.0
 40
3.0
 40
4.0
 40
4.0
 40
4.0
 40
5.0
 40
5.0
 40
5.0
 40
5.0
 10
2.898342164260412
 20
6.905256348336422
 30
0.0
 10
2.889169597530944
 20
6.905256348336422
 30
0.0
 10
2.880702198783602
 20
6.912664649370128
 30
0.0
 10
2.880702198783602
 20
6.921483286368101
 30
0.0
 10
2.880702198783602
 20
6.930655853097576
 30
0.0
 10
2.886700163853035
 20
6.938064154131296
 30
0.0
 10
2.895518800851029
 20
6.938064154131296
 30
0.0
 10
2.895518800851029
 20
6.938064154131296
 30
0.0
 10
2.898342164260412
 20
6.938064154131296
 30
0.0
 10
2.898342164260412
 20
6.938064154131296
 30
0.0
 10
2.907513385249465
 20
6.938064154131296
 30
0.0
 10
2.914569102292112
 20
6.930655853097576
 30
0.0
 10
2.914569102292112
 20
6.921483286368101
 30
0.0
 10
2.914569102292112
 20
6.912664649370128
 30
0.0
 10
2.907513385249465
 20
6.905256348336422
 30
0.0
 10
2.898342164260412
 20
6.905256348336422
 30
0.0
  0
SPLINE
  5
315
330
1F
100
AcDbEntity
  8
Livello 1
370
     0
100
AcDbSpline
210
0.0
220
0.0
230
1.0
 70
     9
 71
     3
 72
    23
 73
    19
 74
     0
 42
0.000000001
 43
0.0000000001
 40
0.0
 40
0.0
 40
0.0
 40
0.0
 40
1.0
 40
1.0
 40
1.0
 40
2.0
 40
2.0
 40
2.0
 40
3.0
 40
3.0
 40
3.0
 40
4.0
 40
4.0
 40
4.0
 40
5.0
 40
5.0
 40
5.0
 40
6.0
 40
6.0
 40
6.0
 40
6.0
 10
2.895696438586988
 20
6.513248891548968
 30
0.0
 10
2.886523871857505
 20
6.513248891548968
 30
0.0
 10
2.879468154814851
 20
6.520657192582675
 30
0.0
 10
2.879468154814851
 20
6.529475829580668
 30
0.0
 10
2.879468154814851
 20
6.529475829580668
 30
0.0
 10
2.879468154814851
 20
6.921411962125638
 30
0.0
 10
2.879468154814851
 20
6.921411962125638
 30
0.0
 10
2.879468154814851
 20
6.930584528855121
 30
0.0
 10
2.886523871857505
 20
6.937992829888834
 30
0.0
 10
2.895696438586988
 20
6.937992829888834
 30
0.0
 10
2.904867659576034
 20
6.937992829888834
 30
0.0
 10
2.911923376618688
 20
6.930584528855121
 30
0.0
 10
2.911923376618688
 20
6.921411962125638
 30
0.0
 10
2.911923376618688
 20
6.921411962125638
 30
0.0
 10
2.911923376618688
 20
6.529475829580668
 30
0.0
 10
2.911923376618688
 20
6.529475829580668
 30
0.0
 10
2.911923376618688
 20
6.520657192582675
 30
0.0
 10
2.904867659576034
 20
6.513248891548968
 30
0.0
 10
2.895696438586988
 20
6.513248891548968
 30
0.0
  0
SPLINE
  5
316
330
1F
100
AcDbEntity
  8
Livello 1
370
     0
100
AcDbSpline
210
0.0
220
0.0
230
1.0
 70
     9
 71
     3
 72
    26
 73
    22
 74
     0
 42
0.000000001
 43
0.0000000001
 40
0.0
 40
0.0
 40
0.0
 40
0.0
 40
1.0
 40
1.0
 40
1.0
 40
2.0
 40
2.0
 40
2.0
 40
3.0
 40
3.0
 40
3.0
 40
4.0
 40
4.0
 40
4.0
 40
5.0
 40
5.0
 40
5.0
 40
6.0
 40
6.0
 40
6.0
 40
7.0
 40
7.0
 40
7.0
 40
7.0
 10
2.898342164260412
 20
5.791923949882239
 30
0.0
 10
2.889169597530944
 20
5.791923949882239
 30
0.0
 10
2.879291862819329
 20
5.799332250915945
 30
0.0
 10
2.879291862819329
 20
5.808150887913932
 30
0.0
 10
2.879291862819329
 20
5.808150887913932
 30
0.0
 10
2.879291862819329
 20
5.939032218583257
 30
0.0
 10
2.879291862819329
 20
5.939032218583257
 30
0.0
 10
2.879291862819329
 20
5.947850855581236
 30
0.0
 10
2.886700163853035
 20
5.955259156614964
 30
0.0
 10
2.895518800851029
 20
5.955259156614964
 30
0.0
 10
2.904691367580504
 20
5.955259156614964
 30
0.0
 10
2.91209966861421
 20
5.947850855581236
 30
0.0
 10
2.91209966861421
 20
5.939032218583257
 30
0.0
 10
2.91209966861421
 20
5.939032218583257
 30
0.0
 10
2.91209966861421
 20
5.814148852983372
 30
0.0
 10
2.91209966861421
 20
5.814148852983372
 30
0.0
 10
2.91280483659635
 20
5.81238458728761
 30
0.0
 10
2.913511350318913
 20
5.810267737600774
 30
0.0
 10
2.913511350318913
 20
5.808150887913932
 30
0.0
 10
2.913511350318913
 20
5.799332250915945
 30
0.0
 10
2.907513385249465
 20
5.791923949882239
 30
0.0
 10
2.898342164260412
 20
5.791923949882239
 30
0.0
  0
SPLINE
  5
317
330
1F
100
AcDbEntity
  8
Livello 1
370
     0
100
AcDbSpline
210
0.0
220
0.0
230
1.0
 70
     9
 71
     3
 72
    20
 73
    16
 74
     0
 42
0.000000001
 43
0.0000000001
 40
0.0
 40
0.0
 40
0.0
 40
0.0
 40
1.0
 40
1.0
 40
1.0
 40
2.0
 40
2.0
 40
2.0
 40
3.0
 40
3.0
 40
3.0
 40
4.0
 40
4.0
 40
4.0
 40
5.0
 40
5.0
 40
5.0
 40
5.0
 10
2.898342164260412
 20
5.922593999305007
 30
0.0
 10
2.889169597530944
 20
5.922593999305007
 30
0.0
 10
2.880702198783602
 20
5.930002300338706
 30
0.0
 10
2.880702198783602
 20
5.9388209373367
 30
0.0
 10
2.880702198783602
 20
5.947993504066182
 30
0.0
 10
2.886700163853035
 20
5.955401805099889
 30
0.0
 10
2.895518800851029
 20
5.955401805099889
 30
0.0
 10
2.895518800851029
 20
5.955401805099889
 30
0.0
 10
2.898342164260412
 20
5.955401805099889
 30
0.0
 10
2.898342164260412
 20
5.955401805099889
 30
0.0
 10
2.907513385249465
 20
5.955401805099889
 30
0.0
 10
2.914569102292112
 20
5.947993504066182
 30
0.0
 10
2.914569102292112
 20
5.9388209373367
 30
0.0
 10
2.914569102292112
 20
5.930002300338706
 30
0.0
 10
2.907513385249465
 20
5.922593999305007
 30
0.0
 10
2.898342164260412
 20
5.922593999305007
 30
0.0
  0
SPLINE
  5
318
330
1F
100
AcDbEntity
  8
Livello 1
370
     0
100
AcDbSpline
210
0.0
220
0.0
230
1.0
 70
     9
 71
     3
 72
    26
 73
    22
 74
     0
 42
0.000000001
 43
0.0000000001
 40
0.0
 40
0.0
 40
0.0
 40
0.0
 40
1.0
 40
1.0
 40
1.0
 40
2.0
 40
2.0
 40
2.0
 40
3.0
 40
3.0
 40
3.0
 40
4.0
 40
4.0
 40
4.0
 40
5.0
 40
5.0
 40
5.0
 40
6.0
 40
6.0
 40
6.0
 40
7.0
 40
7.0
 40
7.0
 40
7.0
 10
3.015887207328638
 20
5.629929100611754
 30
0.0
 10
3.014122941632862
 20
5.629929100611754
 30
0.0
 10
3.012006091946034
 20
5.63028168460282
 30
0.0
 10
3.010241826250265
 20
5.63098685258496
 30
0.0
 10
3.010241826250265
 20
5.63098685258496
 30
0.0
 10
2.989428604853827
 20
5.638747737609747
 30
0.0
 10
2.989428604853827
 20
5.638747737609747
 30
0.0
 10
2.980961206106499
 20
5.641922339269783
 30
0.0
 10
2.976728852473243
 20
5.651447489990331
 30
0.0
 10
2.979903454133285
 20
5.659914888737667
 30
0.0
 10
2.98307805579332
 20
5.668380941744594
 30
0.0
 10
2.992603206513862
 20
5.672614641118258
 30
0.0
 10
3.000716675529723
 20
5.669440039458216
 30
0.0
 10
3.000716675529723
 20
5.669440039458216
 30
0.0
 10
3.021531242666583
 20
5.661677808693006
 30
0.0
 10
3.021531242666583
 20
5.661677808693006
 30
0.0
 10
3.029997295673489
 20
5.658503207032964
 30
0.0
 10
3.034230995047167
 20
5.648978056312429
 30
0.0
 10
3.031056393387125
 20
5.640512003305502
 30
0.0
 10
3.028586959709222
 20
5.633808870253936
 30
0.0
 10
3.022588994639782
 20
5.629929100611754
 30
0.0
 10
3.015887207328638
 20
5.629929100611754
 30
0.0
  0
SPLINE
  5
319
330
1F
100
AcDbEntity
  8
Livello 1
370
     0
100
AcDbSpline
210
0.0
220
0.0
230
1.0
 70
     9
 71
     3
 72
    26
 73
    22
 74
     0
 42
0.000000001
 43
0.0000000001
 40
0.0
 40
0.0
 40
0.0
 40
0.0
 40
1.0
 40
1.0
 40
1.0
 40
2.0
 40
2.0
 40
2.0
 40
3.0
 40
3.0
 40
3.0
 40
4.0
 40
4.0
 40
4.0
 40
5.0
 40
5.0
 40
5.0
 40
6.0
 40
6.0
 40
6.0
 40
7.0
 40
7.0
 40
7.0
 40
7.0
 10
2.995038996681181
 20
7.132585549448073
 30
0.0
 10
2.988335863629608
 20
7.132585549448073
 30
0.0
 10
2.982337898560167
 20
7.136465319090241
 30
0.0
 10
2.979868464882265
 20
7.143168452141821
 30
0.0
 10
2.976693863222223
 20
7.151634505148734
 30
0.0
 10
2.980927562595901
 20
7.161159655869276
 30
0.0
 10
2.989393615602807
 20
7.164334257529318
 30
0.0
 10
2.989393615602807
 20
7.164334257529318
 30
0.0
 10
3.010208182739667
 20
7.172096488294528
 30
0.0
 10
3.010208182739667
 20
7.172096488294528
 30
0.0
 10
3.01867423574658
 20
7.175271089954556
 30
0.0
 10
3.027846802476069
 20
7.171037390580892
 30
0.0
 10
3.031021404136104
 20
7.162571337573986
 30
0.0
 10
3.034196005796147
 20
7.154103938826636
 30
0.0
 10
3.029963652162891
 20
7.144578788106088
 30
0.0
 10
3.021496253415563
 20
7.14140418644606
 30
0.0
 10
3.021496253415563
 20
7.14140418644606
 30
0.0
 10
3.000683032019118
 20
7.133643301421273
 30
0.0
 10
3.000683032019118
 20
7.133643301421273
 30
0.0
 10
2.998918766323356
 20
7.132938133439132
 30
0.0
 10
2.996801916636528
 20
7.132585549448073
 30
0.0
 10
2.995038996681181
 20
7.132585549448073
 30
0.0
  0
SPLINE
  5
31A
330
1F
100
AcDbEntity
  8
Livello 1
370
     0
100
AcDbSpline
210
0.0
220
0.0
230
1.0
 70
     9
 71
     3
 72
    53
 73
    49
 74
     0
 42
0.000000001
 43
0.0000000001
 40
0.0
 40
0.0
 40
0.0
 40
0.0
 40
1.0
 40
1.0
 40
1.0
 40
2.0
 40
2.0
 40
2.0
 40
3.0
 40
3.0
 40
3.0
 40
4.0
 40
4.0
 40
4.0
 40
5.0
 40
5.0
 40
5.0
 40
6.0
 40
6.0
 40
6.0
 40
7.0
 40
7.0
 40
7.0
 40
8.0
 40
8.0
 40
8.0
 40
9.0
 40
9.0
 40
9.0
 40
10.0
 40
10.0
 40
10.0
 40
11.0
 40
11.0
 40
11.0
 40
12.0
 40
12.0
 40
12.0
 40
13.0
 40
13.0
 40
13.0
 40
14.0
 40
14.0
 40
14.0
 40
15.0
 40
15.0
 40
15.0
 40
16.0
 40
16.0
 40
16.0
 40
16.0
 10
3.606543445313029
 20
5.588125020082934
 30
0.0
 10
3.606543445313029
 20
5.588125020082934
 30
0.0
 10
3.251296233945538
 20
5.588125020082934
 30
0.0
 10
3.251296233945538
 20
5.588125020082934
 30
0.0
 10
3.24847287053614
 20
5.588125020082934
 30
0.0
 10
3.243534003180329
 20
5.588830188065074
 30
0.0
 10
3.241064569502427
 20
5.589887940038273
 30
0.0
 10
3.241064569502427
 20
5.589887940038273
 30
0.0
 10
3.238242551833458
 20
5.590594453760843
 30
0.0
 10
3.238242551833458
 20
5.590594453760843
 30
0.0
 10
3.238242551833458
 20
5.590594453760843
 30
0.0
 10
3.215312480750185
 20
5.593416471429804
 30
0.0
 10
3.215312480750185
 20
5.593416471429804
 30
0.0
 10
3.215312480750185
 20
5.593416471429804
 30
0.0
 10
3.120062319285139
 20
5.61176025914834
 30
0.0
 10
3.120062319285139
 20
5.61176025914834
 30
0.0
 10
3.120062319285139
 20
5.61176025914834
 30
0.0
 10
3.036806742218558
 20
5.624812595519998
 30
0.0
 10
3.036806742218558
 20
5.624812595519998
 30
0.0
 10
3.02798675948015
 20
5.626224277224686
 30
0.0
 10
3.021990140151139
 20
5.634691675972035
 30
0.0
 10
3.023400476115412
 20
5.643510312970022
 30
0.0
 10
3.024812157820107
 20
5.652330295708431
 30
0.0
 10
3.032573042844887
 20
5.659032083019575
 30
0.0
 10
3.042098193565429
 20
5.657269163064242
 30
0.0
 10
3.042098193565429
 20
5.657269163064242
 30
0.0
 10
3.125706354623098
 20
5.644215480952155
 30
0.0
 10
3.125706354623098
 20
5.644215480952155
 30
0.0
 10
3.125706354623098
 20
5.644215480952155
 30
0.0
 10
3.24000681752922
 20
5.62340225955571
 30
0.0
 10
3.24000681752922
 20
5.62340225955571
 30
0.0
 10
3.24000681752922
 20
5.62340225955571
 30
0.0
 10
3.243181419189262
 20
5.62340225955571
 30
0.0
 10
3.243181419189262
 20
5.62340225955571
 30
0.0
 10
3.246003436858238
 20
5.62340225955571
 30
0.0
 10
3.24847287053614
 20
5.622697091573591
 30
0.0
 10
3.250589720222976
 20
5.621637993859962
 30
0.0
 10
3.250589720222976
 20
5.621637993859962
 30
0.0
 10
3.252353985918745
 20
5.620932825877822
 30
0.0
 10
3.252353985918745
 20
5.620932825877822
 30
0.0
 10
3.252353985918745
 20
5.620932825877822
 30
0.0
 10
3.606543445313029
 20
5.620932825877822
 30
0.0
 10
3.606543445313029
 20
5.620932825877822
 30
0.0
 10
3.615714666302075
 20
5.620932825877822
 30
0.0
 10
3.622770383344722
 20
5.613524524844102
 30
0.0
 10
3.622770383344722
 20
5.604351958114634
 30
0.0
 10
3.622770383344722
 20
5.59553332111664
 30
0.0
 10
3.615714666302075
 20
5.588125020082934
 30
0.0
 10
3.606543445313029
 20
5.588125020082934
 30
0.0
  0
SPLINE
  5
31B
330
1F
100
AcDbEntity
  8
Livello 1
370
     0
100
AcDbSpline
210
0.0
220
0.0
230
1.0
 70
     9
 71
     3
 72
    26
 73
    22
 74
     0
 42
0.000000001
 43
0.0000000001
 40
0.0
 40
0.0
 40
0.0
 40
0.0
 40
1.0
 40
1.0
 40
1.0
 40
2.0
 40
2.0
 40
2.0
 40
3.0
 40
3.0
 40
3.0
 40
4.0
 40
4.0
 40
4.0
 40
5.0
 40
5.0
 40
5.0
 40
6.0
 40
6.0
 40
6.0
 40
7.0
 40
7.0
 40
7.0
 40
7.0
 10
3.03945381363242
 20
5.624672638515889
 30
0.0
 10
3.038394715918798
 20
5.624672638515889
 30
0.0
 10
3.036983034214095
 20
5.624672638515889
 30
0.0
 10
3.035925282240881
 20
5.625025222506984
 30
0.0
 10
3.035925282240881
 20
5.625025222506984
 30
0.0
 10
3.01228869743506
 20
5.630316673853847
 30
0.0
 10
3.01228869743506
 20
5.630316673853847
 30
0.0
 10
3.003470060437074
 20
5.632080939549631
 30
0.0
 10
2.997826025099122
 20
5.640899576547603
 30
0.0
 10
2.999941529045528
 20
5.649719559286005
 30
0.0
 10
3.002058378732371
 20
5.658538196283998
 30
0.0
 10
3.010525777479713
 20
5.663829647630876
 30
0.0
 10
3.019344414477707
 20
5.662066727675536
 30
0.0
 10
3.019344414477707
 20
5.662066727675536
 30
0.0
 10
3.042980999283528
 20
5.656775276328652
 30
0.0
 10
3.042980999283528
 20
5.656775276328652
 30
0.0
 10
3.05180098202193
 20
5.65501101063289
 30
0.0
 10
3.057445017359881
 20
5.646191027894481
 30
0.0
 10
3.05532816767306
 20
5.637372390896501
 30
0.0
 10
3.053563901977291
 20
5.629964089862774
 30
0.0
 10
3.046862114666133
 20
5.624672638515889
 30
0.0
 10
3.03945381363242
 20
5.624672638515889
 30
0.0
  0
SPLINE
  5
31C
330
1F
100
AcDbEntity
  8
Livello 1
370
     0
100
AcDbSpline
210
0.0
220
0.0
230
1.0
 70
     9
 71
     3
 72
    23
 73
    19
 74
     0
 42
0.000000001
 43
0.0000000001
 40
0.0
 40
0.0
 40
0.0
 40
0.0
 40
1.0
 40
1.0
 40
1.0
 40
2.0
 40
2.0
 40
2.0
 40
3.0
 40
3.0
 40
3.0
 40
4.0
 40
4.0
 40
4.0
 40
5.0
 40
5.0
 40
5.0
 40
6.0
 40
6.0
 40
6.0
 40
6.0
 10
3.606543445313029
 20
7.184867564917574
 30
0.0
 10
3.606543445313029
 20
7.184867564917574
 30
0.0
 10
3.251296233945538
 20
7.184867564917574
 30
0.0
 10
3.251296233945538
 20
7.184867564917574
 30
0.0
 10
3.242123667216063
 20
7.184867564917574
 30
0.0
 10
3.234715366182342
 20
7.192275865951287
 30
0.0
 10
3.234715366182342
 20
7.201094502949267
 30
0.0
 10
3.234715366182342
 20
7.210267069678742
 30
0.0
 10
3.242123667216063
 20
7.217675370712463
 30
0.0
 10
3.251296233945538
 20
7.217675370712463
 30
0.0
 10
3.251296233945538
 20
7.217675370712463
 30
0.0
 10
3.606543445313029
 20
7.217675370712463
 30
0.0
 10
3.606543445313029
 20
7.217675370712463
 30
0.0
 10
3.615714666302075
 20
7.217675370712463
 30
0.0
 10
3.622770383344722
 20
7.210267069678742
 30
0.0
 10
3.622770383344722
 20
7.201094502949267
 30
0.0
 10
3.622770383344722
 20
7.192275865951287
 30
0.0
 10
3.615714666302075
 20
7.184867564917574
 30
0.0
 10
3.606543445313029
 20
7.184867564917574
 30
0.0
  0
SPLINE
  5
31D
330
1F
100
AcDbEntity
  8
Livello 1
370
     0
100
AcDbSpline
210
0.0
220
0.0
230
1.0
 70
     9
 71
     3
 72
    41
 73
    37
 74
     0
 42
0.000000001
 43
0.0000000001
 40
0.0
 40
0.0
 40
0.0
 40
0.0
 40
1.0
 40
1.0
 40
1.0
 40
2.0
 40
2.0
 40
2.0
 40
3.0
 40
3.0
 40
3.0
 40
4.0
 40
4.0
 40
4.0
 40
5.0
 40
5.0
 40
5.0
 40
6.0
 40
6.0
 40
6.0
 40
7.0
 40
7.0
 40
7.0
 40
8.0
 40
8.0
 40
8.0
 40
9.0
 40
9.0
 40
9.0
 40
10.0
 40
10.0
 40
10.0
 40
11.0
 40
11.0
 40
11.0
 40
12.0
 40
12.0
 40
12.0
 40
12.0
 10
3.03945381363242
 20
7.145639231560146
 30
0.0
 10
3.032044166858291
 20
7.145639231560146
 30
0.0
 10
3.025342379547147
 20
7.150930682907016
 30
0.0
 10
3.023578113851371
 20
7.158338983940737
 30
0.0
 10
3.021461264164528
 20
7.167157620938723
 30
0.0
 10
3.027105299502487
 20
7.175977603677132
 30
0.0
 10
3.035925282240881
 20
7.177741869372894
 30
0.0
 10
3.035925282240881
 20
7.177741869372894
 30
0.0
 10
3.082844522121057
 20
7.188324772066643
 30
0.0
 10
3.082844522121057
 20
7.188324772066643
 30
0.0
 10
3.107186274909025
 20
7.191851957717744
 30
0.0
 10
3.130117691732721
 20
7.196085657091416
 30
0.0
 10
3.152695178824927
 20
7.200319356465094
 30
0.0
 10
3.182680966950833
 20
7.205610807811964
 30
0.0
 10
3.213371923058886
 20
7.211254843149923
 30
0.0
 10
3.244064224907369
 20
7.214430790550387
 30
0.0
 10
3.250060844236372
 20
7.216546294496787
 30
0.0
 10
3.256763977287938
 20
7.215841126514646
 30
0.0
 10
3.261350260652683
 20
7.211607427140982
 30
0.0
 10
3.26770080971319
 20
7.204905639829824
 30
0.0
 10
3.26911114567747
 20
7.196085657091416
 30
0.0
 10
3.262761942357386
 20
7.189736453771345
 30
0.0
 10
3.259939924688424
 20
7.186913090361947
 30
0.0
 10
3.253941959618977
 20
7.182680736728698
 30
0.0
 10
3.250060844236372
 20
7.182326806997203
 30
0.0
 10
3.219722472119393
 20
7.179152205337175
 30
0.0
 10
3.188677586279858
 20
7.173508169999216
 30
0.0
 10
3.158691798153931
 20
7.168216718652352
 30
0.0
 10
3.135409143079591
 20
7.163630435287608
 30
0.0
 10
3.112125142264829
 20
7.159396735913936
 30
0.0
 10
3.08884248719049
 20
7.156222134253894
 30
0.0
 10
3.08884248719049
 20
7.156222134253894
 30
0.0
 10
3.042980999283528
 20
7.145991815551205
 30
0.0
 10
3.042980999283528
 20
7.145991815551205
 30
0.0
 10
3.041923247310322
 20
7.145639231560146
 30
0.0
 10
3.040511565605619
 20
7.145639231560146
 30
0.0
 10
3.03945381363242
 20
7.145639231560146
 30
0.0
  0
SPLINE
  5
31E
330
1F
100
AcDbEntity
  8
Livello 1
370
     0
100
AcDbSpline
210
0.0
220
0.0
230
1.0
 70
     9
 71
     3
 72
    26
 73
    22
 74
     0
 42
0.000000001
 43
0.0000000001
 40
0.0
 40
0.0
 40
0.0
 40
0.0
 40
1.0
 40
1.0
 40
1.0
 40
2.0
 40
2.0
 40
2.0
 40
3.0
 40
3.0
 40
3.0
 40
4.0
 40
4.0
 40
4.0
 40
5.0
 40
5.0
 40
5.0
 40
6.0
 40
6.0
 40
6.0
 40
7.0
 40
7.0
 40
7.0
 40
7.0
 10
3.015887207328638
 20
7.140417758715315
 30
0.0
 10
3.008477560554503
 20
7.140417758715315
 30
0.0
 10
3.001775773243359
 20
7.145709210062186
 30
0.0
 10
3.000011507547583
 20
7.153117511095899
 30
0.0
 10
2.99789465786074
 20
7.161936148093893
 30
0.0
 10
3.003538693198684
 20
7.170756130832302
 30
0.0
 10
3.012358675937107
 20
7.172520396528064
 30
0.0
 10
3.012358675937107
 20
7.172520396528064
 30
0.0
 10
3.035995260742929
 20
7.177811847874934
 30
0.0
 10
3.035995260742929
 20
7.177811847874934
 30
0.0
 10
3.044813897740915
 20
7.17992869756177
 30
0.0
 10
3.05328129648825
 20
7.174283316483396
 30
0.0
 10
3.055398146175093
 20
7.165464679485417
 30
0.0
 10
3.057513650121506
 20
7.156644696747008
 30
0.0
 10
3.051869614783569
 20
7.147826059749021
 30
0.0
 10
3.043050977785576
 20
7.14606179405326
 30
0.0
 10
3.043050977785576
 20
7.14606179405326
 30
0.0
 10
3.01941439297974
 20
7.140770342706382
 30
0.0
 10
3.01941439297974
 20
7.140770342706382
 30
0.0
 10
3.01835664100654
 20
7.140417758715315
 30
0.0
 10
3.016944959301831
 20
7.140417758715315
 30
0.0
 10
3.015887207328638
 20
7.140417758715315
 30
0.0
  0
SPLINE
  5
31F
330
1F
100
AcDbEntity
  8
Livello 1
370
     0
100
AcDbSpline
210
0.0
220
0.0
230
1.0
 70
     9
 71
     3
 72
   272
 73
   268
 74
     0
 42
0.000000001
 43
0.0000000001
 40
0.0
 40
0.0
 40
0.0
 40
0.0
 40
1.0
 40
1.0
 40
1.0
 40
2.0
 40
2.0
 40
2.0
 40
3.0
 40
3.0
 40
3.0
 40
4.0
 40
4.0
 40
4.0
 40
5.0
 40
5.0
 40
5.0
 40
6.0
 40
6.0
 40
6.0
 40
7.0
 40
7.0
 40
7.0
 40
8.0
 40
8.0
 40
8.0
 40
9.0
 40
9.0
 40
9.0
 40
10.0
 40
10.0
 40
10.0
 40
11.0
 40
11.0
 40
11.0
 40
12.0
 40
12.0
 40
12.0
 40
13.0
 40
13.0
 40
13.0
 40
14.0
 40
14.0
 40
14.0
 40
15.0
 40
15.0
 40
15.0
 40
16.0
 40
16.0
 40
16.0
 40
17.0
 40
17.0
 40
17.0
 40
18.0
 40
18.0
 40
18.0
 40
19.0
 40
19.0
 40
19.0
 40
20.0
 40
20.0
 40
20.0
 40
21.0
 40
21.0
 40
21.0
 40
22.0
 40
22.0
 40
22.0
 40
23.0
 40
23.0
 40
23.0
 40
24.0
 40
24.0
 40
24.0
 40
25.0
 40
25.0
 40
25.0
 40
26.0
 40
26.0
 40
26.0
 40
27.0
 40
27.0
 40
27.0
 40
28.0
 40
28.0
 40
28.0
 40
29.0
 40
29.0
 40
29.0
 40
30.0
 40
30.0
 40
30.0
 40
31.0
 40
31.0
 40
31.0
 40
32.0
 40
32.0
 40
32.0
 40
33.0
 40
33.0
 40
33.0
 40
34.0
 40
34.0
 40
34.0
 40
35.0
 40
35.0
 40
35.0
 40
36.0
 40
36.0
 40
36.0
 40
37.0
 40
37.0
 40
37.0
 40
38.0
 40
38.0
 40
38.0
 40
39.0
 40
39.0
 40
39.0
 40
40.0
 40
40.0
 40
40.0
 40
41.0
 40
41.0
 40
41.0
 40
42.0
 40
42.0
 40
42.0
 40
43.0
 40
43.0
 40
43.0
 40
44.0
 40
44.0
 40
44.0
 40
45.0
 40
45.0
 40
45.0
 40
46.0
 40
46.0
 40
46.0
 40
47.0
 40
47.0
 40
47.0
 40
48.0
 40
48.0
 40
48.0
 40
49.0
 40
49.0
 40
49.0
 40
50.0
 40
50.0
 40
50.0
 40
51.0
 40
51.0
 40
51.0
 40
52.0
 40
52.0
 40
52.0
 40
53.0
 40
53.0
 40
53.0
 40
54.0
 40
54.0
 40
54.0
 40
55.0
 40
55.0
 40
55.0
 40
56.0
 40
56.0
 40
56.0
 40
57.0
 40
57.0
 40
57.0
 40
58.0
 40
58.0
 40
58.0
 40
59.0
 40
59.0
 40
59.0
 40
60.0
 40
60.0
 40
60.0
 40
61.0
 40
61.0
 40
61.0
 40
62.0
 40
62.0
 40
62.0
 40
63.0
 40
63.0
 40
63.0
 40
64.0
 40
64.0
 40
64.0
 40
65.0
 40
65.0
 40
65.0
 40
66.0
 40
66.0
 40
66.0
 40
67.0
 40
67.0
 40
67.0
 40
68.0
 40
68.0
 40
68.0
 40
69.0
 40
69.0
 40
69.0
 40
70.0
 40
70.0
 40
70.0
 40
71.0
 40
71.0
 40
71.0
 40
72.0
 40
72.0
 40
72.0
 40
73.0
 40
73.0
 40
73.0
 40
74.0
 40
74.0
 40
74.0
 40
75.0
 40
75.0
 40
75.0
 40
76.0
 40
76.0
 40
76.0
 40
77.0
 40
77.0
 40
77.0
 40
78.0
 40
78.0
 40
78.0
 40
79.0
 40
79.0
 40
79.0
 40
80.0
 40
80.0
 40
80.0
 40
81.0
 40
81.0
 40
81.0
 40
82.0
 40
82.0
 40
82.0
 40
83.0
 40
83.0
 40
83.0
 40
84.0
 40
84.0
 40
84.0
 40
85.0
 40
85.0
 40
85.0
 40
86.0
 40
86.0
 40
86.0
 40
87.0
 40
87.0
 40
87.0
 40
88.0
 40
88.0
 40
88.0
 40
89.0
 40
89.0
 40
89.0
 40
89.0
 10
4.539923434279849
 20
5.318849089957524
 30
0.0
 10
4.52334256651666
 20
5.318849089957524
 30
0.0
 10
4.503939681084496
 20
5.322023691617559
 30
0.0
 10
4.486653645339174
 20
5.324845709286528
 30
0.0
 10
4.486653645339174
 20
5.324845709286528
 30
0.0
 10
4.474306476949642
 20
5.326962558973363
 30
0.0
 10
4.474306476949642
 20
5.326962558973363
 30
0.0
 10
4.474306476949642
 20
5.326962558973363
 30
0.0
 10
4.471484459280681
 20
5.326609974982304
 30
0.0
 10
4.471484459280681
 20
5.326609974982304
 30
0.0
 10
4.469015025602779
 20
5.326609974982304
 30
0.0
 10
4.466545591924877
 20
5.32731514296443
 30
0.0
 10
4.46407615824696
 20
5.328372894937636
 30
0.0
 10
4.46407615824696
 20
5.328372894937636
 30
0.0
 10
4.46090021084651
 20
5.329431992651272
 30
0.0
 10
4.46090021084651
 20
5.329431992651272
 30
0.0
 10
4.458430777168608
 20
5.329431992651272
 30
0.0
 10
4.455961343490692
 20
5.329784576642325
 30
0.0
 10
4.453844493803863
 20
5.331196258347034
 30
0.0
 10
4.453844493803863
 20
5.331196258347034
 30
0.0
 10
4.450669892143828
 20
5.331901426329174
 30
0.0
 10
4.450669892143828
 20
5.331901426329174
 30
0.0
 10
4.448200458465919
 20
5.331901426329174
 30
0.0
 10
4.445731024788017
 20
5.332606594311315
 30
0.0
 10
4.4432615911101
 20
5.333665692024936
 30
0.0
 10
4.4432615911101
 20
5.333665692024936
 30
0.0
 10
4.440086989450072
 20
5.334723443998136
 30
0.0
 10
4.440086989450072
 20
5.334723443998136
 30
0.0
 10
4.43761755577217
 20
5.334723443998136
 30
0.0
 10
4.435148122094268
 20
5.335076027989209
 30
0.0
 10
4.433031272407426
 20
5.336487709693912
 30
0.0
 10
4.433031272407426
 20
5.336487709693912
 30
0.0
 10
4.429856670747383
 20
5.337192877676045
 30
0.0
 10
4.429856670747383
 20
5.337192877676045
 30
0.0
 10
4.427387237069488
 20
5.337192877676045
 30
0.0
 10
4.424917803391579
 20
5.337898045658185
 30
0.0
 10
4.422448369713677
 20
5.338957143371814
 30
0.0
 10
4.422448369713677
 20
5.338957143371814
 30
0.0
 10
4.41715557262637
 20
5.341426577049716
 30
0.0
 10
4.41715557262637
 20
5.341426577049716
 30
0.0
 10
4.416802988635311
 20
5.341779161040783
 30
0.0
 10
4.416097820653178
 20
5.342131745031856
 30
0.0
 10
4.415745236662111
 20
5.342484329022923
 30
0.0
 10
4.413275802984188
 20
5.342484329022923
 30
0.0
 10
4.411158953297352
 20
5.343189497005063
 30
0.0
 10
4.409394687601604
 20
5.344248594718685
 30
0.0
 10
4.409394687601604
 20
5.344248594718685
 30
0.0
 10
4.400928634594677
 20
5.347775780369808
 30
0.0
 10
4.400928634594677
 20
5.347775780369808
 30
0.0
 10
4.398459200916775
 20
5.347775780369808
 30
0.0
 10
4.395989767238873
 20
5.348128364360874
 30
0.0
 10
4.393872917552037
 20
5.349187462074496
 30
0.0
 10
4.393872917552037
 20
5.349187462074496
 30
0.0
 10
4.383290014858282
 20
5.354478913421374
 30
0.0
 10
4.383290014858282
 20
5.354478913421374
 30
0.0
 10
4.381525749162527
 20
5.355536665394573
 30
0.0
 10
4.380114067457817
 20
5.356595763108209
 30
0.0
 10
4.379056315484618
 20
5.357653515081416
 30
0.0
 10
4.379056315484618
 20
5.357653515081416
 30
0.0
 10
4.378351147502478
 20
5.358006099072483
 30
0.0
 10
4.378351147502478
 20
5.358006099072483
 30
0.0
 10
4.369178580773009
 20
5.358712612795045
 30
0.0
 10
4.362122863730348
 20
5.363651480150849
 30
0.0
 10
4.357536580365618
 20
5.366826081810884
 30
0.0
 10
4.355772314669842
 20
5.36788517952452
 30
0.0
 10
4.354009394714502
 20
5.369295515488786
 30
0.0
 10
4.35295029700088
 20
5.36964809947986
 30
0.0
 10
4.35295029700088
 20
5.36964809947986
 30
0.0
 10
4.341308296593489
 20
5.3756460645493
 30
0.0
 10
4.341308296593489
 20
5.3756460645493
 30
0.0
 10
4.339897960629222
 20
5.376351232531426
 30
0.0
 10
4.338486278924527
 20
5.37740898450464
 30
0.0
 10
4.33742852695132
 20
5.378468082218276
 30
0.0
 10
4.33742852695132
 20
5.378468082218276
 30
0.0
 10
4.322964508874967
 20
5.385876383251982
 30
0.0
 10
4.322964508874967
 20
5.385876383251982
 30
0.0
 10
4.321552827170272
 20
5.386934135225182
 30
0.0
 10
4.320142491205992
 20
5.387993232938818
 30
0.0
 10
4.318730809501289
 20
5.389050984912032
 30
0.0
 10
4.318730809501289
 20
5.389050984912032
 30
0.0
 10
4.30991217250331
 20
5.393989852267829
 30
0.0
 10
4.30991217250331
 20
5.393989852267829
 30
0.0
 10
4.306736225102852
 20
5.395401533972531
 30
0.0
 10
4.304266791424936
 20
5.397870967650426
 30
0.0
 10
4.302856455460677
 20
5.401045569310483
 30
0.0
 10
4.302856455460677
 20
5.401045569310483
 30
0.0
 10
4.302149941738107
 20
5.401750737292601
 30
0.0
 10
4.302149941738107
 20
5.401750737292601
 30
0.0
 10
4.300739605773827
 20
5.402457251015171
 30
0.0
 10
4.299327924069132
 20
5.403515002988378
 30
0.0
 10
4.297917588104859
 20
5.404572754961598
 30
0.0
 10
4.297917588104859
 20
5.404572754961598
 30
0.0
 10
4.289097605366457
 20
5.409512968057811
 30
0.0
 10
4.289097605366457
 20
5.409512968057811
 30
0.0
 10
4.285923003706415
 20
5.410923304022091
 30
0.0
 10
4.283453570028505
 20
5.413745321691067
 30
0.0
 10
4.281689304332751
 20
5.416921269091524
 30
0.0
 10
4.281689304332751
 20
5.416921269091524
 30
0.0
 10
4.281336720341677
 20
5.417273853082591
 30
0.0
 10
4.281336720341677
 20
5.417273853082591
 30
0.0
 10
4.279925038636967
 20
5.417979021064731
 30
0.0
 10
4.278162118681635
 20
5.419036773037937
 30
0.0
 10
4.277103020967999
 20
5.420448454742633
 30
0.0
 10
4.277103020967999
 20
5.420448454742633
 30
0.0
 10
4.273575835316897
 20
5.422565304429461
 30
0.0
 10
4.273575835316897
 20
5.422565304429461
 30
0.0
 10
4.270399887916425
 20
5.424329570125237
 30
0.0
 10
4.267930454238523
 20
5.426799003803139
 30
0.0
 10
4.266167534283184
 20
5.429621021472122
 30
0.0
 10
4.266167534283184
 20
5.429621021472122
 30
0.0
 10
4.265461020560621
 20
5.430326189454248
 30
0.0
 10
4.265461020560621
 20
5.430326189454248
 30
0.0
 10
4.264050684596348
 20
5.431383941427462
 30
0.0
 10
4.262639002891646
 20
5.432090455150024
 30
0.0
 10
4.261581250918446
 20
5.433500791114283
 30
0.0
 10
4.261581250918446
 20
5.433500791114283
 30
0.0
 10
4.2534677819026
 20
5.44126167613907
 30
0.0
 10
4.2534677819026
 20
5.44126167613907
 30
0.0
 10
4.252408684188964
 20
5.442320773852699
 30
0.0
 10
4.248881498537855
 20
5.446554473226377
 30
0.0
 10
4.247822400824219
 20
5.447964809190636
 30
0.0
 10
4.247822400824219
 20
5.447964809190636
 30
0.0
 10
4.24641206485996
 20
5.451140756591108
 30
0.0
 10
4.24641206485996
 20
5.451140756591108
 30
0.0
 10
4.24641206485996
 20
5.451140756591108
 30
0.0
 10
4.193142275919271
 20
5.506878633469256
 30
0.0
 10
4.193142275919271
 20
5.506878633469256
 30
0.0
 10
4.186791726858778
 20
5.513581766520843
 30
0.0
 10
4.18714565659026
 20
5.523812085223525
 30
0.0
 10
4.193847443901418
 20
5.530162634284032
 30
0.0
 10
4.200197992961918
 20
5.536159253613035
 30
0.0
 10
4.210428311664607
 20
5.535806669621962
 30
0.0
 10
4.216778860725106
 20
5.529456120561455
 30
0.0
 10
4.216778860725106
 20
5.529456120561455
 30
0.0
 10
4.271811569621121
 20
5.47195397798756
 30
0.0
 10
4.271811569621121
 20
5.47195397798756
 30
0.0
 10
4.272869321594328
 20
5.470896226014339
 30
0.0
 10
4.273575835316897
 20
5.469484544309636
 30
0.0
 10
4.27428100329903
 20
5.468072862604934
 30
0.0
 10
4.27428100329903
 20
5.468072862604934
 30
0.0
 10
4.276045268994799
 20
5.465250844935972
 30
0.0
 10
4.276045268994799
 20
5.465250844935972
 30
0.0
 10
4.276045268994799
 20
5.465250844935972
 30
0.0
 10
4.285570419715341
 20
5.456784791929052
 30
0.0
 10
4.285570419715341
 20
5.456784791929052
 30
0.0
 10
4.288745021375383
 20
5.455373110224364
 30
0.0
 10
4.291214455053285
 20
5.452903676546448
 30
0.0
 10
4.292626136757988
 20
5.449729074886406
 30
0.0
 10
4.292626136757988
 20
5.449729074886406
 30
0.0
 10
4.293331304740121
 20
5.449023906904265
 30
0.0
 10
4.293331304740121
 20
5.449023906904265
 30
0.0
 10
4.29509557043589
 20
5.448317393181703
 30
0.0
 10
4.296153322409089
 20
5.447259641208496
 30
0.0
 10
4.297565004113792
 20
5.446200543494882
 30
0.0
 10
4.297565004113792
 20
5.446200543494882
 30
0.0
 10
4.301092189764901
 20
5.444085039548461
 30
0.0
 10
4.301092189764901
 20
5.444085039548461
 30
0.0
 10
4.304266791424936
 20
5.442320773852699
 30
0.0
 10
4.306736225102852
 20
5.439851340174797
 30
0.0
 10
4.308500490798614
 20
5.436676738514755
 30
0.0
 10
4.308500490798614
 20
5.436676738514755
 30
0.0
 10
4.308500490798614
 20
5.436322808783252
 30
0.0
 10
4.308500490798614
 20
5.436322808783252
 30
0.0
 10
4.308500490798614
 20
5.436322808783252
 30
0.0
 10
4.314144526136558
 20
5.433500791114283
 30
0.0
 10
4.314144526136558
 20
5.433500791114283
 30
0.0
 10
4.31590879183232
 20
5.432795623132143
 30
0.0
 10
4.317320473537023
 20
5.431737871158951
 30
0.0
 10
4.318378225510244
 20
5.430326189454248
 30
0.0
 10
4.318378225510244
 20
5.430326189454248
 30
0.0
 10
4.322259340892827
 20
5.428209339767406
 30
0.0
 10
4.322259340892827
 20
5.428209339767406
 30
0.0
 10
4.32508135856181
 20
5.426445074071644
 30
0.0
 10
4.327550792239712
 20
5.423975640393742
 30
0.0
 10
4.329315057935474
 20
5.421153622724773
 30
0.0
 10
4.329315057935474
 20
5.421153622724773
 30
0.0
 10
4.330020225917607
 20
5.420448454742633
 30
0.0
 10
4.330020225917607
 20
5.420448454742633
 30
0.0
 10
4.330020225917607
 20
5.420448454742633
 30
0.0
 10
4.334959093273418
 20
5.417979021064731
 30
0.0
 10
4.334959093273418
 20
5.417979021064731
 30
0.0
 10
4.33672335896918
 20
5.416921269091524
 30
0.0
 10
4.338133694933468
 20
5.415862171377895
 30
0.0
 10
4.339545376638149
 20
5.414451835413622
 30
0.0
 10
4.339545376638149
 20
5.414451835413622
 30
0.0
 10
4.35330288099194
 20
5.407396118370982
 30
0.0
 10
4.35330288099194
 20
5.407396118370982
 30
0.0
 10
4.355067146687716
 20
5.40668960464842
 30
0.0
 10
4.356478828392418
 20
5.405631852675206
 30
0.0
 10
4.357536580365618
 20
5.404220170970525
 30
0.0
 10
4.357536580365618
 20
5.404220170970525
 30
0.0
 10
4.366356563104027
 20
5.399633887605773
 30
0.0
 10
4.366356563104027
 20
5.399633887605773
 30
0.0
 10
4.369883748755135
 20
5.398223551641493
 30
0.0
 10
4.373412280146673
 20
5.395754117963598
 30
0.0
 10
4.376234297815642
 20
5.393637268276755
 30
0.0
 10
4.377997217770982
 20
5.392579516303555
 30
0.0
 10
4.380466651448898
 20
5.390815250607786
 30
0.0
 10
4.381173165171439
 20
5.39046266661672
 30
0.0
 10
4.384700350822569
 20
5.391167834598853
 30
0.0
 10
4.386817200509391
 20
5.39046266661672
 30
0.0
 10
4.389991802169433
 20
5.389050984912032
 30
0.0
 10
4.389991802169433
 20
5.389050984912032
 30
0.0
 10
4.395283253516318
 20
5.386581551234122
 30
0.0
 10
4.395283253516318
 20
5.386581551234122
 30
0.0
 10
4.396694935220999
 20
5.385523799260923
 30
0.0
 10
4.398106616925701
 20
5.384817285538346
 30
0.0
 10
4.399516952889996
 20
5.38340694957408
 30
0.0
 10
4.399516952889996
 20
5.38340694957408
 30
0.0
 10
4.406220085941562
 20
5.380232347914038
 30
0.0
 10
4.406220085941562
 20
5.380232347914038
 30
0.0
 10
4.40868951961945
 20
5.380232347914038
 30
0.0
 10
4.411158953297352
 20
5.379878418182556
 30
0.0
 10
4.413628386975254
 20
5.378468082218276
 30
0.0
 10
4.413628386975254
 20
5.378468082218276
 30
0.0
 10
4.422094439982181
 20
5.374939550826738
 30
0.0
 10
4.422094439982181
 20
5.374939550826738
 30
0.0
 10
4.42632813935586
 20
5.374939550826738
 30
0.0
 10
4.430561838729531
 20
5.373176630871391
 30
0.0
 10
4.433736440389566
 20
5.370354613202422
 30
0.0
 10
4.433736440389566
 20
5.370354613202422
 30
0.0
 10
4.434795538103188
 20
5.370000683470927
 30
0.0
 10
4.434795538103188
 20
5.370000683470927
 30
0.0
 10
4.43761755577217
 20
5.370000683470927
 30
0.0
 10
4.440086989450072
 20
5.369295515488786
 30
0.0
 10
4.442203839136901
 20
5.368237763515587
 30
0.0
 10
4.442203839136901
 20
5.368237763515587
 30
0.0
 10
4.445378440796943
 20
5.367178665801958
 30
0.0
 10
4.445378440796943
 20
5.367178665801958
 30
0.0
 10
4.447847874474859
 20
5.367178665801958
 30
0.0
 10
4.450317308152747
 20
5.366826081810884
 30
0.0
 10
4.452786741830649
 20
5.365415745846625
 30
0.0
 10
4.452786741830649
 20
5.365415745846625
 30
0.0
 10
4.455961343490692
 20
5.364709232124063
 30
0.0
 10
4.455961343490692
 20
5.364709232124063
 30
0.0
 10
4.458430777168608
 20
5.364709232124063
 30
0.0
 10
4.46090021084651
 20
5.364004064141923
 30
0.0
 10
4.463017060533331
 20
5.362946312168716
 30
0.0
 10
4.463017060533331
 20
5.362946312168716
 30
0.0
 10
4.466191662193388
 20
5.36188721445508
 30
0.0
 10
4.466191662193388
 20
5.36188721445508
 30
0.0
 10
4.469015025602779
 20
5.36188721445508
 30
0.0
 10
4.471484459280681
 20
5.361534630463999
 30
0.0
 10
4.473599963227094
 20
5.360122948759318
 30
0.0
 10
4.473599963227094
 20
5.360122948759318
 30
0.0
 10
4.476775910627566
 20
5.359417780777178
 30
0.0
 10
4.476775910627566
 20
5.359417780777178
 30
0.0
 10
4.476775910627566
 20
5.359417780777178
 30
0.0
 10
4.491945096686045
 20
5.357300931090342
 30
0.0
 10
4.491945096686045
 20
5.357300931090342
 30
0.0
 10
4.50958371642244
 20
5.354126329430307
 30
0.0
 10
4.528986601854604
 20
5.350597798038769
 30
0.0
 10
4.544155787913098
 20
5.351656895752391
 30
0.0
 10
4.544155787913098
 20
5.351656895752391
 30
0.0
 10
4.560384071685213
 20
5.351656895752391
 30
0.0
 10
4.560384071685213
 20
5.351656895752391
 30
0.0
 10
4.569556638414688
 20
5.351656895752391
 30
0.0
 10
4.57661100971692
 20
5.344248594718685
 30
0.0
 10
4.57661100971692
 20
5.335428611980276
 30
0.0
 10
4.57661100971692
 20
5.326257390991223
 30
0.0
 10
4.569556638414688
 20
5.318849089957524
 30
0.0
 10
4.560384071685213
 20
5.318849089957524
 30
0.0
 10
4.560384071685213
 20
5.318849089957524
 30
0.0
 10
4.544862301635653
 20
5.318849089957524
 30
0.0
 10
4.544862301635653
 20
5.318849089957524
 30
0.0
 10
4.543098035939891
 20
5.318849089957524
 30
0.0
 10
4.541686354235181
 20
5.318849089957524
 30
0.0
 10
4.539923434279849
 20
5.318849089957524
 30
0.0
  0
SPLINE
  5
320
330
1F
100
AcDbEntity
  8
Livello 1
370
     0
100
AcDbSpline
210
0.0
220
0.0
230
1.0
 70
     9
 71
     3
 72
    32
 73
    28
 74
     0
 42
0.000000001
 43
0.0000000001
 40
0.0
 40
0.0
 40
0.0
 40
0.0
 40
1.0
 40
1.0
 40
1.0
 40
2.0
 40
2.0
 40
2.0
 40
3.0
 40
3.0
 40
3.0
 40
4.0
 40
4.0
 40
4.0
 40
5.0
 40
5.0
 40
5.0
 40
6.0
 40
6.0
 40
6.0
 40
7.0
 40
7.0
 40
7.0
 40
8.0
 40
8.0
 40
8.0
 40
9.0
 40
9.0
 40
9.0
 40
9.0
 10
4.811279879100652
 20
5.321531150622398
 30
0.0
 10
4.811279879100652
 20
5.321531150622398
 30
0.0
 10
4.56045405018726
 20
5.321531150622398
 30
0.0
 10
4.56045405018726
 20
5.321531150622398
 30
0.0
 10
4.551281483457771
 20
5.321531150622398
 30
0.0
 10
4.544225766415138
 20
5.328939451656104
 30
0.0
 10
4.544225766415138
 20
5.337758088654098
 30
0.0
 10
4.544225766415138
 20
5.346930655383566
 30
0.0
 10
4.551281483457771
 20
5.354338956417286
 30
0.0
 10
4.56045405018726
 20
5.354338956417286
 30
0.0
 10
4.56045405018726
 20
5.354338956417286
 30
0.0
 10
4.795051595328537
 20
5.354338956417286
 30
0.0
 10
4.795051595328537
 20
5.354338956417286
 30
0.0
 10
4.795051595328537
 20
5.354338956417286
 30
0.0
 10
4.795051595328537
 20
5.518028092881486
 30
0.0
 10
4.795051595328537
 20
5.518028092881486
 30
0.0
 10
4.795051595328537
 20
5.527199313870532
 30
0.0
 10
4.802107312371177
 20
5.534607614904253
 30
0.0
 10
4.811279879100652
 20
5.534607614904253
 30
0.0
 10
4.820451100089712
 20
5.534607614904253
 30
0.0
 10
4.827506817132359
 20
5.527199313870532
 30
0.0
 10
4.827506817132359
 20
5.518028092881486
 30
0.0
 10
4.827506817132359
 20
5.518028092881486
 30
0.0
 10
4.827506817132359
 20
5.337758088654098
 30
0.0
 10
4.827506817132359
 20
5.337758088654098
 30
0.0
 10
4.827506817132359
 20
5.328939451656104
 30
0.0
 10
4.820451100089712
 20
5.321531150622398
 30
0.0
 10
4.811279879100652
 20
5.321531150622398
 30
0.0
  0
SPLINE
  5
321
330
1F
100
AcDbEntity
  8
Livello 1
370
     0
100
AcDbSpline
210
0.0
220
0.0
230
1.0
 70
     9
 71
     3
 72
   233
 73
   229
 74
     0
 42
0.000000001
 43
0.0000000001
 40
0.0
 40
0.0
 40
0.0
 40
0.0
 40
1.0
 40
1.0
 40
1.0
 40
2.0
 40
2.0
 40
2.0
 40
3.0
 40
3.0
 40
3.0
 40
4.0
 40
4.0
 40
4.0
 40
5.0
 40
5.0
 40
5.0
 40
6.0
 40
6.0
 40
6.0
 40
7.0
 40
7.0
 40
7.0
 40
8.0
 40
8.0
 40
8.0
 40
9.0
 40
9.0
 40
9.0
 40
10.0
 40
10.0
 40
10.0
 40
11.0
 40
11.0
 40
11.0
 40
12.0
 40
12.0
 40
12.0
 40
13.0
 40
13.0
 40
13.0
 40
14.0
 40
14.0
 40
14.0
 40
15.0
 40
15.0
 40
15.0
 40
16.0
 40
16.0
 40
16.0
 40
17.0
 40
17.0
 40
17.0
 40
18.0
 40
18.0
 40
18.0
 40
19.0
 40
19.0
 40
19.0
 40
20.0
 40
20.0
 40
20.0
 40
21.0
 40
21.0
 40
21.0
 40
22.0
 40
22.0
 40
22.0
 40
23.0
 40
23.0
 40
23.0
 40
24.0
 40
24.0
 40
24.0
 40
25.0
 40
25.0
 40
25.0
 40
26.0
 40
26.0
 40
26.0
 40
27.0
 40
27.0
 40
27.0
 40
28.0
 40
28.0
 40
28.0
 40
29.0
 40
29.0
 40
29.0
 40
30.0
 40
30.0
 40
30.0
 40
31.0
 40
31.0
 40
31.0
 40
32.0
 40
32.0
 40
32.0
 40
33.0
 40
33.0
 40
33.0
 40
34.0
 40
34.0
 40
34.0
 40
35.0
 40
35.0
 40
35.0
 40
36.0
 40
36.0
 40
36.0
 40
37.0
 40
37.0
 40
37.0
 40
38.0
 40
38.0
 40
38.0
 40
39.0
 40
39.0
 40
39.0
 40
40.0
 40
40.0
 40
40.0
 40
41.0
 40
41.0
 40
41.0
 40
42.0
 40
42.0
 40
42.0
 40
43.0
 40
43.0
 40
43.0
 40
44.0
 40
44.0
 40
44.0
 40
45.0
 40
45.0
 40
45.0
 40
46.0
 40
46.0
 40
46.0
 40
47.0
 40
47.0
 40
47.0
 40
48.0
 40
48.0
 40
48.0
 40
49.0
 40
49.0
 40
49.0
 40
50.0
 40
50.0
 40
50.0
 40
51.0
 40
51.0
 40
51.0
 40
52.0
 40
52.0
 40
52.0
 40
53.0
 40
53.0
 40
53.0
 40
54.0
 40
54.0
 40
54.0
 40
55.0
 40
55.0
 40
55.0
 40
56.0
 40
56.0
 40
56.0
 40
57.0
 40
57.0
 40
57.0
 40
58.0
 40
58.0
 40
58.0
 40
59.0
 40
59.0
 40
59.0
 40
60.0
 40
60.0
 40
60.0
 40
61.0
 40
61.0
 40
61.0
 40
62.0
 40
62.0
 40
62.0
 40
63.0
 40
63.0
 40
63.0
 40
64.0
 40
64.0
 40
64.0
 40
65.0
 40
65.0
 40
65.0
 40
66.0
 40
66.0
 40
66.0
 40
67.0
 40
67.0
 40
67.0
 40
68.0
 40
68.0
 40
68.0
 40
69.0
 40
69.0
 40
69.0
 40
70.0
 40
70.0
 40
70.0
 40
71.0
 40
71.0
 40
71.0
 40
72.0
 40
72.0
 40
72.0
 40
73.0
 40
73.0
 40
73.0
 40
74.0
 40
74.0
 40
74.0
 40
75.0
 40
75.0
 40
75.0
 40
76.0
 40
76.0
 40
76.0
 40
76.0
 10
4.259853320214119
 20
7.299838206554817
 30
0.0
 10
4.255619620840462
 20
7.299838206554817
 30
0.0
 10
4.251385921466784
 20
7.301248542519104
 30
0.0
 10
4.248211319806742
 20
7.304423144179132
 30
0.0
 10
4.241860770746235
 20
7.311126277230712
 30
0.0
 10
4.241860770746235
 20
7.321356595933401
 30
0.0
 10
4.248211319806742
 20
7.327707144993894
 30
0.0
 10
4.248211319806742
 20
7.327707144993894
 30
0.0
 10
4.264085673847368
 20
7.343228915043461
 30
0.0
 10
4.264085673847368
 20
7.343228915043461
 30
0.0
 10
4.269377125194239
 20
7.347815198408206
 30
0.0
 10
4.271493974881082
 20
7.349226880112894
 30
0.0
 10
4.273610824567917
 20
7.350637216077174
 30
0.0
 10
4.275375090263679
 20
7.351696313790796
 30
0.0
 10
4.276080258245819
 20
7.352401481772936
 30
0.0
 10
4.281724293583764
 20
7.358398101101954
 30
0.0
 10
4.283135975288452
 20
7.359809782806642
 30
0.0
 10
4.284547656993169
 20
7.361221464511345
 30
0.0
 10
4.286310576948508
 20
7.362279216484559
 30
0.0
 10
4.286310576948508
 20
7.362279216484559
 30
0.0
 10
4.289486524348959
 20
7.363690898189247
 30
0.0
 10
4.289486524348959
 20
7.363690898189247
 30
0.0
 10
4.289486524348959
 20
7.363690898189247
 30
0.0
 10
4.295130559686917
 20
7.369687517518272
 30
0.0
 10
4.295130559686917
 20
7.369687517518272
 30
0.0
 10
4.296540895651183
 20
7.370745269491465
 30
0.0
 10
4.297952577355886
 20
7.371804367205093
 30
0.0
 10
4.299364259060581
 20
7.372509535187234
 30
0.0
 10
4.299364259060581
 20
7.372509535187234
 30
0.0
 10
4.302538860720623
 20
7.374273800882995
 30
0.0
 10
4.302538860720623
 20
7.374273800882995
 30
0.0
 10
4.304303126416385
 20
7.375684136847276
 30
0.0
 10
4.306419976103228
 20
7.377448402543052
 30
0.0
 10
4.307477728076428
 20
7.377800986534111
 30
0.0
 10
4.307477728076428
 20
7.377800986534111
 30
0.0
 10
4.31065232973647
 20
7.379212668238814
 30
0.0
 10
4.31065232973647
 20
7.379212668238814
 30
0.0
 10
4.312064011441172
 20
7.380976933934576
 30
0.0
 10
4.314180861128001
 20
7.382387269898856
 30
0.0
 10
4.3152386131012
 20
7.383092437880996
 30
0.0
 10
4.3152386131012
 20
7.383092437880996
 30
0.0
 10
4.33287723283761
 20
7.392617588601531
 30
0.0
 10
4.33287723283761
 20
7.392617588601531
 30
0.0
 10
4.348400348627585
 20
7.401790155330999
 30
0.0
 10
4.364274702668218
 20
7.411315306051562
 30
0.0
 10
4.380502986440333
 20
7.419781359058482
 30
0.0
 10
4.382972420118235
 20
7.420840456772111
 30
0.0
 10
4.385441853796145
 20
7.421193040763171
 30
0.0
 10
4.38791128747404
 20
7.421193040763171
 30
0.0
 10
4.38791128747404
 20
7.421193040763171
 30
0.0
 10
4.38896903944726
 20
7.421193040763171
 30
0.0
 10
4.38896903944726
 20
7.421193040763171
 30
0.0
 10
4.390733305143008
 20
7.422957306458933
 30
0.0
 10
4.392850154829851
 20
7.424367642423213
 30
0.0
 10
4.393555322811991
 20
7.424720226414279
 30
0.0
 10
4.393555322811991
 20
7.424720226414279
 30
0.0
 10
4.398846774158869
 20
7.427543589823677
 30
0.0
 10
4.398846774158869
 20
7.427543589823677
 30
0.0
 10
4.401316207836778
 20
7.428601341796884
 30
0.0
 10
4.40378564151468
 20
7.429306509779024
 30
0.0
 10
4.406255075192575
 20
7.429306509779024
 30
0.0
 10
4.406255075192575
 20
7.429306509779024
 30
0.0
 10
4.409431022593039
 20
7.430013023501579
 30
0.0
 10
4.409431022593039
 20
7.430013023501579
 30
0.0
 10
4.409431022593039
 20
7.430013023501579
 30
0.0
 10
4.414722473939924
 20
7.432835041170562
 30
0.0
 10
4.414722473939924
 20
7.432835041170562
 30
0.0
 10
4.416839323626753
 20
7.433892793143762
 30
0.0
 10
4.419308757304655
 20
7.434599306866324
 30
0.0
 10
4.421778190982557
 20
7.434599306866324
 30
0.0
 10
4.421778190982557
 20
7.434599306866324
 30
0.0
 10
4.423541110937897
 20
7.434599306866324
 30
0.0
 10
4.423541110937897
 20
7.434599306866324
 30
0.0
 10
4.426717058338361
 20
7.437068740544233
 30
0.0
 10
4.43165592569418
 20
7.439538174222128
 30
0.0
 10
4.434830527354222
 20
7.439538174222128
 30
0.0
 10
4.434830527354222
 20
7.439538174222128
 30
0.0
 10
4.43800512901425
 20
7.440595926195342
 30
0.0
 10
4.43800512901425
 20
7.440595926195342
 30
0.0
 10
4.440474562692152
 20
7.441653678168535
 30
0.0
 10
4.442943996370068
 20
7.442360191891097
 30
0.0
 10
4.445413430047977
 20
7.442360191891097
 30
0.0
 10
4.445413430047977
 20
7.442360191891097
 30
0.0
 10
4.448589377448435
 20
7.443065359873237
 30
0.0
 10
4.448589377448435
 20
7.443065359873237
 30
0.0
 10
4.450704881394848
 20
7.444123111846437
 30
0.0
 10
4.45317431507275
 20
7.444829625569013
 30
0.0
 10
4.455997678482148
 20
7.444829625569013
 30
0.0
 10
4.455997678482148
 20
7.444829625569013
 30
0.0
 10
4.45881969615111
 20
7.445887377542213
 30
0.0
 10
4.45881969615111
 20
7.445887377542213
 30
0.0
 10
4.461289129829012
 20
7.446946475255842
 30
0.0
 10
4.463758563506928
 20
7.447651643237982
 30
0.0
 10
4.466227997184837
 20
7.447651643237982
 30
0.0
 10
4.466227997184837
 20
7.447651643237982
 30
0.0
 10
4.474694050191743
 20
7.448356811220122
 30
0.0
 10
4.474694050191743
 20
7.448356811220122
 30
0.0
 10
4.476458315887512
 20
7.449415908933744
 30
0.0
 10
4.478575165574348
 20
7.449768492924818
 30
0.0
 10
4.480692015261183
 20
7.450121076915884
 30
0.0
 10
4.489510652259163
 20
7.450826244898024
 30
0.0
 10
4.496213785310743
 20
7.451885342611646
 30
0.0
 10
4.502210404639754
 20
7.452943094584846
 30
0.0
 10
4.513852405047138
 20
7.454707360280622
 30
0.0
 10
4.525494405454509
 20
7.456824209967464
 30
0.0
 10
4.545955042859887
 20
7.455412528262762
 30
0.0
 10
4.545955042859887
 20
7.455412528262762
 30
0.0
 10
4.553010759902534
 20
7.456117696244895
 30
0.0
 10
4.553010759902534
 20
7.456117696244895
 30
0.0
 10
4.555480193580422
 20
7.457176793958524
 30
0.0
 10
4.557949627258338
 20
7.457881961940664
 30
0.0
 10
4.56041906093624
 20
7.457881961940664
 30
0.0
 10
4.56041906093624
 20
7.457881961940664
 30
0.0
 10
4.811244889849639
 20
7.457881961940664
 30
0.0
 10
4.811244889849639
 20
7.457881961940664
 30
0.0
 10
4.820416110838685
 20
7.457881961940664
 30
0.0
 10
4.827471827881325
 20
7.450473660906951
 30
0.0
 10
4.827471827881325
 20
7.441653678168535
 30
0.0
 10
4.827471827881325
 20
7.432482457179489
 30
0.0
 10
4.820416110838685
 20
7.425426740136842
 30
0.0
 10
4.811244889849639
 20
7.425426740136842
 30
0.0
 10
4.811244889849639
 20
7.425426740136842
 30
0.0
 10
4.562535910623068
 20
7.424367642423213
 30
0.0
 10
4.562535910623068
 20
7.424367642423213
 30
0.0
 10
4.560066476945166
 20
7.423309890449999
 30
0.0
 10
4.557597043267257
 20
7.422604722467873
 30
0.0
 10
4.555127609589362
 20
7.422604722467873
 30
0.0
 10
4.555127609589362
 20
7.422604722467873
 30
0.0
 10
4.544544706895607
 20
7.422604722467873
 30
0.0
 10
4.544544706895607
 20
7.422604722467873
 30
0.0
 10
4.527258671150278
 20
7.424015058432154
 30
0.0
 10
4.518438688411869
 20
7.422250792736377
 30
0.0
 10
4.50785578571812
 20
7.420487872781038
 30
0.0
 10
4.501505236657614
 20
7.419428775067416
 30
0.0
 10
4.494802103606041
 20
7.418371023094195
 30
0.0
 10
4.48633605059912
 20
7.417665855112055
 30
0.0
 10
4.48633605059912
 20
7.417665855112055
 30
0.0
 10
4.484219200912292
 20
7.416606757398426
 30
0.0
 10
4.484219200912292
 20
7.416606757398426
 30
0.0
 10
4.48174976723439
 20
7.415549005425233
 30
0.0
 10
4.479280333556488
 20
7.414842491702671
 30
0.0
 10
4.476810899878579
 20
7.414842491702671
 30
0.0
 10
4.476810899878579
 20
7.414842491702671
 30
0.0
 10
4.468344846871652
 20
7.413784739729464
 30
0.0
 10
4.468344846871652
 20
7.413784739729464
 30
0.0
 10
4.466227997184837
 20
7.412726987756251
 30
0.0
 10
4.463758563506928
 20
7.412373058024762
 30
0.0
 10
4.460936545837952
 20
7.412373058024762
 30
0.0
 10
4.460936545837952
 20
7.412373058024762
 30
0.0
 10
4.457760598437488
 20
7.411315306051562
 30
0.0
 10
4.457760598437488
 20
7.411315306051562
 30
0.0
 10
4.455643748750652
 20
7.410257554078363
 30
0.0
 10
4.45317431507275
 20
7.409551040355786
 30
0.0
 10
4.450704881394848
 20
7.409551040355786
 30
0.0
 10
4.450704881394848
 20
7.409551040355786
 30
0.0
 10
4.447530279734806
 20
7.408845872373646
 30
0.0
 10
4.447530279734806
 20
7.408845872373646
 30
0.0
 10
4.445413430047977
 20
7.407788120400446
 30
0.0
 10
4.443296580361135
 20
7.407081606677884
 30
0.0
 10
4.441181076414729
 20
7.407081606677884
 30
0.0
 10
4.440474562692152
 20
7.406376438695744
 30
0.0
 10
4.440121978701093
 20
7.406023854704685
 30
0.0
 10
4.439769394710026
 20
7.406023854704685
 30
0.0
 10
4.439769394710026
 20
7.406023854704685
 30
0.0
 10
4.434477943363148
 20
7.403554421026782
 30
0.0
 10
4.434477943363148
 20
7.403554421026782
 30
0.0
 10
4.432008509685246
 20
7.402495323313154
 30
0.0
 10
4.429539076007337
 20
7.401790155330999
 30
0.0
 10
4.427069642329435
 20
7.401790155330999
 30
0.0
 10
4.427069642329435
 20
7.401790155330999
 30
0.0
 10
4.423893694928977
 20
7.400732403357814
 30
0.0
 10
4.423893694928977
 20
7.400732403357814
 30
0.0
 10
4.423893694928977
 20
7.400732403357814
 30
0.0
 10
4.418602243582093
 20
7.398262969679912
 30
0.0
 10
4.418602243582093
 20
7.398262969679912
 30
0.0
 10
4.41648539389525
 20
7.397203871966276
 30
0.0
 10
4.414015960217362
 20
7.396498703984136
 30
0.0
 10
4.41154652653946
 20
7.396498703984136
 30
0.0
 10
4.41154652653946
 20
7.396498703984136
 30
0.0
 10
4.410136190575187
 20
7.396498703984136
 30
0.0
 10
4.410136190575187
 20
7.396498703984136
 30
0.0
 10
4.408371924879418
 20
7.395087022279433
 30
0.0
 10
4.406607659183642
 20
7.393676686315174
 30
0.0
 10
4.405549907210442
 20
7.392971518333027
 30
0.0
 10
4.405549907210442
 20
7.392971518333027
 30
0.0
 10
4.400611039854638
 20
7.390502084655132
 30
0.0
 10
4.400611039854638
 20
7.390502084655132
 30
0.0
 10
4.398141606176729
 20
7.389442986941503
 30
0.0
 10
4.395672172498827
 20
7.388737818959363
 30
0.0
 10
4.393202738820924
 20
7.388737818959363
 30
0.0
 10
4.393202738820924
 20
7.388737818959363
 30
0.0
 10
4.391791057116222
 20
7.388737818959363
 30
0.0
 10
4.391791057116222
 20
7.388737818959363
 30
0.0
 10
4.377327039039869
 20
7.381329517925635
 30
0.0
 10
4.363569534686078
 20
7.372862119178314
 30
0.0
 10
4.349458100600791
 20
7.364396066171387
 30
0.0
 10
4.349458100600791
 20
7.364396066171387
 30
0.0
 10
4.331819480864396
 20
7.354870915450852
 30
0.0
 10
4.331819480864396
 20
7.354870915450852
 30
0.0
 10
4.330407799159708
 20
7.353459233746136
 30
0.0
 10
4.328290949472865
 20
7.351696313790796
 30
0.0
 10
4.327233197499651
 20
7.351343729799737
 30
0.0
 10
4.327233197499651
 20
7.351343729799737
 30
0.0
 10
4.324058595839609
 20
7.349579464103968
 30
0.0
 10
4.324058595839609
 20
7.349579464103968
 30
0.0
 10
4.322294330143861
 20
7.348167782399272
 30
0.0
 10
4.320530064448078
 20
7.346404862443925
 30
0.0
 10
4.319472312474864
 20
7.346050932712429
 30
0.0
 10
4.319472312474864
 20
7.346050932712429
 30
0.0
 10
4.313121763414372
 20
7.341112065356625
 30
0.0
 10
4.313121763414372
 20
7.341112065356625
 30
0.0
 10
4.312064011441172
 20
7.340054313383419
 30
0.0
 10
4.307830312067508
 20
7.336173198000821
 30
0.0
 10
4.306419976103228
 20
7.335468030018674
 30
0.0
 10
4.306419976103228
 20
7.335468030018674
 30
0.0
 10
4.303950542425312
 20
7.334410278045481
 30
0.0
 10
4.303950542425312
 20
7.334410278045481
 30
0.0
 10
4.297599993364819
 20
7.327707144993894
 30
0.0
 10
4.295130559686917
 20
7.325590295307065
 30
0.0
 10
4.29124944430432
 20
7.323120861629163
 30
0.0
 10
4.289839108340032
 20
7.322415693647023
 30
0.0
 10
4.28842742663533
 20
7.321356595933401
 30
0.0
 10
4.285957992957435
 20
7.319239746246559
 30
0.0
 10
4.285957992957435
 20
7.319239746246559
 30
0.0
 10
4.271493974881082
 20
7.304777073910635
 30
0.0
 10
4.271493974881082
 20
7.304777073910635
 30
0.0
 10
4.268319373221032
 20
7.301601126510163
 30
0.0
 10
4.264085673847368
 20
7.299838206554817
 30
0.0
 10
4.259853320214119
 20
7.299838206554817
 30
0.0
  0
SPLINE
  5
322
330
1F
100
AcDbEntity
  8
Livello 1
370
     0
100
AcDbSpline
210
0.0
220
0.0
230
1.0
 70
     9
 71
     3
 72
    26
 73
    22
 74
     0
 42
0.000000001
 43
0.0000000001
 40
0.0
 40
0.0
 40
0.0
 40
0.0
 40
1.0
 40
1.0
 40
1.0
 40
2.0
 40
2.0
 40
2.0
 40
3.0
 40
3.0
 40
3.0
 40
4.0
 40
4.0
 40
4.0
 40
5.0
 40
5.0
 40
5.0
 40
6.0
 40
6.0
 40
6.0
 40
7.0
 40
7.0
 40
7.0
 40
7.0
 10
4.228490839634531
 20
7.271086462397661
 30
0.0
 10
4.224257140260867
 20
7.271086462397661
 30
0.0
 10
4.220023440887189
 20
7.272849382352994
 30
0.0
 10
4.216848839227147
 20
7.276025329753458
 30
0.0
 10
4.21049829016664
 20
7.282374533073543
 30
0.0
 10
4.21049829016664
 20
7.292604851776225
 30
0.0
 10
4.216848839227147
 20
7.298955400836732
 30
0.0
 10
4.216848839227147
 20
7.298955400836732
 30
0.0
 10
4.248246309057755
 20
7.33035287066734
 30
0.0
 10
4.248246309057755
 20
7.33035287066734
 30
0.0
 10
4.254595512377854
 20
7.336702073987424
 30
0.0
 10
4.265178415071602
 20
7.336702073987424
 30
0.0
 10
4.271528964132109
 20
7.33035287066734
 30
0.0
 10
4.277879513192601
 20
7.324002321606826
 30
0.0
 10
4.277879513192601
 20
7.313772002904151
 30
0.0
 10
4.271528964132109
 20
7.307068869852571
 30
0.0
 10
4.271528964132109
 20
7.307068869852571
 30
0.0
 10
4.2401314943015
 20
7.275671400021963
 30
0.0
 10
4.2401314943015
 20
7.275671400021963
 30
0.0
 10
4.236956892641458
 20
7.272496798361935
 30
0.0
 10
4.23272319326778
 20
7.271086462397661
 30
0.0
 10
4.228490839634531
 20
7.271086462397661
 30
0.0
  0
SPLINE
  5
323
330
1F
100
AcDbEntity
  8
Livello 1
370
     0
100
AcDbSpline
210
0.0
220
0.0
230
1.0
 70
     9
 71
     3
 72
    23
 73
    19
 74
     0
 42
0.000000001
 43
0.0000000001
 40
0.0
 40
0.0
 40
0.0
 40
0.0
 40
1.0
 40
1.0
 40
1.0
 40
2.0
 40
2.0
 40
2.0
 40
3.0
 40
3.0
 40
3.0
 40
4.0
 40
4.0
 40
4.0
 40
5.0
 40
5.0
 40
5.0
 40
6.0
 40
6.0
 40
6.0
 40
6.0
 10
4.811279879100652
 20
7.271086462397661
 30
0.0
 10
4.802107312371177
 20
7.271086462397661
 30
0.0
 10
4.795051595328537
 20
7.278494763431361
 30
0.0
 10
4.795051595328537
 20
7.287313400429354
 30
0.0
 10
4.795051595328537
 20
7.287313400429354
 30
0.0
 10
4.795051595328537
 20
7.441477386173012
 30
0.0
 10
4.795051595328537
 20
7.441477386173012
 30
0.0
 10
4.795051595328537
 20
7.45064995290248
 30
0.0
 10
4.802107312371177
 20
7.458058253936187
 30
0.0
 10
4.811279879100652
 20
7.458058253936187
 30
0.0
 10
4.820451100089712
 20
7.458058253936187
 30
0.0
 10
4.827506817132359
 20
7.45064995290248
 30
0.0
 10
4.827506817132359
 20
7.441477386173012
 30
0.0
 10
4.827506817132359
 20
7.441477386173012
 30
0.0
 10
4.827506817132359
 20
7.287313400429354
 30
0.0
 10
4.827506817132359
 20
7.287313400429354
 30
0.0
 10
4.827506817132359
 20
7.278494763431361
 30
0.0
 10
4.820451100089712
 20
7.271086462397661
 30
0.0
 10
4.811279879100652
 20
7.271086462397661
 30
0.0
  0
SPLINE
  5
324
330
1F
100
AcDbEntity
  8
Livello 1
370
     0
100
AcDbSpline
210
0.0
220
0.0
230
1.0
 70
     9
 71
     3
 72
    23
 73
    19
 74
     0
 42
0.000000001
 43
0.0000000001
 40
0.0
 40
0.0
 40
0.0
 40
0.0
 40
1.0
 40
1.0
 40
1.0
 40
2.0
 40
2.0
 40
2.0
 40
3.0
 40
3.0
 40
3.0
 40
4.0
 40
4.0
 40
4.0
 40
5.0
 40
5.0
 40
5.0
 40
6.0
 40
6.0
 40
6.0
 40
6.0
 10
11.16166745075525
 20
7.553203447648172
 30
0.0
 10
11.15249488402576
 20
7.553203447648172
 30
0.0
 10
11.14543916698312
 20
7.560611748681878
 30
0.0
 10
11.14543916698312
 20
7.569430385679872
 30
0.0
 10
11.14543916698312
 20
7.569430385679872
 30
0.0
 10
11.14543916698312
 20
7.574721837026743
 30
0.0
 10
11.14543916698312
 20
7.574721837026743
 30
0.0
 10
11.14543916698312
 20
7.583894403756218
 30
0.0
 10
11.15249488402576
 20
7.590950120798858
 30
0.0
 10
11.16166745075525
 20
7.590950120798858
 30
0.0
 10
11.1708386717443
 20
7.590950120798858
 30
0.0
 10
11.17789438878693
 20
7.583894403756218
 30
0.0
 10
11.17789438878693
 20
7.574721837026743
 30
0.0
 10
11.17789438878693
 20
7.574721837026743
 30
0.0
 10
11.17789438878693
 20
7.569430385679872
 30
0.0
 10
11.17789438878693
 20
7.569430385679872
 30
0.0
 10
11.17789438878693
 20
7.560611748681878
 30
0.0
 10
11.1708386717443
 20
7.553203447648172
 30
0.0
 10
11.16166745075525
 20
7.553203447648172
 30
0.0
  0
SPLINE
  5
325
330
1F
100
AcDbEntity
  8
Livello 1
370
     0
100
AcDbSpline
210
0.0
220
0.0
230
1.0
 70
     9
 71
     3
 72
    38
 73
    34
 74
     0
 42
0.000000001
 43
0.0000000001
 40
0.0
 40
0.0
 40
0.0
 40
0.0
 40
1.0
 40
1.0
 40
1.0
 40
2.0
 40
2.0
 40
2.0
 40
3.0
 40
3.0
 40
3.0
 40
4.0
 40
4.0
 40
4.0
 40
5.0
 40
5.0
 40
5.0
 40
6.0
 40
6.0
 40
6.0
 40
7.0
 40
7.0
 40
7.0
 40
8.0
 40
8.0
 40
8.0
 40
9.0
 40
9.0
 40
9.0
 40
10.0
 40
10.0
 40
10.0
 40
11.0
 40
11.0
 40
11.0
 40
11.0
 10
11.16166745075525
 20
7.558459909744023
 30
0.0
 10
11.15390521999004
 20
7.558459909744023
 30
0.0
 10
11.1472034326789
 20
7.563751361090886
 30
0.0
 10
11.1457917509742
 20
7.571512246115666
 30
0.0
 10
11.1457917509742
 20
7.571512246115666
 30
0.0
 10
11.14296973330522
 20
7.584564582487324
 30
0.0
 10
11.14296973330522
 20
7.584564582487324
 30
0.0
 10
11.13979513164517
 20
7.615609468326873
 30
0.0
 10
11.13697176823579
 20
7.638892123401213
 30
0.0
 10
11.12991739693356
 20
7.670642177222902
 30
0.0
 10
11.12991739693356
 20
7.670642177222902
 30
0.0
 10
11.12744796325567
 20
7.684048443326034
 30
0.0
 10
11.12744796325567
 20
7.684048443326034
 30
0.0
 10
11.1256836975599
 20
7.692867080324027
 30
0.0
 10
11.13132773289783
 20
7.70133447907137
 30
0.0
 10
11.14014771563625
 20
7.703098744767132
 30
0.0
 10
11.1493189366253
 20
7.705214248713552
 30
0.0
 10
11.15778633537265
 20
7.699217629384534
 30
0.0
 10
11.15955060106841
 20
7.690397646646125
 30
0.0
 10
11.15955060106841
 20
7.690397646646125
 30
0.0
 10
11.16202003474632
 20
7.677345310274468
 30
0.0
 10
11.16202003474632
 20
7.677345310274468
 30
0.0
 10
11.16907575178896
 20
7.64418357474809
 30
0.0
 10
11.17189776945793
 20
7.620195751691611
 30
0.0
 10
11.17542495510903
 20
7.589503449843142
 30
0.0
 10
11.17542495510903
 20
7.589503449843142
 30
0.0
 10
11.17754180479587
 20
7.577861449435758
 30
0.0
 10
11.17754180479587
 20
7.577861449435758
 30
0.0
 10
11.17930607049165
 20
7.569042812437771
 30
0.0
 10
11.17366068941326
 20
7.560575413690422
 30
0.0
 10
11.16484205241528
 20
7.558812493735096
 30
0.0
 10
11.16378295470165
 20
7.558459909744023
 30
0.0
 10
11.16272520272846
 20
7.558459909744023
 30
0.0
 10
11.16166745075525
 20
7.558459909744023
 30
0.0
  0
SPLINE
  5
326
330
1F
100
AcDbEntity
  8
Livello 1
370
     0
100
AcDbSpline
210
0.0
220
0.0
230
1.0
 70
     9
 71
     3
 72
    23
 73
    19
 74
     0
 42
0.000000001
 43
0.0000000001
 40
0.0
 40
0.0
 40
0.0
 40
0.0
 40
1.0
 40
1.0
 40
1.0
 40
2.0
 40
2.0
 40
2.0
 40
3.0
 40
3.0
 40
3.0
 40
4.0
 40
4.0
 40
4.0
 40
5.0
 40
5.0
 40
5.0
 40
6.0
 40
6.0
 40
6.0
 40
6.0
 10
11.18001258421419
 20
5.747404165177925
 30
0.0
 10
11.18001258421419
 20
5.747404165177925
 30
0.0
 10
11.16942833578002
 20
5.747404165177925
 30
0.0
 10
11.16942833578002
 20
5.747404165177925
 30
0.0
 10
11.16060969878203
 20
5.747404165177925
 30
0.0
 10
11.15320139774832
 20
5.754812466211646
 30
0.0
 10
11.15320139774832
 20
5.763631103209633
 30
0.0
 10
11.15320139774832
 20
5.772803669939108
 30
0.0
 10
11.16060969878203
 20
5.780211970972814
 30
0.0
 10
11.16942833578002
 20
5.780211970972814
 30
0.0
 10
11.16942833578002
 20
5.780211970972814
 30
0.0
 10
11.18001258421419
 20
5.780211970972814
 30
0.0
 10
11.18001258421419
 20
5.780211970972814
 30
0.0
 10
11.18918380520324
 20
5.780211970972814
 30
0.0
 10
11.19623952224589
 20
5.772803669939108
 30
0.0
 10
11.19623952224589
 20
5.763631103209633
 30
0.0
 10
11.19623952224589
 20
5.754812466211646
 30
0.0
 10
11.18918380520324
 20
5.747404165177925
 30
0.0
 10
11.18001258421419
 20
5.747404165177925
 30
0.0
  0
SPLINE
  5
327
330
1F
100
AcDbEntity
  8
Livello 1
370
     0
100
AcDbSpline
210
0.0
220
0.0
230
1.0
 70
     9
 71
     3
 72
    65
 73
    61
 74
     0
 42
0.000000001
 43
0.0000000001
 40
0.0
 40
0.0
 40
0.0
 40
0.0
 40
1.0
 40
1.0
 40
1.0
 40
2.0
 40
2.0
 40
2.0
 40
3.0
 40
3.0
 40
3.0
 40
4.0
 40
4.0
 40
4.0
 40
5.0
 40
5.0
 40
5.0
 40
6.0
 40
6.0
 40
6.0
 40
7.0
 40
7.0
 40
7.0
 40
8.0
 40
8.0
 40
8.0
 40
9.0
 40
9.0
 40
9.0
 40
10.0
 40
10.0
 40
10.0
 40
11.0
 40
11.0
 40
11.0
 40
12.0
 40
12.0
 40
12.0
 40
13.0
 40
13.0
 40
13.0
 40
14.0
 40
14.0
 40
14.0
 40
15.0
 40
15.0
 40
15.0
 40
16.0
 40
16.0
 40
16.0
 40
17.0
 40
17.0
 40
17.0
 40
18.0
 40
18.0
 40
18.0
 40
19.0
 40
19.0
 40
19.0
 40
20.0
 40
20.0
 40
20.0
 40
20.0
 10
11.14339364153875
 20
5.049609494823535
 30
0.0
 10
11.14162937584299
 20
5.049609494823535
 30
0.0
 10
11.13986511014722
 20
5.049962078814623
 30
0.0
 10
11.13810084445145
 20
5.050314662805682
 30
0.0
 10
11.12963479144454
 20
5.053136680474644
 30
0.0
 10
11.12504850807979
 20
5.0626618311952
 30
0.0
 10
11.12787052574877
 20
5.07112788420212
 30
0.0
 10
11.12787052574877
 20
5.07112788420212
 30
0.0
 10
11.13316197709564
 20
5.086650999992102
 30
0.0
 10
11.13316197709564
 20
5.086650999992102
 30
0.0
 10
11.13739567646931
 20
5.118047124082288
 30
0.0
 10
11.14268712781619
 20
5.152266611581872
 30
0.0
 10
11.14797857916307
 20
5.186133515090382
 30
0.0
 10
11.14797857916307
 20
5.186133515090382
 30
0.0
 10
11.14974284485883
 20
5.19671776352456
 30
0.0
 10
11.14974284485883
 20
5.19671776352456
 30
0.0
 10
11.14974284485883
 20
5.19671776352456
 30
0.0
 10
11.14974284485883
 20
5.197070347515634
 30
0.0
 10
11.14974284485883
 20
5.197070347515634
 30
0.0
 10
11.14833250889456
 20
5.199892365184602
 30
0.0
 10
11.14762599517199
 20
5.203066966844644
 30
0.0
 10
11.14797857916307
 20
5.20624156850468
 30
0.0
 10
11.14797857916307
 20
5.20624156850468
 30
0.0
 10
11.15080194257248
 20
5.232347586988424
 30
0.0
 10
11.15080194257248
 20
5.232347586988424
 30
0.0
 10
11.15080194257248
 20
5.232347586988424
 30
0.0
 10
11.17690661531578
 20
5.428844529247506
 30
0.0
 10
11.17690661531578
 20
5.428844529247506
 30
0.0
 10
11.17690661531578
 20
5.428844529247506
 30
0.0
 10
11.20830408514638
 20
5.720945562703136
 30
0.0
 10
11.20830408514638
 20
5.720945562703136
 30
0.0
 10
11.20900925312853
 20
5.730116783692182
 30
0.0
 10
11.21677013815331
 20
5.736467332752688
 30
0.0
 10
11.22629528887385
 20
5.735408235039059
 30
0.0
 10
11.23511527161225
 20
5.734703067056926
 30
0.0
 10
11.24181840466382
 20
5.726589598041066
 30
0.0
 10
11.2407593069502
 20
5.717417031311597
 30
0.0
 10
11.2407593069502
 20
5.717417031311597
 30
0.0
 10
11.20936183711959
 20
5.424964759605323
 30
0.0
 10
11.20936183711959
 20
5.424964759605323
 30
0.0
 10
11.20936183711959
 20
5.424964759605323
 30
0.0
 10
11.18114031468945
 20
5.207653250209382
 30
0.0
 10
11.18114031468945
 20
5.207653250209382
 30
0.0
 10
11.18114031468945
 20
5.207653250209382
 30
0.0
 10
11.18149289868051
 20
5.206595498236183
 30
0.0
 10
11.18149289868051
 20
5.206595498236183
 30
0.0
 10
11.18290458038521
 20
5.203419550835704
 30
0.0
 10
11.18360974836735
 20
5.199892365184602
 30
0.0
 10
11.18290458038521
 20
5.196363833793071
 30
0.0
 10
11.18290458038521
 20
5.196363833793071
 30
0.0
 10
11.18043514670731
 20
5.180842063743504
 30
0.0
 10
11.18043514670731
 20
5.180842063743504
 30
0.0
 10
11.17514234962001
 20
5.147327744226068
 30
0.0
 10
11.16985089827314
 20
5.113108256726484
 30
0.0
 10
11.16491203091733
 20
5.079242698958388
 30
0.0
 10
11.16491203091733
 20
5.079242698958388
 30
0.0
 10
11.15891541158831
 20
5.060897565499431
 30
0.0
 10
11.15891541158831
 20
5.060897565499431
 30
0.0
 10
11.15679856190149
 20
5.053841848456784
 30
0.0
 10
11.1500954288499
 20
5.049609494823535
 30
0.0
 10
11.14339364153875
 20
5.049609494823535
 30
0.0
  0
SPLINE
  5
328
330
1F
100
AcDbEntity
  8
Livello 1
370
     0
100
AcDbSpline
210
0.0
220
0.0
230
1.0
 70
     9
 71
     3
 72
    26
 73
    22
 74
     0
 42
0.000000001
 43
0.0000000001
 40
0.0
 40
0.0
 40
0.0
 40
0.0
 40
1.0
 40
1.0
 40
1.0
 40
2.0
 40
2.0
 40
2.0
 40
3.0
 40
3.0
 40
3.0
 40
4.0
 40
4.0
 40
4.0
 40
5.0
 40
5.0
 40
5.0
 40
6.0
 40
6.0
 40
6.0
 40
7.0
 40
7.0
 40
7.0
 40
7.0
 10
11.22566144513418
 20
7.003751089963543
 30
0.0
 10
11.22566144513418
 20
7.003751089963543
 30
0.0
 10
11.22566144513418
 20
7.003751089963543
 30
0.0
 10
11.22566144513418
 20
7.003751089963543
 30
0.0
 10
11.22566144513418
 20
7.003751089963543
 30
0.0
 10
5.749491076189372
 20
7.015039160639432
 30
0.0
 10
5.749491076189372
 20
7.015039160639432
 30
0.0
 10
5.740319855200318
 20
7.015039160639432
 30
0.0
 10
5.733264138157679
 20
7.022094877682064
 30
0.0
 10
5.733264138157679
 20
7.031267444411554
 30
0.0
 10
5.733264138157679
 20
7.0404386654006
 30
0.0
 10
5.740319855200318
 20
7.04749438244324
 30
0.0
 10
5.749491076189372
 20
7.04749438244324
 30
0.0
 10
5.749491076189372
 20
7.04749438244324
 30
0.0
 10
11.22566144513418
 20
7.036558895758417
 30
0.0
 10
11.22566144513418
 20
7.036558895758417
 30
0.0
 10
11.23483266612323
 20
7.036558895758417
 30
0.0
 10
11.24188838316587
 20
7.029150594724711
 30
0.0
 10
11.24188838316587
 20
7.019978027995236
 30
0.0
 10
11.24188838316587
 20
7.011159390997249
 30
0.0
 10
11.23483266612323
 20
7.003751089963543
 30
0.0
 10
11.22566144513418
 20
7.003751089963543
 30
0.0
  0
SPLINE
  5
329
330
1F
100
AcDbEntity
  8
Livello 1
370
     0
100
AcDbSpline
210
0.0
220
0.0
230
1.0
 70
     9
 71
     3
 72
    23
 73
    19
 74
     0
 42
0.000000001
 43
0.0000000001
 40
0.0
 40
0.0
 40
0.0
 40
0.0
 40
1.0
 40
1.0
 40
1.0
 40
2.0
 40
2.0
 40
2.0
 40
3.0
 40
3.0
 40
3.0
 40
4.0
 40
4.0
 40
4.0
 40
5.0
 40
5.0
 40
5.0
 40
6.0
 40
6.0
 40
6.0
 40
6.0
 10
5.749457432678774
 20
5.702954358975667
 30
0.0
 10
5.740284865949291
 20
5.702954358975667
 30
0.0
 10
5.733229148906644
 20
5.710362660009373
 30
0.0
 10
5.733229148906644
 20
5.719181297007359
 30
0.0
 10
5.733229148906644
 20
5.719181297007359
 30
0.0
 10
5.733229148906644
 20
5.763631103209633
 30
0.0
 10
5.733229148906644
 20
5.763631103209633
 30
0.0
 10
5.733229148906644
 20
5.772803669939108
 30
0.0
 10
5.740284865949291
 20
5.780211970972814
 30
0.0
 10
5.749457432678774
 20
5.780211970972814
 30
0.0
 10
5.758628653667827
 20
5.780211970972814
 30
0.0
 10
5.765684370710467
 20
5.772803669939108
 30
0.0
 10
5.765684370710467
 20
5.763631103209633
 30
0.0
 10
5.765684370710467
 20
5.763631103209633
 30
0.0
 10
5.765684370710467
 20
5.719181297007359
 30
0.0
 10
5.765684370710467
 20
5.719181297007359
 30
0.0
 10
5.765684370710467
 20
5.710362660009373
 30
0.0
 10
5.758628653667827
 20
5.702954358975667
 30
0.0
 10
5.749457432678774
 20
5.702954358975667
 30
0.0
  0
SPLINE
  5
32A
330
1F
100
AcDbEntity
  8
Livello 1
370
     0
100
AcDbSpline
210
0.0
220
0.0
230
1.0
 70
     9
 71
     3
 72
    23
 73
    19
 74
     0
 42
0.000000001
 43
0.0000000001
 40
0.0
 40
0.0
 40
0.0
 40
0.0
 40
1.0
 40
1.0
 40
1.0
 40
2.0
 40
2.0
 40
2.0
 40
3.0
 40
3.0
 40
3.0
 40
4.0
 40
4.0
 40
4.0
 40
5.0
 40
5.0
 40
5.0
 40
6.0
 40
6.0
 40
6.0
 40
6.0
 10
11.16427818717766
 20
5.747404165177925
 30
0.0
 10
11.16427818717766
 20
5.747404165177925
 30
0.0
 10
5.749491076189372
 20
5.747404165177925
 30
0.0
 10
5.749491076189372
 20
5.747404165177925
 30
0.0
 10
5.740319855200318
 20
5.747404165177925
 30
0.0
 10
5.733264138157679
 20
5.754812466211646
 30
0.0
 10
5.733264138157679
 20
5.763631103209633
 30
0.0
 10
5.733264138157679
 20
5.772803669939108
 30
0.0
 10
5.740319855200318
 20
5.780211970972814
 30
0.0
 10
5.749491076189372
 20
5.780211970972814
 30
0.0
 10
5.749491076189372
 20
5.780211970972814
 30
0.0
 10
11.16427818717766
 20
5.780211970972814
 30
0.0
 10
11.16427818717766
 20
5.780211970972814
 30
0.0
 10
11.17344940816671
 20
5.780211970972814
 30
0.0
 10
11.18050512520936
 20
5.772803669939108
 30
0.0
 10
11.18050512520936
 20
5.763631103209633
 30
0.0
 10
11.18050512520936
 20
5.754812466211646
 30
0.0
 10
11.17344940816671
 20
5.747404165177925
 30
0.0
 10
11.16427818717766
 20
5.747404165177925
 30
0.0
  0
SPLINE
  5
32B
330
1F
100
AcDbEntity
  8
Livello 1
370
     0
100
AcDbSpline
210
0.0
220
0.0
230
1.0
 70
     9
 71
     3
 72
    23
 73
    19
 74
     0
 42
0.000000001
 43
0.0000000001
 40
0.0
 40
0.0
 40
0.0
 40
0.0
 40
1.0
 40
1.0
 40
1.0
 40
2.0
 40
2.0
 40
2.0
 40
3.0
 40
3.0
 40
3.0
 40
4.0
 40
4.0
 40
4.0
 40
5.0
 40
5.0
 40
5.0
 40
6.0
 40
6.0
 40
6.0
 40
6.0
 10
5.749457432678774
 20
6.97171977639325
 30
0.0
 10
5.740284865949291
 20
6.97171977639325
 30
0.0
 10
5.733229148906644
 20
6.977716395722275
 30
0.0
 10
5.733229148906644
 20
6.986888962451743
 30
0.0
 10
5.733229148906644
 20
6.986888962451743
 30
0.0
 10
5.733229148906644
 20
7.031338768654002
 30
0.0
 10
5.733229148906644
 20
7.031338768654002
 30
0.0
 10
5.733229148906644
 20
7.040157405651996
 30
0.0
 10
5.740284865949291
 20
7.047565706685702
 30
0.0
 10
5.749457432678774
 20
7.047565706685702
 30
0.0
 10
5.758628653667827
 20
7.047565706685702
 30
0.0
 10
5.765684370710467
 20
7.040157405651996
 30
0.0
 10
5.765684370710467
 20
7.031338768654002
 30
0.0
 10
5.765684370710467
 20
7.031338768654002
 30
0.0
 10
5.765684370710467
 20
6.989358396129645
 30
0.0
 10
5.765684370710467
 20
6.989358396129645
 30
0.0
 10
5.765684370710467
 20
6.98018582940017
 30
0.0
 10
5.758628653667827
 20
6.97171977639325
 30
0.0
 10
5.749457432678774
 20
6.97171977639325
 30
0.0
  0
SPLINE
  5
32C
330
1F
100
AcDbEntity
  8
Livello 1
370
     0
100
AcDbSpline
210
0.0
220
0.0
230
1.0
 70
     9
 71
     3
 72
    32
 73
    28
 74
     0
 42
0.000000001
 43
0.0000000001
 40
0.0
 40
0.0
 40
0.0
 40
0.0
 40
1.0
 40
1.0
 40
1.0
 40
2.0
 40
2.0
 40
2.0
 40
3.0
 40
3.0
 40
3.0
 40
4.0
 40
4.0
 40
4.0
 40
5.0
 40
5.0
 40
5.0
 40
6.0
 40
6.0
 40
6.0
 40
7.0
 40
7.0
 40
7.0
 40
8.0
 40
8.0
 40
8.0
 40
9.0
 40
9.0
 40
9.0
 40
9.0
 10
11.14078290511634
 20
5.036592147702911
 30
0.0
 10
11.13831212569801
 20
5.036592147702911
 30
0.0
 10
11.1358426920201
 20
5.037297315685052
 30
0.0
 10
11.1333732583422
 20
5.038355067658244
 30
0.0
 10
11.1333732583422
 20
5.038355067658244
 30
0.0
 10
11.12843439098639
 20
5.040824501336167
 30
0.0
 10
11.12843439098639
 20
5.040824501336167
 30
0.0
 10
11.12032092197055
 20
5.044705616718758
 30
0.0
 10
11.11679373631944
 20
5.054583351430366
 30
0.0
 10
11.12102608995268
 20
5.062696820446213
 30
0.0
 10
11.12243777165739
 20
5.065871422106255
 30
0.0
 10
11.12490720533529
 20
5.068340855784157
 30
0.0
 10
11.12737663901319
 20
5.069752537488874
 30
0.0
 10
11.12949348870003
 20
5.078218590495779
 30
0.0
 10
11.13760695771587
 20
5.083511387583072
 30
0.0
 10
11.14642694045429
 20
5.082099705878384
 30
0.0
 10
11.15524557745227
 20
5.080335440182622
 30
0.0
 10
11.1612435425217
 20
5.071516803184636
 30
0.0
 10
11.15947927682594
 20
5.062696820446213
 30
0.0
 10
11.15947927682594
 20
5.062696820446213
 30
0.0
 10
11.15665725915696
 20
5.049644484074562
 30
0.0
 10
11.15665725915696
 20
5.049644484074562
 30
0.0
 10
11.15595209117483
 20
5.044705616718758
 30
0.0
 10
11.15242355978331
 20
5.040471917345094
 30
0.0
 10
11.14783727641855
 20
5.038355067658244
 30
0.0
 10
11.14572177247215
 20
5.037297315685052
 30
0.0
 10
11.14325233879425
 20
5.036592147702911
 30
0.0
 10
11.14078290511634
 20
5.036592147702911
 30
0.0
  0
SPLINE
  5
32D
330
1F
100
AcDbEntity
  8
Livello 1
370
     0
100
AcDbSpline
210
0.0
220
0.0
230
1.0
 70
     9
 71
     3
 72
    23
 73
    19
 74
     0
 42
0.000000001
 43
0.0000000001
 40
0.0
 40
0.0
 40
0.0
 40
0.0
 40
1.0
 40
1.0
 40
1.0
 40
2.0
 40
2.0
 40
2.0
 40
3.0
 40
3.0
 40
3.0
 40
4.0
 40
4.0
 40
4.0
 40
5.0
 40
5.0
 40
5.0
 40
6.0
 40
6.0
 40
6.0
 40
6.0
 10
5.749457432678774
 20
4.898974040471422
 30
0.0
 10
5.740284865949291
 20
4.898974040471422
 30
0.0
 10
5.733229148906644
 20
4.906382341505128
 30
0.0
 10
5.733229148906644
 20
4.915200978503122
 30
0.0
 10
5.733229148906644
 20
4.915200978503122
 30
0.0
 10
5.733229148906644
 20
5.719181297007359
 30
0.0
 10
5.733229148906644
 20
5.719181297007359
 30
0.0
 10
5.733229148906644
 20
5.728353863736842
 30
0.0
 10
5.740284865949291
 20
5.735762164770555
 30
0.0
 10
5.749457432678774
 20
5.735762164770555
 30
0.0
 10
5.758628653667827
 20
5.735762164770555
 30
0.0
 10
5.765684370710467
 20
5.728353863736842
 30
0.0
 10
5.765684370710467
 20
5.719181297007359
 30
0.0
 10
5.765684370710467
 20
5.719181297007359
 30
0.0
 10
5.765684370710467
 20
4.915200978503122
 30
0.0
 10
5.765684370710467
 20
4.915200978503122
 30
0.0
 10
5.765684370710467
 20
4.906382341505128
 30
0.0
 10
5.758628653667827
 20
4.898974040471422
 30
0.0
 10
5.749457432678774
 20
4.898974040471422
 30
0.0
  0
SPLINE
  5
32E
330
1F
100
AcDbEntity
  8
Livello 1
370
     0
100
AcDbSpline
210
0.0
220
0.0
230
1.0
 70
     9
 71
     3
 72
    23
 73
    19
 74
     0
 42
0.000000001
 43
0.0000000001
 40
0.0
 40
0.0
 40
0.0
 40
0.0
 40
1.0
 40
1.0
 40
1.0
 40
2.0
 40
2.0
 40
2.0
 40
3.0
 40
3.0
 40
3.0
 40
4.0
 40
4.0
 40
4.0
 40
5.0
 40
5.0
 40
5.0
 40
6.0
 40
6.0
 40
6.0
 40
6.0
 10
11.16953464927351
 20
5.747404165177925
 30
0.0
 10
11.16953464927351
 20
5.747404165177925
 30
0.0
 10
11.16424185218622
 20
5.747404165177925
 30
0.0
 10
11.16424185218622
 20
5.747404165177925
 30
0.0
 10
11.15542321518822
 20
5.747404165177925
 30
0.0
 10
11.14801491415451
 20
5.754812466211646
 30
0.0
 10
11.14801491415451
 20
5.763631103209633
 30
0.0
 10
11.14801491415451
 20
5.772803669939108
 30
0.0
 10
11.15542321518822
 20
5.780211970972814
 30
0.0
 10
11.16424185218622
 20
5.780211970972814
 30
0.0
 10
11.16424185218622
 20
5.780211970972814
 30
0.0
 10
11.16953464927351
 20
5.780211970972814
 30
0.0
 10
11.16953464927351
 20
5.780211970972814
 30
0.0
 10
11.17870587026256
 20
5.780211970972814
 30
0.0
 10
11.18576158730521
 20
5.772803669939108
 30
0.0
 10
11.18576158730521
 20
5.763631103209633
 30
0.0
 10
11.18576158730521
 20
5.754812466211646
 30
0.0
 10
11.17870587026256
 20
5.747404165177925
 30
0.0
 10
11.16953464927351
 20
5.747404165177925
 30
0.0
  0
SPLINE
  5
32F
330
1F
100
AcDbEntity
  8
Livello 1
370
     0
100
AcDbSpline
210
0.0
220
0.0
230
1.0
 70
     9
 71
     3
 72
    23
 73
    19
 74
     0
 42
0.000000001
 43
0.0000000001
 40
0.0
 40
0.0
 40
0.0
 40
0.0
 40
1.0
 40
1.0
 40
1.0
 40
2.0
 40
2.0
 40
2.0
 40
3.0
 40
3.0
 40
3.0
 40
4.0
 40
4.0
 40
4.0
 40
5.0
 40
5.0
 40
5.0
 40
6.0
 40
6.0
 40
6.0
 40
6.0
 10
5.749457432678774
 20
5.747404165177925
 30
0.0
 10
5.740284865949291
 20
5.747404165177925
 30
0.0
 10
5.733229148906644
 20
5.754812466211646
 30
0.0
 10
5.733229148906644
 20
5.763631103209633
 30
0.0
 10
5.733229148906644
 20
5.763631103209633
 30
0.0
 10
5.733229148906644
 20
6.986711324715784
 30
0.0
 10
5.733229148906644
 20
6.986711324715784
 30
0.0
 10
5.733229148906644
 20
6.995883891445274
 30
0.0
 10
5.740284865949291
 20
7.002939608487913
 30
0.0
 10
5.749457432678774
 20
7.002939608487913
 30
0.0
 10
5.758628653667827
 20
7.002939608487913
 30
0.0
 10
5.765684370710467
 20
6.995883891445274
 30
0.0
 10
5.765684370710467
 20
6.986711324715784
 30
0.0
 10
5.765684370710467
 20
6.986711324715784
 30
0.0
 10
5.765684370710467
 20
5.763631103209633
 30
0.0
 10
5.765684370710467
 20
5.763631103209633
 30
0.0
 10
5.765684370710467
 20
5.754812466211646
 30
0.0
 10
5.758628653667827
 20
5.747404165177925
 30
0.0
 10
5.749457432678774
 20
5.747404165177925
 30
0.0
  0
SPLINE
  5
330
330
1F
100
AcDbEntity
  8
Livello 1
370
     0
100
AcDbSpline
210
0.0
220
0.0
230
1.0
 70
     9
 71
     3
 72
    23
 73
    19
 74
     0
 42
0.000000001
 43
0.0000000001
 40
0.0
 40
0.0
 40
0.0
 40
0.0
 40
1.0
 40
1.0
 40
1.0
 40
2.0
 40
2.0
 40
2.0
 40
3.0
 40
3.0
 40
3.0
 40
4.0
 40
4.0
 40
4.0
 40
5.0
 40
5.0
 40
5.0
 40
6.0
 40
6.0
 40
6.0
 40
6.0
 10
11.22707312683889
 20
6.970449397433071
 30
0.0
 10
11.22707312683889
 20
6.970449397433071
 30
0.0
 10
11.22178032975158
 20
6.970449397433071
 30
0.0
 10
11.22178032975158
 20
6.970449397433071
 30
0.0
 10
11.2129616927536
 20
6.970449397433071
 30
0.0
 10
11.20555339171988
 20
6.977857698466777
 30
0.0
 10
11.20555339171988
 20
6.986676335464757
 30
0.0
 10
11.20555339171988
 20
6.995848902194254
 30
0.0
 10
11.2129616927536
 20
7.003257203227953
 30
0.0
 10
11.22178032975158
 20
7.003257203227953
 30
0.0
 10
11.22178032975158
 20
7.003257203227953
 30
0.0
 10
11.22707312683889
 20
7.003257203227953
 30
0.0
 10
11.22707312683889
 20
7.003257203227953
 30
0.0
 10
11.23624434782793
 20
7.003257203227953
 30
0.0
 10
11.24330006487058
 20
6.995848902194254
 30
0.0
 10
11.24330006487058
 20
6.986676335464757
 30
0.0
 10
11.24330006487058
 20
6.977857698466777
 30
0.0
 10
11.23624434782793
 20
6.970449397433071
 30
0.0
 10
11.22707312683889
 20
6.970449397433071
 30
0.0
  0
SPLINE
  5
331
330
1F
100
AcDbEntity
  8
Livello 1
370
     0
100
AcDbSpline
210
0.0
220
0.0
230
1.0
 70
     9
 71
     3
 72
    38
 73
    34
 74
     0
 42
0.000000001
 43
0.0000000001
 40
0.0
 40
0.0
 40
0.0
 40
0.0
 40
1.0
 40
1.0
 40
1.0
 40
2.0
 40
2.0
 40
2.0
 40
3.0
 40
3.0
 40
3.0
 40
4.0
 40
4.0
 40
4.0
 40
5.0
 40
5.0
 40
5.0
 40
6.0
 40
6.0
 40
6.0
 40
7.0
 40
7.0
 40
7.0
 40
8.0
 40
8.0
 40
8.0
 40
9.0
 40
9.0
 40
9.0
 40
10.0
 40
10.0
 40
10.0
 40
11.0
 40
11.0
 40
11.0
 40
11.0
 10
11.22707312683889
 20
5.747404165177925
 30
0.0
 10
11.2267191971074
 20
5.747404165177925
 30
0.0
 10
11.22636661311632
 20
5.747404165177925
 30
0.0
 10
11.22636661311632
 20
5.747404165177925
 30
0.0
 10
11.21719404638685
 20
5.747756749168999
 30
0.0
 10
11.21013967508462
 20
5.755517634193786
 30
0.0
 10
11.21084484306676
 20
5.764690200923254
 30
0.0
 10
11.21084484306676
 20
5.764690200923254
 30
0.0
 10
11.21613629441363
 20
5.863820132030475
 30
0.0
 10
11.21613629441363
 20
5.863820132030475
 30
0.0
 10
11.23836119751477
 20
6.227180812413806
 30
0.0
 10
11.23765602953263
 20
6.590542838537572
 30
0.0
 10
11.21331427674467
 20
6.944025784209287
 30
0.0
 10
11.21331427674467
 20
6.944025784209287
 30
0.0
 10
11.20837540938885
 20
6.984595820769378
 30
0.0
 10
11.20837540938885
 20
6.984595820769378
 30
0.0
 10
11.20696372768417
 20
6.993767041758424
 30
0.0
 10
11.21331427674467
 20
7.0018818565147
 30
0.0
 10
11.22248684347415
 20
7.002939608487913
 30
0.0
 10
11.23201199419468
 20
7.003997360461113
 30
0.0
 10
11.23942029522839
 20
6.997648157141036
 30
0.0
 10
11.24083063119267
 20
6.98882817440262
 30
0.0
 10
11.24083063119267
 20
6.98882817440262
 30
0.0
 10
11.24576949854848
 20
6.946847801878256
 30
0.0
 10
11.24576949854848
 20
6.946847801878256
 30
0.0
 10
11.27046383532751
 20
6.591248006519712
 30
0.0
 10
11.27117034905008
 20
6.226475644431666
 30
0.0
 10
11.24859151621746
 20
5.862055866334706
 30
0.0
 10
11.24859151621746
 20
5.862055866334706
 30
0.0
 10
11.24330006487058
 20
5.762925935227492
 30
0.0
 10
11.24330006487058
 20
5.762925935227492
 30
0.0
 10
11.24294748087951
 20
5.754105952489084
 30
0.0
 10
11.23553917984581
 20
5.747404165177925
 30
0.0
 10
11.22707312683889
 20
5.747404165177925
 30
0.0
  0
SPLINE
  5
332
330
1F
100
AcDbEntity
  8
Livello 1
370
     0
100
AcDbSpline
210
0.0
220
0.0
230
1.0
 70
     9
 71
     3
 72
    23
 73
    19
 74
     0
 42
0.000000001
 43
0.0000000001
 40
0.0
 40
0.0
 40
0.0
 40
0.0
 40
1.0
 40
1.0
 40
1.0
 40
2.0
 40
2.0
 40
2.0
 40
3.0
 40
3.0
 40
3.0
 40
4.0
 40
4.0
 40
4.0
 40
5.0
 40
5.0
 40
5.0
 40
6.0
 40
6.0
 40
6.0
 40
6.0
 10
11.22707312683889
 20
5.747404165177925
 30
0.0
 10
11.22707312683889
 20
5.747404165177925
 30
0.0
 10
11.22178032975158
 20
5.747404165177925
 30
0.0
 10
11.22178032975158
 20
5.747404165177925
 30
0.0
 10
11.2129616927536
 20
5.747404165177925
 30
0.0
 10
11.20555339171988
 20
5.754812466211646
 30
0.0
 10
11.20555339171988
 20
5.763631103209633
 30
0.0
 10
11.20555339171988
 20
5.772803669939108
 30
0.0
 10
11.2129616927536
 20
5.780211970972814
 30
0.0
 10
11.22178032975158
 20
5.780211970972814
 30
0.0
 10
11.22178032975158
 20
5.780211970972814
 30
0.0
 10
11.22707312683889
 20
5.780211970972814
 30
0.0
 10
11.22707312683889
 20
5.780211970972814
 30
0.0
 10
11.23624434782793
 20
5.780211970972814
 30
0.0
 10
11.24330006487058
 20
5.772803669939108
 30
0.0
 10
11.24330006487058
 20
5.763631103209633
 30
0.0
 10
11.24330006487058
 20
5.754812466211646
 30
0.0
 10
11.23624434782793
 20
5.747404165177925
 30
0.0
 10
11.22707312683889
 20
5.747404165177925
 30
0.0
  0
SPLINE
  5
333
330
1F
100
AcDbEntity
  8
Livello 1
370
     0
100
AcDbSpline
210
0.0
220
0.0
230
1.0
 70
     9
 71
     3
 72
    23
 73
    19
 74
     0
 42
0.000000001
 43
0.0000000001
 40
0.0
 40
0.0
 40
0.0
 40
0.0
 40
1.0
 40
1.0
 40
1.0
 40
2.0
 40
2.0
 40
2.0
 40
3.0
 40
3.0
 40
3.0
 40
4.0
 40
4.0
 40
4.0
 40
5.0
 40
5.0
 40
5.0
 40
6.0
 40
6.0
 40
6.0
 40
6.0
 10
11.22178167549201
 20
5.747404165177925
 30
0.0
 10
11.22178167549201
 20
5.747404165177925
 30
0.0
 10
11.18015388695871
 20
5.747404165177925
 30
0.0
 10
11.18015388695871
 20
5.747404165177925
 30
0.0
 10
11.17098132022924
 20
5.747404165177925
 30
0.0
 10
11.16357301919552
 20
5.754812466211646
 30
0.0
 10
11.16357301919552
 20
5.763631103209633
 30
0.0
 10
11.16357301919552
 20
5.772803669939108
 30
0.0
 10
11.17098132022924
 20
5.780211970972814
 30
0.0
 10
11.18015388695871
 20
5.780211970972814
 30
0.0
 10
11.18015388695871
 20
5.780211970972814
 30
0.0
 10
11.22178167549201
 20
5.780211970972814
 30
0.0
 10
11.22178167549201
 20
5.780211970972814
 30
0.0
 10
11.23095289648106
 20
5.780211970972814
 30
0.0
 10
11.23800861352371
 20
5.772803669939108
 30
0.0
 10
11.23800861352371
 20
5.763631103209633
 30
0.0
 10
11.23800861352371
 20
5.754812466211646
 30
0.0
 10
11.23095289648106
 20
5.747404165177925
 30
0.0
 10
11.22178167549201
 20
5.747404165177925
 30
0.0
  0
SPLINE
  5
334
330
1F
100
AcDbEntity
  8
Livello 1
370
     0
100
AcDbSpline
210
0.0
220
0.0
230
1.0
 70
     9
 71
     3
 72
    23
 73
    19
 74
     0
 42
0.000000001
 43
0.0000000001
 40
0.0
 40
0.0
 40
0.0
 40
0.0
 40
1.0
 40
1.0
 40
1.0
 40
2.0
 40
2.0
 40
2.0
 40
3.0
 40
3.0
 40
3.0
 40
4.0
 40
4.0
 40
4.0
 40
5.0
 40
5.0
 40
5.0
 40
6.0
 40
6.0
 40
6.0
 40
6.0
 10
11.22707312683889
 20
6.970449397433071
 30
0.0
 10
11.2179005601094
 20
6.970449397433071
 30
0.0
 10
11.21084484306676
 20
6.977857698466777
 30
0.0
 10
11.21084484306676
 20
6.986676335464757
 30
0.0
 10
11.21084484306676
 20
6.986676335464757
 30
0.0
 10
11.21084484306676
 20
7.012782353948495
 30
0.0
 10
11.21084484306676
 20
7.012782353948495
 30
0.0
 10
11.21084484306676
 20
7.021954920677984
 30
0.0
 10
11.2179005601094
 20
7.029363221711683
 30
0.0
 10
11.22707312683889
 20
7.029363221711683
 30
0.0
 10
11.23624434782793
 20
7.029363221711683
 30
0.0
 10
11.24330006487058
 20
7.021954920677984
 30
0.0
 10
11.24330006487058
 20
7.012782353948495
 30
0.0
 10
11.24330006487058
 20
7.012782353948495
 30
0.0
 10
11.24330006487058
 20
6.986676335464757
 30
0.0
 10
11.24330006487058
 20
6.986676335464757
 30
0.0
 10
11.24330006487058
 20
6.977857698466777
 30
0.0
 10
11.23624434782793
 20
6.970449397433071
 30
0.0
 10
11.22707312683889
 20
6.970449397433071
 30
0.0
  0
SPLINE
  5
335
330
1F
100
AcDbEntity
  8
Livello 1
370
     0
100
AcDbSpline
210
0.0
220
0.0
230
1.0
 70
     9
 71
     3
 72
    23
 73
    19
 74
     0
 42
0.000000001
 43
0.0000000001
 40
0.0
 40
0.0
 40
0.0
 40
0.0
 40
1.0
 40
1.0
 40
1.0
 40
2.0
 40
2.0
 40
2.0
 40
3.0
 40
3.0
 40
3.0
 40
4.0
 40
4.0
 40
4.0
 40
5.0
 40
5.0
 40
5.0
 40
6.0
 40
6.0
 40
6.0
 40
6.0
 10
11.22707312683889
 20
5.721228168192155
 30
0.0
 10
11.2179005601094
 20
5.721228168192155
 30
0.0
 10
11.21084484306676
 20
5.728636469225854
 30
0.0
 10
11.21084484306676
 20
5.737455106223848
 30
0.0
 10
11.21084484306676
 20
5.737455106223848
 30
0.0
 10
11.21084484306676
 20
5.763561124707592
 30
0.0
 10
11.21084484306676
 20
5.763561124707592
 30
0.0
 10
11.21084484306676
 20
5.772733691437061
 30
0.0
 10
11.2179005601094
 20
5.780141992470767
 30
0.0
 10
11.22707312683889
 20
5.780141992470767
 30
0.0
 10
11.23624434782793
 20
5.780141992470767
 30
0.0
 10
11.24330006487058
 20
5.772733691437061
 30
0.0
 10
11.24330006487058
 20
5.763561124707592
 30
0.0
 10
11.24330006487058
 20
5.763561124707592
 30
0.0
 10
11.24330006487058
 20
5.737455106223848
 30
0.0
 10
11.24330006487058
 20
5.737455106223848
 30
0.0
 10
11.24330006487058
 20
5.728636469225854
 30
0.0
 10
11.23624434782793
 20
5.721228168192155
 30
0.0
 10
11.22707312683889
 20
5.721228168192155
 30
0.0
  0
SPLINE
  5
336
330
1F
100
AcDbEntity
  8
Livello 1
370
     0
100
AcDbSpline
210
0.0
220
0.0
230
1.0
 70
     9
 71
     3
 72
    35
 73
    31
 74
     0
 42
0.000000001
 43
0.0000000001
 40
0.0
 40
0.0
 40
0.0
 40
0.0
 40
1.0
 40
1.0
 40
1.0
 40
2.0
 40
2.0
 40
2.0
 40
3.0
 40
3.0
 40
3.0
 40
4.0
 40
4.0
 40
4.0
 40
5.0
 40
5.0
 40
5.0
 40
6.0
 40
6.0
 40
6.0
 40
7.0
 40
7.0
 40
7.0
 40
8.0
 40
8.0
 40
8.0
 40
9.0
 40
9.0
 40
9.0
 40
10.0
 40
10.0
 40
10.0
 40
10.0
 10
11.16427818717766
 20
5.185569649852752
 30
0.0
 10
11.16392425744617
 20
5.185569649852752
 30
0.0
 10
11.16321908946402
 20
5.185569649852752
 30
0.0
 10
11.16286650547296
 20
5.185569649852752
 30
0.0
 10
11.15369393874348
 20
5.186627401825965
 30
0.0
 10
11.1469908056919
 20
5.194388286850745
 30
0.0
 10
11.14804990340554
 20
5.203208269589147
 30
0.0
 10
11.14804990340554
 20
5.203208269589147
 30
0.0
 10
11.15051933708344
 20
5.232136305741853
 30
0.0
 10
11.15051933708344
 20
5.232136305741853
 30
0.0
 10
11.15051933708344
 20
5.232136305741853
 30
0.0
 10
11.17697793955825
 20
5.428985831992022
 30
0.0
 10
11.17697793955825
 20
5.428985831992022
 30
0.0
 10
11.17697793955825
 20
5.428985831992022
 30
0.0
 10
11.20802147965736
 20
5.721085519707216
 30
0.0
 10
11.20802147965736
 20
5.721085519707216
 30
0.0
 10
11.209080577371
 20
5.729905502445632
 30
0.0
 10
11.21648887840471
 20
5.736607289756776
 30
0.0
 10
11.22601402912525
 20
5.735549537783569
 30
0.0
 10
11.2351852501143
 20
5.734491785810355
 30
0.0
 10
11.24153579917481
 20
5.726376971054087
 30
0.0
 10
11.24083063119267
 20
5.717558334056114
 30
0.0
 10
11.24083063119267
 20
5.717558334056114
 30
0.0
 10
11.20943316136206
 20
5.424752132618351
 30
0.0
 10
11.20943316136206
 20
5.424752132618351
 30
0.0
 10
11.20943316136206
 20
5.424752132618351
 30
0.0
 10
11.18050512520936
 20
5.200386251920178
 30
0.0
 10
11.18050512520936
 20
5.200386251920178
 30
0.0
 10
11.17979995722722
 20
5.191918853172843
 30
0.0
 10
11.17274424018457
 20
5.185569649852752
 30
0.0
 10
11.16427818717766
 20
5.185569649852752
 30
0.0
  0
SPLINE
  5
337
330
1F
100
AcDbEntity
  8
Livello 1
370
     0
100
AcDbSpline
210
0.0
220
0.0
230
1.0
 70
     9
 71
     3
 72
    26
 73
    22
 74
     0
 42
0.000000001
 43
0.0000000001
 40
0.0
 40
0.0
 40
0.0
 40
0.0
 40
1.0
 40
1.0
 40
1.0
 40
2.0
 40
2.0
 40
2.0
 40
3.0
 40
3.0
 40
3.0
 40
4.0
 40
4.0
 40
4.0
 40
5.0
 40
5.0
 40
5.0
 40
6.0
 40
6.0
 40
6.0
 40
7.0
 40
7.0
 40
7.0
 40
7.0
 10
11.16427818717766
 20
5.1620043892894
 30
0.0
 10
11.1635716734551
 20
5.1620043892894
 30
0.0
 10
11.16286650547296
 20
5.1620043892894
 30
0.0
 10
11.16216133749082
 20
5.1620043892894
 30
0.0
 10
11.15334135475241
 20
5.163062141262599
 30
0.0
 10
11.1469908056919
 20
5.171528194269527
 30
0.0
 10
11.14804990340554
 20
5.180348177007921
 30
0.0
 10
11.14804990340554
 20
5.180348177007921
 30
0.0
 10
11.15051933708344
 20
5.201161398404373
 30
0.0
 10
11.15051933708344
 20
5.201161398404373
 30
0.0
 10
11.15192967304771
 20
5.210333965133841
 30
0.0
 10
11.15969190381292
 20
5.216331930203274
 30
0.0
 10
11.16886312480198
 20
5.215625416480712
 30
0.0
 10
11.17803569153145
 20
5.214215080516453
 30
0.0
 10
11.18403365660088
 20
5.206101611500585
 30
0.0
 10
11.18297455888725
 20
5.197281628762176
 30
0.0
 10
11.18297455888725
 20
5.197281628762176
 30
0.0
 10
11.18050512520936
 20
5.176467061625317
 30
0.0
 10
11.18050512520936
 20
5.176467061625317
 30
0.0
 10
11.17944737323615
 20
5.168001008618411
 30
0.0
 10
11.17239165619351
 20
5.1620043892894
 30
0.0
 10
11.16427818717766
 20
5.1620043892894
 30
0.0
  0
SPLINE
  5
338
330
1F
100
AcDbEntity
  8
Livello 1
370
     0
100
AcDbSpline
210
0.0
220
0.0
230
1.0
 70
     9
 71
     3
 72
    38
 73
    34
 74
     0
 42
0.000000001
 43
0.0000000001
 40
0.0
 40
0.0
 40
0.0
 40
0.0
 40
1.0
 40
1.0
 40
1.0
 40
2.0
 40
2.0
 40
2.0
 40
3.0
 40
3.0
 40
3.0
 40
4.0
 40
4.0
 40
4.0
 40
5.0
 40
5.0
 40
5.0
 40
6.0
 40
6.0
 40
6.0
 40
7.0
 40
7.0
 40
7.0
 40
8.0
 40
8.0
 40
8.0
 40
9.0
 40
9.0
 40
9.0
 40
10.0
 40
10.0
 40
10.0
 40
11.0
 40
11.0
 40
11.0
 40
11.0
 10
11.13552644302048
 20
7.751817239594089
 30
0.0
 10
11.12811679624635
 20
7.751817239594089
 30
0.0
 10
11.12141500893521
 20
7.756756106949893
 30
0.0
 10
11.11965074323942
 20
7.764164407983606
 30
0.0
 10
11.11965074323942
 20
7.764164407983606
 30
0.0
 10
11.11435929189256
 20
7.784977629380037
 30
0.0
 10
11.11435929189256
 20
7.784977629380037
 30
0.0
 10
11.09954268982514
 20
7.820254868852842
 30
0.0
 10
11.07131982165456
 20
7.843891453658656
 30
0.0
 10
11.03322056451281
 20
7.851299754692384
 30
0.0
 10
11.03322056451281
 20
7.851299754692384
 30
0.0
 10
11.0131125110985
 20
7.853769188370279
 30
0.0
 10
11.0131125110985
 20
7.853769188370279
 30
0.0
 10
11.0042925283601
 20
7.854828286083908
 30
0.0
 10
10.99794197929958
 20
7.863294339090828
 30
0.0
 10
10.99900107701322
 20
7.872114321829243
 30
0.0
 10
11.00041141297749
 20
7.880932958827216
 30
0.0
 10
11.00781971401121
 20
7.887636091878803
 30
0.0
 10
11.01734486473175
 20
7.886224410174094
 30
0.0
 10
11.01734486473175
 20
7.886224410174094
 30
0.0
 10
11.03815943186862
 20
7.883754976496184
 30
0.0
 10
11.03815943186862
 20
7.883754976496184
 30
0.0
 10
11.08790068941775
 20
7.874229825775643
 30
0.0
 10
11.12564736256846
 20
7.842833701685457
 30
0.0
 10
11.1454041777321
 20
7.795207948082733
 30
0.0
 10
11.1454041777321
 20
7.795207948082733
 30
0.0
 10
11.15140079706111
 20
7.772277876999453
 30
0.0
 10
11.15140079706111
 20
7.772277876999453
 30
0.0
 10
11.15351764674795
 20
7.763457894261058
 30
0.0
 10
11.14822619540107
 20
7.754639257263072
 30
0.0
 10
11.13940621266266
 20
7.752169823585155
 30
0.0
 10
11.13834846068946
 20
7.751817239594089
 30
0.0
 10
11.13693677898476
 20
7.751817239594089
 30
0.0
 10
11.13552644302048
 20
7.751817239594089
 30
0.0
  0
SPLINE
  5
339
330
1F
100
AcDbEntity
  8
Livello 1
370
     0
100
AcDbSpline
210
0.0
220
0.0
230
1.0
 70
     9
 71
     3
 72
    32
 73
    28
 74
     0
 42
0.000000001
 43
0.0000000001
 40
0.0
 40
0.0
 40
0.0
 40
0.0
 40
1.0
 40
1.0
 40
1.0
 40
2.0
 40
2.0
 40
2.0
 40
3.0
 40
3.0
 40
3.0
 40
4.0
 40
4.0
 40
4.0
 40
5.0
 40
5.0
 40
5.0
 40
6.0
 40
6.0
 40
6.0
 40
7.0
 40
7.0
 40
7.0
 40
8.0
 40
8.0
 40
8.0
 40
9.0
 40
9.0
 40
9.0
 40
9.0
 10
11.14335865228774
 20
7.670818469218424
 30
0.0
 10
11.13524383753147
 20
7.670818469218424
 30
0.0
 10
11.12818812048882
 20
7.676815088547442
 30
0.0
 10
11.12713036851561
 20
7.684928557563289
 30
0.0
 10
11.12713036851561
 20
7.684928557563289
 30
0.0
 10
11.12183891716874
 20
7.721264894749708
 30
0.0
 10
11.12183891716874
 20
7.721264894749708
 30
0.0
 10
11.12183891716874
 20
7.721264894749708
 30
0.0
 10
11.12183891716874
 20
7.742079461886568
 30
0.0
 10
11.12183891716874
 20
7.742079461886568
 30
0.0
 10
11.12183891716874
 20
7.750898098884555
 30
0.0
 10
11.12924721820246
 20
7.758306399918254
 30
0.0
 10
11.13806585520043
 20
7.758306399918254
 30
0.0
 10
11.14723842192992
 20
7.758306399918254
 30
0.0
 10
11.15429413897256
 20
7.750898098884555
 30
0.0
 10
11.15429413897256
 20
7.742079461886568
 30
0.0
 10
11.15429413897256
 20
7.742079461886568
 30
0.0
 10
11.15429413897256
 20
7.72373432842761
 30
0.0
 10
11.15429413897256
 20
7.72373432842761
 30
0.0
 10
11.15429413897256
 20
7.72373432842761
 30
0.0
 10
11.15958559031943
 20
7.689514840928033
 30
0.0
 10
11.15958559031943
 20
7.689514840928033
 30
0.0
 10
11.16064468803307
 20
7.680696203930033
 30
0.0
 10
11.15464672296362
 20
7.672228805182705
 30
0.0
 10
11.14582808596564
 20
7.670818469218424
 30
0.0
 10
11.14476898825201
 20
7.670818469218424
 30
0.0
 10
11.14406382026987
 20
7.670818469218424
 30
0.0
 10
11.14335865228774
 20
7.670818469218424
 30
0.0
  0
SPLINE
  5
33A
330
1F
100
AcDbEntity
  8
Livello 1
370
     0
100
AcDbSpline
210
0.0
220
0.0
230
1.0
 70
     9
 71
     3
 72
    26
 73
    22
 74
     0
 42
0.000000001
 43
0.0000000001
 40
0.0
 40
0.0
 40
0.0
 40
0.0
 40
1.0
 40
1.0
 40
1.0
 40
2.0
 40
2.0
 40
2.0
 40
3.0
 40
3.0
 40
3.0
 40
4.0
 40
4.0
 40
4.0
 40
5.0
 40
5.0
 40
5.0
 40
6.0
 40
6.0
 40
6.0
 40
7.0
 40
7.0
 40
7.0
 40
7.0
 10
11.23095289648106
 20
6.973623999093106
 30
0.0
 10
11.22283808172478
 20
6.973623999093106
 30
0.0
 10
11.21578236468215
 20
6.979620618422124
 30
0.0
 10
11.21472461270894
 20
6.98808667142903
 30
0.0
 10
11.21472461270894
 20
6.98808667142903
 30
0.0
 10
11.14804990340554
 20
7.570170542913025
 30
0.0
 10
11.14804990340554
 20
7.570170542913025
 30
0.0
 10
11.1469908056919
 20
7.579343109642493
 30
0.0
 10
11.15334135475241
 20
7.587456578658354
 30
0.0
 10
11.16251392148189
 20
7.588515676371983
 30
0.0
 10
11.17203772646201
 20
7.589220844354123
 30
0.0
 10
11.17944602749572
 20
7.582870295293609
 30
0.0
 10
11.18050512520936
 20
7.574051658295623
 30
0.0
 10
11.18050512520936
 20
7.574051658295623
 30
0.0
 10
11.24717983451275
 20
6.991967786811635
 30
0.0
 10
11.24717983451275
 20
6.991967786811635
 30
0.0
 10
11.24823893222638
 20
6.982795220082167
 30
0.0
 10
11.24188838316587
 20
6.974681751066313
 30
0.0
 10
11.2327158164364
 20
6.973623999093106
 30
0.0
 10
11.23201064845426
 20
6.973623999093106
 30
0.0
 10
11.23165806446319
 20
6.973623999093106
 30
0.0
 10
11.23095289648106
 20
6.973623999093106
 30
0.0
  0
SPLINE
  5
33B
330
1F
100
AcDbEntity
  8
Livello 1
370
     0
100
AcDbSpline
210
0.0
220
0.0
230
1.0
 70
     9
 71
     3
 72
    32
 73
    28
 74
     0
 42
0.000000001
 43
0.0000000001
 40
0.0
 40
0.0
 40
0.0
 40
0.0
 40
1.0
 40
1.0
 40
1.0
 40
2.0
 40
2.0
 40
2.0
 40
3.0
 40
3.0
 40
3.0
 40
4.0
 40
4.0
 40
4.0
 40
5.0
 40
5.0
 40
5.0
 40
6.0
 40
6.0
 40
6.0
 40
7.0
 40
7.0
 40
7.0
 40
8.0
 40
8.0
 40
8.0
 40
9.0
 40
9.0
 40
9.0
 40
9.0
 10
5.749457432678774
 20
7.014899203635337
 30
0.0
 10
5.740284865949291
 20
7.014899203635337
 30
0.0
 10
5.733229148906644
 20
7.022307504669058
 30
0.0
 10
5.733229148906644
 20
7.03112614166703
 30
0.0
 10
5.733229148906644
 20
7.03112614166703
 30
0.0
 10
5.733229148906644
 20
7.870032461393421
 30
0.0
 10
5.733229148906644
 20
7.870032461393421
 30
0.0
 10
5.733229148906644
 20
7.879203682382467
 30
0.0
 10
5.740637449940365
 20
7.886611983416187
 30
0.0
 10
5.74981001666984
 20
7.886611983416187
 30
0.0
 10
5.74981001666984
 20
7.886611983416187
 30
0.0
 10
11.01537066352985
 20
7.886611983416187
 30
0.0
 10
11.01537066352985
 20
7.886611983416187
 30
0.0
 10
11.02419064626826
 20
7.886611983416187
 30
0.0
 10
11.03159894730198
 20
7.879203682382467
 30
0.0
 10
11.03159894730198
 20
7.870032461393421
 30
0.0
 10
11.03159894730198
 20
7.861212478655005
 30
0.0
 10
11.02419064626826
 20
7.853804177621299
 30
0.0
 10
11.01537066352985
 20
7.853804177621299
 30
0.0
 10
11.01537066352985
 20
7.853804177621299
 30
0.0
 10
5.766036954701533
 20
7.853804177621299
 30
0.0
 10
5.766036954701533
 20
7.853804177621299
 30
0.0
 10
5.766036954701533
 20
7.853804177621299
 30
0.0
 10
5.765684370710467
 20
7.03112614166703
 30
0.0
 10
5.765684370710467
 20
7.03112614166703
 30
0.0
 10
5.765684370710467
 20
7.022307504669058
 30
0.0
 10
5.758628653667827
 20
7.014899203635337
 30
0.0
 10
5.749457432678774
 20
7.014899203635337
 30
0.0
  0
SPLINE
  5
33C
330
1F
100
AcDbEntity
  8
Livello 1
370
     0
100
AcDbSpline
210
0.0
220
0.0
230
1.0
 70
     9
 71
     3
 72
    35
 73
    31
 74
     0
 42
0.000000001
 43
0.0000000001
 40
0.0
 40
0.0
 40
0.0
 40
0.0
 40
1.0
 40
1.0
 40
1.0
 40
2.0
 40
2.0
 40
2.0
 40
3.0
 40
3.0
 40
3.0
 40
4.0
 40
4.0
 40
4.0
 40
5.0
 40
5.0
 40
5.0
 40
6.0
 40
6.0
 40
6.0
 40
7.0
 40
7.0
 40
7.0
 40
8.0
 40
8.0
 40
8.0
 40
9.0
 40
9.0
 40
9.0
 40
10.0
 40
10.0
 40
10.0
 40
10.0
 10
5.751996844858709
 20
4.864084374240711
 30
0.0
 10
5.742824278129248
 20
4.864084374240711
 30
0.0
 10
5.735768561086601
 20
4.871492675274431
 30
0.0
 10
5.735768561086601
 20
4.880311312272418
 30
0.0
 10
5.735768561086601
 20
4.889483879001886
 30
0.0
 10
5.742824278129248
 20
4.896892180035614
 30
0.0
 10
5.751996844858709
 20
4.896892180035614
 30
0.0
 10
5.751996844858709
 20
4.896892180035614
 30
0.0
 10
11.01226604037185
 20
4.896892180035614
 30
0.0
 10
11.01226604037185
 20
4.896892180035614
 30
0.0
 10
11.01967434140557
 20
4.900419365686715
 30
0.0
 10
11.06024303222524
 20
4.925820216188306
 30
0.0
 10
11.12621257354649
 20
5.060228732508733
 30
0.0
 10
11.13009368892911
 20
5.06798961753352
 30
0.0
 10
11.13926625565857
 20
5.071516803184636
 30
0.0
 10
11.14737972467442
 20
5.06798961753352
 30
0.0
 10
11.15549319369027
 20
5.064461086141989
 30
0.0
 10
11.15937430907287
 20
5.055289865152928
 30
0.0
 10
11.15619970741283
 20
5.04717505039666
 30
0.0
 10
11.15619970741283
 20
5.04717505039666
 30
0.0
 10
11.14279344130968
 20
5.012955562897069
 30
0.0
 10
11.14279344130968
 20
5.012955562897069
 30
0.0
 10
11.14138310534542
 20
5.008723209263834
 30
0.0
 10
11.13785457395388
 20
5.005547261863377
 30
0.0
 10
11.13397345857127
 20
5.003784341908023
 30
0.0
 10
11.06659358128574
 20
4.879606144290278
 30
0.0
 10
11.02637747445715
 20
4.865847294196072
 30
0.0
 10
11.01826265970086
 20
4.864436958231785
 30
0.0
 10
11.01826265970086
 20
4.864436958231785
 30
0.0
 10
5.751996844858709
 20
4.864084374240711
 30
0.0
 10
5.751996844858709
 20
4.864084374240711
 30
0.0
  0
SPLINE
  5
33D
330
1F
100
AcDbEntity
  8
Livello 1
370
     0
100
AcDbSpline
210
0.0
220
0.0
230
1.0
 70
     9
 71
     3
 72
    32
 73
    28
 74
     0
 42
0.000000001
 43
0.0000000001
 40
0.0
 40
0.0
 40
0.0
 40
0.0
 40
1.0
 40
1.0
 40
1.0
 40
2.0
 40
2.0
 40
2.0
 40
3.0
 40
3.0
 40
3.0
 40
4.0
 40
4.0
 40
4.0
 40
5.0
 40
5.0
 40
5.0
 40
6.0
 40
6.0
 40
6.0
 40
7.0
 40
7.0
 40
7.0
 40
8.0
 40
8.0
 40
8.0
 40
9.0
 40
9.0
 40
9.0
 40
9.0
 10
11.13810219019186
 20
7.706978514409314
 30
0.0
 10
11.1289296234624
 20
7.706978514409314
 30
0.0
 10
11.12046222471507
 20
7.712622549747258
 30
0.0
 10
11.11728762305502
 20
7.721795116476734
 30
0.0
 10
11.11728762305502
 20
7.721795116476734
 30
0.0
 10
11.11481818937712
 20
7.729908585492573
 30
0.0
 10
11.11481818937712
 20
7.729908585492573
 30
0.0
 10
11.11411302139498
 20
7.732025435179416
 30
0.0
 10
11.11376043740392
 20
7.734142284866244
 30
0.0
 10
11.11376043740392
 20
7.736611718544146
 30
0.0
 10
11.11376043740392
 20
7.736611718544146
 30
0.0
 10
11.11376043740392
 20
7.754955506262682
 30
0.0
 10
11.11376043740392
 20
7.754955506262682
 30
0.0
 10
11.11376043740392
 20
7.766950090661133
 30
0.0
 10
11.12363817211552
 20
7.776827825372741
 30
0.0
 10
11.13563141077356
 20
7.776827825372741
 30
0.0
 10
11.14762599517199
 20
7.776827825372741
 30
0.0
 10
11.15715114589254
 20
7.766950090661133
 30
0.0
 10
11.15715114589254
 20
7.754955506262682
 30
0.0
 10
11.15715114589254
 20
7.754955506262682
 30
0.0
 10
11.15891541158831
 20
7.735552620830524
 30
0.0
 10
11.15891541158831
 20
7.735552620830524
 30
0.0
 10
11.16244259723942
 20
7.724264550154636
 30
0.0
 10
11.15644597791042
 20
7.711917381765125
 30
0.0
 10
11.14480397750304
 20
7.708036266382507
 30
0.0
 10
11.14268712781619
 20
7.707331098400381
 30
0.0
 10
11.14021769413829
 20
7.706978514409314
 30
0.0
 10
11.13810219019186
 20
7.706978514409314
 30
0.0
  0
SPLINE
  5
33E
330
1F
100
AcDbEntity
  8
Livello 1
370
     0
100
AcDbSpline
210
0.0
220
0.0
230
1.0
 70
     9
 71
     3
 72
    38
 73
    34
 74
     0
 42
0.000000001
 43
0.0000000001
 40
0.0
 40
0.0
 40
0.0
 40
0.0
 40
1.0
 40
1.0
 40
1.0
 40
2.0
 40
2.0
 40
2.0
 40
3.0
 40
3.0
 40
3.0
 40
4.0
 40
4.0
 40
4.0
 40
5.0
 40
5.0
 40
5.0
 40
6.0
 40
6.0
 40
6.0
 40
7.0
 40
7.0
 40
7.0
 40
8.0
 40
8.0
 40
8.0
 40
9.0
 40
9.0
 40
9.0
 40
10.0
 40
10.0
 40
10.0
 40
11.0
 40
11.0
 40
11.0
 40
11.0
 10
11.13552644302048
 20
7.733119522144072
 30
0.0
 10
11.12564736256846
 20
7.733119522144072
 30
0.0
 10
11.11682872557046
 20
7.739821309455216
 30
0.0
 10
11.11435929189256
 20
7.749699044166824
 30
0.0
 10
11.11435929189256
 20
7.749699044166824
 30
0.0
 10
11.10906784054567
 20
7.770513611303684
 30
0.0
 10
11.10906784054567
 20
7.770513611303684
 30
0.0
 10
11.09530899045146
 20
7.80332141709858
 30
0.0
 10
11.06814521999452
 20
7.825898904190779
 30
0.0
 10
11.03216146679918
 20
7.832954621233419
 30
0.0
 10
11.03216146679918
 20
7.832954621233419
 30
0.0
 10
11.01275858136701
 20
7.835071470920254
 30
0.0
 10
11.01275858136701
 20
7.835071470920254
 30
0.0
 10
11.00076399696856
 20
7.836835736616023
 30
0.0
 10
10.99229794396164
 20
7.847418639309772
 30
0.0
 10
10.99370962566635
 20
7.859413223708223
 30
0.0
 10
10.99511996163062
 20
7.871407808106674
 30
0.0
 10
11.00605679405586
 20
7.879873861113594
 30
0.0
 10
11.01805137845432
 20
7.878463525149307
 30
0.0
 10
11.01805137845432
 20
7.878463525149307
 30
0.0
 10
11.03886459985075
 20
7.875641507480345
 30
0.0
 10
11.03886459985075
 20
7.875641507480345
 30
0.0
 10
11.09107529107781
 20
7.865763772768737
 30
0.0
 10
11.12988106194211
 20
7.833307205224485
 30
0.0
 10
11.1503430450879
 20
7.784271115657482
 30
0.0
 10
11.1503430450879
 20
7.784271115657482
 30
0.0
 10
11.156692248408
 20
7.760283292601002
 30
0.0
 10
11.156692248408
 20
7.760283292601002
 30
0.0
 10
11.15951426607696
 20
7.748641292193632
 30
0.0
 10
11.15245854903433
 20
7.736646707795181
 30
0.0
 10
11.14081789436736
 20
7.733824690126212
 30
0.0
 10
11.1390536286716
 20
7.733472106135138
 30
0.0
 10
11.13728936297582
 20
7.733119522144072
 30
0.0
 10
11.13552644302048
 20
7.733119522144072
 30
0.0
  0
POLYLINE
  5
33F
330
1F
100
AcDbEntity
  8
Livello 1
370
     9
100
AcDb2dPolyline
 66
     1
 10
0.0
 20
0.0
 30
0.0
  0
VERTEX
  5
340
330
33F
100
AcDbEntity
  8
Livello 1
370
     9
100
AcDbVertex
100
AcDb2dVertex
 10
11.10292991847215
 20
3.836513321522495
 30
0.0
  0
VERTEX
  5
341
330
33F
100
AcDbEntity
  8
Livello 1
370
     9
100
AcDbVertex
100
AcDb2dVertex
 10
5.960840955507322
 20
3.836513321522495
 30
0.0
  0
SEQEND
  5
342
330
33F
100
AcDbEntity
  8
Livello 1
370
     9
  0
MTEXT
  5
343
330
1F
100
AcDbEntity
  8
Livello 1
100
AcDbMText
 10
4.606315538094222
 20
0.8652611139794359
 30
0.0
 40
1.998133332833799
 41
0.0
 46
0.0
 71
     7
 72
     1
  1
\fSource Sans Pro Light|b0|i0|c0|p34;\W1;64 mm
 73
     1
 44
1.0
  0
MTEXT
  5
344
330
1F
100
AcDbEntity
  8
Livello 1
100
AcDbMText
 10
0.1263874009150427
 20
5.24811159031428
 30
0.0
 40
2.123016666135912
 41
0.0
 46
0.0
 71
     7
 72
     1
  1
\fSource Sans Pro SemiBold|b0|i0|c0|p34;\W1;R
 73
     1
 44
1.0
  0
SPLINE
  5
345
330
1F
100
AcDbEntity
  8
Livello 1
 62
     1
370
    50
100
AcDbSpline
210
0.0
220
0.0
230
1.0
 70
    27
 71
     3
 72
    11
 73
     7
 74
     0
 42
0.000000001
 43
0.0000000001
 40
0.0
 40
0.0
 40
0.0
 40
0.0
 40
1.0
 40
1.0
 40
1.0
 40
2.0
 40
2.0
 40
2.0
 40
2.0
 10
2.87777521337891
 20
5.987857026944965
 30
0.0
 10
2.87777521337891
 20
5.987857026944965
 30
0.0
 10
11.15076695333879
 20
5.987857026944965
 30
0.0
 10
11.15076695333879
 20
5.987857026944965
 30
0.0
 10
11.15076695333879
 20
5.987857026944965
 30
0.0
 10
2.87777521337891
 20
5.987857026944965
 30
0.0
 10
2.87777521337891
 20
5.987857026944965
 30
0.0
  0
ENDSEC
  0
SECTION
  2
OBJECTS
  0
DICTIONARY
  5
C
330
0
100
AcDbDictionary
281
     1
  3
ACAD_CIP_PREVIOUS_PRODUCT_INFO
350
216
  3
ACAD_COLOR
350
6B
  3
ACAD_DETAILVIEWSTYLE
350
21B
  3
ACAD_GROUP
350
D
  3
ACAD_LAYOUT
350
1A
  3
ACAD_MATERIAL
350
6A
  3
ACAD_MLEADERSTYLE
350
12D
  3
ACAD_MLINESTYLE
350
17
  3
ACAD_PLOTSETTINGS
350
19
  3
ACAD_PLOTSTYLENAME
350
E
  3
ACAD_SCALELIST
350
10C
  3
ACAD_SECTIONVIEWSTYLE
350
219
  3
ACAD_TABLESTYLE
350
7E
  3
ACAD_VISUALSTYLE
350
EF
  3
ACDB_RECOMPOSE_DATA
350
347
  3
AcDbVariableDictionary
350
5E
  3
AcDsDecomposeData
350
34D
  0
DICTIONARY
  5
1FF
330
2
100
AcDbDictionary
280
     1
281
     1
  3
ACAD_LAYERSTATES
360
200
  0
DICTIONARY
  5
13C
330
10
100
AcDbDictionary
280
     1
281
     1
  0
DICTIONARY
  5
1CE
330
1F
100
AcDbDictionary
280
     1
281
     1
  0
XRECORD
  5
216
102
{ACAD_REACTORS
330
C
102
}
330
C
100
AcDbXrecord
280
     1
300
ACD
300
2020
300

  0
DICTIONARY
  5
6B
102
{ACAD_REACTORS
330
C
102
}
330
C
100
AcDbDictionary
281
     1
  0
DICTIONARY
  5
21B
102
{ACAD_REACTORS
330
C
102
}
330
C
100
AcDbDictionary
281
     1
  3
Imperial24
350
28E
  3
Metric50
350
21C
  0
DICTIONARY
  5
D
102
{ACAD_REACTORS
330
C
102
}
330
C
100
AcDbDictionary
281
     1
  0
DICTIONARY
  5
1A
102
{ACAD_REACTORS
330
C
102
}
330
C
100
AcDbDictionary
281
     1
  3
Layout1
350
D3
  3
Layout2
350
D7
  3
Model
350
22
  0
DICTIONARY
  5
6A
102
{ACAD_REACTORS
330
C
102
}
330
C
100
AcDbDictionary
281
     1
  3
ByBlock
350
ED
  3
ByLayer
350
EC
  3
Global
350
EE
  0
DICTIONARY
  5
12D
102
{ACAD_REACTORS
330
C
102
}
330
C
100
AcDbDictionary
281
     1
  3
Annotativa
350
13B
  3
Standard
350
12E
  0
DICTIONARY
  5
17
102
{ACAD_REACTORS
330
C
102
}
330
C
100
AcDbDictionary
281
     1
  3
Standard
350
18
  0
DICTIONARY
  5
19
102
{ACAD_REACTORS
330
C
102
}
330
C
100
AcDbDictionary
281
     1
  0
ACDBDICTIONARYWDFLT
  5
E
102
{ACAD_REACTORS
330
C
102
}
330
C
100
AcDbDictionary
281
     1
  3
Normal
350
F
100
AcDbDictionaryWithDefault
340
F
  0
DICTIONARY
  5
10C
102
{ACAD_REACTORS
330
C
102
}
330
C
100
AcDbDictionary
281
     1
  3
A0
350
10D
  3
A1
350
1BE
  3
A2
350
1BF
  3
A3
350
1C0
  3
A4
350
1C1
  3
A5
350
1C2
  3
A6
350
1C3
  3
A7
350
1C4
  3
A8
350
1C5
  3
A9
350
1C6
  3
B0
350
1C7
  3
B1
350
1C8
  3
B2
350
1C9
  3
B3
350
1CA
  3
B4
350
1CB
  3
B5
350
1CC
  3
B6
350
1CD
  0
DICTIONARY
  5
219
102
{ACAD_REACTORS
330
C
102
}
330
C
100
AcDbDictionary
281
     1
  3
Imperial24
350
28D
  3
Metric50
350
21A
  0
DICTIONARY
  5
7E
102
{ACAD_REACTORS
330
C
102
}
330
C
100
AcDbDictionary
281
     1
  3
Standard
350
7F
  0
DICTIONARY
  5
EF
102
{ACAD_REACTORS
330
C
102
}
330
C
100
AcDbDictionary
281
     1
  3
2dWireframe
350
F5
  3
Basic
350
F4
  3
Brighten
350
FB
  3
ColorChange
350
FF
  3
Conceptual
350
F8
  3
Dim
350
FA
  3
EdgeColorOff
350
1E6
  3
Facepattern
350
FE
  3
Flat
350
F0
  3
FlatWithEdges
350
F1
  3
Gouraud
350
F2
  3
GouraudWithEdges
350
F3
  3
Hidden
350
F7
  3
JitterOff
350
1E4
  3
Linepattern
350
FD
  3
OverhangOff
350
1E5
  3
Realistic
350
F9
  3
Shaded
350
1F3
  3
Shaded with edges
350
1F2
  3
Shades of Gray
350
1EF
  3
Sketchy
350
1F0
  3
Thicken
350
FC
  3
Wireframe
350
F6
  3
X-Ray
350
1F1
  0
XRECORD
  5
347
102
{ACAD_REACTORS
330
C
102
}
330
C
100
AcDbXrecord
280
     1
 90
        1
330
7F
  0
DICTIONARY
  5
5E
102
{ACAD_REACTORS
330
C
102
}
330
C
100
AcDbDictionary
281
     1
  3
CANNOSCALE
350
146
  3
CENTEREXE
350
259
  3
CENTERLTYPEFILE
350
25A
  3
CMLEADERSTYLE
350
145
  3
CTABLESTYLE
350
84
  3
CVIEWDETAILSTYLE
350
227
  3
CVIEWSECTIONSTYLE
350
228
  3
DIMASSOC
350
5F
  3
HIDETEXT
350
63
  3
LAYEREVAL
350
1AE
  3
LAYERNOTIFY
350
1AF
  0
DICTIONARY
  5
34D
102
{ACAD_REACTORS
330
C
102
}
330
C
100
AcDbDictionary
281
     1
  3
AcDsRecords
350
34F
  3
AcDsSchemas
350
34E
1001
ACAD
1070
     2
  0
DICTIONARY
  5
200
102
{ACAD_REACTORS
330
1FF
102
}
330
1FF
100
AcDbDictionary
281
     1
  0
ACDBDETAILVIEWSTYLE
  5
28E
102
{ACAD_XDICTIONARY
360
356
102
}
102
{ACAD_REACTORS
330
21B
102
}
330
21B
100
AcDbModelDocViewStyle
 70
     0
  3
Imperial24
290
     0
100
AcDbDetailViewStyle
 70
     0
 71
     0
 90
        3
 71
     1
340
11
 62
   256
 40
0.24
340
0
 62
   256
 40
0.24
300

 40
0.36
280
     3
 71
     2
340
16
 90
       25
 62
   256
 71
     3
340
11
 62
   256
 40
0.24
 90
        1
 40
0.75
 90
        1
300
%<\AcVar ViewType \f "%tc1">% %<\AcVar ViewDetailId>%\PSCALA %<\AcVar ViewScale \f "%sn">%
 71
     4
340
16
 90
       25
 62
   256
340
16
 90
       25
 62
   256
280
     0
  0
ACDBDETAILVIEWSTYLE
  5
21C
102
{ACAD_XDICTIONARY
360
352
102
}
102
{ACAD_REACTORS
330
21B
102
}
330
21B
100
AcDbModelDocViewStyle
 70
     0
  3
Metric50
290
     0
100
AcDbDetailViewStyle
 70
     0
 71
     0
 90
        3
 71
     1
340
11
 62
   256
 40
5.0
340
0
 62
   256
 40
5.0
300

 40
0.0
280
     1
 71
     2
340
16
 90
       25
 62
   256
 71
     3
340
11
 62
   256
 40
5.0
 90
        0
 40
15.0
 90
        1
300
%<\AcVar ViewDetailId>% (%<\AcVar ViewScale \f "%sn">%)
 71
     4
340
16
 90
       25
 62
   256
340
16
 90
       25
 62
   256
280
     0
  0
LAYOUT
  5
D3
102
{ACAD_REACTORS
330
1A
102
}
330
1A
100
AcDbPlotSettings
  1

  2
C:\Documents and Settings\basas\Application Data\Autodesk\AutoCAD 2005\R16.1\enu\plotters\Default Windows System Printer.pc3
  4

  6

 40
0.0
 41
0.0
 42
0.0
 43
0.0
 44
0.0
 45
0.0
 46
0.0
 47
0.0
 48
0.0
 49
0.0
140
0.0
141
0.0
142
1.0
143
1.0
 70
   688
 72
     0
 73
     0
 74
     5
  7

 75
    16
147
1.0
 76
     0
 77
     2
 78
   300
148
0.0
149
0.0
100
AcDbLayout
  1
Layout1
 70
     1
 71
     1
 10
0.0
 20
0.0
 11
12.0
 21
9.0
 12
0.0
 22
0.0
 32
0.0
 14
0.0
 24
0.0
 34
0.0
 15
0.0
 25
0.0
 35
0.0
146
0.0
 13
0.0
 23
0.0
 33
0.0
 16
1.0
 26
0.0
 36
0.0
 17
0.0
 27
1.0
 37
0.0
 76
     0
330
D2
  0
LAYOUT
  5
D7
102
{ACAD_REACTORS
330
1A
102
}
330
1A
100
AcDbPlotSettings
  1

  2
C:\Documents and Settings\basas\Application Data\Autodesk\AutoCAD 2005\R16.1\enu\plotters\Default Windows System Printer.pc3
  4

  6

 40
0.0
 41
0.0
 42
0.0
 43
0.0
 44
0.0
 45
0.0
 46
0.0
 47
0.0
 48
0.0
 49
0.0
140
0.0
141
0.0
142
1.0
143
1.0
 70
   688
 72
     0
 73
     0
 74
     5
  7

 75
    16
147
1.0
 76
     0
 77
     2
 78
   300
148
0.0
149
0.0
100
AcDbLayout
  1
Layout2
 70
     1
 71
     2
 10
0.0
 20
0.0
 11
12.0
 21
9.0
 12
0.0
 22
0.0
 32
0.0
 14
0.0
 24
0.0
 34
0.0
 15
0.0
 25
0.0
 35
0.0
146
0.0
 13
0.0
 23
0.0
 33
0.0
 16
1.0
 26
0.0
 36
0.0
 17
0.0
 27
1.0
 37
0.0
 76
     0
330
D6
  0
LAYOUT
  5
22
102
{ACAD_XDICTIONARY
360
205
102
}
102
{ACAD_REACTORS
330
1A
102
}
330
1A
100
AcDbPlotSettings
  1

  2
none_device
  4
ISO_A4_(210.00_x_297.00_MM)
  6

 40
7.5
 41
20.0
 42
7.5
 43
20.0
 44
210.0
 45
297.0
 46
11.54999923706054
 47
-13.65000009536743
 48
0.0
 49
0.0
140
0.0
141
0.0
142
1.0
143
8.704084754739808
 70
 11952
 72
     1
 73
     0
 74
     0
  7

 75
     0
147
0.1148885871608098
 76
     0
 77
     2
 78
   300
148
0.0
149
0.0
100
AcDbLayout
  1
Model
 70
     1
 71
     0
 10
0.0
 20
0.0
 11
12.0
 21
9.0
 12
0.0
 22
0.0
 32
0.0
 14
0.0
 24
0.0
 34
0.0
 15
0.0
 25
0.0
 35
0.0
146
0.0
 13
0.0
 23
0.0
 33
0.0
 16
1.0
 26
0.0
 36
0.0
 17
0.0
 27
1.0
 37
0.0
 76
     0
330
1F
331
EA
1001
ACAD_PSEXT
1000
None
1000
None
1000
Not applicable
1000
The layout will not be plotted unless a new plotter configuration name is selected.
1070
     0
  0
MATERIAL
  5
ED
102
{ACAD_XDICTIONARY
360
1F9
102
}
102
{ACAD_REACTORS
330
6A
102
}
330
6A
100
AcDbMaterial
  1
ByBlock
 94
       63
  0
MATERIAL
  5
EC
102
{ACAD_XDICTIONARY
360
1F7
102
}
102
{ACAD_REACTORS
330
6A
102
}
330
6A
100
AcDbMaterial
  1
ByLayer
 94
       63
  0
MATERIAL
  5
EE
102
{ACAD_XDICTIONARY
360
173
102
}
102
{ACAD_REACTORS
330
6A
102
}
330
6A
100
AcDbMaterial
  1
Global
 43
0.0007999999797903
 43
0.0
 43
0.0
 43
0.0
 43
0.0
 43
0.0007999999797903
 43
0.0
 43
0.0
 43
0.0
 43
0.0
 43
1.0
 43
0.0
 43
0.0
 43
0.0
 43
0.0
 43
1.0
 49
0.0007999999797903
 49
0.0
 49
0.0
 49
0.0
 49
0.0
 49
0.0007999999797903
 49
0.0
 49
0.0
 49
0.0
 49
0.0
 49
1.0
 49
0.0
 49
0.0
 49
0.0
 49
0.0
 49
1.0
142
0.0007999999797903
142
0.0
142
0.0
142
0.0
142
0.0
142
0.0007999999797903
142
0.0
142
0.0
142
0.0
142
0.0
142
1.0
142
0.0
142
0.0
142
0.0
142
0.0
142
1.0
144
0.0007999999797903
144
0.0
144
0.0
144
0.0
144
0.0
144
0.0007999999797903
144
0.0
144
0.0
144
0.0
144
0.0
144
1.0
144
0.0
144
0.0
144
0.0
144
0.0
144
1.0
 94
       63
1001
ACAD
1070
    -1
1070
     3
1070
     0
1000

1071
        0
1070
     0
  0
MLEADERSTYLE
  5
13B
102
{ACAD_REACTORS
330
12D
102
}
330
12D
100
AcDbMLeaderStyle
179
     2
170
     2
171
     1
172
     0
 90
        2
 40
0.0
 41
0.0
173
     1
 91
-1056964608
340
14
 92
       -2
290
     1
 42
2.0
291
     1
 43
8.0
  3
Standard
 44
4.0
300

342
11
174
     1
178
     1
175
     1
176
     0
 93
-1056964608
 45
4.0
292
     0
297
     0
 46
4.0
 94
-1056964608
 47
1.0
 49
1.0
140
1.0
293
     1
141
0.0
294
     1
177
     0
142
1.0
295
     0
296
     1
143
3.75
271
     0
272
     9
273
     9
298
     0
  0
MLEADERSTYLE
  5
12E
102
{ACAD_REACTORS
330
12D
102
}
330
12D
100
AcDbMLeaderStyle
179
     2
170
     2
171
     1
172
     0
 90
        2
 40
0.0
 41
0.0
173
     1
 91
-1056964608
340
14
 92
       -2
290
     1
 42
2.0
291
     1
 43
8.0
  3
Standard
 44
4.0
300

342
11
174
     1
178
     1
175
     1
176
     0
 93
-1056964608
 45
4.0
292
     0
297
     0
 46
4.0
 94
-1056964608
 47
1.0
 49
1.0
140
1.0
293
     1
141
0.0
294
     1
177
     0
142
1.0
295
     0
296
     0
143
3.75
271
     0
272
     9
273
     9
298
     0
  0
MLINESTYLE
  5
18
102
{ACAD_REACTORS
330
17
102
}
330
17
100
AcDbMlineStyle
  2
STANDARD
 70
     0
  3

 62
   256
 51
90.0
 52
90.0
 71
     2
 49
0.5
 62
   256
  6
BYLAYER
 49
-0.5
 62
   256
  6
BYLAYER
  0
ACDBPLACEHOLDER
  5
F
102
{ACAD_REACTORS
330
E
102
}
330
E
  0
SCALE
  5
10D
102
{ACAD_REACTORS
330
10C
102
}
330
10C
100
AcDbScale
 70
     0
300
1:1
140
1.0
141
1.0
290
     1
  0
SCALE
  5
1BE
102
{ACAD_REACTORS
330
10C
102
}
330
10C
100
AcDbScale
 70
     0
300
1:2
140
1.0
141
2.0
290
     0
  0
SCALE
  5
1BF
102
{ACAD_REACTORS
330
10C
102
}
330
10C
100
AcDbScale
 70
     0
300
1:4
140
1.0
141
4.0
290
     0
  0
SCALE
  5
1C0
102
{ACAD_REACTORS
330
10C
102
}
330
10C
100
AcDbScale
 70
     0
300
1:5
140
1.0
141
5.0
290
     0
  0
SCALE
  5
1C1
102
{ACAD_REACTORS
330
10C
102
}
330
10C
100
AcDbScale
 70
     0
300
1:8
140
1.0
141
8.0
290
     0
  0
SCALE
  5
1C2
102
{ACAD_REACTORS
330
10C
102
}
330
10C
100
AcDbScale
 70
     0
300
1:10
140
1.0
141
10.0
290
     0
  0
SCALE
  5
1C3
102
{ACAD_REACTORS
330
10C
102
}
330
10C
100
AcDbScale
 70
     0
300
1:16
140
1.0
141
16.0
290
     0
  0
SCALE
  5
1C4
102
{ACAD_REACTORS
330
10C
102
}
330
10C
100
AcDbScale
 70
     0
300
1:20
140
1.0
141
20.0
290
     0
  0
SCALE
  5
1C5
102
{ACAD_REACTORS
330
10C
102
}
330
10C
100
AcDbScale
 70
     0
300
1:30
140
1.0
141
30.0
290
     0
  0
SCALE
  5
1C6
102
{ACAD_REACTORS
330
10C
102
}
330
10C
100
AcDbScale
 70
     0
300
1:40
140
1.0
141
40.0
290
     0
  0
SCALE
  5
1C7
102
{ACAD_REACTORS
330
10C
102
}
330
10C
100
AcDbScale
 70
     0
300
1:50
140
1.0
141
50.0
290
     0
  0
SCALE
  5
1C8
102
{ACAD_REACTORS
330
10C
102
}
330
10C
100
AcDbScale
 70
     0
300
1:100
140
1.0
141
100.0
290
     0
  0
SCALE
  5
1C9
102
{ACAD_REACTORS
330
10C
102
}
330
10C
100
AcDbScale
 70
     0
300
2:1
140
2.0
141
1.0
290
     0
  0
SCALE
  5
1CA
102
{ACAD_REACTORS
330
10C
102
}
330
10C
100
AcDbScale
 70
     0
300
4:1
140
4.0
141
1.0
290
     0
  0
SCALE
  5
1CB
102
{ACAD_REACTORS
330
10C
102
}
330
10C
100
AcDbScale
 70
     0
300
8:1
140
8.0
141
1.0
290
     0
  0
SCALE
  5
1CC
102
{ACAD_REACTORS
330
10C
102
}
330
10C
100
AcDbScale
 70
     0
300
10:1
140
10.0
141
1.0
290
     0
  0
SCALE
  5
1CD
102
{ACAD_REACTORS
330
10C
102
}
330
10C
100
AcDbScale
 70
     0
300
100:1
140
100.0
141
1.0
290
     0
  0
ACDBSECTIONVIEWSTYLE
  5
28D
102
{ACAD_XDICTIONARY
360
354
102
}
102
{ACAD_REACTORS
330
219
102
}
330
219
100
AcDbModelDocViewStyle
 70
     0
  3
Imperial24
290
     0
100
AcDbSectionViewStyle
 70
     0
 71
     0
 90
       78
 71
     1
340
11
 62
   256
 40
0.24
340
0
340
0
 62
   256
 40
0.24
300
I, O, Q, S, X, Z
 40
0.48
 90
        3
 40
0.18
 90
        1
 71
     2
340
16
 90
       25
 62
   256
340
16
 90
       50
 62
   256
 40
0.24
 40
0.0
 40
0.24
 71
     3
340
11
 62
   256
 40
0.24
 90
        1
 40
0.75
 90
        1
300
%<\AcVar ViewType \f "%tc1">% %<\AcVar ViewSectionStartId>%-%<\AcVar ViewSectionEndId>%\PSCALA %<\AcVar ViewScale \f "%sn">%
 71
     4
 62
   256
 62
   257
300
ANSI31
 40
1.0
 90
        0
290
     0
290
     0
 90
        6
 40
0.0
 40
1.570796326794896
 40
0.2617993877991494
 40
1.308996938995747
 40
-0.2617993877991494
 40
1.832595714594046
  0
ACDBSECTIONVIEWSTYLE
  5
21A
102
{ACAD_XDICTIONARY
360
350
102
}
102
{ACAD_REACTORS
330
219
102
}
330
219
100
AcDbModelDocViewStyle
 70
     0
  3
Metric50
290
     0
100
AcDbSectionViewStyle
 70
     0
 71
     0
 90
      102
 71
     1
340
11
 62
   256
 40
5.0
340
0
340
0
 62
   256
 40
5.0
300
I, O, Q, S, X, Z
 40
10.0
 90
        0
 40
2.5
 90
        0
 71
     2
340
16
 90
       25
 62
   256
340
16
 90
       50
 62
   256
 40
5.0
 40
2.5
 40
5.0
 71
     3
340
11
 62
   256
 40
5.0
 90
        0
 40
15.0
 90
        1
300
%<\AcVar ViewSectionStartId>%-%<\AcVar ViewSectionEndId>% (%<\AcVar ViewScale \f "%sn">%)
 71
     4
 62
   256
 62
   257
300
ANSI31
 40
1.0
 90
        0
290
     0
290
     0
 90
        6
 40
0.0
 40
1.570796326794896
 40
0.2617993877991494
 40
1.308996938995747
 40
-0.2617993877991494
 40
1.832595714594046
  0
TABLESTYLE
  5
7F
102
{ACAD_XDICTIONARY
360
162
102
}
102
{ACAD_REACTORS
330
7E
102
}
330
7E
100
AcDbTableStyle
280
     0
  3
Standard
 70
     0
 71
     0
 40
1.5
 41
1.5
280
     0
281
     0
  7
Standard
140
4.5
170
     2
 62
     0
 63
     7
283
     0
 90
      512
 91
        0
  1

274
    -2
284
     1
 64
     0
275
    -2
285
     1
 65
     0
276
    -2
286
     1
 66
     0
277
    -2
287
     1
 67
     0
278
    -2
288
     1
 68
     0
279
    -2
289
     1
 69
     0
  7
Standard
140
6.0
170
     5
 62
     0
 63
     7
283
     0
 90
      512
 91
        0
  1

274
    -2
284
     1
 64
     0
275
    -2
285
     1
 65
     0
276
    -2
286
     1
 66
     0
277
    -2
287
     1
 67
     0
278
    -2
288
     1
 68
     0
279
    -2
289
     1
 69
     0
  7
Standard
140
4.5
170
     5
 62
     0
 63
     7
283
     0
 90
      512
 91
        0
  1

274
    -2
284
     1
 64
     0
275
    -2
285
     1
 65
     0
276
    -2
286
     1
 66
     0
277
    -2
287
     1
 67
     0
278
    -2
288
     1
 68
     0
279
    -2
289
     1
 69
     0
  0
VISUALSTYLE
  5
F5
102
{ACAD_REACTORS
330
EF
102
}
330
EF
100
AcDbVisualStyle
  2
2dWireframe
 70
     4
177
     3
291
     0
 70
    58
 90
        0
176
     1
 90
        2
176
     1
 90
        1
176
     1
 90
        0
176
     1
 40
0.6
176
     1
 40
30.0
176
     1
 62
     7
420
 16777215
176
     1
 90
        1
176
     1
 90
        4
176
     1
 62
     7
176
     1
 62
   257
176
     1
 90
        1
176
     1
 90
        1
176
     1
 40
1.0
176
     1
 90
        0
176
     1
 62
   257
176
     1
 40
1.0
176
     1
 90
        1
176
     1
 90
        6
176
     1
 90
        2
176
     1
 62
     7
176
     1
 90
        5
176
     1
 90
        0
176
     1
 90
        0
176
     1
290
     0
176
     1
 90
        1
176
     1
 40
0.0
176
     1
 90
        0
176
     1
290
     1
176
     1
290
     1
176
     1
290
     0
176
     1
290
     0
176
     1
290
     0
176
     1
290
     0
176
     1
290
     0
176
     1
290
     0
176
     1
290
     0
176
     1
 90
       50
176
     1
 40
0.0
176
     1
 40
1.0
176
     1
 90
        0
176
     1
 62
    18
420
        0
176
     1
 90
       50
176
     1
 90
        3
176
     1
 62
     5
420
      255
176
     1
290
     0
176
     1
 90
       50
176
     1
 90
       50
176
     1
 90
       50
176
     1
290
     0
176
     1
 90
       50
176
     1
 62
   256
176
     0
 40
1.0
176
     0
 90
        2
176
     1
  1
strokes_ogs.tif
176
     1
290
     0
176
     1
 40
1.0
176
     1
 40
1.0
176
     1
1001
ACAD
1000
AcDbSavedByObjectVersion
1070
     0
  0
VISUALSTYLE
  5
F4
102
{ACAD_REACTORS
330
EF
102
}
330
EF
100
AcDbVisualStyle
  2
Basic
 70
     7
177
     3
291
     1
 70
    58
 90
        1
176
     1
 90
        0
176
     1
 90
        1
176
     1
 90
        0
176
     1
 40
0.6
176
     1
 40
30.0
176
     1
 62
     7
420
 16777215
176
     1
 90
        0
176
     1
 90
        4
176
     1
 62
     7
176
     1
 62
   257
176
     1
 90
        1
176
     1
 90
        1
176
     1
 40
1.0
176
     1
 90
        8
176
     1
 62
     7
176
     1
 40
1.0
176
     1
 90
        1
176
     1
 90
        6
176
     1
 90
        2
176
     1
 62
     7
176
     1
 90
        5
176
     1
 90
        0
176
     1
 90
        0
176
     1
290
     0
176
     1
 90
        1
176
     1
 40
0.0
176
     1
 90
        0
176
     1
290
     0
176
     1
290
     1
176
     1
290
     1
176
     1
290
     0
176
     1
290
     0
176
     1
290
     0
176
     1
290
     0
176
     1
290
     0
176
     1
290
     0
176
     1
 90
       50
176
     1
 40
0.0
176
     1
 40
1.0
176
     1
 90
        0
176
     1
 62
    18
420
        0
176
     1
 90
       50
176
     1
 90
        3
176
     1
 62
     5
420
      255
176
     1
290
     0
176
     1
 90
       50
176
     1
 90
       50
176
     1
 90
       50
176
     1
290
     0
176
     1
 90
       50
176
     1
 62
   256
176
     0
 40
1.0
176
     0
 90
        2
176
     1
  1
strokes_ogs.tif
176
     1
290
     0
176
     1
 40
1.0
176
     1
 40
1.0
176
     1
1001
ACAD
1000
AcDbSavedByObjectVersion
1070
     0
  0
VISUALSTYLE
  5
FB
102
{ACAD_REACTORS
330
EF
102
}
330
EF
100
AcDbVisualStyle
  2
Brighten
 70
    12
177
     3
291
     1
 70
    58
 90
        2
176
     1
 90
        2
176
     1
 90
        1
176
     1
 90
        0
176
     1
 40
0.6
176
     1
 40
30.0
176
     1
 62
     7
420
 16777215
176
     1
 90
        1
176
     1
 90
        4
176
     1
 62
     7
176
     1
 62
   257
176
     1
 90
        1
176
     1
 90
        1
176
     1
 40
1.0
176
     1
 90
        8
176
     1
 62
     7
176
     1
 40
1.0
176
     1
 90
        1
176
     1
 90
        6
176
     1
 90
        2
176
     1
 62
     7
176
     1
 90
        5
176
     1
 90
        0
176
     1
 90
        0
176
     1
290
     0
176
     1
 90
        1
176
     1
 40
50.0
176
     1
 90
        0
176
     1
290
     0
176
     1
290
     1
176
     1
290
     1
176
     1
290
     0
176
     1
290
     0
176
     1
290
     0
176
     1
290
     0
176
     1
290
     0
176
     1
290
     0
176
     1
 90
       50
176
     1
 40
0.0
176
     1
 40
1.0
176
     1
 90
        0
176
     1
 62
    18
420
        0
176
     1
 90
       50
176
     1
 90
        3
176
     1
 62
     5
420
      255
176
     1
290
     0
176
     1
 90
       50
176
     1
 90
       50
176
     1
 90
       50
176
     1
290
     0
176
     1
 90
       50
176
     1
 62
   256
176
     0
 40
1.0
176
     0
 90
        2
176
     1
  1
strokes_ogs.tif
176
     1
290
     0
176
     1
 40
1.0
176
     1
 40
1.0
176
     1
1001
ACAD
1000
AcDbSavedByObjectVersion
1070
     0
  0
VISUALSTYLE
  5
FF
102
{ACAD_REACTORS
330
EF
102
}
330
EF
100
AcDbVisualStyle
  2
ColorChange
 70
    16
177
     3
291
     1
 70
    58
 90
        2
176
     1
 90
        2
176
     1
 90
        3
176
     1
 90
        0
176
     1
 40
0.6
176
     1
 40
30.0
176
     1
 62
     8
420
  8421504
176
     1
 90
        1
176
     1
 90
        4
176
     1
 62
     7
176
     1
 62
   257
176
     1
 90
        1
176
     1
 90
        1
176
     1
 40
1.0
176
     1
 90
        8
176
     1
 62
     8
420
  8421504
176
     1
 40
1.0
176
     1
 90
        1
176
     1
 90
        6
176
     1
 90
        2
176
     1
 62
     7
176
     1
 90
        5
176
     1
 90
        0
176
     1
 90
        0
176
     1
290
     0
176
     1
 90
        1
176
     1
 40
0.0
176
     1
 90
        0
176
     1
290
     0
176
     1
290
     1
176
     1
290
     1
176
     1
290
     0
176
     1
290
     0
176
     1
290
     0
176
     1
290
     0
176
     1
290
     0
176
     1
290
     0
176
     1
 90
       50
176
     1
 40
0.0
176
     1
 40
1.0
176
     1
 90
        0
176
     1
 62
    18
420
        0
176
     1
 90
       50
176
     1
 90
        3
176
     1
 62
     5
420
      255
176
     1
290
     0
176
     1
 90
       50
176
     1
 90
       50
176
     1
 90
       50
176
     1
290
     0
176
     1
 90
       50
176
     1
 62
   256
176
     0
 40
1.0
176
     0
 90
        2
176
     1
  1
strokes_ogs.tif
176
     1
290
     0
176
     1
 40
1.0
176
     1
 40
1.0
176
     1
1001
ACAD
1000
AcDbSavedByObjectVersion
1070
     0
  0
VISUALSTYLE
  5
F8
102
{ACAD_REACTORS
330
EF
102
}
330
EF
100
AcDbVisualStyle
  2
Conceptual
 70
     9
177
     3
291
     0
 70
    58
 90
        3
176
     1
 90
        2
176
     1
 90
        1
176
     1
 90
        0
176
     1
 40
0.6
176
     1
 40
30.0
176
     1
 62
     7
420
 16777215
176
     1
 90
        2
176
     1
 90
        2
176
     1
 62
     7
176
     1
 62
   257
176
     1
 90
        1
176
     1
 90
        1
176
     1
 40
40.0
176
     1
 90
        8
176
     1
 62
     7
176
     1
 40
1.0
176
     1
 90
        1
176
     1
 90
        6
176
     1
 90
        2
176
     1
 62
     7
176
     1
 90
        3
176
     1
 90
        0
176
     1
 90
        0
176
     1
290
     0
176
     1
 90
        1
176
     1
 40
0.0
176
     1
 90
        0
176
     1
290
     0
176
     1
290
     1
176
     1
290
     1
176
     1
290
     0
176
     1
290
     0
176
     1
290
     0
176
     1
290
     0
176
     1
290
     0
176
     1
290
     0
176
     1
 90
       50
176
     1
 40
0.0
176
     1
 40
1.0
176
     1
 90
        0
176
     1
 62
    18
420
        0
176
     1
 90
       50
176
     1
 90
        3
176
     1
 62
     5
420
      255
176
     1
290
     0
176
     1
 90
       50
176
     1
 90
       50
176
     1
 90
       50
176
     1
290
     0
176
     1
 90
       50
176
     1
 62
   256
176
     0
 40
1.0
176
     0
 90
        2
176
     1
  1
strokes_ogs.tif
176
     1
290
     0
176
     1
 40
1.0
176
     1
 40
1.0
176
     1
1001
ACAD
1000
AcDbSavedByObjectVersion
1070
     0
  0
VISUALSTYLE
  5
FA
102
{ACAD_REACTORS
330
EF
102
}
330
EF
100
AcDbVisualStyle
  2
Dim
 70
    11
177
     3
291
     1
 70
    58
 90
        2
176
     1
 90
        2
176
     1
 90
        1
176
     1
 90
        0
176
     1
 40
0.6
176
     1
 40
30.0
176
     1
 62
     7
420
 16777215
176
     1
 90
        1
176
     1
 90
        4
176
     1
 62
     7
176
     1
 62
   257
176
     1
 90
        1
176
     1
 90
        1
176
     1
 40
1.0
176
     1
 90
        8
176
     1
 62
     7
176
     1
 40
1.0
176
     1
 90
        1
176
     1
 90
        6
176
     1
 90
        2
176
     1
 62
     7
176
     1
 90
        5
176
     1
 90
        0
176
     1
 90
        0
176
     1
290
     0
176
     1
 90
        1
176
     1
 40
-50.0
176
     1
 90
        0
176
     1
290
     0
176
     1
290
     1
176
     1
290
     1
176
     1
290
     0
176
     1
290
     0
176
     1
290
     0
176
     1
290
     0
176
     1
290
     0
176
     1
290
     0
176
     1
 90
       50
176
     1
 40
0.0
176
     1
 40
1.0
176
     1
 90
        0
176
     1
 62
    18
420
        0
176
     1
 90
       50
176
     1
 90
        3
176
     1
 62
     5
420
      255
176
     1
290
     0
176
     1
 90
       50
176
     1
 90
       50
176
     1
 90
       50
176
     1
290
     0
176
     1
 90
       50
176
     1
 62
   256
176
     0
 40
1.0
176
     0
 90
        2
176
     1
  1
strokes_ogs.tif
176
     1
290
     0
176
     1
 40
1.0
176
     1
 40
1.0
176
     1
1001
ACAD
1000
AcDbSavedByObjectVersion
1070
     0
  0
VISUALSTYLE
  5
1E6
102
{ACAD_REACTORS
330
EF
102
}
330
EF
100
AcDbVisualStyle
  2
EdgeColorOff
 70
    22
177
     3
291
     1
 70
    58
 90
        2
176
     0
 90
        2
176
     0
 90
        0
176
     0
 90
        0
176
     0
 40
0.6
176
     0
 40
30.0
176
     0
 62
     7
420
 16777215
176
     0
 90
        1
176
     0
 90
        4
176
     0
 62
     7
176
     0
 62
   257
176
     0
 90
        1
176
     0
 90
        1
176
     0
 40
1.0
176
     0
 90
        8
176
     2
 62
     7
176
     0
 40
1.0
176
     0
 90
        1
176
     0
 90
        6
176
     0
 90
        2
176
     0
 62
     7
176
     0
 90
        5
176
     0
 90
        0
176
     0
 90
        0
176
     0
290
     0
176
     0
 90
        1
176
     0
 40
0.0
176
     0
 90
        0
176
     0
290
     0
176
     1
290
     1
176
     1
290
     1
176
     1
290
     0
176
     1
290
     0
176
     1
290
     0
176
     1
290
     0
176
     1
290
     0
176
     1
290
     0
176
     1
 90
       50
176
     1
 40
0.0
176
     1
 40
1.0
176
     1
 90
        0
176
     1
 62
    18
420
        0
176
     1
 90
       50
176
     1
 90
        3
176
     1
 62
     5
420
      255
176
     1
290
     0
176
     1
 90
       50
176
     1
 90
       50
176
     1
 90
       50
176
     1
290
     0
176
     1
 90
       50
176
     1
 62
   256
176
     0
 40
1.0
176
     0
 90
        2
176
     1
  1
strokes_ogs.tif
176
     1
290
     0
176
     1
 40
1.0
176
     1
 40
1.0
176
     1
1001
ACAD
1000
AcDbSavedByObjectVersion
1070
     0
  0
VISUALSTYLE
  5
FE
102
{ACAD_REACTORS
330
EF
102
}
330
EF
100
AcDbVisualStyle
  2
Facepattern
 70
    15
177
     3
291
     1
 70
    58
 90
        2
176
     1
 90
        2
176
     1
 90
        1
176
     1
 90
        0
176
     1
 40
0.6
176
     1
 40
30.0
176
     1
 62
     7
420
 16777215
176
     1
 90
        1
176
     1
 90
        4
176
     1
 62
     7
176
     1
 62
   257
176
     1
 90
        1
176
     1
 90
        1
176
     1
 40
1.0
176
     1
 90
        8
176
     1
 62
     7
176
     1
 40
1.0
176
     1
 90
        1
176
     1
 90
        6
176
     1
 90
        2
176
     1
 62
     7
176
     1
 90
        5
176
     1
 90
        0
176
     1
 90
        0
176
     1
290
     0
176
     1
 90
        1
176
     1
 40
0.0
176
     1
 90
        0
176
     1
290
     0
176
     1
290
     1
176
     1
290
     1
176
     1
290
     0
176
     1
290
     0
176
     1
290
     0
176
     1
290
     0
176
     1
290
     0
176
     1
290
     0
176
     1
 90
       50
176
     1
 40
0.0
176
     1
 40
1.0
176
     1
 90
        0
176
     1
 62
    18
420
        0
176
     1
 90
       50
176
     1
 90
        3
176
     1
 62
     5
420
      255
176
     1
290
     0
176
     1
 90
       50
176
     1
 90
       50
176
     1
 90
       50
176
     1
290
     0
176
     1
 90
       50
176
     1
 62
   256
176
     0
 40
1.0
176
     0
 90
        2
176
     1
  1
strokes_ogs.tif
176
     1
290
     0
176
     1
 40
1.0
176
     1
 40
1.0
176
     1
1001
ACAD
1000
AcDbSavedByObjectVersion
1070
     0
  0
VISUALSTYLE
  5
F0
102
{ACAD_REACTORS
330
EF
102
}
330
EF
100
AcDbVisualStyle
  2
Flat
 70
     0
177
     3
291
     1
 70
    58
 90
        2
176
     1
 90
        1
176
     1
 90
        1
176
     1
 90
        2
176
     1
 40
0.6
176
     1
 40
30.0
176
     1
 62
     7
420
 16777215
176
     1
 90
        0
176
     1
 90
        0
176
     1
 62
     7
176
     1
 62
   257
176
     1
 90
        1
176
     1
 90
        1
176
     1
 40
1.0
176
     1
 90
        8
176
     1
 62
     7
176
     1
 40
1.0
176
     1
 90
        1
176
     1
 90
        6
176
     1
 90
        2
176
     1
 62
     7
176
     1
 90
        5
176
     1
 90
        0
176
     1
 90
        0
176
     1
290
     0
176
     1
 90
       13
176
     1
 40
0.0
176
     1
 90
        0
176
     1
290
     0
176
     1
290
     1
176
     1
290
     1
176
     1
290
     0
176
     1
290
     0
176
     1
290
     0
176
     1
290
     0
176
     1
290
     0
176
     1
290
     0
176
     1
 90
       50
176
     1
 40
0.0
176
     1
 40
1.0
176
     1
 90
        0
176
     1
 62
    18
420
        0
176
     1
 90
       50
176
     1
 90
        3
176
     1
 62
     5
420
      255
176
     1
290
     0
176
     1
 90
       50
176
     1
 90
       50
176
     1
 90
       50
176
     1
290
     0
176
     1
 90
       50
176
     1
 62
   256
176
     0
 40
1.0
176
     0
 90
        2
176
     1
  1
strokes_ogs.tif
176
     1
290
     0
176
     1
 40
1.0
176
     1
 40
1.0
176
     1
1001
ACAD
1000
AcDbSavedByObjectVersion
1070
     0
  0
VISUALSTYLE
  5
F1
102
{ACAD_REACTORS
330
EF
102
}
330
EF
100
AcDbVisualStyle
  2
FlatWithEdges
 70
     1
177
     3
291
     1
 70
    58
 90
        2
176
     1
 90
        1
176
     1
 90
        1
176
     1
 90
        2
176
     1
 40
0.6
176
     1
 40
30.0
176
     1
 62
     7
420
 16777215
176
     1
 90
        1
176
     1
 90
        0
176
     1
 62
     7
176
     1
 62
   257
176
     1
 90
        1
176
     1
 90
        1
176
     1
 40
1.0
176
     1
 90
        0
176
     1
 62
   257
176
     1
 40
1.0
176
     1
 90
        1
176
     1
 90
        6
176
     1
 90
        2
176
     1
 62
     7
176
     1
 90
        5
176
     1
 90
        0
176
     1
 90
        0
176
     1
290
     0
176
     1
 90
       13
176
     1
 40
0.0
176
     1
 90
        0
176
     1
290
     0
176
     1
290
     1
176
     1
290
     1
176
     1
290
     0
176
     1
290
     0
176
     1
290
     0
176
     1
290
     0
176
     1
290
     0
176
     1
290
     0
176
     1
 90
       50
176
     1
 40
0.0
176
     1
 40
1.0
176
     1
 90
        0
176
     1
 62
    18
420
        0
176
     1
 90
       50
176
     1
 90
        3
176
     1
 62
     5
420
      255
176
     1
290
     0
176
     1
 90
       50
176
     1
 90
       50
176
     1
 90
       50
176
     1
290
     0
176
     1
 90
       50
176
     1
 62
   256
176
     0
 40
1.0
176
     0
 90
        2
176
     1
  1
strokes_ogs.tif
176
     1
290
     0
176
     1
 40
1.0
176
     1
 40
1.0
176
     1
1001
ACAD
1000
AcDbSavedByObjectVersion
1070
     0
  0
VISUALSTYLE
  5
F2
102
{ACAD_REACTORS
330
EF
102
}
330
EF
100
AcDbVisualStyle
  2
Gouraud
 70
     2
177
     3
291
     1
 70
    58
 90
        2
176
     1
 90
        2
176
     1
 90
        1
176
     1
 90
        2
176
     1
 40
0.6
176
     1
 40
30.0
176
     1
 62
     7
420
 16777215
176
     1
 90
        0
176
     1
 90
        0
176
     1
 62
     7
176
     1
 62
   257
176
     1
 90
        1
176
     1
 90
        1
176
     1
 40
1.0
176
     1
 90
        0
176
     1
 62
     7
176
     1
 40
1.0
176
     1
 90
        1
176
     1
 90
        6
176
     1
 90
        2
176
     1
 62
     7
176
     1
 90
        5
176
     1
 90
        0
176
     1
 90
        0
176
     1
290
     0
176
     1
 90
       13
176
     1
 40
0.0
176
     1
 90
        0
176
     1
290
     0
176
     1
290
     1
176
     1
290
     1
176
     1
290
     0
176
     1
290
     0
176
     1
290
     0
176
     1
290
     0
176
     1
290
     0
176
     1
290
     0
176
     1
 90
       50
176
     1
 40
0.0
176
     1
 40
1.0
176
     1
 90
        0
176
     1
 62
    18
420
        0
176
     1
 90
       50
176
     1
 90
        3
176
     1
 62
     5
420
      255
176
     1
290
     0
176
     1
 90
       50
176
     1
 90
       50
176
     1
 90
       50
176
     1
290
     0
176
     1
 90
       50
176
     1
 62
   256
176
     0
 40
1.0
176
     0
 90
        2
176
     1
  1
strokes_ogs.tif
176
     1
290
     0
176
     1
 40
1.0
176
     1
 40
1.0
176
     1
1001
ACAD
1000
AcDbSavedByObjectVersion
1070
     0
  0
VISUALSTYLE
  5
F3
102
{ACAD_REACTORS
330
EF
102
}
330
EF
100
AcDbVisualStyle
  2
GouraudWithEdges
 70
     3
177
     3
291
     1
 70
    58
 90
        2
176
     1
 90
        2
176
     1
 90
        1
176
     1
 90
        2
176
     1
 40
0.6
176
     1
 40
30.0
176
     1
 62
     7
420
 16777215
176
     1
 90
        1
176
     1
 90
        0
176
     1
 62
     7
176
     1
 62
   257
176
     1
 90
        1
176
     1
 90
        1
176
     1
 40
1.0
176
     1
 90
        0
176
     1
 62
   257
176
     1
 40
1.0
176
     1
 90
        1
176
     1
 90
        6
176
     1
 90
        2
176
     1
 62
     7
176
     1
 90
        5
176
     1
 90
        0
176
     1
 90
        0
176
     1
290
     0
176
     1
 90
       13
176
     1
 40
0.0
176
     1
 90
        0
176
     1
290
     0
176
     1
290
     1
176
     1
290
     1
176
     1
290
     0
176
     1
290
     0
176
     1
290
     0
176
     1
290
     0
176
     1
290
     0
176
     1
290
     0
176
     1
 90
       50
176
     1
 40
0.0
176
     1
 40
1.0
176
     1
 90
        0
176
     1
 62
    18
420
        0
176
     1
 90
       50
176
     1
 90
        3
176
     1
 62
     5
420
      255
176
     1
290
     0
176
     1
 90
       50
176
     1
 90
       50
176
     1
 90
       50
176
     1
290
     0
176
     1
 90
       50
176
     1
 62
   256
176
     0
 40
1.0
176
     0
 90
        2
176
     1
  1
strokes_ogs.tif
176
     1
290
     0
176
     1
 40
1.0
176
     1
 40
1.0
176
     1
1001
ACAD
1000
AcDbSavedByObjectVersion
1070
     0
  0
VISUALSTYLE
  5
F7
102
{ACAD_REACTORS
330
EF
102
}
330
EF
100
AcDbVisualStyle
  2
Hidden
 70
     6
177
     3
291
     0
 70
    58
 90
        1
176
     1
 90
        2
176
     1
 90
        2
176
     1
 90
        0
176
     1
 40
0.6
176
     1
 40
30.0
176
     1
 62
     7
420
 16777215
176
     1
 90
        2
176
     1
 90
        2
176
     1
 62
     7
176
     1
 62
   257
176
     1
 90
        2
176
     1
 90
        1
176
     1
 40
40.0
176
     1
 90
        0
176
     1
 62
   257
176
     1
 40
1.0
176
     1
 90
        1
176
     1
 90
        6
176
     1
 90
        2
176
     1
 62
     7
176
     1
 90
        3
176
     1
 90
        0
176
     1
 90
        0
176
     1
290
     0
176
     1
 90
        1
176
     1
 40
0.0
176
     1
 90
        0
176
     1
290
     0
176
     1
290
     1
176
     1
290
     1
176
     1
290
     0
176
     1
290
     0
176
     1
290
     0
176
     1
290
     0
176
     1
290
     0
176
     1
290
     0
176
     1
 90
       50
176
     1
 40
0.0
176
     1
 40
1.0
176
     1
 90
        0
176
     1
 62
    18
420
        0
176
     1
 90
       50
176
     1
 90
        3
176
     1
 62
     5
420
      255
176
     1
290
     0
176
     1
 90
       50
176
     1
 90
       50
176
     1
 90
       50
176
     1
290
     0
176
     1
 90
       50
176
     1
 62
   256
176
     0
 40
1.0
176
     0
 90
        2
176
     1
  1
strokes_ogs.tif
176
     1
290
     0
176
     1
 40
1.0
176
     1
 40
1.0
176
     1
1001
ACAD
1000
AcDbSavedByObjectVersion
1070
     0
  0
VISUALSTYLE
  5
1E4
102
{ACAD_REACTORS
330
EF
102
}
330
EF
100
AcDbVisualStyle
  2
JitterOff
 70
    20
177
     3
291
     1
 70
    58
 90
        2
176
     0
 90
        2
176
     0
 90
        0
176
     0
 90
        0
176
     0
 40
0.6
176
     0
 40
30.0
176
     0
 62
     7
420
 16777215
176
     0
 90
        1
176
     0
 90
        4
176
     0
 62
     7
176
     0
 62
   257
176
     0
 90
        1
176
     0
 90
        1
176
     0
 40
1.0
176
     0
 90
       10
176
     2
 62
     7
176
     0
 40
1.0
176
     0
 90
        1
176
     0
 90
        6
176
     0
 90
        2
176
     0
 62
     7
176
     0
 90
        5
176
     0
 90
        0
176
     0
 90
        0
176
     0
290
     0
176
     0
 90
        1
176
     0
 40
0.0
176
     0
 90
        0
176
     0
290
     0
176
     1
290
     1
176
     1
290
     1
176
     1
290
     0
176
     1
290
     0
176
     1
290
     0
176
     1
290
     0
176
     1
290
     0
176
     1
290
     0
176
     1
 90
       50
176
     1
 40
0.0
176
     1
 40
1.0
176
     1
 90
        0
176
     1
 62
    18
420
        0
176
     1
 90
       50
176
     1
 90
        3
176
     1
 62
     5
420
      255
176
     1
290
     0
176
     1
 90
       50
176
     1
 90
       50
176
     1
 90
       50
176
     1
290
     0
176
     1
 90
       50
176
     1
 62
   256
176
     0
 40
1.0
176
     0
 90
        2
176
     1
  1
strokes_ogs.tif
176
     1
290
     0
176
     1
 40
1.0
176
     1
 40
1.0
176
     1
1001
ACAD
1000
AcDbSavedByObjectVersion
1070
     0
  0
VISUALSTYLE
  5
FD
102
{ACAD_REACTORS
330
EF
102
}
330
EF
100
AcDbVisualStyle
  2
Linepattern
 70
    14
177
     3
291
     1
 70
    58
 90
        2
176
     1
 90
        2
176
     1
 90
        1
176
     1
 90
        0
176
     1
 40
0.6
176
     1
 40
30.0
176
     1
 62
     7
420
 16777215
176
     1
 90
        1
176
     1
 90
        4
176
     1
 62
     7
176
     1
 62
   257
176
     1
 90
        7
176
     1
 90
        7
176
     1
 40
1.0
176
     1
 90
        8
176
     1
 62
     7
176
     1
 40
1.0
176
     1
 90
        1
176
     1
 90
        6
176
     1
 90
        2
176
     1
 62
     7
176
     1
 90
        5
176
     1
 90
        0
176
     1
 90
        0
176
     1
290
     0
176
     1
 90
        1
176
     1
 40
0.0
176
     1
 90
        0
176
     1
290
     0
176
     1
290
     1
176
     1
290
     1
176
     1
290
     0
176
     1
290
     0
176
     1
290
     0
176
     1
290
     0
176
     1
290
     0
176
     1
290
     0
176
     1
 90
       50
176
     1
 40
0.0
176
     1
 40
1.0
176
     1
 90
        0
176
     1
 62
    18
420
        0
176
     1
 90
       50
176
     1
 90
        3
176
     1
 62
     5
420
      255
176
     1
290
     0
176
     1
 90
       50
176
     1
 90
       50
176
     1
 90
       50
176
     1
290
     0
176
     1
 90
       50
176
     1
 62
   256
176
     0
 40
1.0
176
     0
 90
        2
176
     1
  1
strokes_ogs.tif
176
     1
290
     0
176
     1
 40
1.0
176
     1
 40
1.0
176
     1
1001
ACAD
1000
AcDbSavedByObjectVersion
1070
     0
  0
VISUALSTYLE
  5
1E5
102
{ACAD_REACTORS
330
EF
102
}
330
EF
100
AcDbVisualStyle
  2
OverhangOff
 70
    21
177
     3
291
     1
 70
    58
 90
        2
176
     0
 90
        2
176
     0
 90
        0
176
     0
 90
        0
176
     0
 40
0.6
176
     0
 40
30.0
176
     0
 62
     7
420
 16777215
176
     0
 90
        1
176
     0
 90
        4
176
     0
 62
     7
176
     0
 62
   257
176
     0
 90
        1
176
     0
 90
        1
176
     0
 40
1.0
176
     0
 90
        9
176
     2
 62
     7
176
     0
 40
1.0
176
     0
 90
        1
176
     0
 90
        6
176
     0
 90
        2
176
     0
 62
     7
176
     0
 90
        5
176
     0
 90
        0
176
     0
 90
        0
176
     0
290
     0
176
     0
 90
        1
176
     0
 40
0.0
176
     0
 90
        0
176
     0
290
     0
176
     1
290
     1
176
     1
290
     1
176
     1
290
     0
176
     1
290
     0
176
     1
290
     0
176
     1
290
     0
176
     1
290
     0
176
     1
290
     0
176
     1
 90
       50
176
     1
 40
0.0
176
     1
 40
1.0
176
     1
 90
        0
176
     1
 62
    18
420
        0
176
     1
 90
       50
176
     1
 90
        3
176
     1
 62
     5
420
      255
176
     1
290
     0
176
     1
 90
       50
176
     1
 90
       50
176
     1
 90
       50
176
     1
290
     0
176
     1
 90
       50
176
     1
 62
   256
176
     0
 40
1.0
176
     0
 90
        2
176
     1
  1
strokes_ogs.tif
176
     1
290
     0
176
     1
 40
1.0
176
     1
 40
1.0
176
     1
1001
ACAD
1000
AcDbSavedByObjectVersion
1070
     0
  0
VISUALSTYLE
  5
F9
102
{ACAD_REACTORS
330
EF
102
}
330
EF
100
AcDbVisualStyle
  2
Realistic
 70
     8
177
     3
291
     0
 70
    58
 90
        2
176
     1
 90
        3
176
     1
 90
        0
176
     1
 90
        2
176
     1
 40
0.6
176
     1
 40
30.0
176
     1
 62
     7
420
 16777215
176
     1
 90
        0
176
     1
 90
        0
176
     1
 62
     7
176
     1
 62
   257
176
     1
 90
        1
176
     1
 90
        1
176
     1
 40
1.0
176
     1
 90
        8
176
     1
 62
   257
176
     1
 40
1.0
176
     1
 90
        1
176
     1
 90
        6
176
     1
 90
        2
176
     1
 62
     7
176
     1
 90
        3
176
     1
 90
        0
176
     1
 90
        0
176
     1
290
     0
176
     1
 90
       13
176
     1
 40
0.0
176
     1
 90
        0
176
     1
290
     0
176
     1
290
     1
176
     1
290
     1
176
     1
290
     0
176
     1
290
     0
176
     1
290
     0
176
     1
290
     0
176
     1
290
     0
176
     1
290
     0
176
     1
 90
       50
176
     1
 40
0.0
176
     1
 40
1.0
176
     1
 90
        0
176
     1
 62
    18
420
        0
176
     1
 90
       50
176
     1
 90
        3
176
     1
 62
     5
420
      255
176
     1
290
     0
176
     1
 90
       50
176
     1
 90
       50
176
     1
 90
       50
176
     1
290
     0
176
     1
 90
       50
176
     1
 62
   256
176
     0
 40
1.0
176
     0
 90
        2
176
     1
  1
strokes_ogs.tif
176
     1
290
     0
176
     1
 40
1.0
176
     1
 40
1.0
176
     1
1001
ACAD
1000
AcDbSavedByObjectVersion
1070
     0
  0
VISUALSTYLE
  5
1F3
102
{ACAD_REACTORS
330
EF
102
}
330
EF
100
AcDbVisualStyle
  2
Shaded
 70
    27
177
     3
291
     0
 70
    58
 90
        2
176
     1
 90
        2
176
     1
 90
        1
176
     1
 90
        2
176
     1
 40
0.6
176
     1
 40
30.0
176
     1
 62
     7
420
 16777215
176
     1
 90
        0
176
     1
 90
        4
176
     1
 62
     7
176
     1
 62
   257
176
     1
 90
        1
176
     1
 90
        1
176
     1
 40
1.0
176
     1
 90
        8
176
     1
 62
   257
176
     1
 40
1.0
176
     1
 90
        1
176
     1
 90
        6
176
     1
 90
        2
176
     1
 62
     8
420
  7895160
176
     1
 90
        3
176
     1
 90
        0
176
     1
 90
        0
176
     1
290
     0
176
     1
 90
        5
176
     1
 40
0.0
176
     1
 90
        0
176
     1
290
     0
176
     1
290
     1
176
     1
290
     1
176
     1
290
     0
176
     1
290
     0
176
     1
290
     0
176
     1
290
     0
176
     1
290
     0
176
     1
290
     0
176
     1
 90
       50
176
     1
 40
0.0
176
     1
 40
1.0
176
     1
 90
        0
176
     1
 62
    18
420
        0
176
     1
 90
       50
176
     1
 90
        3
176
     1
 62
     5
420
      255
176
     1
290
     0
176
     1
 90
       50
176
     1
 90
       50
176
     1
 90
       50
176
     1
290
     0
176
     1
 90
       50
176
     1
 62
   256
176
     0
 40
1.0
176
     0
 90
        2
176
     1
  1
strokes_ogs.tif
176
     1
290
     0
176
     1
 40
1.0
176
     1
 40
1.0
176
     1
1001
ACAD
1000
AcDbSavedByObjectVersion
1070
     0
  0
VISUALSTYLE
  5
1F2
102
{ACAD_REACTORS
330
EF
102
}
330
EF
100
AcDbVisualStyle
  2
Shaded with edges
 70
    26
177
     3
291
     0
 70
    58
 90
        2
176
     1
 90
        2
176
     1
 90
        1
176
     1
 90
        2
176
     1
 40
0.6
176
     1
 40
30.0
176
     1
 62
     7
420
 16777215
176
     1
 90
        1
176
     1
 90
        2
176
     1
 62
     7
176
     1
 62
   257
176
     1
 90
        2
176
     1
 90
        1
176
     1
 40
1.0
176
     1
 90
        8
176
     1
 62
   257
176
     1
 40
1.0
176
     1
 90
        1
176
     1
 90
        6
176
     1
 90
        2
176
     1
 62
     7
176
     1
 90
        3
176
     1
 90
        0
176
     1
 90
        0
176
     1
290
     0
176
     1
 90
        5
176
     1
 40
0.0
176
     1
 90
        0
176
     1
290
     0
176
     1
290
     1
176
     1
290
     1
176
     1
290
     0
176
     1
290
     0
176
     1
290
     0
176
     1
290
     0
176
     1
290
     0
176
     1
290
     0
176
     1
 90
       50
176
     1
 40
0.0
176
     1
 40
1.0
176
     1
 90
        0
176
     1
 62
    18
420
        0
176
     1
 90
       50
176
     1
 90
        3
176
     1
 62
     5
420
      255
176
     1
290
     0
176
     1
 90
       50
176
     1
 90
       50
176
     1
 90
       50
176
     1
290
     0
176
     1
 90
       50
176
     1
 62
   256
176
     0
 40
1.0
176
     0
 90
        2
176
     1
  1
strokes_ogs.tif
176
     1
290
     0
176
     1
 40
1.0
176
     1
 40
1.0
176
     1
1001
ACAD
1000
AcDbSavedByObjectVersion
1070
     0
  0
VISUALSTYLE
  5
1EF
102
{ACAD_REACTORS
330
EF
102
}
330
EF
100
AcDbVisualStyle
  2
Shades of Gray
 70
    23
177
     3
291
     0
 70
    58
 90
        2
176
     1
 90
        2
176
     1
 90
        3
176
     1
 90
        0
176
     1
 40
0.6
176
     1
 40
30.0
176
     1
 62
     7
420
 16777215
176
     1
 90
        2
176
     1
 90
        2
176
     1
 62
     7
176
     1
 62
     7
176
     1
 90
        1
176
     1
 90
        1
176
     1
 40
40.0
176
     1
 90
        8
176
     1
 62
     7
176
     1
 40
1.0
176
     1
 90
        1
176
     1
 90
        6
176
     1
 90
        2
176
     1
 62
     7
176
     1
 90
        3
176
     1
 90
        0
176
     1
 90
        0
176
     1
290
     0
176
     1
 90
        1
176
     1
 40
0.0
176
     1
 90
        0
176
     1
290
     0
176
     1
290
     1
176
     1
290
     1
176
     1
290
     0
176
     1
290
     0
176
     1
290
     0
176
     1
290
     0
176
     1
290
     0
176
     1
290
     0
176
     1
 90
       50
176
     1
 40
0.0
176
     1
 40
1.0
176
     1
 90
        0
176
     1
 62
    18
420
        0
176
     1
 90
       50
176
     1
 90
        3
176
     1
 62
     5
420
      255
176
     1
290
     0
176
     1
 90
       50
176
     1
 90
       50
176
     1
 90
       50
176
     1
290
     0
176
     1
 90
       50
176
     1
 62
   256
176
     0
 40
1.0
176
     0
 90
        2
176
     1
  1
strokes_ogs.tif
176
     1
290
     0
176
     1
 40
1.0
176
     1
 40
1.0
176
     1
1001
ACAD
1000
AcDbSavedByObjectVersion
1070
     0
  0
VISUALSTYLE
  5
1F0
102
{ACAD_REACTORS
330
EF
102
}
330
EF
100
AcDbVisualStyle
  2
Sketchy
 70
    24
177
     3
291
     0
 70
    58
 90
        1
176
     1
 90
        2
176
     1
 90
        2
176
     1
 90
        0
176
     1
 40
0.6
176
     1
 40
30.0
176
     1
 62
     7
420
 16777215
176
     1
 90
        2
176
     1
 90
        2
176
     1
 62
     7
176
     1
 62
     7
176
     1
 90
        1
176
     1
 90
        1
176
     1
 40
40.0
176
     1
 90
       11
176
     1
 62
     7
176
     1
 40
1.0
176
     1
 90
        1
176
     1
 90
        6
176
     1
 90
        2
176
     1
 62
     7
176
     1
 90
        6
176
     1
 90
        0
176
     1
 90
        0
176
     1
290
     0
176
     1
 90
        1
176
     1
 40
0.0
176
     1
 90
        0
176
     1
290
     0
176
     1
290
     1
176
     1
290
     1
176
     1
290
     0
176
     1
290
     0
176
     1
290
     0
176
     1
290
     0
176
     1
290
     0
176
     1
290
     0
176
     1
 90
       50
176
     1
 40
0.0
176
     1
 40
1.0
176
     1
 90
        0
176
     1
 62
    18
420
        0
176
     1
 90
       50
176
     1
 90
        3
176
     1
 62
     5
420
      255
176
     1
290
     0
176
     1
 90
       50
176
     1
 90
       50
176
     1
 90
       50
176
     1
290
     0
176
     1
 90
       50
176
     1
 62
   256
176
     0
 40
1.0
176
     0
 90
        2
176
     1
  1
strokes_ogs.tif
176
     1
290
     0
176
     1
 40
1.0
176
     1
 40
1.0
176
     1
1001
ACAD
1000
AcDbSavedByObjectVersion
1070
     0
  0
VISUALSTYLE
  5
FC
102
{ACAD_REACTORS
330
EF
102
}
330
EF
100
AcDbVisualStyle
  2
Thicken
 70
    13
177
     3
291
     1
 70
    58
 90
        2
176
     1
 90
        2
176
     1
 90
        1
176
     1
 90
        0
176
     1
 40
0.6
176
     1
 40
30.0
176
     1
 62
     7
420
 16777215
176
     1
 90
        1
176
     1
 90
        4
176
     1
 62
     7
176
     1
 62
   257
176
     1
 90
        1
176
     1
 90
        1
176
     1
 40
1.0
176
     1
 90
       12
176
     1
 62
     7
176
     1
 40
1.0
176
     1
 90
        1
176
     1
 90
        6
176
     1
 90
        2
176
     1
 62
     7
176
     1
 90
        5
176
     1
 90
        0
176
     1
 90
        0
176
     1
290
     0
176
     1
 90
        1
176
     1
 40
0.0
176
     1
 90
        0
176
     1
290
     0
176
     1
290
     1
176
     1
290
     1
176
     1
290
     0
176
     1
290
     0
176
     1
290
     0
176
     1
290
     0
176
     1
290
     0
176
     1
290
     0
176
     1
 90
       50
176
     1
 40
0.0
176
     1
 40
1.0
176
     1
 90
        0
176
     1
 62
    18
420
        0
176
     1
 90
       50
176
     1
 90
        3
176
     1
 62
     5
420
      255
176
     1
290
     0
176
     1
 90
       50
176
     1
 90
       50
176
     1
 90
       50
176
     1
290
     0
176
     1
 90
       50
176
     1
 62
   256
176
     0
 40
1.0
176
     0
 90
        2
176
     1
  1
strokes_ogs.tif
176
     1
290
     0
176
     1
 40
1.0
176
     1
 40
1.0
176
     1
1001
ACAD
1000
AcDbSavedByObjectVersion
1070
     0
  0
VISUALSTYLE
  5
F6
102
{ACAD_REACTORS
330
EF
102
}
330
EF
100
AcDbVisualStyle
  2
Wireframe
 70
     5
177
     3
291
     0
 70
    58
 90
        0
176
     1
 90
        2
176
     1
 90
        0
176
     1
 90
        0
176
     1
 40
0.6
176
     1
 40
30.0
176
     1
 62
     7
420
 16777215
176
     1
 90
        1
176
     1
 90
        4
176
     1
 62
     7
176
     1
 62
   257
176
     1
 90
        1
176
     1
 90
        1
176
     1
 40
1.0
176
     1
 90
        0
176
     1
 62
   257
176
     1
 40
1.0
176
     1
 90
        1
176
     1
 90
        6
176
     1
 90
        2
176
     1
 62
     7
176
     1
 90
        3
176
     1
 90
        0
176
     1
 90
        0
176
     1
290
     0
176
     1
 90
        1
176
     1
 40
0.0
176
     1
 90
        0
176
     1
290
     0
176
     1
290
     1
176
     1
290
     1
176
     1
290
     0
176
     1
290
     0
176
     1
290
     0
176
     1
290
     0
176
     1
290
     0
176
     1
290
     0
176
     1
 90
       50
176
     1
 40
0.0
176
     1
 40
1.0
176
     1
 90
        0
176
     1
 62
    18
420
        0
176
     1
 90
       50
176
     1
 90
        3
176
     1
 62
     5
420
      255
176
     1
290
     0
176
     1
 90
       50
176
     1
 90
       50
176
     1
 90
       50
176
     1
290
     0
176
     1
 90
       50
176
     1
 62
   256
176
     0
 40
1.0
176
     0
 90
        2
176
     1
  1
strokes_ogs.tif
176
     1
290
     0
176
     1
 40
1.0
176
     1
 40
1.0
176
     1
1001
ACAD
1000
AcDbSavedByObjectVersion
1070
     0
  0
VISUALSTYLE
  5
1F1
102
{ACAD_REACTORS
330
EF
102
}
330
EF
100
AcDbVisualStyle
  2
X-Ray
 70
    25
177
     3
291
     0
 70
    58
 90
        2
176
     1
 90
        2
176
     1
 90
        1
176
     1
 90
        1
176
     1
 40
0.5
176
     1
 40
30.0
176
     1
 62
     7
420
 16777215
176
     1
 90
        1
176
     1
 90
        0
176
     1
 62
     7
176
     1
 62
   257
176
     1
 90
        1
176
     1
 90
        1
176
     1
 40
1.0
176
     1
 90
        8
176
     1
 62
     7
176
     1
 40
1.0
176
     1
 90
        1
176
     1
 90
        6
176
     1
 90
        2
176
     1
 62
     7
176
     1
 90
        3
176
     1
 90
        0
176
     1
 90
        0
176
     1
290
     0
176
     1
 90
       13
176
     1
 40
0.0
176
     1
 90
        0
176
     1
290
     0
176
     1
290
     1
176
     1
290
     1
176
     1
290
     0
176
     1
290
     0
176
     1
290
     0
176
     1
290
     0
176
     1
290
     0
176
     1
290
     0
176
     1
 90
       50
176
     1
 40
0.0
176
     1
 40
1.0
176
     1
 90
        0
176
     1
 62
    18
420
        0
176
     1
 90
       50
176
     1
 90
        3
176
     1
 62
     5
420
      255
176
     1
290
     0
176
     1
 90
       50
176
     1
 90
       50
176
     1
 90
       50
176
     1
290
     0
176
     1
 90
       50
176
     1
 62
   256
176
     0
 40
1.0
176
     0
 90
        2
176
     1
  1
strokes_ogs.tif
176
     1
290
     0
176
     1
 40
1.0
176
     1
 40
1.0
176
     1
1001
ACAD
1000
AcDbSavedByObjectVersion
1070
     0
  0
DICTIONARYVAR
  5
146
102
{ACAD_REACTORS
330
5E
102
}
330
5E
100
DictionaryVariables
280
     0
  1
1:1
  0
DICTIONARYVAR
  5
259
102
{ACAD_REACTORS
330
5E
102
}
330
5E
100
DictionaryVariables
280
     0
  1
3.500000
  0
DICTIONARYVAR
  5
25A
102
{ACAD_REACTORS
330
5E
102
}
330
5E
100
DictionaryVariables
280
     0
  1
acadiso.lin
  0
DICTIONARYVAR
  5
145
102
{ACAD_REACTORS
330
5E
102
}
330
5E
100
DictionaryVariables
280
     0
  1
STANDARD
  0
DICTIONARYVAR
  5
84
102
{ACAD_REACTORS
330
5E
102
}
330
5E
100
DictionaryVariables
280
     0
  1
STANDARD
  0
DICTIONARYVAR
  5
227
102
{ACAD_REACTORS
330
5E
102
}
330
5E
100
DictionaryVariables
280
     0
  1
Metric50
  0
DICTIONARYVAR
  5
228
102
{ACAD_REACTORS
330
5E
102
}
330
5E
100
DictionaryVariables
280
     0
  1
Metric50
  0
DICTIONARYVAR
  5
5F
102
{ACAD_REACTORS
330
5E
102
}
330
5E
100
DictionaryVariables
280
     0
  1
2
  0
DICTIONARYVAR
  5
63
102
{ACAD_REACTORS
330
5E
102
}
330
5E
100
DictionaryVariables
280
     0
  1
1
  0
DICTIONARYVAR
  5
1AE
102
{ACAD_REACTORS
330
5E
102
}
330
5E
100
DictionaryVariables
280
     0
  1
0
  0
DICTIONARYVAR
  5
1AF
102
{ACAD_REACTORS
330
5E
102
}
330
5E
100
DictionaryVariables
280
     0
  1
0
  0
DICTIONARY
  5
34F
102
{ACAD_REACTORS
330
34D
102
}
330
34D
100
AcDbDictionary
281
     1
  0
DICTIONARY
  5
34E
102
{ACAD_REACTORS
330
34D
102
}
330
34D
100
AcDbDictionary
281
     1
  3
1669994713344
350
348
  3
1669994713360
350
349
  3
1669994713376
350
34A
  3
1669994713392
350
34B
  3
1669994713408
350
34C
  0
DICTIONARY
  5
356
330
28E
100
AcDbDictionary
280
     1
281
     1
  3
ACAD_XREC_ROUNDTRIP
360
357
  0
DICTIONARY
  5
352
330
21C
100
AcDbDictionary
280
     1
281
     1
  3
ACAD_XREC_ROUNDTRIP
360
353
  0
DICTIONARY
  5
205
330
22
100
AcDbDictionary
280
     1
281
     1
  0
DICTIONARY
  5
1F9
330
ED
100
AcDbDictionary
280
     1
281
     1
  3
FBXASSET
360
1FA
  0
DICTIONARY
  5
1F7
330
EC
100
AcDbDictionary
280
     1
281
     1
  3
FBXASSET
360
1F8
  0
DICTIONARY
  5
173
330
EE
100
AcDbDictionary
280
     1
281
     1
  3
BUMPTILE
360
175
  3
DIFFUSETILE
360
174
  3
FBXASSET
360
1FB
  3
OPACITYTILE
360
176
  3
REFLECTIONTILE
360
177
  0
DICTIONARY
  5
354
330
28D
100
AcDbDictionary
280
     1
281
     1
  3
ACAD_XREC_ROUNDTRIP
360
355
  0
DICTIONARY
  5
350
330
21A
100
AcDbDictionary
280
     1
281
     1
  3
ACAD_XREC_ROUNDTRIP
360
351
  0
DICTIONARY
  5
162
330
7F
100
AcDbDictionary
280
     1
281
     1
  3
ACAD_ROUNDTRIP_2008_TABLESTYLE_CELLSTYLEMAP
360
346
  0
XRECORD
  5
348
102
{ACAD_REACTORS
330
34E
102
}
330
34E
100
AcDbXrecord
280
     1
  1
AcDb_Thumbnail_Schema
102
{ATTRRECORD
341
349
  2
AcDbDs::TreatedAsObjectData
280
     1
291
     1
102
ATTRRECORD}
102
{ATTRRECORD
341
34A
  2
AcDbDs::Legacy
280
     1
291
     1
102
ATTRRECORD}
  2
AcDbDs::ID
280
    10
 91
        8
102
{ATTRRECORD
341
34B
  2
AcDs:Indexable
280
     1
291
     1
102
ATTRRECORD}
102
{ATTRRECORD
341
34C
  2
AcDbDs::HandleAttribute
280
     7
282
     1
102
ATTRRECORD}
  2
Thumbnail_Data
280
    15
 91
        0
  0
XRECORD
  5
349
102
{ACAD_REACTORS
330
34E
102
}
330
34E
100
AcDbXrecord
280
     1
  1
AcDbDs::TreatedAsObjectDataSchema
  2
AcDbDs::TreatedAsObjectData
280
     1
 91
        0
  0
XRECORD
  5
34A
102
{ACAD_REACTORS
330
34E
102
}
330
34E
100
AcDbXrecord
280
     1
  1
AcDbDs::LegacySchema
  2
AcDbDs::Legacy
280
     1
 91
        0
  0
XRECORD
  5
34B
102
{ACAD_REACTORS
330
34E
102
}
330
34E
100
AcDbXrecord
280
     1
  1
AcDbDs::IndexedPropertySchema
  2
AcDs:Indexable
280
     1
 91
        0
  0
XRECORD
  5
34C
102
{ACAD_REACTORS
330
34E
102
}
330
34E
100
AcDbXrecord
280
     1
  1
AcDbDs::HandleAttributeSchema
  2
AcDbDs::HandleAttribute
280
     7
 91
        1
284
     1
  0
XRECORD
  5
357
102
{ACAD_REACTORS
330
356
102
}
330
356
100
AcDbXrecord
280
     1
102
DISPLAYNAME
  1
Imperial24
102
FLAGS
 90
        0
  0
XRECORD
  5
353
102
{ACAD_REACTORS
330
352
102
}
330
352
100
AcDbXrecord
280
     1
102
DISPLAYNAME
  1
Metric50
102
FLAGS
 90
        0
  0
XRECORD
  5
1FA
102
{ACAD_REACTORS
330
1F9
102
}
330
1F9
100
AcDbXrecord
280
     1
 70
     1
 90
429727718
  1
D62C5603-E3A1-4AEA-B7FB-FE5D8D0755AF
310
504B03040A0000080000CC70623B3DEE336E79000000790000001B0000006175746F6465736B2D64657369676E2D7061636B6167652E786D6C3C3F786D6C2076657273696F6E3D22312E302220656E636F64696E673D227574662D3822203F3E3C666F726D6174733E3C666F726D61743E687474703A2F2F736368656D612E
310
6175746F6465736B2E636F6D2F64657369676E2D7061636B6167652F323030393C2F666F726D61743E3C2F666F726D6174733E504B0304140006080800CC70623BD486FD9CA0000000F4000000130000005B436F6E74656E745F54797065735D2E786D6C7D8EC10E82300C865F65E91D8A1E8C310C0EEA1BF002731658846E
310
D98AC1B77784ABF1D8FE5FBFBF75BBCE937A534CCEB38643598122B6FEE978D0B0485F9C41B54DDD7D022595594E1A469170414C76A4D9A4D207E29CF43ECE46F218070CC6BECC4078ACAA135ACF422C856C0E68EA1BF5669944DDD7BCDE7B1F8E415D77AECB980613C2E4AC91FC167A2B244592486606FC29C8FD7F045B9A
310
EF7053A7E60B504B0304140006080800CC70623B853B8169EB0000007C01000008000000636F72652E786D6C8D90416EC3201045AF62CDB6C206821CC7C244919D9CA01740401C94182C03558F5F9C3852BBEB6A467FFE9B197D7EFC9E1EC5975982F5AE035262288C535E5B377690E21535501C055FBC8FBF6C503839990E
310
5619041F179FE64D52DE45E362569DD7661365082642A11EB9E920A89B99642953CC8E702F67A9EE7234257977194EC9EAE275C4EABCCF5EAD5940D4AC6F0E35A568B8F43562CD7046CD199FD07E60174276A7BE677B5EADB0E0D14EEFFB6A31321A0D82627C4084204C3F096B71DD52F6819B16635EADF63F509AF53FA164
310
5DDCD1EDDD17164090FCC8732078B56691CB33A85CD7DCC40F504B0304140006080800CC70623B55019EA25F0000007C00000007000000636E782E786D6C4DCB3B0E80201045D1AD90E915ED2CF8AC45050C11660C8261F98AB1B07AC9C97D42D718D865D3E909258CFD00CCE24AC6E326A164D74DC0B4128928FF32603847
310
2BA13128B1252AC747C6BAB984FC68F0B87FE8960A5C09FE86CFB69FBA01504B0304140006080800CC70623BDBABAAF470010000D40300000C0000006662782F636F72652E786D6CC553D16E823014FD95A6AF4B694182CC941A83FA05FB810A9511A125A5257EFE2E82712ECEB8A7F100CD39F7F69E734AF9FADC366850B6
310
AF8DCE7018308C942E4C59EB2AC3DE1D498AD15A706B8CFB56869196ADCAF00863C12B6B7C374385D14E6907A836A59A41D9F7CA615434B0C8705F7CAA5606D23BA8E84F41278B93AC54100640439DE0BDB320004D43C63716C7C399D30917DCFBBA9CD9BA8469F5B156168B24CED3F7248AC8769F27244EB73B92EED8862C
310
B7F13E0C179B3C8F979C8ECD82BBBABDAA2BAC924E9558448CBD9330242CFA08E3154B5651FCC6D215639C8EE5774DBE2B5F6CF2B5768B68963BB5F5588420E442FC700B1139D4CB01F450C1E918227C2E09DF070D8140C84E1E9AAB8F1340832A9CB13130A5F1376A908D57309505ECF2A0DF179C4E9D30F5B239B87E3823
310
7A79C6F31DE1A8A5AEC08474B03C7837EAE4938639B44E5932B833D2C6B6B279CDC613877FA26EE21F4A2A4C63EC7F29A2F301D1F9F7A0E37D145F504B0304140006080800CC70623B9C113CC27E0000009D0000000B0000006662782F636E782E786D6C4DCCDF0A83201C86E15B91DFB94BFB330DD428C8FB886521330DA7
310
6397BF1A1DECE883878F57749FCDA1B7892F1BBC047A23808C7F84D9FA55424E0BE6803A256208E9EF06C84F9B91703228B1C690F78B66B34CD9A5439DF5CF0BFBF65E35BCA1B8D6A5C6F540381E886698B5741C695F9503EBA150A2F8958E3DC3EA0B504B0304140006080800CC70623B7DF2F77C2A010000120200003100
310
00006662782F41393633353835312D344632462D344230382D423046372D3739314545314133324237412F636F72652E786D6C8D51DB8EC22014FC15C2939B0D2DB4B45643319AE817EC0F6041255A68B86CFCFC856D4D76DF7CE190393373060EDB3DC707F856CE6B6B7A480A0C81328395DA5C7B18C3057510EC3873D686
310
3F34088C18550F330C39BB3A1BA7051AAC09CA84841A2BD5020AEF55806078A44B0FFD7053A328440C89E1EFC52486BBB8AA8214A99D789CF9E05200300FC927E4FB4D5B375D43103D5527440FB843077C5AA3F5861C8F645F5787F59E95B390B318B55CE45AA638FAA2957BD7248B390B7A7CC51F9C124149C82B8C378810
310
84AB2F42B7B8DD56F413775B8C5999E9FF4471926F8AA236A1AE96B8B3CC434E5839373893369E1FAF30EA395917409EB7F26AF8801C171837A4A6AC9C89E9F9C9B1A58BA30FD6A5EF5DDDCF894B9AD9B6A59C957943A9FCAE2FD5BC4DFE03504B0304140006080800CC70623BAD7543B64E01000033030000300000006662
310
782F41393633353835312D344632462D344230382D423046372D3739314545314133324237412F636E782E786D6CD593CD6EC32010845F0571AD6CE3D48AD20813A9873E410FBD12D82434182C7EAAE6EDBB2424CD25871E7B41D6EC30B3FA84F9E67BB2E40B4234DE8DB46F1925E094D7C6ED479AD3AE5951B2113C789FEE
310
6C943839C1488B4C05DF079FE72A69D8C96C13AAD6B8631503449F83828872B949AC57D26200B826A308D316B4064D6E46FCDA41C05550DC9E483A00797BFD207EFB092A45DE9514C1BBD22178396BD39D891265658C238DEA00936C654E5E433CB65A26D9F6EDB5EBC14EBF49A45CB856E66048291F6939A9A81BB5C89177
310
38143CA680F4AA299D66A042CEB3354A2684DC9D8D178FE0D9B8B41CAAD720F880EE7EF93C0C18769E099ECC04D5A102C8049A8A05632F4DDF376CF1DE0F6BB65C2F8627B65A33C6BB62177CEBBDAD973006829F89F22E814B54F4BC2BE347F8AA8F681390B50FA73F804400B5F542E796F19FF974E7F78DB802FE05E20750
310
4B0304140006080800CC70623BE75B7789680500003C100000340000006662782F41393633353835312D344632462D344230382D423046372D3739314545314133324237412F6F626A656374732E786D6CAD575B8F9B3818FD2B887D06C22499CB8AA1CA655245D5B455A356FB305264C061D8018C6C3393D95FBFC7600890
310
A4CD5EF210B0B1BFEBF98E3F7B1FF6596ABC522E1296DF9BAE3D320D9A872C4AF2F8DE2CE5CEBA358D0FBEC719939D65A691938CDE9B6ADAF4BD98B3B2D05311DD91329583D9D5FC0F438434A7A611A644887B5384CF34233629258BA878B12322891DEFF6B66BD70BFB62634E8AE781D082709A4B588AF91C528CDA28B73F
310
1C998EEF39EABBEFA97FBD6A7C7E9553F9D3D79FE442923C3C523610337627CB87ABE99D359D4CC6D6E4FACAB5E6ABF9D2726FC6A3C5F56271377BB88362213924694B38DD99FE47C48627A1E7D49F5A8BB5E1A74C0A599ED3B0F21F1E56366B89112D681E218F0915D0D6F17AD41FBA2A369DCF6335D62ABBD39779D5DDD1
310
11D4D8DE3CBB96B2E04FB8202E41051754A1AA8E8F76B4C6DFE810B580B1547F4B84911149794252234D024EF8BBE963A95AE27B3D310A9D5C215C7960FAEE415ED75694C6AFB17BCACA5D99A60A9AA65F217B0BFC53292ACB92BF283FAD0D3621576592CB5BED907C2FA8E9DF794E35E97BEA31BED21FEB401ABB94C44839
310
DCACBF0E1C5DA8DA5B2F4DFFD32AD86F543D9E565E7056502E157C00AD2671CD534549AB752FCA9CDA00677A313F04E51B22FF19E57B300579E3C97EB29F682D92935CEC18CF901B7B54FD8C51F362B56FC72FE0B3C1EAE335EDCCBF5AEC39ADB17DC238973F804BA5E6F6BFE7AF1FB32E523BE9F3BD571418E3631DCA4D48
310
5250CF639223210A9446CA30052EDF057BD35F8329C1ECD84552BF0DC8D18BE7BCE23BFE6BD960AB4A7DE79923A103BEBD80F911CBAA2C60DB19B01CF164A5583B772EE6D3FFA56666CBCDA74DC97724A48F9A58967497E489C4D979006FD7A05E227A1EBDD0F737C623387A9C844D3709995625106D157315F8B8392CD4E0
310
A0B9A720C4BE9829CEF37EA1E13111214D53925356365ADA634861B52519DD27A00AEB808EAF0628E6F435519D446F45CF2C9CF5214F0A15B2F6D06B79DA3EE3CBF7F56780D2F4E7EF73A0F5E5B02A38D07DC852C6B7C1FBB6664213E0C39E3EBA7FF4E1AD23EA2829407C85E586727488B751B2DB9502BC7B228A3FD68B6E
310
A65A22397E690AA8D158D7E404EC8CDA235CC3B7D1898680131CEC2CDF2638C65196279577750F15884AEE19F94199155B92B13297978469D4F8D358DF0AEF7631E28DC8F0D9F437D5D39A83B2231A1D52D543813A824EF8D44BCFF2FA6A31BD1E8DAD87F1CCB526B3879935BF59CDADD5C37479BB1CDD4CA7B3556B516589
310
EF352754B706114D9C885EC9131DE6EFEB43D99AFE2391C2F958179413D7CFEF6B1B6DB1E7600F00DE6E5C67454A339A4BA2E0FBA85ED26F045D454F463DBFCE484C2F90F2E5E3666003662ED8F755951A7D1BECD5B30B550B2785C8E7320B7292A4838DDA71BBC863ED7613CAF659337A3354231D4FF4A182A54904C2898C
310
98B28C4AD0CE056CCF332A80986E571EE9DBC305BB5FEB7E509220A58D25CF042D712A806AC0AD0C657FDEF80D2D9CEAA2EE4D1C76F60BFE74219A06527D6F82DF6412526107381E55E353090704D085B52408A8913C4ED159D79BDA71BB4BC506F4831350EB6F975CD22D69BF7AC49B91A2C0A9DDA3D5CA36AD20FC478E37
310
E61844E2352865EBCB61A275A65283CAAA9DD27703B4102F5AF51EF5F573B75CBB5AD38BC845F7A49F82A0966A49C2E3EA5EA0ECD326CD965F1DB402C6FA8B51A4658C5C5E2EC9E214602E55810345408596591009A82E7E7FFACA19EEA299B14A0081A705CB3296EBC14CDF658DCD336EA6D1136881AAEB87B81AB9EE53D5
310
F5EB8BC8362082DA24122F98680A4E7930C01A0079749CEA14382A0783E5EBA5A10F8C098456A03D6A4AEB6BB881E2513747552A5DB22C7EDAF83BD5528081A365F7FF06504B0304140006080000CC70623B000000000000000000000000350000006662782F41393633353835312D344632462D344230382D423046372D37
310
39314545314133324237412F76657274696365732E62696E504B0304140006080800CC70623BF270F1330600000004000000360000006662782F41393633353835312D344632462D344230382D423046372D3739314545314133324237412F747269616E676C65732E62696E636660600000504B0304140006080000CC7062
310
3B000000000000000000000000370000006662782F41393633353835312D344632462D344230382D423046372D3739314545314133324237412F617474726962757465732E62696E504B0304140006080800CC70623B08DA0BD19000000041010000360000006662782F41393633353835312D344632462D344230382D4230
310
46372D3739314545314133324237412F6469726563746F72792E786D6C858F410AC3201045AF22B36F53E9A60B35CBEEBAE80D244E44489C6234F4F835464A48035D0DF398FF9F8AF63D0E6CC63039F212F8F9020C7D47C6792B21C5FE7403D62A1188E2E60C98D7234A5830286103A55745067B9D86B8A3CF9C7F90C11DE6
310
07FB144396D7B6A82D282E9A152AD114D5EF2CB866EEE831B8EEA07A7BB5A8D7D61A2BAAEB7FD5F70921FF497D00504B0304140006080800CC70623BEDD1DC58FD000000A00100003B0000006662782F41393633353835312D344632462D344230382D423046372D3739314545314133324237412F7265736F75726365732F
310
636F72652E786D6C8D504B6E833010BD0A9A6D65B00922041947112427E8052C33A156828DFCA97AFC9A40A576D7CDCCE87D344F8F9FBFE667F689CE6B6B3A6039850C8DB2A336530731DC4903D95970676DF82583CCC8193B5861107C72362E3BA4AC096842428D1D7107A5F7182053CF7474E0D507CE32973124857FE48B
310
540F3961CEF244279DE03EB81420DB9EAC1384436FA353E879B1B182C7A8C75DA3C7F453DF353A1075D537A7BA6464B8F535A99AE14A9A2BBD90E350DD183B5CFABE3AF262350B1EF4FC9351399401471025A527C218A1E53BAB5A5AB765F5469B96525EACF23FA6B88CFF34456DC2A1DCE36E360F82A5202F42F062ED2BAD
310
579969AFDD8A6F504B010214000A0000080000CC70623B3DEE336E79000000790000001B00000000000000000000000000000000006175746F6465736B2D64657369676E2D7061636B6167652E786D6C504B01021400140006080800CC70623BD486FD9CA0000000F40000001300000000000000000000000000B20000005B
310
436F6E74656E745F54797065735D2E786D6C504B01021400140006080800CC70623B853B8169EB0000007C010000080000000000000000000000000083010000636F72652E786D6C504B01021400140006080800CC70623B55019EA25F0000007C000000070000000000000000000000000094020000636E782E786D6C504B
310
01021400140006080800CC70623BDBABAAF470010000D40300000C00000000000000000000000000180300006662782F636F72652E786D6C504B01021400140006080800CC70623B9C113CC27E0000009D0000000B00000000000000000000000000B20400006662782F636E782E786D6C504B01021400140006080800CC70
310
623B7DF2F77C2A010000120200003100000000000000000000000000590500006662782F41393633353835312D344632462D344230382D423046372D3739314545314133324237412F636F72652E786D6C504B01021400140006080800CC70623BAD7543B64E010000330300003000000000000000000000000000D2060000
310
6662782F41393633353835312D344632462D344230382D423046372D3739314545314133324237412F636E782E786D6C504B01021400140006080800CC70623BE75B7789680500003C10000034000000000000000000000000006E0800006662782F41393633353835312D344632462D344230382D423046372D3739314545
310
314133324237412F6F626A656374732E786D6C504B01021400140006080000CC70623B0000000000000000000000003500000000000000000000000000280E00006662782F41393633353835312D344632462D344230382D423046372D3739314545314133324237412F76657274696365732E62696E504B01021400140006
310
080800CC70623BF270F133060000000400000036000000000000000000000000007B0E00006662782F41393633353835312D344632462D344230382D423046372D3739314545314133324237412F747269616E676C65732E62696E504B01021400140006080000CC70623B0000000000000000000000003700000000000000
310
000000000000D50E00006662782F41393633353835312D344632462D344230382D423046372D3739314545314133324237412F617474726962757465732E62696E504B01021400140006080800CC70623B08DA0BD1900000004101000036000000000000000000000000002A0F00006662782F41393633353835312D344632
310
462D344230382D423046372D3739314545314133324237412F6469726563746F72792E786D6C504B01021400140006080800CC70623BEDD1DC58FD000000A00100003B000000000000000000000000000E1000006662782F41393633353835312D344632462D344230382D423046372D3739314545314133324237412F7265
310
736F75726365732F636F72652E786D6C504B0506000000000E000E0080040000641100000000
  0
XRECORD
  5
1F8
102
{ACAD_REACTORS
330
1F7
102
}
330
1F7
100
AcDbXrecord
280
     1
 70
     1
 90
429727718
  1
30362254-06B7-45E0-A893-8CFA70E3D6BC
310
504B03040A0000080000CC70623B3DEE336E79000000790000001B0000006175746F6465736B2D64657369676E2D7061636B6167652E786D6C3C3F786D6C2076657273696F6E3D22312E302220656E636F64696E673D227574662D3822203F3E3C666F726D6174733E3C666F726D61743E687474703A2F2F736368656D612E
310
6175746F6465736B2E636F6D2F64657369676E2D7061636B6167652F323030393C2F666F726D61743E3C2F666F726D6174733E504B0304140006080800CC70623BD486FD9CA0000000F4000000130000005B436F6E74656E745F54797065735D2E786D6C7D8EC10E82300C865F65E91D8A1E8C310C0EEA1BF002731658846E
310
D98AC1B77784ABF1D8FE5FBFBF75BBCE937A534CCEB38643598122B6FEE978D0B0485F9C41B54DDD7D022595594E1A469170414C76A4D9A4D207E29CF43ECE46F218070CC6BECC4078ACAA135ACF422C856C0E68EA1BF5669944DDD7BCDE7B1F8E415D77AECB980613C2E4AC91FC167A2B244592486606FC29C8FD7F045B9A
310
EF7053A7E60B504B0304140006080800CC70623B1EC5D7A3EB0000007C01000008000000636F72652E786D6C8D90416EC3201045AF82665B6103C6756C6122AB4D4ED00B204C5C94182C03558F5F9C3852BBEB6A467FFE9B197D71FC9E6FE8CBACC17AD7032D0820E3B41FAD9B7A48F1820F808E52ACDEC75F36404ECDA687
310
4D0629A6D5A76597B477D1B89855E747B38B2A041301E95B6E7A08FAD3CCAA50296647B8168BD2573599823EBB0CA76447F43862C7BCCF5EAC59410E4DDD9C7973C2755553CCCFA4C603E3040F1565ED3B1FDE4E432BCA0D9622DAF9795FAF464533826484B498524CD807E51D79ED187F21878E10516EF63F505AC67F42C9
310
BA58B1FDDD071640D2FCC87D2045B96591CB3DA85CB7DCE40F504B0304140006080800CC70623B55019EA25F0000007C00000007000000636E782E786D6C4DCB3B0E80201045D1AD90E915ED2CF8AC45050C11660C8261F98AB1B07AC9C97D42D718D865D3E909258CFD00CCE24AC6E326A164D74DC0B4128928FF32603847
310
2BA13128B1252AC747C6BAB984FC68F0B87FE8960A5C09FE86CFB69FBA01504B0304140006080800CC70623B8C9102E971010000D40300000C0000006662782F636F72652E786D6CC5535B6E833010BC8AE5DF0A6C08340F1947A84D4ED00B38C6A128602363A31CBFCB234A53A551FA553EC09AD9F5CE8C31DB9E9B1AF5CA
310
7695D1198E428A91D2D214952E33ECDD315861B4E5CC1AE3BE9561A445A3323CC098B3D21ADFCE9034DA29ED00D5A6503328BA4E398C640D8B0C77F253352214DE4145770A5B214FA2546114020D759C75CE8200340D19DE981F0F6746269C33EFAB6266AB02A655C74A59CCF365BADC27CB5D902ED22848F6340DF238A141
310
BE88E2F57B92BFEDF23523433367AE6A2EEAA455C2A902F398D2751045018D3FA264435F3771F242571B4A1919CA6F9A7C5B3CD9E42BED16F12C776AEB308F40C848FC700B1139D4891EF410CEC810227CC6846F8386402064270EF5C5C709A05E49676C024C61FC95EA45ED154CA5211D1FF4FB8291A913A68E9B83EBBB33
310
E2A7673CDE118E5AE8124C0807CB8377834E366998436B950D7A7746DAD846D4CFD978E0F04FD455FC5D49D2D4C6FE9722321F10997F0F32DC47FE05504B0304140006080800CC70623BFFEA85907E0000009D0000000B0000006662782F636E782E786D6C4DCCD10A83201886E15B91FFDC95D95A811AB6F23E625948A6C3
310
E9D8E5AF46073BFAE0E1E365ED67B3E8ADC3CB78C7815C7240DA3DFC64DCC221C519D7805AC182F7F1EF06C88D9BE6703008B6049F9E274D7A1E938DBB5AE3D6131B2589BA0D3D965551E0B2EA732C9B9A624AAEB41E3A557677029960D9AFB4EF11165F504B0304140006080800CC70623B4FEEA4082C0100001202000031
310
0000006662782F39464131463745442D413632322D343644302D413938332D3331353338454246344243312F636F72652E786D6C8D515B6EC32010BC0AE2AB55850DD871ED0813254D72825EC00192A2C460F1A872FC42ED48ED5F7E00CDCECCCEB26C731F6FE05B39AFADE921293004CA082BB5B9F43086336A21D870E6AC
310
0D7F68109861543DCC30E4ECE26C9C164858139409093556AA051CBC570102714B8F1E7AF1A5C6A11862480C7F2DA6415C878B2A4891CA89C7990F2E050073937C42DE1DB7E4F87ED8A36D4329AA9B3D46DBAEAD504556557BD81DEBDD0761E52CE42C462D17B996298E3E6BE59E35C962CE821E1FF18553435012728A7187
310
0841987E927A8D9B35ADDF70BBC6989599FE4F1427F9A4286A132ABAC49D651EF234CD5CE04CDA78BA3DC2A8FB645D00B9DF8B57E215725C60BCA2A463E54C4CE327C7A65E1C7DB02E7DEFCBF594B864C5CA6CDBD49C957943E9FA5D5FBAF336F90F504B0304140006080800CC70623BAD7543B64E01000033030000300000
310
006662782F39464131463745442D413632322D343644302D413938332D3331353338454246344243312F636E782E786D6CD593CD6EC32010845F0571AD6CE3D48AD20813A9873E410FBD12D82434182C7EAAE6EDBB2424CD25871E7B41D6EC30B3FA84F9E67BB2E40B4234DE8DB46F1925E094D7C6ED479AD3AE5951B2113C
310
789FEE6C943839C1488B4C05DF079FE72A69D8C96C13AAD6B8631503449F83828872B949AC57D26200B826A308D316B4064D6E46FCDA41C05550DC9E483A00797BFD207EFB092A45DE9514C1BBD22178396BD39D891265658C238DEA00936C654E5E433CB65A26D9F6EDB5EBC14EBF49A45CB856E66048291F6939A9A81BB5
310
C8917738143CA680F4AA299D66A042CEB3354A2684DC9D8D178FE0D9B8B41CAAD720F880EE7EF93C0C18769E099ECC04D5A102C8049A8A05632F4DDF376CF1DE0F6BB65C2F8627B65A33C6BB62177CEBBDAD973006829F89F22E814B54F4BC2BE347F8AA8F681390B50FA73F804400B5F542E796F19FF974E7F78DB802FE05
310
E207504B0304140006080800CC70623B16AB87BA640500003C100000340000006662782F39464131463745442D413632322D343644302D413938332D3331353338454246344243312F6F626A656374732E786D6CAD575B6FA33818FD2B887DE6924B3BED8A326A92B68A663B534DD4D13E548A0C38942D60649B369D5FBFC7
310
600890A493BDE42160637FD7F31D7FF63E6FB3D478A55C242CBF3247B66B1A340F5994E4F19559CA8D75611A9F7D8F33263BCB4C232719BD32D5B4E97B316765A1A722BA21652A07B3B7B33F0D11D29C9A46981221AE4C113ED38CD8A4942CA2E2C58E882476BCD9DA23BB5ED8171B73523C0F841684D35CC252CCE79062D4
310
468DFA43D7747CCF51DF7D4FFDEB5593E3AB9CCA9FBEFE241792E4E19EB28198C968BAB8199F5D5A67D3E9C49A9E8F47D6EC76B6B0469F26EEFC7C3EBFBCBEB98462213924694B38DD98FE1D62C393D073EA4FADC5DAF04326852CCF6958F90F0F2B9BB5C48816348F90C7840A68EB78EDF68723159BCEE7891A6B95DDE9D3
310
BCEAEEE8086A6C6F9E5D4B59F0175C10A7A0820BAA5055C7473B5AE3CFDD452D602CD5DF12616444529E90D448938013FE6EFA58AA96F85E4F8C42275708571E98FE6827AF6B2B4AE3D7D83D64E5A64C53054DD3AF90BD06FEA9149565C94FCA0F6B834DC85599E4F2423B24DF0B6AFA979E534DFA9E7A4CC6FA631D486393
310
921829879BF5D781A373557BCB85E97FB90DB62B558F8795179C15944B051F40AB495CF35451D26A4727654E6D8033BD98EF82F21D91FF8AF2DD9982BCF1643BDD4EB516C9492E368C67C88DED563FC36D5EACF66DFF057C3658BDBFA69DF9578B3DA735B64F18C7F20770A9D45CFCF7FCF563D6456A277DBEF78A02637CA2
310
43B90A490AEAB94F72244481D24819A6C0E59B606BFA4B3025981DBB48EAB701D97BF19C577CC77F2D1B6C55A9EF3C732474C0B727303F625995056C3B02963D9EAC146BE78EC5FCEC7FA999EBC5EACBAAE41B12D27B4D2C0BBA49F244E2ECDC81B76B502F113D8F5EE8FB1BE3111CDD4FC2AA9B844CAB1288B68AB90A7CDC
310
1C166AB0D3DC5310625FCC14E779BFD0709F8890A629C9292B1B2DED31A4B0DA928CEE135085754027E3018A397D4D5427D15BD1330B677DC8934285AC3DF45A9EB68FF8F2B8FC0A509AFEECFD0FF2DE25CC6047F7214B195F07EFEB9A094D800F7BFAE8FED187B78EA8A3A400F115961BCAD1215E47C966530AF0EE8128FE
310
58CEBB996A8964FFA529A046635D9353B0336A8F700DDF46271A024E70B0B37C9DE01847591E54DED53D54202AB947E4076556AC49C6CA5C9E1226B7F1A7B1BE15DEED62C41B91E1B3E9AFAAA735036547343A925075041DF0A9979E893B391F8FCFA6967B3EFB644DCF6E5CEBFAE272625DCC6FAF3FB93793C5F90CE1EF57
310
407342756B10D1C489E8953CD1617E5CEECAD6F4EF8914CE5D5D504E5C3F1F9736DA62CFC11E00BCDDB8CC8A9466349744C1F75EBDA4DF09BA8A9E8C7A7E9991989E20E5DBDD6A6003664ED8F7A04A8DBE0DF6EAD9B9AA858342E47399053949D2C146EDB85DE4B176BB0965FBAC19BD19AA918E27FA50C1D22402E144464C
310
59462568E704B6E71915404CB72B8FF4EDE184DDAF753F284990D2C6926782963815403548A70C657FDEF80D2D9CEAA2AE4C1C76F60BFE74219A06527D6582DF6412526107381E55E353090704D085B52408D0933C4ED159D79BDA71BB4BC506F4831350EB6F979CD22D69BF7AC49B91A2C0A9DDA3D5CA36AD20FC478E37E6
310
1844E2352865EBCB6EA275A652E3836BE04EFB400BF1A2556F515F1FBB35B2AB35BD889C744FFA1004B5544B121E57F70215746DD2F5E2C1412B602CBF19455AC6C8E5E9922C4E01E65215385004546899059180EAFCF7A707CE7017CD8CDB0410789AB32C63B91E5CEBBBACB17AC6CD347A022D5075FD106377347AAABA7E
310
7D11590744509B44E205134DC1290F06580320F78E537D3D73540E06CB970B431F185308AD40BBD794D6D77003C5A36E8EAA54BA64597CD8F83BD552A080A365F7FF06504B0304140006080000CC70623B000000000000000000000000350000006662782F39464131463745442D413632322D343644302D413938332D3331
310
353338454246344243312F76657274696365732E62696E504B0304140006080800CC70623BF270F1330600000004000000360000006662782F39464131463745442D413632322D343644302D413938332D3331353338454246344243312F747269616E676C65732E62696E636660600000504B0304140006080000CC70623B
310
000000000000000000000000370000006662782F39464131463745442D413632322D343644302D413938332D3331353338454246344243312F617474726962757465732E62696E504B0304140006080800CC70623B08DA0BD19000000041010000360000006662782F39464131463745442D413632322D343644302D413938
310
332D3331353338454246344243312F6469726563746F72792E786D6C858F410AC3201045AF22B36F53E9A60B35CBEEBAE80D244E44489C6234F4F835464A48035D0DF398FF9F8AF63D0E6CC63039F212F8F9020C7D47C6792B21C5FE7403D62A1188E2E60C98D7234A5830286103A55745067B9D86B8A3CF9C7F90C11DE607
310
FB144396D7B6A82D282E9A152AD114D5EF2CB866EEE831B8EEA07A7BB5A8D7D61A2BAAEB7FD5F70921FF497D00504B0304140006080800CC70623B0D6EF93BFE000000A00100003B0000006662782F39464131463745442D413632322D343644302D413938332D3331353338454246344243312F7265736F75726365732F63
310
6F72652E786D6C8D50596E833010BD0A9ADFCA60B334011947A8694ED00B586642AC041B79A97AFC9A40A5F6AF3F33A3B7689E1E3F7DCD8FEC139DD7D6F4C0720A191A65476DA61E62B892236427C19DB5E1970C322367EC618541F0C9D9B8EC90B226A009093576C41D94DE63804C3DD2D18357379C652E63480A7FCF17A9
310
EE72C29CE5894E3AC17D702940B63D59270887DE46A7D0F36263058F518FBB468FE9A7BE6A7420864373B8D4873369AA8691FA421B3294352543C5CAF65C0F6FEF43CB8BD52C78D0F34F46E550061C419494B6843142CB0F5677F4B52BEB177AEC28E5C52AFF638ACBF84F53D42654E51E77B379102C05791282176B5F693D
310
CB4C7BED567C03504B010214000A0000080000CC70623B3DEE336E79000000790000001B00000000000000000000000000000000006175746F6465736B2D64657369676E2D7061636B6167652E786D6C504B01021400140006080800CC70623BD486FD9CA0000000F40000001300000000000000000000000000B20000005B
310
436F6E74656E745F54797065735D2E786D6C504B01021400140006080800CC70623B1EC5D7A3EB0000007C010000080000000000000000000000000083010000636F72652E786D6C504B01021400140006080800CC70623B55019EA25F0000007C000000070000000000000000000000000094020000636E782E786D6C504B
310
01021400140006080800CC70623B8C9102E971010000D40300000C00000000000000000000000000180300006662782F636F72652E786D6C504B01021400140006080800CC70623BFFEA85907E0000009D0000000B00000000000000000000000000B30400006662782F636E782E786D6C504B01021400140006080800CC70
310
623B4FEEA4082C0100001202000031000000000000000000000000005A0500006662782F39464131463745442D413632322D343644302D413938332D3331353338454246344243312F636F72652E786D6C504B01021400140006080800CC70623BAD7543B64E010000330300003000000000000000000000000000D5060000
310
6662782F39464131463745442D413632322D343644302D413938332D3331353338454246344243312F636E782E786D6C504B01021400140006080800CC70623B16AB87BA640500003C1000003400000000000000000000000000710800006662782F39464131463745442D413632322D343644302D413938332D3331353338
310
454246344243312F6F626A656374732E786D6C504B01021400140006080000CC70623B0000000000000000000000003500000000000000000000000000270E00006662782F39464131463745442D413632322D343644302D413938332D3331353338454246344243312F76657274696365732E62696E504B01021400140006
310
080800CC70623BF270F133060000000400000036000000000000000000000000007A0E00006662782F39464131463745442D413632322D343644302D413938332D3331353338454246344243312F747269616E676C65732E62696E504B01021400140006080000CC70623B0000000000000000000000003700000000000000
310
000000000000D40E00006662782F39464131463745442D413632322D343644302D413938332D3331353338454246344243312F617474726962757465732E62696E504B01021400140006080800CC70623B08DA0BD190000000410100003600000000000000000000000000290F00006662782F39464131463745442D413632
310
322D343644302D413938332D3331353338454246344243312F6469726563746F72792E786D6C504B01021400140006080800CC70623B0D6EF93BFE000000A00100003B000000000000000000000000000D1000006662782F39464131463745442D413632322D343644302D413938332D3331353338454246344243312F7265
310
736F75726365732F636F72652E786D6C504B0506000000000E000E0080040000641100000000
  0
XRECORD
  5
175
102
{ACAD_REACTORS
330
173
102
}
330
173
100
AcDbXrecord
280
     1
270
     1
271
     1
  0
XRECORD
  5
174
102
{ACAD_REACTORS
330
173
102
}
330
173
100
AcDbXrecord
280
     1
270
     1
271
     1
  0
XRECORD
  5
1FB
102
{ACAD_REACTORS
330
173
102
}
330
173
100
AcDbXrecord
280
     1
 70
     0
 90
1673772943
  1
ECE7A1D2-D628-4531-984C-D00F80459256
310
504B03040A0000080000CC70623B3DEE336E79000000790000001B0000006175746F6465736B2D64657369676E2D7061636B6167652E786D6C3C3F786D6C2076657273696F6E3D22312E302220656E636F64696E673D227574662D3822203F3E3C666F726D6174733E3C666F726D61743E687474703A2F2F736368656D612E
310
6175746F6465736B2E636F6D2F64657369676E2D7061636B6167652F323030393C2F666F726D61743E3C2F666F726D6174733E504B0304140006080800CC70623BD486FD9CA0000000F4000000130000005B436F6E74656E745F54797065735D2E786D6C7D8EC10E82300C865F65E91D8A1E8C310C0EEA1BF002731658846E
310
D98AC1B77784ABF1D8FE5FBFBF75BBCE937A534CCEB38643598122B6FEE978D0B0485F9C41B54DDD7D022595594E1A469170414C76A4D9A4D207E29CF43ECE46F218070CC6BECC4078ACAA135ACF422C856C0E68EA1BF5669944DDD7BCDE7B1F8E415D77AECB980613C2E4AC91FC167A2B244592486606FC29C8FD7F045B9A
310
EF7053A7E60B504B0304140006080800CC70623BD9DDAED0EC0000007C01000008000000636F72652E786D6C8D90416EC3201045AF82665B61836D9CD8C2444DD39CA01740405C94182C03558F5F9C3852BBEB6A467FFE9B197D7EF89E6EE8CB2CC17A37002D0820E394D7D68D03A478C17B4007C117EFE32F1B20272733C0
310
2A83E0E3E2D3BC49CABB685CCCAAF3DA6CA20CC14440EA969B0182FA34932C648AD911AEC52CD5558EA6A0CF2EC329598D1E47ACCEFBECC59A050463A7EA5833865FEBDD0E37353BE3EE8DBDE3F6786A48D375FBF6CC78B9C282473B3DEFABC5C86834888A900E538A49F5419B9EB47DD5BC907D4F082F57FB1F28CDFA9F50
310
B22ED6D5F6EE030B20687EE43E10BC5CB3C8E51E54AE6B6EE207504B0304140006080800CC70623B55019EA25F0000007C00000007000000636E782E786D6C4DCB3B0E80201045D1AD90E915ED2CF8AC45050C11660C8261F98AB1B07AC9C97D42D718D865D3E909258CFD00CCE24AC6E326A164D74DC0B4128928FF326038
310
472BA13128B1252AC747C6BAB984FC68F0B87FE8960A5C09FE86CFB69FBA01504B0304140006080800CC70623BA24EB22D72010000D40300000C0000006662782F636F72652E786D6CC5535B6E833010BC8AE5DF0A6C5E49888CA3A6694ED00B38E05014B091B1518EDFE511A5A9D228FD2A1F60CDEC7A67C6986DCE4D8D7A
310
69BA4AAB0C073EC548AA5C17952A33ECECD15B61B4E1CC686DBF9561A44423333CC098B3D268D7CE50AE9595CA02AA74216750749DB418E5352C32DCE59FB211BE70162ABA93DF8AFC244AE9073ED050C759670D0840D390E18DF9F1706664C23973AE2A66B62A605A75ACA4C13C4976E1364A12EF355A2EBD384AF65EFA96
310
BC7B8BED2EA6719AAE16FB8491A199335B351775B991C2CA02F390D2D40B028F861F41BCA68B7518BFD0D59A524686F29B26D7164F36B94AD9289CE54E6D1DE6010819891F6E21228B3AD1831EC219194284CF98F06DD01008846CC5A1BEF83801D4CBDC6A1303536877A57A513B0953A94FC707FDBE6064EA84A9E3E6E0FA
310
EE8CF0E9198F7784A316AA0413C2C2F2E0ECA0934D1AE6D05A69BCDE9E91D2A611F573361E38FC1375157F5752AE6B6DFE4B11990F88CCBF0719EE23FF02504B0304140006080800CC70623B408A7D3B7C0000009D0000000B0000006662782F636E782E786D6C4DCCD10A83201886E15B91FFDC552A92A0064DBC8F581632
310
D3703A76F9ABD1C18E3E78F878E5F0D9027ABBFCF2292AE86E2D20171F69F6715550CB827B40839639A5F2770314A7CD293819B45C73AAFB45B35BA61ACAA1C1C7E7855C58C15BC331339661262CC762340413D68D77DA5B42298546CBE6573AF60CEB2F504B0304140006080800CC70623B449FB9BD290100001202000031
310
0000006662782F36394639363044362D344446342D343946362D394244322D3234314243333846323333332F636F72652E786D6C8D515B6EC32010BC0AE22B55850D98B871848994463E412FE002495162B07854397EA176A4F62F3F2C9A9D991D587EB84F37F0AD7D30CEF6905418026DA553C65E7A98E219ED203808EE9D
310
8B7F6810D871D23D2C3014FCE25D9A57483A1BB58D19B54EE9151C43D0110279CB971E06F9A5A7B11A53CC8C70ADE6515EC78BAE4895DB992778883E0700CB907242D17643D7E2538BD869608875438BBAE38922CAC8F1BDD90DB4691A5E2F42C153326A951B95E398B3D1FE599322163C9AE9115F7A3D46ADA0A018778810
310
84E907617BDCEE297BC5BB3DC6BC2EF47FA234AB2745C9D8D8D035EE220B50105E2F0DC1954B9FB747187D9F9D8FA0CCDB042D5FA0C015C65B42DF78BD10F3F3B363CB56C7109DCFDFBBB97E662ED92EB62D13BC2E1BCAE5777DB9966D8A1F504B0304140006080800CC70623BAD7543B64E01000033030000300000006662
310
782F36394639363044362D344446342D343946362D394244322D3234314243333846323333332F636E782E786D6CD593CD6EC32010845F0571AD6CE3D48AD20813A9873E410FBD12D82434182C7EAAE6EDBB2424CD25871E7B41D6EC30B3FA84F9E67BB2E40B4234DE8DB46F1925E094D7C6ED479AD3AE5951B2113C789FEE
310
6C943839C1488B4C05DF079FE72A69D8C96C13AAD6B8631503449F83828872B949AC57D26200B826A308D316B4064D6E46FCDA41C05550DC9E483A00797BFD207EFB092A45DE9514C1BBD22178396BD39D891265658C238DEA00936C654E5E433CB65A26D9F6EDB5EBC14EBF49A45CB856E66048291F6939A9A81BB5C89177
310
38143CA680F4AA299D66A042CEB3354A2684DC9D8D178FE0D9B8B41CAAD720F880EE7EF93C0C18769E099ECC04D5A102C8049A8A05632F4DDF376CF1DE0F6BB65C2F8627B65A33C6BB62177CEBBDAD973006829F89F22E814B54F4BC2BE347F8AA8F681390B50FA73F804400B5F542E796F19FF974E7F78DB802FE05E20750
310
4B0304140006080800CC70623B8D05915C650500003B100000340000006662782F36394639363044362D344446342D343946362D394244322D3234314243333846323333332F6F626A656374732E786D6CAD575B6FA33814FE2B887D06429276DA1565D4266D158D3A339A6846FB502932E050B66023DB74D2FDF5FB190C01
310
9276B2973C046C8ECFF53B17071F77456EBD502133CEAE6CDF9DD81665314F32965ED995DA3A17B6F5310C04E7AA47665B8C14F4CAD6DB7618A48257A5D94AE89654B91AEDDEDDFC61C998326A5B714EA4BCB265FC440BE2924AF184CA6737218AB8E976E7FA6E4338649B0A523E8D98964450A6A029F619B8588D52FE7039
310
B1BD30F0F4F730D0FF866AF6369557DB33949F31A9088B0F848DD8CCFCF9F2767A76E99CCDE733677E3EF59D9BBB9BA5E37F984D16E78BC5E5F5ED25044B25C0C96822E8D60EEFE11B91C581D77CEA34368A1F5329E68CD1B8B61F16D63A1B8E092D294B10C78C4A48EB593D192E7DED9BDEE7995E1B91FDEDD3ACEA9FE831
310
6A756F9F7D4D79F4274C90A7A04248AA51D5F8C718DAE06FB2F75AC4796EBE65D22A88A22223B995679120E2D50E41AA49C260C046A35368846B0BECD0DFF3EBEB8AD4F835768F69B9ADF25C43D30E6B646F807FAA64AD59F61715C7A54127C4AACA98BA3006A9D792DAE165E0D59B61A01FB3A9F9D838D2DAE62445C86166
310
F37564E842E7DE6A69879FEEA2DD5AE7E371E1A5E025154AC307D06A03D73EB5978C58FFA4C8E9033066E0F3BD53BEC1F39F91BE7B55103791EDE6BBB991A2046172CB4581D8B893FA674DDA17A77B3B7C413D1B511FD2743BFF8A38F03A658705E3ADF8015C3A3417FF3D7E439FF591DA0B5F18BC20C1B8981957AE6392A3
310
F43C640C01D1A0B4728E2DD4F26DB4B3C3152A252A3B4E913CEC1C72F012782FF88EFF8637AA552DBEF76408E8A8DE9E50F9E1CB3A2DA0DB1B6039A893B56063DC5B3E3FFB5F72E67AB9FEB4AEC496C4F4C1149625DD662C53E89D7BF0F6151A046260D1337DFDC94502430F83B0EE07A130A224BCAD7DAE1D9FB6CD422FF6
310
920702629C4BB9AE79C12F243C6432A6794E18E5552BA56B431AAB5D91317302B2B071E86C3A42B1A02F999E24061403B5D0EB639195DA655DD3EBEAB4FB862DDF579F014AD0E73C22F99E28DA57FB98E75C6CA2D74D53086D600F4786E0FE3144B771A8A7B900F03594DB8A633CBC49B2EDB69228BB479CF863B5E807AAAB
310
23872F6DFEB4129B949CA33823F58830E86D65621E10047D9DB34D862E8EAC3C2ABC2F7B2C40D67CDFE01F5545B92105AF983AC54D93D69E56FB8E797F88913F898A9FEC705D3F9D1B54EC8426FB500D40A03BD0119B06E1B95DDC7EB8F6975367793EBD70E66733DFB9BC982F9CE564727731999F5D4ECFCE3B8D6A4DC2A0
310
6D50FD148437D110834A64C6CDDF57FBACB5C307A2A477DFE4939736CFEF2B175371E0E10CF0DD1D5C15654E0BCA14D1E87DD02FF93782A162C0A3D95F1524A52770F972BF1EE9809D13CE7DD599467F8ECE9ADD85CE85A34CD45355448C64F9E8A031DC2D596ACC6E5DD93D9B82DE2EF5CAF81363A8E47996A0DE24564A79
310
4115AACE09C55E14540231FDA13C319787134EBF34E3A022514E5B4D9E0826E25C02D5805B15ABE1BEF51B26383D445DD9E875EE33FE4C22DA16427D65A3BCA92CA6D28DD01DF5DC53330704308475351050232CCD31583787BA75774AFB06E5070DD0C8EF484E19968C5D83BA5B90B244D31E54D55A372320FE4786B7EA58
310
44E135AA5467CB7EA333A61683CC6A8C3257034C10CF46F40EF9F5BE59BE5BD30C3C72D235E95D10345C1D45445A5F0BB47E46A5EBE5570F9380B5FA629579952296A773720405982B9DE04011506178964401AA8BDF1FBF0A8EAB6861DD6580C0E38217056766716DAEB2D6FA0917D3E4116581EADB879C4E7CFFB11EFACD
310
3D641311495D92C8676CB409A72D18610D803CE8A626049E8EC1887CB5B44CC39883690DDA8399B4B9855B481E7D71D4A9D22F96E5BB73BF5793020C02137BF837504B0304140006080000CC70623B000000000000000000000000350000006662782F36394639363044362D344446342D343946362D394244322D32343142
310
43333846323333332F76657274696365732E62696E504B0304140006080800CC70623BF270F1330600000004000000360000006662782F36394639363044362D344446342D343946362D394244322D3234314243333846323333332F747269616E676C65732E62696E636660600000504B0304140006080000CC70623B0000
310
00000000000000000000370000006662782F36394639363044362D344446342D343946362D394244322D3234314243333846323333332F617474726962757465732E62696E504B0304140006080800CC70623B08DA0BD19000000041010000360000006662782F36394639363044362D344446342D343946362D394244322D
310
3234314243333846323333332F6469726563746F72792E786D6C858F410AC3201045AF22B36F53E9A60B35CBEEBAE80D244E44489C6234F4F835464A48035D0DF398FF9F8AF63D0E6CC63039F212F8F9020C7D47C6792B21C5FE7403D62A1188E2E60C98D7234A5830286103A55745067B9D86B8A3CF9C7F90C11DE607FB14
310
4396D7B6A82D282E9A152AD114D5EF2CB866EEE831B8EEA07A7BB5A8D7D61A2BAAEB7FD5F70921FF497D00504B0304140006080800CC70623BCA768048FE000000A00100003B0000006662782F36394639363044362D344446342D343946362D394244322D3234314243333846323333332F7265736F75726365732F636F72
310
652E786D6C8D50596E833010BD0A9ADFCA60D600328E9AA639412F609909B1126CE4A5EAF16B0295DABFFECC8CDEA2797AECF8353F924FB44E193D409E5248504B332A3D0D10FC95B4901C39B3C6F85F3248B49871801506CE266BC2B243D2688FDA47549B11775038871E12F988C7004EDE7016A9083E2ADC3D5D84BC8B09
310
D33C8D74D471E6BC8D0192EDC93A815B742658898E651BCB59086ADC356A8C3FD555A1055ED7E7E254D615792D0F075295F585746FF53B694EE78A565DD736979A65AB9933AFE69F8CD2A2F038022F28ED489E135A7CE4554F9BBEA85E68DB53CAB255FEC71496F19FA6A0B42F8B3DEE6673C0F318E4497096AD7DC5F52C33
310
EEB55BFE0D504B010214000A0000080000CC70623B3DEE336E79000000790000001B00000000000000000000000000000000006175746F6465736B2D64657369676E2D7061636B6167652E786D6C504B01021400140006080800CC70623BD486FD9CA0000000F40000001300000000000000000000000000B20000005B436F
310
6E74656E745F54797065735D2E786D6C504B01021400140006080800CC70623BD9DDAED0EC0000007C010000080000000000000000000000000083010000636F72652E786D6C504B01021400140006080800CC70623B55019EA25F0000007C000000070000000000000000000000000095020000636E782E786D6C504B0102
310
1400140006080800CC70623BA24EB22D72010000D40300000C00000000000000000000000000190300006662782F636F72652E786D6C504B01021400140006080800CC70623B408A7D3B7C0000009D0000000B00000000000000000000000000B50400006662782F636E782E786D6C504B01021400140006080800CC70623B
310
449FB9BD290100001202000031000000000000000000000000005A0500006662782F36394639363044362D344446342D343946362D394244322D3234314243333846323333332F636F72652E786D6C504B01021400140006080800CC70623BAD7543B64E010000330300003000000000000000000000000000D20600006662
310
782F36394639363044362D344446342D343946362D394244322D3234314243333846323333332F636E782E786D6C504B01021400140006080800CC70623B8D05915C650500003B10000034000000000000000000000000006E0800006662782F36394639363044362D344446342D343946362D394244322D32343142433338
310
46323333332F6F626A656374732E786D6C504B01021400140006080000CC70623B0000000000000000000000003500000000000000000000000000250E00006662782F36394639363044362D344446342D343946362D394244322D3234314243333846323333332F76657274696365732E62696E504B010214001400060808
310
00CC70623BF270F13306000000040000003600000000000000000000000000780E00006662782F36394639363044362D344446342D343946362D394244322D3234314243333846323333332F747269616E676C65732E62696E504B01021400140006080000CC70623B00000000000000000000000037000000000000000000
310
00000000D20E00006662782F36394639363044362D344446342D343946362D394244322D3234314243333846323333332F617474726962757465732E62696E504B01021400140006080800CC70623B08DA0BD190000000410100003600000000000000000000000000270F00006662782F36394639363044362D344446342D
310
343946362D394244322D3234314243333846323333332F6469726563746F72792E786D6C504B01021400140006080800CC70623BCA768048FE000000A00100003B000000000000000000000000000B1000006662782F36394639363044362D344446342D343946362D394244322D3234314243333846323333332F7265736F
310
75726365732F636F72652E786D6C504B0506000000000E000E0080040000621100000000
  0
XRECORD
  5
176
102
{ACAD_REACTORS
330
173
102
}
330
173
100
AcDbXrecord
280
     1
270
     1
271
     1
  0
XRECORD
  5
177
102
{ACAD_REACTORS
330
173
102
}
330
173
100
AcDbXrecord
280
     1
270
     1
271
     1
  0
XRECORD
  5
355
102
{ACAD_REACTORS
330
354
102
}
330
354
100
AcDbXrecord
280
     1
102
DISPLAYNAME
  1
Imperial24
102
FLAGS
 90
        0
  0
XRECORD
  5
351
102
{ACAD_REACTORS
330
350
102
}
330
350
100
AcDbXrecord
280
     1
102
DISPLAYNAME
  1
Metric50
102
FLAGS
 90
        0
  0
CELLSTYLEMAP
  5
346
102
{ACAD_REACTORS
330
162
102
}
330
162
100
AcDbCellStyleMap
 90
        3
300
CELLSTYLE
  1
TABLEFORMAT_BEGIN
 90
        5
170
     1
 91
        0
 92
    32768
 62
   257
 93
        1
300
CONTENTFORMAT
  1
CONTENTFORMAT_BEGIN
 90
        0
 91
        0
 92
      512
 93
        0
300

 40
0.0
140
1.0
 94
        5
 62
     0
340
11
144
6.0
309
CONTENTFORMAT_END
171
     1
301
MARGIN
  1
CELLMARGIN_BEGIN
 40
1.5
 40
1.5
 40
1.5
 40
1.5
 40
4.5
 40
4.5
309
CELLMARGIN_END
 94
        6
 95
        1
302
GRIDFORMAT
  1
GRIDFORMAT_BEGIN
 90
        0
 91
        1
 62
     0
 92
       -2
340
14
 93
        0
 40
1.125
309
GRIDFORMAT_END
 95
        2
302
GRIDFORMAT
  1
GRIDFORMAT_BEGIN
 90
        0
 91
        1
 62
     0
 92
       -2
340
14
 93
        0
 40
1.125
309
GRIDFORMAT_END
 95
        4
302
GRIDFORMAT
  1
GRIDFORMAT_BEGIN
 90
        0
 91
        1
 62
     0
 92
       -2
340
14
 93
        0
 40
1.125
309
GRIDFORMAT_END
 95
        8
302
GRIDFORMAT
  1
GRIDFORMAT_BEGIN
 90
        0
 91
        1
 62
     0
 92
       -2
340
14
 93
        0
 40
1.125
309
GRIDFORMAT_END
 95
       16
302
GRIDFORMAT
  1
GRIDFORMAT_BEGIN
 90
        0
 91
        1
 62
     0
 92
       -2
340
14
 93
        0
 40
1.125
309
GRIDFORMAT_END
 95
       32
302
GRIDFORMAT
  1
GRIDFORMAT_BEGIN
 90
        0
 91
        1
 62
     0
 92
       -2
340
14
 93
        0
 40
1.125
309
GRIDFORMAT_END
309
TABLEFORMAT_END
  1
CELLSTYLE_BEGIN
 90
        1
 91
        1
300
_TITLE
309
CELLSTYLE_END
300
CELLSTYLE
  1
TABLEFORMAT_BEGIN
 90
        5
170
     1
 91
        0
 92
        0
 62
   257
 93
        1
300
CONTENTFORMAT
  1
CONTENTFORMAT_BEGIN
 90
        0
 91
        0
 92
      512
 93
        0
300

 40
0.0
140
1.0
 94
        5
 62
     0
340
11
144
4.5
309
CONTENTFORMAT_END
171
     1
301
MARGIN
  1
CELLMARGIN_BEGIN
 40
1.5
 40
1.5
 40
1.5
 40
1.5
 40
4.5
 40
4.5
309
CELLMARGIN_END
 94
        6
 95
        1
302
GRIDFORMAT
  1
GRIDFORMAT_BEGIN
 90
        0
 91
        1
 62
     0
 92
       -2
340
14
 93
        0
 40
1.125
309
GRIDFORMAT_END
 95
        2
302
GRIDFORMAT
  1
GRIDFORMAT_BEGIN
 90
        0
 91
        1
 62
     0
 92
       -2
340
14
 93
        0
 40
1.125
309
GRIDFORMAT_END
 95
        4
302
GRIDFORMAT
  1
GRIDFORMAT_BEGIN
 90
        0
 91
        1
 62
     0
 92
       -2
340
14
 93
        0
 40
1.125
309
GRIDFORMAT_END
 95
        8
302
GRIDFORMAT
  1
GRIDFORMAT_BEGIN
 90
        0
 91
        1
 62
     0
 92
       -2
340
14
 93
        0
 40
1.125
309
GRIDFORMAT_END
 95
       16
302
GRIDFORMAT
  1
GRIDFORMAT_BEGIN
 90
        0
 91
        1
 62
     0
 92
       -2
340
14
 93
        0
 40
1.125
309
GRIDFORMAT_END
 95
       32
302
GRIDFORMAT
  1
GRIDFORMAT_BEGIN
 90
        0
 91
        1
 62
     0
 92
       -2
340
14
 93
        0
 40
1.125
309
GRIDFORMAT_END
309
TABLEFORMAT_END
  1
CELLSTYLE_BEGIN
 90
        2
 91
        1
300
_HEADER
309
CELLSTYLE_END
300
CELLSTYLE
  1
TABLEFORMAT_BEGIN
 90
        5
170
     1
 91
        0
 92
        0
 62
   257
 93
        1
300
CONTENTFORMAT
  1
CONTENTFORMAT_BEGIN
 90
        0
 91
        0
 92
      512
 93
        0
300

 40
0.0
140
1.0
 94
        2
 62
     0
340
11
144
4.5
309
CONTENTFORMAT_END
171
     1
301
MARGIN
  1
CELLMARGIN_BEGIN
 40
1.5
 40
1.5
 40
1.5
 40
1.5
 40
4.5
 40
4.5
309
CELLMARGIN_END
 94
        6
 95
        1
302
GRIDFORMAT
  1
GRIDFORMAT_BEGIN
 90
        0
 91
        1
 62
     0
 92
       -2
340
14
 93
        0
 40
1.125
309
GRIDFORMAT_END
 95
        2
302
GRIDFORMAT
  1
GRIDFORMAT_BEGIN
 90
        0
 91
        1
 62
     0
 92
       -2
340
14
 93
        0
 40
1.125
309
GRIDFORMAT_END
 95
        4
302
GRIDFORMAT
  1
GRIDFORMAT_BEGIN
 90
        0
 91
        1
 62
     0
 92
       -2
340
14
 93
        0
 40
1.125
309
GRIDFORMAT_END
 95
        8
302
GRIDFORMAT
  1
GRIDFORMAT_BEGIN
 90
        0
 91
        1
 62
     0
 92
       -2
340
14
 93
        0
 40
1.125
309
GRIDFORMAT_END
 95
       16
302
GRIDFORMAT
  1
GRIDFORMAT_BEGIN
 90
        0
 91
        1
 62
     0
 92
       -2
340
14
 93
        0
 40
1.125
309
GRIDFORMAT_END
 95
       32
302
GRIDFORMAT
  1
GRIDFORMAT_BEGIN
 90
        0
 91
        1
 62
     0
 92
       -2
340
14
 93
        0
 40
1.125
309
GRIDFORMAT_END
309
TABLEFORMAT_END
  1
CELLSTYLE_BEGIN
 90
        3
 91
        2
300
_DATA
309
CELLSTYLE_END
  0
ENDSEC
  0
SECTION
  2
ACDSDATA
 70
     2
 71
     8
  0
ACDSSCHEMA
 90
        0
  1
AcDb_Thumbnail_Schema
  2
AcDbDs::ID
280
    10
 91
        8
  2
Thumbnail_Data
280
    15
 91
        0
101
ACDSRECORD
 95
        0
 90
        1
  2
AcDbDs::TreatedAsObjectData
280
     1
291
     1
101
ACDSRECORD
 95
        0
 90
        2
  2
AcDbDs::Legacy
280
     1
291
     1
101
ACDSRECORD
  1
AcDbDs::ID
 90
        3
  2
AcDs:Indexable
280
     1
291
     1
101
ACDSRECORD
  1
AcDbDs::ID
 90
        4
  2
AcDbDs::HandleAttribute
280
     7
282
     1
  0
ACDSSCHEMA
 90
        1
  1
AcDbDs::TreatedAsObjectDataSchema
  2
AcDbDs::TreatedAsObjectData
280
     1
 91
        0
  0
ACDSSCHEMA
 90
        2
  1
AcDbDs::LegacySchema
  2
AcDbDs::Legacy
280
     1
 91
        0
  0
ACDSSCHEMA
 90
        3
  1
AcDbDs::IndexedPropertySchema
  2
AcDs:Indexable
280
     1
 91
        0
  0
ACDSSCHEMA
 90
        4
  1
AcDbDs::HandleAttributeSchema
  2
AcDbDs::HandleAttribute
280
     7
 91
        1
284
     1
  0
ACDSRECORD
 90
        0
  2
AcDbDs::ID
280
    10
320
22
  2
Thumbnail_Data
280
    15
 94
      896
310
89504E470D0A1A0A0000000D49484452000001000000009108030000001BE1960600000300504C5445212830FFFFFF2128300000000000000000000000000000000000000000000000000000330000660000990000CC0000FF0033000033330033660033990033CC0033FF0066000066330066660066990066CC0066FF0099
310
000099330099660099990099CC0099FF00CC0000CC3300CC6600CC9900CCCC00CCFF00FF0000FF3300FF6600FF9900FFCC00FFFF3300003300333300663300993300CC3300FF3333003333333333663333993333CC3333FF3366003366333366663366993366CC3366FF3399003399333399663399993399CC3399FF33CC00
310
33CC3333CC6633CC9933CCCC33CCFF33FF0033FF3333FF6633FF9933FFCC33FFFF6600006600336600666600996600CC6600FF6633006633336633666633996633CC6633FF6666006666336666666666996666CC6666FF6699006699336699666699996699CC6699FF66CC0066CC3366CC6666CC9966CCCC66CCFF66FF0066
310
FF3366FF6666FF9966FFCC66FFFF9900009900339900669900999900CC9900FF9933009933339933669933999933CC9933FF9966009966339966669966999966CC9966FF9999009999339999669999999999CC9999FF99CC0099CC3399CC6699CC9999CCCC99CCFF99FF0099FF3399FF6699FF9999FFCC99FFFFCC0000CC00
310
33CC0066CC0099CC00CCCC00FFCC3300CC3333CC3366CC3399CC33CCCC33FFCC6600CC6633CC6666CC6699CC66CCCC66FFCC9900CC9933CC9966CC9999CC99CCCC99FFCCCC00CCCC33CCCC66CCCC99CCCCCCCCCCFFCCFF00CCFF33CCFF66CCFF99CCFFCCCCFFFFFF0000FF0033FF0066FF0099FF00CCFF00FFFF3300FF3333
310
FF3366FF3399FF33CCFF33FFFF6600FF6633FF6666FF6699FF66CCFF66FFFF9900FF9933FF9966FF9999FF99CCFF99FFFFCC00FFCC33FFCC66FFCC99FFCCCCFFCCFFFFFF00FFFF33FFFF66FFFF99FFFFCCFFFFFF0000000D0D0D1A1A1A2828283535354343435050505D5D5D6B6B6B787878868686939393A1A1A1AEAEAEBB
310
BBBBC9C9C9D6D6D6E4E4E4F1F1F1FFFFFF0000000000000000000000000000000000000000000000000000000000002E4550F10000003B4944415478DAEDC13101000000C2A0F54F6D0B2FA0000000000000000000000000000000000000000000000000000000000000000000000000CE06919100016C9A5B1B0000000049
310
454E44AE426082
  0
ENDSEC
  0
EOF
