  0
SECTION
  2
HEADER
  9
$ACADVER
  1
AC1027
  9
$ACADMAINTVER
 70
   125
  9
$DWGCODEPAGE
  3
ANSI_1252
  9
$LASTSAVEDBY
  1
andrea.ragusa
  9
$REQUIREDVERSIONS
160
                 0
  9
$INSBASE
 10
0.0
 20
0.0
 30
0.0
  9
$EXTMIN
 10
-0.0128164049386896
 20
0.0589148761458773
 30
-0.0015258207003583
  9
$EXTMAX
 10
14.85534718592578
 20
10.91272008502005
 30
0.0000000349246037
  9
$LIMMIN
 10
0.0
 20
0.0
  9
$LIMMAX
 10
420.0
 20
297.0
  9
$ORTHOMODE
 70
     0
  9
$REGENMODE
 70
     1
  9
$FILLMODE
 70
     1
  9
$QTEXTMODE
 70
     0
  9
$MIRRTEXT
 70
     0
  9
$LTSCALE
 40
1.0
  9
$ATTMODE
 70
     1
  9
$TEXTSIZE
 40
2.5
  9
$TRACEWID
 40
1.0
  9
$TEXTSTYLE
  7
Standard
  9
$CLAYER
  8
0
  9
$CELTYPE
  6
ByLayer
  9
$CECOLOR
 62
   256
  9
$CELTSCALE
 40
1.0
  9
$DISPSILH
 70
     0
  9
$DIMSCALE
 40
1.0
  9
$DIMASZ
 40
2.5
  9
$DIMEXO
 40
0.625
  9
$DIMDLI
 40
3.75
  9
$DIMRND
 40
0.0
  9
$DIMDLE
 40
0.0
  9
$DIMEXE
 40
1.25
  9
$DIMTP
 40
0.0
  9
$DIMTM
 40
0.0
  9
$DIMTXT
 40
2.5
  9
$DIMCEN
 40
2.5
  9
$DIMTSZ
 40
0.0
  9
$DIMTOL
 70
     0
  9
$DIMLIM
 70
     0
  9
$DIMTIH
 70
     0
  9
$DIMTOH
 70
     0
  9
$DIMSE1
 70
     0
  9
$DIMSE2
 70
     0
  9
$DIMTAD
 70
     1
  9
$DIMZIN
 70
     8
  9
$DIMBLK
  1

  9
$DIMASO
 70
     1
  9
$DIMSHO
 70
     1
  9
$DIMPOST
  1

  9
$DIMAPOST
  1

  9
$DIMALT
 70
     0
  9
$DIMALTD
 70
     3
  9
$DIMALTF
 40
0.03937007874016
  9
$DIMLFAC
 40
1.0
  9
$DIMTOFL
 70
     1
  9
$DIMTVP
 40
0.0
  9
$DIMTIX
 70
     0
  9
$DIMSOXD
 70
     0
  9
$DIMSAH
 70
     0
  9
$DIMBLK1
  1

  9
$DIMBLK2
  1

  9
$DIMSTYLE
  2
ISO-25
  9
$DIMCLRD
 70
     0
  9
$DIMCLRE
 70
     0
  9
$DIMCLRT
 70
     0
  9
$DIMTFAC
 40
1.0
  9
$DIMGAP
 40
0.625
  9
$DIMJUST
 70
     0
  9
$DIMSD1
 70
     0
  9
$DIMSD2
 70
     0
  9
$DIMTOLJ
 70
     0
  9
$DIMTZIN
 70
     8
  9
$DIMALTZ
 70
     0
  9
$DIMALTTZ
 70
     0
  9
$DIMUPT
 70
     0
  9
$DIMDEC
 70
     2
  9
$DIMTDEC
 70
     2
  9
$DIMALTU
 70
     2
  9
$DIMALTTD
 70
     3
  9
$DIMTXSTY
  7
Standard
  9
$DIMAUNIT
 70
     0
  9
$DIMADEC
 70
     0
  9
$DIMALTRND
 40
0.0
  9
$DIMAZIN
 70
     0
  9
$DIMDSEP
 70
    44
  9
$DIMATFIT
 70
     3
  9
$DIMFRAC
 70
     0
  9
$DIMLDRBLK
  1

  9
$DIMLUNIT
 70
     2
  9
$DIMLWD
 70
    -2
  9
$DIMLWE
 70
    -2
  9
$DIMTMOVE
 70
     0
  9
$DIMFXL
 40
1.0
  9
$DIMFXLON
 70
     0
  9
$DIMJOGANG
 40
0.7853981633974483
  9
$DIMTFILL
 70
     0
  9
$DIMTFILLCLR
 70
     0
  9
$DIMARCSYM
 70
     0
  9
$DIMLTYPE
  6

  9
$DIMLTEX1
  6

  9
$DIMLTEX2
  6

  9
$DIMTXTDIRECTION
 70
     0
  9
$LUNITS
 70
     2
  9
$LUPREC
 70
     4
  9
$SKETCHINC
 40
1.0
  9
$FILLETRAD
 40
0.0
  9
$AUNITS
 70
     0
  9
$AUPREC
 70
     0
  9
$MENU
  1
.
  9
$ELEVATION
 40
0.0
  9
$PELEVATION
 40
0.0
  9
$THICKNESS
 40
0.0
  9
$LIMCHECK
 70
     0
  9
$CHAMFERA
 40
0.0
  9
$CHAMFERB
 40
0.0
  9
$CHAMFERC
 40
0.0
  9
$CHAMFERD
 40
0.0
  9
$SKPOLY
 70
     0
  9
$TDCREATE
 40
2459060.478796296
  9
$TDUCREATE
 40
2459060.395462963
  9
$TDUPDATE
 40
2459060.479004630
  9
$TDUUPDATE
 40
2459060.395671297
  9
$TDINDWG
 40
0.0002083333
  9
$TDUSRTIMER
 40
0.0002083333
  9
$USRTIMER
 70
     1
  9
$ANGBASE
 50
0.0
  9
$ANGDIR
 70
     0
  9
$PDMODE
 70
     0
  9
$PDSIZE
 40
0.0
  9
$PLINEWID
 40
0.0
  9
$SPLFRAME
 70
     0
  9
$SPLINETYPE
 70
     6
  9
$SPLINESEGS
 70
     8
  9
$HANDSEED
  5
38B
  9
$SURFTAB1
 70
     6
  9
$SURFTAB2
 70
     6
  9
$SURFTYPE
 70
     6
  9
$SURFU
 70
     6
  9
$SURFV
 70
     6
  9
$UCSBASE
  2

  9
$UCSNAME
  2

  9
$UCSORG
 10
0.0
 20
0.0
 30
0.0
  9
$UCSXDIR
 10
1.0
 20
0.0
 30
0.0
  9
$UCSYDIR
 10
0.0
 20
1.0
 30
0.0
  9
$UCSORTHOREF
  2

  9
$UCSORTHOVIEW
 70
     0
  9
$UCSORGTOP
 10
0.0
 20
0.0
 30
0.0
  9
$UCSORGBOTTOM
 10
0.0
 20
0.0
 30
0.0
  9
$UCSORGLEFT
 10
0.0
 20
0.0
 30
0.0
  9
$UCSORGRIGHT
 10
0.0
 20
0.0
 30
0.0
  9
$UCSORGFRONT
 10
0.0
 20
0.0
 30
0.0
  9
$UCSORGBACK
 10
0.0
 20
0.0
 30
0.0
  9
$PUCSBASE
  2

  9
$PUCSNAME
  2

  9
$PUCSORG
 10
0.0
 20
0.0
 30
0.0
  9
$PUCSXDIR
 10
1.0
 20
0.0
 30
0.0
  9
$PUCSYDIR
 10
0.0
 20
1.0
 30
0.0
  9
$PUCSORTHOREF
  2

  9
$PUCSORTHOVIEW
 70
     0
  9
$PUCSORGTOP
 10
0.0
 20
0.0
 30
0.0
  9
$PUCSORGBOTTOM
 10
0.0
 20
0.0
 30
0.0
  9
$PUCSORGLEFT
 10
0.0
 20
0.0
 30
0.0
  9
$PUCSORGRIGHT
 10
0.0
 20
0.0
 30
0.0
  9
$PUCSORGFRONT
 10
0.0
 20
0.0
 30
0.0
  9
$PUCSORGBACK
 10
0.0
 20
0.0
 30
0.0
  9
$USERI1
 70
     0
  9
$USERI2
 70
     0
  9
$USERI3
 70
     0
  9
$USERI4
 70
     0
  9
$USERI5
 70
     0
  9
$USERR1
 40
0.0
  9
$USERR2
 40
0.0
  9
$USERR3
 40
0.0
  9
$USERR4
 40
0.0
  9
$USERR5
 40
0.0
  9
$WORLDVIEW
 70
     1
  9
$SHADEDGE
 70
     3
  9
$SHADEDIF
 70
    70
  9
$TILEMODE
 70
     1
  9
$MAXACTVP
 70
    64
  9
$PINSBASE
 10
0.0
 20
0.0
 30
0.0
  9
$PLIMCHECK
 70
     0
  9
$PEXTMIN
 10
0.0
 20
0.0
 30
0.0
  9
$PEXTMAX
 10
0.0
 20
0.0
 30
0.0
  9
$PLIMMIN
 10
0.0
 20
0.0
  9
$PLIMMAX
 10
12.0
 20
9.0
  9
$UNITMODE
 70
     0
  9
$VISRETAIN
 70
     1
  9
$PLINEGEN
 70
     0
  9
$PSLTSCALE
 70
     1
  9
$TREEDEPTH
 70
  3020
  9
$CMLSTYLE
  2
Standard
  9
$CMLJUST
 70
     0
  9
$CMLSCALE
 40
20.0
  9
$PROXYGRAPHICS
 70
     1
  9
$MEASUREMENT
 70
     1
  9
$CELWEIGHT
370
    -1
  9
$ENDCAPS
280
     0
  9
$JOINSTYLE
280
     0
  9
$LWDISPLAY
290
     0
  9
$INSUNITS
 70
     4
  9
$HYPERLINKBASE
  1

  9
$STYLESHEET
  1

  9
$XEDIT
290
     1
  9
$CEPSNTYPE
380
     0
  9
$PSTYLEMODE
290
     1
  9
$FINGERPRINTGUID
  2
{6239AB4B-1434-0B46-A072-2DFFE6158D79}
  9
$VERSIONGUID
  2
{5F1DDAA8-8CB6-6A47-8A86-DAE17121B4AE}
  9
$EXTNAMES
290
     1
  9
$PSVPSCALE
 40
0.0
  9
$OLESTARTUP
290
     0
  9
$SORTENTS
280
   127
  9
$INDEXCTL
280
     0
  9
$HIDETEXT
280
     1
  9
$XCLIPFRAME
280
     2
  9
$HALOGAP
280
     0
  9
$OBSCOLOR
 70
   257
  9
$OBSLTYPE
280
     0
  9
$INTERSECTIONDISPLAY
280
     0
  9
$INTERSECTIONCOLOR
 70
   257
  9
$DIMASSOC
280
     2
  9
$PROJECTNAME
  1

  9
$CAMERADISPLAY
290
     0
  9
$LENSLENGTH
 40
50.0
  9
$CAMERAHEIGHT
 40
0.0
  9
$STEPSPERSEC
 40
2.0
  9
$STEPSIZE
 40
6.0
  9
$3DDWFPREC
 40
2.0
  9
$PSOLWIDTH
 40
5.0
  9
$PSOLHEIGHT
 40
80.0
  9
$LOFTANG1
 40
1.570796326794896
  9
$LOFTANG2
 40
1.570796326794896
  9
$LOFTMAG1
 40
0.0
  9
$LOFTMAG2
 40
0.0
  9
$LOFTPARAM
 70
     7
  9
$LOFTNORMALS
280
     1
  9
$LATITUDE
 40
37.795
  9
$LONGITUDE
 40
-122.394
  9
$NORTHDIRECTION
 40
0.0
  9
$TIMEZONE
 70
 -8000
  9
$LIGHTGLYPHDISPLAY
280
     1
  9
$TILEMODELIGHTSYNCH
280
     1
  9
$CMATERIAL
347
EC
  9
$SOLIDHIST
280
     0
  9
$SHOWHIST
280
     1
  9
$DWFFRAME
280
     2
  9
$DGNFRAME
280
     0
  9
$REALWORLDSCALE
290
     1
  9
$INTERFERECOLOR
 62
     1
  9
$INTERFEREOBJVS
345
F9
  9
$INTERFEREVPVS
346
F6
  9
$CSHADOW
280
     0
  9
$SHADOWPLANELOCATION
 40
0.0
  0
ENDSEC
  0
SECTION
  2
CLASSES
  0
CLASS
  1
ACDBDICTIONARYWDFLT
  2
AcDbDictionaryWithDefault
  3
ObjectDBX Classes
 90
        0
 91
        1
280
     0
281
     0
  0
CLASS
  1
DICTIONARYVAR
  2
AcDbDictionaryVar
  3
ObjectDBX Classes
 90
        0
 91
       11
280
     0
281
     0
  0
CLASS
  1
TABLESTYLE
  2
AcDbTableStyle
  3
ObjectDBX Classes
 90
     4095
 91
        1
280
     0
281
     0
  0
CLASS
  1
MATERIAL
  2
AcDbMaterial
  3
ObjectDBX Classes
 90
     1153
 91
        3
280
     0
281
     0
  0
CLASS
  1
VISUALSTYLE
  2
AcDbVisualStyle
  3
ObjectDBX Classes
 90
     4095
 91
       24
280
     0
281
     0
  0
CLASS
  1
SCALE
  2
AcDbScale
  3
ObjectDBX Classes
 90
     1153
 91
       17
280
     0
281
     0
  0
CLASS
  1
MLEADERSTYLE
  2
AcDbMLeaderStyle
  3
ACDB_MLEADERSTYLE_CLASS
 90
     4095
 91
        2
280
     0
281
     0
  0
CLASS
  1
CELLSTYLEMAP
  2
AcDbCellStyleMap
  3
ObjectDBX Classes
 90
     1152
 91
        1
280
     0
281
     0
  0
CLASS
  1
EXACXREFPANELOBJECT
  2
ExAcXREFPanelObject
  3
EXAC_ESW
 90
     1025
 91
        0
280
     0
281
     0
  0
CLASS
  1
NPOCOLLECTION
  2
AcDbImpNonPersistentObjectsCollection
  3
ObjectDBX Classes
 90
     1153
 91
        0
280
     0
281
     0
  0
CLASS
  1
LAYER_INDEX
  2
AcDbLayerIndex
  3
ObjectDBX Classes
 90
        0
 91
        0
280
     0
281
     0
  0
CLASS
  1
SPATIAL_INDEX
  2
AcDbSpatialIndex
  3
ObjectDBX Classes
 90
        0
 91
        0
280
     0
281
     0
  0
CLASS
  1
IDBUFFER
  2
AcDbIdBuffer
  3
ObjectDBX Classes
 90
        0
 91
        0
280
     0
281
     0
  0
CLASS
  1
ACDBSECTIONVIEWSTYLE
  2
AcDbSectionViewStyle
  3
ObjectDBX Classes
 90
     1025
 91
        2
280
     0
281
     0
  0
CLASS
  1
ACDBDETAILVIEWSTYLE
  2
AcDbDetailViewStyle
  3
ObjectDBX Classes
 90
     1025
 91
        2
280
     0
281
     0
  0
CLASS
  1
SORTENTSTABLE
  2
AcDbSortentsTable
  3
ObjectDBX Classes
 90
        0
 91
        1
280
     0
281
     0
  0
ENDSEC
  0
SECTION
  2
TABLES
  0
TABLE
  2
VPORT
  5
8
330
0
100
AcDbSymbolTable
 70
     1
1001
ACAD
1000
DbSaveVer
1071
      208
  0
VPORT
  5
EA
330
8
100
AcDbSymbolTableRecord
100
AcDbViewportTableRecord
  2
*Active
 70
     0
 10
0.0
 20
0.0
 11
1.0
 21
1.0
 12
7.421265390493545
 22
5.485817480582967
 13
0.0
 23
0.0
 14
10.0
 24
10.0
 15
10.0
 25
10.0
 16
0.0
 26
0.0
 36
1.0
 17
0.0
 27
0.0
 37
0.0
 40
10.93151741800693
 41
2.283154121863799
 42
50.0
 43
0.0
 44
0.0
 50
0.0
 51
0.0
 71
     0
 72
  1000
 73
     1
 74
     3
 75
     0
 76
     1
 77
     0
 78
     0
281
     0
 65
     1
110
0.0
120
0.0
130
0.0
111
1.0
121
0.0
131
0.0
112
0.0
122
1.0
132
0.0
 79
     0
146
0.0
348
F5
 60
     3
 61
     5
292
     1
282
     1
141
0.0
142
0.0
 63
   250
421
  3355443
1001
ACAD_NAV_VCDISPLAY
1070
     3
  0
ENDTAB
  0
TABLE
  2
LTYPE
  5
5
330
0
100
AcDbSymbolTable
 70
     1
  0
LTYPE
  5
14
330
5
100
AcDbSymbolTableRecord
100
AcDbLinetypeTableRecord
  2
ByBlock
 70
     0
  3

 72
    65
 73
     0
 40
0.0
  0
LTYPE
  5
15
330
5
100
AcDbSymbolTableRecord
100
AcDbLinetypeTableRecord
  2
ByLayer
 70
     0
  3

 72
    65
 73
     0
 40
0.0
  0
LTYPE
  5
16
330
5
100
AcDbSymbolTableRecord
100
AcDbLinetypeTableRecord
  2
Continuous
 70
     0
  3
Solid line
 72
    65
 73
     0
 40
0.0
  0
ENDTAB
  0
TABLE
  2
LAYER
  5
2
102
{ACAD_XDICTIONARY
360
1FF
102
}
330
0
100
AcDbSymbolTable
 70
     2
  0
LAYER
  5
10
102
{ACAD_XDICTIONARY
360
13C
102
}
330
2
100
AcDbSymbolTableRecord
100
AcDbLayerTableRecord
  2
0
 70
     0
 62
     7
  6
Continuous
370
    -3
390
F
347
EE
348
0
  0
LAYER
  5
28C
330
2
100
AcDbSymbolTableRecord
100
AcDbLayerTableRecord
  2
Livello 1
 70
     0
 62
     7
  6
Continuous
370
    -3
390
F
347
EE
348
0
  0
ENDTAB
  0
TABLE
  2
STYLE
  5
3
330
0
100
AcDbSymbolTable
 70
     2
  0
STYLE
  5
11
330
3
100
AcDbSymbolTableRecord
100
AcDbTextStyleTableRecord
  2
Standard
 70
     0
 40
0.0
 41
1.0
 50
0.0
 71
     0
 42
2.5
  3
arial.ttf
  4

1001
ACAD
1000
Arial
1071
       34
  0
STYLE
  5
132
330
3
100
AcDbSymbolTableRecord
100
AcDbTextStyleTableRecord
  2
Annotativa
 70
     0
 40
0.0
 41
1.0
 50
0.0
 71
     0
 42
2.5
  3
arial.ttf
  4

1001
AcadAnnotative
1000
AnnotativeData
1002
{
1070
     1
1070
     1
1002
}
1001
ACAD
1000
Arial
1071
       34
  0
ENDTAB
  0
TABLE
  2
VIEW
  5
6
330
0
100
AcDbSymbolTable
 70
     0
  0
ENDTAB
  0
TABLE
  2
UCS
  5
7
330
0
100
AcDbSymbolTable
 70
     0
  0
ENDTAB
  0
TABLE
  2
APPID
  5
9
330
0
100
AcDbSymbolTable
 70
     8
  0
APPID
  5
12
330
9
100
AcDbSymbolTableRecord
100
AcDbRegAppTableRecord
  2
ACAD
 70
     0
  0
APPID
  5
9E
330
9
100
AcDbSymbolTableRecord
100
AcDbRegAppTableRecord
  2
ACAD_PSEXT
 70
     0
  0
APPID
  5
133
330
9
100
AcDbSymbolTableRecord
100
AcDbRegAppTableRecord
  2
AcadAnnoPO
 70
     0
  0
APPID
  5
134
330
9
100
AcDbSymbolTableRecord
100
AcDbRegAppTableRecord
  2
AcadAnnotative
 70
     0
  0
APPID
  5
135
330
9
100
AcDbSymbolTableRecord
100
AcDbRegAppTableRecord
  2
ACAD_DSTYLE_DIMJAG
 70
     0
  0
APPID
  5
136
330
9
100
AcDbSymbolTableRecord
100
AcDbRegAppTableRecord
  2
ACAD_DSTYLE_DIMTALN
 70
     0
  0
APPID
  5
165
330
9
100
AcDbSymbolTableRecord
100
AcDbRegAppTableRecord
  2
ACAD_MLEADERVER
 70
     0
  0
APPID
  5
217
330
9
100
AcDbSymbolTableRecord
100
AcDbRegAppTableRecord
  2
ACAD_NAV_VCDISPLAY
 70
     0
  0
ENDTAB
  0
TABLE
  2
DIMSTYLE
  5
A
330
0
100
AcDbSymbolTable
 70
     3
100
AcDbDimStyleTable
 71
     2
340
27
340
137
  0
DIMSTYLE
105
1B0
330
A
100
AcDbSymbolTableRecord
100
AcDbDimStyleTableRecord
  2
Standard
 70
     0
340
11
  0
DIMSTYLE
105
137
330
A
100
AcDbSymbolTableRecord
100
AcDbDimStyleTableRecord
  2
Annotativa
 70
     0
 40
0.0
 41
2.5
 42
0.625
 43
3.75
 44
1.25
 73
     0
 74
     0
 77
     1
 78
     8
140
2.5
141
2.5
143
0.03937007874016
147
0.625
171
     3
172
     1
271
     2
272
     2
274
     3
278
    44
283
     0
284
     8
340
11
1001
AcadAnnotative
1000
AnnotativeData
1002
{
1070
     1
1070
     1
1002
}
1001
ACAD_DSTYLE_DIMJAG
1070
   388
1040
1.5
1001
ACAD_DSTYLE_DIMTALN
1070
   392
1070
     0
  0
DIMSTYLE
105
27
330
A
100
AcDbSymbolTableRecord
100
AcDbDimStyleTableRecord
  2
ISO-25
 70
     0
 41
2.5
 42
0.625
 43
3.75
 44
1.25
 73
     0
 74
     0
 77
     1
 78
     8
140
2.5
141
2.5
143
0.03937007874016
147
0.625
171
     3
172
     1
271
     2
272
     2
274
     3
278
    44
283
     0
284
     8
340
11
  0
ENDTAB
  0
TABLE
  2
BLOCK_RECORD
  5
1
330
0
100
AcDbSymbolTable
 70
     2
  0
BLOCK_RECORD
  5
1F
102
{ACAD_XDICTIONARY
360
1CE
102
}
330
1
100
AcDbSymbolTableRecord
100
AcDbBlockTableRecord
  2
*Model_Space
340
22
 70
     0
280
     1
281
     0
  0
BLOCK_RECORD
  5
D2
330
1
100
AcDbSymbolTableRecord
100
AcDbBlockTableRecord
  2
*Paper_Space
340
D3
 70
     0
280
     1
281
     0
  0
BLOCK_RECORD
  5
D6
330
1
100
AcDbSymbolTableRecord
100
AcDbBlockTableRecord
  2
*Paper_Space0
340
D7
 70
     0
280
     1
281
     0
  0
ENDTAB
  0
ENDSEC
  0
SECTION
  2
BLOCKS
  0
BLOCK
  5
20
330
1F
100
AcDbEntity
  8
0
100
AcDbBlockBegin
  2
*Model_Space
 70
     0
 10
0.0
 20
0.0
 30
0.0
  3
*Model_Space
  1

  0
ENDBLK
  5
21
330
1F
100
AcDbEntity
  8
0
100
AcDbBlockEnd
  0
BLOCK
  5
D4
330
D2
100
AcDbEntity
 67
     1
  8
0
100
AcDbBlockBegin
  2
*Paper_Space
 70
     0
 10
0.0
 20
0.0
 30
0.0
  3
*Paper_Space
  1

  0
ENDBLK
  5
D5
330
D2
100
AcDbEntity
 67
     1
  8
0
100
AcDbBlockEnd
  0
BLOCK
  5
D8
330
D6
100
AcDbEntity
 67
     1
  8
0
100
AcDbBlockBegin
  2
*Paper_Space0
 70
     0
 10
0.0
 20
0.0
 30
0.0
  3
*Paper_Space0
  1

  0
ENDBLK
  5
D9
330
D6
100
AcDbEntity
 67
     1
  8
0
100
AcDbBlockEnd
  0
ENDSEC
  0
SECTION
  2
ENTITIES
  0
POLYLINE
  5
308
330
1F
100
AcDbEntity
  8
Livello 1
370
     9
100
AcDb2dPolyline
 66
     1
 10
0.0
 20
0.0
 30
0.0
  0
VERTEX
  5
309
330
308
100
AcDbEntity
  8
Livello 1
370
     9
100
AcDbVertex
100
AcDb2dVertex
 10
9.798123441624767
 20
3.836512759768318
 30
0.0
  0
VERTEX
  5
30A
330
308
100
AcDbEntity
  8
Livello 1
370
     9
100
AcDbVertex
100
AcDb2dVertex
 10
0.177871936800571
 20
3.836512759768318
 30
0.0
  0
SEQEND
  5
30B
330
308
100
AcDbEntity
  8
Livello 1
370
     9
  0
POLYLINE
  5
30C
330
1F
100
AcDbEntity
  8
Livello 1
370
     9
100
AcDb2dPolyline
 66
     1
 10
0.0
 20
0.0
 30
0.0
  0
VERTEX
  5
30D
330
30C
100
AcDbEntity
  8
Livello 1
370
     9
100
AcDbVertex
100
AcDb2dVertex
 10
11.03957974861963
 20
8.052382418562025
 30
0.0
  0
VERTEX
  5
30E
330
30C
100
AcDbEntity
  8
Livello 1
370
     9
100
AcDbVertex
100
AcDb2dVertex
 10
11.03957974861963
 20
5.045656493444305
 30
0.0
  0
SEQEND
  5
30F
330
30C
100
AcDbEntity
  8
Livello 1
370
     9
  0
MTEXT
  5
310
330
1F
100
AcDbEntity
  8
Livello 1
100
AcDbMText
 10
1.062190267132322
 20
0.8652605522252585
 30
0.0
 40
1.998133332833799
 41
0.0
 46
0.0
 71
     7
 72
     1
  1
\fSource Sans Pro Light|b0|i0|c0|p34;\W1;68 mm
 73
     1
 44
1.0
  0
MTEXT
  5
311
330
1F
100
AcDbEntity
  8
Livello 1
100
AcDbMText
 10
14.010613946214
 20
2.589186333044601
 30
0.0
 40
1.998133332833799
 41
0.0
 46
0.0
 71
     7
 72
     1
  1
\fSource Sans Pro Light|b0|i0|c0|p34;\W1;21 mm
 11
-0.0000000000000002
 21
1.0
 31
0.0
 73
     1
 44
1.0
  0
SPLINE
  5
312
330
1F
100
AcDbEntity
  8
Livello 1
370
     0
100
AcDbSpline
210
0.0
220
0.0
230
1.0
 70
     9
 71
     3
 72
    23
 73
    19
 74
     0
 42
0.000000001
 43
0.0000000001
 40
0.0
 40
0.0
 40
0.0
 40
0.0
 40
1.0
 40
1.0
 40
1.0
 40
2.0
 40
2.0
 40
2.0
 40
3.0
 40
3.0
 40
3.0
 40
4.0
 40
4.0
 40
4.0
 40
5.0
 40
5.0
 40
5.0
 40
6.0
 40
6.0
 40
6.0
 40
6.0
 10
8.554298631483803
 20
8.033897328098994
 30
0.0
 10
8.554298631483803
 20
8.033897328098994
 30
0.0
 10
5.852369454981001
 20
8.033897328098994
 30
0.0
 10
5.852369454981001
 20
8.033897328098994
 30
0.0
 10
5.844607224215806
 20
8.033897328098994
 30
0.0
 10
5.83826071237658
 20
8.040246531419057
 30
0.0
 10
5.83826071237658
 20
8.048007416443844
 30
0.0
 10
5.83826071237658
 20
8.055768301468624
 30
0.0
 10
5.844607224215806
 20
8.062118850529131
 30
0.0
 10
5.852369454981001
 20
8.062118850529131
 30
0.0
 10
5.852369454981001
 20
8.062118850529131
 30
0.0
 10
8.554298631483803
 20
8.062118850529131
 30
0.0
 10
8.554298631483803
 20
8.062118850529131
 30
0.0
 10
8.562055479287323
 20
8.062118850529131
 30
0.0
 10
8.568407374088224
 20
8.055768301468624
 30
0.0
 10
8.568407374088224
 20
8.048007416443844
 30
0.0
 10
8.568407374088224
 20
8.040246531419057
 30
0.0
 10
8.562055479287323
 20
8.033897328098994
 30
0.0
 10
8.554298631483803
 20
8.033897328098994
 30
0.0
  0
SPLINE
  5
313
330
1F
100
AcDbEntity
  8
Livello 1
370
     0
100
AcDbSpline
210
0.0
220
0.0
230
1.0
 70
     9
 71
     3
 72
    23
 73
    19
 74
     0
 42
0.000000001
 43
0.0000000001
 40
0.0
 40
0.0
 40
0.0
 40
0.0
 40
1.0
 40
1.0
 40
1.0
 40
2.0
 40
2.0
 40
2.0
 40
3.0
 40
3.0
 40
3.0
 40
4.0
 40
4.0
 40
4.0
 40
5.0
 40
5.0
 40
5.0
 40
6.0
 40
6.0
 40
6.0
 40
6.0
 10
4.119879382104116
 20
5.012356146654255
 30
0.0
 10
4.119879382104116
 20
5.012356146654255
 30
0.0
 10
1.417950205601329
 20
5.012356146654255
 30
0.0
 10
1.417950205601329
 20
5.012356146654255
 30
0.0
 10
1.410187974836119
 20
5.012356146654255
 30
0.0
 10
1.403841462996894
 20
5.018705349974347
 30
0.0
 10
1.403841462996894
 20
5.026466234999126
 30
0.0
 10
1.403841462996894
 20
5.034227120023899
 30
0.0
 10
1.410187974836119
 20
5.040577669084399
 30
0.0
 10
1.417950205601329
 20
5.040577669084399
 30
0.0
 10
1.417950205601329
 20
5.040577669084399
 30
0.0
 10
4.119879382104116
 20
5.040577669084399
 30
0.0
 10
4.119879382104116
 20
5.040577669084399
 30
0.0
 10
4.127636229907636
 20
5.040577669084399
 30
0.0
 10
4.133988124708579
 20
5.034227120023899
 30
0.0
 10
4.133988124708579
 20
5.026466234999126
 30
0.0
 10
4.133988124708579
 20
5.018705349974347
 30
0.0
 10
4.127636229907636
 20
5.012356146654255
 30
0.0
 10
4.119879382104116
 20
5.012356146654255
 30
0.0
  0
SPLINE
  5
314
330
1F
100
AcDbEntity
  8
Livello 1
370
     0
100
AcDbSpline
210
0.0
220
0.0
230
1.0
 70
     9
 71
     3
 72
    23
 73
    19
 74
     0
 42
0.000000001
 43
0.0000000001
 40
0.0
 40
0.0
 40
0.0
 40
0.0
 40
1.0
 40
1.0
 40
1.0
 40
2.0
 40
2.0
 40
2.0
 40
3.0
 40
3.0
 40
3.0
 40
4.0
 40
4.0
 40
4.0
 40
5.0
 40
5.0
 40
5.0
 40
6.0
 40
6.0
 40
6.0
 40
6.0
 10
4.119879382104116
 20
8.033897328098994
 30
0.0
 10
4.119879382104116
 20
8.033897328098994
 30
0.0
 10
1.417950205601329
 20
8.033897328098994
 30
0.0
 10
1.417950205601329
 20
8.033897328098994
 30
0.0
 10
1.410187974836119
 20
8.033897328098994
 30
0.0
 10
1.403841462996894
 20
8.040246531419057
 30
0.0
 10
1.403841462996894
 20
8.048007416443844
 30
0.0
 10
1.403841462996894
 20
8.055768301468624
 30
0.0
 10
1.410187974836119
 20
8.062118850529131
 30
0.0
 10
1.417950205601329
 20
8.062118850529131
 30
0.0
 10
1.417950205601329
 20
8.062118850529131
 30
0.0
 10
4.119879382104116
 20
8.062118850529131
 30
0.0
 10
4.119879382104116
 20
8.062118850529131
 30
0.0
 10
4.127636229907636
 20
8.062118850529131
 30
0.0
 10
4.133988124708579
 20
8.055768301468624
 30
0.0
 10
4.133988124708579
 20
8.048007416443844
 30
0.0
 10
4.133988124708579
 20
8.040246531419057
 30
0.0
 10
4.127636229907636
 20
8.033897328098994
 30
0.0
 10
4.119879382104116
 20
8.033897328098994
 30
0.0
  0
SPLINE
  5
315
330
1F
100
AcDbEntity
  8
Livello 1
370
     0
100
AcDbSpline
210
0.0
220
0.0
230
1.0
 70
     9
 71
     3
 72
    23
 73
    19
 74
     0
 42
0.000000001
 43
0.0000000001
 40
0.0
 40
0.0
 40
0.0
 40
0.0
 40
1.0
 40
1.0
 40
1.0
 40
2.0
 40
2.0
 40
2.0
 40
3.0
 40
3.0
 40
3.0
 40
4.0
 40
4.0
 40
4.0
 40
5.0
 40
5.0
 40
5.0
 40
6.0
 40
6.0
 40
6.0
 40
6.0
 10
8.554298631483803
 20
5.012356146654255
 30
0.0
 10
8.554298631483803
 20
5.012356146654255
 30
0.0
 10
5.852369454981001
 20
5.012356146654255
 30
0.0
 10
5.852369454981001
 20
5.012356146654255
 30
0.0
 10
5.844607224215806
 20
5.012356146654255
 30
0.0
 10
5.83826071237658
 20
5.018705349974347
 30
0.0
 10
5.83826071237658
 20
5.026466234999126
 30
0.0
 10
5.83826071237658
 20
5.034227120023899
 30
0.0
 10
5.844607224215806
 20
5.040577669084399
 30
0.0
 10
5.852369454981001
 20
5.040577669084399
 30
0.0
 10
5.852369454981001
 20
5.040577669084399
 30
0.0
 10
8.554298631483803
 20
5.040577669084399
 30
0.0
 10
8.554298631483803
 20
5.040577669084399
 30
0.0
 10
8.562055479287323
 20
5.040577669084399
 30
0.0
 10
8.568407374088224
 20
5.034227120023899
 30
0.0
 10
8.568407374088224
 20
5.026466234999126
 30
0.0
 10
8.568407374088224
 20
5.018705349974347
 30
0.0
 10
8.562055479287323
 20
5.012356146654255
 30
0.0
 10
8.554298631483803
 20
5.012356146654255
 30
0.0
  0
SPLINE
  5
316
330
1F
100
AcDbEntity
  8
Livello 1
370
     0
100
AcDbSpline
210
0.0
220
0.0
230
1.0
 70
     9
 71
     3
 72
    23
 73
    19
 74
     0
 42
0.000000001
 43
0.0000000001
 40
0.0
 40
0.0
 40
0.0
 40
0.0
 40
1.0
 40
1.0
 40
1.0
 40
2.0
 40
2.0
 40
2.0
 40
3.0
 40
3.0
 40
3.0
 40
4.0
 40
4.0
 40
4.0
 40
5.0
 40
5.0
 40
5.0
 40
6.0
 40
6.0
 40
6.0
 40
6.0
 10
8.754534040640578
 20
5.20133847438614
 30
0.0
 10
8.746771809875355
 20
5.20133847438614
 30
0.0
 10
8.74041991507444
 20
5.207687677706218
 30
0.0
 10
8.74041991507444
 20
5.215448562730998
 30
0.0
 10
8.74041991507444
 20
5.215448562730998
 30
0.0
 10
8.74041991507444
 20
7.519088366147471
 30
0.0
 10
8.74041991507444
 20
7.519088366147471
 30
0.0
 10
8.74041991507444
 20
7.526849251172251
 30
0.0
 10
8.746771809875355
 20
7.533198454492335
 30
0.0
 10
8.754534040640578
 20
7.533198454492335
 30
0.0
 10
8.762290888444084
 20
7.533198454492335
 30
0.0
 10
8.768642783244985
 20
7.526849251172251
 30
0.0
 10
8.768642783244985
 20
7.519088366147471
 30
0.0
 10
8.768642783244985
 20
7.519088366147471
 30
0.0
 10
8.768642783244985
 20
5.215448562730998
 30
0.0
 10
8.768642783244985
 20
5.215448562730998
 30
0.0
 10
8.768642783244985
 20
5.207687677706218
 30
0.0
 10
8.762290888444084
 20
5.20133847438614
 30
0.0
 10
8.754534040640578
 20
5.20133847438614
 30
0.0
  0
SPLINE
  5
317
330
1F
100
AcDbEntity
  8
Livello 1
370
     0
100
AcDbSpline
210
0.0
220
0.0
230
1.0
 70
     9
 71
     3
 72
    38
 73
    34
 74
     0
 42
0.000000001
 43
0.0000000001
 40
0.0
 40
0.0
 40
0.0
 40
0.0
 40
1.0
 40
1.0
 40
1.0
 40
2.0
 40
2.0
 40
2.0
 40
3.0
 40
3.0
 40
3.0
 40
4.0
 40
4.0
 40
4.0
 40
5.0
 40
5.0
 40
5.0
 40
6.0
 40
6.0
 40
6.0
 40
7.0
 40
7.0
 40
7.0
 40
8.0
 40
8.0
 40
8.0
 40
9.0
 40
9.0
 40
9.0
 40
10.0
 40
10.0
 40
10.0
 40
11.0
 40
11.0
 40
11.0
 40
11.0
 10
9.262954772799687
 20
6.706394378398314
 30
0.0
 10
9.262954772799687
 20
6.706394378398314
 30
0.0
 10
9.204393532512128
 20
6.706394378398314
 30
0.0
 10
9.204393532512128
 20
6.706394378398314
 30
0.0
 10
9.204393532512128
 20
6.706394378398314
 30
0.0
 10
9.146537460206729
 20
6.713450095440954
 30
0.0
 10
9.146537460206729
 20
6.713450095440954
 30
0.0
 10
8.935929083862362
 20
6.760721919312196
 30
0.0
 10
8.795875186463561
 20
6.926173975731735
 30
0.0
 10
8.788818123680471
 20
7.13501943212077
 30
0.0
 10
8.781411168387222
 20
7.343863542769376
 30
0.0
 10
8.909471827127973
 20
7.518488165918398
 30
0.0
 10
9.115138644635678
 20
7.579871423874926
 30
0.0
 10
9.115138644635678
 20
7.579871423874926
 30
0.0
 10
9.172639441469186
 20
7.591513424282304
 30
0.0
 10
9.172639441469186
 20
7.591513424282304
 30
0.0
 10
9.172639441469186
 20
7.591513424282304
 30
0.0
 10
9.232616400682715
 20
7.596452291638108
 30
0.0
 10
9.232616400682715
 20
7.596452291638108
 30
0.0
 10
9.232616400682715
 20
7.596452291638108
 30
0.0
 10
9.291172258008572
 20
7.591866008273385
 30
0.0
 10
9.291172258008572
 20
7.591866008273385
 30
0.0
 10
9.291172258008572
 20
7.591866008273385
 30
0.0
 10
9.349028330313984
 20
7.580224007865993
 30
0.0
 10
9.349028330313984
 20
7.580224007865993
 30
0.0
 10
9.599502920976732
 20
7.506846165511028
 30
0.0
 10
9.693344092217941
 20
7.290241169837628
 30
0.0
 10
9.675704126741109
 20
7.108208245654893
 30
0.0
 10
9.657708885792374
 20
6.925468807749595
 30
0.0
 10
9.523656990684258
 20
6.730736131186276
 30
0.0
 10
9.264365108763954
 20
6.706746962389374
 30
0.0
 10
9.26400983329205
 20
6.706394378398314
 30
0.0
 10
9.263304665309917
 20
6.706394378398314
 30
0.0
 10
9.262954772799687
 20
6.706394378398314
 30
0.0
  0
SPLINE
  5
318
330
1F
100
AcDbEntity
  8
Livello 1
370
     0
100
AcDbSpline
210
0.0
220
0.0
230
1.0
 70
    11
 71
     3
 72
    35
 73
    31
 74
     0
 42
0.000000001
 43
0.0000000001
 40
0.0
 40
0.0
 40
0.0
 40
0.0
 40
1.0
 40
1.0
 40
1.0
 40
2.0
 40
2.0
 40
2.0
 40
3.0
 40
3.0
 40
3.0
 40
4.0
 40
4.0
 40
4.0
 40
5.0
 40
5.0
 40
5.0
 40
6.0
 40
6.0
 40
6.0
 40
7.0
 40
7.0
 40
7.0
 40
8.0
 40
8.0
 40
8.0
 40
9.0
 40
9.0
 40
9.0
 40
10.0
 40
10.0
 40
10.0
 40
10.0
 10
9.232616400682715
 20
7.568230769207964
 30
0.0
 10
9.232616400682715
 20
7.568230769207964
 30
0.0
 10
9.176170664341583
 20
7.563644485843219
 30
0.0
 10
9.176170664341583
 20
7.563644485843219
 30
0.0
 10
9.176170664341583
 20
7.563644485843219
 30
0.0
 10
9.12184043194685
 20
7.552707653417982
 30
0.0
 10
9.12184043194685
 20
7.552707653417982
 30
0.0
 10
8.930282357043566
 20
7.495558094835132
 30
0.0
 10
8.809983929067996
 20
7.331868958370925
 30
0.0
 10
8.816691099340843
 20
7.136077184093984
 30
0.0
 10
8.823392886651973
 20
6.940285409817022
 30
0.0
 10
8.95497938530346
 20
6.785416256091217
 30
0.0
 10
9.151473636081689
 20
6.740966449888965
 30
0.0
 10
9.151473636081689
 20
6.740966449888965
 30
0.0
 10
9.206153760986637
 20
6.734615900828451
 30
0.0
 10
9.206153760986637
 20
6.734615900828451
 30
0.0
 10
9.206153760986637
 20
6.734615900828451
 30
0.0
 10
9.262249604817554
 20
6.734615900828451
 30
0.0
 10
9.262249604817554
 20
6.734615900828451
 30
0.0
 10
9.505311857225322
 20
6.757547317652139
 30
0.0
 10
9.630901736547755
 20
6.939932825825948
 30
0.0
 10
9.647481258570536
 20
7.110677679332802
 30
0.0
 10
9.664060780593302
 20
7.281421187099219
 30
0.0
 10
9.576221611642822
 20
7.484268678418821
 30
0.0
 10
9.342326543002826
 20
7.553060237409063
 30
0.0
 10
9.342326543002826
 20
7.553060237409063
 30
0.0
 10
9.287296525587677
 20
7.5639970698343
 30
0.0
 10
9.287296525587677
 20
7.5639970698343
 30
0.0
 10
9.287296525587677
 20
7.5639970698343
 30
0.0
 10
9.232616400682715
 20
7.568230769207964
 30
0.0
 10
9.232616400682715
 20
7.568230769207964
 30
0.0
  0
SPLINE
  5
319
330
1F
100
AcDbEntity
  8
Livello 1
370
     0
100
AcDbSpline
210
0.0
220
0.0
230
1.0
 70
     9
 71
     3
 72
    20
 73
    16
 74
     0
 42
0.000000001
 43
0.0000000001
 40
0.0
 40
0.0
 40
0.0
 40
0.0
 40
1.0
 40
1.0
 40
1.0
 40
2.0
 40
2.0
 40
2.0
 40
3.0
 40
3.0
 40
3.0
 40
4.0
 40
4.0
 40
4.0
 40
5.0
 40
5.0
 40
5.0
 40
5.0
 10
1.215319378489979
 20
7.36344272019707
 30
0.0
 10
1.207557147724799
 20
7.36344272019707
 30
0.0
 10
1.200144809469819
 20
7.369791923517155
 30
0.0
 10
1.200144809469819
 20
7.377552808541928
 30
0.0
 10
1.200144809469819
 20
7.385313693566715
 30
0.0
 10
1.205436260816682
 20
7.391664242627221
 30
0.0
 10
1.213198491581863
 20
7.391664242627221
 30
0.0
 10
1.213198491581863
 20
7.391664242627221
 30
0.0
 10
1.215319378489979
 20
7.391664242627221
 30
0.0
 10
1.215319378489979
 20
7.391664242627221
 30
0.0
 10
1.2230762262935
 20
7.391664242627221
 30
0.0
 10
1.229428121094429
 20
7.385313693566715
 30
0.0
 10
1.229428121094429
 20
7.377552808541928
 30
0.0
 10
1.229428121094429
 20
7.369791923517155
 30
0.0
 10
1.2230762262935
 20
7.36344272019707
 30
0.0
 10
1.215319378489979
 20
7.36344272019707
 30
0.0
  0
SPLINE
  5
31A
330
1F
100
AcDbEntity
  8
Livello 1
370
     0
100
AcDbSpline
210
0.0
220
0.0
230
1.0
 70
     9
 71
     3
 72
    20
 73
    16
 74
     0
 42
0.000000001
 43
0.0000000001
 40
0.0
 40
0.0
 40
0.0
 40
0.0
 40
1.0
 40
1.0
 40
1.0
 40
2.0
 40
2.0
 40
2.0
 40
3.0
 40
3.0
 40
3.0
 40
4.0
 40
4.0
 40
4.0
 40
5.0
 40
5.0
 40
5.0
 40
5.0
 10
8.761305806453748
 20
7.36344272019707
 30
0.0
 10
8.753543575688553
 20
7.36344272019707
 30
0.0
 10
8.746131237433559
 20
7.369791923517155
 30
0.0
 10
8.746131237433559
 20
7.377552808541928
 30
0.0
 10
8.746131237433559
 20
7.385313693566715
 30
0.0
 10
8.751422688780436
 20
7.391664242627221
 30
0.0
 10
8.759184919545646
 20
7.391664242627221
 30
0.0
 10
8.759184919545646
 20
7.391664242627221
 30
0.0
 10
8.761305806453748
 20
7.391664242627221
 30
0.0
 10
8.761305806453748
 20
7.391664242627221
 30
0.0
 10
8.769062654257254
 20
7.391664242627221
 30
0.0
 10
8.775414549058183
 20
7.385313693566715
 30
0.0
 10
8.775414549058183
 20
7.377552808541928
 30
0.0
 10
8.775414549058183
 20
7.369791923517155
 30
0.0
 10
8.769062654257254
 20
7.36344272019707
 30
0.0
 10
8.761305806453748
 20
7.36344272019707
 30
0.0
  0
SPLINE
  5
31B
330
1F
100
AcDbEntity
  8
Livello 1
370
     0
100
AcDbSpline
210
0.0
220
0.0
230
1.0
 70
     9
 71
     3
 72
    26
 73
    22
 74
     0
 42
0.000000001
 43
0.0000000001
 40
0.0
 40
0.0
 40
0.0
 40
0.0
 40
1.0
 40
1.0
 40
1.0
 40
2.0
 40
2.0
 40
2.0
 40
3.0
 40
3.0
 40
3.0
 40
4.0
 40
4.0
 40
4.0
 40
5.0
 40
5.0
 40
5.0
 40
6.0
 40
6.0
 40
6.0
 40
7.0
 40
7.0
 40
7.0
 40
7.0
 10
8.759012664771361
 20
7.370180842499671
 30
0.0
 10
8.752305494498543
 20
7.370180842499671
 30
0.0
 10
8.746308875169503
 20
7.375119709855475
 30
0.0
 10
8.745253814677155
 20
7.381821497166626
 30
0.0
 10
8.745253814677155
 20
7.381821497166626
 30
0.0
 10
8.740667531312425
 20
7.406515833945668
 30
0.0
 10
8.740667531312425
 20
7.406515833945668
 30
0.0
 10
8.73925181238647
 20
7.414278064710856
 30
0.0
 10
8.744548646695022
 20
7.421332436013088
 30
0.0
 10
8.751955601988314
 20
7.422744117717783
 30
0.0
 10
8.760067725263724
 20
7.424155799422486
 30
0.0
 10
8.7671247880468
 20
7.419216932066674
 30
0.0
 10
8.76853512401108
 20
7.411454701301472
 30
0.0
 10
8.76853512401108
 20
7.411454701301472
 30
0.0
 10
8.772766131903892
 20
7.38676036452243
 30
0.0
 10
8.772766131903892
 20
7.38676036452243
 30
0.0
 10
8.774181850829862
 20
7.378999479497643
 30
0.0
 10
8.769240291993213
 20
7.371943762455011
 30
0.0
 10
8.761478061228004
 20
7.370533426490737
 30
0.0
 10
8.760772893245871
 20
7.370180842499671
 30
0.0
 10
8.759717832753509
 20
7.370180842499671
 30
0.0
 10
8.759012664771361
 20
7.370180842499671
 30
0.0
  0
SPLINE
  5
31C
330
1F
100
AcDbEntity
  8
Livello 1
370
     0
100
AcDbSpline
210
0.0
220
0.0
230
1.0
 70
     9
 71
     3
 72
    26
 73
    22
 74
     0
 42
0.000000001
 43
0.0000000001
 40
0.0
 40
0.0
 40
0.0
 40
0.0
 40
1.0
 40
1.0
 40
1.0
 40
2.0
 40
2.0
 40
2.0
 40
3.0
 40
3.0
 40
3.0
 40
4.0
 40
4.0
 40
4.0
 40
5.0
 40
5.0
 40
5.0
 40
6.0
 40
6.0
 40
6.0
 40
7.0
 40
7.0
 40
7.0
 40
7.0
 10
8.754571721372428
 20
5.313839682345495
 30
0.0
 10
8.753861170428592
 20
5.313839682345495
 30
0.0
 10
8.75280610993623
 20
5.313839682345495
 30
0.0
 10
8.751745666482179
 20
5.314192266336554
 30
0.0
 10
8.744338711188902
 20
5.315602602300828
 30
0.0
 10
8.739397152352239
 20
5.323010903334541
 30
0.0
 10
8.740812871278208
 20
5.330771788359321
 30
0.0
 10
8.740812871278208
 20
5.330771788359321
 30
0.0
 10
8.745399154642939
 20
5.352996691460447
 30
0.0
 10
8.745399154642939
 20
5.352996691460447
 30
0.0
 10
8.746809490607219
 20
5.360758922225649
 30
0.0
 10
8.753861170428592
 20
5.36569778958146
 30
0.0
 10
8.761623401193787
 20
5.364286107876758
 30
0.0
 10
8.769385631958996
 20
5.362521842180989
 30
0.0
 10
8.774327190795645
 20
5.355113541147289
 30
0.0
 10
8.772911471869676
 20
5.347705240113576
 30
0.0
 10
8.772911471869676
 20
5.347705240113576
 30
0.0
 10
8.768325188504945
 20
5.325127753021376
 30
0.0
 10
8.768325188504945
 20
5.325127753021376
 30
0.0
 10
8.766914852540679
 20
5.31842461996981
 30
0.0
 10
8.761273508683586
 20
5.313839682345495
 30
0.0
 10
8.754571721372428
 20
5.313839682345495
 30
0.0
  0
SPLINE
  5
31D
330
1F
100
AcDbEntity
  8
Livello 1
370
     0
100
AcDbSpline
210
0.0
220
0.0
230
1.0
 70
     9
 71
     3
 72
    23
 73
    19
 74
     0
 42
0.000000001
 43
0.0000000001
 40
0.0
 40
0.0
 40
0.0
 40
0.0
 40
1.0
 40
1.0
 40
1.0
 40
2.0
 40
2.0
 40
2.0
 40
3.0
 40
3.0
 40
3.0
 40
4.0
 40
4.0
 40
4.0
 40
5.0
 40
5.0
 40
5.0
 40
6.0
 40
6.0
 40
6.0
 40
6.0
 10
6.632963496398261
 20
8.036120491279305
 30
0.0
 10
6.62520126563308
 20
8.036120491279305
 30
0.0
 10
6.618849370832137
 20
8.04246969459939
 30
0.0
 10
6.618849370832137
 20
8.050230579624169
 30
0.0
 10
6.618849370832137
 20
8.050230579624169
 30
0.0
 10
6.618849370832137
 20
8.10632238623382
 30
0.0
 10
6.618849370832137
 20
8.10632238623382
 30
0.0
 10
6.618849370832137
 20
8.114083271258607
 30
0.0
 10
6.62520126563308
 20
8.120433820319099
 30
0.0
 10
6.632963496398261
 20
8.120433820319099
 30
0.0
 10
6.640720344201781
 20
8.120433820319099
 30
0.0
 10
6.64707223900271
 20
8.114083271258607
 30
0.0
 10
6.64707223900271
 20
8.10632238623382
 30
0.0
 10
6.64707223900271
 20
8.10632238623382
 30
0.0
 10
6.64707223900271
 20
8.050230579624169
 30
0.0
 10
6.64707223900271
 20
8.050230579624169
 30
0.0
 10
6.64707223900271
 20
8.04246969459939
 30
0.0
 10
6.640720344201781
 20
8.036120491279305
 30
0.0
 10
6.632963496398261
 20
8.036120491279305
 30
0.0
  0
SPLINE
  5
31E
330
1F
100
AcDbEntity
  8
Livello 1
370
     0
100
AcDbSpline
210
0.0
220
0.0
230
1.0
 70
     9
 71
     3
 72
    65
 73
    61
 74
     0
 42
0.000000001
 43
0.0000000001
 40
0.0
 40
0.0
 40
0.0
 40
0.0
 40
1.0
 40
1.0
 40
1.0
 40
2.0
 40
2.0
 40
2.0
 40
3.0
 40
3.0
 40
3.0
 40
4.0
 40
4.0
 40
4.0
 40
5.0
 40
5.0
 40
5.0
 40
6.0
 40
6.0
 40
6.0
 40
7.0
 40
7.0
 40
7.0
 40
8.0
 40
8.0
 40
8.0
 40
9.0
 40
9.0
 40
9.0
 40
10.0
 40
10.0
 40
10.0
 40
11.0
 40
11.0
 40
11.0
 40
12.0
 40
12.0
 40
12.0
 40
13.0
 40
13.0
 40
13.0
 40
14.0
 40
14.0
 40
14.0
 40
15.0
 40
15.0
 40
15.0
 40
16.0
 40
16.0
 40
16.0
 40
17.0
 40
17.0
 40
17.0
 40
18.0
 40
18.0
 40
18.0
 40
19.0
 40
19.0
 40
19.0
 40
20.0
 40
20.0
 40
20.0
 40
20.0
 10
6.632963496398261
 20
8.092388589884492
 30
0.0
 10
6.632608220926357
 20
8.092388589884492
 30
0.0
 10
6.632252945454439
 20
8.092388589884492
 30
0.0
 10
6.63154777747232
 20
8.092388589884492
 30
0.0
 10
6.6237909296688
 20
8.093093757866625
 30
0.0
 10
6.618144202850004
 20
8.099796890918199
 30
0.0
 10
6.618849370832137
 20
8.107557775942986
 30
0.0
 10
6.618849370832137
 20
8.107557775942986
 30
0.0
 10
6.621320150250468
 20
8.132604696713094
 30
0.0
 10
6.621320150250468
 20
8.132604696713094
 30
0.0
 10
6.621320150250468
 20
8.132604696713094
 30
0.0
 10
6.62837721303353
 20
8.159768467170032
 30
0.0
 10
6.62837721303353
 20
8.159768467170032
 30
0.0
 10
6.628727105543759
 20
8.161180148874734
 30
0.0
 10
6.629432273525878
 20
8.16294306883006
 30
0.0
 10
6.630492716979929
 20
8.164354750534776
 30
0.0
 10
6.630492716979929
 20
8.164354750534776
 30
0.0
 10
6.655184362278134
 20
8.197869070052213
 30
0.0
 10
6.655184362278134
 20
8.197869070052213
 30
0.0
 10
6.656244805732185
 20
8.199279406016486
 30
0.0
 10
6.657299866224548
 20
8.200338503730108
 30
0.0
 10
6.658360309678613
 20
8.201043671712248
 30
0.0
 10
6.658360309678613
 20
8.201043671712248
 30
0.0
 10
6.692229904667954
 20
8.22573800849129
 30
0.0
 10
6.692229904667954
 20
8.22573800849129
 30
0.0
 10
6.693640240632234
 20
8.226795760464497
 30
0.0
 10
6.695050576596514
 20
8.22750227418706
 30
0.0
 10
6.696816188032698
 20
8.227854858178119
 30
0.0
 10
6.696816188032698
 20
8.227854858178119
 30
0.0
 10
6.721507833330889
 20
8.234910575220759
 30
0.0
 10
6.721507833330889
 20
8.234910575220759
 30
0.0
 10
6.721507833330889
 20
8.234910575220759
 30
0.0
 10
6.748670258047411
 20
8.237380008898668
 30
0.0
 10
6.748670258047411
 20
8.237380008898668
 30
0.0
 10
6.757137656794725
 20
8.238437760871882
 30
0.0
 10
6.763134276123764
 20
8.232441141542857
 30
0.0
 10
6.763839444105897
 20
8.224680256518077
 30
0.0
 10
6.76454461208803
 20
8.216918025752882
 30
0.0
 10
6.758903268230938
 20
8.210216238441738
 30
0.0
 10
6.751141037465728
 20
8.209509724719175
 30
0.0
 10
6.751141037465728
 20
8.209509724719175
 30
0.0
 10
6.726449392167552
 20
8.207392875032333
 30
0.0
 10
6.726449392167552
 20
8.207392875032333
 30
0.0
 10
6.726449392167552
 20
8.207392875032333
 30
0.0
 10
6.706693922744335
 20
8.201748839694388
 30
0.0
 10
6.706693922744335
 20
8.201748839694388
 30
0.0
 10
6.706693922744335
 20
8.201748839694388
 30
0.0
 10
6.676705443137535
 20
8.179523936593248
 30
0.0
 10
6.676705443137535
 20
8.179523936593248
 30
0.0
 10
6.676705443137535
 20
8.179523936593248
 30
0.0
 10
6.654834469767919
 20
8.149890732458409
 30
0.0
 10
6.654834469767919
 20
8.149890732458409
 30
0.0
 10
6.654834469767919
 20
8.149890732458409
 30
0.0
 10
6.648837850438908
 20
8.127665829357283
 30
0.0
 10
6.648837850438908
 20
8.127665829357283
 30
0.0
 10
6.648837850438908
 20
8.127665829357283
 30
0.0
 10
6.64707223900271
 20
8.105088342265077
 30
0.0
 10
6.64707223900271
 20
8.105088342265077
 30
0.0
 10
6.646367071020577
 20
8.098032625222444
 30
0.0
 10
6.640015176219648
 20
8.092388589884492
 30
0.0
 10
6.632963496398261
 20
8.092388589884492
 30
0.0
  0
SPLINE
  5
31F
330
1F
100
AcDbEntity
  8
Livello 1
370
     0
100
AcDbSpline
210
0.0
220
0.0
230
1.0
 70
     9
 71
     3
 72
    50
 73
    46
 74
     0
 42
0.000000001
 43
0.0000000001
 40
0.0
 40
0.0
 40
0.0
 40
0.0
 40
1.0
 40
1.0
 40
1.0
 40
2.0
 40
2.0
 40
2.0
 40
3.0
 40
3.0
 40
3.0
 40
4.0
 40
4.0
 40
4.0
 40
5.0
 40
5.0
 40
5.0
 40
6.0
 40
6.0
 40
6.0
 40
7.0
 40
7.0
 40
7.0
 40
8.0
 40
8.0
 40
8.0
 40
9.0
 40
9.0
 40
9.0
 40
10.0
 40
10.0
 40
10.0
 40
11.0
 40
11.0
 40
11.0
 40
12.0
 40
12.0
 40
12.0
 40
13.0
 40
13.0
 40
13.0
 40
14.0
 40
14.0
 40
14.0
 40
15.0
 40
15.0
 40
15.0
 40
15.0
 10
7.724105981002324
 20
8.036120491279305
 30
0.0
 10
7.72093003360186
 20
8.036120491279305
 30
0.0
 10
7.718103978711624
 20
8.037178243252505
 30
0.0
 10
7.715638582254996
 20
8.038942508948281
 30
0.0
 10
7.715638582254996
 20
8.038942508948281
 30
0.0
 10
7.665894633224979
 20
8.077394350081114
 30
0.0
 10
7.665894633224979
 20
8.077394350081114
 30
0.0
 10
7.665894633224979
 20
8.077394350081114
 30
0.0
 10
7.577700188802609
 20
8.127842121352806
 30
0.0
 10
7.577700188802609
 20
8.127842121352806
 30
0.0
 10
7.577700188802609
 20
8.127842121352806
 30
0.0
 10
7.486685072451663
 20
8.167705644190341
 30
0.0
 10
7.486685072451663
 20
8.167705644190341
 30
0.0
 10
7.486685072451663
 20
8.167705644190341
 30
0.0
 10
7.364976308511813
 20
8.200867379716726
 30
0.0
 10
7.364976308511813
 20
8.200867379716726
 30
0.0
 10
7.364976308511813
 20
8.200867379716726
 30
0.0
 10
7.241501933135779
 20
8.209333432723639
 30
0.0
 10
7.241501933135779
 20
8.209333432723639
 30
0.0
 10
7.233739702370584
 20
8.210038600705779
 30
0.0
 10
7.228098358513491
 20
8.216741733757345
 30
0.0
 10
7.228448251023706
 20
8.224502618782125
 30
0.0
 10
7.229153419005854
 20
8.232264849547334
 30
0.0
 10
7.236210481788916
 20
8.238261468876345
 30
0.0
 10
7.243617437082193
 20
8.237556300894205
 30
0.0
 10
7.243617437082193
 20
8.237556300894205
 30
0.0
 10
7.369562591876558
 20
8.228383734164737
 30
0.0
 10
7.369562591876558
 20
8.228383734164737
 30
0.0
 10
7.369562591876558
 20
8.228383734164737
 30
0.0
 10
7.496207531691354
 20
8.194164246665138
 30
0.0
 10
7.496207531691354
 20
8.194164246665138
 30
0.0
 10
7.496207531691354
 20
8.194164246665138
 30
0.0
 10
7.590398595442763
 20
8.153241626113988
 30
0.0
 10
7.590398595442763
 20
8.153241626113988
 30
0.0
 10
7.590398595442763
 20
8.153241626113988
 30
0.0
 10
7.681419094755398
 20
8.100678350895876
 30
0.0
 10
7.681419094755398
 20
8.100678350895876
 30
0.0
 10
7.681419094755398
 20
8.100678350895876
 30
0.0
 10
7.732567996787992
 20
8.061167412049407
 30
0.0
 10
7.732567996787992
 20
8.061167412049407
 30
0.0
 10
7.738919891588892
 20
8.056581128684676
 30
0.0
 10
7.739980335042972
 20
8.047761145946275
 30
0.0
 10
7.735394051678213
 20
8.041764526617249
 30
0.0
 10
7.732567996787992
 20
8.037883411234645
 30
0.0
 10
7.728336988895151
 20
8.036120491279305
 30
0.0
 10
7.724105981002324
 20
8.036120491279305
 30
0.0
  0
SPLINE
  5
320
330
1F
100
AcDbEntity
  8
Livello 1
370
     0
100
AcDbSpline
210
0.0
220
0.0
230
1.0
 70
     9
 71
     3
 72
    23
 73
    19
 74
     0
 42
0.000000001
 43
0.0000000001
 40
0.0
 40
0.0
 40
0.0
 40
0.0
 40
1.0
 40
1.0
 40
1.0
 40
2.0
 40
2.0
 40
2.0
 40
3.0
 40
3.0
 40
3.0
 40
4.0
 40
4.0
 40
4.0
 40
5.0
 40
5.0
 40
5.0
 40
6.0
 40
6.0
 40
6.0
 40
6.0
 10
7.242670035823749
 20
8.209368421974659
 30
0.0
 10
7.242670035823749
 20
8.209368421974659
 30
0.0
 10
6.749838360735381
 20
8.209368421974659
 30
0.0
 10
6.749838360735381
 20
8.209368421974659
 30
0.0
 10
6.742076129970172
 20
8.209368421974659
 30
0.0
 10
6.735724235169229
 20
8.215717625294743
 30
0.0
 10
6.735724235169229
 20
8.223478510319509
 30
0.0
 10
6.735724235169229
 20
8.231239395344289
 30
0.0
 10
6.742076129970172
 20
8.237589944404803
 30
0.0
 10
6.749838360735381
 20
8.237589944404803
 30
0.0
 10
6.749838360735381
 20
8.237589944404803
 30
0.0
 10
7.242670035823749
 20
8.237589944404803
 30
0.0
 10
7.242670035823749
 20
8.237589944404803
 30
0.0
 10
7.250426883627255
 20
8.237589944404803
 30
0.0
 10
7.256778778428184
 20
8.231239395344289
 30
0.0
 10
7.256778778428184
 20
8.223478510319509
 30
0.0
 10
7.256778778428184
 20
8.215717625294743
 30
0.0
 10
7.250426883627255
 20
8.209368421974659
 30
0.0
 10
7.242670035823749
 20
8.209368421974659
 30
0.0
  0
SPLINE
  5
321
330
1F
100
AcDbEntity
  8
Livello 1
370
     0
100
AcDbSpline
210
0.0
220
0.0
230
1.0
 70
     9
 71
     3
 72
    50
 73
    46
 74
     0
 42
0.000000001
 43
0.0000000001
 40
0.0
 40
0.0
 40
0.0
 40
0.0
 40
1.0
 40
1.0
 40
1.0
 40
2.0
 40
2.0
 40
2.0
 40
3.0
 40
3.0
 40
3.0
 40
4.0
 40
4.0
 40
4.0
 40
5.0
 40
5.0
 40
5.0
 40
6.0
 40
6.0
 40
6.0
 40
7.0
 40
7.0
 40
7.0
 40
8.0
 40
8.0
 40
8.0
 40
9.0
 40
9.0
 40
9.0
 40
10.0
 40
10.0
 40
10.0
 40
11.0
 40
11.0
 40
11.0
 40
12.0
 40
12.0
 40
12.0
 40
13.0
 40
13.0
 40
13.0
 40
14.0
 40
14.0
 40
14.0
 40
15.0
 40
15.0
 40
15.0
 40
15.0
 10
2.248008282040402
 20
8.036120491279305
 30
0.0
 10
2.243771891185886
 20
8.036120491279305
 30
0.0
 10
2.239890775803303
 20
8.037883411234645
 30
0.0
 10
2.237070103874728
 20
8.041411942626183
 30
0.0
 10
2.232128545038079
 20
8.047408561955208
 30
0.0
 10
2.233188988492159
 20
8.056228544693603
 30
0.0
 10
2.239185607821156
 20
8.061167412049407
 30
0.0
 10
2.239185607821156
 20
8.061167412049407
 30
0.0
 10
2.286458777432812
 20
8.099266669191173
 30
0.0
 10
2.286458777432812
 20
8.099266669191173
 30
0.0
 10
2.286458777432812
 20
8.099266669191173
 30
0.0
 10
2.378179061765891
 20
8.152536458131848
 30
0.0
 10
2.378179061765891
 20
8.152536458131848
 30
0.0
 10
2.378179061765891
 20
8.152536458131848
 30
0.0
 10
2.474135736953499
 20
8.193459078682998
 30
0.0
 10
2.474135736953499
 20
8.193459078682998
 30
0.0
 10
2.474135736953499
 20
8.193459078682998
 30
0.0
 10
2.599725616275932
 20
8.228031150173663
 30
0.0
 10
2.599725616275932
 20
8.228031150173663
 30
0.0
 10
2.599725616275932
 20
8.228031150173663
 30
0.0
 10
2.726370556090728
 20
8.237556300894205
 30
0.0
 10
2.726370556090728
 20
8.237556300894205
 30
0.0
 10
2.734837954838098
 20
8.238261468876345
 30
0.0
 10
2.740834574167109
 20
8.232264849547334
 30
0.0
 10
2.741189849639013
 20
8.224502618782125
 30
0.0
 10
2.741895017621146
 20
8.216741733757345
 30
0.0
 10
2.735898398292135
 20
8.210038600705779
 30
0.0
 10
2.728136167526926
 20
8.209333432723639
 30
0.0
 10
2.728136167526926
 20
8.209333432723639
 30
0.0
 10
2.604661792150892
 20
8.200514795725652
 30
0.0
 10
2.604661792150892
 20
8.200514795725652
 30
0.0
 10
2.604661792150892
 20
8.200514795725652
 30
0.0
 10
2.48330830368296
 20
8.167000476208215
 30
0.0
 10
2.48330830368296
 20
8.167000476208215
 30
0.0
 10
2.48330830368296
 20
8.167000476208215
 30
0.0
 10
2.390882851367749
 20
8.12713695337068
 30
0.0
 10
2.390882851367749
 20
8.12713695337068
 30
0.0
 10
2.390882851367749
 20
8.12713695337068
 30
0.0
 10
2.30233313147346
 20
8.076336598107914
 30
0.0
 10
2.30233313147346
 20
8.076336598107914
 30
0.0
 10
2.30233313147346
 20
8.076336598107914
 30
0.0
 10
2.256825573297973
 20
8.039295092939347
 30
0.0
 10
2.256825573297973
 20
8.039295092939347
 30
0.0
 10
2.254354793879642
 20
8.037178243252505
 30
0.0
 10
2.251178846479191
 20
8.036120491279305
 30
0.0
 10
2.248008282040402
 20
8.036120491279305
 30
0.0
  0
SPLINE
  5
322
330
1F
100
AcDbEntity
  8
Livello 1
370
     0
100
AcDbSpline
210
0.0
220
0.0
230
1.0
 70
     9
 71
     3
 72
    23
 73
    19
 74
     0
 42
0.000000001
 43
0.0000000001
 40
0.0
 40
0.0
 40
0.0
 40
0.0
 40
1.0
 40
1.0
 40
1.0
 40
2.0
 40
2.0
 40
2.0
 40
3.0
 40
3.0
 40
3.0
 40
4.0
 40
4.0
 40
4.0
 40
5.0
 40
5.0
 40
5.0
 40
6.0
 40
6.0
 40
6.0
 40
6.0
 10
3.222200540843616
 20
8.209368421974659
 30
0.0
 10
3.222200540843616
 20
8.209368421974659
 30
0.0
 10
2.727247978847145
 20
8.209368421974659
 30
0.0
 10
2.727247978847145
 20
8.209368421974659
 30
0.0
 10
2.719491131043625
 20
8.209368421974659
 30
0.0
 10
2.713139236242696
 20
8.215717625294743
 30
0.0
 10
2.713139236242696
 20
8.223478510319509
 30
0.0
 10
2.713139236242696
 20
8.231239395344289
 30
0.0
 10
2.719491131043625
 20
8.237589944404803
 30
0.0
 10
2.727247978847145
 20
8.237589944404803
 30
0.0
 10
2.727247978847145
 20
8.237589944404803
 30
0.0
 10
3.222200540843616
 20
8.237589944404803
 30
0.0
 10
3.222200540843616
 20
8.237589944404803
 30
0.0
 10
3.229957388647136
 20
8.237589944404803
 30
0.0
 10
3.236309283448079
 20
8.231239395344289
 30
0.0
 10
3.236309283448079
 20
8.223478510319509
 30
0.0
 10
3.236309283448079
 20
8.215717625294743
 30
0.0
 10
3.229957388647136
 20
8.209368421974659
 30
0.0
 10
3.222200540843616
 20
8.209368421974659
 30
0.0
  0
SPLINE
  5
323
330
1F
100
AcDbEntity
  8
Livello 1
370
     0
100
AcDbSpline
210
0.0
220
0.0
230
1.0
 70
     9
 71
     3
 72
    65
 73
    61
 74
     0
 42
0.000000001
 43
0.0000000001
 40
0.0
 40
0.0
 40
0.0
 40
0.0
 40
1.0
 40
1.0
 40
1.0
 40
2.0
 40
2.0
 40
2.0
 40
3.0
 40
3.0
 40
3.0
 40
4.0
 40
4.0
 40
4.0
 40
5.0
 40
5.0
 40
5.0
 40
6.0
 40
6.0
 40
6.0
 40
7.0
 40
7.0
 40
7.0
 40
8.0
 40
8.0
 40
8.0
 40
9.0
 40
9.0
 40
9.0
 40
10.0
 40
10.0
 40
10.0
 40
11.0
 40
11.0
 40
11.0
 40
12.0
 40
12.0
 40
12.0
 40
13.0
 40
13.0
 40
13.0
 40
14.0
 40
14.0
 40
14.0
 40
15.0
 40
15.0
 40
15.0
 40
16.0
 40
16.0
 40
16.0
 40
17.0
 40
17.0
 40
17.0
 40
18.0
 40
18.0
 40
18.0
 40
19.0
 40
19.0
 40
19.0
 40
20.0
 40
20.0
 40
20.0
 40
20.0
 10
3.339150766644465
 20
8.092388589884492
 30
0.0
 10
3.331738428389485
 20
8.092388589884492
 30
0.0
 10
3.325741809060474
 20
8.098032625222444
 30
0.0
 10
3.325036641078341
 20
8.10544092625615
 30
0.0
 10
3.325036641078341
 20
8.10544092625615
 30
0.0
 10
3.322921137131942
 20
8.132604696713094
 30
0.0
 10
3.322921137131942
 20
8.132604696713094
 30
0.0
 10
3.322921137131942
 20
8.132604696713094
 30
0.0
 10
3.314809013856489
 20
8.153065334118451
 30
0.0
 10
3.314809013856489
 20
8.153065334118451
 30
0.0
 10
3.314809013856489
 20
8.153065334118451
 30
0.0
 10
3.293993100979207
 20
8.181640786280091
 30
0.0
 10
3.293993100979207
 20
8.181640786280091
 30
0.0
 10
3.293993100979207
 20
8.181640786280091
 30
0.0
 10
3.279529082902868
 20
8.193635370678542
 30
0.0
 10
3.279529082902868
 20
8.193635370678542
 30
0.0
 10
3.279529082902868
 20
8.193635370678542
 30
0.0
 10
3.260478781461756
 20
8.203160521399091
 30
0.0
 10
3.260478781461756
 20
8.203160521399091
 30
0.0
 10
3.260478781461756
 20
8.203160521399091
 30
0.0
 10
3.219907399161257
 20
8.209509724719175
 30
0.0
 10
3.219907399161257
 20
8.209509724719175
 30
0.0
 10
3.212500443867966
 20
8.210921406423878
 30
0.0
 10
3.207208992521088
 20
8.217977123466511
 30
0.0
 10
3.208269435975154
 20
8.22573800849129
 30
0.0
 10
3.20967977193942
 20
8.233146309524997
 30
0.0
 10
3.216381559250578
 20
8.238790344862948
 30
0.0
 10
3.224493682526002
 20
8.237380008898668
 30
0.0
 10
3.224493682526002
 20
8.237380008898668
 30
0.0
 10
3.267180568772914
 20
8.230676875847095
 30
0.0
 10
3.267180568772914
 20
8.230676875847095
 30
0.0
 10
3.268590904737209
 20
8.230324291856035
 30
0.0
 10
3.270001240701461
 20
8.229971707864962
 30
0.0
 10
3.271061684155526
 20
8.229265194142399
 30
0.0
 10
3.271061684155526
 20
8.229265194142399
 30
0.0
 10
3.293637825507289
 20
8.217977123466511
 30
0.0
 10
3.293637825507289
 20
8.217977123466511
 30
0.0
 10
3.294698268961354
 20
8.217624539475444
 30
0.0
 10
3.295758712415405
 20
8.216918025752882
 30
0.0
 10
3.296813772907768
 20
8.216212857770742
 30
0.0
 10
3.296813772907768
 20
8.216212857770742
 30
0.0
 10
3.314809013856489
 20
8.200338503730108
 30
0.0
 10
3.314809013856489
 20
8.200338503730108
 30
0.0
 10
3.314809013856489
 20
8.200338503730108
 30
0.0
 10
3.339500659154694
 20
8.166471600221598
 30
0.0
 10
3.339500659154694
 20
8.166471600221598
 30
0.0
 10
3.339500659154694
 20
8.166471600221598
 30
0.0
 10
3.350083561848435
 20
8.141070749720014
 30
0.0
 10
3.350083561848435
 20
8.141070749720014
 30
0.0
 10
3.350438837320353
 20
8.139660413755734
 30
0.0
 10
3.350788729830583
 20
8.138248732051032
 30
0.0
 10
3.350788729830583
 20
8.136838396086758
 30
0.0
 10
3.350788729830583
 20
8.136838396086758
 30
0.0
 10
3.3532595092489
 20
8.107557775942986
 30
0.0
 10
3.3532595092489
 20
8.107557775942986
 30
0.0
 10
3.353609401759115
 20
8.099796890918199
 30
0.0
 10
3.347968057902008
 20
8.093093757866625
 30
0.0
 10
3.340205827136827
 20
8.092388589884492
 30
0.0
 10
3.339855934626612
 20
8.092388589884492
 30
0.0
 10
3.339500659154694
 20
8.092388589884492
 30
0.0
 10
3.339150766644465
 20
8.092388589884492
 30
0.0
  0
SPLINE
  5
324
330
1F
100
AcDbEntity
  8
Livello 1
370
     0
100
AcDbSpline
210
0.0
220
0.0
230
1.0
 70
     9
 71
     3
 72
    23
 73
    19
 74
     0
 42
0.000000001
 43
0.0000000001
 40
0.0
 40
0.0
 40
0.0
 40
0.0
 40
1.0
 40
1.0
 40
1.0
 40
2.0
 40
2.0
 40
2.0
 40
3.0
 40
3.0
 40
3.0
 40
4.0
 40
4.0
 40
4.0
 40
5.0
 40
5.0
 40
5.0
 40
6.0
 40
6.0
 40
6.0
 40
6.0
 10
3.339150766644465
 20
8.036120491279305
 30
0.0
 10
3.33138853587927
 20
8.036120491279305
 30
0.0
 10
3.325036641078341
 20
8.04246969459939
 30
0.0
 10
3.325036641078341
 20
8.050230579624169
 30
0.0
 10
3.325036641078341
 20
8.050230579624169
 30
0.0
 10
3.325036641078341
 20
8.10632238623382
 30
0.0
 10
3.325036641078341
 20
8.10632238623382
 30
0.0
 10
3.325036641078341
 20
8.114083271258607
 30
0.0
 10
3.33138853587927
 20
8.120433820319099
 30
0.0
 10
3.339150766644465
 20
8.120433820319099
 30
0.0
 10
3.346907614447971
 20
8.120433820319099
 30
0.0
 10
3.3532595092489
 20
8.114083271258607
 30
0.0
 10
3.3532595092489
 20
8.10632238623382
 30
0.0
 10
3.3532595092489
 20
8.10632238623382
 30
0.0
 10
3.3532595092489
 20
8.050230579624169
 30
0.0
 10
3.3532595092489
 20
8.050230579624169
 30
0.0
 10
3.3532595092489
 20
8.04246969459939
 30
0.0
 10
3.346907614447971
 20
8.036120491279305
 30
0.0
 10
3.339150766644465
 20
8.036120491279305
 30
0.0
  0
SPLINE
  5
325
330
1F
100
AcDbEntity
  8
Livello 1
370
     0
100
AcDbSpline
210
0.0
220
0.0
230
1.0
 70
     9
 71
     3
 72
    26
 73
    22
 74
     0
 42
0.000000001
 43
0.0000000001
 40
0.0
 40
0.0
 40
0.0
 40
0.0
 40
1.0
 40
1.0
 40
1.0
 40
2.0
 40
2.0
 40
2.0
 40
3.0
 40
3.0
 40
3.0
 40
4.0
 40
4.0
 40
4.0
 40
5.0
 40
5.0
 40
5.0
 40
6.0
 40
6.0
 40
6.0
 40
7.0
 40
7.0
 40
7.0
 40
7.0
 10
5.852229497976921
 20
8.031639175667628
 30
0.0
 10
5.848698275104538
 20
8.031639175667628
 30
0.0
 10
5.845172435193845
 20
8.033049511631908
 30
0.0
 10
5.842346380303609
 20
8.035871529300884
 30
0.0
 10
5.842346380303609
 20
8.035871529300884
 30
0.0
 10
5.837765479900582
 20
8.040105228674555
 30
0.0
 10
5.837765479900582
 20
8.040105228674555
 30
0.0
 10
5.832468645591987
 20
8.045749264012499
 30
0.0
 10
5.832468645591987
 20
8.054569246750908
 30
0.0
 10
5.837765479900582
 20
8.060213282088852
 30
0.0
 10
5.843406823757661
 20
8.065504733435737
 30
0.0
 10
5.852229497976921
 20
8.065504733435737
 30
0.0
 10
5.857870841834014
 20
8.060213282088852
 30
0.0
 10
5.857870841834014
 20
8.060213282088852
 30
0.0
 10
5.862107232688529
 20
8.055626998724108
 30
0.0
 10
5.862107232688529
 20
8.055626998724108
 30
0.0
 10
5.867748576545636
 20
8.050335547377244
 30
0.0
 10
5.867748576545636
 20
8.041162980647754
 30
0.0
 10
5.862107232688529
 20
8.035871529300884
 30
0.0
 10
5.859281177798294
 20
8.033049511631908
 30
0.0
 10
5.855755337887615
 20
8.031639175667628
 30
0.0
 10
5.852229497976921
 20
8.031639175667628
 30
0.0
  0
SPLINE
  5
326
330
1F
100
AcDbEntity
  8
Livello 1
370
     0
100
AcDbSpline
210
0.0
220
0.0
230
1.0
 70
     9
 71
     3
 72
    74
 73
    70
 74
     0
 42
0.000000001
 43
0.0000000001
 40
0.0
 40
0.0
 40
0.0
 40
0.0
 40
1.0
 40
1.0
 40
1.0
 40
2.0
 40
2.0
 40
2.0
 40
3.0
 40
3.0
 40
3.0
 40
4.0
 40
4.0
 40
4.0
 40
5.0
 40
5.0
 40
5.0
 40
6.0
 40
6.0
 40
6.0
 40
7.0
 40
7.0
 40
7.0
 40
8.0
 40
8.0
 40
8.0
 40
9.0
 40
9.0
 40
9.0
 40
10.0
 40
10.0
 40
10.0
 40
11.0
 40
11.0
 40
11.0
 40
12.0
 40
12.0
 40
12.0
 40
13.0
 40
13.0
 40
13.0
 40
14.0
 40
14.0
 40
14.0
 40
15.0
 40
15.0
 40
15.0
 40
16.0
 40
16.0
 40
16.0
 40
17.0
 40
17.0
 40
17.0
 40
18.0
 40
18.0
 40
18.0
 40
19.0
 40
19.0
 40
19.0
 40
20.0
 40
20.0
 40
20.0
 40
21.0
 40
21.0
 40
21.0
 40
22.0
 40
22.0
 40
22.0
 40
23.0
 40
23.0
 40
23.0
 40
23.0
 10
5.846448197115734
 20
7.804062358317985
 30
0.0
 10
5.846448197115734
 20
7.804062358317985
 30
0.0
 10
4.117483964149542
 20
7.804062358317985
 30
0.0
 10
4.117483964149542
 20
7.804062358317985
 30
0.0
 10
4.109721733384319
 20
7.804062358317985
 30
0.0
 10
4.103725114055322
 20
7.810411561638062
 30
0.0
 10
4.103725114055322
 20
7.818172446662849
 30
0.0
 10
4.103725114055322
 20
7.818172446662849
 30
0.0
 10
4.103725114055322
 20
8.045714274761486
 30
0.0
 10
4.103725114055322
 20
8.045714274761486
 30
0.0
 10
4.103725114055322
 20
8.049242806153003
 30
0.0
 10
4.105135450019588
 20
8.052769991804126
 30
0.0
 10
4.107606229437919
 20
8.055592009473095
 30
0.0
 10
4.111481961858828
 20
8.059473124855692
 30
0.0
 10
4.118894300113808
 20
8.061942558533594
 30
0.0
 10
4.124185751460686
 20
8.059825708846759
 30
0.0
 10
4.129477202807578
 20
8.057708859159923
 30
0.0
 10
4.134063486172308
 20
8.053475159786252
 30
0.0
 10
4.134063486172308
 20
8.047831124448308
 30
0.0
 10
4.134063486172308
 20
8.045009106779346
 30
0.0
 10
4.133003042718229
 20
8.042187089110356
 30
0.0
 10
4.131592706753977
 20
8.040070239423535
 30
0.0
 10
4.131592706753977
 20
8.040070239423535
 30
0.0
 10
4.131592706753977
 20
7.832283880748128
 30
0.0
 10
4.131592706753977
 20
7.832283880748128
 30
0.0
 10
4.131592706753977
 20
7.832283880748128
 30
0.0
 10
5.833039239531728
 20
7.832283880748128
 30
0.0
 10
5.833039239531728
 20
7.832283880748128
 30
0.0
 10
5.833039239531728
 20
7.832283880748128
 30
0.0
 10
5.840446194825005
 20
7.974453282093328
 30
0.0
 10
5.840446194825005
 20
7.974453282093328
 30
0.0
 10
5.840446194825005
 20
7.974453282093328
 30
0.0
 10
5.840446194825005
 20
7.987153034473926
 30
0.0
 10
5.840446194825005
 20
7.987153034473926
 30
0.0
 10
5.840096302314819
 20
7.994913919498706
 30
0.0
 10
5.839741026842887
 20
8.00161705255028
 30
0.0
 10
5.839035858860754
 20
8.007967601610779
 30
0.0
 10
5.83833069087862
 20
8.019608256277741
 30
0.0
 10
5.837275630386258
 20
8.030545088702986
 30
0.0
 10
5.83833069087862
 20
8.046419442743605
 30
0.0
 10
5.83833069087862
 20
8.053827743777326
 30
0.0
 10
5.844682585679549
 20
8.060883460819958
 30
0.0
 10
5.852089540972826
 20
8.060883460819958
 30
0.0
 10
5.859851771738036
 20
8.060883460819958
 30
0.0
 10
5.865848391067046
 20
8.055944593464168
 30
0.0
 10
5.866203666538964
 20
8.048536292430448
 30
0.0
 10
5.866203666538964
 20
8.048536292430448
 30
0.0
 10
5.866203666538964
 20
8.048183708439381
 30
0.0
 10
5.866203666538964
 20
8.048183708439381
 30
0.0
 10
5.866203666538964
 20
8.048183708439381
 30
0.0
 10
5.866203666538964
 20
8.047831124448308
 30
0.0
 10
5.866203666538964
 20
8.047831124448308
 30
0.0
 10
5.866203666538964
 20
8.047478540457241
 30
0.0
 10
5.866203666538964
 20
8.047125956466175
 30
0.0
 10
5.866203666538964
 20
8.046773372475108
 30
0.0
 10
5.865493115595114
 20
8.030545088702986
 30
0.0
 10
5.866203666538964
 20
8.021019937982444
 30
0.0
 10
5.867258727031327
 20
8.010084451297629
 30
0.0
 10
5.867614002503231
 20
8.003381318246042
 30
0.0
 10
5.868319170485378
 20
7.995973017212328
 30
0.0
 10
5.868669062995593
 20
7.987505618464993
 30
0.0
 10
5.868669062995593
 20
7.987505618464993
 30
0.0
 10
5.868669062995593
 20
7.973748114111209
 30
0.0
 10
5.868669062995593
 20
7.973748114111209
 30
0.0
 10
5.868669062995593
 20
7.973748114111209
 30
0.0
 10
5.860556939720169
 20
7.817467278680709
 30
0.0
 10
5.860556939720169
 20
7.817467278680709
 30
0.0
 10
5.860201664248251
 20
7.810058977646988
 30
0.0
 10
5.853855152409025
 20
7.804062358317985
 30
0.0
 10
5.846448197115734
 20
7.804062358317985
 30
0.0
  0
SPLINE
  5
327
330
1F
100
AcDbEntity
  8
Livello 1
370
     0
100
AcDbSpline
210
0.0
220
0.0
230
1.0
 70
     9
 71
     3
 72
    23
 73
    19
 74
     0
 42
0.000000001
 43
0.0000000001
 40
0.0
 40
0.0
 40
0.0
 40
0.0
 40
1.0
 40
1.0
 40
1.0
 40
2.0
 40
2.0
 40
2.0
 40
3.0
 40
3.0
 40
3.0
 40
4.0
 40
4.0
 40
4.0
 40
5.0
 40
5.0
 40
5.0
 40
6.0
 40
6.0
 40
6.0
 40
6.0
 10
1.381830532623169
 20
8.031639175667628
 30
0.0
 10
1.381830532623169
 20
8.031639175667628
 30
0.0
 10
1.363835291674433
 20
8.031639175667628
 30
0.0
 10
1.363835291674433
 20
8.031639175667628
 30
0.0
 10
1.356073060909238
 20
8.031639175667628
 30
0.0
 10
1.349726549069998
 20
8.037988378987712
 30
0.0
 10
1.349726549069998
 20
8.045749264012499
 30
0.0
 10
1.349726549069998
 20
8.053510149037279
 30
0.0
 10
1.356073060909238
 20
8.059860698097786
 30
0.0
 10
1.363835291674433
 20
8.059860698097786
 30
0.0
 10
1.363835291674433
 20
8.059860698097786
 30
0.0
 10
1.381830532623169
 20
8.059860698097786
 30
0.0
 10
1.381830532623169
 20
8.059860698097786
 30
0.0
 10
1.389587380426675
 20
8.059860698097786
 30
0.0
 10
1.395939275227604
 20
8.053510149037279
 30
0.0
 10
1.395939275227604
 20
8.045749264012499
 30
0.0
 10
1.395939275227604
 20
8.037988378987712
 30
0.0
 10
1.389587380426675
 20
8.031639175667628
 30
0.0
 10
1.381830532623169
 20
8.031639175667628
 30
0.0
  0
SPLINE
  5
328
330
1F
100
AcDbEntity
  8
Livello 1
370
     0
100
AcDbSpline
210
0.0
220
0.0
230
1.0
 70
     9
 71
     3
 72
    35
 73
    31
 74
     0
 42
0.000000001
 43
0.0000000001
 40
0.0
 40
0.0
 40
0.0
 40
0.0
 40
1.0
 40
1.0
 40
1.0
 40
2.0
 40
2.0
 40
2.0
 40
3.0
 40
3.0
 40
3.0
 40
4.0
 40
4.0
 40
4.0
 40
5.0
 40
5.0
 40
5.0
 40
6.0
 40
6.0
 40
6.0
 40
7.0
 40
7.0
 40
7.0
 40
8.0
 40
8.0
 40
8.0
 40
9.0
 40
9.0
 40
9.0
 40
10.0
 40
10.0
 40
10.0
 40
10.0
 10
1.217580222402176
 20
7.880897407822018
 30
0.0
 10
1.209817991636981
 20
7.880897407822018
 30
0.0
 10
1.203466096836038
 20
7.887246611142103
 30
0.0
 10
1.203466096836038
 20
7.895007496166883
 30
0.0
 10
1.203466096836038
 20
7.895007496166883
 30
0.0
 10
1.203466096836038
 20
7.919701832945918
 30
0.0
 10
1.203466096836038
 20
7.919701832945918
 30
0.0
 10
1.216164503476221
 20
7.992021923327698
 30
0.0
 10
1.266258345016424
 20
8.043880030563663
 30
0.0
 10
1.333992152033474
 20
8.057286296666816
 30
0.0
 10
1.333992152033474
 20
8.057286296666816
 30
0.0
 10
1.362570295675936
 20
8.059755730344718
 30
0.0
 10
1.362570295675936
 20
8.059755730344718
 30
0.0
 10
1.371037694423279
 20
8.060460898326844
 30
0.0
 10
1.377034313752304
 20
8.054462933257418
 30
0.0
 10
1.377739481734437
 20
8.046702048232646
 30
0.0
 10
1.37844464971657
 20
8.038941163207859
 30
0.0
 10
1.37279792289776
 20
8.032238030156278
 30
0.0
 10
1.365041075094254
 20
8.031532862174138
 30
0.0
 10
1.365041075094254
 20
8.031532862174138
 30
0.0
 10
1.337873267416057
 20
8.02941601248731
 30
0.0
 10
1.337873267416057
 20
8.02941601248731
 30
0.0
 10
1.282487974528976
 20
8.018480525802488
 30
0.0
 10
1.241916592228449
 20
7.976500153278131
 30
0.0
 10
1.231333689534721
 20
7.917232399268009
 30
0.0
 10
1.231333689534721
 20
7.917232399268009
 30
0.0
 10
1.231688965006625
 20
7.895007496166883
 30
0.0
 10
1.231688965006625
 20
7.895007496166883
 30
0.0
 10
1.231688965006625
 20
7.887246611142103
 30
0.0
 10
1.225337070205696
 20
7.880897407822018
 30
0.0
 10
1.217580222402176
 20
7.880897407822018
 30
0.0
  0
SPLINE
  5
329
330
1F
100
AcDbEntity
  8
Livello 1
370
     0
100
AcDbSpline
210
0.0
220
0.0
230
1.0
 70
     9
 71
     3
 72
    23
 73
    19
 74
     0
 42
0.000000001
 43
0.0000000001
 40
0.0
 40
0.0
 40
0.0
 40
0.0
 40
1.0
 40
1.0
 40
1.0
 40
2.0
 40
2.0
 40
2.0
 40
3.0
 40
3.0
 40
3.0
 40
4.0
 40
4.0
 40
4.0
 40
5.0
 40
5.0
 40
5.0
 40
6.0
 40
6.0
 40
6.0
 40
6.0
 10
8.608305886176793
 20
8.031639175667628
 30
0.0
 10
8.608305886176793
 20
8.031639175667628
 30
0.0
 10
8.590310645228058
 20
8.031639175667628
 30
0.0
 10
8.590310645228058
 20
8.031639175667628
 30
0.0
 10
8.582548414462848
 20
8.031639175667628
 30
0.0
 10
8.576201902623608
 20
8.037988378987712
 30
0.0
 10
8.576201902623608
 20
8.045749264012499
 30
0.0
 10
8.576201902623608
 20
8.053510149037279
 30
0.0
 10
8.582548414462848
 20
8.059860698097786
 30
0.0
 10
8.590310645228058
 20
8.059860698097786
 30
0.0
 10
8.590310645228058
 20
8.059860698097786
 30
0.0
 10
8.608305886176793
 20
8.059860698097786
 30
0.0
 10
8.608305886176793
 20
8.059860698097786
 30
0.0
 10
8.616062733980285
 20
8.059860698097786
 30
0.0
 10
8.622414628781243
 20
8.053510149037279
 30
0.0
 10
8.622414628781243
 20
8.045749264012499
 30
0.0
 10
8.622414628781243
 20
8.037988378987712
 30
0.0
 10
8.616062733980285
 20
8.031639175667628
 30
0.0
 10
8.608305886176793
 20
8.031639175667628
 30
0.0
  0
SPLINE
  5
32A
330
1F
100
AcDbEntity
  8
Livello 1
370
     0
100
AcDbSpline
210
0.0
220
0.0
230
1.0
 70
     9
 71
     3
 72
    38
 73
    34
 74
     0
 42
0.000000001
 43
0.0000000001
 40
0.0
 40
0.0
 40
0.0
 40
0.0
 40
1.0
 40
1.0
 40
1.0
 40
2.0
 40
2.0
 40
2.0
 40
3.0
 40
3.0
 40
3.0
 40
4.0
 40
4.0
 40
4.0
 40
5.0
 40
5.0
 40
5.0
 40
6.0
 40
6.0
 40
6.0
 40
7.0
 40
7.0
 40
7.0
 40
8.0
 40
8.0
 40
8.0
 40
9.0
 40
9.0
 40
9.0
 40
10.0
 40
10.0
 40
10.0
 40
11.0
 40
11.0
 40
11.0
 40
11.0
 10
8.754571721372428
 20
7.880897407822018
 30
0.0
 10
8.747514658589381
 20
7.880897407822018
 30
0.0
 10
8.741162763788437
 20
7.886541443159963
 30
0.0
 10
8.74045759580629
 20
7.89359716020261
 30
0.0
 10
8.74045759580629
 20
7.89359716020261
 30
0.0
 10
8.738342091859877
 20
7.918291496981645
 30
0.0
 10
8.738342091859877
 20
7.918291496981645
 30
0.0
 10
8.734105701005361
 20
7.972619037895519
 30
0.0
 10
8.687187806865608
 20
8.021302543471463
 30
0.0
 10
8.631097345996394
 20
8.02941601248731
 30
0.0
 10
8.631097345996394
 20
8.02941601248731
 30
0.0
 10
8.607105485718648
 20
8.031532862174138
 30
0.0
 10
8.607105485718648
 20
8.031532862174138
 30
0.0
 10
8.599348637915127
 20
8.032238030156278
 30
0.0
 10
8.59370191109636
 20
8.039293747198918
 30
0.0
 10
8.594407079078479
 20
8.047054632223705
 30
0.0
 10
8.595112247060626
 20
8.054815517248478
 30
0.0
 10
8.601464141861555
 20
8.061166066308999
 30
0.0
 10
8.609576265136979
 20
8.059755730344718
 30
0.0
 10
8.609576265136979
 20
8.059755730344718
 30
0.0
 10
8.634273293396859
 20
8.057286296666816
 30
0.0
 10
8.634273293396859
 20
8.057286296666816
 30
0.0
 10
8.703767328888389
 20
8.047407216214772
 30
0.0
 10
8.761273508683586
 20
7.987435639962939
 30
0.0
 10
8.766209684558518
 20
7.920760930659547
 30
0.0
 10
8.766209684558518
 20
7.920760930659547
 30
0.0
 10
8.768680463976878
 20
7.896066593880512
 30
0.0
 10
8.768680463976878
 20
7.896066593880512
 30
0.0
 10
8.769385631958996
 20
7.888658292846805
 30
0.0
 10
8.763738905140201
 20
7.881602575804166
 30
0.0
 10
8.755982057336694
 20
7.880897407822018
 30
0.0
 10
8.755276889354547
 20
7.880897407822018
 30
0.0
 10
8.754921613882629
 20
7.880897407822018
 30
0.0
 10
8.754571721372428
 20
7.880897407822018
 30
0.0
  0
SPLINE
  5
32B
330
1F
100
AcDbEntity
  8
Livello 1
370
     0
100
AcDbSpline
210
0.0
220
0.0
230
1.0
 70
     9
 71
     3
 72
    26
 73
    22
 74
     0
 42
0.000000001
 43
0.0000000001
 40
0.0
 40
0.0
 40
0.0
 40
0.0
 40
1.0
 40
1.0
 40
1.0
 40
2.0
 40
2.0
 40
2.0
 40
3.0
 40
3.0
 40
3.0
 40
4.0
 40
4.0
 40
4.0
 40
5.0
 40
5.0
 40
5.0
 40
6.0
 40
6.0
 40
6.0
 40
7.0
 40
7.0
 40
7.0
 40
7.0
 10
4.119879382104116
 20
8.031639175667628
 30
0.0
 10
4.117758495196014
 20
8.031639175667628
 30
0.0
 10
4.1156429912496
 20
8.031991759658708
 30
0.0
 10
4.113527487303201
 20
8.033049511631908
 30
0.0
 10
4.106470424520125
 20
8.036578043023446
 30
0.0
 10
4.103649752591579
 20
8.045044096030359
 30
0.0
 10
4.107175592502258
 20
8.052099813072999
 30
0.0
 10
4.107175592502258
 20
8.052099813072999
 30
0.0
 10
4.10964637192059
 20
8.056686096437744
 30
0.0
 10
4.10964637192059
 20
8.056686096437744
 30
0.0
 10
4.113172211831283
 20
8.063387883748887
 30
0.0
 10
4.121639610578625
 20
8.066211247158278
 30
0.0
 10
4.128341397889769
 20
8.062682715766747
 30
0.0
 10
4.135398460672831
 20
8.059155530115646
 30
0.0
 10
4.138219132601378
 20
8.050688131368303
 30
0.0
 10
4.134693292690698
 20
8.043986344057152
 30
0.0
 10
4.134693292690698
 20
8.043986344057152
 30
0.0
 10
4.132577788744299
 20
8.039400060692415
 30
0.0
 10
4.132577788744299
 20
8.039400060692415
 30
0.0
 10
4.130107009325953
 20
8.034461193336611
 30
0.0
 10
4.125170833451008
 20
8.031639175667628
 30
0.0
 10
4.119879382104116
 20
8.031639175667628
 30
0.0
  0
SPLINE
  5
32C
330
1F
100
AcDbEntity
  8
Livello 1
370
     0
100
AcDbSpline
210
0.0
220
0.0
230
1.0
 70
    11
 71
     3
 72
    50
 73
    46
 74
     0
 42
0.000000001
 43
0.0000000001
 40
0.0
 40
0.0
 40
0.0
 40
0.0
 40
1.0
 40
1.0
 40
1.0
 40
2.0
 40
2.0
 40
2.0
 40
3.0
 40
3.0
 40
3.0
 40
4.0
 40
4.0
 40
4.0
 40
5.0
 40
5.0
 40
5.0
 40
6.0
 40
6.0
 40
6.0
 40
7.0
 40
7.0
 40
7.0
 40
8.0
 40
8.0
 40
8.0
 40
9.0
 40
9.0
 40
9.0
 40
10.0
 40
10.0
 40
10.0
 40
11.0
 40
11.0
 40
11.0
 40
12.0
 40
12.0
 40
12.0
 40
13.0
 40
13.0
 40
13.0
 40
14.0
 40
14.0
 40
14.0
 40
15.0
 40
15.0
 40
15.0
 40
15.0
 10
5.852229497976921
 20
5.026431245748092
 30
0.0
 10
5.852229497976921
 20
5.026431245748092
 30
0.0
 10
5.838115372410783
 20
5.026431245748092
 30
0.0
 10
5.838115372410783
 20
5.026431245748092
 30
0.0
 10
5.838115372410783
 20
5.026431245748092
 30
0.0
 10
5.838115372410783
 20
5.028546749694498
 30
0.0
 10
5.838115372410783
 20
5.028546749694498
 30
0.0
 10
5.83741020442865
 20
5.044775033466635
 30
0.0
 10
5.838470647882701
 20
5.056417033873998
 30
0.0
 10
5.839175815864834
 20
5.069116786254596
 30
0.0
 10
5.839525708375077
 20
5.0740556536104
 30
0.0
 10
5.840230876357196
 20
5.079699688948345
 30
0.0
 10
5.840586151829128
 20
5.085697654017785
 30
0.0
 10
5.840586151829128
 20
5.085697654017785
 30
0.0
 10
5.840586151829128
 20
5.098397406398376
 30
0.0
 10
5.840586151829128
 20
5.098397406398376
 30
0.0
 10
5.840586151829128
 20
5.098397406398376
 30
0.0
 10
5.834234257028185
 20
5.257500259497845
 30
0.0
 10
5.834234257028185
 20
5.257500259497845
 30
0.0
 10
5.834234257028185
 20
5.257500259497845
 30
0.0
 10
5.525908977021714
 20
5.257500259497845
 30
0.0
 10
5.525908977021714
 20
5.257500259497845
 30
0.0
 10
5.518146746256519
 20
5.257500259497845
 30
0.0
 10
5.511794851455576
 20
5.263849462817915
 30
0.0
 10
5.511794851455576
 20
5.271611693583125
 30
0.0
 10
5.511794851455576
 20
5.279372578607897
 30
0.0
 10
5.518146746256519
 20
5.285721781927989
 30
0.0
 10
5.525908977021714
 20
5.285721781927989
 30
0.0
 10
5.525908977021714
 20
5.285721781927989
 30
0.0
 10
5.84764321461219
 20
5.285721781927989
 30
0.0
 10
5.84764321461219
 20
5.285721781927989
 30
0.0
 10
5.855400062415682
 20
5.285721781927989
 30
0.0
 10
5.861396681744722
 20
5.279725162598964
 30
0.0
 10
5.861751957216611
 20
5.272316861565258
 30
0.0
 10
5.861751957216611
 20
5.272316861565258
 30
0.0
 10
5.868453744527755
 20
5.084991140295223
 30
0.0
 10
5.868453744527755
 20
5.084991140295223
 30
0.0
 10
5.86810385201754
 20
5.077936768992998
 30
0.0
 10
5.867748576545636
 20
5.072291387914631
 30
0.0
 10
5.867398684035407
 20
5.066999936567754
 30
0.0
 10
5.866338240581356
 20
5.055005352169317
 30
0.0
 10
5.865633072599223
 20
5.044422449475554
 30
0.0
 10
5.866338240581356
 20
5.029253263417075
 30
0.0
 10
5.866338240581356
 20
5.029253263417075
 30
0.0
 10
5.852229497976921
 20
5.026431245748092
 30
0.0
 10
5.852229497976921
 20
5.026431245748092
 30
0.0
  0
HATCH
  5
32D
330
1F
100
AcDbEntity
  8
Livello 1
100
AcDbHatch
 10
0.0
 20
0.0
 30
0.0
210
0.0
220
0.0
230
1.0
  2
SOLID
 70
     1
 71
     0
 91
        1
 92
        1
 93
        1
 72
     4
 94
        3
 73
     0
 74
     0
 95
       50
 96
       46
 40
0.0
 40
0.0
 40
0.0
 40
0.0
 40
1.0
 40
1.0
 40
1.0
 40
2.0
 40
2.0
 40
2.0
 40
3.0
 40
3.0
 40
3.0
 40
4.0
 40
4.0
 40
4.0
 40
5.0
 40
5.0
 40
5.0
 40
6.0
 40
6.0
 40
6.0
 40
7.0
 40
7.0
 40
7.0
 40
8.0
 40
8.0
 40
8.0
 40
9.0
 40
9.0
 40
9.0
 40
10.0
 40
10.0
 40
10.0
 40
11.0
 40
11.0
 40
11.0
 40
12.0
 40
12.0
 40
12.0
 40
13.0
 40
13.0
 40
13.0
 40
14.0
 40
14.0
 40
14.0
 40
15.0
 40
15.0
 40
15.0
 40
15.0
 10
5.852229497976921
 20
5.026431245748092
 10
5.852229497976921
 20
5.026431245748092
 10
5.838115372410783
 20
5.026431245748092
 10
5.838115372410783
 20
5.026431245748092
 10
5.838115372410783
 20
5.026431245748092
 10
5.838115372410783
 20
5.028546749694498
 10
5.838115372410783
 20
5.028546749694498
 10
5.83741020442865
 20
5.044775033466635
 10
5.838470647882701
 20
5.056417033873998
 10
5.839175815864834
 20
5.069116786254596
 10
5.839525708375077
 20
5.0740556536104
 10
5.840230876357196
 20
5.079699688948345
 10
5.840586151829128
 20
5.085697654017785
 10
5.840586151829128
 20
5.085697654017785
 10
5.840586151829128
 20
5.098397406398376
 10
5.840586151829128
 20
5.098397406398376
 10
5.840586151829128
 20
5.098397406398376
 10
5.834234257028185
 20
5.257500259497845
 10
5.834234257028185
 20
5.257500259497845
 10
5.834234257028185
 20
5.257500259497845
 10
5.525908977021714
 20
5.257500259497845
 10
5.525908977021714
 20
5.257500259497845
 10
5.518146746256519
 20
5.257500259497845
 10
5.511794851455576
 20
5.263849462817915
 10
5.511794851455576
 20
5.271611693583125
 10
5.511794851455576
 20
5.279372578607897
 10
5.518146746256519
 20
5.285721781927989
 10
5.525908977021714
 20
5.285721781927989
 10
5.525908977021714
 20
5.285721781927989
 10
5.84764321461219
 20
5.285721781927989
 10
5.84764321461219
 20
5.285721781927989
 10
5.855400062415682
 20
5.285721781927989
 10
5.861396681744722
 20
5.279725162598964
 10
5.861751957216611
 20
5.272316861565258
 10
5.861751957216611
 20
5.272316861565258
 10
5.868453744527755
 20
5.084991140295223
 10
5.868453744527755
 20
5.084991140295223
 10
5.86810385201754
 20
5.077936768992998
 10
5.867748576545636
 20
5.072291387914631
 10
5.867398684035407
 20
5.066999936567754
 10
5.866338240581356
 20
5.055005352169317
 10
5.865633072599223
 20
5.044422449475554
 10
5.866338240581356
 20
5.029253263417075
 10
5.866338240581356
 20
5.029253263417075
 10
5.852229497976921
 20
5.026431245748092
 10
5.852229497976921
 20
5.026431245748092
 97
        0
 97
        0
 75
     2
 76
     1
 98
        0
450
        0
451
        0
460
0.0
461
0.0
452
        0
462
0.0
453
        0
470

  0
SPLINE
  5
32E
330
1F
100
AcDbEntity
  8
Livello 1
370
     0
100
AcDbSpline
210
0.0
220
0.0
230
1.0
 70
     9
 71
     3
 72
    26
 73
    22
 74
     0
 42
0.000000001
 43
0.0000000001
 40
0.0
 40
0.0
 40
0.0
 40
0.0
 40
1.0
 40
1.0
 40
1.0
 40
2.0
 40
2.0
 40
2.0
 40
3.0
 40
3.0
 40
3.0
 40
4.0
 40
4.0
 40
4.0
 40
5.0
 40
5.0
 40
5.0
 40
6.0
 40
6.0
 40
6.0
 40
7.0
 40
7.0
 40
7.0
 40
7.0
 10
5.847750873846109
 20
5.01013298347393
 30
0.0
 10
5.842454039537528
 20
5.01013298347393
 30
0.0
 10
5.837517863662569
 20
5.012955001142891
 30
0.0
 10
5.835047084244237
 20
5.01789386849871
 30
0.0
 10
5.831521244333544
 20
5.024949585541357
 30
0.0
 10
5.834341916262104
 20
5.03341563854827
 30
0.0
 10
5.841398979045166
 20
5.036942824199385
 30
0.0
 10
5.841398979045166
 20
5.036942824199385
 30
0.0
 10
5.845985262409911
 20
5.039059673886214
 30
0.0
 10
5.845985262409911
 20
5.039059673886214
 30
0.0
 10
5.853042325192959
 20
5.042235621286678
 30
0.0
 10
5.861504340978598
 20
5.039766187608776
 30
0.0
 10
5.864680288379076
 20
5.032710470566129
 30
0.0
 10
5.868211511251473
 20
5.025654753523497
 30
0.0
 10
5.86538545636121
 20
5.017187354776147
 30
0.0
 10
5.858683669050066
 20
5.014012753116105
 30
0.0
 10
5.858683669050066
 20
5.014012753116105
 30
0.0
 10
5.854097385685321
 20
5.011543319438203
 30
0.0
 10
5.854097385685321
 20
5.011543319438203
 30
0.0
 10
5.851981881738922
 20
5.010485567464989
 30
0.0
 10
5.849866377792508
 20
5.01013298347393
 30
0.0
 10
5.847750873846109
 20
5.01013298347393
 30
0.0
  0
SPLINE
  5
32F
330
1F
100
AcDbEntity
  8
Livello 1
370
     0
100
AcDbSpline
210
0.0
220
0.0
230
1.0
 70
     9
 71
     3
 72
    23
 73
    19
 74
     0
 42
0.000000001
 43
0.0000000001
 40
0.0
 40
0.0
 40
0.0
 40
0.0
 40
1.0
 40
1.0
 40
1.0
 40
2.0
 40
2.0
 40
2.0
 40
3.0
 40
3.0
 40
3.0
 40
4.0
 40
4.0
 40
4.0
 40
5.0
 40
5.0
 40
5.0
 40
6.0
 40
6.0
 40
6.0
 40
6.0
 10
8.608305886176793
 20
5.012356146654255
 30
0.0
 10
8.608305886176793
 20
5.012356146654255
 30
0.0
 10
8.590310645228058
 20
5.012356146654255
 30
0.0
 10
8.590310645228058
 20
5.012356146654255
 30
0.0
 10
8.582548414462848
 20
5.012356146654255
 30
0.0
 10
8.576201902623608
 20
5.018705349974347
 30
0.0
 10
8.576201902623608
 20
5.026466234999126
 30
0.0
 10
8.576201902623608
 20
5.034227120023899
 30
0.0
 10
8.582548414462848
 20
5.040577669084399
 30
0.0
 10
8.590310645228058
 20
5.040577669084399
 30
0.0
 10
8.590310645228058
 20
5.040577669084399
 30
0.0
 10
8.608305886176793
 20
5.040577669084399
 30
0.0
 10
8.608305886176793
 20
5.040577669084399
 30
0.0
 10
8.616062733980285
 20
5.040577669084399
 30
0.0
 10
8.622414628781243
 20
5.034227120023899
 30
0.0
 10
8.622414628781243
 20
5.026466234999126
 30
0.0
 10
8.622414628781243
 20
5.018705349974347
 30
0.0
 10
8.616062733980285
 20
5.012356146654255
 30
0.0
 10
8.608305886176793
 20
5.012356146654255
 30
0.0
  0
SPLINE
  5
330
330
1F
100
AcDbEntity
  8
Livello 1
370
     0
100
AcDbSpline
210
0.0
220
0.0
230
1.0
 70
     9
 71
     3
 72
    23
 73
    19
 74
     0
 42
0.000000001
 43
0.0000000001
 40
0.0
 40
0.0
 40
0.0
 40
0.0
 40
1.0
 40
1.0
 40
1.0
 40
2.0
 40
2.0
 40
2.0
 40
3.0
 40
3.0
 40
3.0
 40
4.0
 40
4.0
 40
4.0
 40
5.0
 40
5.0
 40
5.0
 40
6.0
 40
6.0
 40
6.0
 40
6.0
 10
8.612822191039484
 20
8.036120491279305
 30
0.0
 10
8.612822191039484
 20
8.036120491279305
 30
0.0
 10
5.847745490884392
 20
8.036120491279305
 30
0.0
 10
5.847745490884392
 20
8.036120491279305
 30
0.0
 10
5.839988643080886
 20
8.036120491279305
 30
0.0
 10
5.833636748279971
 20
8.04246969459939
 30
0.0
 10
5.833636748279971
 20
8.050230579624169
 30
0.0
 10
5.833636748279971
 20
8.057991464648956
 30
0.0
 10
5.839988643080886
 20
8.064342013709449
 30
0.0
 10
5.847745490884392
 20
8.064342013709449
 30
0.0
 10
5.847745490884392
 20
8.064342013709449
 30
0.0
 10
8.612822191039484
 20
8.064342013709449
 30
0.0
 10
8.612822191039484
 20
8.064342013709449
 30
0.0
 10
8.620579038842976
 20
8.064342013709449
 30
0.0
 10
8.626930933643905
 20
8.057991464648956
 30
0.0
 10
8.626930933643905
 20
8.050230579624169
 30
0.0
 10
8.626930933643905
 20
8.04246969459939
 30
0.0
 10
8.620579038842976
 20
8.036120491279305
 30
0.0
 10
8.612822191039484
 20
8.036120491279305
 30
0.0
  0
SPLINE
  5
331
330
1F
100
AcDbEntity
  8
Livello 1
370
     0
100
AcDbSpline
210
0.0
220
0.0
230
1.0
 70
     9
 71
     3
 72
    26
 73
    22
 74
     0
 42
0.000000001
 43
0.0000000001
 40
0.0
 40
0.0
 40
0.0
 40
0.0
 40
1.0
 40
1.0
 40
1.0
 40
2.0
 40
2.0
 40
2.0
 40
3.0
 40
3.0
 40
3.0
 40
4.0
 40
4.0
 40
4.0
 40
5.0
 40
5.0
 40
5.0
 40
6.0
 40
6.0
 40
6.0
 40
7.0
 40
7.0
 40
7.0
 40
7.0
 10
8.608305886176793
 20
8.031639175667628
 30
0.0
 10
8.604774663304397
 20
8.031639175667628
 30
0.0
 10
8.601248823393731
 20
8.033049511631908
 30
0.0
 10
8.598422768503468
 20
8.035871529300884
 30
0.0
 10
8.592781424646375
 20
8.041162980647754
 30
0.0
 10
8.592781424646375
 20
8.050335547377244
 30
0.0
 10
8.598422768503468
 20
8.055626998724108
 30
0.0
 10
8.598422768503468
 20
8.055626998724108
 30
0.0
 10
8.602659159357997
 20
8.060213282088852
 30
0.0
 10
8.602659159357997
 20
8.060213282088852
 30
0.0
 10
8.608305886176793
 20
8.065504733435737
 30
0.0
 10
8.617123177434351
 20
8.065504733435737
 30
0.0
 10
8.622764521291429
 20
8.060213282088852
 30
0.0
 10
8.628061355600024
 20
8.054569246750908
 30
0.0
 10
8.628061355600024
 20
8.045749264012499
 30
0.0
 10
8.622764521291429
 20
8.040105228674555
 30
0.0
 10
8.622764521291429
 20
8.040105228674555
 30
0.0
 10
8.618183620888402
 20
8.035871529300884
 30
0.0
 10
8.618183620888402
 20
8.035871529300884
 30
0.0
 10
8.615357565998166
 20
8.033049511631908
 30
0.0
 10
8.611831726087473
 20
8.031639175667628
 30
0.0
 10
8.608305886176793
 20
8.031639175667628
 30
0.0
  0
SPLINE
  5
332
330
1F
100
AcDbEntity
  8
Livello 1
370
     0
100
AcDbSpline
210
0.0
220
0.0
230
1.0
 70
     9
 71
     3
 72
    23
 73
    19
 74
     0
 42
0.000000001
 43
0.0000000001
 40
0.0
 40
0.0
 40
0.0
 40
0.0
 40
1.0
 40
1.0
 40
1.0
 40
2.0
 40
2.0
 40
2.0
 40
3.0
 40
3.0
 40
3.0
 40
4.0
 40
4.0
 40
4.0
 40
5.0
 40
5.0
 40
5.0
 40
6.0
 40
6.0
 40
6.0
 40
6.0
 10
4.122102545284448
 20
8.036120491279305
 30
0.0
 10
4.122102545284448
 20
8.036120491279305
 30
0.0
 10
1.359146732037473
 20
8.036120491279305
 30
0.0
 10
1.359146732037473
 20
8.036120491279305
 30
0.0
 10
1.351384501272264
 20
8.036120491279305
 30
0.0
 10
1.345387881943238
 20
8.04246969459939
 30
0.0
 10
1.345387881943238
 20
8.050230579624169
 30
0.0
 10
1.345387881943238
 20
8.057991464648956
 30
0.0
 10
1.351384501272264
 20
8.064342013709449
 30
0.0
 10
1.359146732037473
 20
8.064342013709449
 30
0.0
 10
1.359146732037473
 20
8.064342013709449
 30
0.0
 10
4.122102545284448
 20
8.064342013709449
 30
0.0
 10
4.122102545284448
 20
8.064342013709449
 30
0.0
 10
4.129859393087969
 20
8.064342013709449
 30
0.0
 10
4.136211287888869
 20
8.057991464648956
 30
0.0
 10
4.136211287888869
 20
8.050230579624169
 30
0.0
 10
4.136211287888869
 20
8.04246969459939
 30
0.0
 10
4.129859393087969
 20
8.036120491279305
 30
0.0
 10
4.122102545284448
 20
8.036120491279305
 30
0.0
  0
SPLINE
  5
333
330
1F
100
AcDbEntity
  8
Livello 1
370
     0
100
AcDbSpline
210
0.0
220
0.0
230
1.0
 70
     9
 71
     3
 72
    26
 73
    22
 74
     0
 42
0.000000001
 43
0.0000000001
 40
0.0
 40
0.0
 40
0.0
 40
0.0
 40
1.0
 40
1.0
 40
1.0
 40
2.0
 40
2.0
 40
2.0
 40
3.0
 40
3.0
 40
3.0
 40
4.0
 40
4.0
 40
4.0
 40
5.0
 40
5.0
 40
5.0
 40
6.0
 40
6.0
 40
6.0
 40
7.0
 40
7.0
 40
7.0
 40
7.0
 10
1.363802993904258
 20
8.031639175667628
 30
0.0
 10
1.360271771031875
 20
8.031639175667628
 30
0.0
 10
1.35674593112121
 20
8.033049511631908
 30
0.0
 10
1.35391987623096
 20
8.035871529300884
 30
0.0
 10
1.35391987623096
 20
8.035871529300884
 30
0.0
 10
1.349338975827905
 20
8.040105228674555
 30
0.0
 10
1.349338975827905
 20
8.040105228674555
 30
0.0
 10
1.344042141519324
 20
8.045749264012499
 30
0.0
 10
1.344042141519324
 20
8.054569246750908
 30
0.0
 10
1.349338975827905
 20
8.060213282088852
 30
0.0
 10
1.354980319684997
 20
8.065504733435737
 30
0.0
 10
1.363802993904258
 20
8.065504733435737
 30
0.0
 10
1.36944433776135
 20
8.060213282088852
 30
0.0
 10
1.36944433776135
 20
8.060213282088852
 30
0.0
 10
1.37368072861588
 20
8.055626998724108
 30
0.0
 10
1.37368072861588
 20
8.055626998724108
 30
0.0
 10
1.379322072472959
 20
8.050335547377244
 30
0.0
 10
1.379322072472959
 20
8.041162980647754
 30
0.0
 10
1.37368072861588
 20
8.035871529300884
 30
0.0
 10
1.370854673725617
 20
8.033049511631908
 30
0.0
 10
1.367328833814937
 20
8.031639175667628
 30
0.0
 10
1.363802993904258
 20
8.031639175667628
 30
0.0
  0
SPLINE
  5
334
330
1F
100
AcDbEntity
  8
Livello 1
370
     0
100
AcDbSpline
210
0.0
220
0.0
230
1.0
 70
     9
 71
     3
 72
    29
 73
    25
 74
     0
 42
0.000000001
 43
0.0000000001
 40
0.0
 40
0.0
 40
0.0
 40
0.0
 40
1.0
 40
1.0
 40
1.0
 40
2.0
 40
2.0
 40
2.0
 40
3.0
 40
3.0
 40
3.0
 40
4.0
 40
4.0
 40
4.0
 40
5.0
 40
5.0
 40
5.0
 40
6.0
 40
6.0
 40
6.0
 40
7.0
 40
7.0
 40
7.0
 40
8.0
 40
8.0
 40
8.0
 40
8.0
 10
8.612822191039484
 20
5.01013298347393
 30
0.0
 10
8.612822191039484
 20
5.01013298347393
 30
0.0
 10
5.847745490884392
 20
5.01013298347393
 30
0.0
 10
5.847745490884392
 20
5.01013298347393
 30
0.0
 10
5.839988643080886
 20
5.01013298347393
 30
0.0
 10
5.833636748279971
 20
5.016482186794007
 30
0.0
 10
5.833636748279971
 20
5.024243071818794
 30
0.0
 10
5.833636748279971
 20
5.032003956843567
 30
0.0
 10
5.839988643080886
 20
5.038354505904067
 30
0.0
 10
5.847745490884392
 20
5.038354505904067
 30
0.0
 10
5.847745490884392
 20
5.038354505904067
 30
0.0
 10
8.600823569419759
 20
5.038354505904067
 30
0.0
 10
8.600823569419759
 20
5.038354505904067
 30
0.0
 10
8.604704684802356
 20
5.04082393958199
 30
0.0
 10
8.609996136149234
 20
5.041176523573057
 30
0.0
 10
8.614582419513993
 20
5.039059673886214
 30
0.0
 10
8.614582419513993
 20
5.039059673886214
 30
0.0
 10
8.619168702878724
 20
5.036942824199385
 30
0.0
 10
8.619168702878724
 20
5.036942824199385
 30
0.0
 10
8.624815429697505
 20
5.033768222539329
 30
0.0
 10
8.62799137709797
 20
5.027419019219259
 30
0.0
 10
8.626575658172001
 20
5.021068470158752
 30
0.0
 10
8.625165322207735
 20
5.014717921098245
 30
0.0
 10
8.619168702878724
 20
5.01013298347393
 30
0.0
 10
8.612822191039484
 20
5.01013298347393
 30
0.0
  0
SPLINE
  5
335
330
1F
100
AcDbEntity
  8
Livello 1
370
     0
100
AcDbSpline
210
0.0
220
0.0
230
1.0
 70
     9
 71
     3
 72
    26
 73
    22
 74
     0
 42
0.000000001
 43
0.0000000001
 40
0.0
 40
0.0
 40
0.0
 40
0.0
 40
1.0
 40
1.0
 40
1.0
 40
2.0
 40
2.0
 40
2.0
 40
3.0
 40
3.0
 40
3.0
 40
4.0
 40
4.0
 40
4.0
 40
5.0
 40
5.0
 40
5.0
 40
6.0
 40
6.0
 40
6.0
 40
7.0
 40
7.0
 40
7.0
 40
7.0
 10
8.651030453155598
 20
8.031639175667628
 30
0.0
 10
8.650319902211734
 20
8.031639175667628
 30
0.0
 10
8.649970009701533
 20
8.031639175667628
 30
0.0
 10
8.6492648417194
 20
8.031639175667628
 30
0.0
 10
8.6492648417194
 20
8.031639175667628
 30
0.0
 10
8.611164238837218
 20
8.03622411329195
 30
0.0
 10
8.611164238837218
 20
8.03622411329195
 30
0.0
 10
8.603402008072009
 20
8.037283211005572
 30
0.0
 10
8.597760664214902
 20
8.043986344057152
 30
0.0
 10
8.598815724707264
 20
8.051747229081925
 30
0.0
 10
8.59987616816133
 20
8.059508114106712
 30
0.0
 10
8.606933230944363
 20
8.065152149444649
 30
0.0
 10
8.614340186237683
 20
8.06409439747145
 30
0.0
 10
8.614340186237683
 20
8.06409439747145
 30
0.0
 10
8.652790681630079
 20
8.059508114106712
 30
0.0
 10
8.652790681630079
 20
8.059508114106712
 30
0.0
 10
8.66055291239526
 20
8.058802946124572
 30
0.0
 10
8.665844363742152
 20
8.051747229081925
 30
0.0
 10
8.665139195760019
 20
8.043986344057152
 30
0.0
 10
8.664078752305968
 20
8.036930627014506
 30
0.0
 10
8.658082132976971
 20
8.031639175667628
 30
0.0
 10
8.651030453155598
 20
8.031639175667628
 30
0.0
  0
SPLINE
  5
336
330
1F
100
AcDbEntity
  8
Livello 1
370
     0
100
AcDbSpline
210
0.0
220
0.0
230
1.0
 70
     9
 71
     3
 72
    50
 73
    46
 74
     0
 42
0.000000001
 43
0.0000000001
 40
0.0
 40
0.0
 40
0.0
 40
0.0
 40
1.0
 40
1.0
 40
1.0
 40
2.0
 40
2.0
 40
2.0
 40
3.0
 40
3.0
 40
3.0
 40
4.0
 40
4.0
 40
4.0
 40
5.0
 40
5.0
 40
5.0
 40
6.0
 40
6.0
 40
6.0
 40
7.0
 40
7.0
 40
7.0
 40
8.0
 40
8.0
 40
8.0
 40
9.0
 40
9.0
 40
9.0
 40
10.0
 40
10.0
 40
10.0
 40
11.0
 40
11.0
 40
11.0
 40
12.0
 40
12.0
 40
12.0
 40
13.0
 40
13.0
 40
13.0
 40
14.0
 40
14.0
 40
14.0
 40
15.0
 40
15.0
 40
15.0
 40
15.0
 10
8.754534040640578
 20
7.91913931344871
 30
0.0
 10
8.748887313821768
 20
7.91913931344871
 30
0.0
 10
8.743240587002958
 20
7.922666499099818
 30
0.0
 10
8.741125083056559
 20
7.928663118428843
 30
0.0
 10
8.741125083056559
 20
7.928663118428843
 30
0.0
 10
8.726311172469976
 20
7.971350004675763
 30
0.0
 10
8.726311172469976
 20
7.971350004675763
 30
0.0
 10
8.726311172469976
 20
7.971350004675763
 30
0.0
 10
8.707610763539122
 20
7.993927491767969
 30
0.0
 10
8.707610763539122
 20
7.993927491767969
 30
0.0
 10
8.707610763539122
 20
7.993927491767969
 30
0.0
 10
8.679387895368535
 20
8.017916660564864
 30
0.0
 10
8.679387895368535
 20
8.017916660564864
 30
0.0
 10
8.679387895368535
 20
8.017916660564864
 30
0.0
 10
8.645523683340869
 20
8.032733262632284
 30
0.0
 10
8.645523683340869
 20
8.032733262632284
 30
0.0
 10
8.638466620557807
 20
8.035907864292319
 30
0.0
 10
8.634940780647127
 20
8.044375263039675
 30
0.0
 10
8.638116728047592
 20
8.051430980082315
 30
0.0
 10
8.641287292486367
 20
8.058485351384526
 30
0.0
 10
8.649754691233709
 20
8.061661298785004
 30
0.0
 10
8.656811754016757
 20
8.058485351384526
 30
0.0
 10
8.656811754016757
 20
8.058485351384526
 30
0.0
 10
8.69279685295254
 20
8.042963581334966
 30
0.0
 10
8.69279685295254
 20
8.042963581334966
 30
0.0
 10
8.693851913444902
 20
8.042258413352826
 30
0.0
 10
8.695262249409182
 20
8.04155189963027
 30
0.0
 10
8.696322692863233
 20
8.040494147657071
 30
0.0
 10
8.696322692863233
 20
8.040494147657071
 30
0.0
 10
8.727721508434257
 20
8.0136829611912
 30
0.0
 10
8.727721508434257
 20
8.0136829611912
 30
0.0
 10
8.727721508434257
 20
8.0136829611912
 30
0.0
 10
8.749592481803915
 20
7.987224358716396
 30
0.0
 10
8.749592481803915
 20
7.987224358716396
 30
0.0
 10
8.750652925257952
 20
7.985814022752109
 30
0.0
 10
8.751707985750329
 20
7.98440234104742
 30
0.0
 10
8.752063261222232
 20
7.982638075351651
 30
0.0
 10
8.752063261222232
 20
7.982638075351651
 30
0.0
 10
8.767937615262852
 20
7.937835685158319
 30
0.0
 10
8.767937615262852
 20
7.937835685158319
 30
0.0
 10
8.770408394681183
 20
7.930427384124605
 30
0.0
 10
8.766527279298585
 20
7.922666499099818
 30
0.0
 10
8.759114941043605
 20
7.919844481430857
 30
0.0
 10
8.757704605079325
 20
7.91949189743979
 30
0.0
 10
8.755944376604816
 20
7.91913931344871
 30
0.0
 10
8.754534040640578
 20
7.91913931344871
 30
0.0
  0
SPLINE
  5
337
330
1F
100
AcDbEntity
  8
Livello 1
370
     0
100
AcDbSpline
210
0.0
220
0.0
230
1.0
 70
     9
 71
     3
 72
    26
 73
    22
 74
     0
 42
0.000000001
 43
0.0000000001
 40
0.0
 40
0.0
 40
0.0
 40
0.0
 40
1.0
 40
1.0
 40
1.0
 40
2.0
 40
2.0
 40
2.0
 40
3.0
 40
3.0
 40
3.0
 40
4.0
 40
4.0
 40
4.0
 40
5.0
 40
5.0
 40
5.0
 40
6.0
 40
6.0
 40
6.0
 40
7.0
 40
7.0
 40
7.0
 40
7.0
 10
8.756789501591057
 20
7.907884886283419
 30
0.0
 10
8.750082331318225
 20
7.907884886283419
 30
0.0
 10
8.744440987461132
 20
7.912469823907741
 30
0.0
 10
8.743030651496852
 20
7.919172956959315
 30
0.0
 10
8.743030651496852
 20
7.919172956959315
 30
0.0
 10
8.740559872078506
 20
7.93046237337564
 30
0.0
 10
8.740559872078506
 20
7.93046237337564
 30
0.0
 10
8.73914953611424
 20
7.937870674409346
 30
0.0
 10
8.744085711989185
 20
7.945278975443052
 30
0.0
 10
8.751847942754395
 20
7.947041895398392
 30
0.0
 10
8.7592548980477
 20
7.948806161094161
 30
0.0
 10
8.766667236302666
 20
7.943514709747276
 30
0.0
 10
8.768427464777161
 20
7.936106408713584
 30
0.0
 10
8.768427464777161
 20
7.936106408713584
 30
0.0
 10
8.770542968723589
 20
7.924816992297259
 30
0.0
 10
8.770542968723589
 20
7.924816992297259
 30
0.0
 10
8.771958687649529
 20
7.917056107272486
 30
0.0
 10
8.767017128812909
 20
7.90964780623878
 30
0.0
 10
8.759610173519604
 20
7.908237470274499
 30
0.0
 10
8.758549730065539
 20
7.907884886283419
 30
0.0
 10
8.75784456208342
 20
7.907884886283419
 30
0.0
 10
8.756789501591057
 20
7.907884886283419
 30
0.0
  0
SPLINE
  5
338
330
1F
100
AcDbEntity
  8
Livello 1
370
     0
100
AcDbSpline
210
0.0
220
0.0
230
1.0
 70
     9
 71
     3
 72
    26
 73
    22
 74
     0
 42
0.000000001
 43
0.0000000001
 40
0.0
 40
0.0
 40
0.0
 40
0.0
 40
1.0
 40
1.0
 40
1.0
 40
2.0
 40
2.0
 40
2.0
 40
3.0
 40
3.0
 40
3.0
 40
4.0
 40
4.0
 40
4.0
 40
5.0
 40
5.0
 40
5.0
 40
6.0
 40
6.0
 40
6.0
 40
7.0
 40
7.0
 40
7.0
 40
7.0
 10
8.759012664771361
 20
7.889928671806984
 30
0.0
 10
8.751955601988314
 20
7.889928671806984
 30
0.0
 10
8.745958982659303
 20
7.895220123153862
 30
0.0
 10
8.744898539205237
 20
7.902275840196509
 30
0.0
 10
8.744898539205237
 20
7.902275840196509
 30
0.0
 10
8.742783035258838
 20
7.920267043923971
 30
0.0
 10
8.742783035258838
 20
7.920267043923971
 30
0.0
 10
8.741722591804787
 20
7.92802792894875
 30
0.0
 10
8.747369318623583
 20
7.935083645991397
 30
0.0
 10
8.755131549388764
 20
7.93578881397353
 30
0.0
 10
8.763243672664202
 20
7.936847911687166
 30
0.0
 10
8.76994545997536
 20
7.931202530608778
 30
0.0
 10
8.770650627957479
 20
7.923794229575079
 30
0.0
 10
8.770650627957479
 20
7.923794229575079
 30
0.0
 10
8.773121407375825
 20
7.905803025847625
 30
0.0
 10
8.773121407375825
 20
7.905803025847625
 30
0.0
 10
8.773826575357972
 20
7.898042140822845
 30
0.0
 10
8.76853512401108
 20
7.890986423780198
 30
0.0
 10
8.760772893245871
 20
7.889928671806984
 30
0.0
 10
8.760067725263724
 20
7.889928671806984
 30
0.0
 10
8.759717832753509
 20
7.889928671806984
 30
0.0
 10
8.759012664771361
 20
7.889928671806984
 30
0.0
  0
SPLINE
  5
339
330
1F
100
AcDbEntity
  8
Livello 1
370
     0
100
AcDbSpline
210
0.0
220
0.0
230
1.0
 70
     9
 71
     3
 72
    26
 73
    22
 74
     0
 42
0.000000001
 43
0.0000000001
 40
0.0
 40
0.0
 40
0.0
 40
0.0
 40
1.0
 40
1.0
 40
1.0
 40
2.0
 40
2.0
 40
2.0
 40
3.0
 40
3.0
 40
3.0
 40
4.0
 40
4.0
 40
4.0
 40
5.0
 40
5.0
 40
5.0
 40
6.0
 40
6.0
 40
6.0
 40
7.0
 40
7.0
 40
7.0
 40
7.0
 10
8.754534040640578
 20
7.887635530124626
 30
0.0
 10
8.749237206331983
 20
7.887635530124626
 30
0.0
 10
8.744301030457023
 20
7.890457547793587
 30
0.0
 10
8.741830251038678
 20
7.895396415149392
 30
0.0
 10
8.738304411127998
 20
7.902452132192038
 30
0.0
 10
8.741125083056559
 20
7.910565601207885
 30
0.0
 10
8.748182145839606
 20
7.914092786858986
 30
0.0
 10
8.748182145839606
 20
7.914092786858986
 30
0.0
 10
8.752768429204365
 20
7.916562220536903
 30
0.0
 10
8.752768429204365
 20
7.916562220536903
 30
0.0
 10
8.759825491987442
 20
7.920090751928427
 30
0.0
 10
8.767937615262852
 20
7.917268734259465
 30
0.0
 10
8.771463455173545
 20
7.910213017216818
 30
0.0
 10
8.774994678045942
 20
7.903509884165238
 30
0.0
 10
8.772168623155693
 20
7.895043831158325
 30
0.0
 10
8.765466835844549
 20
7.891515299766787
 30
0.0
 10
8.765466835844549
 20
7.891515299766787
 30
0.0
 10
8.760880552479804
 20
7.889045866088885
 30
0.0
 10
8.760880552479804
 20
7.889045866088885
 30
0.0
 10
8.758765048533376
 20
7.887988114115678
 30
0.0
 10
8.756649544586963
 20
7.887635530124626
 30
0.0
 10
8.754534040640578
 20
7.887635530124626
 30
0.0
  0
SPLINE
  5
33A
330
1F
100
AcDbEntity
  8
Livello 1
370
     0
100
AcDbSpline
210
0.0
220
0.0
230
1.0
 70
     9
 71
     3
 72
    23
 73
    19
 74
     0
 42
0.000000001
 43
0.0000000001
 40
0.0
 40
0.0
 40
0.0
 40
0.0
 40
1.0
 40
1.0
 40
1.0
 40
2.0
 40
2.0
 40
2.0
 40
3.0
 40
3.0
 40
3.0
 40
4.0
 40
4.0
 40
4.0
 40
5.0
 40
5.0
 40
5.0
 40
6.0
 40
6.0
 40
6.0
 40
6.0
 10
8.754534040640578
 20
7.880897407822018
 30
0.0
 10
8.746771809875355
 20
7.880897407822018
 30
0.0
 10
8.74041991507444
 20
7.887246611142103
 30
0.0
 10
8.74041991507444
 20
7.895007496166883
 30
0.0
 10
8.74041991507444
 20
7.895007496166883
 30
0.0
 10
8.74041991507444
 20
7.901710629218456
 30
0.0
 10
8.74041991507444
 20
7.901710629218456
 30
0.0
 10
8.74041991507444
 20
7.909471514243236
 30
0.0
 10
8.746771809875355
 20
7.915822063303743
 30
0.0
 10
8.754534040640578
 20
7.915822063303743
 30
0.0
 10
8.762290888444084
 20
7.915822063303743
 30
0.0
 10
8.768642783244985
 20
7.909471514243236
 30
0.0
 10
8.768642783244985
 20
7.901710629218456
 30
0.0
 10
8.768642783244985
 20
7.901710629218456
 30
0.0
 10
8.768642783244985
 20
7.895007496166883
 30
0.0
 10
8.768642783244985
 20
7.895007496166883
 30
0.0
 10
8.768642783244985
 20
7.887246611142103
 30
0.0
 10
8.762290888444084
 20
7.880897407822018
 30
0.0
 10
8.754534040640578
 20
7.880897407822018
 30
0.0
  0
SPLINE
  5
33B
330
1F
100
AcDbEntity
  8
Livello 1
370
     0
100
AcDbSpline
210
0.0
220
0.0
230
1.0
 70
     9
 71
     3
 72
    20
 73
    16
 74
     0
 42
0.000000001
 43
0.0000000001
 40
0.0
 40
0.0
 40
0.0
 40
0.0
 40
1.0
 40
1.0
 40
1.0
 40
2.0
 40
2.0
 40
2.0
 40
3.0
 40
3.0
 40
3.0
 40
4.0
 40
4.0
 40
4.0
 40
5.0
 40
5.0
 40
5.0
 40
5.0
 10
8.756789501591057
 20
7.880897407822018
 30
0.0
 10
8.749027270825862
 20
7.880897407822018
 30
0.0
 10
8.741614932570882
 20
7.887246611142103
 30
0.0
 10
8.741614932570882
 20
7.895007496166883
 30
0.0
 10
8.741614932570882
 20
7.902768381191663
 30
0.0
 10
8.746556491407531
 20
7.909118930252169
 30
0.0
 10
8.75431872217274
 20
7.909118930252169
 30
0.0
 10
8.75431872217274
 20
7.909118930252169
 30
0.0
 10
8.756789501591057
 20
7.909118930252169
 30
0.0
 10
8.756789501591057
 20
7.909118930252169
 30
0.0
 10
8.764546349394564
 20
7.909118930252169
 30
0.0
 10
8.770898244195478
 20
7.902768381191663
 30
0.0
 10
8.770898244195478
 20
7.895007496166883
 30
0.0
 10
8.770898244195478
 20
7.887246611142103
 30
0.0
 10
8.764546349394564
 20
7.880897407822018
 30
0.0
 10
8.756789501591057
 20
7.880897407822018
 30
0.0
  0
SPLINE
  5
33C
330
1F
100
AcDbEntity
  8
Livello 1
370
     0
100
AcDbSpline
210
0.0
220
0.0
230
1.0
 70
     9
 71
     3
 72
    23
 73
    19
 74
     0
 42
0.000000001
 43
0.0000000001
 40
0.0
 40
0.0
 40
0.0
 40
0.0
 40
1.0
 40
1.0
 40
1.0
 40
2.0
 40
2.0
 40
2.0
 40
3.0
 40
3.0
 40
3.0
 40
4.0
 40
4.0
 40
4.0
 40
5.0
 40
5.0
 40
5.0
 40
6.0
 40
6.0
 40
6.0
 40
6.0
 10
8.754534040640578
 20
5.158617944628623
 30
0.0
 10
8.746771809875355
 20
5.158617944628623
 30
0.0
 10
8.74041991507444
 20
5.164967147948708
 30
0.0
 10
8.74041991507444
 20
5.172728032973481
 30
0.0
 10
8.74041991507444
 20
5.172728032973481
 30
0.0
 10
8.74041991507444
 20
5.177314316338218
 30
0.0
 10
8.74041991507444
 20
5.177314316338218
 30
0.0
 10
8.74041991507444
 20
5.185075201363005
 30
0.0
 10
8.746771809875355
 20
5.191073166432452
 30
0.0
 10
8.754534040640578
 20
5.191073166432452
 30
0.0
 10
8.762290888444084
 20
5.191073166432452
 30
0.0
 10
8.768642783244985
 20
5.185075201363005
 30
0.0
 10
8.768642783244985
 20
5.177314316338218
 30
0.0
 10
8.768642783244985
 20
5.177314316338218
 30
0.0
 10
8.768642783244985
 20
5.172728032973481
 30
0.0
 10
8.768642783244985
 20
5.172728032973481
 30
0.0
 10
8.768642783244985
 20
5.164967147948708
 30
0.0
 10
8.762290888444084
 20
5.158617944628623
 30
0.0
 10
8.754534040640578
 20
5.158617944628623
 30
0.0
  0
SPLINE
  5
33D
330
1F
100
AcDbEntity
  8
Livello 1
370
     0
100
AcDbSpline
210
0.0
220
0.0
230
1.0
 70
     9
 71
     3
 72
    26
 73
    22
 74
     0
 42
0.000000001
 43
0.0000000001
 40
0.0
 40
0.0
 40
0.0
 40
0.0
 40
1.0
 40
1.0
 40
1.0
 40
2.0
 40
2.0
 40
2.0
 40
3.0
 40
3.0
 40
3.0
 40
4.0
 40
4.0
 40
4.0
 40
5.0
 40
5.0
 40
5.0
 40
6.0
 40
6.0
 40
6.0
 40
7.0
 40
7.0
 40
7.0
 40
7.0
 10
8.759012664771361
 20
5.156324802946258
 30
0.0
 10
8.756891777863273
 20
5.156324802946258
 30
0.0
 10
8.75477627391686
 20
5.156677386937325
 30
0.0
 10
8.752660769970447
 20
5.157735138910524
 30
0.0
 10
8.752660769970447
 20
5.157735138910524
 30
0.0
 10
8.748074486605716
 20
5.160204572588426
 30
0.0
 10
8.748074486605716
 20
5.160204572588426
 30
0.0
 10
8.741372699294572
 20
5.163733103979964
 30
0.0
 10
8.738546644404337
 20
5.172199156986884
 30
0.0
 10
8.742077867276719
 20
5.178902290038465
 30
0.0
 10
8.745603707187385
 20
5.185958007081097
 30
0.0
 10
8.753715830462823
 20
5.188780024750066
 30
0.0
 10
8.760772893245871
 20
5.185251493358528
 30
0.0
 10
8.760772893245871
 20
5.185251493358528
 30
0.0
 10
8.765359176610616
 20
5.182782059680633
 30
0.0
 10
8.765359176610616
 20
5.182782059680633
 30
0.0
 10
8.772416239393692
 20
5.179254874029524
 30
0.0
 10
8.774887018812009
 20
5.171141405013678
 30
0.0
 10
8.771711071411544
 20
5.164085687971031
 30
0.0
 10
8.769240291993213
 20
5.15914682061522
 30
0.0
 10
8.764304116118239
 20
5.156324802946258
 30
0.0
 10
8.759012664771361
 20
5.156324802946258
 30
0.0
  0
SPLINE
  5
33E
330
1F
100
AcDbEntity
  8
Livello 1
370
     0
100
AcDbSpline
210
0.0
220
0.0
230
1.0
 70
     9
 71
     3
 72
    26
 73
    22
 74
     0
 42
0.000000001
 43
0.0000000001
 40
0.0
 40
0.0
 40
0.0
 40
0.0
 40
1.0
 40
1.0
 40
1.0
 40
2.0
 40
2.0
 40
2.0
 40
3.0
 40
3.0
 40
3.0
 40
4.0
 40
4.0
 40
4.0
 40
5.0
 40
5.0
 40
5.0
 40
6.0
 40
6.0
 40
6.0
 40
7.0
 40
7.0
 40
7.0
 40
7.0
 10
8.756789501591057
 20
5.138368588469809
 30
0.0
 10
8.756078950647221
 20
5.138368588469809
 30
0.0
 10
8.755729058137021
 20
5.138368588469809
 30
0.0
 10
8.755023890154859
 20
5.138368588469809
 30
0.0
 10
8.747261659389664
 20
5.139426340443016
 30
0.0
 10
8.741970208042786
 20
5.14648205748567
 30
0.0
 10
8.742675376024905
 20
5.154242942510443
 30
0.0
 10
8.742675376024905
 20
5.154242942510443
 30
0.0
 10
8.745146155443251
 20
5.172234146237897
 30
0.0
 10
8.745146155443251
 20
5.172234146237897
 30
0.0
 10
8.74585132342537
 20
5.179642447271604
 30
0.0
 10
8.752553110736542
 20
5.185287828349984
 30
0.0
 10
8.760665234011966
 20
5.184228730636348
 30
0.0
 10
8.768427464777161
 20
5.183523562654208
 30
0.0
 10
8.774074191595971
 20
5.176467845611576
 30
0.0
 10
8.773013748141892
 20
5.168706960586789
 30
0.0
 10
8.773013748141892
 20
5.168706960586789
 30
0.0
 10
8.770898244195478
 20
5.150715756859327
 30
0.0
 10
8.770898244195478
 20
5.150715756859327
 30
0.0
 10
8.769837800741441
 20
5.143660039816694
 30
0.0
 10
8.763841181412431
 20
5.138368588469809
 30
0.0
 10
8.756789501591057
 20
5.138368588469809
 30
0.0
  0
SPLINE
  5
33F
330
1F
100
AcDbEntity
  8
Livello 1
370
     0
100
AcDbSpline
210
0.0
220
0.0
230
1.0
 70
     9
 71
     3
 72
    26
 73
    22
 74
     0
 42
0.000000001
 43
0.0000000001
 40
0.0
 40
0.0
 40
0.0
 40
0.0
 40
1.0
 40
1.0
 40
1.0
 40
2.0
 40
2.0
 40
2.0
 40
3.0
 40
3.0
 40
3.0
 40
4.0
 40
4.0
 40
4.0
 40
5.0
 40
5.0
 40
5.0
 40
6.0
 40
6.0
 40
6.0
 40
7.0
 40
7.0
 40
7.0
 40
7.0
 10
8.754534040640578
 20
5.124856008873166
 30
0.0
 10
8.753823489696728
 20
5.124856008873166
 30
0.0
 10
8.753118321714566
 20
5.124856008873166
 30
0.0
 10
8.752063261222232
 20
5.12520859286424
 30
0.0
 10
8.744650922967238
 20
5.126266344837446
 30
0.0
 10
8.73935947162036
 20
5.133674645871167
 30
0.0
 10
8.740775190546344
 20
5.141082946904873
 30
0.0
 10
8.740775190546344
 20
5.141082946904873
 30
0.0
 10
8.742890694492757
 20
5.154841796999072
 30
0.0
 10
8.742890694492757
 20
5.154841796999072
 30
0.0
 10
8.744301030457023
 20
5.162250098032799
 30
0.0
 10
8.751358093240114
 20
5.167541549379677
 30
0.0
 10
8.759114941043605
 20
5.166129867674975
 30
0.0
 10
8.7668771718088
 20
5.165072115701775
 30
0.0
 10
8.771818730645463
 20
5.157663814668069
 30
0.0
 10
8.770758287191412
 20
5.150255513634348
 30
0.0
 10
8.770758287191412
 20
5.150255513634348
 30
0.0
 10
8.768287507773067
 20
5.136496663540135
 30
0.0
 10
8.768287507773067
 20
5.136496663540135
 30
0.0
 10
8.767232447280704
 20
5.129794876228984
 30
0.0
 10
8.761235827951722
 20
5.124856008873166
 30
0.0
 10
8.754534040640578
 20
5.124856008873166
 30
0.0
  0
SPLINE
  5
340
330
1F
100
AcDbEntity
  8
Livello 1
370
     0
100
AcDbSpline
210
0.0
220
0.0
230
1.0
 70
     9
 71
     3
 72
    38
 73
    34
 74
     0
 42
0.000000001
 43
0.0000000001
 40
0.0
 40
0.0
 40
0.0
 40
0.0
 40
1.0
 40
1.0
 40
1.0
 40
2.0
 40
2.0
 40
2.0
 40
3.0
 40
3.0
 40
3.0
 40
4.0
 40
4.0
 40
4.0
 40
5.0
 40
5.0
 40
5.0
 40
6.0
 40
6.0
 40
6.0
 40
7.0
 40
7.0
 40
7.0
 40
8.0
 40
8.0
 40
8.0
 40
9.0
 40
9.0
 40
9.0
 40
10.0
 40
10.0
 40
10.0
 40
11.0
 40
11.0
 40
11.0
 40
11.0
 10
8.651030453155598
 20
5.014577964094165
 30
0.0
 10
8.645383726336802
 20
5.014577964094165
 30
0.0
 10
8.64009227498991
 20
5.01810514974526
 30
0.0
 10
8.637976771043483
 20
5.023749185083211
 30
0.0
 10
8.635150716153262
 20
5.030804902125858
 30
0.0
 10
8.638681939025644
 20
5.038918371141704
 30
0.0
 10
8.646088894318921
 20
5.041741734551095
 30
0.0
 10
8.646088894318921
 20
5.041741734551095
 30
0.0
 10
8.664078752305968
 20
5.048443521862239
 30
0.0
 10
8.664078752305968
 20
5.048443521862239
 30
0.0
 10
8.696538011331057
 20
5.061497203974326
 30
0.0
 10
8.724405604029712
 20
5.091130408109172
 30
0.0
 10
8.736754118159652
 20
5.125702479599823
 30
0.0
 10
8.736754118159652
 20
5.125702479599823
 30
0.0
 10
8.740985126052478
 20
5.142283347363004
 30
0.0
 10
8.740985126052478
 20
5.142283347363004
 30
0.0
 10
8.742750737488663
 20
5.149691648396725
 30
0.0
 10
8.750512968253872
 20
5.154277931761455
 30
0.0
 10
8.757919923547149
 20
5.152513666065694
 30
0.0
 10
8.765326878840426
 20
5.150749400369932
 30
0.0
 10
8.769913162205185
 20
5.142988515345145
 30
0.0
 10
8.768147550768986
 20
5.135580214311453
 30
0.0
 10
8.768147550768986
 20
5.135580214311453
 30
0.0
 10
8.76356126740427
 20
5.117589010583962
 30
0.0
 10
8.76356126740427
 20
5.117589010583962
 30
0.0
 10
8.74839208134577
 20
5.074196956354924
 30
0.0
 10
8.714172593846171
 20
5.038213203159564
 30
0.0
 10
8.674311762489494
 20
5.022338849118952
 30
0.0
 10
8.674311762489494
 20
5.022338849118952
 30
0.0
 10
8.655966629030544
 20
5.015635716067365
 30
0.0
 10
8.655966629030544
 20
5.015635716067365
 30
0.0
 10
8.65420101759436
 20
5.014930548085217
 30
0.0
 10
8.652790681630079
 20
5.014577964094165
 30
0.0
 10
8.651030453155598
 20
5.014577964094165
 30
0.0
  0
SPLINE
  5
341
330
1F
100
AcDbEntity
  8
Livello 1
370
     0
100
AcDbSpline
210
0.0
220
0.0
230
1.0
 70
     9
 71
     3
 72
    26
 73
    22
 74
     0
 42
0.000000001
 43
0.0000000001
 40
0.0
 40
0.0
 40
0.0
 40
0.0
 40
1.0
 40
1.0
 40
1.0
 40
2.0
 40
2.0
 40
2.0
 40
3.0
 40
3.0
 40
3.0
 40
4.0
 40
4.0
 40
4.0
 40
5.0
 40
5.0
 40
5.0
 40
6.0
 40
6.0
 40
6.0
 40
7.0
 40
7.0
 40
7.0
 40
7.0
 10
8.612822191039484
 20
5.01013298347393
 30
0.0
 10
8.605765128256422
 20
5.01013298347393
 30
0.0
 10
8.599768508927397
 20
5.015424434820815
 30
0.0
 10
8.59870806547336
 20
5.022480151863454
 30
0.0
 10
8.598002897491227
 20
5.030241036888241
 30
0.0
 10
8.603649624310008
 20
5.037296753930874
 30
0.0
 10
8.611056579603285
 20
5.038001921913007
 30
0.0
 10
8.611056579603285
 20
5.038001921913007
 30
0.0
 10
8.64950707499571
 20
5.042588205277738
 30
0.0
 10
8.64950707499571
 20
5.042588205277738
 30
0.0
 10
8.657974473743038
 20
5.043645957250951
 30
0.0
 10
8.663971093072049
 20
5.038001921913007
 30
0.0
 10
8.6650315365261
 20
5.030241036888241
 30
0.0
 10
8.666086597018463
 20
5.022480151863454
 30
0.0
 10
8.66044525316137
 20
5.015777018811874
 30
0.0
 10
8.652683022396161
 20
5.014717921098245
 30
0.0
 10
8.652683022396161
 20
5.014717921098245
 30
0.0
 10
8.614582419513993
 20
5.01013298347393
 30
0.0
 10
8.614582419513993
 20
5.01013298347393
 30
0.0
 10
8.613877251531846
 20
5.01013298347393
 30
0.0
 10
8.613172083549713
 20
5.01013298347393
 30
0.0
 10
8.612822191039484
 20
5.01013298347393
 30
0.0
  0
SPLINE
  5
342
330
1F
100
AcDbEntity
  8
Livello 1
370
     0
100
AcDbSpline
210
0.0
220
0.0
230
1.0
 70
     9
 71
     3
 72
    20
 73
    16
 74
     0
 42
0.000000001
 43
0.0000000001
 40
0.0
 40
0.0
 40
0.0
 40
0.0
 40
1.0
 40
1.0
 40
1.0
 40
2.0
 40
2.0
 40
2.0
 40
3.0
 40
3.0
 40
3.0
 40
4.0
 40
4.0
 40
4.0
 40
5.0
 40
5.0
 40
5.0
 40
5.0
 10
8.754534040640578
 20
5.164226990715555
 30
0.0
 10
8.746771809875355
 20
5.164226990715555
 30
0.0
 10
8.74041991507444
 20
5.169518442062418
 30
0.0
 10
8.74041991507444
 20
5.177279327087205
 30
0.0
 10
8.74041991507444
 20
5.177279327087205
 30
0.0
 10
8.74041991507444
 20
5.179396176774027
 30
0.0
 10
8.74041991507444
 20
5.179396176774027
 30
0.0
 10
8.74041991507444
 20
5.187157061798814
 30
0.0
 10
8.746771809875355
 20
5.193506265118898
 30
0.0
 10
8.754534040640578
 20
5.193506265118898
 30
0.0
 10
8.762290888444084
 20
5.193506265118898
 30
0.0
 10
8.768642783244985
 20
5.187157061798814
 30
0.0
 10
8.768642783244985
 20
5.179396176774027
 30
0.0
 10
8.768642783244985
 20
5.171635291749254
 30
0.0
 10
8.762290888444084
 20
5.164226990715555
 30
0.0
 10
8.754534040640578
 20
5.164226990715555
 30
0.0
  0
SPLINE
  5
343
330
1F
100
AcDbEntity
  8
Livello 1
370
     0
100
AcDbSpline
210
0.0
220
0.0
230
1.0
 70
     9
 71
     3
 72
    23
 73
    19
 74
     0
 42
0.000000001
 43
0.0000000001
 40
0.0
 40
0.0
 40
0.0
 40
0.0
 40
1.0
 40
1.0
 40
1.0
 40
2.0
 40
2.0
 40
2.0
 40
3.0
 40
3.0
 40
3.0
 40
4.0
 40
4.0
 40
4.0
 40
5.0
 40
5.0
 40
5.0
 40
6.0
 40
6.0
 40
6.0
 40
6.0
 10
1.215319378489979
 20
7.880897407822018
 30
0.0
 10
1.207557147724799
 20
7.880897407822018
 30
0.0
 10
1.201205252923855
 20
7.887246611142103
 30
0.0
 10
1.201205252923855
 20
7.895007496166883
 30
0.0
 10
1.201205252923855
 20
7.895007496166883
 30
0.0
 10
1.201205252923855
 20
7.901710629218456
 30
0.0
 10
1.201205252923855
 20
7.901710629218456
 30
0.0
 10
1.201205252923855
 20
7.909471514243236
 30
0.0
 10
1.207557147724799
 20
7.915822063303743
 30
0.0
 10
1.215319378489979
 20
7.915822063303743
 30
0.0
 10
1.2230762262935
 20
7.915822063303743
 30
0.0
 10
1.229428121094429
 20
7.909471514243236
 30
0.0
 10
1.229428121094429
 20
7.901710629218456
 30
0.0
 10
1.229428121094429
 20
7.901710629218456
 30
0.0
 10
1.229428121094429
 20
7.895007496166883
 30
0.0
 10
1.229428121094429
 20
7.895007496166883
 30
0.0
 10
1.229428121094429
 20
7.887246611142103
 30
0.0
 10
1.2230762262935
 20
7.880897407822018
 30
0.0
 10
1.215319378489979
 20
7.880897407822018
 30
0.0
  0
SPLINE
  5
344
330
1F
100
AcDbEntity
  8
Livello 1
370
     0
100
AcDbSpline
210
0.0
220
0.0
230
1.0
 70
     9
 71
     3
 72
    53
 73
    49
 74
     0
 42
0.000000001
 43
0.0000000001
 40
0.0
 40
0.0
 40
0.0
 40
0.0
 40
1.0
 40
1.0
 40
1.0
 40
2.0
 40
2.0
 40
2.0
 40
3.0
 40
3.0
 40
3.0
 40
4.0
 40
4.0
 40
4.0
 40
5.0
 40
5.0
 40
5.0
 40
6.0
 40
6.0
 40
6.0
 40
7.0
 40
7.0
 40
7.0
 40
8.0
 40
8.0
 40
8.0
 40
9.0
 40
9.0
 40
9.0
 40
10.0
 40
10.0
 40
10.0
 40
11.0
 40
11.0
 40
11.0
 40
12.0
 40
12.0
 40
12.0
 40
13.0
 40
13.0
 40
13.0
 40
14.0
 40
14.0
 40
14.0
 40
15.0
 40
15.0
 40
15.0
 40
16.0
 40
16.0
 40
16.0
 40
16.0
 10
1.213731404789754
 20
7.888200741102671
 30
0.0
 10
1.210905349899505
 20
7.888200741102671
 30
0.0
 10
1.20772940249904
 20
7.889258493075878
 30
0.0
 10
1.205264006042398
 20
7.891727926753773
 30
0.0
 10
1.205264006042398
 20
7.891727926753773
 30
0.0
 10
1.20314311913431
 20
7.894197360431682
 30
0.0
 10
1.20314311913431
 20
7.894197360431682
 30
0.0
 10
1.199972554695548
 20
7.897019378100644
 30
0.0
 10
1.198556835769579
 20
7.901605661465389
 30
0.0
 10
1.199267386713401
 20
7.905839360839067
 30
0.0
 10
1.199267386713401
 20
7.905839360839067
 30
0.0
 10
1.203848287116429
 20
7.935825148964973
 30
0.0
 10
1.203848287116429
 20
7.935825148964973
 30
0.0
 10
1.203848287116429
 20
7.935825148964973
 30
0.0
 10
1.208434570481188
 20
7.956638370361417
 30
0.0
 10
1.208434570481188
 20
7.956638370361417
 30
0.0
 10
1.225724643447762
 20
8.000383008581536
 30
0.0
 10
1.257828627000947
 20
8.034249912090054
 30
0.0
 10
1.297339565847408
 20
8.051888531826449
 30
0.0
 10
1.297339565847408
 20
8.051888531826449
 30
0.0
 10
1.316034591816588
 20
8.058944248869096
 30
0.0
 10
1.316034591816588
 20
8.058944248869096
 30
0.0
 10
1.316034591816588
 20
8.058944248869096
 30
0.0
 10
1.357661034609463
 20
8.064235700215959
 30
0.0
 10
1.357661034609463
 20
8.064235700215959
 30
0.0
 10
1.365067989902726
 20
8.065294797929595
 30
0.0
 10
1.372480328157735
 20
8.059649416851236
 30
0.0
 10
1.373185496139868
 20
8.051888531826449
 30
0.0
 10
1.37424055663223
 20
8.044127646801676
 30
0.0
 10
1.368599212775123
 20
8.037071929759029
 30
0.0
 10
1.360836982009928
 20
8.036366761776889
 30
0.0
 10
1.360836982009928
 20
8.036366761776889
 30
0.0
 10
1.322736379127732
 20
8.031780478412152
 30
0.0
 10
1.322736379127732
 20
8.031780478412152
 30
0.0
 10
1.322736379127732
 20
8.031780478412152
 30
0.0
 10
1.307922468541178
 20
8.025783859083126
 30
0.0
 10
1.307922468541178
 20
8.025783859083126
 30
0.0
 10
1.276523652970126
 20
8.011672424997854
 30
0.0
 10
1.249005952781701
 20
7.982744388845141
 30
0.0
 10
1.234897210177265
 20
7.94817231735449
 30
0.0
 10
1.234897210177265
 20
7.94817231735449
 30
0.0
 10
1.227484871922257
 20
7.905486776847993
 30
0.0
 10
1.227484871922257
 20
7.905486776847993
 30
0.0
 10
1.228190039904418
 20
7.900900493483248
 30
0.0
 10
1.227134979412056
 20
7.895961626127444
 30
0.0
 10
1.223959032011592
 20
7.89278567872698
 30
0.0
 10
1.221138360083045
 20
7.889963661058011
 30
0.0
 10
1.217257244700434
 20
7.888200741102671
 30
0.0
 10
1.213731404789754
 20
7.888200741102671
 30
0.0
  0
SPLINE
  5
345
330
1F
100
AcDbEntity
  8
Livello 1
370
     0
100
AcDbSpline
210
0.0
220
0.0
230
1.0
 70
     9
 71
     3
 72
    20
 73
    16
 74
     0
 42
0.000000001
 43
0.0000000001
 40
0.0
 40
0.0
 40
0.0
 40
0.0
 40
1.0
 40
1.0
 40
1.0
 40
2.0
 40
2.0
 40
2.0
 40
3.0
 40
3.0
 40
3.0
 40
4.0
 40
4.0
 40
4.0
 40
5.0
 40
5.0
 40
5.0
 40
5.0
 10
1.217580222402176
 20
7.880897407822018
 30
0.0
 10
1.209817991636981
 20
7.880897407822018
 30
0.0
 10
1.202405653382001
 20
7.887246611142103
 30
0.0
 10
1.202405653382001
 20
7.895007496166883
 30
0.0
 10
1.202405653382001
 20
7.902768381191663
 30
0.0
 10
1.207697104728865
 20
7.909118930252169
 30
0.0
 10
1.215459335494074
 20
7.909118930252169
 30
0.0
 10
1.215459335494074
 20
7.909118930252169
 30
0.0
 10
1.217580222402176
 20
7.909118930252169
 30
0.0
 10
1.217580222402176
 20
7.909118930252169
 30
0.0
 10
1.225337070205696
 20
7.909118930252169
 30
0.0
 10
1.231688965006625
 20
7.902768381191663
 30
0.0
 10
1.231688965006625
 20
7.895007496166883
 30
0.0
 10
1.231688965006625
 20
7.887246611142103
 30
0.0
 10
1.225337070205696
 20
7.880897407822018
 30
0.0
 10
1.217580222402176
 20
7.880897407822018
 30
0.0
  0
SPLINE
  5
346
330
1F
100
AcDbEntity
  8
Livello 1
370
     0
100
AcDbSpline
210
0.0
220
0.0
230
1.0
 70
     9
 71
     3
 72
    26
 73
    22
 74
     0
 42
0.000000001
 43
0.0000000001
 40
0.0
 40
0.0
 40
0.0
 40
0.0
 40
1.0
 40
1.0
 40
1.0
 40
2.0
 40
2.0
 40
2.0
 40
3.0
 40
3.0
 40
3.0
 40
4.0
 40
4.0
 40
4.0
 40
5.0
 40
5.0
 40
5.0
 40
6.0
 40
6.0
 40
6.0
 40
7.0
 40
7.0
 40
7.0
 40
7.0
 10
1.359286689041582
 20
5.01013298347393
 30
0.0
 10
1.358931413569649
 20
5.01013298347393
 30
0.0
 10
1.358226245587502
 20
5.01013298347393
 30
0.0
 10
1.357521077605369
 20
5.01013298347393
 30
0.0
 10
1.357521077605369
 20
5.01013298347393
 30
0.0
 10
1.319420474723187
 20
5.014717921098245
 30
0.0
 10
1.319420474723187
 20
5.014717921098245
 30
0.0
 10
1.311658243957978
 20
5.015777018811874
 30
0.0
 10
1.306016900100885
 20
5.022480151863454
 30
0.0
 10
1.307071960593248
 20
5.030241036888241
 30
0.0
 10
1.308132404047299
 20
5.038001921913007
 30
0.0
 10
1.31412902337631
 20
5.043645957250951
 30
0.0
 10
1.322596422123652
 20
5.042588205277738
 30
0.0
 10
1.322596422123652
 20
5.042588205277738
 30
0.0
 10
1.361046917516034
 20
5.038001921913007
 30
0.0
 10
1.361046917516034
 20
5.038001921913007
 30
0.0
 10
1.36845387280934
 20
5.037296753930874
 30
0.0
 10
1.374100599628135
 20
5.030241036888241
 30
0.0
 10
1.373395431645988
 20
5.022480151863454
 30
0.0
 10
1.372334988191951
 20
5.015424434820815
 30
0.0
 10
1.366338368862926
 20
5.01013298347393
 30
0.0
 10
1.359286689041582
 20
5.01013298347393
 30
0.0
  0
SPLINE
  5
347
330
1F
100
AcDbEntity
  8
Livello 1
370
     0
100
AcDbSpline
210
0.0
220
0.0
230
1.0
 70
     9
 71
     3
 72
    53
 73
    49
 74
     0
 42
0.000000001
 43
0.0000000001
 40
0.0
 40
0.0
 40
0.0
 40
0.0
 40
1.0
 40
1.0
 40
1.0
 40
2.0
 40
2.0
 40
2.0
 40
3.0
 40
3.0
 40
3.0
 40
4.0
 40
4.0
 40
4.0
 40
5.0
 40
5.0
 40
5.0
 40
6.0
 40
6.0
 40
6.0
 40
7.0
 40
7.0
 40
7.0
 40
8.0
 40
8.0
 40
8.0
 40
9.0
 40
9.0
 40
9.0
 40
10.0
 40
10.0
 40
10.0
 40
11.0
 40
11.0
 40
11.0
 40
12.0
 40
12.0
 40
12.0
 40
13.0
 40
13.0
 40
13.0
 40
14.0
 40
14.0
 40
14.0
 40
15.0
 40
15.0
 40
15.0
 40
16.0
 40
16.0
 40
16.0
 40
16.0
 10
1.321083809887156
 20
5.014577964094165
 30
0.0
 10
1.319318198450957
 20
5.014577964094165
 30
0.0
 10
1.317202694504558
 20
5.014930548085217
 30
0.0
 10
1.31543708306836
 20
5.015635716067365
 30
0.0
 10
1.31543708306836
 20
5.015635716067365
 30
0.0
 10
1.279451984132592
 20
5.031510070107998
 30
0.0
 10
1.279451984132592
 20
5.031510070107998
 30
0.0
 10
1.278396923640229
 20
5.031863999839487
 30
0.0
 10
1.277336480186178
 20
5.032569167821627
 30
0.0
 10
1.276276036732113
 20
5.03327433580376
 30
0.0
 10
1.276276036732113
 20
5.03327433580376
 30
0.0
 10
1.244882604122793
 20
5.057968672582788
 30
0.0
 10
1.244882604122793
 20
5.057968672582788
 30
0.0
 10
1.243822160668727
 20
5.059027770296424
 30
0.0
 10
1.243116992686609
 20
5.059732938278564
 30
0.0
 10
1.242411824704461
 20
5.060790690251764
 30
0.0
 10
1.242411824704461
 20
5.060790690251764
 30
0.0
 10
1.221951187299112
 20
5.087601876717634
 30
0.0
 10
1.221951187299112
 20
5.087601876717634
 30
0.0
 10
1.22124601931695
 20
5.089013558422351
 30
0.0
 10
1.220540851334831
 20
5.09042389438661
 30
0.0
 10
1.220185575862899
 20
5.091835576091298
 30
0.0
 10
1.220185575862899
 20
5.091835576091298
 30
0.0
 10
1.20431122182228
 20
5.133815948615669
 30
0.0
 10
1.20431122182228
 20
5.133815948615669
 30
0.0
 10
1.201840442403948
 20
5.141224249649383
 30
0.0
 10
1.205371665276331
 20
5.149339064405651
 30
0.0
 10
1.212778620569622
 20
5.152161082074634
 30
0.0
 10
1.220185575862899
 20
5.154630515752529
 30
0.0
 10
1.227947806628108
 20
5.151101984361005
 30
0.0
 10
1.230768478556655
 20
5.143693683327285
 30
0.0
 10
1.230768478556655
 20
5.143693683327285
 30
0.0
 10
1.245937664615127
 20
5.10277240851655
 30
0.0
 10
1.245937664615127
 20
5.10277240851655
 30
0.0
 10
1.245937664615127
 20
5.10277240851655
 30
0.0
 10
1.263577630091958
 20
5.079135823710721
 30
0.0
 10
1.263577630091958
 20
5.079135823710721
 30
0.0
 10
1.263577630091958
 20
5.079135823710721
 30
0.0
 10
1.292505666244665
 20
5.056558336618522
 30
0.0
 10
1.292505666244665
 20
5.056558336618522
 30
0.0
 10
1.292505666244665
 20
5.056558336618522
 30
0.0
 10
1.326725153744249
 20
5.041387804819606
 30
0.0
 10
1.326725153744249
 20
5.041387804819606
 30
0.0
 10
1.333782216527325
 20
5.038565787150631
 30
0.0
 10
1.336958163927789
 20
5.030099734143718
 30
0.0
 10
1.33413210903754
 20
5.023044017101071
 30
0.0
 10
1.331666712580897
 20
5.017752565754207
 30
0.0
 10
1.326375261234019
 20
5.014577964094165
 30
0.0
 10
1.321083809887156
 20
5.014577964094165
 30
0.0
  0
SPLINE
  5
348
330
1F
100
AcDbEntity
  8
Livello 1
370
     0
100
AcDbSpline
210
0.0
220
0.0
230
1.0
 70
     9
 71
     3
 72
    26
 73
    22
 74
     0
 42
0.000000001
 43
0.0000000001
 40
0.0
 40
0.0
 40
0.0
 40
0.0
 40
1.0
 40
1.0
 40
1.0
 40
2.0
 40
2.0
 40
2.0
 40
3.0
 40
3.0
 40
3.0
 40
4.0
 40
4.0
 40
4.0
 40
5.0
 40
5.0
 40
5.0
 40
6.0
 40
6.0
 40
6.0
 40
7.0
 40
7.0
 40
7.0
 40
7.0
 10
1.217580222402176
 20
5.124856008873166
 30
0.0
 10
1.210873052129343
 20
5.124856008873166
 30
0.0
 10
1.204876432800332
 20
5.129794876228984
 30
0.0
 10
1.20382137230797
 20
5.136496663540135
 30
0.0
 10
1.20382137230797
 20
5.136496663540135
 30
0.0
 10
1.201350592889639
 20
5.150255513634348
 30
0.0
 10
1.201350592889639
 20
5.150255513634348
 30
0.0
 10
1.200290149435602
 20
5.157663814668069
 30
0.0
 10
1.205231708272236
 20
5.165072115701775
 30
0.0
 10
1.21299393903746
 20
5.166129867674975
 30
0.0
 10
1.22110606231287
 20
5.167541549379677
 30
0.0
 10
1.227807849624014
 20
5.162250098032799
 30
0.0
 10
1.229218185588294
 20
5.154841796999072
 30
0.0
 10
1.229218185588294
 20
5.154841796999072
 30
0.0
 10
1.231333689534721
 20
5.141082946904873
 30
0.0
 10
1.231333689534721
 20
5.141082946904873
 30
0.0
 10
1.232749408460676
 20
5.133674645871167
 30
0.0
 10
1.227457957113799
 20
5.126266344837446
 30
0.0
 10
1.220045618858819
 20
5.12520859286424
 30
0.0
 10
1.218990558366471
 20
5.124856008873166
 30
0.0
 10
1.218285390384323
 20
5.124856008873166
 30
0.0
 10
1.217580222402176
 20
5.124856008873166
 30
0.0
  0
SPLINE
  5
349
330
1F
100
AcDbEntity
  8
Livello 1
370
     0
100
AcDbSpline
210
0.0
220
0.0
230
1.0
 70
     9
 71
     3
 72
    26
 73
    22
 74
     0
 42
0.000000001
 43
0.0000000001
 40
0.0
 40
0.0
 40
0.0
 40
0.0
 40
1.0
 40
1.0
 40
1.0
 40
2.0
 40
2.0
 40
2.0
 40
3.0
 40
3.0
 40
3.0
 40
4.0
 40
4.0
 40
4.0
 40
5.0
 40
5.0
 40
5.0
 40
6.0
 40
6.0
 40
6.0
 40
7.0
 40
7.0
 40
7.0
 40
7.0
 10
1.215319378489979
 20
5.138368588469809
 30
0.0
 10
1.208262315706917
 20
5.138368588469809
 30
0.0
 10
1.202265696377907
 20
5.143660039816694
 30
0.0
 10
1.201205252923855
 20
5.150715756859327
 30
0.0
 10
1.201205252923855
 20
5.150715756859327
 30
0.0
 10
1.199089748977428
 20
5.168706960586789
 30
0.0
 10
1.199089748977428
 20
5.168706960586789
 30
0.0
 10
1.198029305523391
 20
5.176467845611576
 30
0.0
 10
1.203676032342187
 20
5.183523562654208
 30
0.0
 10
1.211438263107368
 20
5.184228730636348
 30
0.0
 10
1.219195110910888
 20
5.185287828349984
 30
0.0
 10
1.226252173693964
 20
5.179642447271604
 30
0.0
 10
1.226957341676111
 20
5.172234146237897
 30
0.0
 10
1.226957341676111
 20
5.172234146237897
 30
0.0
 10
1.229428121094429
 20
5.154242942510443
 30
0.0
 10
1.229428121094429
 20
5.154242942510443
 30
0.0
 10
1.230133289076562
 20
5.14648205748567
 30
0.0
 10
1.224841837729684
 20
5.139426340443016
 30
0.0
 10
1.217079606964475
 20
5.138368588469809
 30
0.0
 10
1.216374438982342
 20
5.138368588469809
 30
0.0
 10
1.216024546472112
 20
5.138368588469809
 30
0.0
 10
1.215319378489979
 20
5.138368588469809
 30
0.0
  0
SPLINE
  5
34A
330
1F
100
AcDbEntity
  8
Livello 1
370
     0
100
AcDbSpline
210
0.0
220
0.0
230
1.0
 70
     9
 71
     3
 72
    23
 73
    19
 74
     0
 42
0.000000001
 43
0.0000000001
 40
0.0
 40
0.0
 40
0.0
 40
0.0
 40
1.0
 40
1.0
 40
1.0
 40
2.0
 40
2.0
 40
2.0
 40
3.0
 40
3.0
 40
3.0
 40
4.0
 40
4.0
 40
4.0
 40
5.0
 40
5.0
 40
5.0
 40
6.0
 40
6.0
 40
6.0
 40
6.0
 10
1.213553767053795
 20
5.15798275514853
 30
0.0
 10
1.210022544181398
 20
5.15798275514853
 30
0.0
 10
1.206846596780948
 20
5.159040507121744
 30
0.0
 10
1.20438120032432
 20
5.161509940799639
 30
0.0
 10
1.198734473505524
 20
5.166801392146524
 30
0.0
 10
1.197674030051473
 20
5.174562277171311
 30
0.0
 10
1.202965481398351
 20
5.180207658249663
 30
0.0
 10
1.202965481398351
 20
5.180207658249663
 30
0.0
 10
1.205436260816682
 20
5.182677091927558
 30
0.0
 10
1.205436260816682
 20
5.182677091927558
 30
0.0
 10
1.210727712163546
 20
5.187968543274443
 30
0.0
 10
1.219550386382806
 20
5.187968543274443
 30
0.0
 10
1.225191730239899
 20
5.182677091927558
 30
0.0
 10
1.230838457058709
 20
5.177384294840258
 30
0.0
 10
1.230838457058709
 20
5.168213073851212
 30
0.0
 10
1.225191730239899
 20
5.162921622504335
 30
0.0
 10
1.222371058311352
 20
5.159745675103877
 30
0.0
 10
1.217784774946622
 20
5.15798275514853
 30
0.0
 10
1.213553767053795
 20
5.15798275514853
 30
0.0
  0
SPLINE
  5
34B
330
1F
100
AcDbEntity
  8
Livello 1
370
     0
100
AcDbSpline
210
0.0
220
0.0
230
1.0
 70
     9
 71
     3
 72
    23
 73
    19
 74
     0
 42
0.000000001
 43
0.0000000001
 40
0.0
 40
0.0
 40
0.0
 40
0.0
 40
1.0
 40
1.0
 40
1.0
 40
2.0
 40
2.0
 40
2.0
 40
3.0
 40
3.0
 40
3.0
 40
4.0
 40
4.0
 40
4.0
 40
5.0
 40
5.0
 40
5.0
 40
6.0
 40
6.0
 40
6.0
 40
6.0
 10
1.215319378489979
 20
5.158617944628623
 30
0.0
 10
1.207557147724799
 20
5.158617944628623
 30
0.0
 10
1.201205252923855
 20
5.164967147948708
 30
0.0
 10
1.201205252923855
 20
5.172728032973481
 30
0.0
 10
1.201205252923855
 20
5.172728032973481
 30
0.0
 10
1.201205252923855
 20
5.177314316338218
 30
0.0
 10
1.201205252923855
 20
5.177314316338218
 30
0.0
 10
1.201205252923855
 20
5.185075201363005
 30
0.0
 10
1.207557147724799
 20
5.191073166432452
 30
0.0
 10
1.215319378489979
 20
5.191073166432452
 30
0.0
 10
1.2230762262935
 20
5.191073166432452
 30
0.0
 10
1.229428121094429
 20
5.185075201363005
 30
0.0
 10
1.229428121094429
 20
5.177314316338218
 30
0.0
 10
1.229428121094429
 20
5.177314316338218
 30
0.0
 10
1.229428121094429
 20
5.172728032973481
 30
0.0
 10
1.229428121094429
 20
5.172728032973481
 30
0.0
 10
1.229428121094429
 20
5.164967147948708
 30
0.0
 10
1.2230762262935
 20
5.158617944628623
 30
0.0
 10
1.215319378489979
 20
5.158617944628623
 30
0.0
  0
SPLINE
  5
34C
330
1F
100
AcDbEntity
  8
Livello 1
370
     0
100
AcDbSpline
210
0.0
220
0.0
230
1.0
 70
     9
 71
     3
 72
    23
 73
    19
 74
     0
 42
0.000000001
 43
0.0000000001
 40
0.0
 40
0.0
 40
0.0
 40
0.0
 40
1.0
 40
1.0
 40
1.0
 40
2.0
 40
2.0
 40
2.0
 40
3.0
 40
3.0
 40
3.0
 40
4.0
 40
4.0
 40
4.0
 40
5.0
 40
5.0
 40
5.0
 40
6.0
 40
6.0
 40
6.0
 40
6.0
 10
1.215319378489979
 20
5.163097914499878
 30
0.0
 10
1.211788155617611
 20
5.163097914499878
 30
0.0
 10
1.208262315706917
 20
5.164508250464137
 30
0.0
 10
1.205436260816682
 20
5.167330268133127
 30
0.0
 10
1.199794916959575
 20
5.172621719479991
 30
0.0
 10
1.199794916959575
 20
5.181794286209473
 30
0.0
 10
1.205436260816682
 20
5.187085737556344
 30
0.0
 10
1.210733095125249
 20
5.192731118634725
 30
0.0
 10
1.220960722347086
 20
5.193788870607924
 30
0.0
 10
1.226252173693964
 20
5.188144835269966
 30
0.0
 10
1.231898900512746
 20
5.182853383923102
 30
0.0
 10
1.232953961005108
 20
5.175091153157893
 30
0.0
 10
1.22766250965823
 20
5.169447117819949
 30
0.0
 10
1.22766250965823
 20
5.169447117819949
 30
0.0
 10
1.225197113201602
 20
5.167330268133127
 30
0.0
 10
1.225197113201602
 20
5.167330268133127
 30
0.0
 10
1.222371058311352
 20
5.164508250464137
 30
0.0
 10
1.218845218400673
 20
5.163097914499878
 30
0.0
 10
1.215319378489979
 20
5.163097914499878
 30
0.0
  0
SPLINE
  5
34D
330
1F
100
AcDbEntity
  8
Livello 1
370
     0
100
AcDbSpline
210
0.0
220
0.0
230
1.0
 70
     9
 71
     3
 72
    20
 73
    16
 74
     0
 42
0.000000001
 43
0.0000000001
 40
0.0
 40
0.0
 40
0.0
 40
0.0
 40
1.0
 40
1.0
 40
1.0
 40
2.0
 40
2.0
 40
2.0
 40
3.0
 40
3.0
 40
3.0
 40
4.0
 40
4.0
 40
4.0
 40
5.0
 40
5.0
 40
5.0
 40
5.0
 10
8.754534040640578
 20
7.506282300273404
 30
0.0
 10
8.746771809875355
 20
7.506282300273404
 30
0.0
 10
8.74041991507444
 20
7.511573751620275
 30
0.0
 10
8.74041991507444
 20
7.519334636645055
 30
0.0
 10
8.74041991507444
 20
7.519334636645055
 30
0.0
 10
8.74041991507444
 20
7.521451486331883
 30
0.0
 10
8.74041991507444
 20
7.521451486331883
 30
0.0
 10
8.74041991507444
 20
7.529212371356663
 30
0.0
 10
8.746771809875355
 20
7.535561574676755
 30
0.0
 10
8.754534040640578
 20
7.535561574676755
 30
0.0
 10
8.762290888444084
 20
7.535561574676755
 30
0.0
 10
8.768642783244985
 20
7.529212371356663
 30
0.0
 10
8.768642783244985
 20
7.521451486331883
 30
0.0
 10
8.768642783244985
 20
7.513690601307096
 30
0.0
 10
8.762290888444084
 20
7.506282300273404
 30
0.0
 10
8.754534040640578
 20
7.506282300273404
 30
0.0
  0
SPLINE
  5
34E
330
1F
100
AcDbEntity
  8
Livello 1
370
     0
100
AcDbSpline
210
0.0
220
0.0
230
1.0
 70
     9
 71
     3
 72
    23
 73
    19
 74
     0
 42
0.000000001
 43
0.0000000001
 40
0.0
 40
0.0
 40
0.0
 40
0.0
 40
1.0
 40
1.0
 40
1.0
 40
2.0
 40
2.0
 40
2.0
 40
3.0
 40
3.0
 40
3.0
 40
4.0
 40
4.0
 40
4.0
 40
5.0
 40
5.0
 40
5.0
 40
6.0
 40
6.0
 40
6.0
 40
6.0
 10
8.754534040640578
 20
7.507447711480502
 30
0.0
 10
8.746771809875355
 20
7.507447711480502
 30
0.0
 10
8.74041991507444
 20
7.5137969148006
 30
0.0
 10
8.74041991507444
 20
7.521557799825373
 30
0.0
 10
8.74041991507444
 20
7.521557799825373
 30
0.0
 10
8.74041991507444
 20
7.901853277703395
 30
0.0
 10
8.74041991507444
 20
7.901853277703395
 30
0.0
 10
8.74041991507444
 20
7.909614162728168
 30
0.0
 10
8.746771809875355
 20
7.915963366048252
 30
0.0
 10
8.754534040640578
 20
7.915963366048252
 30
0.0
 10
8.762290888444084
 20
7.915963366048252
 30
0.0
 10
8.768642783244985
 20
7.909614162728168
 30
0.0
 10
8.768642783244985
 20
7.901853277703395
 30
0.0
 10
8.768642783244985
 20
7.901853277703395
 30
0.0
 10
8.768642783244985
 20
7.521557799825373
 30
0.0
 10
8.768642783244985
 20
7.521557799825373
 30
0.0
 10
8.768642783244985
 20
7.5137969148006
 30
0.0
 10
8.762290888444084
 20
7.507447711480502
 30
0.0
 10
8.754534040640578
 20
7.507447711480502
 30
0.0
  0
SPLINE
  5
34F
330
1F
100
AcDbEntity
  8
Livello 1
370
     0
100
AcDbSpline
210
0.0
220
0.0
230
1.0
 70
     9
 71
     3
 72
    23
 73
    19
 74
     0
 42
0.000000001
 43
0.0000000001
 40
0.0
 40
0.0
 40
0.0
 40
0.0
 40
1.0
 40
1.0
 40
1.0
 40
2.0
 40
2.0
 40
2.0
 40
3.0
 40
3.0
 40
3.0
 40
4.0
 40
4.0
 40
4.0
 40
5.0
 40
5.0
 40
5.0
 40
6.0
 40
6.0
 40
6.0
 40
6.0
 10
1.215319378489979
 20
5.158617944628623
 30
0.0
 10
1.207557147724799
 20
5.158617944628623
 30
0.0
 10
1.201205252923855
 20
5.164967147948708
 30
0.0
 10
1.201205252923855
 20
5.172728032973481
 30
0.0
 10
1.201205252923855
 20
5.172728032973481
 30
0.0
 10
1.201205252923855
 20
7.39029024165439
 30
0.0
 10
1.201205252923855
 20
7.39029024165439
 30
0.0
 10
1.201205252923855
 20
7.398051126679177
 30
0.0
 10
1.207557147724799
 20
7.404400329999248
 30
0.0
 10
1.215319378489979
 20
7.404400329999248
 30
0.0
 10
1.2230762262935
 20
7.404400329999248
 30
0.0
 10
1.229428121094429
 20
7.398051126679177
 30
0.0
 10
1.229428121094429
 20
7.39029024165439
 30
0.0
 10
1.229428121094429
 20
7.39029024165439
 30
0.0
 10
1.229428121094429
 20
5.172728032973481
 30
0.0
 10
1.229428121094429
 20
5.172728032973481
 30
0.0
 10
1.229428121094429
 20
5.164967147948708
 30
0.0
 10
1.2230762262935
 20
5.158617944628623
 30
0.0
 10
1.215319378489979
 20
5.158617944628623
 30
0.0
  0
SPLINE
  5
350
330
1F
100
AcDbEntity
  8
Livello 1
370
     0
100
AcDbSpline
210
0.0
220
0.0
230
1.0
 70
     9
 71
     3
 72
    20
 73
    16
 74
     0
 42
0.000000001
 43
0.0000000001
 40
0.0
 40
0.0
 40
0.0
 40
0.0
 40
1.0
 40
1.0
 40
1.0
 40
2.0
 40
2.0
 40
2.0
 40
3.0
 40
3.0
 40
3.0
 40
4.0
 40
4.0
 40
4.0
 40
5.0
 40
5.0
 40
5.0
 40
5.0
 10
1.215319378489979
 20
5.156324802946258
 30
0.0
 10
1.207557147724799
 20
5.156324802946258
 30
0.0
 10
1.200144809469819
 20
5.162674006266328
 30
0.0
 10
1.200144809469819
 20
5.170434891291108
 30
0.0
 10
1.200144809469819
 20
5.178195776315888
 30
0.0
 10
1.205436260816682
 20
5.184546325376395
 30
0.0
 10
1.213198491581863
 20
5.184546325376395
 30
0.0
 10
1.213198491581863
 20
5.184546325376395
 30
0.0
 10
1.215319378489979
 20
5.184546325376395
 30
0.0
 10
1.215319378489979
 20
5.184546325376395
 30
0.0
 10
1.2230762262935
 20
5.184546325376395
 30
0.0
 10
1.229428121094429
 20
5.178195776315888
 30
0.0
 10
1.229428121094429
 20
5.170434891291108
 30
0.0
 10
1.229428121094429
 20
5.162674006266328
 30
0.0
 10
1.2230762262935
 20
5.156324802946258
 30
0.0
 10
1.215319378489979
 20
5.156324802946258
 30
0.0
  0
SPLINE
  5
351
330
1F
100
AcDbEntity
  8
Livello 1
370
     0
100
AcDbSpline
210
0.0
220
0.0
230
1.0
 70
     9
 71
     3
 72
    23
 73
    19
 74
     0
 42
0.000000001
 43
0.0000000001
 40
0.0
 40
0.0
 40
0.0
 40
0.0
 40
1.0
 40
1.0
 40
1.0
 40
2.0
 40
2.0
 40
2.0
 40
3.0
 40
3.0
 40
3.0
 40
4.0
 40
4.0
 40
4.0
 40
5.0
 40
5.0
 40
5.0
 40
6.0
 40
6.0
 40
6.0
 40
6.0
 10
1.213096215309661
 20
7.370180842499671
 30
0.0
 10
1.205333984544452
 20
7.370180842499671
 30
0.0
 10
1.198982089743523
 20
7.376530045819748
 30
0.0
 10
1.198982089743523
 20
7.384290930844528
 30
0.0
 10
1.198982089743523
 20
7.384290930844528
 30
0.0
 10
1.198982089743523
 20
7.530341447572347
 30
0.0
 10
1.198982089743523
 20
7.530341447572347
 30
0.0
 10
1.198982089743523
 20
7.538102332597127
 30
0.0
 10
1.205333984544452
 20
7.544452881657619
 30
0.0
 10
1.213096215309661
 20
7.544452881657619
 30
0.0
 10
1.220853063113167
 20
7.544452881657619
 30
0.0
 10
1.227204957914096
 20
7.538102332597127
 30
0.0
 10
1.227204957914096
 20
7.530341447572347
 30
0.0
 10
1.227204957914096
 20
7.530341447572347
 30
0.0
 10
1.227204957914096
 20
7.384290930844528
 30
0.0
 10
1.227204957914096
 20
7.384290930844528
 30
0.0
 10
1.227204957914096
 20
7.376530045819748
 30
0.0
 10
1.220853063113167
 20
7.370180842499671
 30
0.0
 10
1.213096215309661
 20
7.370180842499671
 30
0.0
  0
SPLINE
  5
352
330
1F
100
AcDbEntity
  8
Livello 1
370
     0
100
AcDbSpline
210
0.0
220
0.0
230
1.0
 70
     9
 71
     3
 72
    23
 73
    19
 74
     0
 42
0.000000001
 43
0.0000000001
 40
0.0
 40
0.0
 40
0.0
 40
0.0
 40
1.0
 40
1.0
 40
1.0
 40
2.0
 40
2.0
 40
2.0
 40
3.0
 40
3.0
 40
3.0
 40
4.0
 40
4.0
 40
4.0
 40
5.0
 40
5.0
 40
5.0
 40
6.0
 40
6.0
 40
6.0
 40
6.0
 10
1.213096215309661
 20
7.516442640474032
 30
0.0
 10
1.205333984544452
 20
7.516442640474032
 30
0.0
 10
1.198982089743523
 20
7.522791843794109
 30
0.0
 10
1.198982089743523
 20
7.530552728818896
 30
0.0
 10
1.198982089743523
 20
7.530552728818896
 30
0.0
 10
1.198982089743523
 20
7.904145073645345
 30
0.0
 10
1.198982089743523
 20
7.904145073645345
 30
0.0
 10
1.198982089743523
 20
7.911905958670125
 30
0.0
 10
1.205333984544452
 20
7.917902577999136
 30
0.0
 10
1.213096215309661
 20
7.917902577999136
 30
0.0
 10
1.220853063113167
 20
7.917902577999136
 30
0.0
 10
1.227204957914096
 20
7.911905958670125
 30
0.0
 10
1.227204957914096
 20
7.904145073645345
 30
0.0
 10
1.227204957914096
 20
7.904145073645345
 30
0.0
 10
1.227204957914096
 20
7.530552728818896
 30
0.0
 10
1.227204957914096
 20
7.530552728818896
 30
0.0
 10
1.227204957914096
 20
7.522791843794109
 30
0.0
 10
1.220853063113167
 20
7.516442640474032
 30
0.0
 10
1.213096215309661
 20
7.516442640474032
 30
0.0
  0
SPLINE
  5
353
330
1F
100
AcDbEntity
  8
Livello 1
370
     0
100
AcDbSpline
210
0.0
220
0.0
230
1.0
 70
     9
 71
     3
 72
    23
 73
    19
 74
     0
 42
0.000000001
 43
0.0000000001
 40
0.0
 40
0.0
 40
0.0
 40
0.0
 40
1.0
 40
1.0
 40
1.0
 40
2.0
 40
2.0
 40
2.0
 40
3.0
 40
3.0
 40
3.0
 40
4.0
 40
4.0
 40
4.0
 40
5.0
 40
5.0
 40
5.0
 40
6.0
 40
6.0
 40
6.0
 40
6.0
 10
1.215319378489979
 20
7.507447711480502
 30
0.0
 10
1.207557147724799
 20
7.507447711480502
 30
0.0
 10
1.201205252923855
 20
7.5137969148006
 30
0.0
 10
1.201205252923855
 20
7.521557799825373
 30
0.0
 10
1.201205252923855
 20
7.521557799825373
 30
0.0
 10
1.201205252923855
 20
7.901853277703395
 30
0.0
 10
1.201205252923855
 20
7.901853277703395
 30
0.0
 10
1.201205252923855
 20
7.909614162728168
 30
0.0
 10
1.207557147724799
 20
7.915963366048252
 30
0.0
 10
1.215319378489979
 20
7.915963366048252
 30
0.0
 10
1.2230762262935
 20
7.915963366048252
 30
0.0
 10
1.229428121094429
 20
7.909614162728168
 30
0.0
 10
1.229428121094429
 20
7.901853277703395
 30
0.0
 10
1.229428121094429
 20
7.901853277703395
 30
0.0
 10
1.229428121094429
 20
7.521557799825373
 30
0.0
 10
1.229428121094429
 20
7.521557799825373
 30
0.0
 10
1.229428121094429
 20
7.5137969148006
 30
0.0
 10
1.2230762262935
 20
7.507447711480502
 30
0.0
 10
1.215319378489979
 20
7.507447711480502
 30
0.0
  0
SPLINE
  5
354
330
1F
100
AcDbEntity
  8
Livello 1
370
     0
100
AcDbSpline
210
0.0
220
0.0
230
1.0
 70
     9
 71
     3
 72
    26
 73
    22
 74
     0
 42
0.000000001
 43
0.0000000001
 40
0.0
 40
0.0
 40
0.0
 40
0.0
 40
1.0
 40
1.0
 40
1.0
 40
2.0
 40
2.0
 40
2.0
 40
3.0
 40
3.0
 40
3.0
 40
4.0
 40
4.0
 40
4.0
 40
5.0
 40
5.0
 40
5.0
 40
6.0
 40
6.0
 40
6.0
 40
7.0
 40
7.0
 40
7.0
 40
7.0
 10
1.213096215309661
 20
7.36344272019707
 30
0.0
 10
1.209564992437279
 20
7.36344272019707
 30
0.0
 10
1.206039152526599
 20
7.364853056161351
 30
0.0
 10
1.20321309763635
 20
7.367675073830319
 30
0.0
 10
1.20321309763635
 20
7.367675073830319
 30
0.0
 10
1.198632197233308
 20
7.371908773203998
 30
0.0
 10
1.198632197233308
 20
7.371908773203998
 30
0.0
 10
1.193335362924727
 20
7.377552808541928
 30
0.0
 10
1.193335362924727
 20
7.386372791280351
 30
0.0
 10
1.198632197233308
 20
7.392016826618295
 30
0.0
 10
1.204273541090401
 20
7.397308277965166
 30
0.0
 10
1.213096215309661
 20
7.397308277965166
 30
0.0
 10
1.218737559166768
 20
7.392016826618295
 30
0.0
 10
1.218737559166768
 20
7.392016826618295
 30
0.0
 10
1.22297395002127
 20
7.387430543253557
 30
0.0
 10
1.22297395002127
 20
7.387430543253557
 30
0.0
 10
1.228615293878377
 20
7.382139091906672
 30
0.0
 10
1.228615293878377
 20
7.372966525177204
 30
0.0
 10
1.22297395002127
 20
7.367675073830319
 30
0.0
 10
1.220147895131049
 20
7.364853056161351
 30
0.0
 10
1.216622055220341
 20
7.36344272019707
 30
0.0
 10
1.213096215309661
 20
7.36344272019707
 30
0.0
  0
SPLINE
  5
355
330
1F
100
AcDbEntity
  8
Livello 1
370
     0
100
AcDbSpline
210
0.0
220
0.0
230
1.0
 70
     9
 71
     3
 72
    26
 73
    22
 74
     0
 42
0.000000001
 43
0.0000000001
 40
0.0
 40
0.0
 40
0.0
 40
0.0
 40
1.0
 40
1.0
 40
1.0
 40
2.0
 40
2.0
 40
2.0
 40
3.0
 40
3.0
 40
3.0
 40
4.0
 40
4.0
 40
4.0
 40
5.0
 40
5.0
 40
5.0
 40
6.0
 40
6.0
 40
6.0
 40
7.0
 40
7.0
 40
7.0
 40
7.0
 10
8.759012664771361
 20
7.36344272019707
 30
0.0
 10
8.755481441899007
 20
7.36344272019707
 30
0.0
 10
8.751955601988314
 20
7.364853056161351
 30
0.0
 10
8.749129547098078
 20
7.367675073830319
 30
0.0
 10
8.743488203240971
 20
7.372966525177204
 30
0.0
 10
8.743488203240971
 20
7.382139091906672
 30
0.0
 10
8.749129547098078
 20
7.387430543253557
 30
0.0
 10
8.749129547098078
 20
7.387430543253557
 30
0.0
 10
8.753365937952594
 20
7.392016826618295
 30
0.0
 10
8.753365937952594
 20
7.392016826618295
 30
0.0
 10
8.759012664771361
 20
7.397308277965166
 30
0.0
 10
8.767829956028961
 20
7.397308277965166
 30
0.0
 10
8.773471299886054
 20
7.392016826618295
 30
0.0
 10
8.778768134194606
 20
7.386372791280351
 30
0.0
 10
8.778768134194606
 20
7.377552808541928
 30
0.0
 10
8.773471299886054
 20
7.371908773203998
 30
0.0
 10
8.773471299886054
 20
7.371908773203998
 30
0.0
 10
8.768890399482998
 20
7.367675073830319
 30
0.0
 10
8.768890399482998
 20
7.367675073830319
 30
0.0
 10
8.766064344592734
 20
7.364853056161351
 30
0.0
 10
8.762538504682083
 20
7.36344272019707
 30
0.0
 10
8.759012664771361
 20
7.36344272019707
 30
0.0
  0
SPLINE
  5
356
330
1F
100
AcDbEntity
  8
Livello 1
370
     0
100
AcDbSpline
210
0.0
220
0.0
230
1.0
 70
     9
 71
     3
 72
    20
 73
    16
 74
     0
 42
0.000000001
 43
0.0000000001
 40
0.0
 40
0.0
 40
0.0
 40
0.0
 40
1.0
 40
1.0
 40
1.0
 40
2.0
 40
2.0
 40
2.0
 40
3.0
 40
3.0
 40
3.0
 40
4.0
 40
4.0
 40
4.0
 40
5.0
 40
5.0
 40
5.0
 40
5.0
 10
9.955919580772629
 20
7.515313564258356
 30
0.0
 10
9.948157350007406
 20
7.515313564258356
 30
0.0
 10
9.941805455206491
 20
7.520605015605234
 30
0.0
 10
9.941805455206491
 20
7.528365900630006
 30
0.0
 10
9.941805455206491
 20
7.528365900630006
 30
0.0
 10
9.941805455206491
 20
7.530482750316849
 30
0.0
 10
9.941805455206491
 20
7.530482750316849
 30
0.0
 10
9.941805455206491
 20
7.538243635341636
 30
0.0
 10
9.948157350007406
 20
7.544592838661714
 30
0.0
 10
9.955919580772629
 20
7.544592838661714
 30
0.0
 10
9.963676428576121
 20
7.544592838661714
 30
0.0
 10
9.970028323377036
 20
7.538243635341636
 30
0.0
 10
9.970028323377036
 20
7.530482750316849
 30
0.0
 10
9.970028323377036
 20
7.522721865292076
 30
0.0
 10
9.963676428576121
 20
7.515313564258356
 30
0.0
 10
9.955919580772629
 20
7.515313564258356
 30
0.0
  0
SPLINE
  5
357
330
1F
100
AcDbEntity
  8
Livello 1
370
     0
100
AcDbSpline
210
0.0
220
0.0
230
1.0
 70
     9
 71
     3
 72
    23
 73
    19
 74
     0
 42
0.000000001
 43
0.0000000001
 40
0.0
 40
0.0
 40
0.0
 40
0.0
 40
1.0
 40
1.0
 40
1.0
 40
2.0
 40
2.0
 40
2.0
 40
3.0
 40
3.0
 40
3.0
 40
4.0
 40
4.0
 40
4.0
 40
5.0
 40
5.0
 40
5.0
 40
6.0
 40
6.0
 40
6.0
 40
6.0
 10
0.0161570015382608
 20
7.514185833783116
 30
0.0
 10
0.0126284701467086
 20
7.514185833783116
 30
0.0
 10
0.0090999387551989
 20
7.515596169747382
 30
0.0
 10
0.0062765753457938
 20
7.518418187416358
 30
0.0
 10
0.0006325400078566
 20
7.523709638763236
 30
0.0
 10
-0.0004252119653358
 20
7.53394130320634
 30
0.0
 10
0.0052188233725872
 20
7.539232754553218
 30
0.0
 10
0.010510274719465
 20
7.544876789891169
 30
0.0
 10
0.01827250548466
 20
7.545934541864376
 30
0.0
 10
0.0239165408226114
 20
7.540643090517491
 30
0.0
 10
0.0239165408226114
 20
7.540643090517491
 30
0.0
 10
0.0260347362498692
 20
7.538173656839589
 30
0.0
 10
0.0260347362498692
 20
7.538173656839589
 30
0.0
 10
0.0316787715878348
 20
7.532882205492711
 30
0.0
 10
0.0316787715878348
 20
7.523709638763236
 30
0.0
 10
0.0260347362498692
 20
7.518418187416358
 30
0.0
 10
0.0232113728404784
 20
7.515596169747382
 30
0.0
 10
0.0196828414489403
 20
7.514185833783116
 30
0.0
 10
0.0161570015382608
 20
7.514185833783116
 30
0.0
  0
SPLINE
  5
358
330
1F
100
AcDbEntity
  8
Livello 1
370
     0
100
AcDbSpline
210
0.0
220
0.0
230
1.0
 70
     9
 71
     3
 72
    23
 73
    19
 74
     0
 42
0.000000001
 43
0.0000000001
 40
0.0
 40
0.0
 40
0.0
 40
0.0
 40
1.0
 40
1.0
 40
1.0
 40
2.0
 40
2.0
 40
2.0
 40
3.0
 40
3.0
 40
3.0
 40
4.0
 40
4.0
 40
4.0
 40
5.0
 40
5.0
 40
5.0
 40
6.0
 40
6.0
 40
6.0
 40
6.0
 10
0.0161570015382608
 20
5.41498149538647
 30
0.0
 10
0.0083947707730516
 20
5.41498149538647
 30
0.0
 10
0.0020455674529671
 20
5.421330698706555
 30
0.0
 10
0.0020455674529671
 20
5.429091583731327
 30
0.0
 10
0.0020455674529671
 20
5.429091583731327
 30
0.0
 10
0.0020455674529671
 20
6.801396923625347
 30
0.0
 10
0.0020455674529671
 20
6.801396923625347
 30
0.0
 10
0.0020455674529671
 20
6.809159154390556
 30
0.0
 10
0.0083947707730516
 20
6.815508357710619
 30
0.0
 10
0.0161570015382608
 20
6.815508357710619
 30
0.0
 10
0.0239165408226114
 20
6.815508357710619
 30
0.0
 10
0.0302657441426959
 20
6.809159154390556
 30
0.0
 10
0.0302657441426959
 20
6.801396923625347
 30
0.0
 10
0.0302657441426959
 20
6.801396923625347
 30
0.0
 10
0.0302657441426959
 20
5.429091583731327
 30
0.0
 10
0.0302657441426959
 20
5.429091583731327
 30
0.0
 10
0.0302657441426959
 20
5.421330698706555
 30
0.0
 10
0.0239165408226114
 20
5.41498149538647
 30
0.0
 10
0.0161570015382608
 20
5.41498149538647
 30
0.0
  0
SPLINE
  5
359
330
1F
100
AcDbEntity
  8
Livello 1
370
     0
100
AcDbSpline
210
0.0
220
0.0
230
1.0
 70
     9
 71
     3
 72
    26
 73
    22
 74
     0
 42
0.000000001
 43
0.0000000001
 40
0.0
 40
0.0
 40
0.0
 40
0.0
 40
1.0
 40
1.0
 40
1.0
 40
2.0
 40
2.0
 40
2.0
 40
3.0
 40
3.0
 40
3.0
 40
4.0
 40
4.0
 40
4.0
 40
5.0
 40
5.0
 40
5.0
 40
6.0
 40
6.0
 40
6.0
 40
7.0
 40
7.0
 40
7.0
 40
7.0
 10
9.955919580772629
 20
6.128262946539393
 30
0.0
 10
9.948157350007406
 20
6.128262946539393
 30
0.0
 10
9.941805455206491
 20
6.134612149859485
 30
0.0
 10
9.941805455206491
 20
6.142373034884258
 30
0.0
 10
9.941805455206491
 20
6.142373034884258
 30
0.0
 10
9.941805455206491
 20
6.801361934374327
 30
0.0
 10
9.941805455206491
 20
6.801361934374327
 30
0.0
 10
9.941805455206491
 20
6.8091228193991
 30
0.0
 10
9.948157350007406
 20
6.815473368459599
 30
0.0
 10
9.955919580772629
 20
6.815473368459599
 30
0.0
 10
9.963676428576121
 20
6.815473368459599
 30
0.0
 10
9.971088766831115
 20
6.8091228193991
 30
0.0
 10
9.971088766831115
 20
6.801361934374327
 30
0.0
 10
9.971088766831115
 20
6.799245084687484
 30
0.0
 10
9.970733491359197
 20
6.797482164732144
 30
0.0
 10
9.970028323377036
 20
6.795365315045309
 30
0.0
 10
9.970028323377036
 20
6.795365315045309
 30
0.0
 10
9.970028323377036
 20
6.142373034884258
 30
0.0
 10
9.970028323377036
 20
6.142373034884258
 30
0.0
 10
9.970028323377036
 20
6.134612149859485
 30
0.0
 10
9.963676428576121
 20
6.128262946539393
 30
0.0
 10
9.955919580772629
 20
6.128262946539393
 30
0.0
  0
SPLINE
  5
35A
330
1F
100
AcDbEntity
  8
Livello 1
370
     0
100
AcDbSpline
210
0.0
220
0.0
230
1.0
 70
     9
 71
     3
 72
    20
 73
    16
 74
     0
 42
0.000000001
 43
0.0000000001
 40
0.0
 40
0.0
 40
0.0
 40
0.0
 40
1.0
 40
1.0
 40
1.0
 40
2.0
 40
2.0
 40
2.0
 40
3.0
 40
3.0
 40
3.0
 40
4.0
 40
4.0
 40
4.0
 40
5.0
 40
5.0
 40
5.0
 40
5.0
 10
0.0161570015382608
 20
6.787498116527032
 30
0.0
 10
0.0161570015382608
 20
6.787498116527032
 30
0.0
 10
0.0140388061110031
 20
6.787498116527032
 30
0.0
 10
0.0140388061110031
 20
6.787498116527032
 30
0.0
 10
0.0062765753457938
 20
6.787498116527032
 30
0.0
 10
-0.0000726279742764
 20
6.793847319847131
 30
0.0
 10
-0.0000726279742764
 20
6.801608204871897
 30
0.0
 10
-0.0000726279742764
 20
6.809369089896669
 30
0.0
 10
0.0062765753457938
 20
6.815719638957176
 30
0.0
 10
0.0140388061110031
 20
6.815719638957176
 30
0.0
 10
0.0218010368761981
 20
6.815719638957176
 30
0.0
 10
0.0292079921694892
 20
6.809369089896669
 30
0.0
 10
0.0292079921694892
 20
6.801608204871897
 30
0.0
 10
0.0292079921694892
 20
6.793847319847131
 30
0.0
 10
0.0239165408226114
 20
6.787498116527032
 30
0.0
 10
0.0161570015382608
 20
6.787498116527032
 30
0.0
  0
SPLINE
  5
35B
330
1F
100
AcDbEntity
  8
Livello 1
370
     0
100
AcDbSpline
210
0.0
220
0.0
230
1.0
 70
     9
 71
     3
 72
    23
 73
    19
 74
     0
 42
0.000000001
 43
0.0000000001
 40
0.0
 40
0.0
 40
0.0
 40
0.0
 40
1.0
 40
1.0
 40
1.0
 40
2.0
 40
2.0
 40
2.0
 40
3.0
 40
3.0
 40
3.0
 40
4.0
 40
4.0
 40
4.0
 40
5.0
 40
5.0
 40
5.0
 40
6.0
 40
6.0
 40
6.0
 40
6.0
 10
9.955919580772629
 20
7.388208381218568
 30
0.0
 10
9.948157350007406
 20
7.388208381218568
 30
0.0
 10
9.941805455206491
 20
7.394557584538659
 30
0.0
 10
9.941805455206491
 20
7.402318469563446
 30
0.0
 10
9.941805455206491
 20
7.402318469563446
 30
0.0
 10
9.941805455206491
 20
7.528260932876953
 30
0.0
 10
9.941805455206491
 20
7.528260932876953
 30
0.0
 10
9.941805455206491
 20
7.53602181790174
 30
0.0
 10
9.948157350007406
 20
7.542371021221811
 30
0.0
 10
9.955919580772629
 20
7.542371021221811
 30
0.0
 10
9.963676428576121
 20
7.542371021221811
 30
0.0
 10
9.970028323377036
 20
7.53602181790174
 30
0.0
 10
9.970028323377036
 20
7.528260932876953
 30
0.0
 10
9.970028323377036
 20
7.528260932876953
 30
0.0
 10
9.970028323377036
 20
7.402318469563446
 30
0.0
 10
9.970028323377036
 20
7.402318469563446
 30
0.0
 10
9.970028323377036
 20
7.394557584538659
 30
0.0
 10
9.963676428576121
 20
7.388208381218568
 30
0.0
 10
9.955919580772629
 20
7.388208381218568
 30
0.0
  0
SPLINE
  5
35C
330
1F
100
AcDbEntity
  8
Livello 1
370
     0
100
AcDbSpline
210
0.0
220
0.0
230
1.0
 70
     9
 71
     3
 72
    23
 73
    19
 74
     0
 42
0.000000001
 43
0.0000000001
 40
0.0
 40
0.0
 40
0.0
 40
0.0
 40
1.0
 40
1.0
 40
1.0
 40
2.0
 40
2.0
 40
2.0
 40
3.0
 40
3.0
 40
3.0
 40
4.0
 40
4.0
 40
4.0
 40
5.0
 40
5.0
 40
5.0
 40
6.0
 40
6.0
 40
6.0
 40
6.0
 10
0.0161570015382608
 20
7.388208381218568
 30
0.0
 10
0.0083947707730516
 20
7.388208381218568
 30
0.0
 10
0.0020455674529671
 20
7.394557584538659
 30
0.0
 10
0.0020455674529671
 20
7.402318469563446
 30
0.0
 10
0.0020455674529671
 20
7.402318469563446
 30
0.0
 10
0.0020455674529671
 20
7.528260932876953
 30
0.0
 10
0.0020455674529671
 20
7.528260932876953
 30
0.0
 10
0.0020455674529671
 20
7.53602181790174
 30
0.0
 10
0.0083947707730516
 20
7.542371021221811
 30
0.0
 10
0.0161570015382608
 20
7.542371021221811
 30
0.0
 10
0.0239165408226114
 20
7.542371021221811
 30
0.0
 10
0.0302657441426959
 20
7.53602181790174
 30
0.0
 10
0.0302657441426959
 20
7.528260932876953
 30
0.0
 10
0.0302657441426959
 20
7.528260932876953
 30
0.0
 10
0.0302657441426959
 20
7.402318469563446
 30
0.0
 10
0.0302657441426959
 20
7.402318469563446
 30
0.0
 10
0.0302657441426959
 20
7.394557584538659
 30
0.0
 10
0.0239165408226114
 20
7.388208381218568
 30
0.0
 10
0.0161570015382608
 20
7.388208381218568
 30
0.0
  0
SPLINE
  5
35D
330
1F
100
AcDbEntity
  8
Livello 1
370
     0
100
AcDbSpline
210
0.0
220
0.0
230
1.0
 70
     9
 71
     3
 72
    26
 73
    22
 74
     0
 42
0.000000001
 43
0.0000000001
 40
0.0
 40
0.0
 40
0.0
 40
0.0
 40
1.0
 40
1.0
 40
1.0
 40
2.0
 40
2.0
 40
2.0
 40
3.0
 40
3.0
 40
3.0
 40
4.0
 40
4.0
 40
4.0
 40
5.0
 40
5.0
 40
5.0
 40
6.0
 40
6.0
 40
6.0
 40
7.0
 40
7.0
 40
7.0
 40
7.0
 10
9.958212722454987
 20
7.388208381218568
 30
0.0
 10
9.950450491689778
 20
7.388208381218568
 30
0.0
 10
9.941983092942422
 20
7.394557584538659
 30
0.0
 10
9.941983092942422
 20
7.402318469563446
 30
0.0
 10
9.941983092942422
 20
7.402318469563446
 30
0.0
 10
9.941983092942422
 20
7.530377782563782
 30
0.0
 10
9.941983092942422
 20
7.530377782563782
 30
0.0
 10
9.941983092942422
 20
7.538138667588562
 30
0.0
 10
9.948329604781662
 20
7.544487870908646
 30
0.0
 10
9.956091835546871
 20
7.544487870908646
 30
0.0
 10
9.96385406631208
 20
7.544487870908646
 30
0.0
 10
9.969850685641091
 20
7.538138667588562
 30
0.0
 10
9.969850685641091
 20
7.530377782563782
 30
0.0
 10
9.969850685641091
 20
7.530377782563782
 30
0.0
 10
9.969850685641091
 20
7.407609920910324
 30
0.0
 10
9.969850685641091
 20
7.407609920910324
 30
0.0
 10
9.970911129095128
 20
7.40584700095497
 30
0.0
 10
9.971261021605357
 20
7.404082735259201
 30
0.0
 10
9.971261021605357
 20
7.402318469563446
 30
0.0
 10
9.971261021605357
 20
7.394557584538659
 30
0.0
 10
9.965969570258479
 20
7.388208381218568
 30
0.0
 10
9.958212722454987
 20
7.388208381218568
 30
0.0
  0
SPLINE
  5
35E
330
1F
100
AcDbEntity
  8
Livello 1
370
     0
100
AcDbSpline
210
0.0
220
0.0
230
1.0
 70
     9
 71
     3
 72
    20
 73
    16
 74
     0
 42
0.000000001
 43
0.0000000001
 40
0.0
 40
0.0
 40
0.0
 40
0.0
 40
1.0
 40
1.0
 40
1.0
 40
2.0
 40
2.0
 40
2.0
 40
3.0
 40
3.0
 40
3.0
 40
4.0
 40
4.0
 40
4.0
 40
5.0
 40
5.0
 40
5.0
 40
5.0
 10
0.0161570015382608
 20
7.388208381218568
 30
0.0
 10
0.0083947707730516
 20
7.388208381218568
 30
0.0
 10
0.000985123998916
 20
7.394557584538659
 30
0.0
 10
0.000985123998916
 20
7.402318469563446
 30
0.0
 10
0.000985123998916
 20
7.410079354588212
 30
0.0
 10
0.0062765753457938
 20
7.416429903648719
 30
0.0
 10
0.0140388061110031
 20
7.416429903648719
 30
0.0
 10
0.0140388061110031
 20
7.416429903648719
 30
0.0
 10
0.0161570015382608
 20
7.416429903648719
 30
0.0
 10
0.0161570015382608
 20
7.416429903648719
 30
0.0
 10
0.0239165408226114
 20
7.416429903648719
 30
0.0
 10
0.0302657441426959
 20
7.410079354588212
 30
0.0
 10
0.0302657441426959
 20
7.402318469563446
 30
0.0
 10
0.0302657441426959
 20
7.394557584538659
 30
0.0
 10
0.0239165408226114
 20
7.388208381218568
 30
0.0
 10
0.0161570015382608
 20
7.388208381218568
 30
0.0
  0
SPLINE
  5
35F
330
1F
100
AcDbEntity
  8
Livello 1
370
     0
100
AcDbSpline
210
0.0
220
0.0
230
1.0
 70
     9
 71
     3
 72
    23
 73
    19
 74
     0
 42
0.000000001
 43
0.0000000001
 40
0.0
 40
0.0
 40
0.0
 40
0.0
 40
1.0
 40
1.0
 40
1.0
 40
2.0
 40
2.0
 40
2.0
 40
3.0
 40
3.0
 40
3.0
 40
4.0
 40
4.0
 40
4.0
 40
5.0
 40
5.0
 40
5.0
 40
6.0
 40
6.0
 40
6.0
 40
6.0
 10
0.0138988491069085
 20
7.388208381218568
 30
0.0
 10
0.0061366183417135
 20
7.388208381218568
 30
0.0
 10
-0.0002125849783852
 20
7.394557584538659
 30
0.0
 10
-0.0002125849783852
 20
7.402318469563446
 30
0.0
 10
-0.0002125849783852
 20
7.402318469563446
 30
0.0
 10
-0.0002125849783852
 20
7.530377782563782
 30
0.0
 10
-0.0002125849783852
 20
7.530377782563782
 30
0.0
 10
-0.0002125849783852
 20
7.538138667588562
 30
0.0
 10
0.0061366183417135
 20
7.544487870908646
 30
0.0
 10
0.0138988491069085
 20
7.544487870908646
 30
0.0
 10
0.0216583883912591
 20
7.544487870908646
 30
0.0
 10
0.0280075917113436
 20
7.538138667588562
 30
0.0
 10
0.0280075917113436
 20
7.530377782563782
 30
0.0
 10
0.0280075917113436
 20
7.530377782563782
 30
0.0
 10
0.0280075917113436
 20
7.402318469563446
 30
0.0
 10
0.0280075917113436
 20
7.402318469563446
 30
0.0
 10
0.0280075917113436
 20
7.394557584538659
 30
0.0
 10
0.0216583883912591
 20
7.388208381218568
 30
0.0
 10
0.0138988491069085
 20
7.388208381218568
 30
0.0
  0
SPLINE
  5
360
330
1F
100
AcDbEntity
  8
Livello 1
370
     0
100
AcDbSpline
210
0.0
220
0.0
230
1.0
 70
     9
 71
     3
 72
    23
 73
    19
 74
     0
 42
0.000000001
 43
0.0000000001
 40
0.0
 40
0.0
 40
0.0
 40
0.0
 40
1.0
 40
1.0
 40
1.0
 40
2.0
 40
2.0
 40
2.0
 40
3.0
 40
3.0
 40
3.0
 40
4.0
 40
4.0
 40
4.0
 40
5.0
 40
5.0
 40
5.0
 40
6.0
 40
6.0
 40
6.0
 40
6.0
 10
9.955919580772629
 20
7.516442640474032
 30
0.0
 10
9.948157350007406
 20
7.516442640474032
 30
0.0
 10
9.941805455206491
 20
7.522791843794109
 30
0.0
 10
9.941805455206491
 20
7.530552728818896
 30
0.0
 10
9.941805455206491
 20
7.530552728818896
 30
0.0
 10
9.941805455206491
 20
7.654378342445568
 30
0.0
 10
9.941805455206491
 20
7.654378342445568
 30
0.0
 10
9.941805455206491
 20
7.662139227470355
 30
0.0
 10
9.948157350007406
 20
7.668135846799359
 30
0.0
 10
9.955919580772629
 20
7.668135846799359
 30
0.0
 10
9.963676428576121
 20
7.668135846799359
 30
0.0
 10
9.970028323377036
 20
7.662139227470355
 30
0.0
 10
9.970028323377036
 20
7.654378342445568
 30
0.0
 10
9.970028323377036
 20
7.654378342445568
 30
0.0
 10
9.970028323377036
 20
7.530552728818896
 30
0.0
 10
9.970028323377036
 20
7.530552728818896
 30
0.0
 10
9.970028323377036
 20
7.522791843794109
 30
0.0
 10
9.963676428576121
 20
7.516442640474032
 30
0.0
 10
9.955919580772629
 20
7.516442640474032
 30
0.0
  0
SPLINE
  5
361
330
1F
100
AcDbEntity
  8
Livello 1
370
     0
100
AcDbSpline
210
0.0
220
0.0
230
1.0
 70
     9
 71
     3
 72
    23
 73
    19
 74
     0
 42
0.000000001
 43
0.0000000001
 40
0.0
 40
0.0
 40
0.0
 40
0.0
 40
1.0
 40
1.0
 40
1.0
 40
2.0
 40
2.0
 40
2.0
 40
3.0
 40
3.0
 40
3.0
 40
4.0
 40
4.0
 40
4.0
 40
5.0
 40
5.0
 40
5.0
 40
6.0
 40
6.0
 40
6.0
 40
6.0
 10
9.955919580772629
 20
5.403798392463649
 30
0.0
 10
9.948157350007406
 20
5.403798392463649
 30
0.0
 10
9.941805455206491
 20
5.410147595783733
 30
0.0
 10
9.941805455206491
 20
5.417908480808499
 30
0.0
 10
9.941805455206491
 20
5.417908480808499
 30
0.0
 10
9.941805455206491
 20
6.142161753637708
 30
0.0
 10
9.941805455206491
 20
6.142161753637708
 30
0.0
 10
9.941805455206491
 20
6.149922638662481
 30
0.0
 10
9.948157350007406
 20
6.156273187722987
 30
0.0
 10
9.955919580772629
 20
6.156273187722987
 30
0.0
 10
9.963676428576121
 20
6.156273187722987
 30
0.0
 10
9.970028323377036
 20
6.149922638662481
 30
0.0
 10
9.970028323377036
 20
6.142161753637708
 30
0.0
 10
9.970028323377036
 20
6.142161753637708
 30
0.0
 10
9.970028323377036
 20
5.417908480808499
 30
0.0
 10
9.970028323377036
 20
5.417908480808499
 30
0.0
 10
9.970028323377036
 20
5.410147595783733
 30
0.0
 10
9.963676428576121
 20
5.403798392463649
 30
0.0
 10
9.955919580772629
 20
5.403798392463649
 30
0.0
  0
SPLINE
  5
362
330
1F
100
AcDbEntity
  8
Livello 1
370
     0
100
AcDbSpline
210
0.0
220
0.0
230
1.0
 70
     9
 71
     3
 72
    53
 73
    49
 74
     0
 42
0.000000001
 43
0.0000000001
 40
0.0
 40
0.0
 40
0.0
 40
0.0
 40
1.0
 40
1.0
 40
1.0
 40
2.0
 40
2.0
 40
2.0
 40
3.0
 40
3.0
 40
3.0
 40
4.0
 40
4.0
 40
4.0
 40
5.0
 40
5.0
 40
5.0
 40
6.0
 40
6.0
 40
6.0
 40
7.0
 40
7.0
 40
7.0
 40
8.0
 40
8.0
 40
8.0
 40
9.0
 40
9.0
 40
9.0
 40
10.0
 40
10.0
 40
10.0
 40
11.0
 40
11.0
 40
11.0
 40
12.0
 40
12.0
 40
12.0
 40
13.0
 40
13.0
 40
13.0
 40
14.0
 40
14.0
 40
14.0
 40
15.0
 40
15.0
 40
15.0
 40
16.0
 40
16.0
 40
16.0
 40
16.0
 10
0.0139365298387873
 20
7.640161940607214
 30
0.0
 10
0.0128760863847219
 20
7.640161940607214
 30
0.0
 10
0.0121709184025889
 20
7.640161940607214
 30
0.0
 10
0.0111131664293822
 20
7.640514524598287
 30
0.0
 10
0.0037035196552466
 20
7.641924860562568
 30
0.0
 10
-0.0012353477005718
 20
7.649333161596274
 30
0.0
 10
0.0001776797445814
 20
7.657094046621061
 30
0.0
 10
0.0001776797445814
 20
7.657094046621061
 30
0.0
 10
0.0114657504204701
 20
7.713185853230704
 30
0.0
 10
0.0114657504204701
 20
7.713185853230704
 30
0.0
 10
0.0118183344115295
 20
7.714950118926459
 30
0.0
 10
0.0125235023936767
 20
7.716714384622235
 30
0.0
 10
0.0135812543668692
 20
7.718124720586509
 30
0.0
 10
0.0135812543668692
 20
7.718124720586509
 30
0.0
 10
0.0449800699379068
 20
7.765397890198173
 30
0.0
 10
0.0449800699379068
 20
7.765397890198173
 30
0.0
 10
0.0460378219110993
 20
7.767160810153505
 30
0.0
 10
0.0474481578753796
 20
7.768219907867148
 30
0.0
 10
0.0488611853205043
 20
7.769277659840348
 30
0.0
 10
0.0488611853205043
 20
7.769277659840348
 30
0.0
 10
0.096131663451331
 20
7.801027713662037
 30
0.0
 10
0.096131663451331
 20
7.801027713662037
 30
0.0
 10
0.0975446908964273
 20
7.801732881644177
 30
0.0
 10
0.0993076108517812
 20
7.802791979357806
 30
0.0
 10
0.1010705308071209
 20
7.803144563348858
 30
0.0
 10
0.1010705308071209
 20
7.803144563348858
 30
0.0
 10
0.1575162671482673
 20
7.814433979765169
 30
0.0
 10
0.1575162671482673
 20
7.814433979765169
 30
0.0
 10
0.1649232224415584
 20
7.815844315729457
 30
0.0
 10
0.172332869215694
 20
7.810905448373645
 30
0.0
 10
0.1740957891710337
 20
7.803144563348858
 30
0.0
 10
0.1755061251352998
 20
7.795736262315152
 30
0.0
 10
0.1705672577794957
 20
7.788327961281446
 30
0.0
 10
0.1628077184951593
 20
7.78656369558567
 30
0.0
 10
0.1628077184951593
 20
7.78656369558567
 30
0.0
 10
0.1095379295544774
 20
7.775980792891921
 30
0.0
 10
0.1095379295544774
 20
7.775980792891921
 30
0.0
 10
0.1095379295544774
 20
7.775980792891921
 30
0.0
 10
0.0668510433075369
 20
7.747405340730288
 30
0.0
 10
0.0668510433075369
 20
7.747405340730288
 30
0.0
 10
0.0668510433075369
 20
7.747405340730288
 30
0.0
 10
0.0382755911459043
 20
7.705072384214851
 30
0.0
 10
0.0382755911459043
 20
7.705072384214851
 30
0.0
 10
0.0382755911459043
 20
7.705072384214851
 30
0.0
 10
0.0276926884521629
 20
7.651450011283117
 30
0.0
 10
0.0276926884521629
 20
7.651450011283117
 30
0.0
 10
0.0262823524878684
 20
7.644746878231529
 30
0.0
 10
0.0206383171499312
 20
7.640161940607214
 30
0.0
 10
0.0139365298387873
 20
7.640161940607214
 30
0.0
  0
SPLINE
  5
363
330
1F
100
AcDbEntity
  8
Livello 1
370
     0
100
AcDbSpline
210
0.0
220
0.0
230
1.0
 70
     9
 71
     3
 72
    23
 73
    19
 74
     0
 42
0.000000001
 43
0.0000000001
 40
0.0
 40
0.0
 40
0.0
 40
0.0
 40
1.0
 40
1.0
 40
1.0
 40
2.0
 40
2.0
 40
2.0
 40
3.0
 40
3.0
 40
3.0
 40
4.0
 40
4.0
 40
4.0
 40
5.0
 40
5.0
 40
5.0
 40
6.0
 40
6.0
 40
6.0
 40
6.0
 10
1.213096215309661
 20
7.786388749330569
 30
0.0
 10
1.213096215309661
 20
7.786388749330569
 30
0.0
 10
0.1600543335877944
 20
7.786388749330569
 30
0.0
 10
0.1600543335877944
 20
7.786388749330569
 30
0.0
 10
0.1522921028225852
 20
7.786388749330569
 30
0.0
 10
0.1459428995025007
 20
7.792737952650647
 30
0.0
 10
0.1459428995025007
 20
7.800498837675419
 30
0.0
 10
0.1459428995025007
 20
7.808259722700206
 30
0.0
 10
0.1522921028225852
 20
7.814610271760713
 30
0.0
 10
0.1600543335877944
 20
7.814610271760713
 30
0.0
 10
0.1600543335877944
 20
7.814610271760713
 30
0.0
 10
1.213096215309661
 20
7.814610271760713
 30
0.0
 10
1.213096215309661
 20
7.814610271760713
 30
0.0
 10
1.220853063113167
 20
7.814610271760713
 30
0.0
 10
1.227204957914096
 20
7.808259722700206
 30
0.0
 10
1.227204957914096
 20
7.800498837675419
 30
0.0
 10
1.227204957914096
 20
7.792737952650647
 30
0.0
 10
1.220853063113167
 20
7.786388749330569
 30
0.0
 10
1.213096215309661
 20
7.786388749330569
 30
0.0
  0
SPLINE
  5
364
330
1F
100
AcDbEntity
  8
Livello 1
370
     0
100
AcDbSpline
210
0.0
220
0.0
230
1.0
 70
     9
 71
     3
 72
    23
 73
    19
 74
     0
 42
0.000000001
 43
0.0000000001
 40
0.0
 40
0.0
 40
0.0
 40
0.0
 40
1.0
 40
1.0
 40
1.0
 40
2.0
 40
2.0
 40
2.0
 40
3.0
 40
3.0
 40
3.0
 40
4.0
 40
4.0
 40
4.0
 40
5.0
 40
5.0
 40
5.0
 40
6.0
 40
6.0
 40
6.0
 40
6.0
 10
0.0138988491069085
 20
7.516442640474032
 30
0.0
 10
0.0061366183417135
 20
7.516442640474032
 30
0.0
 10
-0.0002125849783852
 20
7.522791843794109
 30
0.0
 10
-0.0002125849783852
 20
7.530552728818896
 30
0.0
 10
-0.0002125849783852
 20
7.530552728818896
 30
0.0
 10
-0.0002125849783852
 20
7.654378342445568
 30
0.0
 10
-0.0002125849783852
 20
7.654378342445568
 30
0.0
 10
-0.0002125849783852
 20
7.662139227470355
 30
0.0
 10
0.0061366183417135
 20
7.668135846799359
 30
0.0
 10
0.0138988491069085
 20
7.668135846799359
 30
0.0
 10
0.0216583883912591
 20
7.668135846799359
 30
0.0
 10
0.0280075917113436
 20
7.662139227470355
 30
0.0
 10
0.0280075917113436
 20
7.654378342445568
 30
0.0
 10
0.0280075917113436
 20
7.654378342445568
 30
0.0
 10
0.0280075917113436
 20
7.530552728818896
 30
0.0
 10
0.0280075917113436
 20
7.530552728818896
 30
0.0
 10
0.0280075917113436
 20
7.522791843794109
 30
0.0
 10
0.0216583883912591
 20
7.516442640474032
 30
0.0
 10
0.0138988491069085
 20
7.516442640474032
 30
0.0
  0
SPLINE
  5
365
330
1F
100
AcDbEntity
  8
Livello 1
370
     0
100
AcDbSpline
210
0.0
220
0.0
230
1.0
 70
     9
 71
     3
 72
    53
 73
    49
 74
     0
 42
0.000000001
 43
0.0000000001
 40
0.0
 40
0.0
 40
0.0
 40
0.0
 40
1.0
 40
1.0
 40
1.0
 40
2.0
 40
2.0
 40
2.0
 40
3.0
 40
3.0
 40
3.0
 40
4.0
 40
4.0
 40
4.0
 40
5.0
 40
5.0
 40
5.0
 40
6.0
 40
6.0
 40
6.0
 40
7.0
 40
7.0
 40
7.0
 40
8.0
 40
8.0
 40
8.0
 40
9.0
 40
9.0
 40
9.0
 40
10.0
 40
10.0
 40
10.0
 40
11.0
 40
11.0
 40
11.0
 40
12.0
 40
12.0
 40
12.0
 40
13.0
 40
13.0
 40
13.0
 40
14.0
 40
14.0
 40
14.0
 40
15.0
 40
15.0
 40
15.0
 40
16.0
 40
16.0
 40
16.0
 40
16.0
 10
0.1601619928216991
 20
5.257606572991328
 30
0.0
 10
0.1591015493676622
 20
5.257606572991328
 30
0.0
 10
0.1583963813855149
 20
5.257606572991328
 30
0.0
 10
0.1573386294123082
 20
5.257959156982394
 30
0.0
 10
0.1573386294123082
 20
5.257959156982394
 30
0.0
 10
0.1012454770622355
 20
5.269247227658283
 30
0.0
 10
0.1012454770622355
 20
5.269247227658283
 30
0.0
 10
0.09948255710691
 20
5.269599811649356
 30
0.0
 10
0.0977196371515703
 20
5.270306325371919
 30
0.0
 10
0.0959540257153577
 20
5.271011493354052
 30
0.0
 10
0.0959540257153577
 20
5.271011493354052
 30
0.0
 10
0.0486835475845453
 20
5.302761547175713
 30
0.0
 10
0.0486835475845453
 20
5.302761547175713
 30
0.0
 10
0.0472705201394206
 20
5.303819299148933
 30
0.0
 10
0.0458601841751545
 20
5.305230980853636
 30
0.0
 10
0.0448024322019478
 20
5.306642662558331
 30
0.0
 10
0.0448024322019478
 20
5.306642662558331
 30
0.0
 10
0.0134063081117688
 20
5.353914486429566
 30
0.0
 10
0.0134063081117688
 20
5.353914486429566
 30
0.0
 10
0.0123458646577035
 20
5.355324822393846
 30
0.0
 10
0.0116406966755705
 20
5.357089088089608
 30
0.0
 10
0.0112881126844968
 20
5.358853353785384
 30
0.0
 10
0.0112881126844968
 20
5.358853353785384
 30
0.0
 10
0.0000000420086081
 20
5.415297744386094
 30
0.0
 10
0.0000000420086081
 20
5.415297744386094
 30
0.0
 10
-0.0014102939556722
 20
5.422706045419808
 30
0.0
 10
0.0035285734001462
 20
5.430114346453507
 30
0.0
 10
0.0109355286934232
 20
5.431878612149276
 30
0.0
 10
0.0186977594586324
 20
5.433288948113556
 30
0.0
 10
0.0261047147519236
 20
5.428350080757752
 30
0.0
 10
0.0275150507161897
 20
5.420589195732965
 30
0.0
 10
0.0275150507161897
 20
5.420589195732965
 30
0.0
 10
0.0384532288818775
 20
5.366966822801217
 30
0.0
 10
0.0384532288818775
 20
5.366966822801217
 30
0.0
 10
0.0384532288818775
 20
5.366966822801217
 30
0.0
 10
0.0666734055715779
 20
5.324633866285793
 30
0.0
 10
0.0666734055715779
 20
5.324633866285793
 30
0.0
 10
0.0666734055715779
 20
5.324633866285793
 30
0.0
 10
0.1093602918184899
 20
5.296058414124146
 30
0.0
 10
0.1093602918184899
 20
5.296058414124146
 30
0.0
 10
0.1093602918184899
 20
5.296058414124146
 30
0.0
 10
0.1629826647502455
 20
5.285475511430398
 30
0.0
 10
0.1629826647502455
 20
5.285475511430398
 30
0.0
 10
0.1703923115243668
 20
5.28406382972571
 30
0.0
 10
0.1753311788801994
 20
5.276655528691989
 30
0.0
 10
0.1739181514350747
 20
5.268894643667216
 30
0.0
 10
0.1725078154707944
 20
5.262191510615636
 30
0.0
 10
0.1668637801328572
 20
5.257606572991328
 30
0.0
 10
0.1601619928216991
 20
5.257606572991328
 30
0.0
  0
SPLINE
  5
366
330
1F
100
AcDbEntity
  8
Livello 1
370
     0
100
AcDbSpline
210
0.0
220
0.0
230
1.0
 70
     9
 71
     3
 72
    23
 73
    19
 74
     0
 42
0.000000001
 43
0.0000000001
 40
0.0
 40
0.0
 40
0.0
 40
0.0
 40
1.0
 40
1.0
 40
1.0
 40
2.0
 40
2.0
 40
2.0
 40
3.0
 40
3.0
 40
3.0
 40
4.0
 40
4.0
 40
4.0
 40
5.0
 40
5.0
 40
5.0
 40
6.0
 40
6.0
 40
6.0
 40
6.0
 10
1.213096215309661
 20
5.257606572991328
 30
0.0
 10
1.213096215309661
 20
5.257606572991328
 30
0.0
 10
0.1600543335877944
 20
5.257606572991328
 30
0.0
 10
0.1600543335877944
 20
5.257606572991328
 30
0.0
 10
0.1522921028225852
 20
5.257606572991328
 30
0.0
 10
0.1459428995025007
 20
5.263955776311398
 30
0.0
 10
0.1459428995025007
 20
5.271716661336178
 30
0.0
 10
0.1459428995025007
 20
5.279477546360965
 30
0.0
 10
0.1522921028225852
 20
5.285828095421472
 30
0.0
 10
0.1600543335877944
 20
5.285828095421472
 30
0.0
 10
0.1600543335877944
 20
5.285828095421472
 30
0.0
 10
1.213096215309661
 20
5.285828095421472
 30
0.0
 10
1.213096215309661
 20
5.285828095421472
 30
0.0
 10
1.220853063113167
 20
5.285828095421472
 30
0.0
 10
1.227204957914096
 20
5.279477546360965
 30
0.0
 10
1.227204957914096
 20
5.271716661336178
 30
0.0
 10
1.227204957914096
 20
5.263955776311398
 30
0.0
 10
1.220853063113167
 20
5.257606572991328
 30
0.0
 10
1.213096215309661
 20
5.257606572991328
 30
0.0
  0
SPLINE
  5
367
330
1F
100
AcDbEntity
  8
Livello 1
370
     0
100
AcDbSpline
210
0.0
220
0.0
230
1.0
 70
     9
 71
     3
 72
    47
 73
    43
 74
     0
 42
0.000000001
 43
0.0000000001
 40
0.0
 40
0.0
 40
0.0
 40
0.0
 40
1.0
 40
1.0
 40
1.0
 40
2.0
 40
2.0
 40
2.0
 40
3.0
 40
3.0
 40
3.0
 40
4.0
 40
4.0
 40
4.0
 40
5.0
 40
5.0
 40
5.0
 40
6.0
 40
6.0
 40
6.0
 40
7.0
 40
7.0
 40
7.0
 40
8.0
 40
8.0
 40
8.0
 40
9.0
 40
9.0
 40
9.0
 40
10.0
 40
10.0
 40
10.0
 40
11.0
 40
11.0
 40
11.0
 40
12.0
 40
12.0
 40
12.0
 40
13.0
 40
13.0
 40
13.0
 40
14.0
 40
14.0
 40
14.0
 40
14.0
 10
4.122102545284448
 20
5.01013298347393
 30
0.0
 10
4.122102545284448
 20
5.01013298347393
 30
0.0
 10
1.359146732037473
 20
5.01013298347393
 30
0.0
 10
1.359146732037473
 20
5.01013298347393
 30
0.0
 10
1.352794837236544
 20
5.01013298347393
 30
0.0
 10
1.347148110417748
 20
5.014717921098245
 30
0.0
 10
1.345737774453482
 20
5.021068470158752
 30
0.0
 10
1.343977545978987
 20
5.027419019219259
 30
0.0
 10
1.347148110417748
 20
5.033768222539329
 30
0.0
 10
1.353144729746759
 20
5.036942824199385
 30
0.0
 10
1.353144729746759
 20
5.036942824199385
 30
0.0
 10
1.357381120601289
 20
5.039059673886214
 30
0.0
 10
1.357381120601289
 20
5.039059673886214
 30
0.0
 10
1.361967403966019
 20
5.041176523573057
 30
0.0
 10
1.367258855312897
 20
5.04082393958199
 30
0.0
 10
1.371489863205724
 20
5.038354505904067
 30
0.0
 10
1.371489863205724
 20
5.038354505904067
 30
0.0
 10
4.107988419718324
 20
5.038354505904067
 30
0.0
 10
4.107988419718324
 20
5.038354505904067
 30
0.0
 10
4.107988419718324
 20
5.038354505904067
 30
0.0
 10
4.107988419718324
 20
5.271540369340648
 30
0.0
 10
4.107988419718324
 20
5.271540369340648
 30
0.0
 10
4.107988419718324
 20
5.279301254365428
 30
0.0
 10
4.114340314519253
 20
5.285651803425935
 30
0.0
 10
4.122102545284448
 20
5.285651803425935
 30
0.0
 10
4.122102545284448
 20
5.285651803425935
 30
0.0
 10
4.214172722127756
 20
5.285651803425935
 30
0.0
 10
4.214172722127756
 20
5.285651803425935
 30
0.0
 10
4.221934952892951
 20
5.285651803425935
 30
0.0
 10
4.228286847693865
 20
5.279301254365428
 30
0.0
 10
4.228286847693865
 20
5.271540369340648
 30
0.0
 10
4.228286847693865
 20
5.263779484315875
 30
0.0
 10
4.221934952892951
 20
5.257782864986857
 30
0.0
 10
4.214172722127756
 20
5.257782864986857
 30
0.0
 10
4.214172722127756
 20
5.257782864986857
 30
0.0
 10
4.136211287888869
 20
5.257782864986857
 30
0.0
 10
4.136211287888869
 20
5.257782864986857
 30
0.0
 10
4.136211287888869
 20
5.257782864986857
 30
0.0
 10
4.136211287888869
 20
5.024243071818794
 30
0.0
 10
4.136211287888869
 20
5.024243071818794
 30
0.0
 10
4.136211287888869
 20
5.016482186794007
 30
0.0
 10
4.129859393087969
 20
5.01013298347393
 30
0.0
 10
4.122102545284448
 20
5.01013298347393
 30
0.0
  0
SPLINE
  5
368
330
1F
100
AcDbEntity
  8
Livello 1
370
     0
100
AcDbSpline
210
0.0
220
0.0
230
1.0
 70
     9
 71
     3
 72
    53
 73
    49
 74
     0
 42
0.000000001
 43
0.0000000001
 40
0.0
 40
0.0
 40
0.0
 40
0.0
 40
1.0
 40
1.0
 40
1.0
 40
2.0
 40
2.0
 40
2.0
 40
3.0
 40
3.0
 40
3.0
 40
4.0
 40
4.0
 40
4.0
 40
5.0
 40
5.0
 40
5.0
 40
6.0
 40
6.0
 40
6.0
 40
7.0
 40
7.0
 40
7.0
 40
8.0
 40
8.0
 40
8.0
 40
9.0
 40
9.0
 40
9.0
 40
10.0
 40
10.0
 40
10.0
 40
11.0
 40
11.0
 40
11.0
 40
12.0
 40
12.0
 40
12.0
 40
13.0
 40
13.0
 40
13.0
 40
14.0
 40
14.0
 40
14.0
 40
15.0
 40
15.0
 40
15.0
 40
16.0
 40
16.0
 40
16.0
 40
16.0
 10
9.955919580772629
 20
7.640161940607214
 30
0.0
 10
9.949212410499768
 20
7.640161940607214
 30
0.0
 10
9.943215791170771
 20
7.645100807963032
 30
0.0
 10
9.942160730678409
 20
7.651802595274176
 30
0.0
 10
9.942160730678409
 20
7.651802595274176
 30
0.0
 10
9.933693331931038
 20
7.705072384214851
 30
0.0
 10
9.933693331931038
 20
7.705072384214851
 30
0.0
 10
9.933693331931038
 20
7.705072384214851
 30
0.0
 10
9.903354959814066
 20
7.747405340730288
 30
0.0
 10
9.903354959814066
 20
7.747405340730288
 30
0.0
 10
9.903354959814066
 20
7.747405340730288
 30
0.0
 10
9.860312798095222
 20
7.775980792891921
 30
0.0
 10
9.860312798095222
 20
7.775980792891921
 30
0.0
 10
9.860312798095222
 20
7.775980792891921
 30
0.0
 10
9.809163896062685
 20
7.78656369558567
 30
0.0
 10
9.809163896062685
 20
7.78656369558567
 30
0.0
 10
9.801401665297476
 20
7.788327961281446
 30
0.0
 10
9.796460106460799
 20
7.795736262315152
 30
0.0
 10
9.798225717896997
 20
7.803144563348858
 30
0.0
 10
9.799636053861249
 20
7.810905448373645
 30
0.0
 10
9.807398284626458
 20
7.815844315729457
 30
0.0
 10
9.814805239919763
 20
7.814080050033695
 30
0.0
 10
9.814805239919763
 20
7.814080050033695
 30
0.0
 10
9.868780196842578
 20
7.803144563348858
 30
0.0
 10
9.868780196842578
 20
7.803144563348858
 30
0.0
 10
9.870545808278762
 20
7.802439395366718
 30
0.0
 10
9.872306036753272
 20
7.801732881644177
 30
0.0
 10
9.873721755679227
 20
7.801027713662037
 30
0.0
 10
9.873721755679227
 20
7.801027713662037
 30
0.0
 10
9.920989542329195
 20
7.769277659840348
 30
0.0
 10
9.920989542329195
 20
7.769277659840348
 30
0.0
 10
9.922405261255164
 20
7.768572491858208
 30
0.0
 10
9.923460321747526
 20
7.767160810153505
 30
0.0
 10
9.924520765201563
 20
7.765750474189246
 30
0.0
 10
9.924520765201563
 20
7.765750474189246
 30
0.0
 10
9.958384977229229
 20
7.718477304577575
 30
0.0
 10
9.958384977229229
 20
7.718477304577575
 30
0.0
 10
9.959795313193509
 20
7.716714384622235
 30
0.0
 10
9.960500481175657
 20
7.714950118926459
 30
0.0
 10
9.960855756647561
 20
7.712833269239638
 30
0.0
 10
9.960855756647561
 20
7.712833269239638
 30
0.0
 10
9.969673047905118
 20
7.656388878638921
 30
0.0
 10
9.969673047905118
 20
7.656388878638921
 30
0.0
 10
9.971088766831115
 20
7.648627993614141
 30
0.0
 10
9.965797315484223
 20
7.641572276571494
 30
0.0
 10
9.958035084719028
 20
7.640514524598287
 30
0.0
 10
9.957329916736867
 20
7.640161940607214
 30
0.0
 10
9.956624748754748
 20
7.640161940607214
 30
0.0
 10
9.955919580772629
 20
7.640161940607214
 30
0.0
  0
SPLINE
  5
369
330
1F
100
AcDbEntity
  8
Livello 1
370
     0
100
AcDbSpline
210
0.0
220
0.0
230
1.0
 70
     9
 71
     3
 72
    53
 73
    49
 74
     0
 42
0.000000001
 43
0.0000000001
 40
0.0
 40
0.0
 40
0.0
 40
0.0
 40
1.0
 40
1.0
 40
1.0
 40
2.0
 40
2.0
 40
2.0
 40
3.0
 40
3.0
 40
3.0
 40
4.0
 40
4.0
 40
4.0
 40
5.0
 40
5.0
 40
5.0
 40
6.0
 40
6.0
 40
6.0
 40
7.0
 40
7.0
 40
7.0
 40
8.0
 40
8.0
 40
8.0
 40
9.0
 40
9.0
 40
9.0
 40
10.0
 40
10.0
 40
10.0
 40
11.0
 40
11.0
 40
11.0
 40
12.0
 40
12.0
 40
12.0
 40
13.0
 40
13.0
 40
13.0
 40
14.0
 40
14.0
 40
14.0
 40
15.0
 40
15.0
 40
15.0
 40
16.0
 40
16.0
 40
16.0
 40
16.0
 10
9.811952270221041
 20
5.257606572991328
 30
0.0
 10
9.805600375420112
 20
5.257606572991328
 30
0.0
 10
9.799603756091102
 20
5.262191510615636
 30
0.0
 10
9.798193420126821
 20
5.268894643667216
 30
0.0
 10
9.796777701200866
 20
5.276302944700923
 30
0.0
 10
9.801363984565597
 20
5.283711245734636
 30
0.0
 10
9.809126215330792
 20
5.285475511430398
 30
0.0
 10
9.809126215330792
 20
5.285475511430398
 30
0.0
 10
9.860280500325075
 20
5.296058414124146
 30
0.0
 10
9.860280500325075
 20
5.296058414124146
 30
0.0
 10
9.860280500325075
 20
5.296058414124146
 30
0.0
 10
9.903317279082202
 20
5.324633866285793
 30
0.0
 10
9.903317279082202
 20
5.324633866285793
 30
0.0
 10
9.903317279082202
 20
5.324633866285793
 30
0.0
 10
9.933655651199188
 20
5.366966822801217
 30
0.0
 10
9.933655651199188
 20
5.366966822801217
 30
0.0
 10
9.933655651199188
 20
5.366966822801217
 30
0.0
 10
9.94212304994653
 20
5.420236611741898
 30
0.0
 10
9.94212304994653
 20
5.420236611741898
 30
0.0
 10
9.943183493400567
 20
5.427644912775612
 30
0.0
 10
9.950240556183644
 20
5.43293636412249
 30
0.0
 10
9.957997403987164
 20
5.431878612149276
 30
0.0
 10
9.965759634752345
 20
5.430466930444595
 30
0.0
 10
9.971051086099222
 20
5.423411213401948
 30
0.0
 10
9.969640750134956
 20
5.415650328377161
 30
0.0
 10
9.969640750134956
 20
5.415650328377161
 30
0.0
 10
9.960823458877413
 20
5.359558521767525
 30
0.0
 10
9.960823458877413
 20
5.359558521767525
 30
0.0
 10
9.960468183405481
 20
5.357441672080682
 30
0.0
 10
9.959763015423348
 20
5.355324822393846
 30
0.0
 10
9.958352679459068
 20
5.353561902438499
 30
0.0
 10
9.958352679459068
 20
5.353561902438499
 30
0.0
 10
9.924838359941617
 20
5.306288732826828
 30
0.0
 10
9.924838359941617
 20
5.306288732826828
 30
0.0
 10
9.92377791648758
 20
5.304878396862569
 30
0.0
 10
9.9223675805233
 20
5.303819299148933
 30
0.0
 10
9.920957244559019
 20
5.302761547175713
 30
0.0
 10
9.920957244559019
 20
5.302761547175713
 30
0.0
 10
9.873684074947377
 20
5.271011493354052
 30
0.0
 10
9.873684074947377
 20
5.271011493354052
 30
0.0
 10
9.872273738983082
 20
5.270306325371919
 30
0.0
 10
9.870508127546898
 20
5.269599811649356
 30
0.0
 10
9.868747899072403
 20
5.269247227658283
 30
0.0
 10
9.868747899072403
 20
5.269247227658283
 30
0.0
 10
9.814772942149602
 20
5.257959156982394
 30
0.0
 10
9.814772942149602
 20
5.257959156982394
 30
0.0
 10
9.813712498695537
 20
5.257606572991328
 30
0.0
 10
9.813007330713389
 20
5.257606572991328
 30
0.0
 10
9.811952270221041
 20
5.257606572991328
 30
0.0
  0
SPLINE
  5
36A
330
1F
100
AcDbEntity
  8
Livello 1
370
     0
100
AcDbSpline
210
0.0
220
0.0
230
1.0
 70
     9
 71
     3
 72
    26
 73
    22
 74
     0
 42
0.000000001
 43
0.0000000001
 40
0.0
 40
0.0
 40
0.0
 40
0.0
 40
1.0
 40
1.0
 40
1.0
 40
2.0
 40
2.0
 40
2.0
 40
3.0
 40
3.0
 40
3.0
 40
4.0
 40
4.0
 40
4.0
 40
5.0
 40
5.0
 40
5.0
 40
6.0
 40
6.0
 40
6.0
 40
7.0
 40
7.0
 40
7.0
 40
7.0
 10
9.811952270221041
 20
5.257606572991328
 30
0.0
 10
9.811952270221041
 20
5.257606572991328
 30
0.0
 10
8.758910388499145
 20
5.257606572991328
 30
0.0
 10
8.758910388499145
 20
5.257606572991328
 30
0.0
 10
8.751148157733979
 20
5.257606572991328
 30
0.0
 10
8.744796262933036
 20
5.263955776311398
 30
0.0
 10
8.744796262933036
 20
5.271716661336178
 30
0.0
 10
8.744796262933036
 20
5.279477546360965
 30
0.0
 10
8.751148157733979
 20
5.285828095421472
 30
0.0
 10
8.758910388499145
 20
5.285828095421472
 30
0.0
 10
8.758910388499145
 20
5.285828095421472
 30
0.0
 10
9.806655435912475
 20
5.285828095421472
 30
0.0
 10
9.806655435912475
 20
5.285828095421472
 30
0.0
 10
9.815122834659788
 20
5.289709210804076
 30
0.0
 10
9.826061012825491
 20
5.283358661743569
 30
0.0
 10
9.826061012825491
 20
5.273833511023028
 30
0.0
 10
9.826061012825491
 20
5.273833511023028
 30
0.0
 10
9.826061012825491
 20
5.271716661336178
 30
0.0
 10
9.826061012825491
 20
5.271716661336178
 30
0.0
 10
9.826061012825491
 20
5.263955776311398
 30
0.0
 10
9.819709118024533
 20
5.257606572991328
 30
0.0
 10
9.811952270221041
 20
5.257606572991328
 30
0.0
  0
SPLINE
  5
36B
330
1F
100
AcDbEntity
  8
Livello 1
370
     0
100
AcDbSpline
210
0.0
220
0.0
230
1.0
 70
     9
 71
     3
 72
    23
 73
    19
 74
     0
 42
0.000000001
 43
0.0000000001
 40
0.0
 40
0.0
 40
0.0
 40
0.0
 40
1.0
 40
1.0
 40
1.0
 40
2.0
 40
2.0
 40
2.0
 40
3.0
 40
3.0
 40
3.0
 40
4.0
 40
4.0
 40
4.0
 40
5.0
 40
5.0
 40
5.0
 40
6.0
 40
6.0
 40
6.0
 40
6.0
 10
9.811952270221041
 20
7.786388749330569
 30
0.0
 10
9.811952270221041
 20
7.786388749330569
 30
0.0
 10
8.758910388499145
 20
7.786388749330569
 30
0.0
 10
8.758910388499145
 20
7.786388749330569
 30
0.0
 10
8.751148157733979
 20
7.786388749330569
 30
0.0
 10
8.744796262933036
 20
7.792737952650647
 30
0.0
 10
8.744796262933036
 20
7.800498837675419
 30
0.0
 10
8.744796262933036
 20
7.808259722700206
 30
0.0
 10
8.751148157733979
 20
7.814610271760713
 30
0.0
 10
8.758910388499145
 20
7.814610271760713
 30
0.0
 10
8.758910388499145
 20
7.814610271760713
 30
0.0
 10
9.811952270221041
 20
7.814610271760713
 30
0.0
 10
9.811952270221041
 20
7.814610271760713
 30
0.0
 10
9.819709118024533
 20
7.814610271760713
 30
0.0
 10
9.826061012825491
 20
7.808259722700206
 30
0.0
 10
9.826061012825491
 20
7.800498837675419
 30
0.0
 10
9.826061012825491
 20
7.792737952650647
 30
0.0
 10
9.819709118024533
 20
7.786388749330569
 30
0.0
 10
9.811952270221041
 20
7.786388749330569
 30
0.0
  0
SPLINE
  5
36C
330
1F
100
AcDbEntity
  8
Livello 1
370
     0
100
AcDbSpline
210
0.0
220
0.0
230
1.0
 70
     9
 71
     3
 72
    23
 73
    19
 74
     0
 42
0.000000001
 43
0.0000000001
 40
0.0
 40
0.0
 40
0.0
 40
0.0
 40
1.0
 40
1.0
 40
1.0
 40
2.0
 40
2.0
 40
2.0
 40
3.0
 40
3.0
 40
3.0
 40
4.0
 40
4.0
 40
4.0
 40
5.0
 40
5.0
 40
5.0
 40
6.0
 40
6.0
 40
6.0
 40
6.0
 10
5.526016636255619
 20
5.259829736171646
 30
0.0
 10
5.526016636255619
 20
5.259829736171646
 30
0.0
 10
4.214388040595579
 20
5.259829736171646
 30
0.0
 10
4.214388040595579
 20
5.259829736171646
 30
0.0
 10
4.20662580983037
 20
5.259829736171646
 30
0.0
 10
4.200273915029441
 20
5.26617893949173
 30
0.0
 10
4.200273915029441
 20
5.27393982451651
 30
0.0
 10
4.200273915029441
 20
5.281700709541283
 30
0.0
 10
4.20662580983037
 20
5.28805125860179
 30
0.0
 10
4.214388040595579
 20
5.28805125860179
 30
0.0
 10
4.214388040595579
 20
5.28805125860179
 30
0.0
 10
5.526016636255619
 20
5.28805125860179
 30
0.0
 10
5.526016636255619
 20
5.28805125860179
 30
0.0
 10
5.533773484059139
 20
5.28805125860179
 30
0.0
 10
5.540125378860068
 20
5.281700709541283
 30
0.0
 10
5.540125378860068
 20
5.27393982451651
 30
0.0
 10
5.540125378860068
 20
5.26617893949173
 30
0.0
 10
5.533773484059139
 20
5.259829736171646
 30
0.0
 10
5.526016636255619
 20
5.259829736171646
 30
0.0
  0
SPLINE
  5
36D
330
1F
100
AcDbEntity
  8
Livello 1
370
     0
100
AcDbSpline
210
0.0
220
0.0
230
1.0
 70
     9
 71
     3
 72
    23
 73
    19
 74
     0
 42
0.000000001
 43
0.0000000001
 40
0.0
 40
0.0
 40
0.0
 40
0.0
 40
1.0
 40
1.0
 40
1.0
 40
2.0
 40
2.0
 40
2.0
 40
3.0
 40
3.0
 40
3.0
 40
4.0
 40
4.0
 40
4.0
 40
5.0
 40
5.0
 40
5.0
 40
6.0
 40
6.0
 40
6.0
 40
6.0
 10
0.0161220122872408
 20
6.787498116527032
 30
0.0
 10
0.0083597815220315
 20
6.787498116527032
 30
0.0
 10
0.0020105782019471
 20
6.793847319847131
 30
0.0
 10
0.0020105782019471
 20
6.801608204871897
 30
0.0
 10
0.0020105782019471
 20
6.801608204871897
 30
0.0
 10
0.0020105782019471
 20
7.402389793805916
 30
0.0
 10
0.0020105782019471
 20
7.402389793805916
 30
0.0
 10
0.0020105782019471
 20
7.410150678830696
 30
0.0
 10
0.0083597815220315
 20
7.416499882150759
 30
0.0
 10
0.0161220122872408
 20
7.416499882150759
 30
0.0
 10
0.0238815515715913
 20
7.416499882150759
 30
0.0
 10
0.0302307548916758
 20
7.410150678830696
 30
0.0
 10
0.0302307548916758
 20
7.402389793805916
 30
0.0
 10
0.0302307548916758
 20
7.402389793805916
 30
0.0
 10
0.0302307548916758
 20
6.801608204871897
 30
0.0
 10
0.0302307548916758
 20
6.801608204871897
 30
0.0
 10
0.0302307548916758
 20
6.793847319847131
 30
0.0
 10
0.0238815515715913
 20
6.787498116527032
 30
0.0
 10
0.0161220122872408
 20
6.787498116527032
 30
0.0
  0
SPLINE
  5
36E
330
1F
100
AcDbEntity
  8
Livello 1
370
     0
100
AcDbSpline
210
0.0
220
0.0
230
1.0
 70
     9
 71
     3
 72
    23
 73
    19
 74
     0
 42
0.000000001
 43
0.0000000001
 40
0.0
 40
0.0
 40
0.0
 40
0.0
 40
1.0
 40
1.0
 40
1.0
 40
2.0
 40
2.0
 40
2.0
 40
3.0
 40
3.0
 40
3.0
 40
4.0
 40
4.0
 40
4.0
 40
5.0
 40
5.0
 40
5.0
 40
6.0
 40
6.0
 40
6.0
 40
6.0
 10
9.955919580772629
 20
6.787498116527032
 30
0.0
 10
9.948157350007406
 20
6.787498116527032
 30
0.0
 10
9.941805455206491
 20
6.793847319847131
 30
0.0
 10
9.941805455206491
 20
6.801608204871897
 30
0.0
 10
9.941805455206491
 20
6.801608204871897
 30
0.0
 10
9.941805455206491
 20
7.130044229773524
 30
0.0
 10
9.941805455206491
 20
7.130044229773524
 30
0.0
 10
9.941805455206491
 20
7.137805114798311
 30
0.0
 10
9.948157350007406
 20
7.144155663858803
 30
0.0
 10
9.955919580772629
 20
7.144155663858803
 30
0.0
 10
9.963676428576121
 20
7.144155663858803
 30
0.0
 10
9.970028323377036
 20
7.137805114798311
 30
0.0
 10
9.970028323377036
 20
7.130044229773524
 30
0.0
 10
9.970028323377036
 20
7.130044229773524
 30
0.0
 10
9.970028323377036
 20
6.801608204871897
 30
0.0
 10
9.970028323377036
 20
6.801608204871897
 30
0.0
 10
9.970028323377036
 20
6.793847319847131
 30
0.0
 10
9.963676428576121
 20
6.787498116527032
 30
0.0
 10
9.955919580772629
 20
6.787498116527032
 30
0.0
  0
SPLINE
  5
36F
330
1F
100
AcDbEntity
  8
Livello 1
370
     0
100
AcDbSpline
210
0.0
220
0.0
230
1.0
 70
     9
 71
     3
 72
    23
 73
    19
 74
     0
 42
0.000000001
 43
0.0000000001
 40
0.0
 40
0.0
 40
0.0
 40
0.0
 40
1.0
 40
1.0
 40
1.0
 40
2.0
 40
2.0
 40
2.0
 40
3.0
 40
3.0
 40
3.0
 40
4.0
 40
4.0
 40
4.0
 40
5.0
 40
5.0
 40
5.0
 40
6.0
 40
6.0
 40
6.0
 40
6.0
 10
9.955919580772629
 20
7.118932451093158
 30
0.0
 10
9.948157350007406
 20
7.118932451093158
 30
0.0
 10
9.941805455206491
 20
7.125281654413242
 30
0.0
 10
9.941805455206491
 20
7.133042539438022
 30
0.0
 10
9.941805455206491
 20
7.133042539438022
 30
0.0
 10
9.941805455206491
 20
7.402212156069957
 30
0.0
 10
9.941805455206491
 20
7.402212156069957
 30
0.0
 10
9.941805455206491
 20
7.409973041094737
 30
0.0
 10
9.948157350007406
 20
7.416323590155229
 30
0.0
 10
9.955919580772629
 20
7.416323590155229
 30
0.0
 10
9.963676428576121
 20
7.416323590155229
 30
0.0
 10
9.970028323377036
 20
7.409973041094737
 30
0.0
 10
9.970028323377036
 20
7.402212156069957
 30
0.0
 10
9.970028323377036
 20
7.402212156069957
 30
0.0
 10
9.970028323377036
 20
7.133042539438022
 30
0.0
 10
9.970028323377036
 20
7.133042539438022
 30
0.0
 10
9.970028323377036
 20
7.125281654413242
 30
0.0
 10
9.963676428576121
 20
7.118932451093158
 30
0.0
 10
9.955919580772629
 20
7.118932451093158
 30
0.0
  0
SPLINE
  5
370
330
1F
100
AcDbEntity
  8
Livello 1
370
     0
100
AcDbSpline
210
0.0
220
0.0
230
1.0
 70
     9
 71
     3
 72
    29
 73
    25
 74
     0
 42
0.000000001
 43
0.0000000001
 40
0.0
 40
0.0
 40
0.0
 40
0.0
 40
1.0
 40
1.0
 40
1.0
 40
2.0
 40
2.0
 40
2.0
 40
3.0
 40
3.0
 40
3.0
 40
4.0
 40
4.0
 40
4.0
 40
5.0
 40
5.0
 40
5.0
 40
6.0
 40
6.0
 40
6.0
 40
7.0
 40
7.0
 40
7.0
 40
8.0
 40
8.0
 40
8.0
 40
8.0
 10
0.736916732226959
 20
6.713907647185102
 30
0.0
 10
0.5746392774674263
 20
6.713907647185102
 30
0.0
 10
0.3650886530962651
 20
6.806688374972225
 30
0.0
 10
0.3082930242449038
 20
7.068449690570432
 30
0.0
 10
0.3082930242449038
 20
7.068449690570432
 30
0.0
 10
0.3012359614618418
 20
7.149235833959124
 30
0.0
 10
0.3012359614618418
 20
7.149235833959124
 30
0.0
 10
0.3012359614618418
 20
7.149235833959124
 30
0.0
 10
0.303706740880159
 20
7.204975056577701
 30
0.0
 10
0.303706740880159
 20
7.204975056577701
 30
0.0
 10
0.3446280156909012
 20
7.469910973835958
 30
0.0
 10
0.5520604446348046
 20
7.587738622393203
 30
0.0
 10
0.739387511645262
 20
7.587738622393203
 30
0.0
 10
0.9020148589149954
 20
7.587738622393203
 30
0.0
 10
1.111562791805312
 20
7.494605310614986
 30
0.0
 10
1.168363803618376
 20
7.232138827034638
 30
0.0
 10
1.168363803618376
 20
7.232138827034638
 30
0.0
 10
1.175415483439735
 20
7.151352683645953
 30
0.0
 10
1.175415483439735
 20
7.151352683645953
 30
0.0
 10
1.175415483439735
 20
7.151352683645953
 30
0.0
 10
1.172950086983107
 20
7.095613461027376
 30
0.0
 10
1.172950086983107
 20
7.095613461027376
 30
0.0
 10
1.131673536700461
 20
6.83138271175126
 30
0.0
 10
0.9242411077565435
 20
6.713907647185102
 30
0.0
 10
0.736916732226959
 20
6.713907647185102
 30
0.0
  0
SPLINE
  5
371
330
1F
100
AcDbEntity
  8
Livello 1
370
     0
100
AcDbSpline
210
0.0
220
0.0
230
1.0
 70
     9
 71
     3
 72
    29
 73
    25
 74
     0
 42
0.000000001
 43
0.0000000001
 40
0.0
 40
0.0
 40
0.0
 40
0.0
 40
1.0
 40
1.0
 40
1.0
 40
2.0
 40
2.0
 40
2.0
 40
3.0
 40
3.0
 40
3.0
 40
4.0
 40
4.0
 40
4.0
 40
5.0
 40
5.0
 40
5.0
 40
6.0
 40
6.0
 40
6.0
 40
7.0
 40
7.0
 40
7.0
 40
8.0
 40
8.0
 40
8.0
 40
8.0
 10
0.739387511645262
 20
7.559517099963059
 30
0.0
 10
0.5640563747736849
 20
7.559517099963059
 30
0.0
 10
0.3696749364609957
 20
7.449096406699105
 30
0.0
 10
0.3315743335788142
 20
7.202153038908718
 30
0.0
 10
0.3315743335788142
 20
7.202153038908718
 30
0.0
 10
0.3294588296324008
 20
7.149588417950191
 30
0.0
 10
0.3294588296324008
 20
7.149588417950191
 30
0.0
 10
0.3294588296324008
 20
7.149588417950191
 30
0.0
 10
0.3361606169435589
 20
7.072683389944096
 30
0.0
 10
0.3361606169435589
 20
7.072683389944096
 30
0.0
 10
0.3890778218931672
 20
6.829265862064424
 30
0.0
 10
0.5852221801611819
 20
6.742130515355647
 30
0.0
 10
0.736916732226959
 20
6.742130515355647
 30
0.0
 10
0.9122478690985076
 20
6.742130515355647
 30
0.0
 10
1.106271340458434
 20
6.852197278888112
 30
0.0
 10
1.145077111322763
 20
7.098435478696352
 30
0.0
 10
1.145077111322763
 20
7.098435478696352
 30
0.0
 10
1.147197998230879
 20
7.151000099654886
 30
0.0
 10
1.147197998230879
 20
7.151000099654886
 30
0.0
 10
1.147197998230879
 20
7.151000099654886
 30
0.0
 10
1.140490827958004
 20
7.227905127660974
 30
0.0
 10
1.140490827958004
 20
7.227905127660974
 30
0.0
 10
1.087576314489254
 20
7.472027823522786
 30
0.0
 10
0.8914319562212398
 20
7.559517099963059
 30
0.0
 10
0.739387511645262
 20
7.559517099963059
 30
0.0
  0
SPLINE
  5
372
330
1F
100
AcDbEntity
  8
Livello 1
370
     0
100
AcDbSpline
210
0.0
220
0.0
230
1.0
 70
     9
 71
     3
 72
    23
 73
    19
 74
     0
 42
0.000000001
 43
0.0000000001
 40
0.0
 40
0.0
 40
0.0
 40
0.0
 40
1.0
 40
1.0
 40
1.0
 40
2.0
 40
2.0
 40
2.0
 40
3.0
 40
3.0
 40
3.0
 40
4.0
 40
4.0
 40
4.0
 40
5.0
 40
5.0
 40
5.0
 40
6.0
 40
6.0
 40
6.0
 40
6.0
 10
3.339150766644465
 20
4.951606732437404
 30
0.0
 10
3.33138853587927
 20
4.951606732437404
 30
0.0
 10
3.325036641078341
 20
4.957955935757489
 30
0.0
 10
3.325036641078341
 20
4.965716820782255
 30
0.0
 10
3.325036641078341
 20
4.965716820782255
 30
0.0
 10
3.325036641078341
 20
5.024278061069814
 30
0.0
 10
3.325036641078341
 20
5.024278061069814
 30
0.0
 10
3.325036641078341
 20
5.032038946094594
 30
0.0
 10
3.33138853587927
 20
5.038389495155101
 30
0.0
 10
3.339150766644465
 20
5.038389495155101
 30
0.0
 10
3.346907614447971
 20
5.038389495155101
 30
0.0
 10
3.3532595092489
 20
5.032038946094594
 30
0.0
 10
3.3532595092489
 20
5.024278061069814
 30
0.0
 10
3.3532595092489
 20
5.024278061069814
 30
0.0
 10
3.3532595092489
 20
4.965716820782255
 30
0.0
 10
3.3532595092489
 20
4.965716820782255
 30
0.0
 10
3.3532595092489
 20
4.957955935757489
 30
0.0
 10
3.346907614447971
 20
4.951606732437404
 30
0.0
 10
3.339150766644465
 20
4.951606732437404
 30
0.0
  0
SPLINE
  5
373
330
1F
100
AcDbEntity
  8
Livello 1
370
     0
100
AcDbSpline
210
0.0
220
0.0
230
1.0
 70
     9
 71
     3
 72
    65
 73
    61
 74
     0
 42
0.000000001
 43
0.0000000001
 40
0.0
 40
0.0
 40
0.0
 40
0.0
 40
1.0
 40
1.0
 40
1.0
 40
2.0
 40
2.0
 40
2.0
 40
3.0
 40
3.0
 40
3.0
 40
4.0
 40
4.0
 40
4.0
 40
5.0
 40
5.0
 40
5.0
 40
6.0
 40
6.0
 40
6.0
 40
7.0
 40
7.0
 40
7.0
 40
8.0
 40
8.0
 40
8.0
 40
9.0
 40
9.0
 40
9.0
 40
10.0
 40
10.0
 40
10.0
 40
11.0
 40
11.0
 40
11.0
 40
12.0
 40
12.0
 40
12.0
 40
13.0
 40
13.0
 40
13.0
 40
14.0
 40
14.0
 40
14.0
 40
15.0
 40
15.0
 40
15.0
 40
16.0
 40
16.0
 40
16.0
 40
17.0
 40
17.0
 40
17.0
 40
18.0
 40
18.0
 40
18.0
 40
19.0
 40
19.0
 40
19.0
 40
20.0
 40
20.0
 40
20.0
 40
20.0
 10
3.222168243073468
 20
4.834626900347238
 30
0.0
 10
3.215111180290392
 20
4.834626900347238
 30
0.0
 10
3.208759285489463
 20
4.840270935685168
 30
0.0
 10
3.208054117507316
 20
4.847326652727822
 30
0.0
 10
3.207348949525183
 20
4.855087537752602
 30
0.0
 10
3.212995676343979
 20
4.861790670804168
 30
0.0
 10
3.220752524147485
 20
4.862495838786308
 30
0.0
 10
3.220752524147485
 20
4.862495838786308
 30
0.0
 10
3.24368394097118
 20
4.864612688473144
 30
0.0
 10
3.24368394097118
 20
4.864612688473144
 30
0.0
 10
3.24368394097118
 20
4.864612688473144
 30
0.0
 10
3.264144578376544
 20
4.873078741480064
 30
0.0
 10
3.264144578376544
 20
4.873078741480064
 30
0.0
 10
3.264144578376544
 20
4.873078741480064
 30
0.0
 10
3.295188118475664
 20
4.892481626912214
 30
0.0
 10
3.295188118475664
 20
4.892481626912214
 30
0.0
 10
3.295188118475664
 20
4.892481626912214
 30
0.0
 10
3.316004031352946
 20
4.925995946429672
 30
0.0
 10
3.316004031352946
 20
4.925995946429672
 30
0.0
 10
3.316004031352946
 20
4.925995946429672
 30
0.0
 10
3.323061094136022
 20
4.943987150157127
 30
0.0
 10
3.323061094136022
 20
4.943987150157127
 30
0.0
 10
3.323061094136022
 20
4.943987150157127
 30
0.0
 10
3.325176598082421
 20
4.96691856698083
 30
0.0
 10
3.325176598082421
 20
4.96691856698083
 30
0.0
 10
3.325881766064554
 20
4.974679452005609
 30
0.0
 10
3.332233660865483
 20
4.98067607133462
 30
0.0
 10
3.340345784140893
 20
4.979618319361414
 30
0.0
 10
3.348108014906117
 20
4.978911805638851
 30
0.0
 10
3.353749358763209
 20
4.972210018327707
 30
0.0
 10
3.353044190781076
 20
4.964447787562498
 30
0.0
 10
3.353044190781076
 20
4.964447787562498
 30
0.0
 10
3.350928686834663
 20
4.939753450783463
 30
0.0
 10
3.350928686834663
 20
4.939753450783463
 30
0.0
 10
3.350928686834663
 20
4.938343114819197
 30
0.0
 10
3.350578794324448
 20
4.936931433114494
 30
0.0
 10
3.349873626342329
 20
4.935521097150214
 30
0.0
 10
3.349873626342329
 20
4.935521097150214
 30
0.0
 10
3.341050952123055
 20
4.913296194049074
 30
0.0
 10
3.341050952123055
 20
4.913296194049074
 30
0.0
 10
3.341050952123055
 20
4.913296194049074
 30
0.0
 10
3.317414367317226
 20
4.874843007175826
 30
0.0
 10
3.317414367317226
 20
4.874843007175826
 30
0.0
 10
3.316359306824878
 20
4.873078741480064
 30
0.0
 10
3.314593695388666
 20
4.871668405515784
 30
0.0
 10
3.312828083952481
 20
4.870609307802162
 30
0.0
 10
3.312828083952481
 20
4.870609307802162
 30
0.0
 10
3.276848367978402
 20
4.848031820709955
 30
0.0
 10
3.276848367978402
 20
4.848031820709955
 30
0.0
 10
3.276848367978402
 20
4.848031820709955
 30
0.0
 10
3.252151339718508
 20
4.837801502007273
 30
0.0
 10
3.252151339718508
 20
4.837801502007273
 30
0.0
 10
3.250741003754228
 20
4.837448918016207
 30
0.0
 10
3.249680560300191
 20
4.83709633402514
 30
0.0
 10
3.248270224335911
 20
4.83709633402514
 30
0.0
 10
3.248270224335911
 20
4.83709633402514
 30
0.0
 10
3.223578579037706
 20
4.834626900347238
 30
0.0
 10
3.223578579037706
 20
4.834626900347238
 30
0.0
 10
3.222873411055587
 20
4.834626900347238
 30
0.0
 10
3.222518135583669
 20
4.834626900347238
 30
0.0
 10
3.222168243073468
 20
4.834626900347238
 30
0.0
  0
SPLINE
  5
374
330
1F
100
AcDbEntity
  8
Livello 1
370
     0
100
AcDbSpline
210
0.0
220
0.0
230
1.0
 70
     9
 71
     3
 72
    53
 73
    49
 74
     0
 42
0.000000001
 43
0.0000000001
 40
0.0
 40
0.0
 40
0.0
 40
0.0
 40
1.0
 40
1.0
 40
1.0
 40
2.0
 40
2.0
 40
2.0
 40
3.0
 40
3.0
 40
3.0
 40
4.0
 40
4.0
 40
4.0
 40
5.0
 40
5.0
 40
5.0
 40
6.0
 40
6.0
 40
6.0
 40
7.0
 40
7.0
 40
7.0
 40
8.0
 40
8.0
 40
8.0
 40
9.0
 40
9.0
 40
9.0
 40
10.0
 40
10.0
 40
10.0
 40
11.0
 40
11.0
 40
11.0
 40
12.0
 40
12.0
 40
12.0
 40
13.0
 40
13.0
 40
13.0
 40
14.0
 40
14.0
 40
14.0
 40
15.0
 40
15.0
 40
15.0
 40
16.0
 40
16.0
 40
16.0
 40
16.0
 10
3.222168243073468
 20
4.834626900347238
 30
0.0
 10
3.222168243073468
 20
4.834626900347238
 30
0.0
 10
2.72721568107697
 20
4.834626900347238
 30
0.0
 10
2.72721568107697
 20
4.834626900347238
 30
0.0
 10
2.72721568107697
 20
4.834626900347238
 30
0.0
 10
2.602336352698358
 20
4.84591497102312
 30
0.0
 10
2.602336352698358
 20
4.84591497102312
 30
0.0
 10
2.602336352698358
 20
4.84591497102312
 30
0.0
 10
2.476391197903978
 20
4.877665024844802
 30
0.0
 10
2.476391197903978
 20
4.877665024844802
 30
0.0
 10
2.476391197903978
 20
4.877665024844802
 30
0.0
 10
2.379734737695969
 20
4.918940229387025
 30
0.0
 10
2.379734737695969
 20
4.918940229387025
 30
0.0
 10
2.379734737695969
 20
4.918940229387025
 30
0.0
 10
2.288009070401173
 20
4.973972938283054
 30
0.0
 10
2.288009070401173
 20
4.973972938283054
 30
0.0
 10
2.288009070401173
 20
4.973972938283054
 30
0.0
 10
2.238975672315021
 20
5.013131293138428
 30
0.0
 10
2.238975672315021
 20
5.013131293138428
 30
0.0
 10
2.23297905298601
 20
5.018070160494247
 30
0.0
 10
2.232268502042174
 20
5.026890143232655
 30
0.0
 10
2.237210060878823
 20
5.032886762561666
 30
0.0
 10
2.241796344243567
 20
5.038884727631106
 30
0.0
 10
2.250968910973043
 20
5.039942479604306
 30
0.0
 10
2.256965530302039
 20
5.035003612248502
 30
0.0
 10
2.256965530302039
 20
5.035003612248502
 30
0.0
 10
2.304238699913724
 20
4.99690435510675
 30
0.0
 10
2.304238699913724
 20
4.99690435510675
 30
0.0
 10
2.304238699913724
 20
4.99690435510675
 30
0.0
 10
2.392433144336123
 20
4.943987150157127
 30
0.0
 10
2.392433144336123
 20
4.943987150157127
 30
0.0
 10
2.392433144336123
 20
4.943987150157127
 30
0.0
 10
2.485213872123253
 20
4.904476211310672
 30
0.0
 10
2.485213872123253
 20
4.904476211310672
 30
0.0
 10
2.485213872123253
 20
4.904476211310672
 30
0.0
 10
2.606922636063089
 20
4.873431325471138
 30
0.0
 10
2.606922636063089
 20
4.873431325471138
 30
0.0
 10
2.606922636063089
 20
4.873431325471138
 30
0.0
 10
2.728631400002939
 20
4.862495838786308
 30
0.0
 10
2.728631400002939
 20
4.862495838786308
 30
0.0
 10
2.728631400002939
 20
4.862495838786308
 30
0.0
 10
3.222168243073468
 20
4.862848422777389
 30
0.0
 10
3.222168243073468
 20
4.862848422777389
 30
0.0
 10
3.229925090876974
 20
4.862848422777389
 30
0.0
 10
3.236276985677889
 20
4.856497873716868
 30
0.0
 10
3.236276985677889
 20
4.848736988692095
 30
0.0
 10
3.236276985677889
 20
4.840976103667308
 30
0.0
 10
3.229925090876974
 20
4.834626900347238
 30
0.0
 10
3.222168243073468
 20
4.834626900347238
 30
0.0
  0
SPLINE
  5
375
330
1F
100
AcDbEntity
  8
Livello 1
370
     0
100
AcDbSpline
210
0.0
220
0.0
230
1.0
 70
     9
 71
     3
 72
    50
 73
    46
 74
     0
 42
0.000000001
 43
0.0000000001
 40
0.0
 40
0.0
 40
0.0
 40
0.0
 40
1.0
 40
1.0
 40
1.0
 40
2.0
 40
2.0
 40
2.0
 40
3.0
 40
3.0
 40
3.0
 40
4.0
 40
4.0
 40
4.0
 40
5.0
 40
5.0
 40
5.0
 40
6.0
 40
6.0
 40
6.0
 40
7.0
 40
7.0
 40
7.0
 40
8.0
 40
8.0
 40
8.0
 40
9.0
 40
9.0
 40
9.0
 40
10.0
 40
10.0
 40
10.0
 40
11.0
 40
11.0
 40
11.0
 40
12.0
 40
12.0
 40
12.0
 40
13.0
 40
13.0
 40
13.0
 40
14.0
 40
14.0
 40
14.0
 40
15.0
 40
15.0
 40
15.0
 40
15.0
 10
7.242600057321723
 20
4.834626900347238
 30
0.0
 10
7.235542994538647
 20
4.834626900347238
 30
0.0
 10
7.229191099737718
 20
4.840270935685168
 30
0.0
 10
7.228485931755585
 20
4.847326652727822
 30
0.0
 10
7.227780763773438
 20
4.855087537752602
 30
0.0
 10
7.233777383102449
 20
4.862143254795242
 30
0.0
 10
7.241184338395726
 20
4.862495838786308
 30
0.0
 10
7.241184338395726
 20
4.862495838786308
 30
0.0
 10
7.36747938570032
 20
4.873783909462204
 30
0.0
 10
7.36747938570032
 20
4.873783909462204
 30
0.0
 10
7.36747938570032
 20
4.873783909462204
 30
0.0
 10
7.488838257129941
 20
4.905181379292812
 30
0.0
 10
7.488838257129941
 20
4.905181379292812
 30
0.0
 10
7.488838257129941
 20
4.905181379292812
 30
0.0
 10
7.578792930026835
 20
4.944692318139267
 30
0.0
 10
7.578792930026835
 20
4.944692318139267
 30
0.0
 10
7.578792930026835
 20
4.944692318139267
 30
0.0
 10
7.667342649921124
 20
4.997962107079956
 30
0.0
 10
7.667342649921124
 20
4.997962107079956
 30
0.0
 10
7.667342649921124
 20
4.997962107079956
 30
0.0
 10
7.715320987514928
 20
5.035356196239568
 30
0.0
 10
7.715320987514928
 20
5.035356196239568
 30
0.0
 10
7.721667499354182
 20
5.039942479604306
 30
0.0
 10
7.730490173573429
 20
5.038884727631106
 30
0.0
 10
7.735076456938173
 20
5.032886762561666
 30
0.0
 10
7.740012632813133
 20
5.026537559241582
 30
0.0
 10
7.738957572320771
 20
5.017717576503173
 30
0.0
 10
7.732605677519842
 20
5.013131293138428
 30
0.0
 10
7.732605677519842
 20
5.013131293138428
 30
0.0
 10
7.683217003961772
 20
4.974679452005609
 30
0.0
 10
7.683217003961772
 20
4.974679452005609
 30
0.0
 10
7.683217003961772
 20
4.974679452005609
 30
0.0
 10
7.591846612138894
 20
4.919997981360239
 30
0.0
 10
7.591846612138894
 20
4.919997981360239
 30
0.0
 10
7.591846612138894
 20
4.919997981360239
 30
0.0
 10
7.498010823859416
 20
4.878724122558431
 30
0.0
 10
7.498010823859416
 20
4.878724122558431
 30
0.0
 10
7.498010823859416
 20
4.878724122558431
 30
0.0
 10
7.372065669065079
 20
4.846267555014193
 30
0.0
 10
7.372065669065079
 20
4.846267555014193
 30
0.0
 10
7.372065669065079
 20
4.846267555014193
 30
0.0
 10
7.243655117814085
 20
4.834626900347238
 30
0.0
 10
7.243655117814085
 20
4.834626900347238
 30
0.0
 10
7.243305225303842
 20
4.834626900347238
 30
0.0
 10
7.242949949831938
 20
4.834626900347238
 30
0.0
 10
7.242600057321723
 20
4.834626900347238
 30
0.0
  0
SPLINE
  5
376
330
1F
100
AcDbEntity
  8
Livello 1
370
     0
100
AcDbSpline
210
0.0
220
0.0
230
1.0
 70
     9
 71
     3
 72
    23
 73
    19
 74
     0
 42
0.000000001
 43
0.0000000001
 40
0.0
 40
0.0
 40
0.0
 40
0.0
 40
1.0
 40
1.0
 40
1.0
 40
2.0
 40
2.0
 40
2.0
 40
3.0
 40
3.0
 40
3.0
 40
4.0
 40
4.0
 40
4.0
 40
5.0
 40
5.0
 40
5.0
 40
6.0
 40
6.0
 40
6.0
 40
6.0
 10
7.242600057321723
 20
4.834626900347238
 30
0.0
 10
7.242600057321723
 20
4.834626900347238
 30
0.0
 10
6.749768382233327
 20
4.834626900347238
 30
0.0
 10
6.749768382233327
 20
4.834626900347238
 30
0.0
 10
6.742006151468117
 20
4.834626900347238
 30
0.0
 10
6.735654256667189
 20
4.840976103667308
 30
0.0
 10
6.735654256667189
 20
4.848736988692095
 30
0.0
 10
6.735654256667189
 20
4.856497873716868
 30
0.0
 10
6.742006151468117
 20
4.862848422777389
 30
0.0
 10
6.749768382233327
 20
4.862848422777389
 30
0.0
 10
6.749768382233327
 20
4.862848422777389
 30
0.0
 10
7.242600057321723
 20
4.862848422777389
 30
0.0
 10
7.242600057321723
 20
4.862848422777389
 30
0.0
 10
7.250356905125215
 20
4.862848422777389
 30
0.0
 10
7.256708799926144
 20
4.856497873716868
 30
0.0
 10
7.256708799926144
 20
4.848736988692095
 30
0.0
 10
7.256708799926144
 20
4.840976103667308
 30
0.0
 10
7.250356905125215
 20
4.834626900347238
 30
0.0
 10
7.242600057321723
 20
4.834626900347238
 30
0.0
  0
SPLINE
  5
377
330
1F
100
AcDbEntity
  8
Livello 1
370
     0
100
AcDbSpline
210
0.0
220
0.0
230
1.0
 70
     9
 71
     3
 72
    62
 73
    58
 74
     0
 42
0.000000001
 43
0.0000000001
 40
0.0
 40
0.0
 40
0.0
 40
0.0
 40
1.0
 40
1.0
 40
1.0
 40
2.0
 40
2.0
 40
2.0
 40
3.0
 40
3.0
 40
3.0
 40
4.0
 40
4.0
 40
4.0
 40
5.0
 40
5.0
 40
5.0
 40
6.0
 40
6.0
 40
6.0
 40
7.0
 40
7.0
 40
7.0
 40
8.0
 40
8.0
 40
8.0
 40
9.0
 40
9.0
 40
9.0
 40
10.0
 40
10.0
 40
10.0
 40
11.0
 40
11.0
 40
11.0
 40
12.0
 40
12.0
 40
12.0
 40
13.0
 40
13.0
 40
13.0
 40
14.0
 40
14.0
 40
14.0
 40
15.0
 40
15.0
 40
15.0
 40
16.0
 40
16.0
 40
16.0
 40
17.0
 40
17.0
 40
17.0
 40
18.0
 40
18.0
 40
18.0
 40
19.0
 40
19.0
 40
19.0
 40
19.0
 10
6.749908339237421
 20
4.834626900347238
 30
0.0
 10
6.74884789578337
 20
4.834626900347238
 30
0.0
 10
6.748142727801223
 20
4.834626900347238
 30
0.0
 10
6.747082284347158
 20
4.834979484338305
 30
0.0
 10
6.747082284347158
 20
4.834979484338305
 30
0.0
 10
6.702279894153818
 20
4.843798121336284
 30
0.0
 10
6.702279894153818
 20
4.843798121336284
 30
0.0
 10
6.702279894153818
 20
4.843798121336284
 30
0.0
 10
6.678998584819922
 20
4.854028440038966
 30
0.0
 10
6.678998584819922
 20
4.854028440038966
 30
0.0
 10
6.677588248855641
 20
4.854382369770462
 30
0.0
 10
6.67652780540159
 20
4.855087537752602
 30
0.0
 10
6.675467361947539
 20
4.856145289725809
 30
0.0
 10
6.675467361947539
 20
4.856145289725809
 30
0.0
 10
6.657477503960507
 20
4.872020989506857
 30
0.0
 10
6.657477503960507
 20
4.872020989506857
 30
0.0
 10
6.657477503960507
 20
4.872020989506857
 30
0.0
 10
6.63278585866233
 20
4.905887893015375
 30
0.0
 10
6.63278585866233
 20
4.905887893015375
 30
0.0
 10
6.63278585866233
 20
4.905887893015375
 30
0.0
 10
6.622197573006872
 20
4.931287397776536
 30
0.0
 10
6.622197573006872
 20
4.931287397776536
 30
0.0
 10
6.621492405024724
 20
4.932699079481238
 30
0.0
 10
6.621142512514509
 20
4.933756831454452
 30
0.0
 10
6.621142512514509
 20
4.935168513159155
 30
0.0
 10
6.621142512514509
 20
4.935168513159155
 30
0.0
 10
6.61902700856811
 20
4.964447787562498
 30
0.0
 10
6.61902700856811
 20
4.964447787562498
 30
0.0
 10
6.618321840585963
 20
4.972210018327707
 30
0.0
 10
6.623963184443056
 20
4.979265735370354
 30
0.0
 10
6.631725415208265
 20
4.979618319361414
 30
0.0
 10
6.63948764597346
 20
4.980323487343554
 30
0.0
 10
6.646189433284618
 20
4.974326868014529
 30
0.0
 10
6.646894601266751
 20
4.96691856698083
 30
0.0
 10
6.646894601266751
 20
4.96691856698083
 30
0.0
 10
6.649010105213179
 20
4.939753450783463
 30
0.0
 10
6.649010105213179
 20
4.939753450783463
 30
0.0
 10
6.649010105213179
 20
4.939753450783463
 30
0.0
 10
6.657127611450277
 20
4.919292813378099
 30
0.0
 10
6.657127611450277
 20
4.919292813378099
 30
0.0
 10
6.657127611450277
 20
4.919292813378099
 30
0.0
 10
6.677938141365871
 20
4.890717361216459
 30
0.0
 10
6.677938141365871
 20
4.890717361216459
 30
0.0
 10
6.677938141365871
 20
4.890717361216459
 30
0.0
 10
6.692052266932009
 20
4.878724122558431
 30
0.0
 10
6.692052266932009
 20
4.878724122558431
 30
0.0
 10
6.692052266932009
 20
4.878724122558431
 30
0.0
 10
6.710747292901174
 20
4.870609307802162
 30
0.0
 10
6.710747292901174
 20
4.870609307802162
 30
0.0
 10
6.710747292901174
 20
4.870609307802162
 30
0.0
 10
6.752729011165968
 20
4.862495838786308
 30
0.0
 10
6.752729011165968
 20
4.862495838786308
 30
0.0
 10
6.760135966459259
 20
4.861084157081606
 30
0.0
 10
6.765077525295907
 20
4.8536758560479
 30
0.0
 10
6.763661806369938
 20
4.84591497102312
 30
0.0
 10
6.762251470405658
 20
4.839211837971539
 30
0.0
 10
6.756610126548579
 20
4.834626900347238
 30
0.0
 10
6.749908339237421
 20
4.834626900347238
 30
0.0
  0
SPLINE
  5
378
330
1F
100
AcDbEntity
  8
Livello 1
370
     0
100
AcDbSpline
210
0.0
220
0.0
230
1.0
 70
     9
 71
     3
 72
    23
 73
    19
 74
     0
 42
0.000000001
 43
0.0000000001
 40
0.0
 40
0.0
 40
0.0
 40
0.0
 40
1.0
 40
1.0
 40
1.0
 40
2.0
 40
2.0
 40
2.0
 40
3.0
 40
3.0
 40
3.0
 40
4.0
 40
4.0
 40
4.0
 40
5.0
 40
5.0
 40
5.0
 40
6.0
 40
6.0
 40
6.0
 40
6.0
 10
6.632925815666411
 20
4.951606732437404
 30
0.0
 10
6.625163584901201
 20
4.951606732437404
 30
0.0
 10
6.618811690100258
 20
4.957955935757489
 30
0.0
 10
6.618811690100258
 20
4.965716820782255
 30
0.0
 10
6.618811690100258
 20
4.965716820782255
 30
0.0
 10
6.618811690100258
 20
5.024278061069814
 30
0.0
 10
6.618811690100258
 20
5.024278061069814
 30
0.0
 10
6.618811690100258
 20
5.032038946094594
 30
0.0
 10
6.625163584901201
 20
5.038389495155101
 30
0.0
 10
6.632925815666411
 20
5.038389495155101
 30
0.0
 10
6.640682663469917
 20
5.038389495155101
 30
0.0
 10
6.64703455827086
 20
5.032038946094594
 30
0.0
 10
6.64703455827086
 20
5.024278061069814
 30
0.0
 10
6.64703455827086
 20
5.024278061069814
 30
0.0
 10
6.64703455827086
 20
4.965716820782255
 30
0.0
 10
6.64703455827086
 20
4.965716820782255
 30
0.0
 10
6.64703455827086
 20
4.957955935757489
 30
0.0
 10
6.640682663469917
 20
4.951606732437404
 30
0.0
 10
6.632925815666411
 20
4.951606732437404
 30
0.0
  0
ENDSEC
  0
SECTION
  2
OBJECTS
  0
DICTIONARY
  5
C
330
0
100
AcDbDictionary
281
     1
  3
ACAD_CIP_PREVIOUS_PRODUCT_INFO
350
216
  3
ACAD_COLOR
350
6B
  3
ACAD_DETAILVIEWSTYLE
350
21B
  3
ACAD_GROUP
350
D
  3
ACAD_LAYOUT
350
1A
  3
ACAD_MATERIAL
350
6A
  3
ACAD_MLEADERSTYLE
350
12D
  3
ACAD_MLINESTYLE
350
17
  3
ACAD_PLOTSETTINGS
350
19
  3
ACAD_PLOTSTYLENAME
350
E
  3
ACAD_SCALELIST
350
10C
  3
ACAD_SECTIONVIEWSTYLE
350
219
  3
ACAD_TABLESTYLE
350
7E
  3
ACAD_VISUALSTYLE
350
EF
  3
ACDB_RECOMPOSE_DATA
350
37A
  3
AcDbVariableDictionary
350
5E
  3
AcDsDecomposeData
350
380
  0
DICTIONARY
  5
1FF
330
2
100
AcDbDictionary
280
     1
281
     1
  3
ACAD_LAYERSTATES
360
200
  0
DICTIONARY
  5
13C
330
10
100
AcDbDictionary
280
     1
281
     1
  0
DICTIONARY
  5
1CE
330
1F
100
AcDbDictionary
280
     1
281
     1
  0
XRECORD
  5
216
102
{ACAD_REACTORS
330
C
102
}
330
C
100
AcDbXrecord
280
     1
300
ACD
300
2020
300

  0
DICTIONARY
  5
6B
102
{ACAD_REACTORS
330
C
102
}
330
C
100
AcDbDictionary
281
     1
  0
DICTIONARY
  5
21B
102
{ACAD_REACTORS
330
C
102
}
330
C
100
AcDbDictionary
281
     1
  3
Imperial24
350
28E
  3
Metric50
350
21C
  0
DICTIONARY
  5
D
102
{ACAD_REACTORS
330
C
102
}
330
C
100
AcDbDictionary
281
     1
  0
DICTIONARY
  5
1A
102
{ACAD_REACTORS
330
C
102
}
330
C
100
AcDbDictionary
281
     1
  3
Layout1
350
D3
  3
Layout2
350
D7
  3
Model
350
22
  0
DICTIONARY
  5
6A
102
{ACAD_REACTORS
330
C
102
}
330
C
100
AcDbDictionary
281
     1
  3
ByBlock
350
ED
  3
ByLayer
350
EC
  3
Global
350
EE
  0
DICTIONARY
  5
12D
102
{ACAD_REACTORS
330
C
102
}
330
C
100
AcDbDictionary
281
     1
  3
Annotativa
350
13B
  3
Standard
350
12E
  0
DICTIONARY
  5
17
102
{ACAD_REACTORS
330
C
102
}
330
C
100
AcDbDictionary
281
     1
  3
Standard
350
18
  0
DICTIONARY
  5
19
102
{ACAD_REACTORS
330
C
102
}
330
C
100
AcDbDictionary
281
     1
  0
ACDBDICTIONARYWDFLT
  5
E
102
{ACAD_REACTORS
330
C
102
}
330
C
100
AcDbDictionary
281
     1
  3
Normal
350
F
100
AcDbDictionaryWithDefault
340
F
  0
DICTIONARY
  5
10C
102
{ACAD_REACTORS
330
C
102
}
330
C
100
AcDbDictionary
281
     1
  3
A0
350
10D
  3
A1
350
1BE
  3
A2
350
1BF
  3
A3
350
1C0
  3
A4
350
1C1
  3
A5
350
1C2
  3
A6
350
1C3
  3
A7
350
1C4
  3
A8
350
1C5
  3
A9
350
1C6
  3
B0
350
1C7
  3
B1
350
1C8
  3
B2
350
1C9
  3
B3
350
1CA
  3
B4
350
1CB
  3
B5
350
1CC
  3
B6
350
1CD
  0
DICTIONARY
  5
219
102
{ACAD_REACTORS
330
C
102
}
330
C
100
AcDbDictionary
281
     1
  3
Imperial24
350
28D
  3
Metric50
350
21A
  0
DICTIONARY
  5
7E
102
{ACAD_REACTORS
330
C
102
}
330
C
100
AcDbDictionary
281
     1
  3
Standard
350
7F
  0
DICTIONARY
  5
EF
102
{ACAD_REACTORS
330
C
102
}
330
C
100
AcDbDictionary
281
     1
  3
2dWireframe
350
F5
  3
Basic
350
F4
  3
Brighten
350
FB
  3
ColorChange
350
FF
  3
Conceptual
350
F8
  3
Dim
350
FA
  3
EdgeColorOff
350
1E6
  3
Facepattern
350
FE
  3
Flat
350
F0
  3
FlatWithEdges
350
F1
  3
Gouraud
350
F2
  3
GouraudWithEdges
350
F3
  3
Hidden
350
F7
  3
JitterOff
350
1E4
  3
Linepattern
350
FD
  3
OverhangOff
350
1E5
  3
Realistic
350
F9
  3
Shaded
350
1F3
  3
Shaded with edges
350
1F2
  3
Shades of Gray
350
1EF
  3
Sketchy
350
1F0
  3
Thicken
350
FC
  3
Wireframe
350
F6
  3
X-Ray
350
1F1
  0
XRECORD
  5
37A
102
{ACAD_REACTORS
330
C
102
}
330
C
100
AcDbXrecord
280
     1
 90
        1
330
7F
  0
DICTIONARY
  5
5E
102
{ACAD_REACTORS
330
C
102
}
330
C
100
AcDbDictionary
281
     1
  3
CANNOSCALE
350
146
  3
CENTEREXE
350
259
  3
CENTERLTYPEFILE
350
25A
  3
CMLEADERSTYLE
350
145
  3
CTABLESTYLE
350
84
  3
CVIEWDETAILSTYLE
350
227
  3
CVIEWSECTIONSTYLE
350
228
  3
DIMASSOC
350
5F
  3
HIDETEXT
350
63
  3
LAYEREVAL
350
1AE
  3
LAYERNOTIFY
350
1AF
  0
DICTIONARY
  5
380
102
{ACAD_REACTORS
330
C
102
}
330
C
100
AcDbDictionary
281
     1
  3
AcDsRecords
350
382
  3
AcDsSchemas
350
381
1001
ACAD
1070
     2
  0
DICTIONARY
  5
200
102
{ACAD_REACTORS
330
1FF
102
}
330
1FF
100
AcDbDictionary
281
     1
  0
ACDBDETAILVIEWSTYLE
  5
28E
102
{ACAD_XDICTIONARY
360
389
102
}
102
{ACAD_REACTORS
330
21B
102
}
330
21B
100
AcDbModelDocViewStyle
 70
     0
  3
Imperial24
290
     0
100
AcDbDetailViewStyle
 70
     0
 71
     0
 90
        3
 71
     1
340
11
 62
   256
 40
0.24
340
0
 62
   256
 40
0.24
300

 40
0.36
280
     3
 71
     2
340
16
 90
       25
 62
   256
 71
     3
340
11
 62
   256
 40
0.24
 90
        1
 40
0.75
 90
        1
300
%<\AcVar ViewType \f "%tc1">% %<\AcVar ViewDetailId>%\PSCALA %<\AcVar ViewScale \f "%sn">%
 71
     4
340
16
 90
       25
 62
   256
340
16
 90
       25
 62
   256
280
     0
  0
ACDBDETAILVIEWSTYLE
  5
21C
102
{ACAD_XDICTIONARY
360
385
102
}
102
{ACAD_REACTORS
330
21B
102
}
330
21B
100
AcDbModelDocViewStyle
 70
     0
  3
Metric50
290
     0
100
AcDbDetailViewStyle
 70
     0
 71
     0
 90
        3
 71
     1
340
11
 62
   256
 40
5.0
340
0
 62
   256
 40
5.0
300

 40
0.0
280
     1
 71
     2
340
16
 90
       25
 62
   256
 71
     3
340
11
 62
   256
 40
5.0
 90
        0
 40
15.0
 90
        1
300
%<\AcVar ViewDetailId>% (%<\AcVar ViewScale \f "%sn">%)
 71
     4
340
16
 90
       25
 62
   256
340
16
 90
       25
 62
   256
280
     0
  0
LAYOUT
  5
D3
102
{ACAD_REACTORS
330
1A
102
}
330
1A
100
AcDbPlotSettings
  1

  2
C:\Documents and Settings\basas\Application Data\Autodesk\AutoCAD 2005\R16.1\enu\plotters\Default Windows System Printer.pc3
  4

  6

 40
0.0
 41
0.0
 42
0.0
 43
0.0
 44
0.0
 45
0.0
 46
0.0
 47
0.0
 48
0.0
 49
0.0
140
0.0
141
0.0
142
1.0
143
1.0
 70
   688
 72
     0
 73
     0
 74
     5
  7

 75
    16
147
1.0
 76
     0
 77
     2
 78
   300
148
0.0
149
0.0
100
AcDbLayout
  1
Layout1
 70
     1
 71
     1
 10
0.0
 20
0.0
 11
12.0
 21
9.0
 12
0.0
 22
0.0
 32
0.0
 14
0.0
 24
0.0
 34
0.0
 15
0.0
 25
0.0
 35
0.0
146
0.0
 13
0.0
 23
0.0
 33
0.0
 16
1.0
 26
0.0
 36
0.0
 17
0.0
 27
1.0
 37
0.0
 76
     0
330
D2
  0
LAYOUT
  5
D7
102
{ACAD_REACTORS
330
1A
102
}
330
1A
100
AcDbPlotSettings
  1

  2
C:\Documents and Settings\basas\Application Data\Autodesk\AutoCAD 2005\R16.1\enu\plotters\Default Windows System Printer.pc3
  4

  6

 40
0.0
 41
0.0
 42
0.0
 43
0.0
 44
0.0
 45
0.0
 46
0.0
 47
0.0
 48
0.0
 49
0.0
140
0.0
141
0.0
142
1.0
143
1.0
 70
   688
 72
     0
 73
     0
 74
     5
  7

 75
    16
147
1.0
 76
     0
 77
     2
 78
   300
148
0.0
149
0.0
100
AcDbLayout
  1
Layout2
 70
     1
 71
     2
 10
0.0
 20
0.0
 11
12.0
 21
9.0
 12
0.0
 22
0.0
 32
0.0
 14
0.0
 24
0.0
 34
0.0
 15
0.0
 25
0.0
 35
0.0
146
0.0
 13
0.0
 23
0.0
 33
0.0
 16
1.0
 26
0.0
 36
0.0
 17
0.0
 27
1.0
 37
0.0
 76
     0
330
D6
  0
LAYOUT
  5
22
102
{ACAD_XDICTIONARY
360
205
102
}
102
{ACAD_REACTORS
330
1A
102
}
330
1A
100
AcDbPlotSettings
  1

  2
none_device
  4
ISO_A4_(210.00_x_297.00_MM)
  6

 40
7.5
 41
20.0
 42
7.5
 43
20.0
 44
210.0
 45
297.0
 46
11.54999923706054
 47
-13.65000009536743
 48
0.0
 49
0.0
140
0.0
141
0.0
142
1.0
143
8.704084754739808
 70
 11952
 72
     1
 73
     0
 74
     0
  7

 75
     0
147
0.1148885871608098
 76
     0
 77
     2
 78
   300
148
0.0
149
0.0
100
AcDbLayout
  1
Model
 70
     1
 71
     0
 10
0.0
 20
0.0
 11
12.0
 21
9.0
 12
0.0
 22
0.0
 32
0.0
 14
0.0
 24
0.0
 34
0.0
 15
0.0
 25
0.0
 35
0.0
146
0.0
 13
0.0
 23
0.0
 33
0.0
 16
1.0
 26
0.0
 36
0.0
 17
0.0
 27
1.0
 37
0.0
 76
     0
330
1F
331
EA
1001
ACAD_PSEXT
1000
None
1000
None
1000
Not applicable
1000
The layout will not be plotted unless a new plotter configuration name is selected.
1070
     0
  0
MATERIAL
  5
ED
102
{ACAD_XDICTIONARY
360
1F9
102
}
102
{ACAD_REACTORS
330
6A
102
}
330
6A
100
AcDbMaterial
  1
ByBlock
 94
       63
  0
MATERIAL
  5
EC
102
{ACAD_XDICTIONARY
360
1F7
102
}
102
{ACAD_REACTORS
330
6A
102
}
330
6A
100
AcDbMaterial
  1
ByLayer
 94
       63
  0
MATERIAL
  5
EE
102
{ACAD_XDICTIONARY
360
173
102
}
102
{ACAD_REACTORS
330
6A
102
}
330
6A
100
AcDbMaterial
  1
Global
 43
0.0007999999797903
 43
0.0
 43
0.0
 43
0.0
 43
0.0
 43
0.0007999999797903
 43
0.0
 43
0.0
 43
0.0
 43
0.0
 43
1.0
 43
0.0
 43
0.0
 43
0.0
 43
0.0
 43
1.0
 49
0.0007999999797903
 49
0.0
 49
0.0
 49
0.0
 49
0.0
 49
0.0007999999797903
 49
0.0
 49
0.0
 49
0.0
 49
0.0
 49
1.0
 49
0.0
 49
0.0
 49
0.0
 49
0.0
 49
1.0
142
0.0007999999797903
142
0.0
142
0.0
142
0.0
142
0.0
142
0.0007999999797903
142
0.0
142
0.0
142
0.0
142
0.0
142
1.0
142
0.0
142
0.0
142
0.0
142
0.0
142
1.0
144
0.0007999999797903
144
0.0
144
0.0
144
0.0
144
0.0
144
0.0007999999797903
144
0.0
144
0.0
144
0.0
144
0.0
144
1.0
144
0.0
144
0.0
144
0.0
144
0.0
144
1.0
 94
       63
1001
ACAD
1070
    -1
1070
     3
1070
     0
1000

1071
        0
1070
     0
  0
MLEADERSTYLE
  5
13B
102
{ACAD_REACTORS
330
12D
102
}
330
12D
100
AcDbMLeaderStyle
179
     2
170
     2
171
     1
172
     0
 90
        2
 40
0.0
 41
0.0
173
     1
 91
-1056964608
340
14
 92
       -2
290
     1
 42
2.0
291
     1
 43
8.0
  3
Standard
 44
4.0
300

342
11
174
     1
178
     1
175
     1
176
     0
 93
-1056964608
 45
4.0
292
     0
297
     0
 46
4.0
 94
-1056964608
 47
1.0
 49
1.0
140
1.0
293
     1
141
0.0
294
     1
177
     0
142
1.0
295
     0
296
     1
143
3.75
271
     0
272
     9
273
     9
298
     0
  0
MLEADERSTYLE
  5
12E
102
{ACAD_REACTORS
330
12D
102
}
330
12D
100
AcDbMLeaderStyle
179
     2
170
     2
171
     1
172
     0
 90
        2
 40
0.0
 41
0.0
173
     1
 91
-1056964608
340
14
 92
       -2
290
     1
 42
2.0
291
     1
 43
8.0
  3
Standard
 44
4.0
300

342
11
174
     1
178
     1
175
     1
176
     0
 93
-1056964608
 45
4.0
292
     0
297
     0
 46
4.0
 94
-1056964608
 47
1.0
 49
1.0
140
1.0
293
     1
141
0.0
294
     1
177
     0
142
1.0
295
     0
296
     0
143
3.75
271
     0
272
     9
273
     9
298
     0
  0
MLINESTYLE
  5
18
102
{ACAD_REACTORS
330
17
102
}
330
17
100
AcDbMlineStyle
  2
STANDARD
 70
     0
  3

 62
   256
 51
90.0
 52
90.0
 71
     2
 49
0.5
 62
   256
  6
BYLAYER
 49
-0.5
 62
   256
  6
BYLAYER
  0
ACDBPLACEHOLDER
  5
F
102
{ACAD_REACTORS
330
E
102
}
330
E
  0
SCALE
  5
10D
102
{ACAD_REACTORS
330
10C
102
}
330
10C
100
AcDbScale
 70
     0
300
1:1
140
1.0
141
1.0
290
     1
  0
SCALE
  5
1BE
102
{ACAD_REACTORS
330
10C
102
}
330
10C
100
AcDbScale
 70
     0
300
1:2
140
1.0
141
2.0
290
     0
  0
SCALE
  5
1BF
102
{ACAD_REACTORS
330
10C
102
}
330
10C
100
AcDbScale
 70
     0
300
1:4
140
1.0
141
4.0
290
     0
  0
SCALE
  5
1C0
102
{ACAD_REACTORS
330
10C
102
}
330
10C
100
AcDbScale
 70
     0
300
1:5
140
1.0
141
5.0
290
     0
  0
SCALE
  5
1C1
102
{ACAD_REACTORS
330
10C
102
}
330
10C
100
AcDbScale
 70
     0
300
1:8
140
1.0
141
8.0
290
     0
  0
SCALE
  5
1C2
102
{ACAD_REACTORS
330
10C
102
}
330
10C
100
AcDbScale
 70
     0
300
1:10
140
1.0
141
10.0
290
     0
  0
SCALE
  5
1C3
102
{ACAD_REACTORS
330
10C
102
}
330
10C
100
AcDbScale
 70
     0
300
1:16
140
1.0
141
16.0
290
     0
  0
SCALE
  5
1C4
102
{ACAD_REACTORS
330
10C
102
}
330
10C
100
AcDbScale
 70
     0
300
1:20
140
1.0
141
20.0
290
     0
  0
SCALE
  5
1C5
102
{ACAD_REACTORS
330
10C
102
}
330
10C
100
AcDbScale
 70
     0
300
1:30
140
1.0
141
30.0
290
     0
  0
SCALE
  5
1C6
102
{ACAD_REACTORS
330
10C
102
}
330
10C
100
AcDbScale
 70
     0
300
1:40
140
1.0
141
40.0
290
     0
  0
SCALE
  5
1C7
102
{ACAD_REACTORS
330
10C
102
}
330
10C
100
AcDbScale
 70
     0
300
1:50
140
1.0
141
50.0
290
     0
  0
SCALE
  5
1C8
102
{ACAD_REACTORS
330
10C
102
}
330
10C
100
AcDbScale
 70
     0
300
1:100
140
1.0
141
100.0
290
     0
  0
SCALE
  5
1C9
102
{ACAD_REACTORS
330
10C
102
}
330
10C
100
AcDbScale
 70
     0
300
2:1
140
2.0
141
1.0
290
     0
  0
SCALE
  5
1CA
102
{ACAD_REACTORS
330
10C
102
}
330
10C
100
AcDbScale
 70
     0
300
4:1
140
4.0
141
1.0
290
     0
  0
SCALE
  5
1CB
102
{ACAD_REACTORS
330
10C
102
}
330
10C
100
AcDbScale
 70
     0
300
8:1
140
8.0
141
1.0
290
     0
  0
SCALE
  5
1CC
102
{ACAD_REACTORS
330
10C
102
}
330
10C
100
AcDbScale
 70
     0
300
10:1
140
10.0
141
1.0
290
     0
  0
SCALE
  5
1CD
102
{ACAD_REACTORS
330
10C
102
}
330
10C
100
AcDbScale
 70
     0
300
100:1
140
100.0
141
1.0
290
     0
  0
ACDBSECTIONVIEWSTYLE
  5
28D
102
{ACAD_XDICTIONARY
360
387
102
}
102
{ACAD_REACTORS
330
219
102
}
330
219
100
AcDbModelDocViewStyle
 70
     0
  3
Imperial24
290
     0
100
AcDbSectionViewStyle
 70
     0
 71
     0
 90
       78
 71
     1
340
11
 62
   256
 40
0.24
340
0
340
0
 62
   256
 40
0.24
300
I, O, Q, S, X, Z
 40
0.48
 90
        3
 40
0.18
 90
        1
 71
     2
340
16
 90
       25
 62
   256
340
16
 90
       50
 62
   256
 40
0.24
 40
0.0
 40
0.24
 71
     3
340
11
 62
   256
 40
0.24
 90
        1
 40
0.75
 90
        1
300
%<\AcVar ViewType \f "%tc1">% %<\AcVar ViewSectionStartId>%-%<\AcVar ViewSectionEndId>%\PSCALA %<\AcVar ViewScale \f "%sn">%
 71
     4
 62
   256
 62
   257
300
ANSI31
 40
1.0
 90
        0
290
     0
290
     0
 90
        6
 40
0.0
 40
1.570796326794896
 40
0.2617993877991494
 40
1.308996938995747
 40
-0.2617993877991494
 40
1.832595714594046
  0
ACDBSECTIONVIEWSTYLE
  5
21A
102
{ACAD_XDICTIONARY
360
383
102
}
102
{ACAD_REACTORS
330
219
102
}
330
219
100
AcDbModelDocViewStyle
 70
     0
  3
Metric50
290
     0
100
AcDbSectionViewStyle
 70
     0
 71
     0
 90
      102
 71
     1
340
11
 62
   256
 40
5.0
340
0
340
0
 62
   256
 40
5.0
300
I, O, Q, S, X, Z
 40
10.0
 90
        0
 40
2.5
 90
        0
 71
     2
340
16
 90
       25
 62
   256
340
16
 90
       50
 62
   256
 40
5.0
 40
2.5
 40
5.0
 71
     3
340
11
 62
   256
 40
5.0
 90
        0
 40
15.0
 90
        1
300
%<\AcVar ViewSectionStartId>%-%<\AcVar ViewSectionEndId>% (%<\AcVar ViewScale \f "%sn">%)
 71
     4
 62
   256
 62
   257
300
ANSI31
 40
1.0
 90
        0
290
     0
290
     0
 90
        6
 40
0.0
 40
1.570796326794896
 40
0.2617993877991494
 40
1.308996938995747
 40
-0.2617993877991494
 40
1.832595714594046
  0
TABLESTYLE
  5
7F
102
{ACAD_XDICTIONARY
360
162
102
}
102
{ACAD_REACTORS
330
7E
102
}
330
7E
100
AcDbTableStyle
280
     0
  3
Standard
 70
     0
 71
     0
 40
1.5
 41
1.5
280
     0
281
     0
  7
Standard
140
4.5
170
     2
 62
     0
 63
     7
283
     0
 90
      512
 91
        0
  1

274
    -2
284
     1
 64
     0
275
    -2
285
     1
 65
     0
276
    -2
286
     1
 66
     0
277
    -2
287
     1
 67
     0
278
    -2
288
     1
 68
     0
279
    -2
289
     1
 69
     0
  7
Standard
140
6.0
170
     5
 62
     0
 63
     7
283
     0
 90
      512
 91
        0
  1

274
    -2
284
     1
 64
     0
275
    -2
285
     1
 65
     0
276
    -2
286
     1
 66
     0
277
    -2
287
     1
 67
     0
278
    -2
288
     1
 68
     0
279
    -2
289
     1
 69
     0
  7
Standard
140
4.5
170
     5
 62
     0
 63
     7
283
     0
 90
      512
 91
        0
  1

274
    -2
284
     1
 64
     0
275
    -2
285
     1
 65
     0
276
    -2
286
     1
 66
     0
277
    -2
287
     1
 67
     0
278
    -2
288
     1
 68
     0
279
    -2
289
     1
 69
     0
  0
VISUALSTYLE
  5
F5
102
{ACAD_REACTORS
330
EF
102
}
330
EF
100
AcDbVisualStyle
  2
2dWireframe
 70
     4
177
     3
291
     0
 70
    58
 90
        0
176
     1
 90
        2
176
     1
 90
        1
176
     1
 90
        0
176
     1
 40
0.6
176
     1
 40
30.0
176
     1
 62
     7
420
 16777215
176
     1
 90
        1
176
     1
 90
        4
176
     1
 62
     7
176
     1
 62
   257
176
     1
 90
        1
176
     1
 90
        1
176
     1
 40
1.0
176
     1
 90
        0
176
     1
 62
   257
176
     1
 40
1.0
176
     1
 90
        1
176
     1
 90
        6
176
     1
 90
        2
176
     1
 62
     7
176
     1
 90
        5
176
     1
 90
        0
176
     1
 90
        0
176
     1
290
     0
176
     1
 90
        1
176
     1
 40
0.0
176
     1
 90
        0
176
     1
290
     1
176
     1
290
     1
176
     1
290
     0
176
     1
290
     0
176
     1
290
     0
176
     1
290
     0
176
     1
290
     0
176
     1
290
     0
176
     1
290
     0
176
     1
 90
       50
176
     1
 40
0.0
176
     1
 40
1.0
176
     1
 90
        0
176
     1
 62
    18
420
        0
176
     1
 90
       50
176
     1
 90
        3
176
     1
 62
     5
420
      255
176
     1
290
     0
176
     1
 90
       50
176
     1
 90
       50
176
     1
 90
       50
176
     1
290
     0
176
     1
 90
       50
176
     1
 62
   256
176
     0
 40
1.0
176
     0
 90
        2
176
     1
  1
strokes_ogs.tif
176
     1
290
     0
176
     1
 40
1.0
176
     1
 40
1.0
176
     1
1001
ACAD
1000
AcDbSavedByObjectVersion
1070
     0
  0
VISUALSTYLE
  5
F4
102
{ACAD_REACTORS
330
EF
102
}
330
EF
100
AcDbVisualStyle
  2
Basic
 70
     7
177
     3
291
     1
 70
    58
 90
        1
176
     1
 90
        0
176
     1
 90
        1
176
     1
 90
        0
176
     1
 40
0.6
176
     1
 40
30.0
176
     1
 62
     7
420
 16777215
176
     1
 90
        0
176
     1
 90
        4
176
     1
 62
     7
176
     1
 62
   257
176
     1
 90
        1
176
     1
 90
        1
176
     1
 40
1.0
176
     1
 90
        8
176
     1
 62
     7
176
     1
 40
1.0
176
     1
 90
        1
176
     1
 90
        6
176
     1
 90
        2
176
     1
 62
     7
176
     1
 90
        5
176
     1
 90
        0
176
     1
 90
        0
176
     1
290
     0
176
     1
 90
        1
176
     1
 40
0.0
176
     1
 90
        0
176
     1
290
     0
176
     1
290
     1
176
     1
290
     1
176
     1
290
     0
176
     1
290
     0
176
     1
290
     0
176
     1
290
     0
176
     1
290
     0
176
     1
290
     0
176
     1
 90
       50
176
     1
 40
0.0
176
     1
 40
1.0
176
     1
 90
        0
176
     1
 62
    18
420
        0
176
     1
 90
       50
176
     1
 90
        3
176
     1
 62
     5
420
      255
176
     1
290
     0
176
     1
 90
       50
176
     1
 90
       50
176
     1
 90
       50
176
     1
290
     0
176
     1
 90
       50
176
     1
 62
   256
176
     0
 40
1.0
176
     0
 90
        2
176
     1
  1
strokes_ogs.tif
176
     1
290
     0
176
     1
 40
1.0
176
     1
 40
1.0
176
     1
1001
ACAD
1000
AcDbSavedByObjectVersion
1070
     0
  0
VISUALSTYLE
  5
FB
102
{ACAD_REACTORS
330
EF
102
}
330
EF
100
AcDbVisualStyle
  2
Brighten
 70
    12
177
     3
291
     1
 70
    58
 90
        2
176
     1
 90
        2
176
     1
 90
        1
176
     1
 90
        0
176
     1
 40
0.6
176
     1
 40
30.0
176
     1
 62
     7
420
 16777215
176
     1
 90
        1
176
     1
 90
        4
176
     1
 62
     7
176
     1
 62
   257
176
     1
 90
        1
176
     1
 90
        1
176
     1
 40
1.0
176
     1
 90
        8
176
     1
 62
     7
176
     1
 40
1.0
176
     1
 90
        1
176
     1
 90
        6
176
     1
 90
        2
176
     1
 62
     7
176
     1
 90
        5
176
     1
 90
        0
176
     1
 90
        0
176
     1
290
     0
176
     1
 90
        1
176
     1
 40
50.0
176
     1
 90
        0
176
     1
290
     0
176
     1
290
     1
176
     1
290
     1
176
     1
290
     0
176
     1
290
     0
176
     1
290
     0
176
     1
290
     0
176
     1
290
     0
176
     1
290
     0
176
     1
 90
       50
176
     1
 40
0.0
176
     1
 40
1.0
176
     1
 90
        0
176
     1
 62
    18
420
        0
176
     1
 90
       50
176
     1
 90
        3
176
     1
 62
     5
420
      255
176
     1
290
     0
176
     1
 90
       50
176
     1
 90
       50
176
     1
 90
       50
176
     1
290
     0
176
     1
 90
       50
176
     1
 62
   256
176
     0
 40
1.0
176
     0
 90
        2
176
     1
  1
strokes_ogs.tif
176
     1
290
     0
176
     1
 40
1.0
176
     1
 40
1.0
176
     1
1001
ACAD
1000
AcDbSavedByObjectVersion
1070
     0
  0
VISUALSTYLE
  5
FF
102
{ACAD_REACTORS
330
EF
102
}
330
EF
100
AcDbVisualStyle
  2
ColorChange
 70
    16
177
     3
291
     1
 70
    58
 90
        2
176
     1
 90
        2
176
     1
 90
        3
176
     1
 90
        0
176
     1
 40
0.6
176
     1
 40
30.0
176
     1
 62
     8
420
  8421504
176
     1
 90
        1
176
     1
 90
        4
176
     1
 62
     7
176
     1
 62
   257
176
     1
 90
        1
176
     1
 90
        1
176
     1
 40
1.0
176
     1
 90
        8
176
     1
 62
     8
420
  8421504
176
     1
 40
1.0
176
     1
 90
        1
176
     1
 90
        6
176
     1
 90
        2
176
     1
 62
     7
176
     1
 90
        5
176
     1
 90
        0
176
     1
 90
        0
176
     1
290
     0
176
     1
 90
        1
176
     1
 40
0.0
176
     1
 90
        0
176
     1
290
     0
176
     1
290
     1
176
     1
290
     1
176
     1
290
     0
176
     1
290
     0
176
     1
290
     0
176
     1
290
     0
176
     1
290
     0
176
     1
290
     0
176
     1
 90
       50
176
     1
 40
0.0
176
     1
 40
1.0
176
     1
 90
        0
176
     1
 62
    18
420
        0
176
     1
 90
       50
176
     1
 90
        3
176
     1
 62
     5
420
      255
176
     1
290
     0
176
     1
 90
       50
176
     1
 90
       50
176
     1
 90
       50
176
     1
290
     0
176
     1
 90
       50
176
     1
 62
   256
176
     0
 40
1.0
176
     0
 90
        2
176
     1
  1
strokes_ogs.tif
176
     1
290
     0
176
     1
 40
1.0
176
     1
 40
1.0
176
     1
1001
ACAD
1000
AcDbSavedByObjectVersion
1070
     0
  0
VISUALSTYLE
  5
F8
102
{ACAD_REACTORS
330
EF
102
}
330
EF
100
AcDbVisualStyle
  2
Conceptual
 70
     9
177
     3
291
     0
 70
    58
 90
        3
176
     1
 90
        2
176
     1
 90
        1
176
     1
 90
        0
176
     1
 40
0.6
176
     1
 40
30.0
176
     1
 62
     7
420
 16777215
176
     1
 90
        2
176
     1
 90
        2
176
     1
 62
     7
176
     1
 62
   257
176
     1
 90
        1
176
     1
 90
        1
176
     1
 40
40.0
176
     1
 90
        8
176
     1
 62
     7
176
     1
 40
1.0
176
     1
 90
        1
176
     1
 90
        6
176
     1
 90
        2
176
     1
 62
     7
176
     1
 90
        3
176
     1
 90
        0
176
     1
 90
        0
176
     1
290
     0
176
     1
 90
        1
176
     1
 40
0.0
176
     1
 90
        0
176
     1
290
     0
176
     1
290
     1
176
     1
290
     1
176
     1
290
     0
176
     1
290
     0
176
     1
290
     0
176
     1
290
     0
176
     1
290
     0
176
     1
290
     0
176
     1
 90
       50
176
     1
 40
0.0
176
     1
 40
1.0
176
     1
 90
        0
176
     1
 62
    18
420
        0
176
     1
 90
       50
176
     1
 90
        3
176
     1
 62
     5
420
      255
176
     1
290
     0
176
     1
 90
       50
176
     1
 90
       50
176
     1
 90
       50
176
     1
290
     0
176
     1
 90
       50
176
     1
 62
   256
176
     0
 40
1.0
176
     0
 90
        2
176
     1
  1
strokes_ogs.tif
176
     1
290
     0
176
     1
 40
1.0
176
     1
 40
1.0
176
     1
1001
ACAD
1000
AcDbSavedByObjectVersion
1070
     0
  0
VISUALSTYLE
  5
FA
102
{ACAD_REACTORS
330
EF
102
}
330
EF
100
AcDbVisualStyle
  2
Dim
 70
    11
177
     3
291
     1
 70
    58
 90
        2
176
     1
 90
        2
176
     1
 90
        1
176
     1
 90
        0
176
     1
 40
0.6
176
     1
 40
30.0
176
     1
 62
     7
420
 16777215
176
     1
 90
        1
176
     1
 90
        4
176
     1
 62
     7
176
     1
 62
   257
176
     1
 90
        1
176
     1
 90
        1
176
     1
 40
1.0
176
     1
 90
        8
176
     1
 62
     7
176
     1
 40
1.0
176
     1
 90
        1
176
     1
 90
        6
176
     1
 90
        2
176
     1
 62
     7
176
     1
 90
        5
176
     1
 90
        0
176
     1
 90
        0
176
     1
290
     0
176
     1
 90
        1
176
     1
 40
-50.0
176
     1
 90
        0
176
     1
290
     0
176
     1
290
     1
176
     1
290
     1
176
     1
290
     0
176
     1
290
     0
176
     1
290
     0
176
     1
290
     0
176
     1
290
     0
176
     1
290
     0
176
     1
 90
       50
176
     1
 40
0.0
176
     1
 40
1.0
176
     1
 90
        0
176
     1
 62
    18
420
        0
176
     1
 90
       50
176
     1
 90
        3
176
     1
 62
     5
420
      255
176
     1
290
     0
176
     1
 90
       50
176
     1
 90
       50
176
     1
 90
       50
176
     1
290
     0
176
     1
 90
       50
176
     1
 62
   256
176
     0
 40
1.0
176
     0
 90
        2
176
     1
  1
strokes_ogs.tif
176
     1
290
     0
176
     1
 40
1.0
176
     1
 40
1.0
176
     1
1001
ACAD
1000
AcDbSavedByObjectVersion
1070
     0
  0
VISUALSTYLE
  5
1E6
102
{ACAD_REACTORS
330
EF
102
}
330
EF
100
AcDbVisualStyle
  2
EdgeColorOff
 70
    22
177
     3
291
     1
 70
    58
 90
        2
176
     0
 90
        2
176
     0
 90
        0
176
     0
 90
        0
176
     0
 40
0.6
176
     0
 40
30.0
176
     0
 62
     7
420
 16777215
176
     0
 90
        1
176
     0
 90
        4
176
     0
 62
     7
176
     0
 62
   257
176
     0
 90
        1
176
     0
 90
        1
176
     0
 40
1.0
176
     0
 90
        8
176
     2
 62
     7
176
     0
 40
1.0
176
     0
 90
        1
176
     0
 90
        6
176
     0
 90
        2
176
     0
 62
     7
176
     0
 90
        5
176
     0
 90
        0
176
     0
 90
        0
176
     0
290
     0
176
     0
 90
        1
176
     0
 40
0.0
176
     0
 90
        0
176
     0
290
     0
176
     1
290
     1
176
     1
290
     1
176
     1
290
     0
176
     1
290
     0
176
     1
290
     0
176
     1
290
     0
176
     1
290
     0
176
     1
290
     0
176
     1
 90
       50
176
     1
 40
0.0
176
     1
 40
1.0
176
     1
 90
        0
176
     1
 62
    18
420
        0
176
     1
 90
       50
176
     1
 90
        3
176
     1
 62
     5
420
      255
176
     1
290
     0
176
     1
 90
       50
176
     1
 90
       50
176
     1
 90
       50
176
     1
290
     0
176
     1
 90
       50
176
     1
 62
   256
176
     0
 40
1.0
176
     0
 90
        2
176
     1
  1
strokes_ogs.tif
176
     1
290
     0
176
     1
 40
1.0
176
     1
 40
1.0
176
     1
1001
ACAD
1000
AcDbSavedByObjectVersion
1070
     0
  0
VISUALSTYLE
  5
FE
102
{ACAD_REACTORS
330
EF
102
}
330
EF
100
AcDbVisualStyle
  2
Facepattern
 70
    15
177
     3
291
     1
 70
    58
 90
        2
176
     1
 90
        2
176
     1
 90
        1
176
     1
 90
        0
176
     1
 40
0.6
176
     1
 40
30.0
176
     1
 62
     7
420
 16777215
176
     1
 90
        1
176
     1
 90
        4
176
     1
 62
     7
176
     1
 62
   257
176
     1
 90
        1
176
     1
 90
        1
176
     1
 40
1.0
176
     1
 90
        8
176
     1
 62
     7
176
     1
 40
1.0
176
     1
 90
        1
176
     1
 90
        6
176
     1
 90
        2
176
     1
 62
     7
176
     1
 90
        5
176
     1
 90
        0
176
     1
 90
        0
176
     1
290
     0
176
     1
 90
        1
176
     1
 40
0.0
176
     1
 90
        0
176
     1
290
     0
176
     1
290
     1
176
     1
290
     1
176
     1
290
     0
176
     1
290
     0
176
     1
290
     0
176
     1
290
     0
176
     1
290
     0
176
     1
290
     0
176
     1
 90
       50
176
     1
 40
0.0
176
     1
 40
1.0
176
     1
 90
        0
176
     1
 62
    18
420
        0
176
     1
 90
       50
176
     1
 90
        3
176
     1
 62
     5
420
      255
176
     1
290
     0
176
     1
 90
       50
176
     1
 90
       50
176
     1
 90
       50
176
     1
290
     0
176
     1
 90
       50
176
     1
 62
   256
176
     0
 40
1.0
176
     0
 90
        2
176
     1
  1
strokes_ogs.tif
176
     1
290
     0
176
     1
 40
1.0
176
     1
 40
1.0
176
     1
1001
ACAD
1000
AcDbSavedByObjectVersion
1070
     0
  0
VISUALSTYLE
  5
F0
102
{ACAD_REACTORS
330
EF
102
}
330
EF
100
AcDbVisualStyle
  2
Flat
 70
     0
177
     3
291
     1
 70
    58
 90
        2
176
     1
 90
        1
176
     1
 90
        1
176
     1
 90
        2
176
     1
 40
0.6
176
     1
 40
30.0
176
     1
 62
     7
420
 16777215
176
     1
 90
        0
176
     1
 90
        0
176
     1
 62
     7
176
     1
 62
   257
176
     1
 90
        1
176
     1
 90
        1
176
     1
 40
1.0
176
     1
 90
        8
176
     1
 62
     7
176
     1
 40
1.0
176
     1
 90
        1
176
     1
 90
        6
176
     1
 90
        2
176
     1
 62
     7
176
     1
 90
        5
176
     1
 90
        0
176
     1
 90
        0
176
     1
290
     0
176
     1
 90
       13
176
     1
 40
0.0
176
     1
 90
        0
176
     1
290
     0
176
     1
290
     1
176
     1
290
     1
176
     1
290
     0
176
     1
290
     0
176
     1
290
     0
176
     1
290
     0
176
     1
290
     0
176
     1
290
     0
176
     1
 90
       50
176
     1
 40
0.0
176
     1
 40
1.0
176
     1
 90
        0
176
     1
 62
    18
420
        0
176
     1
 90
       50
176
     1
 90
        3
176
     1
 62
     5
420
      255
176
     1
290
     0
176
     1
 90
       50
176
     1
 90
       50
176
     1
 90
       50
176
     1
290
     0
176
     1
 90
       50
176
     1
 62
   256
176
     0
 40
1.0
176
     0
 90
        2
176
     1
  1
strokes_ogs.tif
176
     1
290
     0
176
     1
 40
1.0
176
     1
 40
1.0
176
     1
1001
ACAD
1000
AcDbSavedByObjectVersion
1070
     0
  0
VISUALSTYLE
  5
F1
102
{ACAD_REACTORS
330
EF
102
}
330
EF
100
AcDbVisualStyle
  2
FlatWithEdges
 70
     1
177
     3
291
     1
 70
    58
 90
        2
176
     1
 90
        1
176
     1
 90
        1
176
     1
 90
        2
176
     1
 40
0.6
176
     1
 40
30.0
176
     1
 62
     7
420
 16777215
176
     1
 90
        1
176
     1
 90
        0
176
     1
 62
     7
176
     1
 62
   257
176
     1
 90
        1
176
     1
 90
        1
176
     1
 40
1.0
176
     1
 90
        0
176
     1
 62
   257
176
     1
 40
1.0
176
     1
 90
        1
176
     1
 90
        6
176
     1
 90
        2
176
     1
 62
     7
176
     1
 90
        5
176
     1
 90
        0
176
     1
 90
        0
176
     1
290
     0
176
     1
 90
       13
176
     1
 40
0.0
176
     1
 90
        0
176
     1
290
     0
176
     1
290
     1
176
     1
290
     1
176
     1
290
     0
176
     1
290
     0
176
     1
290
     0
176
     1
290
     0
176
     1
290
     0
176
     1
290
     0
176
     1
 90
       50
176
     1
 40
0.0
176
     1
 40
1.0
176
     1
 90
        0
176
     1
 62
    18
420
        0
176
     1
 90
       50
176
     1
 90
        3
176
     1
 62
     5
420
      255
176
     1
290
     0
176
     1
 90
       50
176
     1
 90
       50
176
     1
 90
       50
176
     1
290
     0
176
     1
 90
       50
176
     1
 62
   256
176
     0
 40
1.0
176
     0
 90
        2
176
     1
  1
strokes_ogs.tif
176
     1
290
     0
176
     1
 40
1.0
176
     1
 40
1.0
176
     1
1001
ACAD
1000
AcDbSavedByObjectVersion
1070
     0
  0
VISUALSTYLE
  5
F2
102
{ACAD_REACTORS
330
EF
102
}
330
EF
100
AcDbVisualStyle
  2
Gouraud
 70
     2
177
     3
291
     1
 70
    58
 90
        2
176
     1
 90
        2
176
     1
 90
        1
176
     1
 90
        2
176
     1
 40
0.6
176
     1
 40
30.0
176
     1
 62
     7
420
 16777215
176
     1
 90
        0
176
     1
 90
        0
176
     1
 62
     7
176
     1
 62
   257
176
     1
 90
        1
176
     1
 90
        1
176
     1
 40
1.0
176
     1
 90
        0
176
     1
 62
     7
176
     1
 40
1.0
176
     1
 90
        1
176
     1
 90
        6
176
     1
 90
        2
176
     1
 62
     7
176
     1
 90
        5
176
     1
 90
        0
176
     1
 90
        0
176
     1
290
     0
176
     1
 90
       13
176
     1
 40
0.0
176
     1
 90
        0
176
     1
290
     0
176
     1
290
     1
176
     1
290
     1
176
     1
290
     0
176
     1
290
     0
176
     1
290
     0
176
     1
290
     0
176
     1
290
     0
176
     1
290
     0
176
     1
 90
       50
176
     1
 40
0.0
176
     1
 40
1.0
176
     1
 90
        0
176
     1
 62
    18
420
        0
176
     1
 90
       50
176
     1
 90
        3
176
     1
 62
     5
420
      255
176
     1
290
     0
176
     1
 90
       50
176
     1
 90
       50
176
     1
 90
       50
176
     1
290
     0
176
     1
 90
       50
176
     1
 62
   256
176
     0
 40
1.0
176
     0
 90
        2
176
     1
  1
strokes_ogs.tif
176
     1
290
     0
176
     1
 40
1.0
176
     1
 40
1.0
176
     1
1001
ACAD
1000
AcDbSavedByObjectVersion
1070
     0
  0
VISUALSTYLE
  5
F3
102
{ACAD_REACTORS
330
EF
102
}
330
EF
100
AcDbVisualStyle
  2
GouraudWithEdges
 70
     3
177
     3
291
     1
 70
    58
 90
        2
176
     1
 90
        2
176
     1
 90
        1
176
     1
 90
        2
176
     1
 40
0.6
176
     1
 40
30.0
176
     1
 62
     7
420
 16777215
176
     1
 90
        1
176
     1
 90
        0
176
     1
 62
     7
176
     1
 62
   257
176
     1
 90
        1
176
     1
 90
        1
176
     1
 40
1.0
176
     1
 90
        0
176
     1
 62
   257
176
     1
 40
1.0
176
     1
 90
        1
176
     1
 90
        6
176
     1
 90
        2
176
     1
 62
     7
176
     1
 90
        5
176
     1
 90
        0
176
     1
 90
        0
176
     1
290
     0
176
     1
 90
       13
176
     1
 40
0.0
176
     1
 90
        0
176
     1
290
     0
176
     1
290
     1
176
     1
290
     1
176
     1
290
     0
176
     1
290
     0
176
     1
290
     0
176
     1
290
     0
176
     1
290
     0
176
     1
290
     0
176
     1
 90
       50
176
     1
 40
0.0
176
     1
 40
1.0
176
     1
 90
        0
176
     1
 62
    18
420
        0
176
     1
 90
       50
176
     1
 90
        3
176
     1
 62
     5
420
      255
176
     1
290
     0
176
     1
 90
       50
176
     1
 90
       50
176
     1
 90
       50
176
     1
290
     0
176
     1
 90
       50
176
     1
 62
   256
176
     0
 40
1.0
176
     0
 90
        2
176
     1
  1
strokes_ogs.tif
176
     1
290
     0
176
     1
 40
1.0
176
     1
 40
1.0
176
     1
1001
ACAD
1000
AcDbSavedByObjectVersion
1070
     0
  0
VISUALSTYLE
  5
F7
102
{ACAD_REACTORS
330
EF
102
}
330
EF
100
AcDbVisualStyle
  2
Hidden
 70
     6
177
     3
291
     0
 70
    58
 90
        1
176
     1
 90
        2
176
     1
 90
        2
176
     1
 90
        0
176
     1
 40
0.6
176
     1
 40
30.0
176
     1
 62
     7
420
 16777215
176
     1
 90
        2
176
     1
 90
        2
176
     1
 62
     7
176
     1
 62
   257
176
     1
 90
        2
176
     1
 90
        1
176
     1
 40
40.0
176
     1
 90
        0
176
     1
 62
   257
176
     1
 40
1.0
176
     1
 90
        1
176
     1
 90
        6
176
     1
 90
        2
176
     1
 62
     7
176
     1
 90
        3
176
     1
 90
        0
176
     1
 90
        0
176
     1
290
     0
176
     1
 90
        1
176
     1
 40
0.0
176
     1
 90
        0
176
     1
290
     0
176
     1
290
     1
176
     1
290
     1
176
     1
290
     0
176
     1
290
     0
176
     1
290
     0
176
     1
290
     0
176
     1
290
     0
176
     1
290
     0
176
     1
 90
       50
176
     1
 40
0.0
176
     1
 40
1.0
176
     1
 90
        0
176
     1
 62
    18
420
        0
176
     1
 90
       50
176
     1
 90
        3
176
     1
 62
     5
420
      255
176
     1
290
     0
176
     1
 90
       50
176
     1
 90
       50
176
     1
 90
       50
176
     1
290
     0
176
     1
 90
       50
176
     1
 62
   256
176
     0
 40
1.0
176
     0
 90
        2
176
     1
  1
strokes_ogs.tif
176
     1
290
     0
176
     1
 40
1.0
176
     1
 40
1.0
176
     1
1001
ACAD
1000
AcDbSavedByObjectVersion
1070
     0
  0
VISUALSTYLE
  5
1E4
102
{ACAD_REACTORS
330
EF
102
}
330
EF
100
AcDbVisualStyle
  2
JitterOff
 70
    20
177
     3
291
     1
 70
    58
 90
        2
176
     0
 90
        2
176
     0
 90
        0
176
     0
 90
        0
176
     0
 40
0.6
176
     0
 40
30.0
176
     0
 62
     7
420
 16777215
176
     0
 90
        1
176
     0
 90
        4
176
     0
 62
     7
176
     0
 62
   257
176
     0
 90
        1
176
     0
 90
        1
176
     0
 40
1.0
176
     0
 90
       10
176
     2
 62
     7
176
     0
 40
1.0
176
     0
 90
        1
176
     0
 90
        6
176
     0
 90
        2
176
     0
 62
     7
176
     0
 90
        5
176
     0
 90
        0
176
     0
 90
        0
176
     0
290
     0
176
     0
 90
        1
176
     0
 40
0.0
176
     0
 90
        0
176
     0
290
     0
176
     1
290
     1
176
     1
290
     1
176
     1
290
     0
176
     1
290
     0
176
     1
290
     0
176
     1
290
     0
176
     1
290
     0
176
     1
290
     0
176
     1
 90
       50
176
     1
 40
0.0
176
     1
 40
1.0
176
     1
 90
        0
176
     1
 62
    18
420
        0
176
     1
 90
       50
176
     1
 90
        3
176
     1
 62
     5
420
      255
176
     1
290
     0
176
     1
 90
       50
176
     1
 90
       50
176
     1
 90
       50
176
     1
290
     0
176
     1
 90
       50
176
     1
 62
   256
176
     0
 40
1.0
176
     0
 90
        2
176
     1
  1
strokes_ogs.tif
176
     1
290
     0
176
     1
 40
1.0
176
     1
 40
1.0
176
     1
1001
ACAD
1000
AcDbSavedByObjectVersion
1070
     0
  0
VISUALSTYLE
  5
FD
102
{ACAD_REACTORS
330
EF
102
}
330
EF
100
AcDbVisualStyle
  2
Linepattern
 70
    14
177
     3
291
     1
 70
    58
 90
        2
176
     1
 90
        2
176
     1
 90
        1
176
     1
 90
        0
176
     1
 40
0.6
176
     1
 40
30.0
176
     1
 62
     7
420
 16777215
176
     1
 90
        1
176
     1
 90
        4
176
     1
 62
     7
176
     1
 62
   257
176
     1
 90
        7
176
     1
 90
        7
176
     1
 40
1.0
176
     1
 90
        8
176
     1
 62
     7
176
     1
 40
1.0
176
     1
 90
        1
176
     1
 90
        6
176
     1
 90
        2
176
     1
 62
     7
176
     1
 90
        5
176
     1
 90
        0
176
     1
 90
        0
176
     1
290
     0
176
     1
 90
        1
176
     1
 40
0.0
176
     1
 90
        0
176
     1
290
     0
176
     1
290
     1
176
     1
290
     1
176
     1
290
     0
176
     1
290
     0
176
     1
290
     0
176
     1
290
     0
176
     1
290
     0
176
     1
290
     0
176
     1
 90
       50
176
     1
 40
0.0
176
     1
 40
1.0
176
     1
 90
        0
176
     1
 62
    18
420
        0
176
     1
 90
       50
176
     1
 90
        3
176
     1
 62
     5
420
      255
176
     1
290
     0
176
     1
 90
       50
176
     1
 90
       50
176
     1
 90
       50
176
     1
290
     0
176
     1
 90
       50
176
     1
 62
   256
176
     0
 40
1.0
176
     0
 90
        2
176
     1
  1
strokes_ogs.tif
176
     1
290
     0
176
     1
 40
1.0
176
     1
 40
1.0
176
     1
1001
ACAD
1000
AcDbSavedByObjectVersion
1070
     0
  0
VISUALSTYLE
  5
1E5
102
{ACAD_REACTORS
330
EF
102
}
330
EF
100
AcDbVisualStyle
  2
OverhangOff
 70
    21
177
     3
291
     1
 70
    58
 90
        2
176
     0
 90
        2
176
     0
 90
        0
176
     0
 90
        0
176
     0
 40
0.6
176
     0
 40
30.0
176
     0
 62
     7
420
 16777215
176
     0
 90
        1
176
     0
 90
        4
176
     0
 62
     7
176
     0
 62
   257
176
     0
 90
        1
176
     0
 90
        1
176
     0
 40
1.0
176
     0
 90
        9
176
     2
 62
     7
176
     0
 40
1.0
176
     0
 90
        1
176
     0
 90
        6
176
     0
 90
        2
176
     0
 62
     7
176
     0
 90
        5
176
     0
 90
        0
176
     0
 90
        0
176
     0
290
     0
176
     0
 90
        1
176
     0
 40
0.0
176
     0
 90
        0
176
     0
290
     0
176
     1
290
     1
176
     1
290
     1
176
     1
290
     0
176
     1
290
     0
176
     1
290
     0
176
     1
290
     0
176
     1
290
     0
176
     1
290
     0
176
     1
 90
       50
176
     1
 40
0.0
176
     1
 40
1.0
176
     1
 90
        0
176
     1
 62
    18
420
        0
176
     1
 90
       50
176
     1
 90
        3
176
     1
 62
     5
420
      255
176
     1
290
     0
176
     1
 90
       50
176
     1
 90
       50
176
     1
 90
       50
176
     1
290
     0
176
     1
 90
       50
176
     1
 62
   256
176
     0
 40
1.0
176
     0
 90
        2
176
     1
  1
strokes_ogs.tif
176
     1
290
     0
176
     1
 40
1.0
176
     1
 40
1.0
176
     1
1001
ACAD
1000
AcDbSavedByObjectVersion
1070
     0
  0
VISUALSTYLE
  5
F9
102
{ACAD_REACTORS
330
EF
102
}
330
EF
100
AcDbVisualStyle
  2
Realistic
 70
     8
177
     3
291
     0
 70
    58
 90
        2
176
     1
 90
        3
176
     1
 90
        0
176
     1
 90
        2
176
     1
 40
0.6
176
     1
 40
30.0
176
     1
 62
     7
420
 16777215
176
     1
 90
        0
176
     1
 90
        0
176
     1
 62
     7
176
     1
 62
   257
176
     1
 90
        1
176
     1
 90
        1
176
     1
 40
1.0
176
     1
 90
        8
176
     1
 62
   257
176
     1
 40
1.0
176
     1
 90
        1
176
     1
 90
        6
176
     1
 90
        2
176
     1
 62
     7
176
     1
 90
        3
176
     1
 90
        0
176
     1
 90
        0
176
     1
290
     0
176
     1
 90
       13
176
     1
 40
0.0
176
     1
 90
        0
176
     1
290
     0
176
     1
290
     1
176
     1
290
     1
176
     1
290
     0
176
     1
290
     0
176
     1
290
     0
176
     1
290
     0
176
     1
290
     0
176
     1
290
     0
176
     1
 90
       50
176
     1
 40
0.0
176
     1
 40
1.0
176
     1
 90
        0
176
     1
 62
    18
420
        0
176
     1
 90
       50
176
     1
 90
        3
176
     1
 62
     5
420
      255
176
     1
290
     0
176
     1
 90
       50
176
     1
 90
       50
176
     1
 90
       50
176
     1
290
     0
176
     1
 90
       50
176
     1
 62
   256
176
     0
 40
1.0
176
     0
 90
        2
176
     1
  1
strokes_ogs.tif
176
     1
290
     0
176
     1
 40
1.0
176
     1
 40
1.0
176
     1
1001
ACAD
1000
AcDbSavedByObjectVersion
1070
     0
  0
VISUALSTYLE
  5
1F3
102
{ACAD_REACTORS
330
EF
102
}
330
EF
100
AcDbVisualStyle
  2
Shaded
 70
    27
177
     3
291
     0
 70
    58
 90
        2
176
     1
 90
        2
176
     1
 90
        1
176
     1
 90
        2
176
     1
 40
0.6
176
     1
 40
30.0
176
     1
 62
     7
420
 16777215
176
     1
 90
        0
176
     1
 90
        4
176
     1
 62
     7
176
     1
 62
   257
176
     1
 90
        1
176
     1
 90
        1
176
     1
 40
1.0
176
     1
 90
        8
176
     1
 62
   257
176
     1
 40
1.0
176
     1
 90
        1
176
     1
 90
        6
176
     1
 90
        2
176
     1
 62
     8
420
  7895160
176
     1
 90
        3
176
     1
 90
        0
176
     1
 90
        0
176
     1
290
     0
176
     1
 90
        5
176
     1
 40
0.0
176
     1
 90
        0
176
     1
290
     0
176
     1
290
     1
176
     1
290
     1
176
     1
290
     0
176
     1
290
     0
176
     1
290
     0
176
     1
290
     0
176
     1
290
     0
176
     1
290
     0
176
     1
 90
       50
176
     1
 40
0.0
176
     1
 40
1.0
176
     1
 90
        0
176
     1
 62
    18
420
        0
176
     1
 90
       50
176
     1
 90
        3
176
     1
 62
     5
420
      255
176
     1
290
     0
176
     1
 90
       50
176
     1
 90
       50
176
     1
 90
       50
176
     1
290
     0
176
     1
 90
       50
176
     1
 62
   256
176
     0
 40
1.0
176
     0
 90
        2
176
     1
  1
strokes_ogs.tif
176
     1
290
     0
176
     1
 40
1.0
176
     1
 40
1.0
176
     1
1001
ACAD
1000
AcDbSavedByObjectVersion
1070
     0
  0
VISUALSTYLE
  5
1F2
102
{ACAD_REACTORS
330
EF
102
}
330
EF
100
AcDbVisualStyle
  2
Shaded with edges
 70
    26
177
     3
291
     0
 70
    58
 90
        2
176
     1
 90
        2
176
     1
 90
        1
176
     1
 90
        2
176
     1
 40
0.6
176
     1
 40
30.0
176
     1
 62
     7
420
 16777215
176
     1
 90
        1
176
     1
 90
        2
176
     1
 62
     7
176
     1
 62
   257
176
     1
 90
        2
176
     1
 90
        1
176
     1
 40
1.0
176
     1
 90
        8
176
     1
 62
   257
176
     1
 40
1.0
176
     1
 90
        1
176
     1
 90
        6
176
     1
 90
        2
176
     1
 62
     7
176
     1
 90
        3
176
     1
 90
        0
176
     1
 90
        0
176
     1
290
     0
176
     1
 90
        5
176
     1
 40
0.0
176
     1
 90
        0
176
     1
290
     0
176
     1
290
     1
176
     1
290
     1
176
     1
290
     0
176
     1
290
     0
176
     1
290
     0
176
     1
290
     0
176
     1
290
     0
176
     1
290
     0
176
     1
 90
       50
176
     1
 40
0.0
176
     1
 40
1.0
176
     1
 90
        0
176
     1
 62
    18
420
        0
176
     1
 90
       50
176
     1
 90
        3
176
     1
 62
     5
420
      255
176
     1
290
     0
176
     1
 90
       50
176
     1
 90
       50
176
     1
 90
       50
176
     1
290
     0
176
     1
 90
       50
176
     1
 62
   256
176
     0
 40
1.0
176
     0
 90
        2
176
     1
  1
strokes_ogs.tif
176
     1
290
     0
176
     1
 40
1.0
176
     1
 40
1.0
176
     1
1001
ACAD
1000
AcDbSavedByObjectVersion
1070
     0
  0
VISUALSTYLE
  5
1EF
102
{ACAD_REACTORS
330
EF
102
}
330
EF
100
AcDbVisualStyle
  2
Shades of Gray
 70
    23
177
     3
291
     0
 70
    58
 90
        2
176
     1
 90
        2
176
     1
 90
        3
176
     1
 90
        0
176
     1
 40
0.6
176
     1
 40
30.0
176
     1
 62
     7
420
 16777215
176
     1
 90
        2
176
     1
 90
        2
176
     1
 62
     7
176
     1
 62
     7
176
     1
 90
        1
176
     1
 90
        1
176
     1
 40
40.0
176
     1
 90
        8
176
     1
 62
     7
176
     1
 40
1.0
176
     1
 90
        1
176
     1
 90
        6
176
     1
 90
        2
176
     1
 62
     7
176
     1
 90
        3
176
     1
 90
        0
176
     1
 90
        0
176
     1
290
     0
176
     1
 90
        1
176
     1
 40
0.0
176
     1
 90
        0
176
     1
290
     0
176
     1
290
     1
176
     1
290
     1
176
     1
290
     0
176
     1
290
     0
176
     1
290
     0
176
     1
290
     0
176
     1
290
     0
176
     1
290
     0
176
     1
 90
       50
176
     1
 40
0.0
176
     1
 40
1.0
176
     1
 90
        0
176
     1
 62
    18
420
        0
176
     1
 90
       50
176
     1
 90
        3
176
     1
 62
     5
420
      255
176
     1
290
     0
176
     1
 90
       50
176
     1
 90
       50
176
     1
 90
       50
176
     1
290
     0
176
     1
 90
       50
176
     1
 62
   256
176
     0
 40
1.0
176
     0
 90
        2
176
     1
  1
strokes_ogs.tif
176
     1
290
     0
176
     1
 40
1.0
176
     1
 40
1.0
176
     1
1001
ACAD
1000
AcDbSavedByObjectVersion
1070
     0
  0
VISUALSTYLE
  5
1F0
102
{ACAD_REACTORS
330
EF
102
}
330
EF
100
AcDbVisualStyle
  2
Sketchy
 70
    24
177
     3
291
     0
 70
    58
 90
        1
176
     1
 90
        2
176
     1
 90
        2
176
     1
 90
        0
176
     1
 40
0.6
176
     1
 40
30.0
176
     1
 62
     7
420
 16777215
176
     1
 90
        2
176
     1
 90
        2
176
     1
 62
     7
176
     1
 62
     7
176
     1
 90
        1
176
     1
 90
        1
176
     1
 40
40.0
176
     1
 90
       11
176
     1
 62
     7
176
     1
 40
1.0
176
     1
 90
        1
176
     1
 90
        6
176
     1
 90
        2
176
     1
 62
     7
176
     1
 90
        6
176
     1
 90
        0
176
     1
 90
        0
176
     1
290
     0
176
     1
 90
        1
176
     1
 40
0.0
176
     1
 90
        0
176
     1
290
     0
176
     1
290
     1
176
     1
290
     1
176
     1
290
     0
176
     1
290
     0
176
     1
290
     0
176
     1
290
     0
176
     1
290
     0
176
     1
290
     0
176
     1
 90
       50
176
     1
 40
0.0
176
     1
 40
1.0
176
     1
 90
        0
176
     1
 62
    18
420
        0
176
     1
 90
       50
176
     1
 90
        3
176
     1
 62
     5
420
      255
176
     1
290
     0
176
     1
 90
       50
176
     1
 90
       50
176
     1
 90
       50
176
     1
290
     0
176
     1
 90
       50
176
     1
 62
   256
176
     0
 40
1.0
176
     0
 90
        2
176
     1
  1
strokes_ogs.tif
176
     1
290
     0
176
     1
 40
1.0
176
     1
 40
1.0
176
     1
1001
ACAD
1000
AcDbSavedByObjectVersion
1070
     0
  0
VISUALSTYLE
  5
FC
102
{ACAD_REACTORS
330
EF
102
}
330
EF
100
AcDbVisualStyle
  2
Thicken
 70
    13
177
     3
291
     1
 70
    58
 90
        2
176
     1
 90
        2
176
     1
 90
        1
176
     1
 90
        0
176
     1
 40
0.6
176
     1
 40
30.0
176
     1
 62
     7
420
 16777215
176
     1
 90
        1
176
     1
 90
        4
176
     1
 62
     7
176
     1
 62
   257
176
     1
 90
        1
176
     1
 90
        1
176
     1
 40
1.0
176
     1
 90
       12
176
     1
 62
     7
176
     1
 40
1.0
176
     1
 90
        1
176
     1
 90
        6
176
     1
 90
        2
176
     1
 62
     7
176
     1
 90
        5
176
     1
 90
        0
176
     1
 90
        0
176
     1
290
     0
176
     1
 90
        1
176
     1
 40
0.0
176
     1
 90
        0
176
     1
290
     0
176
     1
290
     1
176
     1
290
     1
176
     1
290
     0
176
     1
290
     0
176
     1
290
     0
176
     1
290
     0
176
     1
290
     0
176
     1
290
     0
176
     1
 90
       50
176
     1
 40
0.0
176
     1
 40
1.0
176
     1
 90
        0
176
     1
 62
    18
420
        0
176
     1
 90
       50
176
     1
 90
        3
176
     1
 62
     5
420
      255
176
     1
290
     0
176
     1
 90
       50
176
     1
 90
       50
176
     1
 90
       50
176
     1
290
     0
176
     1
 90
       50
176
     1
 62
   256
176
     0
 40
1.0
176
     0
 90
        2
176
     1
  1
strokes_ogs.tif
176
     1
290
     0
176
     1
 40
1.0
176
     1
 40
1.0
176
     1
1001
ACAD
1000
AcDbSavedByObjectVersion
1070
     0
  0
VISUALSTYLE
  5
F6
102
{ACAD_REACTORS
330
EF
102
}
330
EF
100
AcDbVisualStyle
  2
Wireframe
 70
     5
177
     3
291
     0
 70
    58
 90
        0
176
     1
 90
        2
176
     1
 90
        0
176
     1
 90
        0
176
     1
 40
0.6
176
     1
 40
30.0
176
     1
 62
     7
420
 16777215
176
     1
 90
        1
176
     1
 90
        4
176
     1
 62
     7
176
     1
 62
   257
176
     1
 90
        1
176
     1
 90
        1
176
     1
 40
1.0
176
     1
 90
        0
176
     1
 62
   257
176
     1
 40
1.0
176
     1
 90
        1
176
     1
 90
        6
176
     1
 90
        2
176
     1
 62
     7
176
     1
 90
        3
176
     1
 90
        0
176
     1
 90
        0
176
     1
290
     0
176
     1
 90
        1
176
     1
 40
0.0
176
     1
 90
        0
176
     1
290
     0
176
     1
290
     1
176
     1
290
     1
176
     1
290
     0
176
     1
290
     0
176
     1
290
     0
176
     1
290
     0
176
     1
290
     0
176
     1
290
     0
176
     1
 90
       50
176
     1
 40
0.0
176
     1
 40
1.0
176
     1
 90
        0
176
     1
 62
    18
420
        0
176
     1
 90
       50
176
     1
 90
        3
176
     1
 62
     5
420
      255
176
     1
290
     0
176
     1
 90
       50
176
     1
 90
       50
176
     1
 90
       50
176
     1
290
     0
176
     1
 90
       50
176
     1
 62
   256
176
     0
 40
1.0
176
     0
 90
        2
176
     1
  1
strokes_ogs.tif
176
     1
290
     0
176
     1
 40
1.0
176
     1
 40
1.0
176
     1
1001
ACAD
1000
AcDbSavedByObjectVersion
1070
     0
  0
VISUALSTYLE
  5
1F1
102
{ACAD_REACTORS
330
EF
102
}
330
EF
100
AcDbVisualStyle
  2
X-Ray
 70
    25
177
     3
291
     0
 70
    58
 90
        2
176
     1
 90
        2
176
     1
 90
        1
176
     1
 90
        1
176
     1
 40
0.5
176
     1
 40
30.0
176
     1
 62
     7
420
 16777215
176
     1
 90
        1
176
     1
 90
        0
176
     1
 62
     7
176
     1
 62
   257
176
     1
 90
        1
176
     1
 90
        1
176
     1
 40
1.0
176
     1
 90
        8
176
     1
 62
     7
176
     1
 40
1.0
176
     1
 90
        1
176
     1
 90
        6
176
     1
 90
        2
176
     1
 62
     7
176
     1
 90
        3
176
     1
 90
        0
176
     1
 90
        0
176
     1
290
     0
176
     1
 90
       13
176
     1
 40
0.0
176
     1
 90
        0
176
     1
290
     0
176
     1
290
     1
176
     1
290
     1
176
     1
290
     0
176
     1
290
     0
176
     1
290
     0
176
     1
290
     0
176
     1
290
     0
176
     1
290
     0
176
     1
 90
       50
176
     1
 40
0.0
176
     1
 40
1.0
176
     1
 90
        0
176
     1
 62
    18
420
        0
176
     1
 90
       50
176
     1
 90
        3
176
     1
 62
     5
420
      255
176
     1
290
     0
176
     1
 90
       50
176
     1
 90
       50
176
     1
 90
       50
176
     1
290
     0
176
     1
 90
       50
176
     1
 62
   256
176
     0
 40
1.0
176
     0
 90
        2
176
     1
  1
strokes_ogs.tif
176
     1
290
     0
176
     1
 40
1.0
176
     1
 40
1.0
176
     1
1001
ACAD
1000
AcDbSavedByObjectVersion
1070
     0
  0
DICTIONARYVAR
  5
146
102
{ACAD_REACTORS
330
5E
102
}
330
5E
100
DictionaryVariables
280
     0
  1
1:1
  0
DICTIONARYVAR
  5
259
102
{ACAD_REACTORS
330
5E
102
}
330
5E
100
DictionaryVariables
280
     0
  1
3.500000
  0
DICTIONARYVAR
  5
25A
102
{ACAD_REACTORS
330
5E
102
}
330
5E
100
DictionaryVariables
280
     0
  1
acadiso.lin
  0
DICTIONARYVAR
  5
145
102
{ACAD_REACTORS
330
5E
102
}
330
5E
100
DictionaryVariables
280
     0
  1
STANDARD
  0
DICTIONARYVAR
  5
84
102
{ACAD_REACTORS
330
5E
102
}
330
5E
100
DictionaryVariables
280
     0
  1
STANDARD
  0
DICTIONARYVAR
  5
227
102
{ACAD_REACTORS
330
5E
102
}
330
5E
100
DictionaryVariables
280
     0
  1
Metric50
  0
DICTIONARYVAR
  5
228
102
{ACAD_REACTORS
330
5E
102
}
330
5E
100
DictionaryVariables
280
     0
  1
Metric50
  0
DICTIONARYVAR
  5
5F
102
{ACAD_REACTORS
330
5E
102
}
330
5E
100
DictionaryVariables
280
     0
  1
2
  0
DICTIONARYVAR
  5
63
102
{ACAD_REACTORS
330
5E
102
}
330
5E
100
DictionaryVariables
280
     0
  1
1
  0
DICTIONARYVAR
  5
1AE
102
{ACAD_REACTORS
330
5E
102
}
330
5E
100
DictionaryVariables
280
     0
  1
0
  0
DICTIONARYVAR
  5
1AF
102
{ACAD_REACTORS
330
5E
102
}
330
5E
100
DictionaryVariables
280
     0
  1
0
  0
DICTIONARY
  5
382
102
{ACAD_REACTORS
330
380
102
}
330
380
100
AcDbDictionary
281
     1
  0
DICTIONARY
  5
381
102
{ACAD_REACTORS
330
380
102
}
330
380
100
AcDbDictionary
281
     1
  3
1669718043696
350
37B
  3
1669718043712
350
37C
  3
1669718043728
350
37D
  3
1669718043744
350
37E
  3
1669718043760
350
37F
  0
DICTIONARY
  5
389
330
28E
100
AcDbDictionary
280
     1
281
     1
  3
ACAD_XREC_ROUNDTRIP
360
38A
  0
DICTIONARY
  5
385
330
21C
100
AcDbDictionary
280
     1
281
     1
  3
ACAD_XREC_ROUNDTRIP
360
386
  0
DICTIONARY
  5
205
330
22
100
AcDbDictionary
280
     1
281
     1
  0
DICTIONARY
  5
1F9
330
ED
100
AcDbDictionary
280
     1
281
     1
  3
FBXASSET
360
1FA
  0
DICTIONARY
  5
1F7
330
EC
100
AcDbDictionary
280
     1
281
     1
  3
FBXASSET
360
1F8
  0
DICTIONARY
  5
173
330
EE
100
AcDbDictionary
280
     1
281
     1
  3
BUMPTILE
360
175
  3
DIFFUSETILE
360
174
  3
FBXASSET
360
1FB
  3
OPACITYTILE
360
176
  3
REFLECTIONTILE
360
177
  0
DICTIONARY
  5
387
330
28D
100
AcDbDictionary
280
     1
281
     1
  3
ACAD_XREC_ROUNDTRIP
360
388
  0
DICTIONARY
  5
383
330
21A
100
AcDbDictionary
280
     1
281
     1
  3
ACAD_XREC_ROUNDTRIP
360
384
  0
DICTIONARY
  5
162
330
7F
100
AcDbDictionary
280
     1
281
     1
  3
ACAD_ROUNDTRIP_2008_TABLESTYLE_CELLSTYLEMAP
360
379
  0
XRECORD
  5
37B
102
{ACAD_REACTORS
330
381
102
}
330
381
100
AcDbXrecord
280
     1
  1
AcDb_Thumbnail_Schema
102
{ATTRRECORD
341
37C
  2
AcDbDs::TreatedAsObjectData
280
     1
291
     1
102
ATTRRECORD}
102
{ATTRRECORD
341
37D
  2
AcDbDs::Legacy
280
     1
291
     1
102
ATTRRECORD}
  2
AcDbDs::ID
280
    10
 91
        8
102
{ATTRRECORD
341
37E
  2
AcDs:Indexable
280
     1
291
     1
102
ATTRRECORD}
102
{ATTRRECORD
341
37F
  2
AcDbDs::HandleAttribute
280
     7
282
     1
102
ATTRRECORD}
  2
Thumbnail_Data
280
    15
 91
        0
  0
XRECORD
  5
37C
102
{ACAD_REACTORS
330
381
102
}
330
381
100
AcDbXrecord
280
     1
  1
AcDbDs::TreatedAsObjectDataSchema
  2
AcDbDs::TreatedAsObjectData
280
     1
 91
        0
  0
XRECORD
  5
37D
102
{ACAD_REACTORS
330
381
102
}
330
381
100
AcDbXrecord
280
     1
  1
AcDbDs::LegacySchema
  2
AcDbDs::Legacy
280
     1
 91
        0
  0
XRECORD
  5
37E
102
{ACAD_REACTORS
330
381
102
}
330
381
100
AcDbXrecord
280
     1
  1
AcDbDs::IndexedPropertySchema
  2
AcDs:Indexable
280
     1
 91
        0
  0
XRECORD
  5
37F
102
{ACAD_REACTORS
330
381
102
}
330
381
100
AcDbXrecord
280
     1
  1
AcDbDs::HandleAttributeSchema
  2
AcDbDs::HandleAttribute
280
     7
 91
        1
284
     1
  0
XRECORD
  5
38A
102
{ACAD_REACTORS
330
389
102
}
330
389
100
AcDbXrecord
280
     1
102
DISPLAYNAME
  1
Imperial24
102
FLAGS
 90
        0
  0
XRECORD
  5
386
102
{ACAD_REACTORS
330
385
102
}
330
385
100
AcDbXrecord
280
     1
102
DISPLAYNAME
  1
Metric50
102
FLAGS
 90
        0
  0
XRECORD
  5
1FA
102
{ACAD_REACTORS
330
1F9
102
}
330
1F9
100
AcDbXrecord
280
     1
 70
     1
 90
429727718
  1
D62C5603-E3A1-4AEA-B7FB-FE5D8D0755AF
310
504B03040A0000080000CC70623B3DEE336E79000000790000001B0000006175746F6465736B2D64657369676E2D7061636B6167652E786D6C3C3F786D6C2076657273696F6E3D22312E302220656E636F64696E673D227574662D3822203F3E3C666F726D6174733E3C666F726D61743E687474703A2F2F736368656D612E
310
6175746F6465736B2E636F6D2F64657369676E2D7061636B6167652F323030393C2F666F726D61743E3C2F666F726D6174733E504B0304140006080800CC70623BD486FD9CA0000000F4000000130000005B436F6E74656E745F54797065735D2E786D6C7D8EC10E82300C865F65E91D8A1E8C310C0EEA1BF002731658846E
310
D98AC1B77784ABF1D8FE5FBFBF75BBCE937A534CCEB38643598122B6FEE978D0B0485F9C41B54DDD7D022595594E1A469170414C76A4D9A4D207E29CF43ECE46F218070CC6BECC4078ACAA135ACF422C856C0E68EA1BF5669944DDD7BCDE7B1F8E415D77AECB980613C2E4AC91FC167A2B244592486606FC29C8FD7F045B9A
310
EF7053A7E60B504B0304140006080800CC70623B853B8169EB0000007C01000008000000636F72652E786D6C8D90416EC3201045AF62CDB6C206821CC7C244919D9CA01740401C94182C03558F5F9C3852BBEB6A467FFE9B197D7EFC9E1EC5975982F5AE035262288C535E5B377690E21535501C055FBC8FBF6C503839990E
310
5619041F179FE64D52DE45E362569DD7661365082642A11EB9E920A89B99642953CC8E702F67A9EE7234257977194EC9EAE275C4EABCCF5EAD5940D4AC6F0E35A568B8F43562CD7046CD199FD07E60174276A7BE677B5EADB0E0D14EEFFB6A31321A0D82627C4084204C3F096B71DD52F6819B16635EADF63F509AF53FA164
310
5DDCD1EDDD17164090FCC8732078B56691CB33A85CD7DCC40F504B0304140006080800CC70623B55019EA25F0000007C00000007000000636E782E786D6C4DCB3B0E80201045D1AD90E915ED2CF8AC45050C11660C8261F98AB1B07AC9C97D42D718D865D3E909258CFD00CCE24AC6E326A164D74DC0B4128928FF32603847
310
2BA13128B1252AC747C6BAB984FC68F0B87FE8960A5C09FE86CFB69FBA01504B0304140006080800CC70623BDBABAAF470010000D40300000C0000006662782F636F72652E786D6CC553D16E823014FD95A6AF4B694182CC941A83FA05FB810A9511A125A5257EFE2E82712ECEB8A7F100CD39F7F69E734AF9FADC366850B6
310
AF8DCE7018308C942E4C59EB2AC3DE1D498AD15A706B8CFB56869196ADCAF00863C12B6B7C374385D14E6907A836A59A41D9F7CA615434B0C8705F7CAA5606D23BA8E84F41278B93AC54100640439DE0BDB320004D43C63716C7C399D30917DCFBBA9CD9BA8469F5B156168B24CED3F7248AC8769F27244EB73B92EED8862C
310
B7F13E0C179B3C8F979C8ECD82BBBABDAA2BAC924E9558448CBD9330242CFA08E3154B5651FCC6D215639C8EE5774DBE2B5F6CF2B5768B68963BB5F5588420E442FC700B1139D4CB01F450C1E918227C2E09DF070D8140C84E1E9AAB8F1340832A9CB13130A5F1376A908D57309505ECF2A0DF179C4E9D30F5B239B87E3823
310
7A79C6F31DE1A8A5AEC08474B03C7837EAE4938639B44E5932B833D2C6B6B279CDC613877FA26EE21F4A2A4C63EC7F29A2F301D1F9F7A0E37D145F504B0304140006080800CC70623B9C113CC27E0000009D0000000B0000006662782F636E782E786D6C4DCCDF0A83201C86E15B91DFB94BFB330DD428C8FB886521330DA7
310
6397BF1A1DECE883878F57749FCDA1B7892F1BBC047A23808C7F84D9FA55424E0BE6803A256208E9EF06C84F9B91703228B1C690F78B66B34CD9A5439DF5CF0BFBF65E35BCA1B8D6A5C6F540381E886698B5741C695F9503EBA150A2F8958E3DC3EA0B504B0304140006080800CC70623B7DF2F77C2A010000120200003100
310
00006662782F41393633353835312D344632462D344230382D423046372D3739314545314133324237412F636F72652E786D6C8D51DB8EC22014FC15C2939B0D2DB4B45643319AE817EC0F6041255A68B86CFCFC856D4D76DF7CE190393373060EDB3DC707F856CE6B6B7A480A0C81328395DA5C7B18C3057510EC3873D686
310
3F34088C18550F330C39BB3A1BA7051AAC09CA84841A2BD5020AEF55806078A44B0FFD7053A328440C89E1EFC52486BBB8AA8214A99D789CF9E05200300FC927E4FB4D5B375D43103D5527440FB843077C5AA3F5861C8F645F5787F59E95B390B318B55CE45AA638FAA2957BD7248B390B7A7CC51F9C124149C82B8C378810
310
84AB2F42B7B8DD56F413775B8C5999E9FF4471926F8AA236A1AE96B8B3CC434E5839373893369E1FAF30EA395917409EB7F26AF8801C171837A4A6AC9C89E9F9C9B1A58BA30FD6A5EF5DDDCF894B9AD9B6A59C957943A9FCAE2FD5BC4DFE03504B0304140006080800CC70623BAD7543B64E01000033030000300000006662
310
782F41393633353835312D344632462D344230382D423046372D3739314545314133324237412F636E782E786D6CD593CD6EC32010845F0571AD6CE3D48AD20813A9873E410FBD12D82434182C7EAAE6EDBB2424CD25871E7B41D6EC30B3FA84F9E67BB2E40B4234DE8DB46F1925E094D7C6ED479AD3AE5951B2113C789FEE
310
6C943839C1488B4C05DF079FE72A69D8C96C13AAD6B8631503449F83828872B949AC57D26200B826A308D316B4064D6E46FCDA41C05550DC9E483A00797BFD207EFB092A45DE9514C1BBD22178396BD39D891265658C238DEA00936C654E5E433CB65A26D9F6EDB5EBC14EBF49A45CB856E66048291F6939A9A81BB5C89177
310
38143CA680F4AA299D66A042CEB3354A2684DC9D8D178FE0D9B8B41CAAD720F880EE7EF93C0C18769E099ECC04D5A102C8049A8A05632F4DDF376CF1DE0F6BB65C2F8627B65A33C6BB62177CEBBDAD973006829F89F22E814B54F4BC2BE347F8AA8F681390B50FA73F804400B5F542E796F19FF974E7F78DB802FE05E20750
310
4B0304140006080800CC70623BE75B7789680500003C100000340000006662782F41393633353835312D344632462D344230382D423046372D3739314545314133324237412F6F626A656374732E786D6CAD575B8F9B3818FD2B887D06C22499CB8AA1CA655245D5B455A356FB305264C061D8018C6C3393D95FBFC7600890
310
A4CD5EF210B0B1BFEBF98E3F7B1FF6596ABC522E1296DF9BAE3D320D9A872C4AF2F8DE2CE5CEBA358D0FBEC719939D65A691938CDE9B6ADAF4BD98B3B2D05311DD91329583D9D5FC0F438434A7A611A644887B5384CF34233629258BA878B12322891DEFF6B66BD70BFB62634E8AE781D082709A4B588AF91C528CDA28B73F
310
1C998EEF39EABBEFA97FBD6A7C7E9553F9D3D79FE442923C3C523610337627CB87ABE99D359D4CC6D6E4FACAB5E6ABF9D2726FC6A3C5F56271377BB88362213924694B38DD99FE47C48627A1E7D49F5A8BB5E1A74C0A599ED3B0F21F1E56366B89112D681E218F0915D0D6F17AD41FBA2A369DCF6335D62ABBD39779D5DDD1
310
11D4D8DE3CBB96B2E04FB8202E41051754A1AA8E8F76B4C6DFE810B580B1547F4B84911149794252234D024EF8BBE963A95AE27B3D310A9D5C215C7960FAEE415ED75694C6AFB17BCACA5D99A60A9AA65F217B0BFC53292ACB92BF283FAD0D3621576592CB5BED907C2FA8E9DF794E35E97BEA31BED21FEB401ABB94C44839
310
DCACBF0E1C5DA8DA5B2F4DFFD32AD86F543D9E565E7056502E157C00AD2671CD534549AB752FCA9CDA00677A313F04E51B22FF19E57B300579E3C97EB29F682D92935CEC18CF901B7B54FD8C51F362B56FC72FE0B3C1EAE335EDCCBF5AEC39ADB17DC238973F804BA5E6F6BFE7AF1FB32E523BE9F3BD571418E3631DCA4D48
310
5250CF639223210A9446CA30052EDF057BD35F8329C1ECD84552BF0DC8D18BE7BCE23BFE6BD960AB4A7DE79923A103BEBD80F911CBAA2C60DB19B01CF164A5583B772EE6D3FFA56666CBCDA74DC97724A48F9A58967497E489C4D979006FD7A05E227A1EBDD0F737C623387A9C844D3709995625106D157315F8B8392CD4E0
310
A0B9A720C4BE9829CEF37EA1E13111214D53925356365ADA634861B52519DD27A00AEB808EAF0628E6F435519D446F45CF2C9CF5214F0A15B2F6D06B79DA3EE3CBF7F56780D2F4E7EF73A0F5E5B02A38D07DC852C6B7C1FBB6664213E0C39E3EBA7FF4E1AD23EA2829407C85E586727488B751B2DB9502BC7B228A3FD68B6E
310
A65A22397E690AA8D158D7E404EC8CDA235CC3B7D1898680131CEC2CDF2638C65196279577750F15884AEE19F94199155B92B13297978469D4F8D358DF0AEF7631E28DC8F0D9F437D5D39A83B2231A1D52D543813A824EF8D44BCFF2FA6A31BD1E8DAD87F1CCB526B3879935BF59CDADD5C37479BB1CDD4CA7B3556B516589
310
EF352754B706114D9C885EC9131DE6EFEB43D99AFE2391C2F958179413D7CFEF6B1B6DB1E7600F00DE6E5C67454A339A4BA2E0FBA85ED26F045D454F463DBFCE484C2F90F2E5E3666003662ED8F755951A7D1BECD5B30B550B2785C8E7320B7292A4838DDA71BBC863ED7613CAF659337A3354231D4FF4A182A54904C2898C
310
98B28C4AD0CE056CCF332A80986E571EE9DBC305BB5FEB7E509220A58D25CF042D712A806AC0AD0C657FDEF80D2D9CEAA2EE4D1C76F60BFE74219A06527D6F82DF6412526107381E55E353090704D085B52408A8913C4ED159D79BDA71BB4BC506F4831350EB6F975CD22D69BF7AC49B91A2C0A9DDA3D5CA36AD20FC478E37
310
E61844E2352865EBCB61A275A65283CAAA9DD27703B4102F5AF51EF5F573B75CBB5AD38BC845F7A49F82A0966A49C2E3EA5EA0ECD326CD965F1DB402C6FA8B51A4658C5C5E2EC9E214602E55810345408596591009A82E7E7FFACA19EEA299B14A0081A705CB3296EBC14CDF658DCD336EA6D1136881AAEB87B81AB9EE53D5
310
F5EB8BC8362082DA24122F98680A4E7930C01A0079749CEA14382A0783E5EBA5A10F8C098456A03D6A4AEB6BB881E2513747552A5DB22C7EDAF83BD5528081A365F7FF06504B0304140006080000CC70623B000000000000000000000000350000006662782F41393633353835312D344632462D344230382D423046372D37
310
39314545314133324237412F76657274696365732E62696E504B0304140006080800CC70623BF270F1330600000004000000360000006662782F41393633353835312D344632462D344230382D423046372D3739314545314133324237412F747269616E676C65732E62696E636660600000504B0304140006080000CC7062
310
3B000000000000000000000000370000006662782F41393633353835312D344632462D344230382D423046372D3739314545314133324237412F617474726962757465732E62696E504B0304140006080800CC70623B08DA0BD19000000041010000360000006662782F41393633353835312D344632462D344230382D4230
310
46372D3739314545314133324237412F6469726563746F72792E786D6C858F410AC3201045AF22B36F53E9A60B35CBEEBAE80D244E44489C6234F4F835464A48035D0DF398FF9F8AF63D0E6CC63039F212F8F9020C7D47C6792B21C5FE7403D62A1188E2E60C98D7234A5830286103A55745067B9D86B8A3CF9C7F90C11DE6
310
07FB144396D7B6A82D282E9A152AD114D5EF2CB866EEE831B8EEA07A7BB5A8D7D61A2BAAEB7FD5F70921FF497D00504B0304140006080800CC70623BEDD1DC58FD000000A00100003B0000006662782F41393633353835312D344632462D344230382D423046372D3739314545314133324237412F7265736F75726365732F
310
636F72652E786D6C8D504B6E833010BD0A9A6D65B00922041947112427E8052C33A156828DFCA97AFC9A40A576D7CDCCE87D344F8F9FBFE667F689CE6B6B3A6039850C8DB2A336530731DC4903D95970676DF82583CCC8193B5861107C72362E3BA4AC096842428D1D7107A5F7182053CF7474E0D507CE32973124857FE48B
310
540F3961CEF244279DE03EB81420DB9EAC1384436FA353E879B1B182C7A8C75DA3C7F453DF353A1075D537A7BA6464B8F535A99AE14A9A2BBD90E350DD183B5CFABE3AF262350B1EF4FC9351399401471025A527C218A1E53BAB5A5AB765F5469B96525EACF23FA6B88CFF34456DC2A1DCE36E360F82A5202F42F062ED2BAD
310
579969AFDD8A6F504B010214000A0000080000CC70623B3DEE336E79000000790000001B00000000000000000000000000000000006175746F6465736B2D64657369676E2D7061636B6167652E786D6C504B01021400140006080800CC70623BD486FD9CA0000000F40000001300000000000000000000000000B20000005B
310
436F6E74656E745F54797065735D2E786D6C504B01021400140006080800CC70623B853B8169EB0000007C010000080000000000000000000000000083010000636F72652E786D6C504B01021400140006080800CC70623B55019EA25F0000007C000000070000000000000000000000000094020000636E782E786D6C504B
310
01021400140006080800CC70623BDBABAAF470010000D40300000C00000000000000000000000000180300006662782F636F72652E786D6C504B01021400140006080800CC70623B9C113CC27E0000009D0000000B00000000000000000000000000B20400006662782F636E782E786D6C504B01021400140006080800CC70
310
623B7DF2F77C2A010000120200003100000000000000000000000000590500006662782F41393633353835312D344632462D344230382D423046372D3739314545314133324237412F636F72652E786D6C504B01021400140006080800CC70623BAD7543B64E010000330300003000000000000000000000000000D2060000
310
6662782F41393633353835312D344632462D344230382D423046372D3739314545314133324237412F636E782E786D6C504B01021400140006080800CC70623BE75B7789680500003C10000034000000000000000000000000006E0800006662782F41393633353835312D344632462D344230382D423046372D3739314545
310
314133324237412F6F626A656374732E786D6C504B01021400140006080000CC70623B0000000000000000000000003500000000000000000000000000280E00006662782F41393633353835312D344632462D344230382D423046372D3739314545314133324237412F76657274696365732E62696E504B01021400140006
310
080800CC70623BF270F133060000000400000036000000000000000000000000007B0E00006662782F41393633353835312D344632462D344230382D423046372D3739314545314133324237412F747269616E676C65732E62696E504B01021400140006080000CC70623B0000000000000000000000003700000000000000
310
000000000000D50E00006662782F41393633353835312D344632462D344230382D423046372D3739314545314133324237412F617474726962757465732E62696E504B01021400140006080800CC70623B08DA0BD1900000004101000036000000000000000000000000002A0F00006662782F41393633353835312D344632
310
462D344230382D423046372D3739314545314133324237412F6469726563746F72792E786D6C504B01021400140006080800CC70623BEDD1DC58FD000000A00100003B000000000000000000000000000E1000006662782F41393633353835312D344632462D344230382D423046372D3739314545314133324237412F7265
310
736F75726365732F636F72652E786D6C504B0506000000000E000E0080040000641100000000
  0
XRECORD
  5
1F8
102
{ACAD_REACTORS
330
1F7
102
}
330
1F7
100
AcDbXrecord
280
     1
 70
     1
 90
429727718
  1
30362254-06B7-45E0-A893-8CFA70E3D6BC
310
504B03040A0000080000CC70623B3DEE336E79000000790000001B0000006175746F6465736B2D64657369676E2D7061636B6167652E786D6C3C3F786D6C2076657273696F6E3D22312E302220656E636F64696E673D227574662D3822203F3E3C666F726D6174733E3C666F726D61743E687474703A2F2F736368656D612E
310
6175746F6465736B2E636F6D2F64657369676E2D7061636B6167652F323030393C2F666F726D61743E3C2F666F726D6174733E504B0304140006080800CC70623BD486FD9CA0000000F4000000130000005B436F6E74656E745F54797065735D2E786D6C7D8EC10E82300C865F65E91D8A1E8C310C0EEA1BF002731658846E
310
D98AC1B77784ABF1D8FE5FBFBF75BBCE937A534CCEB38643598122B6FEE978D0B0485F9C41B54DDD7D022595594E1A469170414C76A4D9A4D207E29CF43ECE46F218070CC6BECC4078ACAA135ACF422C856C0E68EA1BF5669944DDD7BCDE7B1F8E415D77AECB980613C2E4AC91FC167A2B244592486606FC29C8FD7F045B9A
310
EF7053A7E60B504B0304140006080800CC70623B1EC5D7A3EB0000007C01000008000000636F72652E786D6C8D90416EC3201045AF82665B6103C6756C6122AB4D4ED00B204C5C94182C03558F5F9C3852BBEB6A467FFE9B197D71FC9E6FE8CBACC17AD7032D0820E3B41FAD9B7A48F1820F808E52ACDEC75F36404ECDA687
310
4D0629A6D5A76597B477D1B89855E747B38B2A041301E95B6E7A08FAD3CCAA50296647B8168BD2573599823EBB0CA76447F43862C7BCCF5EAC59410E4DDD9C7973C2755553CCCFA4C603E3040F1565ED3B1FDE4E432BCA0D9622DAF9795FAF464533826484B498524CD807E51D79ED187F21878E10516EF63F505AC67F42C9
310
BA58B1FDDD071640D2FCC87D2045B96591CB3DA85CB7DCE40F504B0304140006080800CC70623B55019EA25F0000007C00000007000000636E782E786D6C4DCB3B0E80201045D1AD90E915ED2CF8AC45050C11660C8261F98AB1B07AC9C97D42D718D865D3E909258CFD00CCE24AC6E326A164D74DC0B4128928FF32603847
310
2BA13128B1252AC747C6BAB984FC68F0B87FE8960A5C09FE86CFB69FBA01504B0304140006080800CC70623B8C9102E971010000D40300000C0000006662782F636F72652E786D6CC5535B6E833010BC8AE5DF0A6C08340F1947A84D4ED00B38C6A128602363A31CBFCB234A53A551FA553EC09AD9F5CE8C31DB9E9B1AF5CA
310
7695D1198E428A91D2D214952E33ECDD315861B4E5CC1AE3BE9561A445A3323CC098B3D21ADFCE9034DA29ED00D5A6503328BA4E398C640D8B0C77F253352214DE4145770A5B214FA2546114020D759C75CE8200340D19DE981F0F6746269C33EFAB6266AB02A655C74A59CCF365BADC27CB5D902ED22848F6340DF238A141
310
BE88E2F57B92BFEDF23523433367AE6A2EEAA455C2A902F398D2751045018D3FA264435F3771F242571B4A1919CA6F9A7C5B3CD9E42BED16F12C776AEB308F40C848FC700B1139D4891EF410CEC810227CC6846F8386402064270EF5C5C709A05E49676C024C61FC95EA45ED154CA5211D1FF4FB8291A913A68E9B83EBBB33
310
E2A7673CDE118E5AE8124C0807CB8377834E366998436B950D7A7746DAD846D4CFD978E0F04FD455FC5D49D2D4C6FE9722321F10997F0F32DC47FE05504B0304140006080800CC70623BFFEA85907E0000009D0000000B0000006662782F636E782E786D6C4DCCD10A83201886E15B91FFDC95D95A811AB6F23E625948A6C3
310
E9D8E5AF46073BFAE0E1E365ED67B3E8ADC3CB78C7815C7240DA3DFC64DCC221C519D7805AC182F7F1EF06C88D9BE6703008B6049F9E274D7A1E938DBB5AE3D6131B2589BA0D3D965551E0B2EA732C9B9A624AAEB41E3A557677029960D9AFB4EF11165F504B0304140006080800CC70623B4FEEA4082C0100001202000031
310
0000006662782F39464131463745442D413632322D343644302D413938332D3331353338454246344243312F636F72652E786D6C8D515B6EC32010BC0AE2AB55850DD871ED0813254D72825EC00192A2C460F1A872FC42ED48ED5F7E00CDCECCCEB26C731F6FE05B39AFADE921293004CA082BB5B9F43086336A21D870E6AC
310
0D7F68109861543DCC30E4ECE26C9C164858139409093556AA051CBC570102714B8F1E7AF1A5C6A11862480C7F2DA6415C878B2A4891CA89C7990F2E050073937C42DE1DB7E4F87ED8A36D4329AA9B3D46DBAEAD504556557BD81DEBDD0761E52CE42C462D17B996298E3E6BE59E35C962CE821E1FF18553435012728A7187
310
0841987E927A8D9B35ADDF70BBC6989599FE4F1427F9A4286A132ABAC49D651EF234CD5CE04CDA78BA3DC2A8FB645D00B9DF8B57E215725C60BCA2A463E54C4CE327C7A65E1C7DB02E7DEFCBF594B864C5CA6CDBD49C957943E9FA5D5FBAF336F90F504B0304140006080800CC70623BAD7543B64E01000033030000300000
310
006662782F39464131463745442D413632322D343644302D413938332D3331353338454246344243312F636E782E786D6CD593CD6EC32010845F0571AD6CE3D48AD20813A9873E410FBD12D82434182C7EAAE6EDBB2424CD25871E7B41D6EC30B3FA84F9E67BB2E40B4234DE8DB46F1925E094D7C6ED479AD3AE5951B2113C
310
789FEE6C943839C1488B4C05DF079FE72A69D8C96C13AAD6B8631503449F83828872B949AC57D26200B826A308D316B4064D6E46FCDA41C05550DC9E483A00797BFD207EFB092A45DE9514C1BBD22178396BD39D891265658C238DEA00936C654E5E433CB65A26D9F6EDB5EBC14EBF49A45CB856E66048291F6939A9A81BB5
310
C8917738143CA680F4AA299D66A042CEB3354A2684DC9D8D178FE0D9B8B41CAAD720F880EE7EF93C0C18769E099ECC04D5A102C8049A8A05632F4DDF376CF1DE0F6BB65C2F8627B65A33C6BB62177CEBBDAD973006829F89F22E814B54F4BC2BE347F8AA8F681390B50FA73F804400B5F542E796F19FF974E7F78DB802FE05
310
E207504B0304140006080800CC70623B16AB87BA640500003C100000340000006662782F39464131463745442D413632322D343644302D413938332D3331353338454246344243312F6F626A656374732E786D6CAD575B6FA33818FD2B887DE6924B3BED8A326A92B68A663B534DD4D13E548A0C38942D60649B369D5FBFC7
310
600890A493BDE42160637FD7F31D7FF63E6FB3D478A55C242CBF3247B66B1A340F5994E4F19559CA8D75611A9F7D8F33263BCB4C232719BD32D5B4E97B316765A1A722BA21652A07B3B7B33F0D11D29C9A46981221AE4C113ED38CD8A4942CA2E2C58E882476BCD9DA23BB5ED8171B73523C0F841684D35CC252CCE79062D4
310
468DFA43D7747CCF51DF7D4FFDEB5593E3AB9CCA9FBEFE241792E4E19EB28198C968BAB8199F5D5A67D3E9C49A9E8F47D6EC76B6B0469F26EEFC7C3EBFBCBEB98462213924694B38DD98FE1D62C393D073EA4FADC5DAF04326852CCF6958F90F0F2B9BB5C48816348F90C7840A68EB78EDF68723159BCEE7891A6B95DDE9D3
310
BCEAEEE8086A6C6F9E5D4B59F0175C10A7A0820BAA5055C7473B5AE3CFDD452D602CD5DF12616444529E90D448938013FE6EFA58AA96F85E4F8C42275708571E98FE6827AF6B2B4AE3D7D83D64E5A64C53054DD3AF90BD06FEA9149565C94FCA0F6B834DC85599E4F2423B24DF0B6AFA979E534DFA9E7A4CC6FA631D486393
310
921829879BF5D781A373557BCB85E97FB90DB62B558F8795179C15944B051F40AB495CF35451D26A4727654E6D8033BD98EF82F21D91FF8AF2DD9982BCF1643BDD4EB516C9492E368C67C88DED563FC36D5EACF66DFF057C3658BDBFA69DF9578B3DA735B64F18C7F20770A9D45CFCF7FCF563D6456A277DBEF78A02637CA2
310
43B90A490AEAB94F72244481D24819A6C0E59B606BFA4B3025981DBB48EAB701D97BF19C577CC77F2D1B6C55A9EF3C732474C0B727303F625995056C3B02963D9EAC146BE78EC5FCEC7FA999EBC5EACBAAE41B12D27B4D2C0BBA49F244E2ECDC81B76B502F113D8F5EE8FB1BE3111CDD4FC2AA9B844CAB1288B68AB90A7CDC
310
1C166AB0D3DC5310625FCC14E779BFD0709F8890A629C9292B1B2DED31A4B0DA928CEE135085754027E3018A397D4D5427D15BD1330B677DC8934285AC3DF45A9EB68FF8F2B8FC0A509AFEECFD0FF2DE25CC6047F7214B195F07EFEB9A094D800F7BFAE8FED187B78EA8A3A400F115961BCAD1215E47C966530AF0EE8128FE
310
58CEBB996A8964FFA529A046635D9353B0336A8F700DDF46271A024E70B0B37C9DE01847591E54DED53D54202AB947E4076556AC49C6CA5C9E1226B7F1A7B1BE15DEED62C41B91E1B3E9AFAAA735036547343A925075041DF0A9979E893B391F8FCFA6967B3EFB644DCF6E5CEBFAE272625DCC6FAF3FB93793C5F90CE1EF57
310
407342756B10D1C489E8953CD1617E5CEECAD6F4EF8914CE5D5D504E5C3F1F9736DA62CFC11E00BCDDB8CC8A9466349744C1F75EBDA4DF09BA8A9E8C7A7E9991989E20E5DBDD6A6003664ED8F7A04A8DBE0DF6EAD9B9AA858342E47399053949D2C146EDB85DE4B176BB0965FBAC19BD19AA918E27FA50C1D22402E144464C
310
59462568E704B6E71915404CB72B8FF4EDE184DDAF753F284990D2C6926782963815403548A70C657FDEF80D2D9CEAA2AE4C1C76F60BFE74219A06527D6582DF6412526107381E55E353090704D085B52408D0933C4ED159D79BDA71BB4BC506F4831350EB6F979CD22D69BF7AC49B91A2C0A9DDA3D5CA36AD20FC478E37E6
310
1844E2352865EBCB6EA275A652E3836BE04EFB400BF1A2556F515F1FBB35B2AB35BD889C744FFA1004B5544B121E57F70215746DD2F5E2C1412B602CBF19455AC6C8E5E9922C4E01E65215385004546899059180EAFCF7A707CE7017CD8CDB0410789AB32C63B91E5CEBBBACB17AC6CD347A022D5075FD106377347AAABA7E
310
7D11590744509B44E205134DC1290F06580320F78E537D3D73540E06CB970B431F185308AD40BBD794D6D77003C5A36E8EAA54BA64597CD8F83BD552A080A365F7FF06504B0304140006080000CC70623B000000000000000000000000350000006662782F39464131463745442D413632322D343644302D413938332D3331
310
353338454246344243312F76657274696365732E62696E504B0304140006080800CC70623BF270F1330600000004000000360000006662782F39464131463745442D413632322D343644302D413938332D3331353338454246344243312F747269616E676C65732E62696E636660600000504B0304140006080000CC70623B
310
000000000000000000000000370000006662782F39464131463745442D413632322D343644302D413938332D3331353338454246344243312F617474726962757465732E62696E504B0304140006080800CC70623B08DA0BD19000000041010000360000006662782F39464131463745442D413632322D343644302D413938
310
332D3331353338454246344243312F6469726563746F72792E786D6C858F410AC3201045AF22B36F53E9A60B35CBEEBAE80D244E44489C6234F4F835464A48035D0DF398FF9F8AF63D0E6CC63039F212F8F9020C7D47C6792B21C5FE7403D62A1188E2E60C98D7234A5830286103A55745067B9D86B8A3CF9C7F90C11DE607
310
FB144396D7B6A82D282E9A152AD114D5EF2CB866EEE831B8EEA07A7BB5A8D7D61A2BAAEB7FD5F70921FF497D00504B0304140006080800CC70623B0D6EF93BFE000000A00100003B0000006662782F39464131463745442D413632322D343644302D413938332D3331353338454246344243312F7265736F75726365732F63
310
6F72652E786D6C8D50596E833010BD0A9ADFCA60B334011947A8694ED00B586642AC041B79A97AFC9A40A5F6AF3F33A3B7689E1E3F7DCD8FEC139DD7D6F4C0720A191A65476DA61E62B892236427C19DB5E1970C322367EC618541F0C9D9B8EC90B226A009093576C41D94DE63804C3DD2D18357379C652E63480A7FCF17A9
310
EE72C29CE5894E3AC17D702940B63D59270887DE46A7D0F36263058F518FBB468FE9A7BE6A7420864373B8D4873369AA8691FA421B3294352543C5CAF65C0F6FEF43CB8BD52C78D0F34F46E550061C419494B6843142CB0F5677F4B52BEB177AEC28E5C52AFF638ACBF84F53D42654E51E77B379102C05791282176B5F693D
310
CB4C7BED567C03504B010214000A0000080000CC70623B3DEE336E79000000790000001B00000000000000000000000000000000006175746F6465736B2D64657369676E2D7061636B6167652E786D6C504B01021400140006080800CC70623BD486FD9CA0000000F40000001300000000000000000000000000B20000005B
310
436F6E74656E745F54797065735D2E786D6C504B01021400140006080800CC70623B1EC5D7A3EB0000007C010000080000000000000000000000000083010000636F72652E786D6C504B01021400140006080800CC70623B55019EA25F0000007C000000070000000000000000000000000094020000636E782E786D6C504B
310
01021400140006080800CC70623B8C9102E971010000D40300000C00000000000000000000000000180300006662782F636F72652E786D6C504B01021400140006080800CC70623BFFEA85907E0000009D0000000B00000000000000000000000000B30400006662782F636E782E786D6C504B01021400140006080800CC70
310
623B4FEEA4082C0100001202000031000000000000000000000000005A0500006662782F39464131463745442D413632322D343644302D413938332D3331353338454246344243312F636F72652E786D6C504B01021400140006080800CC70623BAD7543B64E010000330300003000000000000000000000000000D5060000
310
6662782F39464131463745442D413632322D343644302D413938332D3331353338454246344243312F636E782E786D6C504B01021400140006080800CC70623B16AB87BA640500003C1000003400000000000000000000000000710800006662782F39464131463745442D413632322D343644302D413938332D3331353338
310
454246344243312F6F626A656374732E786D6C504B01021400140006080000CC70623B0000000000000000000000003500000000000000000000000000270E00006662782F39464131463745442D413632322D343644302D413938332D3331353338454246344243312F76657274696365732E62696E504B01021400140006
310
080800CC70623BF270F133060000000400000036000000000000000000000000007A0E00006662782F39464131463745442D413632322D343644302D413938332D3331353338454246344243312F747269616E676C65732E62696E504B01021400140006080000CC70623B0000000000000000000000003700000000000000
310
000000000000D40E00006662782F39464131463745442D413632322D343644302D413938332D3331353338454246344243312F617474726962757465732E62696E504B01021400140006080800CC70623B08DA0BD190000000410100003600000000000000000000000000290F00006662782F39464131463745442D413632
310
322D343644302D413938332D3331353338454246344243312F6469726563746F72792E786D6C504B01021400140006080800CC70623B0D6EF93BFE000000A00100003B000000000000000000000000000D1000006662782F39464131463745442D413632322D343644302D413938332D3331353338454246344243312F7265
310
736F75726365732F636F72652E786D6C504B0506000000000E000E0080040000641100000000
  0
XRECORD
  5
175
102
{ACAD_REACTORS
330
173
102
}
330
173
100
AcDbXrecord
280
     1
270
     1
271
     1
  0
XRECORD
  5
174
102
{ACAD_REACTORS
330
173
102
}
330
173
100
AcDbXrecord
280
     1
270
     1
271
     1
  0
XRECORD
  5
1FB
102
{ACAD_REACTORS
330
173
102
}
330
173
100
AcDbXrecord
280
     1
 70
     0
 90
1673772943
  1
ECE7A1D2-D628-4531-984C-D00F80459256
310
504B03040A0000080000CC70623B3DEE336E79000000790000001B0000006175746F6465736B2D64657369676E2D7061636B6167652E786D6C3C3F786D6C2076657273696F6E3D22312E302220656E636F64696E673D227574662D3822203F3E3C666F726D6174733E3C666F726D61743E687474703A2F2F736368656D612E
310
6175746F6465736B2E636F6D2F64657369676E2D7061636B6167652F323030393C2F666F726D61743E3C2F666F726D6174733E504B0304140006080800CC70623BD486FD9CA0000000F4000000130000005B436F6E74656E745F54797065735D2E786D6C7D8EC10E82300C865F65E91D8A1E8C310C0EEA1BF002731658846E
310
D98AC1B77784ABF1D8FE5FBFBF75BBCE937A534CCEB38643598122B6FEE978D0B0485F9C41B54DDD7D022595594E1A469170414C76A4D9A4D207E29CF43ECE46F218070CC6BECC4078ACAA135ACF422C856C0E68EA1BF5669944DDD7BCDE7B1F8E415D77AECB980613C2E4AC91FC167A2B244592486606FC29C8FD7F045B9A
310
EF7053A7E60B504B0304140006080800CC70623BD9DDAED0EC0000007C01000008000000636F72652E786D6C8D90416EC3201045AF82665B61836D9CD8C2444DD39CA01740405C94182C03558F5F9C3852BBEB6A467FFE9B197D7EF89E6EE8CB2CC17A37002D0820E394D7D68D03A478C17B4007C117EFE32F1B20272733C0
310
2A83E0E3E2D3BC49CABB685CCCAAF3DA6CA20CC14440EA969B0182FA34932C648AD911AEC52CD5558EA6A0CF2EC329598D1E47ACCEFBECC59A050463A7EA5833865FEBDD0E37353BE3EE8DBDE3F6786A48D375FBF6CC78B9C282473B3DEFABC5C86834888A900E538A49F5419B9EB47DD5BC907D4F082F57FB1F28CDFA9F50
310
B22ED6D5F6EE030B20687EE43E10BC5CB3C8E51E54AE6B6EE207504B0304140006080800CC70623B55019EA25F0000007C00000007000000636E782E786D6C4DCB3B0E80201045D1AD90E915ED2CF8AC45050C11660C8261F98AB1B07AC9C97D42D718D865D3E909258CFD00CCE24AC6E326A164D74DC0B4128928FF326038
310
472BA13128B1252AC747C6BAB984FC68F0B87FE8960A5C09FE86CFB69FBA01504B0304140006080800CC70623BA24EB22D72010000D40300000C0000006662782F636F72652E786D6CC5535B6E833010BC8AE5DF0A6C5E49888CA3A6694ED00B38E05014B091B1518EDFE511A5A9D228FD2A1F60CDEC7A67C6986DCE4D8D7A
310
69BA4AAB0C073EC548AA5C17952A33ECECD15B61B4E1CC686DBF9561A44423333CC098B3D268D7CE50AE9595CA02AA74216750749DB418E5352C32DCE59FB211BE70162ABA93DF8AFC244AE9073ED050C759670D0840D390E18DF9F1706664C23973AE2A66B62A605A75ACA4C13C4976E1364A12EF355A2EBD384AF65EFA96
310
BC7B8BED2EA6719AAE16FB8491A199335B351775B991C2CA02F390D2D40B028F861F41BCA68B7518BFD0D59A524686F29B26D7164F36B94AD9289CE54E6D1DE6010819891F6E21228B3AD1831EC219194284CF98F06DD01008846CC5A1BEF83801D4CBDC6A1303536877A57A513B0953A94FC707FDBE6064EA84A9E3E6E0FA
310
EE8CF0E9198F7784A316AA0413C2C2F2E0ECA0934D1AE6D05A69BCDE9E91D2A611F573361E38FC1375157F5752AE6B6DFE4B11990F88CCBF0719EE23FF02504B0304140006080800CC70623B408A7D3B7C0000009D0000000B0000006662782F636E782E786D6C4DCCD10A83201886E15B91FFDC552A92A0064DBC8F581632
310
D3703A76F9ABD1C18E3E78F878E5F0D9027ABBFCF2292AE86E2D20171F69F6715550CB827B40839639A5F2770314A7CD293819B45C73AAFB45B35BA61ACAA1C1C7E7855C58C15BC331339661262CC762340413D68D77DA5B42298546CBE6573AF60CEB2F504B0304140006080800CC70623B449FB9BD290100001202000031
310
0000006662782F36394639363044362D344446342D343946362D394244322D3234314243333846323333332F636F72652E786D6C8D515B6EC32010BC0AE22B55850D98B871848994463E412FE002495162B07854397EA176A4F62F3F2C9A9D991D587EB84F37F0AD7D30CEF6905418026DA553C65E7A98E219ED203808EE9D
310
8B7F6810D871D23D2C3014FCE25D9A57483A1BB58D19B54EE9151C43D0110279CB971E06F9A5A7B11A53CC8C70ADE6515EC78BAE4895DB992778883E0700CB907242D17643D7E2538BD869608875438BBAE38922CAC8F1BDD90DB4691A5E2F42C153326A951B95E398B3D1FE599322163C9AE9115F7A3D46ADA0A018778810
310
84E907617BDCEE297BC5BB3DC6BC2EF47FA234AB2745C9D8D8D035EE220B50105E2F0DC1954B9FB747187D9F9D8FA0CCDB042D5FA0C015C65B42DF78BD10F3F3B363CB56C7109DCFDFBBB97E662ED92EB62D13BC2E1BCAE5777DB9966D8A1F504B0304140006080800CC70623BAD7543B64E01000033030000300000006662
310
782F36394639363044362D344446342D343946362D394244322D3234314243333846323333332F636E782E786D6CD593CD6EC32010845F0571AD6CE3D48AD20813A9873E410FBD12D82434182C7EAAE6EDBB2424CD25871E7B41D6EC30B3FA84F9E67BB2E40B4234DE8DB46F1925E094D7C6ED479AD3AE5951B2113C789FEE
310
6C943839C1488B4C05DF079FE72A69D8C96C13AAD6B8631503449F83828872B949AC57D26200B826A308D316B4064D6E46FCDA41C05550DC9E483A00797BFD207EFB092A45DE9514C1BBD22178396BD39D891265658C238DEA00936C654E5E433CB65A26D9F6EDB5EBC14EBF49A45CB856E66048291F6939A9A81BB5C89177
310
38143CA680F4AA299D66A042CEB3354A2684DC9D8D178FE0D9B8B41CAAD720F880EE7EF93C0C18769E099ECC04D5A102C8049A8A05632F4DDF376CF1DE0F6BB65C2F8627B65A33C6BB62177CEBBDAD973006829F89F22E814B54F4BC2BE347F8AA8F681390B50FA73F804400B5F542E796F19FF974E7F78DB802FE05E20750
310
4B0304140006080800CC70623B8D05915C650500003B100000340000006662782F36394639363044362D344446342D343946362D394244322D3234314243333846323333332F6F626A656374732E786D6CAD575B6FA33814FE2B887D06429276DA1565D4266D158D3A339A6846FB502932E050B66023DB74D2FDF5FB190C01
310
9276B2973C046C8ECFF53B17071F77456EBD502133CEAE6CDF9DD81665314F32965ED995DA3A17B6F5310C04E7AA47665B8C14F4CAD6DB7618A48257A5D94AE89654B91AEDDEDDFC61C998326A5B714EA4BCB265FC440BE2924AF184CA6737218AB8E976E7FA6E4338649B0A523E8D98964450A6A029F619B8588D52FE7039
310
B1BD30F0F4F730D0FF866AF6369557DB33949F31A9088B0F848DD8CCFCF9F2767A76E99CCDE733677E3EF59D9BBB9BA5E37F984D16E78BC5E5F5ED25044B25C0C96822E8D60EEFE11B91C581D77CEA34368A1F5329E68CD1B8B61F16D63A1B8E092D294B10C78C4A48EB593D192E7DED9BDEE7995E1B91FDEDD3ACEA9FE831
310
6A756F9F7D4D79F4274C90A7A04248AA51D5F8C718DAE06FB2F75AC4796EBE65D22A88A22223B995679120E2D50E41AA49C260C046A35368846B0BECD0DFF3EBEB8AD4F835768F69B9ADF25C43D30E6B646F807FAA64AD59F61715C7A54127C4AACA98BA3006A9D792DAE165E0D59B61A01FB3A9F9D838D2DAE62445C86166
310
F37564E842E7DE6A69879FEEA2DD5AE7E371E1A5E025154AC307D06A03D73EB5978C58FFA4C8E9033066E0F3BD53BEC1F39F91BE7B55103791EDE6BBB991A2046172CB4581D8B893FA674DDA17A77B3B7C413D1B511FD2743BFF8A38F03A658705E3ADF8015C3A3417FF3D7E439FF591DA0B5F18BC20C1B8981957AE6392A3
310
F43C640C01D1A0B4728E2DD4F26DB4B3C3152A252A3B4E913CEC1C72F012782FF88EFF8637AA552DBEF76408E8A8DE9E50F9E1CB3A2DA0DB1B6039A893B56063DC5B3E3FFB5F72E67AB9FEB4AEC496C4F4C1149625DD662C53E89D7BF0F6151A046260D1337DFDC94502430F83B0EE07A130A224BCAD7DAE1D9FB6CD422FF6
310
920702629C4BB9AE79C12F243C6432A6794E18E5552BA56B431AAB5D91317302B2B071E86C3A42B1A02F999E24061403B5D0EB639195DA655DD3EBEAB4FB862DDF579F014AD0E73C22F99E28DA57FB98E75C6CA2D74D53086D600F4786E0FE3144B771A8A7B900F03594DB8A633CBC49B2EDB69228BB479CF863B5E807AAAB
310
23872F6DFEB4129B949CA33823F58830E86D65621E10047D9DB34D862E8EAC3C2ABC2F7B2C40D67CDFE01F5545B92105AF983AC54D93D69E56FB8E797F88913F898A9FEC705D3F9D1B54EC8426FB500D40A03BD0119B06E1B95DDC7EB8F6975367793EBD70E66733DFB9BC982F9CE564727731999F5D4ECFCE3B8D6A4DC2A0
310
6D50FD148437D110834A64C6CDDF57FBACB5C307A2A477DFE4939736CFEF2B175371E0E10CF0DD1D5C15654E0BCA14D1E87DD02FF93782A162C0A3D95F1524A52770F972BF1EE9809D13CE7DD599467F8ECE9ADD85CE85A34CD45355448C64F9E8A031DC2D596ACC6E5DD93D9B82DE2EF5CAF81363A8E47996A0DE24564A79
310
4115AACE09C55E14540231FDA13C319787134EBF34E3A022514E5B4D9E0826E25C02D5805B15ABE1BEF51B26383D445DD9E875EE33FE4C22DA16427D65A3BCA92CA6D28DD01DF5DC53330704308475351050232CCD31583787BA75774AFB06E5070DD0C8EF484E19968C5D83BA5B90B244D31E54D55A372320FE4786B7EA58
310
44E135AA5467CB7EA333A61683CC6A8C3257034C10CF46F40EF9F5BE59BE5BD30C3C72D235E95D10345C1D45445A5F0BB47E46A5EBE5570F9380B5FA629579952296A773720405982B9DE04011506178964401AA8BDF1FBF0A8EAB6861DD6580C0E38217056766716DAEB2D6FA0917D3E4116581EADB879C4E7CFFB11EFACD
310
3D641311495D92C8676CB409A72D18610D803CE8A626049E8EC1887CB5B44CC39883690DDA8399B4B9855B481E7D71D4A9D22F96E5BB73BF5793020C02137BF837504B0304140006080000CC70623B000000000000000000000000350000006662782F36394639363044362D344446342D343946362D394244322D32343142
310
43333846323333332F76657274696365732E62696E504B0304140006080800CC70623BF270F1330600000004000000360000006662782F36394639363044362D344446342D343946362D394244322D3234314243333846323333332F747269616E676C65732E62696E636660600000504B0304140006080000CC70623B0000
310
00000000000000000000370000006662782F36394639363044362D344446342D343946362D394244322D3234314243333846323333332F617474726962757465732E62696E504B0304140006080800CC70623B08DA0BD19000000041010000360000006662782F36394639363044362D344446342D343946362D394244322D
310
3234314243333846323333332F6469726563746F72792E786D6C858F410AC3201045AF22B36F53E9A60B35CBEEBAE80D244E44489C6234F4F835464A48035D0DF398FF9F8AF63D0E6CC63039F212F8F9020C7D47C6792B21C5FE7403D62A1188E2E60C98D7234A5830286103A55745067B9D86B8A3CF9C7F90C11DE607FB14
310
4396D7B6A82D282E9A152AD114D5EF2CB866EEE831B8EEA07A7BB5A8D7D61A2BAAEB7FD5F70921FF497D00504B0304140006080800CC70623BCA768048FE000000A00100003B0000006662782F36394639363044362D344446342D343946362D394244322D3234314243333846323333332F7265736F75726365732F636F72
310
652E786D6C8D50596E833010BD0A9ADFCA60D600328E9AA639412F609909B1126CE4A5EAF16B0295DABFFECC8CDEA2797AECF8353F924FB44E193D409E5248504B332A3D0D10FC95B4901C39B3C6F85F3248B49871801506CE266BC2B243D2688FDA47549B11775038871E12F988C7004EDE7016A9083E2ADC3D5D84BC8B09
310
D33C8D74D471E6BC8D0192EDC93A815B742658898E651BCB59086ADC356A8C3FD555A1055ED7E7E254D615792D0F075295F585746FF53B694EE78A565DD736979A65AB9933AFE69F8CD2A2F038022F28ED489E135A7CE4554F9BBEA85E68DB53CAB255FEC71496F19FA6A0B42F8B3DEE6673C0F318E4497096AD7DC5F52C33
310
EEB55BFE0D504B010214000A0000080000CC70623B3DEE336E79000000790000001B00000000000000000000000000000000006175746F6465736B2D64657369676E2D7061636B6167652E786D6C504B01021400140006080800CC70623BD486FD9CA0000000F40000001300000000000000000000000000B20000005B436F
310
6E74656E745F54797065735D2E786D6C504B01021400140006080800CC70623BD9DDAED0EC0000007C010000080000000000000000000000000083010000636F72652E786D6C504B01021400140006080800CC70623B55019EA25F0000007C000000070000000000000000000000000095020000636E782E786D6C504B0102
310
1400140006080800CC70623BA24EB22D72010000D40300000C00000000000000000000000000190300006662782F636F72652E786D6C504B01021400140006080800CC70623B408A7D3B7C0000009D0000000B00000000000000000000000000B50400006662782F636E782E786D6C504B01021400140006080800CC70623B
310
449FB9BD290100001202000031000000000000000000000000005A0500006662782F36394639363044362D344446342D343946362D394244322D3234314243333846323333332F636F72652E786D6C504B01021400140006080800CC70623BAD7543B64E010000330300003000000000000000000000000000D20600006662
310
782F36394639363044362D344446342D343946362D394244322D3234314243333846323333332F636E782E786D6C504B01021400140006080800CC70623B8D05915C650500003B10000034000000000000000000000000006E0800006662782F36394639363044362D344446342D343946362D394244322D32343142433338
310
46323333332F6F626A656374732E786D6C504B01021400140006080000CC70623B0000000000000000000000003500000000000000000000000000250E00006662782F36394639363044362D344446342D343946362D394244322D3234314243333846323333332F76657274696365732E62696E504B010214001400060808
310
00CC70623BF270F13306000000040000003600000000000000000000000000780E00006662782F36394639363044362D344446342D343946362D394244322D3234314243333846323333332F747269616E676C65732E62696E504B01021400140006080000CC70623B00000000000000000000000037000000000000000000
310
00000000D20E00006662782F36394639363044362D344446342D343946362D394244322D3234314243333846323333332F617474726962757465732E62696E504B01021400140006080800CC70623B08DA0BD190000000410100003600000000000000000000000000270F00006662782F36394639363044362D344446342D
310
343946362D394244322D3234314243333846323333332F6469726563746F72792E786D6C504B01021400140006080800CC70623BCA768048FE000000A00100003B000000000000000000000000000B1000006662782F36394639363044362D344446342D343946362D394244322D3234314243333846323333332F7265736F
310
75726365732F636F72652E786D6C504B0506000000000E000E0080040000621100000000
  0
XRECORD
  5
176
102
{ACAD_REACTORS
330
173
102
}
330
173
100
AcDbXrecord
280
     1
270
     1
271
     1
  0
XRECORD
  5
177
102
{ACAD_REACTORS
330
173
102
}
330
173
100
AcDbXrecord
280
     1
270
     1
271
     1
  0
XRECORD
  5
388
102
{ACAD_REACTORS
330
387
102
}
330
387
100
AcDbXrecord
280
     1
102
DISPLAYNAME
  1
Imperial24
102
FLAGS
 90
        0
  0
XRECORD
  5
384
102
{ACAD_REACTORS
330
383
102
}
330
383
100
AcDbXrecord
280
     1
102
DISPLAYNAME
  1
Metric50
102
FLAGS
 90
        0
  0
CELLSTYLEMAP
  5
379
102
{ACAD_REACTORS
330
162
102
}
330
162
100
AcDbCellStyleMap
 90
        3
300
CELLSTYLE
  1
TABLEFORMAT_BEGIN
 90
        5
170
     1
 91
        0
 92
    32768
 62
   257
 93
        1
300
CONTENTFORMAT
  1
CONTENTFORMAT_BEGIN
 90
        0
 91
        0
 92
      512
 93
        0
300

 40
0.0
140
1.0
 94
        5
 62
     0
340
11
144
6.0
309
CONTENTFORMAT_END
171
     1
301
MARGIN
  1
CELLMARGIN_BEGIN
 40
1.5
 40
1.5
 40
1.5
 40
1.5
 40
4.5
 40
4.5
309
CELLMARGIN_END
 94
        6
 95
        1
302
GRIDFORMAT
  1
GRIDFORMAT_BEGIN
 90
        0
 91
        1
 62
     0
 92
       -2
340
14
 93
        0
 40
1.125
309
GRIDFORMAT_END
 95
        2
302
GRIDFORMAT
  1
GRIDFORMAT_BEGIN
 90
        0
 91
        1
 62
     0
 92
       -2
340
14
 93
        0
 40
1.125
309
GRIDFORMAT_END
 95
        4
302
GRIDFORMAT
  1
GRIDFORMAT_BEGIN
 90
        0
 91
        1
 62
     0
 92
       -2
340
14
 93
        0
 40
1.125
309
GRIDFORMAT_END
 95
        8
302
GRIDFORMAT
  1
GRIDFORMAT_BEGIN
 90
        0
 91
        1
 62
     0
 92
       -2
340
14
 93
        0
 40
1.125
309
GRIDFORMAT_END
 95
       16
302
GRIDFORMAT
  1
GRIDFORMAT_BEGIN
 90
        0
 91
        1
 62
     0
 92
       -2
340
14
 93
        0
 40
1.125
309
GRIDFORMAT_END
 95
       32
302
GRIDFORMAT
  1
GRIDFORMAT_BEGIN
 90
        0
 91
        1
 62
     0
 92
       -2
340
14
 93
        0
 40
1.125
309
GRIDFORMAT_END
309
TABLEFORMAT_END
  1
CELLSTYLE_BEGIN
 90
        1
 91
        1
300
_TITLE
309
CELLSTYLE_END
300
CELLSTYLE
  1
TABLEFORMAT_BEGIN
 90
        5
170
     1
 91
        0
 92
        0
 62
   257
 93
        1
300
CONTENTFORMAT
  1
CONTENTFORMAT_BEGIN
 90
        0
 91
        0
 92
      512
 93
        0
300

 40
0.0
140
1.0
 94
        5
 62
     0
340
11
144
4.5
309
CONTENTFORMAT_END
171
     1
301
MARGIN
  1
CELLMARGIN_BEGIN
 40
1.5
 40
1.5
 40
1.5
 40
1.5
 40
4.5
 40
4.5
309
CELLMARGIN_END
 94
        6
 95
        1
302
GRIDFORMAT
  1
GRIDFORMAT_BEGIN
 90
        0
 91
        1
 62
     0
 92
       -2
340
14
 93
        0
 40
1.125
309
GRIDFORMAT_END
 95
        2
302
GRIDFORMAT
  1
GRIDFORMAT_BEGIN
 90
        0
 91
        1
 62
     0
 92
       -2
340
14
 93
        0
 40
1.125
309
GRIDFORMAT_END
 95
        4
302
GRIDFORMAT
  1
GRIDFORMAT_BEGIN
 90
        0
 91
        1
 62
     0
 92
       -2
340
14
 93
        0
 40
1.125
309
GRIDFORMAT_END
 95
        8
302
GRIDFORMAT
  1
GRIDFORMAT_BEGIN
 90
        0
 91
        1
 62
     0
 92
       -2
340
14
 93
        0
 40
1.125
309
GRIDFORMAT_END
 95
       16
302
GRIDFORMAT
  1
GRIDFORMAT_BEGIN
 90
        0
 91
        1
 62
     0
 92
       -2
340
14
 93
        0
 40
1.125
309
GRIDFORMAT_END
 95
       32
302
GRIDFORMAT
  1
GRIDFORMAT_BEGIN
 90
        0
 91
        1
 62
     0
 92
       -2
340
14
 93
        0
 40
1.125
309
GRIDFORMAT_END
309
TABLEFORMAT_END
  1
CELLSTYLE_BEGIN
 90
        2
 91
        1
300
_HEADER
309
CELLSTYLE_END
300
CELLSTYLE
  1
TABLEFORMAT_BEGIN
 90
        5
170
     1
 91
        0
 92
        0
 62
   257
 93
        1
300
CONTENTFORMAT
  1
CONTENTFORMAT_BEGIN
 90
        0
 91
        0
 92
      512
 93
        0
300

 40
0.0
140
1.0
 94
        2
 62
     0
340
11
144
4.5
309
CONTENTFORMAT_END
171
     1
301
MARGIN
  1
CELLMARGIN_BEGIN
 40
1.5
 40
1.5
 40
1.5
 40
1.5
 40
4.5
 40
4.5
309
CELLMARGIN_END
 94
        6
 95
        1
302
GRIDFORMAT
  1
GRIDFORMAT_BEGIN
 90
        0
 91
        1
 62
     0
 92
       -2
340
14
 93
        0
 40
1.125
309
GRIDFORMAT_END
 95
        2
302
GRIDFORMAT
  1
GRIDFORMAT_BEGIN
 90
        0
 91
        1
 62
     0
 92
       -2
340
14
 93
        0
 40
1.125
309
GRIDFORMAT_END
 95
        4
302
GRIDFORMAT
  1
GRIDFORMAT_BEGIN
 90
        0
 91
        1
 62
     0
 92
       -2
340
14
 93
        0
 40
1.125
309
GRIDFORMAT_END
 95
        8
302
GRIDFORMAT
  1
GRIDFORMAT_BEGIN
 90
        0
 91
        1
 62
     0
 92
       -2
340
14
 93
        0
 40
1.125
309
GRIDFORMAT_END
 95
       16
302
GRIDFORMAT
  1
GRIDFORMAT_BEGIN
 90
        0
 91
        1
 62
     0
 92
       -2
340
14
 93
        0
 40
1.125
309
GRIDFORMAT_END
 95
       32
302
GRIDFORMAT
  1
GRIDFORMAT_BEGIN
 90
        0
 91
        1
 62
     0
 92
       -2
340
14
 93
        0
 40
1.125
309
GRIDFORMAT_END
309
TABLEFORMAT_END
  1
CELLSTYLE_BEGIN
 90
        3
 91
        2
300
_DATA
309
CELLSTYLE_END
  0
ENDSEC
  0
SECTION
  2
ACDSDATA
 70
     2
 71
     8
  0
ACDSSCHEMA
 90
        0
  1
AcDb_Thumbnail_Schema
  2
AcDbDs::ID
280
    10
 91
        8
  2
Thumbnail_Data
280
    15
 91
        0
101
ACDSRECORD
 95
        0
 90
        1
  2
AcDbDs::TreatedAsObjectData
280
     1
291
     1
101
ACDSRECORD
 95
        0
 90
        2
  2
AcDbDs::Legacy
280
     1
291
     1
101
ACDSRECORD
  1
AcDbDs::ID
 90
        3
  2
AcDs:Indexable
280
     1
291
     1
101
ACDSRECORD
  1
AcDbDs::ID
 90
        4
  2
AcDbDs::HandleAttribute
280
     7
282
     1
  0
ACDSSCHEMA
 90
        1
  1
AcDbDs::TreatedAsObjectDataSchema
  2
AcDbDs::TreatedAsObjectData
280
     1
 91
        0
  0
ACDSSCHEMA
 90
        2
  1
AcDbDs::LegacySchema
  2
AcDbDs::Legacy
280
     1
 91
        0
  0
ACDSSCHEMA
 90
        3
  1
AcDbDs::IndexedPropertySchema
  2
AcDs:Indexable
280
     1
 91
        0
  0
ACDSSCHEMA
 90
        4
  1
AcDbDs::HandleAttributeSchema
  2
AcDbDs::HandleAttribute
280
     7
 91
        1
284
     1
  0
ACDSRECORD
 90
        0
  2
AcDbDs::ID
280
    10
320
22
  2
Thumbnail_Data
280
    15
 94
      896
310
89504E470D0A1A0A0000000D49484452000001000000009108030000001BE1960600000300504C5445212830FFFFFF2128300000000000000000000000000000000000000000000000000000330000660000990000CC0000FF0033000033330033660033990033CC0033FF0066000066330066660066990066CC0066FF0099
310
000099330099660099990099CC0099FF00CC0000CC3300CC6600CC9900CCCC00CCFF00FF0000FF3300FF6600FF9900FFCC00FFFF3300003300333300663300993300CC3300FF3333003333333333663333993333CC3333FF3366003366333366663366993366CC3366FF3399003399333399663399993399CC3399FF33CC00
310
33CC3333CC6633CC9933CCCC33CCFF33FF0033FF3333FF6633FF9933FFCC33FFFF6600006600336600666600996600CC6600FF6633006633336633666633996633CC6633FF6666006666336666666666996666CC6666FF6699006699336699666699996699CC6699FF66CC0066CC3366CC6666CC9966CCCC66CCFF66FF0066
310
FF3366FF6666FF9966FFCC66FFFF9900009900339900669900999900CC9900FF9933009933339933669933999933CC9933FF9966009966339966669966999966CC9966FF9999009999339999669999999999CC9999FF99CC0099CC3399CC6699CC9999CCCC99CCFF99FF0099FF3399FF6699FF9999FFCC99FFFFCC0000CC00
310
33CC0066CC0099CC00CCCC00FFCC3300CC3333CC3366CC3399CC33CCCC33FFCC6600CC6633CC6666CC6699CC66CCCC66FFCC9900CC9933CC9966CC9999CC99CCCC99FFCCCC00CCCC33CCCC66CCCC99CCCCCCCCCCFFCCFF00CCFF33CCFF66CCFF99CCFFCCCCFFFFFF0000FF0033FF0066FF0099FF00CCFF00FFFF3300FF3333
310
FF3366FF3399FF33CCFF33FFFF6600FF6633FF6666FF6699FF66CCFF66FFFF9900FF9933FF9966FF9999FF99CCFF99FFFFCC00FFCC33FFCC66FFCC99FFCCCCFFCCFFFFFF00FFFF33FFFF66FFFF99FFFFCCFFFFFF0000000D0D0D1A1A1A2828283535354343435050505D5D5D6B6B6B787878868686939393A1A1A1AEAEAEBB
310
BBBBC9C9C9D6D6D6E4E4E4F1F1F1FFFFFF0000000000000000000000000000000000000000000000000000000000002E4550F10000003B4944415478DAEDC13101000000C2A0F54F6D0B2FA0000000000000000000000000000000000000000000000000000000000000000000000000CE06919100016C9A5B1B0000000049
310
454E44AE426082
  0
ENDSEC
  0
EOF
