  0
SECTION
  2
HEADER
  9
$ACADVER
  1
AC1027
  9
$ACADMAINTVER
 70
   125
  9
$DWGCODEPAGE
  3
ANSI_1252
  9
$LASTSAVEDBY
  1
ufficio.tecnico
  9
$REQUIREDVERSIONS
160
                 0
  9
$INSBASE
 10
0.0
 20
0.0
 30
0.0
  9
$EXTMIN
 10
13.10642083229401
 20
-18.65450303353082
 30
0.0
  9
$EXTMAX
 10
17.59954589403761
 20
-3.877045856669638
 30
0.0
  9
$LIMMIN
 10
0.0
 20
0.0
  9
$LIMMAX
 10
12.0
 20
9.0
  9
$ORTHOMODE
 70
     0
  9
$REGENMODE
 70
     1
  9
$FILLMODE
 70
     1
  9
$QTEXTMODE
 70
     0
  9
$MIRRTEXT
 70
     0
  9
$LTSCALE
 40
1.0
  9
$ATTMODE
 70
     1
  9
$TEXTSIZE
 40
0.2
  9
$TRACEWID
 40
0.05
  9
$TEXTSTYLE
  7
Standard
  9
$CLAYER
  8
0
  9
$CELTYPE
  6
ByLayer
  9
$CECOLOR
 62
   256
  9
$CELTSCALE
 40
1.0
  9
$DISPSILH
 70
     0
  9
$DIMSCALE
 40
1.0
  9
$DIMASZ
 40
0.18
  9
$DIMEXO
 40
0.0625
  9
$DIMDLI
 40
0.38
  9
$DIMRND
 40
0.0
  9
$DIMDLE
 40
0.0
  9
$DIMEXE
 40
0.18
  9
$DIMTP
 40
0.0
  9
$DIMTM
 40
0.0
  9
$DIMTXT
 40
0.18
  9
$DIMCEN
 40
0.09
  9
$DIMTSZ
 40
0.0
  9
$DIMTOL
 70
     0
  9
$DIMLIM
 70
     0
  9
$DIMTIH
 70
     1
  9
$DIMTOH
 70
     1
  9
$DIMSE1
 70
     0
  9
$DIMSE2
 70
     0
  9
$DIMTAD
 70
     0
  9
$DIMZIN
 70
     0
  9
$DIMBLK
  1

  9
$DIMASO
 70
     1
  9
$DIMSHO
 70
     1
  9
$DIMPOST
  1

  9
$DIMAPOST
  1

  9
$DIMALT
 70
     0
  9
$DIMALTD
 70
     2
  9
$DIMALTF
 40
25.4
  9
$DIMLFAC
 40
1.0
  9
$DIMTOFL
 70
     0
  9
$DIMTVP
 40
0.0
  9
$DIMTIX
 70
     0
  9
$DIMSOXD
 70
     0
  9
$DIMSAH
 70
     0
  9
$DIMBLK1
  1

  9
$DIMBLK2
  1

  9
$DIMSTYLE
  2
Standard
  9
$DIMCLRD
 70
     0
  9
$DIMCLRE
 70
     0
  9
$DIMCLRT
 70
     0
  9
$DIMTFAC
 40
1.0
  9
$DIMGAP
 40
0.09
  9
$DIMJUST
 70
     0
  9
$DIMSD1
 70
     0
  9
$DIMSD2
 70
     0
  9
$DIMTOLJ
 70
     1
  9
$DIMTZIN
 70
     0
  9
$DIMALTZ
 70
     0
  9
$DIMALTTZ
 70
     0
  9
$DIMUPT
 70
     0
  9
$DIMDEC
 70
     4
  9
$DIMTDEC
 70
     4
  9
$DIMALTU
 70
     2
  9
$DIMALTTD
 70
     2
  9
$DIMTXSTY
  7
Standard
  9
$DIMAUNIT
 70
     0
  9
$DIMADEC
 70
     0
  9
$DIMALTRND
 40
0.0
  9
$DIMAZIN
 70
     0
  9
$DIMDSEP
 70
    46
  9
$DIMATFIT
 70
     3
  9
$DIMFRAC
 70
     0
  9
$DIMLDRBLK
  1

  9
$DIMLUNIT
 70
     2
  9
$DIMLWD
 70
    -2
  9
$DIMLWE
 70
    -2
  9
$DIMTMOVE
 70
     0
  9
$DIMFXL
 40
1.0
  9
$DIMFXLON
 70
     0
  9
$DIMJOGANG
 40
0.7853981633974483
  9
$DIMTFILL
 70
     0
  9
$DIMTFILLCLR
 70
     0
  9
$DIMARCSYM
 70
     0
  9
$DIMLTYPE
  6

  9
$DIMLTEX1
  6

  9
$DIMLTEX2
  6

  9
$DIMTXTDIRECTION
 70
     0
  9
$LUNITS
 70
     2
  9
$LUPREC
 70
     4
  9
$SKETCHINC
 40
0.1
  9
$FILLETRAD
 40
0.0
  9
$AUNITS
 70
     0
  9
$AUPREC
 70
     0
  9
$MENU
  1
.
  9
$ELEVATION
 40
0.0
  9
$PELEVATION
 40
0.0
  9
$THICKNESS
 40
0.0
  9
$LIMCHECK
 70
     0
  9
$CHAMFERA
 40
0.0
  9
$CHAMFERB
 40
0.0
  9
$CHAMFERC
 40
0.0
  9
$CHAMFERD
 40
0.0
  9
$SKPOLY
 70
     0
  9
$TDCREATE
 40
2459328.425034723
  9
$TDUCREATE
 40
2459328.341701389
  9
$TDUPDATE
 40
2459341.361122685
  9
$TDUUPDATE
 40
2459341.277789352
  9
$TDINDWG
 40
0.0006481481
  9
$TDUSRTIMER
 40
0.0006481481
  9
$USRTIMER
 70
     1
  9
$ANGBASE
 50
0.0
  9
$ANGDIR
 70
     0
  9
$PDMODE
 70
     0
  9
$PDSIZE
 40
0.0
  9
$PLINEWID
 40
0.0
  9
$SPLFRAME
 70
     0
  9
$SPLINETYPE
 70
     6
  9
$SPLINESEGS
 70
     8
  9
$HANDSEED
  5
179
  9
$SURFTAB1
 70
     6
  9
$SURFTAB2
 70
     6
  9
$SURFTYPE
 70
     6
  9
$SURFU
 70
     6
  9
$SURFV
 70
     6
  9
$UCSBASE
  2

  9
$UCSNAME
  2

  9
$UCSORG
 10
0.0
 20
0.0
 30
0.0
  9
$UCSXDIR
 10
1.0
 20
0.0
 30
0.0
  9
$UCSYDIR
 10
0.0
 20
1.0
 30
0.0
  9
$UCSORTHOREF
  2

  9
$UCSORTHOVIEW
 70
     0
  9
$UCSORGTOP
 10
0.0
 20
0.0
 30
0.0
  9
$UCSORGBOTTOM
 10
0.0
 20
0.0
 30
0.0
  9
$UCSORGLEFT
 10
0.0
 20
0.0
 30
0.0
  9
$UCSORGRIGHT
 10
0.0
 20
0.0
 30
0.0
  9
$UCSORGFRONT
 10
0.0
 20
0.0
 30
0.0
  9
$UCSORGBACK
 10
0.0
 20
0.0
 30
0.0
  9
$PUCSBASE
  2

  9
$PUCSNAME
  2

  9
$PUCSORG
 10
0.0
 20
0.0
 30
0.0
  9
$PUCSXDIR
 10
1.0
 20
0.0
 30
0.0
  9
$PUCSYDIR
 10
0.0
 20
1.0
 30
0.0
  9
$PUCSORTHOREF
  2

  9
$PUCSORTHOVIEW
 70
     0
  9
$PUCSORGTOP
 10
0.0
 20
0.0
 30
0.0
  9
$PUCSORGBOTTOM
 10
0.0
 20
0.0
 30
0.0
  9
$PUCSORGLEFT
 10
0.0
 20
0.0
 30
0.0
  9
$PUCSORGRIGHT
 10
0.0
 20
0.0
 30
0.0
  9
$PUCSORGFRONT
 10
0.0
 20
0.0
 30
0.0
  9
$PUCSORGBACK
 10
0.0
 20
0.0
 30
0.0
  9
$USERI1
 70
     0
  9
$USERI2
 70
     0
  9
$USERI3
 70
     0
  9
$USERI4
 70
     0
  9
$USERI5
 70
     0
  9
$USERR1
 40
0.0
  9
$USERR2
 40
0.0
  9
$USERR3
 40
0.0
  9
$USERR4
 40
0.0
  9
$USERR5
 40
0.0
  9
$WORLDVIEW
 70
     1
  9
$SHADEDGE
 70
     3
  9
$SHADEDIF
 70
    70
  9
$TILEMODE
 70
     1
  9
$MAXACTVP
 70
    64
  9
$PINSBASE
 10
0.0
 20
0.0
 30
0.0
  9
$PLIMCHECK
 70
     0
  9
$PEXTMIN
 10
1.000000000000000E+20
 20
1.000000000000000E+20
 30
1.000000000000000E+20
  9
$PEXTMAX
 10
-1.000000000000000E+20
 20
-1.000000000000000E+20
 30
-1.000000000000000E+20
  9
$PLIMMIN
 10
0.0
 20
0.0
  9
$PLIMMAX
 10
12.0
 20
9.0
  9
$UNITMODE
 70
     0
  9
$VISRETAIN
 70
     1
  9
$PLINEGEN
 70
     0
  9
$PSLTSCALE
 70
     1
  9
$TREEDEPTH
 70
  3020
  9
$CMLSTYLE
  2
Standard
  9
$CMLJUST
 70
     0
  9
$CMLSCALE
 40
1.0
  9
$PROXYGRAPHICS
 70
     1
  9
$MEASUREMENT
 70
     0
  9
$CELWEIGHT
370
    -1
  9
$ENDCAPS
280
     0
  9
$JOINSTYLE
280
     0
  9
$LWDISPLAY
290
     1
  9
$INSUNITS
 70
     5
  9
$HYPERLINKBASE
  1

  9
$STYLESHEET
  1

  9
$XEDIT
290
     1
  9
$CEPSNTYPE
380
     0
  9
$PSTYLEMODE
290
     1
  9
$FINGERPRINTGUID
  2
{5B6360BC-FBDA-254B-8139-05804A21A073}
  9
$VERSIONGUID
  2
{22AB0A1B-1A6B-CF46-AE7E-3BEC15940EF5}
  9
$EXTNAMES
290
     1
  9
$PSVPSCALE
 40
0.0
  9
$OLESTARTUP
290
     0
  9
$SORTENTS
280
   127
  9
$INDEXCTL
280
     0
  9
$HIDETEXT
280
     1
  9
$XCLIPFRAME
280
     2
  9
$HALOGAP
280
     0
  9
$OBSCOLOR
 70
   257
  9
$OBSLTYPE
280
     0
  9
$INTERSECTIONDISPLAY
280
     0
  9
$INTERSECTIONCOLOR
 70
   257
  9
$DIMASSOC
280
     2
  9
$PROJECTNAME
  1

  9
$CAMERADISPLAY
290
     0
  9
$LENSLENGTH
 40
50.0
  9
$CAMERAHEIGHT
 40
0.0
  9
$STEPSPERSEC
 40
2.0
  9
$STEPSIZE
 40
6.0
  9
$3DDWFPREC
 40
2.0
  9
$PSOLWIDTH
 40
0.25
  9
$PSOLHEIGHT
 40
4.0
  9
$LOFTANG1
 40
1.570796326794896
  9
$LOFTANG2
 40
1.570796326794896
  9
$LOFTMAG1
 40
0.0
  9
$LOFTMAG2
 40
0.0
  9
$LOFTPARAM
 70
     7
  9
$LOFTNORMALS
280
     1
  9
$LATITUDE
 40
37.795
  9
$LONGITUDE
 40
-122.394
  9
$NORTHDIRECTION
 40
0.0
  9
$TIMEZONE
 70
 -8000
  9
$LIGHTGLYPHDISPLAY
280
     1
  9
$TILEMODELIGHTSYNCH
280
     1
  9
$CMATERIAL
347
11
  9
$SOLIDHIST
280
     0
  9
$SHOWHIST
280
     1
  9
$DWFFRAME
280
     2
  9
$DGNFRAME
280
     0
  9
$REALWORLDSCALE
290
     1
  9
$INTERFERECOLOR
 62
     1
  9
$INTERFEREOBJVS
345
33
  9
$INTERFEREVPVS
346
30
  9
$CSHADOW
280
     0
  9
$SHADOWPLANELOCATION
 40
0.0
  0
ENDSEC
  0
SECTION
  2
CLASSES
  0
CLASS
  1
ACDBDICTIONARYWDFLT
  2
AcDbDictionaryWithDefault
  3
ObjectDBX Classes
 90
        0
 91
        1
280
     0
281
     0
  0
CLASS
  1
MATERIAL
  2
AcDbMaterial
  3
ObjectDBX Classes
 90
     1153
 91
        3
280
     0
281
     0
  0
CLASS
  1
VISUALSTYLE
  2
AcDbVisualStyle
  3
ObjectDBX Classes
 90
     4095
 91
       24
280
     0
281
     0
  0
CLASS
  1
SCALE
  2
AcDbScale
  3
ObjectDBX Classes
 90
     1153
 91
       17
280
     0
281
     0
  0
CLASS
  1
TABLESTYLE
  2
AcDbTableStyle
  3
ObjectDBX Classes
 90
     4095
 91
        1
280
     0
281
     0
  0
CLASS
  1
MLEADERSTYLE
  2
AcDbMLeaderStyle
  3
ACDB_MLEADERSTYLE_CLASS
 90
     4095
 91
        1
280
     0
281
     0
  0
CLASS
  1
ACDBSECTIONVIEWSTYLE
  2
AcDbSectionViewStyle
  3
ObjectDBX Classes
 90
     1025
 91
        1
280
     0
281
     0
  0
CLASS
  1
ACDBDETAILVIEWSTYLE
  2
AcDbDetailViewStyle
  3
ObjectDBX Classes
 90
     1025
 91
        1
280
     0
281
     0
  0
CLASS
  1
DICTIONARYVAR
  2
AcDbDictionaryVar
  3
ObjectDBX Classes
 90
        0
 91
        5
280
     0
281
     0
  0
CLASS
  1
CELLSTYLEMAP
  2
AcDbCellStyleMap
  3
ObjectDBX Classes
 90
     1152
 91
        3
280
     0
281
     0
  0
CLASS
  1
SORTENTSTABLE
  2
AcDbSortentsTable
  3
ObjectDBX Classes
 90
        0
 91
        1
280
     0
281
     0
  0
ENDSEC
  0
SECTION
  2
TABLES
  0
TABLE
  2
VPORT
  5
8
330
0
100
AcDbSymbolTable
 70
     1
1001
ACAD
1000
DbSaveVer
1071
      105
  0
VPORT
  5
57
330
8
100
AcDbSymbolTableRecord
100
AcDbViewportTableRecord
  2
*Active
 70
     0
 10
0.0
 20
0.0
 11
1.0
 21
1.0
 12
3.101098744069666
 22
-5.514527507457845
 13
0.0
 23
0.0
 14
1.0
 24
1.0
 15
0.0
 25
0.0
 16
0.0
 26
0.0
 36
1.0
 17
14.84999673225613
 27
-10.50008306681943
 37
0.0
 40
54.80585726736482
 41
1.931468531468531
 42
50.0
 43
0.0
 44
0.0
 50
0.0
 51
0.0
 71
     0
 72
   100
 73
     1
 74
     0
 75
     1
 76
     0
 77
     0
 78
     0
281
     0
 65
     1
110
0.0
120
0.0
130
0.0
111
1.0
121
0.0
131
0.0
112
0.0
122
1.0
132
0.0
 79
     0
146
0.0
348
2F
 60
     3
 61
     5
292
     1
282
     1
141
0.0
142
0.0
 63
   250
421
  3355443
1001
ACAD_NAV_VCDISPLAY
1070
     3
  0
ENDTAB
  0
TABLE
  2
LTYPE
  5
5
330
0
100
AcDbSymbolTable
 70
     1
  0
LTYPE
  5
5B
330
5
100
AcDbSymbolTableRecord
100
AcDbLinetypeTableRecord
  2
ByBlock
 70
     0
  3

 72
    65
 73
     0
 40
0.0
  0
LTYPE
  5
5C
330
5
100
AcDbSymbolTableRecord
100
AcDbLinetypeTableRecord
  2
ByLayer
 70
     0
  3

 72
    65
 73
     0
 40
0.0
  0
LTYPE
  5
5D
330
5
100
AcDbSymbolTableRecord
100
AcDbLinetypeTableRecord
  2
Continuous
 70
     0
  3
Solid line
 72
    65
 73
     0
 40
0.0
  0
ENDTAB
  0
TABLE
  2
LAYER
  5
2
330
0
100
AcDbSymbolTable
 70
     2
  0
LAYER
  5
54
330
2
100
AcDbSymbolTableRecord
100
AcDbLayerTableRecord
  2
0
 70
     0
 62
     7
  6
Continuous
370
    -3
390
F
347
21
348
0
  0
LAYER
  5
78
330
2
100
AcDbSymbolTableRecord
100
AcDbLayerTableRecord
  2
Livello 3
 70
     0
 62
     7
  6
Continuous
370
     0
390
F
347
21
348
0
  0
ENDTAB
  0
TABLE
  2
STYLE
  5
3
330
0
100
AcDbSymbolTable
 70
     2
  0
STYLE
  5
55
330
3
100
AcDbSymbolTableRecord
100
AcDbTextStyleTableRecord
  2
Standard
 70
     0
 40
0.0
 41
1.0
 50
0.0
 71
     0
 42
0.2
  3
txt
  4

  0
STYLE
  5
5A
330
3
100
AcDbSymbolTableRecord
100
AcDbTextStyleTableRecord
  2
Annotative
 70
     0
 40
0.0
 41
1.0
 50
0.0
 71
     0
 42
0.2
  3
txt
  4

1001
AcadAnnotative
1000
AnnotativeData
1002
{
1070
     1
1070
     1
1002
}
  0
ENDTAB
  0
TABLE
  2
VIEW
  5
6
330
0
100
AcDbSymbolTable
 70
     0
  0
ENDTAB
  0
TABLE
  2
UCS
  5
7
330
0
100
AcDbSymbolTable
 70
     0
  0
ENDTAB
  0
TABLE
  2
APPID
  5
9
330
0
100
AcDbSymbolTable
 70
     3
  0
APPID
  5
56
330
9
100
AcDbSymbolTableRecord
100
AcDbRegAppTableRecord
  2
ACAD
 70
     0
  0
APPID
  5
5E
330
9
100
AcDbSymbolTableRecord
100
AcDbRegAppTableRecord
  2
AcadAnnotative
 70
     0
  0
APPID
  5
16C
330
9
100
AcDbSymbolTableRecord
100
AcDbRegAppTableRecord
  2
ACAD_NAV_VCDISPLAY
 70
     0
  0
ENDTAB
  0
TABLE
  2
DIMSTYLE
  5
A
330
0
100
AcDbSymbolTable
 70
     2
100
AcDbDimStyleTable
 71
     0
  0
DIMSTYLE
105
58
330
A
100
AcDbSymbolTableRecord
100
AcDbDimStyleTableRecord
  2
Standard
 70
     0
340
55
  0
DIMSTYLE
105
59
330
A
100
AcDbSymbolTableRecord
100
AcDbDimStyleTableRecord
  2
Annotative
 70
     0
340
55
1001
AcadAnnotative
1000
AnnotativeData
1002
{
1070
     1
1070
     1
1002
}
  0
ENDTAB
  0
TABLE
  2
BLOCK_RECORD
  5
1
330
0
100
AcDbSymbolTable
 70
     6
  0
BLOCK_RECORD
  5
70
102
{ACAD_XDICTIONARY
360
119
102
}
330
1
100
AcDbSymbolTableRecord
100
AcDbBlockTableRecord
  2
*Model_Space
340
73
 70
     0
280
     1
281
     0
  0
BLOCK_RECORD
  5
6C
330
1
100
AcDbSymbolTableRecord
100
AcDbBlockTableRecord
  2
*Paper_Space
340
6F
 70
     0
280
     1
281
     0
  0
BLOCK_RECORD
  5
74
330
1
100
AcDbSymbolTableRecord
100
AcDbBlockTableRecord
  2
*Paper_Space0
340
77
 70
     0
280
     1
281
     0
  0
BLOCK_RECORD
  5
7A
330
1
100
AcDbSymbolTableRecord
100
AcDbBlockTableRecord
  2
Block_0
340
0
 70
     0
280
     1
281
     0
  0
BLOCK_RECORD
  5
B6
330
1
100
AcDbSymbolTableRecord
100
AcDbBlockTableRecord
  2
Block_1
340
0
 70
     0
280
     1
281
     0
  0
BLOCK_RECORD
  5
BA
330
1
100
AcDbSymbolTableRecord
100
AcDbBlockTableRecord
  2
Block_2
340
0
102
{BLKREFS
331
16A
331
BB
102
}
 70
     0
280
     1
281
     0
  0
BLOCK_RECORD
  5
C6
330
1
100
AcDbSymbolTableRecord
100
AcDbBlockTableRecord
  2
Block_3
340
0
 70
     0
280
     1
281
     0
  0
BLOCK_RECORD
  5
CA
330
1
100
AcDbSymbolTableRecord
100
AcDbBlockTableRecord
  2
Block_4
340
0
102
{BLKREFS
331
16B
331
CB
102
}
 70
     0
280
     1
281
     0
  0
ENDTAB
  0
ENDSEC
  0
SECTION
  2
BLOCKS
  0
BLOCK
  5
71
330
70
100
AcDbEntity
  8
0
100
AcDbBlockBegin
  2
*Model_Space
 70
     0
 10
0.0
 20
0.0
 30
0.0
  3
*Model_Space
  1

  0
ENDBLK
  5
72
330
70
100
AcDbEntity
  8
0
100
AcDbBlockEnd
  0
BLOCK
  5
6D
330
6C
100
AcDbEntity
 67
     1
  8
0
100
AcDbBlockBegin
  2
*Paper_Space
 70
     0
 10
0.0
 20
0.0
 30
0.0
  3
*Paper_Space
  1

  0
ENDBLK
  5
6E
330
6C
100
AcDbEntity
 67
     1
  8
0
100
AcDbBlockEnd
  0
BLOCK
  5
75
330
74
100
AcDbEntity
 67
     1
  8
0
100
AcDbBlockBegin
  2
*Paper_Space0
 70
     0
 10
0.0
 20
0.0
 30
0.0
  3
*Paper_Space0
  1

  0
ENDBLK
  5
76
330
74
100
AcDbEntity
 67
     1
  8
0
100
AcDbBlockEnd
  0
BLOCK
  5
7C
330
7A
100
AcDbEntity
  8
0
100
AcDbBlockBegin
  2
Block_0
 70
     0
 10
0.0
 20
0.0
 30
0.0
  3
Block_0
  1

  0
LINE
  5
7E
330
7A
100
AcDbEntity
  8
Livello 3
 62
   250
420
  1907995
370
    70
100
AcDbLine
 10
15.99206889756388
 20
-16.84707519370491
 30
0.0
 11
15.97998666267169
 21
-16.63014155487022
 31
0.0
  0
LINE
  5
7F
330
7A
100
AcDbEntity
  8
Livello 3
 62
   250
420
  1907995
370
    70
100
AcDbLine
 10
15.61451201830727
 20
-16.63013802709247
 30
0.0
 11
15.60447549078555
 21
-16.84707519370491
 31
0.0
  0
SPLINE
  5
80
330
7A
100
AcDbEntity
  8
Livello 3
 62
   250
420
  1907995
370
    70
100
AcDbSpline
210
0.0
220
0.0
230
1.0
 70
     8
 71
     3
 72
    14
 73
    10
 74
     0
 42
0.000000001
 43
0.0000000001
 40
0.0
 40
0.0
 40
0.0
 40
0.0
 40
1.0
 40
1.0
 40
1.0
 40
2.0
 40
2.0
 40
2.0
 40
3.0
 40
3.0
 40
3.0
 40
3.0
 10
15.64263546203423
 20
-16.5880198882141
 30
0.0
 10
15.64263546203423
 20
-16.5880198882141
 30
0.0
 10
15.63662805164641
 20
-16.59198158265758
 30
0.0
 10
15.63662805164641
 20
-16.59198158265758
 30
0.0
 10
15.61985660150426
 20
-16.60280833265486
 30
0.0
 10
15.6215746292382
 20
-16.60630788820956
 30
0.0
 10
15.61655812936618
 20
-16.62221816598333
 30
0.0
 10
15.61655812936618
 20
-16.62221816598333
 30
0.0
 10
15.61450888498526
 20
-16.63013802709247
 30
0.0
 10
15.61450888498526
 20
-16.63013802709247
 30
0.0
  0
SPLINE
  5
81
330
7A
100
AcDbEntity
  8
Livello 3
 62
   250
420
  1907995
370
    70
100
AcDbSpline
210
0.0
220
0.0
230
1.0
 70
     8
 71
     3
 72
    23
 73
    19
 74
     0
 42
0.000000001
 43
0.0000000001
 40
0.0
 40
0.0
 40
0.0
 40
0.0
 40
1.0
 40
1.0
 40
1.0
 40
2.0
 40
2.0
 40
2.0
 40
3.0
 40
3.0
 40
3.0
 40
4.0
 40
4.0
 40
4.0
 40
5.0
 40
5.0
 40
5.0
 40
6.0
 40
6.0
 40
6.0
 40
6.0
 10
15.97998666267169
 20
-16.63013802709247
 30
0.0
 10
15.97998666267169
 20
-16.63013802709247
 30
0.0
 10
15.97800364792272
 20
-16.62221816598333
 30
0.0
 10
15.97800364792272
 20
-16.62221816598333
 30
0.0
 10
15.9729871480507
 20
-16.60630788820956
 30
0.0
 10
15.97457112023251
 20
-16.60280833265486
 30
0.0
 10
15.95787062065858
 20
-16.59198158265758
 30
0.0
 10
15.95787062065858
 20
-16.59198158265758
 30
0.0
 10
15.95192984303236
 20
-16.58802341599192
 30
0.0
 10
15.95192984303236
 20
-16.58802341599192
 30
0.0
 10
15.95192984303236
 20
-16.58802341599192
 30
0.0
 10
15.91574895506652
 20
-16.57395816599538
 30
0.0
 10
15.91574895506652
 20
-16.57395816599538
 30
0.0
 10
15.91574895506652
 20
-16.57395816599538
 30
0.0
 10
15.87759251159553
 20
-16.56392516599793
 30
0.0
 10
15.87759251159553
 20
-16.56392516599793
 30
0.0
 10
15.87759251159553
 20
-16.56392516599793
 30
0.0
 10
15.83943254034685
 20
-16.56187552710955
 30
0.0
 10
15.83943254034685
 20
-16.56187552710955
 30
0.0
  0
LWPOLYLINE
  5
82
330
7A
100
AcDbEntity
  8
Livello 3
 62
   250
420
  1907995
370
    70
100
AcDbPolyline
 90
        4
 70
     0
 43
0.0
 10
15.75512923694205
 20
-16.56187552710955
 10
15.71690223791731
 20
-16.56392516599793
 10
15.67874579444631
 20
-16.57395816599538
 10
15.64263193425654
 20
-16.58802341599192
  0
LINE
  5
83
330
7A
100
AcDbEntity
  8
Livello 3
 62
   250
420
  1907995
370
    70
100
AcDbLine
 10
15.75512923694205
 20
-16.56187552710955
 30
0.0
 11
15.83943254034685
 21
-16.56187552710955
 31
0.0
  0
LINE
  5
84
330
7A
100
AcDbEntity
  8
Livello 3
 62
   250
420
  1907995
370
    70
100
AcDbLine
 10
13.16464680303077
 20
-16.63013802709247
 30
0.0
 11
13.15461380328673
 21
-16.8209308326003
 31
0.0
  0
SPLINE
  5
85
330
7A
100
AcDbEntity
  8
Livello 3
 62
   250
420
  1907995
370
    70
100
AcDbSpline
210
0.0
220
0.0
230
1.0
 70
     8
 71
     3
 72
    14
 73
    10
 74
     0
 42
0.000000001
 43
0.0000000001
 40
0.0
 40
0.0
 40
0.0
 40
0.0
 40
1.0
 40
1.0
 40
1.0
 40
2.0
 40
2.0
 40
2.0
 40
3.0
 40
3.0
 40
3.0
 40
3.0
 10
13.19277024675772
 20
-16.5880198882141
 30
0.0
 10
13.19277024675772
 20
-16.5880198882141
 30
0.0
 10
13.1847833580726
 20
-16.59198158265758
 30
0.0
 10
13.1847833580726
 20
-16.59198158265758
 30
0.0
 10
13.17388958057274
 20
-16.60227916598834
 30
0.0
 10
13.16920116402569
 20
-16.60723216598712
 30
0.0
 10
13.16464680303077
 20
-16.62221816598333
 30
0.0
 10
13.16464680303077
 20
-16.62221816598333
 30
0.0
 10
13.16464680303077
 20
-16.63013802709247
 30
0.0
 10
13.16464680303077
 20
-16.63013802709247
 30
0.0
  0
LINE
  5
86
330
7A
100
AcDbEntity
  8
Livello 3
 62
   250
420
  1907995
370
    70
100
AcDbLine
 10
13.42165599091836
 20
-16.56392516599793
 30
0.0
 11
13.38957085284803
 21
-16.56187905488731
 31
0.0
  0
LWPOLYLINE
  5
87
330
7A
100
AcDbEntity
  8
Livello 3
 62
   250
420
  1907995
370
    70
100
AcDbPolyline
 90
        4
 70
     0
 43
0.0
 10
13.30520052166716
 20
-16.56187552710955
 10
13.26505793935795
 20
-16.56392516599793
 10
13.2288805791698
 20
-16.57395816599538
 10
13.19277024675772
 20
-16.58802341599192
  0
LINE
  5
88
330
7A
100
AcDbEntity
  8
Livello 3
 62
   250
420
  1907995
370
    70
100
AcDbLine
 10
13.30520052166716
 20
-16.56187552710955
 30
0.0
 11
13.38957085284803
 21
-16.56187552710955
 31
0.0
  0
LINE
  5
89
330
7A
100
AcDbEntity
  8
Livello 3
 62
   250
420
  1907995
370
    70
100
AcDbLine
 10
13.65463042941913
 20
-4.744320918952818
 30
0.0
 11
13.67067476234314
 21
-4.019376696911821
 31
0.0
  0
SPLINE
  5
8A
330
7A
100
AcDbEntity
  8
Livello 3
 62
   250
420
  1907995
370
    70
100
AcDbSpline
210
0.0
220
0.0
230
1.0
 70
     8
 71
     3
 72
    14
 73
    10
 74
     0
 42
0.000000001
 43
0.0000000001
 40
0.0
 40
0.0
 40
0.0
 40
0.0
 40
1.0
 40
1.0
 40
1.0
 40
2.0
 40
2.0
 40
2.0
 40
3.0
 40
3.0
 40
3.0
 40
3.0
 10
15.47395477189319
 20
-4.019373169134038
 30
0.0
 10
15.47395477189319
 20
-4.019373169134038
 30
0.0
 10
15.21688208400721
 20
-4.003402919138037
 30
0.0
 10
15.21688208400721
 20
-4.003402919138037
 30
0.0
 10
14.78406609504927
 20
-3.981544808032391
 30
0.0
 10
14.36056343918705
 20
-3.981347252476902
 30
0.0
 10
13.92774745022911
 20
-4.003402919138037
 30
0.0
 10
13.92774745022911
 20
-4.003402919138037
 30
0.0
 10
13.67067476234314
 20
-4.019373169134038
 30
0.0
 10
13.67067476234314
 20
-4.019373169134038
 30
0.0
  0
LINE
  5
8B
330
7A
100
AcDbEntity
  8
Livello 3
 62
   250
420
  1907995
370
    70
100
AcDbLine
 10
15.48801649375667
 20
-4.744320918952818
 30
0.0
 11
15.47395477189319
 21
-4.019376696911821
 31
0.0
  0
LINE
  5
8C
330
7A
100
AcDbEntity
  8
Livello 3
 62
   250
420
  1907995
370
    70
100
AcDbLine
 10
13.65463042941913
 20
-4.744320918952818
 30
0.0
 11
15.48801649375667
 21
-4.744320918952818
 31
0.0
  0
LWPOLYLINE
  5
8D
330
7A
100
AcDbEntity
  8
Livello 3
 62
   250
420
  1907995
370
    70
100
AcDbPolyline
 90
        4
 70
     0
 43
0.0
 10
13.52609584936499
 20
-4.744320918952818
 10
13.56220618177707
 20
-4.019376696911821
 10
13.56425229283598
 20
-4.017394085801206
 10
13.66869249658282
 20
-4.017394085801206
  0
LINE
  5
8E
330
7A
100
AcDbEntity
  8
Livello 3
 62
   250
420
  1907995
370
    70
100
AcDbLine
 10
13.67067476234314
 20
-4.019373169134038
 30
0.0
 11
13.66869249658282
 21
-4.017394085801206
 31
0.0
  0
LWPOLYLINE
  5
8F
330
7A
100
AcDbEntity
  8
Livello 3
 62
   250
420
  1907995
370
    70
100
AcDbPolyline
 90
        3
 70
     0
 43
0.0
 10
15.47395477189319
 20
-4.019373169134038
 10
15.47395477189319
 20
-4.017394085801206
 10
15.58037724140035
 20
-4.017394085801206
  0
LINE
  5
90
330
7A
100
AcDbEntity
  8
Livello 3
 62
   250
420
  1907995
370
    70
100
AcDbLine
 10
15.58037724140035
 20
-4.019373169134038
 30
0.0
 11
15.58037724140035
 21
-4.017394085801206
 31
0.0
  0
LINE
  5
91
330
7A
100
AcDbEntity
  8
Livello 3
 62
   250
420
  1907995
370
    70
100
AcDbLine
 10
15.61853721264903
 20
-4.744320918952818
 30
0.0
 11
15.58037724140035
 21
-4.019376696911821
 31
0.0
  0
LWPOLYLINE
  5
92
330
7A
100
AcDbEntity
  8
Livello 3
 62
   250
420
  1907995
370
    70
100
AcDbPolyline
 90
        5
 70
     0
 43
0.0
 10
14.57235004489504
 20
-3.878822974724743
 10
14.80526098339743
 20
-3.880872613613126
 10
15.04015453296035
 20
-3.886947446944939
 10
15.27312897146113
 20
-3.898963058053031
 10
15.50808954880011
 20
-3.913021252493968
  0
LWPOLYLINE
  5
93
330
7A
100
AcDbEntity
  8
Livello 3
 62
   250
420
  1907995
370
    70
100
AcDbPolyline
 90
        5
 70
     0
 43
0.0
 10
13.6365435132139
 20
-3.913021252493968
 10
13.86952147949236
 20
-3.898963058053031
 10
14.10441150127759
 20
-3.886947446944939
 10
14.33738946755605
 20
-3.880872613613126
 10
14.57235004489504
 20
-3.878826502502526
  0
LINE
  5
94
330
7A
100
AcDbEntity
  8
Livello 3
 62
   250
420
  1907995
370
    70
100
AcDbLine
 10
13.6365435132139
 20
-3.913021252493968
 30
0.0
 11
13.56425582061367
 21
-3.987291558030963
 31
0.0
  0
LINE
  5
95
330
7A
100
AcDbEntity
  8
Livello 3
 62
   250
420
  1907995
370
    70
100
AcDbLine
 10
13.56227320955314
 20
-4.019376696911821
 30
0.0
 11
13.56425582061367
 21
-3.987295085808746
 31
0.0
  0
LINE
  5
96
330
7A
100
AcDbEntity
  8
Livello 3
 62
   250
420
  1907995
370
    70
100
AcDbLine
 10
15.57839815811751
 20
-3.987291558030963
 30
0.0
 11
15.58037724140035
 21
-4.019376696911821
 31
0.0
  0
LINE
  5
97
330
7A
100
AcDbEntity
  8
Livello 3
 62
   250
420
  1907995
370
    70
100
AcDbLine
 10
15.58037724140035
 20
-3.987291558030963
 30
0.0
 11
15.50808954880011
 21
-3.913021252493968
 31
0.0
  0
LINE
  5
98
330
7A
100
AcDbEntity
  8
Livello 3
 62
   250
420
  1907995
370
    70
100
AcDbLine
 10
16.03821222972
 20
-17.10011916586385
 30
0.0
 11
16.02415050785652
 21
-16.84707519370491
 31
0.0
  0
LINE
  5
99
330
7A
100
AcDbEntity
  8
Livello 3
 62
   250
420
  1907995
370
    70
100
AcDbLine
 10
16.03821222972
 20
-17.10011916586385
 30
0.0
 11
15.90769503860533
 21
-17.10011916586385
 31
0.0
  0
LINE
  5
9A
330
7A
100
AcDbEntity
  8
Livello 3
 62
   250
420
  1907995
370
    70
100
AcDbLine
 10
15.89363331674185
 20
-16.84707166592716
 30
0.0
 11
15.90769503860533
 21
-17.10011916586385
 31
0.0
  0
LINE
  5
9B
330
7A
100
AcDbEntity
  8
Livello 3
 62
   250
420
  1907995
370
    70
100
AcDbLine
 10
15.89363331674185
 20
-16.84707166592716
 30
0.0
 11
16.02415050785652
 21
-16.84707166592716
 31
0.0
  0
LINE
  5
9C
330
7A
100
AcDbEntity
  8
Livello 3
 62
   250
420
  1907995
370
    70
100
AcDbLine
 10
13.24499193986988
 20
-16.82904824926495
 30
0.0
 11
13.25099974527216
 21
-16.8309638325978
 31
0.0
  0
LWPOLYLINE
  5
9D
330
7A
100
AcDbEntity
  8
Livello 3
 62
   250
420
  1907995
370
    70
100
AcDbPolyline
 90
        4
 70
     0
 43
0.0
 10
13.23693802340869
 20
-17.10011916586385
 10
13.10642083229401
 20
-17.10011916586385
 10
13.12048255415749
 20
-16.8309638325978
 10
13.24499193986988
 20
-16.82904824926495
  0
LINE
  5
9E
330
7A
100
AcDbEntity
  8
Livello 3
 62
   250
420
  1907995
370
    70
100
AcDbLine
 10
15.59443896326382
 20
-16.84707166592716
 30
0.0
 11
15.59443896326382
 21
-16.8309638325978
 31
0.0
  0
LINE
  5
9F
330
7A
100
AcDbEntity
  8
Livello 3
 62
   250
420
  1907995
370
    70
100
AcDbLine
 10
15.89363331674185
 20
-16.84707166592716
 30
0.0
 11
15.59443896326382
 21
-16.84707166592716
 31
0.0
  0
LINE
  5
A0
330
7A
100
AcDbEntity
  8
Livello 3
 62
   250
420
  1907995
370
    70
100
AcDbLine
 10
13.23693802340869
 20
-17.10011916586385
 30
0.0
 11
15.90769503860533
 21
-17.10011916586385
 31
0.0
  0
LINE
  5
A1
330
7A
100
AcDbEntity
  8
Livello 3
 62
   250
420
  1907995
370
    70
100
AcDbLine
 10
15.59443896326382
 20
-16.8309638325978
 30
0.0
 11
13.25099974527216
 21
-16.8309638325978
 31
0.0
  0
LINE
  5
A2
330
7A
100
AcDbEntity
  8
Livello 3
 62
   250
420
  1907995
370
    70
100
AcDbLine
 10
15.59443896326382
 20
-16.7506857215068
 30
0.0
 11
15.59642157432435
 21
-16.7506857215068
 31
0.0
  0
LINE
  5
A3
330
7A
100
AcDbEntity
  8
Livello 3
 62
   250
420
  1907995
370
    70
100
AcDbLine
 10
15.59443896326382
 20
-16.7506857215068
 30
0.0
 11
13.55025759874857
 21
-16.7506857215068
 31
0.0
  0
LINE
  5
A4
330
7A
100
AcDbEntity
  8
Livello 3
 62
   250
420
  1907995
370
    70
100
AcDbLine
 10
15.59443896326382
 20
-16.8309638325978
 30
0.0
 11
15.59443896326382
 21
-16.7506857215068
 31
0.0
  0
LINE
  5
A5
330
7A
100
AcDbEntity
  8
Livello 3
 62
   250
420
  1907995
370
    70
100
AcDbLine
 10
13.54616537663075
 20
-16.74863961039617
 30
0.0
 11
13.41967337985783
 21
-16.7506857215068
 31
0.0
  0
LINE
  5
A6
330
7A
100
AcDbEntity
  8
Livello 3
 62
   250
420
  1907995
370
    70
100
AcDbLine
 10
13.12048255415749
 20
-16.8309638325978
 30
0.0
 11
13.41967337985783
 21
-16.7506857215068
 31
0.0
  0
LINE
  5
A7
330
7A
100
AcDbEntity
  8
Livello 3
 62
   250
420
  1907995
370
    70
100
AcDbLine
 10
15.59443896326382
 20
-16.7506857215068
 30
0.0
 11
15.50214524339621
 21
-6.252435335242465
 31
0.0
  0
LINE
  5
A8
330
7A
100
AcDbEntity
  8
Livello 3
 62
   250
420
  1907995
370
    70
100
AcDbLine
 10
13.55025759874857
 20
-16.7506857215068
 30
0.0
 11
13.64261481861456
 21
-6.252435335242465
 31
0.0
  0
LWPOLYLINE
  5
A9
330
7A
100
AcDbEntity
  8
Livello 3
 62
   250
420
  1907995
370
    70
100
AcDbPolyline
 90
        4
 70
     0
 43
0.0
 10
13.41967337985783
 20
-16.7506857215068
 10
13.51203412750151
 20
-6.252435335242465
 10
15.6325989345125
 20
-6.252435335242465
 10
15.72093096003674
 20
-16.56392163822012
  0
LWPOLYLINE
  5
AA
330
7A
100
AcDbEntity
  8
Livello 3
 62
   250
420
  1907995
370
    70
100
AcDbPolyline
 90
        3
 70
     0
 43
0.0
 10
16.02415050785652
 20
-16.84707166592716
 10
16.02415050785652
 20
-16.8309638325978
 10
15.98995223095122
 20
-16.82092730482255
  0
LINE
  5
AB
330
7A
100
AcDbEntity
  8
Livello 3
 62
   250
420
  1907995
370
    70
100
AcDbLine
 10
15.37842999615542
 20
-4.744320918952818
 30
0.0
 11
15.32336805351275
 21
-6.252438863020218
 31
0.0
  0
LINE
  5
AC
330
7A
100
AcDbEntity
  8
Livello 3
 62
   250
420
  1907995
370
    70
100
AcDbLine
 10
13.76633398212489
 20
-4.744320918952818
 30
0.0
 11
13.82132850849964
 21
-6.252438863020218
 31
0.0
  0
LWPOLYLINE
  5
AD
330
7A
100
AcDbEntity
  8
Livello 3
 62
   250
420
  1907995
370
    70
100
AcDbPolyline
 90
        4
 70
     0
 43
0.0
 10
15.63272946228695
 20
-6.252435335242465
 10
15.61853368487134
 20
-4.744320918952818
 10
15.49006260481557
 20
-4.744320918952818
 10
15.50201471562176
 20
-6.252435335242465
  0
LINE
  5
AE
330
7A
100
AcDbEntity
  8
Livello 3
 62
   250
420
  1907995
370
    70
100
AcDbLine
 10
13.82132850849964
 20
-6.252435335242465
 30
0.0
 11
14.33131499641717
 21
-5.105904029973537
 31
0.0
  0
LINE
  5
AF
330
7A
100
AcDbEntity
  8
Livello 3
 62
   250
420
  1907995
370
    70
100
AcDbLine
 10
13.86753886843183
 20
-4.744320918952818
 30
0.0
 11
14.33131499641717
 21
-5.105904029973537
 31
0.0
  0
LINE
  5
B0
330
7A
100
AcDbEntity
  8
Livello 3
 62
   250
420
  1907995
370
    70
100
AcDbLine
 10
14.81337839985701
 20
-5.105900502195752
 30
0.0
 11
14.33131499641717
 21
-5.105900502195752
 31
0.0
  0
LINE
  5
B1
330
7A
100
AcDbEntity
  8
Livello 3
 62
   250
420
  1907995
370
    70
100
AcDbLine
 10
15.32336805351275
 20
-6.252435335242465
 30
0.0
 11
14.81337839985701
 21
-5.105904029973537
 31
0.0
  0
LINE
  5
B2
330
7A
100
AcDbEntity
  8
Livello 3
 62
   250
420
  1907995
370
    70
100
AcDbLine
 10
15.2770906658045
 20
-4.744320918952818
 30
0.0
 11
14.81337839985701
 21
-5.105904029973537
 31
0.0
  0
LWPOLYLINE
  5
B3
330
7A
100
AcDbEntity
  8
Livello 3
 62
   250
420
  1907995
370
    70
100
AcDbPolyline
 90
        4
 70
     0
 43
0.0
 10
13.64261481861456
 20
-6.252435335242465
 10
13.65463042941913
 20
-4.744320918952818
 10
13.52602916328516
 20
-4.744320918952818
 10
13.51203059972382
 20
-6.252435335242465
  0
ENDBLK
  5
7D
330
7A
100
AcDbEntity
  8
0
100
AcDbBlockEnd
  0
BLOCK
  5
B8
330
B6
100
AcDbEntity
  8
0
100
AcDbBlockBegin
  2
Block_1
 70
     0
 10
0.0
 20
0.0
 30
0.0
  3
Block_1
  1

  0
INSERT
  5
BB
330
B6
100
AcDbEntity
  8
Livello 3
100
AcDbBlockReference
  2
Block_2
 10
0.0
 20
0.0
 30
0.0
  0
ENDBLK
  5
B9
330
B6
100
AcDbEntity
  8
0
100
AcDbBlockEnd
  0
BLOCK
  5
BC
330
BA
100
AcDbEntity
  8
0
100
AcDbBlockBegin
  2
Block_2
 70
     0
 10
0.0
 20
0.0
 30
0.0
  3
Block_2
  1

  0
SPLINE
  5
BE
330
BA
100
AcDbEntity
  8
Livello 3
100
AcDbSpline
210
0.0
220
0.0
230
1.0
 70
    11
 71
     3
 72
    29
 73
    25
 74
     0
 42
0.000000001
 43
0.0000000001
 40
0.0
 40
0.0
 40
0.0
 40
0.0
 40
1.0
 40
1.0
 40
1.0
 40
2.0
 40
2.0
 40
2.0
 40
3.0
 40
3.0
 40
3.0
 40
4.0
 40
4.0
 40
4.0
 40
5.0
 40
5.0
 40
5.0
 40
6.0
 40
6.0
 40
6.0
 40
7.0
 40
7.0
 40
7.0
 40
8.0
 40
8.0
 40
8.0
 40
8.0
 10
13.60595675658115
 20
-17.77703721343768
 30
0.0
 10
13.60595675658115
 20
-17.77703721343768
 30
0.0
 10
13.60340738592206
 20
-17.77703721343768
 30
0.0
 10
13.60340738592206
 20
-17.77703721343768
 30
0.0
 10
13.60340738592206
 20
-17.77703721343768
 30
0.0
 10
13.45991915896141
 20
-17.85451741090095
 30
0.0
 10
13.45991915896141
 20
-17.85451741090095
 30
0.0
 10
13.45991915896141
 20
-17.85451741090095
 30
0.0
 10
13.43833563574632
 20
-17.76942355241528
 30
0.0
 10
13.43833563574632
 20
-17.76942355241528
 30
0.0
 10
13.43833563574632
 20
-17.76942355241528
 30
0.0
 10
13.61865193344429
 20
-17.67292642787343
 30
0.0
 10
13.61865193344429
 20
-17.67292642787343
 30
0.0
 10
13.61865193344429
 20
-17.67292642787343
 30
0.0
 10
13.71389159813402
 20
-17.67292642787343
 30
0.0
 10
13.71389159813402
 20
-17.67292642787343
 30
0.0
 10
13.71389159813402
 20
-17.67292642787343
 30
0.0
 10
13.71389159813402
 20
-18.49830240422959
 30
0.0
 10
13.71389159813402
 20
-18.49830240422959
 30
0.0
 10
13.71389159813402
 20
-18.49830240422959
 30
0.0
 10
13.60595675658115
 20
-18.49830240422959
 30
0.0
 10
13.60595675658115
 20
-18.49830240422959
 30
0.0
 10
13.60595675658115
 20
-18.49830240422959
 30
0.0
 10
13.60595675658115
 20
-17.77703721343768
 30
0.0
 10
13.60595675658115
 20
-17.77703721343768
 30
0.0
  0
HATCH
  5
BF
330
BA
100
AcDbEntity
  8
Livello 3
 62
   250
420
  1907995
440
 33554687
100
AcDbHatch
 10
0.0
 20
0.0
 30
0.0
210
0.0
220
0.0
230
1.0
  2
SOLID
 70
     1
 71
     1
 91
        1
 92
        1
 93
        1
 72
     4
 94
        3
 73
     0
 74
     0
 95
       29
 96
       25
 40
0.0
 40
0.0
 40
0.0
 40
0.0
 40
1.0
 40
1.0
 40
1.0
 40
2.0
 40
2.0
 40
2.0
 40
3.0
 40
3.0
 40
3.0
 40
4.0
 40
4.0
 40
4.0
 40
5.0
 40
5.0
 40
5.0
 40
6.0
 40
6.0
 40
6.0
 40
7.0
 40
7.0
 40
7.0
 40
8.0
 40
8.0
 40
8.0
 40
8.0
 10
13.60595675658115
 20
-17.77703721343768
 10
13.60595675658115
 20
-17.77703721343768
 10
13.60340738592206
 20
-17.77703721343768
 10
13.60340738592206
 20
-17.77703721343768
 10
13.60340738592206
 20
-17.77703721343768
 10
13.45991915896141
 20
-17.85451741090095
 10
13.45991915896141
 20
-17.85451741090095
 10
13.45991915896141
 20
-17.85451741090095
 10
13.43833563574632
 20
-17.76942355241528
 10
13.43833563574632
 20
-17.76942355241528
 10
13.43833563574632
 20
-17.76942355241528
 10
13.61865193344429
 20
-17.67292642787343
 10
13.61865193344429
 20
-17.67292642787343
 10
13.61865193344429
 20
-17.67292642787343
 10
13.71389159813402
 20
-17.67292642787343
 10
13.71389159813402
 20
-17.67292642787343
 10
13.71389159813402
 20
-17.67292642787343
 10
13.71389159813402
 20
-18.49830240422959
 10
13.71389159813402
 20
-18.49830240422959
 10
13.71389159813402
 20
-18.49830240422959
 10
13.60595675658115
 20
-18.49830240422959
 10
13.60595675658115
 20
-18.49830240422959
 10
13.60595675658115
 20
-18.49830240422959
 10
13.60595675658115
 20
-17.77703721343768
 10
13.60595675658115
 20
-17.77703721343768
 97
        0
 97
        1
330
BE
 75
     2
 76
     1
 98
        1
 10
0.0
 20
0.0
450
        0
451
        0
460
0.0
461
0.0
452
        0
462
0.0
453
        0
470

  0
SPLINE
  5
C0
330
BA
100
AcDbEntity
  8
Livello 3
100
AcDbSpline
210
0.0
220
0.0
230
1.0
 70
    11
 71
     3
 72
    29
 73
    25
 74
     0
 42
0.000000001
 43
0.0000000001
 40
0.0
 40
0.0
 40
0.0
 40
0.0
 40
1.0
 40
1.0
 40
1.0
 40
2.0
 40
2.0
 40
2.0
 40
3.0
 40
3.0
 40
3.0
 40
4.0
 40
4.0
 40
4.0
 40
5.0
 40
5.0
 40
5.0
 40
6.0
 40
6.0
 40
6.0
 40
7.0
 40
7.0
 40
7.0
 40
8.0
 40
8.0
 40
8.0
 40
8.0
 10
14.55077419341091
 20
-17.67292642787343
 30
0.0
 10
14.55077419341091
 20
-17.67292642787343
 30
0.0
 10
14.55077419341091
 20
-17.74654811839322
 30
0.0
 10
14.55077419341091
 20
-17.74654811839322
 30
0.0
 10
14.55077419341091
 20
-17.74654811839322
 30
0.0
 10
14.19139905786708
 20
-18.49830240422959
 30
0.0
 10
14.19139905786708
 20
-18.49830240422959
 30
0.0
 10
14.19139905786708
 20
-18.49830240422959
 30
0.0
 10
14.0758505552918
 20
-18.49830240422959
 30
0.0
 10
14.0758505552918
 20
-18.49830240422959
 30
0.0
 10
14.0758505552918
 20
-18.49830240422959
 30
0.0
 10
14.43395100550609
 20
-17.76814886708574
 30
0.0
 10
14.43395100550609
 20
-17.76814886708574
 30
0.0
 10
14.43395100550609
 20
-17.76814886708574
 30
0.0
 10
14.43395100550609
 20
-17.76559949642665
 30
0.0
 10
14.43395100550609
 20
-17.76559949642665
 30
0.0
 10
14.43395100550609
 20
-17.76559949642665
 30
0.0
 10
14.03013413820253
 20
-17.76559949642665
 30
0.0
 10
14.03013413820253
 20
-17.76559949642665
 30
0.0
 10
14.03013413820253
 20
-17.76559949642665
 30
0.0
 10
14.03013413820253
 20
-17.67292642787343
 30
0.0
 10
14.03013413820253
 20
-17.67292642787343
 30
0.0
 10
14.03013413820253
 20
-17.67292642787343
 30
0.0
 10
14.55077419341091
 20
-17.67292642787343
 30
0.0
 10
14.55077419341091
 20
-17.67292642787343
 30
0.0
  0
HATCH
  5
C1
330
BA
100
AcDbEntity
  8
Livello 3
 62
   250
420
  1907995
440
 33554687
100
AcDbHatch
 10
0.0
 20
0.0
 30
0.0
210
0.0
220
0.0
230
1.0
  2
SOLID
 70
     1
 71
     1
 91
        1
 92
        1
 93
        1
 72
     4
 94
        3
 73
     0
 74
     0
 95
       29
 96
       25
 40
0.0
 40
0.0
 40
0.0
 40
0.0
 40
1.0
 40
1.0
 40
1.0
 40
2.0
 40
2.0
 40
2.0
 40
3.0
 40
3.0
 40
3.0
 40
4.0
 40
4.0
 40
4.0
 40
5.0
 40
5.0
 40
5.0
 40
6.0
 40
6.0
 40
6.0
 40
7.0
 40
7.0
 40
7.0
 40
8.0
 40
8.0
 40
8.0
 40
8.0
 10
14.55077419341091
 20
-17.67292642787343
 10
14.55077419341091
 20
-17.67292642787343
 10
14.55077419341091
 20
-17.74654811839322
 10
14.55077419341091
 20
-17.74654811839322
 10
14.55077419341091
 20
-17.74654811839322
 10
14.19139905786708
 20
-18.49830240422959
 10
14.19139905786708
 20
-18.49830240422959
 10
14.19139905786708
 20
-18.49830240422959
 10
14.0758505552918
 20
-18.49830240422959
 10
14.0758505552918
 20
-18.49830240422959
 10
14.0758505552918
 20
-18.49830240422959
 10
14.43395100550609
 20
-17.76814886708574
 10
14.43395100550609
 20
-17.76814886708574
 10
14.43395100550609
 20
-17.76814886708574
 10
14.43395100550609
 20
-17.76559949642665
 10
14.43395100550609
 20
-17.76559949642665
 10
14.43395100550609
 20
-17.76559949642665
 10
14.03013413820253
 20
-17.76559949642665
 10
14.03013413820253
 20
-17.76559949642665
 10
14.03013413820253
 20
-17.76559949642665
 10
14.03013413820253
 20
-17.67292642787343
 10
14.03013413820253
 20
-17.67292642787343
 10
14.03013413820253
 20
-17.67292642787343
 10
14.55077419341091
 20
-17.67292642787343
 10
14.55077419341091
 20
-17.67292642787343
 97
        0
 97
        1
330
C0
 75
     2
 76
     1
 98
        1
 10
0.0
 20
0.0
450
        0
451
        0
460
0.0
461
0.0
452
        0
462
0.0
453
        0
470

  0
SPLINE
  5
C2
330
BA
100
AcDbEntity
  8
Livello 3
100
AcDbSpline
210
0.0
220
0.0
230
1.0
 70
     9
 71
     3
 72
    17
 73
    13
 74
     0
 42
0.000000001
 43
0.0000000001
 40
0.0
 40
0.0
 40
0.0
 40
0.0
 40
1.0
 40
1.0
 40
1.0
 40
2.0
 40
2.0
 40
2.0
 40
3.0
 40
3.0
 40
3.0
 40
4.0
 40
4.0
 40
4.0
 40
4.0
 10
14.62954630168115
 20
-18.65450303353082
 30
0.0
 10
14.65748602606653
 20
-18.57957220672663
 30
0.0
 10
14.69178195162219
 20
-18.44369764078838
 30
0.0
 10
14.70575181381488
 20
-18.35102457223516
 30
0.0
 10
14.70575181381488
 20
-18.35102457223516
 30
0.0
 10
14.8301886627421
 20
-18.33831216989458
 30
0.0
 10
14.8301886627421
 20
-18.33831216989458
 30
0.0
 10
14.80099147850461
 20
-18.44624701144746
 30
0.0
 10
14.74511202973386
 20
-18.58718586774903
 30
0.0
 10
14.70955864432608
 20
-18.64688937250841
 30
0.0
 10
14.70955864432608
 20
-18.64688937250841
 30
0.0
 10
14.62954630168115
 20
-18.65450303353082
 30
0.0
 10
14.62954630168115
 20
-18.65450303353082
 30
0.0
  0
HATCH
  5
C3
330
BA
100
AcDbEntity
  8
Livello 3
 62
   250
420
  1907995
440
 33554687
100
AcDbHatch
 10
0.0
 20
0.0
 30
0.0
210
0.0
220
0.0
230
1.0
  2
SOLID
 70
     1
 71
     1
 91
        1
 92
        1
 93
        1
 72
     4
 94
        3
 73
     0
 74
     0
 95
       17
 96
       13
 40
0.0
 40
0.0
 40
0.0
 40
0.0
 40
1.0
 40
1.0
 40
1.0
 40
2.0
 40
2.0
 40
2.0
 40
3.0
 40
3.0
 40
3.0
 40
4.0
 40
4.0
 40
4.0
 40
4.0
 10
14.62954630168115
 20
-18.65450303353082
 10
14.65748602606653
 20
-18.57957220672663
 10
14.69178195162219
 20
-18.44369764078838
 10
14.70575181381488
 20
-18.35102457223516
 10
14.70575181381488
 20
-18.35102457223516
 10
14.8301886627421
 20
-18.33831216989458
 10
14.8301886627421
 20
-18.33831216989458
 10
14.80099147850461
 20
-18.44624701144746
 10
14.74511202973386
 20
-18.58718586774903
 10
14.70955864432608
 20
-18.64688937250841
 10
14.70955864432608
 20
-18.64688937250841
 10
14.62954630168115
 20
-18.65450303353082
 10
14.62954630168115
 20
-18.65450303353082
 97
        0
 97
        1
330
C2
 75
     2
 76
     1
 98
        1
 10
0.0
 20
0.0
450
        0
451
        0
460
0.0
461
0.0
452
        0
462
0.0
453
        0
470

  0
SPLINE
  5
C4
330
BA
100
AcDbEntity
  8
Livello 3
100
AcDbSpline
210
0.0
220
0.0
230
1.0
 70
    11
 71
     3
 72
    50
 73
    46
 74
     0
 42
0.000000001
 43
0.0000000001
 40
0.0
 40
0.0
 40
0.0
 40
0.0
 40
1.0
 40
1.0
 40
1.0
 40
2.0
 40
2.0
 40
2.0
 40
3.0
 40
3.0
 40
3.0
 40
4.0
 40
4.0
 40
4.0
 40
5.0
 40
5.0
 40
5.0
 40
6.0
 40
6.0
 40
6.0
 40
7.0
 40
7.0
 40
7.0
 40
8.0
 40
8.0
 40
8.0
 40
9.0
 40
9.0
 40
9.0
 40
10.0
 40
10.0
 40
10.0
 40
11.0
 40
11.0
 40
11.0
 40
12.0
 40
12.0
 40
12.0
 40
13.0
 40
13.0
 40
13.0
 40
14.0
 40
14.0
 40
14.0
 40
15.0
 40
15.0
 40
15.0
 40
15.0
 10
15.42196993972089
 20
-17.7668741817562
 30
0.0
 10
15.42196993972089
 20
-17.7668741817562
 30
0.0
 10
15.10705376141421
 20
-17.7668741817562
 30
0.0
 10
15.10705376141421
 20
-17.7668741817562
 30
0.0
 10
15.10705376141421
 20
-17.7668741817562
 30
0.0
 10
15.0752899810402
 20
-17.97895425982818
 30
0.0
 10
15.0752899810402
 20
-17.97895425982818
 30
0.0
 10
15.09434135907364
 20
-17.97640488916909
 30
0.0
 10
15.11211805177752
 20
-17.97385551851
 30
0.0
 10
15.14260714682198
 20
-17.97385551851
 30
0.0
 10
15.20610025661514
 20
-17.97385551851
 30
0.0
 10
15.26959336640829
 20
-17.98784260618012
 30
0.0
 10
15.32037407386088
 20
-18.01829725026973
 30
0.0
 10
15.38514186898357
 20
-18.05512532100705
 30
0.0
 10
15.43847194709524
 20
-18.12623209182261
 30
0.0
 10
15.43847194709524
 20
-18.23037732834171
 30
0.0
 10
15.43847194709524
 20
-18.39164224800626
 30
0.0
 10
15.31021104217939
 20
-18.5122894918997
 30
0.0
 10
15.13116942981096
 20
-18.5122894918997
 30
0.0
 10
15.04101128096197
 20
-18.5122894918997
 30
0.0
 10
14.96480576882824
 20
-18.48689913817341
 30
0.0
 10
14.92546277838669
 20
-18.46147433349227
 30
0.0
 10
14.92546277838669
 20
-18.46147433349227
 30
0.0
 10
14.95340250277206
 20
-18.37641492596145
 30
0.0
 10
14.95340250277206
 20
-18.37641492596145
 30
0.0
 10
14.9876812028503
 20
-18.39670653836957
 30
0.0
 10
15.05499836863208
 20
-18.42213134305071
 30
0.0
 10
15.12989474448141
 20
-18.42213134305071
 30
0.0
 10
15.23531466633006
 20
-18.42213134305071
 30
0.0
 10
15.32547281517905
 20
-18.35353949193939
 30
0.0
 10
15.32547281517905
 20
-18.24308973068228
 30
0.0
 10
15.3241981298495
 20
-18.13639512350409
 30
0.0
 10
15.25309135903395
 20
-18.06022406232522
 30
0.0
 10
15.08800238338077
 20
-18.06022406232522
 30
0.0
 10
15.04101128096197
 20
-18.06022406232522
 30
0.0
 10
15.00418321022465
 20
-18.06528835268854
 30
0.0
 10
14.97372856613504
 20
-18.06911240867716
 30
0.0
 10
14.97372856613504
 20
-18.06911240867716
 30
0.0
 10
15.0270586442467
 20
-17.67292642787343
 30
0.0
 10
15.0270586442467
 20
-17.67292642787343
 30
0.0
 10
15.0270586442467
 20
-17.67292642787343
 30
0.0
 10
15.42196993972089
 20
-17.67292642787343
 30
0.0
 10
15.42196993972089
 20
-17.67292642787343
 30
0.0
 10
15.42196993972089
 20
-17.67292642787343
 30
0.0
 10
15.42196993972089
 20
-17.7668741817562
 30
0.0
 10
15.42196993972089
 20
-17.7668741817562
 30
0.0
  0
HATCH
  5
C5
330
BA
100
AcDbEntity
  8
Livello 3
 62
   250
420
  1907995
440
 33554687
100
AcDbHatch
 10
0.0
 20
0.0
 30
0.0
210
0.0
220
0.0
230
1.0
  2
SOLID
 70
     1
 71
     1
 91
        1
 92
        1
 93
        1
 72
     4
 94
        3
 73
     0
 74
     0
 95
       50
 96
       46
 40
0.0
 40
0.0
 40
0.0
 40
0.0
 40
1.0
 40
1.0
 40
1.0
 40
2.0
 40
2.0
 40
2.0
 40
3.0
 40
3.0
 40
3.0
 40
4.0
 40
4.0
 40
4.0
 40
5.0
 40
5.0
 40
5.0
 40
6.0
 40
6.0
 40
6.0
 40
7.0
 40
7.0
 40
7.0
 40
8.0
 40
8.0
 40
8.0
 40
9.0
 40
9.0
 40
9.0
 40
10.0
 40
10.0
 40
10.0
 40
11.0
 40
11.0
 40
11.0
 40
12.0
 40
12.0
 40
12.0
 40
13.0
 40
13.0
 40
13.0
 40
14.0
 40
14.0
 40
14.0
 40
15.0
 40
15.0
 40
15.0
 40
15.0
 10
15.42196993972089
 20
-17.7668741817562
 10
15.42196993972089
 20
-17.7668741817562
 10
15.10705376141421
 20
-17.7668741817562
 10
15.10705376141421
 20
-17.7668741817562
 10
15.10705376141421
 20
-17.7668741817562
 10
15.0752899810402
 20
-17.97895425982818
 10
15.0752899810402
 20
-17.97895425982818
 10
15.09434135907364
 20
-17.97640488916909
 10
15.11211805177752
 20
-17.97385551851
 10
15.14260714682198
 20
-17.97385551851
 10
15.20610025661514
 20
-17.97385551851
 10
15.26959336640829
 20
-17.98784260618012
 10
15.32037407386088
 20
-18.01829725026973
 10
15.38514186898357
 20
-18.05512532100705
 10
15.43847194709524
 20
-18.12623209182261
 10
15.43847194709524
 20
-18.23037732834171
 10
15.43847194709524
 20
-18.39164224800626
 10
15.31021104217939
 20
-18.5122894918997
 10
15.13116942981096
 20
-18.5122894918997
 10
15.04101128096197
 20
-18.5122894918997
 10
14.96480576882824
 20
-18.48689913817341
 10
14.92546277838669
 20
-18.46147433349227
 10
14.92546277838669
 20
-18.46147433349227
 10
14.95340250277206
 20
-18.37641492596145
 10
14.95340250277206
 20
-18.37641492596145
 10
14.9876812028503
 20
-18.39670653836957
 10
15.05499836863208
 20
-18.42213134305071
 10
15.12989474448141
 20
-18.42213134305071
 10
15.23531466633006
 20
-18.42213134305071
 10
15.32547281517905
 20
-18.35353949193939
 10
15.32547281517905
 20
-18.24308973068228
 10
15.3241981298495
 20
-18.13639512350409
 10
15.25309135903395
 20
-18.06022406232522
 10
15.08800238338077
 20
-18.06022406232522
 10
15.04101128096197
 20
-18.06022406232522
 10
15.00418321022465
 20
-18.06528835268854
 10
14.97372856613504
 20
-18.06911240867716
 10
14.97372856613504
 20
-18.06911240867716
 10
15.0270586442467
 20
-17.67292642787343
 10
15.0270586442467
 20
-17.67292642787343
 10
15.0270586442467
 20
-17.67292642787343
 10
15.42196993972089
 20
-17.67292642787343
 10
15.42196993972089
 20
-17.67292642787343
 10
15.42196993972089
 20
-17.67292642787343
 10
15.42196993972089
 20
-17.7668741817562
 10
15.42196993972089
 20
-17.7668741817562
 97
        0
 97
        1
330
C4
 75
     2
 76
     1
 98
        1
 10
0.0
 20
0.0
450
        0
451
        0
460
0.0
461
0.0
452
        0
462
0.0
453
        0
470

  0
ENDBLK
  5
BD
330
BA
100
AcDbEntity
  8
0
100
AcDbBlockEnd
  0
BLOCK
  5
C8
330
C6
100
AcDbEntity
  8
0
100
AcDbBlockBegin
  2
Block_3
 70
     0
 10
0.0
 20
0.0
 30
0.0
  3
Block_3
  1

  0
INSERT
  5
CB
330
C6
100
AcDbEntity
  8
Livello 3
100
AcDbBlockReference
  2
Block_4
 10
0.0
 20
0.0
 30
0.0
  0
ENDBLK
  5
C9
330
C6
100
AcDbEntity
  8
0
100
AcDbBlockEnd
  0
BLOCK
  5
CC
330
CA
100
AcDbEntity
  8
0
100
AcDbBlockBegin
  2
Block_4
 70
     0
 10
0.0
 20
0.0
 30
0.0
  3
Block_4
  1

  0
SPLINE
  5
CE
330
CA
100
AcDbEntity
  8
Livello 3
100
AcDbSpline
210
0.0
220
0.0
230
1.0
 70
     9
 71
     3
 72
    17
 73
    13
 74
     0
 42
0.000000001
 43
0.0000000001
 40
0.0
 40
0.0
 40
0.0
 40
0.0
 40
1.0
 40
1.0
 40
1.0
 40
2.0
 40
2.0
 40
2.0
 40
3.0
 40
3.0
 40
3.0
 40
4.0
 40
4.0
 40
4.0
 40
4.0
 10
17.37096380859128
 20
-11.25774522288001
 30
0.0
 10
17.27064262806081
 20
-11.25774522288001
 30
0.0
 10
17.22237684031246
 20
-11.32757730836602
 30
0.0
 10
17.19064751089331
 20
-11.43933620590752
 30
0.0
 10
17.21858723527869
 20
-11.53583333044937
 30
0.0
 10
17.28208034507184
 20
-11.58792317418635
 30
0.0
 10
17.3608007769098
 20
-11.58792317418635
 30
0.0
 10
17.44461995006593
 20
-11.59171277922012
 30
0.0
 10
17.51827609154056
 20
-11.52821966942697
 30
0.0
 10
17.51827609154056
 20
-11.42283419853318
 30
0.0
 10
17.51827609154056
 20
-11.3225130180027
 30
0.0
 10
17.45605766707695
 20
-11.25774522288001
 30
0.0
 10
17.37096380859128
 20
-11.25774522288001
 30
0.0
  0
SPLINE
  5
CF
330
CA
100
AcDbEntity
  8
Livello 3
100
AcDbSpline
210
0.0
220
0.0
230
1.0
 70
     9
 71
     3
 72
    17
 73
    13
 74
     0
 42
0.000000001
 43
0.0000000001
 40
0.0
 40
0.0
 40
0.0
 40
0.0
 40
1.0
 40
1.0
 40
1.0
 40
2.0
 40
2.0
 40
2.0
 40
3.0
 40
3.0
 40
3.0
 40
4.0
 40
4.0
 40
4.0
 40
4.0
 10
16.9582758204132
 20
-11.56504774016429
 30
0.0
 10
17.04082030823979
 20
-11.56504774016429
 30
0.0
 10
17.08526203999952
 20
-11.50282931570068
 30
0.0
 10
17.11065239372581
 20
-11.40760687648837
 30
0.0
 10
17.08653672532905
 20
-11.33646565471796
 30
0.0
 10
17.03572156692162
 20
-11.28186089127675
 30
0.0
 10
16.96079074011744
 20
-11.28186089127675
 30
0.0
 10
16.89478271062005
 20
-11.28186089127675
 30
0.0
 10
16.82619085950873
 20
-11.32123833267316
 30
0.0
 10
16.82619085950873
 20
-11.42155951320363
 30
0.0
 10
16.82619085950873
 20
-11.51426703271171
 30
0.0
 10
16.88716904959765
 20
-11.56504774016429
 30
0.0
 10
16.9582758204132
 20
-11.56504774016429
 30
0.0
  0
SPLINE
  5
D0
330
CA
100
AcDbEntity
  8
Livello 3
100
AcDbSpline
210
0.0
220
0.0
230
1.0
 70
     9
 71
     3
 72
    35
 73
    31
 74
     0
 42
0.000000001
 43
0.0000000001
 40
0.0
 40
0.0
 40
0.0
 40
0.0
 40
1.0
 40
1.0
 40
1.0
 40
2.0
 40
2.0
 40
2.0
 40
3.0
 40
3.0
 40
3.0
 40
4.0
 40
4.0
 40
4.0
 40
5.0
 40
5.0
 40
5.0
 40
6.0
 40
6.0
 40
6.0
 40
7.0
 40
7.0
 40
7.0
 40
8.0
 40
8.0
 40
8.0
 40
9.0
 40
9.0
 40
9.0
 40
10.0
 40
10.0
 40
10.0
 40
10.0
 10
17.3760280989546
 20
-11.70216254047723
 30
0.0
 10
17.27191731339035
 20
-11.70216254047723
 30
0.0
 10
17.19826117191571
 20
-11.63994411601362
 30
0.0
 10
17.15509412548553
 20
-11.53838270110846
 30
0.0
 10
17.15509412548553
 20
-11.53838270110846
 30
0.0
 10
17.1512700694969
 20
-11.53962293548315
 30
0.0
 10
17.1512700694969
 20
-11.53962293548315
 30
0.0
 10
17.10810302306672
 20
-11.63105576966168
 30
0.0
 10
17.03699625225117
 20
-11.67043321105808
 30
0.0
 10
16.96588948143561
 20
-11.67043321105808
 30
0.0
 10
16.83507920586067
 20
-11.67043321105808
 30
0.0
 10
16.74619574234123
 20
-11.55994899884612
 30
0.0
 10
16.74619574234123
 20
-11.41518608655592
 30
0.0
 10
16.74619574234123
 20
-11.25519585222092
 30
0.0
 10
16.8465169228717
 20
-11.17520073505342
 30
0.0
 10
16.94938747406126
 20
-11.17520073505342
 30
0.0
 10
17.01921955954728
 20
-11.17520073505342
 30
0.0
 10
17.09415038635146
 20
-11.20951388608651
 30
0.0
 10
17.14238172314496
 20
-11.31107530099167
 30
0.0
 10
17.14238172314496
 20
-11.31107530099167
 30
0.0
 10
17.14620577913358
 20
-11.31107530099167
 30
0.0
 10
17.14620577913358
 20
-11.31107530099167
 30
0.0
 10
17.18682345490468
 20
-11.20820474980211
 30
0.0
 10
17.25920491104978
 20
-11.14474609096381
 30
0.0
 10
17.35952609158025
 20
-11.14474609096381
 30
0.0
 10
17.50301431854091
 20
-11.14474609096381
 30
0.0
 10
17.59954589403761
 20
-11.26790825456149
 30
0.0
 10
17.59954589403761
 20
-11.42538356919226
 30
0.0
 10
17.59954589403761
 20
-11.59805175491298
 30
0.0
 10
17.49667534284805
 20
-11.70216254047723
 30
0.0
 10
17.3760280989546
 20
-11.70216254047723
 30
0.0
  0
HATCH
  5
D1
330
CA
100
AcDbEntity
  8
Livello 3
 62
   250
420
  1907995
440
 33554687
100
AcDbHatch
 10
0.0
 20
0.0
 30
0.0
210
0.0
220
0.0
230
1.0
  2
SOLID
 70
     1
 71
     1
 91
        3
 92
        1
 93
        1
 72
     4
 94
        3
 73
     0
 74
     0
 95
       17
 96
       13
 40
0.0
 40
0.0
 40
0.0
 40
0.0
 40
1.0
 40
1.0
 40
1.0
 40
2.0
 40
2.0
 40
2.0
 40
3.0
 40
3.0
 40
3.0
 40
4.0
 40
4.0
 40
4.0
 40
4.0
 10
17.37096380859128
 20
-11.25774522288001
 10
17.27064262806081
 20
-11.25774522288001
 10
17.22237684031246
 20
-11.32757730836602
 10
17.19064751089331
 20
-11.43933620590752
 10
17.21858723527869
 20
-11.53583333044937
 10
17.28208034507184
 20
-11.58792317418635
 10
17.3608007769098
 20
-11.58792317418635
 10
17.44461995006593
 20
-11.59171277922012
 10
17.51827609154056
 20
-11.52821966942697
 10
17.51827609154056
 20
-11.42283419853318
 10
17.51827609154056
 20
-11.3225130180027
 10
17.45605766707695
 20
-11.25774522288001
 10
17.37096380859128
 20
-11.25774522288001
 97
        0
 97
        1
330
CE
 92
        1
 93
        1
 72
     4
 94
        3
 73
     0
 74
     0
 95
       17
 96
       13
 40
0.0
 40
0.0
 40
0.0
 40
0.0
 40
1.0
 40
1.0
 40
1.0
 40
2.0
 40
2.0
 40
2.0
 40
3.0
 40
3.0
 40
3.0
 40
4.0
 40
4.0
 40
4.0
 40
4.0
 10
16.9582758204132
 20
-11.56504774016429
 10
17.04082030823979
 20
-11.56504774016429
 10
17.08526203999952
 20
-11.50282931570068
 10
17.11065239372581
 20
-11.40760687648837
 10
17.08653672532905
 20
-11.33646565471796
 10
17.03572156692162
 20
-11.28186089127675
 10
16.96079074011744
 20
-11.28186089127675
 10
16.89478271062005
 20
-11.28186089127675
 10
16.82619085950873
 20
-11.32123833267316
 10
16.82619085950873
 20
-11.42155951320363
 10
16.82619085950873
 20
-11.51426703271171
 10
16.88716904959765
 20
-11.56504774016429
 10
16.9582758204132
 20
-11.56504774016429
 97
        0
 97
        1
330
CF
 92
        1
 93
        1
 72
     4
 94
        3
 73
     0
 74
     0
 95
       35
 96
       31
 40
0.0
 40
0.0
 40
0.0
 40
0.0
 40
1.0
 40
1.0
 40
1.0
 40
2.0
 40
2.0
 40
2.0
 40
3.0
 40
3.0
 40
3.0
 40
4.0
 40
4.0
 40
4.0
 40
5.0
 40
5.0
 40
5.0
 40
6.0
 40
6.0
 40
6.0
 40
7.0
 40
7.0
 40
7.0
 40
8.0
 40
8.0
 40
8.0
 40
9.0
 40
9.0
 40
9.0
 40
10.0
 40
10.0
 40
10.0
 40
10.0
 10
17.3760280989546
 20
-11.70216254047723
 10
17.27191731339035
 20
-11.70216254047723
 10
17.19826117191571
 20
-11.63994411601362
 10
17.15509412548553
 20
-11.53838270110846
 10
17.15509412548553
 20
-11.53838270110846
 10
17.1512700694969
 20
-11.53962293548315
 10
17.1512700694969
 20
-11.53962293548315
 10
17.10810302306672
 20
-11.63105576966168
 10
17.03699625225117
 20
-11.67043321105808
 10
16.96588948143561
 20
-11.67043321105808
 10
16.83507920586067
 20
-11.67043321105808
 10
16.74619574234123
 20
-11.55994899884612
 10
16.74619574234123
 20
-11.41518608655592
 10
16.74619574234123
 20
-11.25519585222092
 10
16.8465169228717
 20
-11.17520073505342
 10
16.94938747406126
 20
-11.17520073505342
 10
17.01921955954728
 20
-11.17520073505342
 10
17.09415038635146
 20
-11.20951388608651
 10
17.14238172314496
 20
-11.31107530099167
 10
17.14238172314496
 20
-11.31107530099167
 10
17.14620577913358
 20
-11.31107530099167
 10
17.14620577913358
 20
-11.31107530099167
 10
17.18682345490468
 20
-11.20820474980211
 10
17.25920491104978
 20
-11.14474609096381
 10
17.35952609158025
 20
-11.14474609096381
 10
17.50301431854091
 20
-11.14474609096381
 10
17.59954589403761
 20
-11.26790825456149
 10
17.59954589403761
 20
-11.42538356919226
 10
17.59954589403761
 20
-11.59805175491298
 10
17.49667534284805
 20
-11.70216254047723
 10
17.3760280989546
 20
-11.70216254047723
 97
        0
 97
        1
330
D0
 75
     2
 76
     1
 98
        1
 10
0.0
 20
0.0
450
        0
451
        0
460
0.0
461
0.0
452
        0
462
0.0
453
        0
470

  0
SPLINE
  5
D2
330
CA
100
AcDbEntity
  8
Livello 3
100
AcDbSpline
210
0.0
220
0.0
230
1.0
 70
     9
 71
     3
 72
    17
 73
    13
 74
     0
 42
0.000000001
 43
0.0000000001
 40
0.0
 40
0.0
 40
0.0
 40
0.0
 40
1.0
 40
1.0
 40
1.0
 40
2.0
 40
2.0
 40
2.0
 40
3.0
 40
3.0
 40
3.0
 40
4.0
 40
4.0
 40
4.0
 40
4.0
 10
17.17669487417804
 20
-10.94024522295938
 30
0.0
 10
17.39128987195426
 20
-10.94024522295938
 30
0.0
 10
17.5131773502224
 20
-10.87420274250714
 30
0.0
 10
17.5131773502224
 20
-10.77260687664712
 30
0.0
 10
17.5131773502224
 20
-10.65829860844653
 30
0.0
 10
17.37985215494323
 20
-10.60372829596017
 30
0.0
 10
17.16904676220079
 20
-10.60372829596017
 30
0.0
 10
16.96588948143561
 20
-10.60372829596017
 30
0.0
 10
16.83256428615644
 20
-10.6557836887423
 30
0.0
 10
16.83256428615644
 20
-10.77133219131758
 30
0.0
 10
16.83256428615644
 20
-10.86913845214382
 30
0.0
 10
16.9519023937655
 20
-10.94024522295938
 30
0.0
 10
17.17669487417804
 20
-10.94024522295938
 30
0.0
  0
SPLINE
  5
D3
330
CA
100
AcDbEntity
  8
Livello 3
100
AcDbSpline
210
0.0
220
0.0
230
1.0
 70
     9
 71
     3
 72
    17
 73
    13
 74
     0
 42
0.000000001
 43
0.0000000001
 40
0.0
 40
0.0
 40
0.0
 40
0.0
 40
1.0
 40
1.0
 40
1.0
 40
2.0
 40
2.0
 40
2.0
 40
3.0
 40
3.0
 40
3.0
 40
4.0
 40
4.0
 40
4.0
 40
4.0
 10
17.16398247183747
 20
-10.49196939841867
 30
0.0
 10
17.44461995006593
 20
-10.49196939841867
 30
0.0
 10
17.59954589403761
 20
-10.59608018398292
 30
0.0
 10
17.59954589403761
 20
-10.77894585233998
 30
0.0
 10
17.59954589403761
 20
-10.94024522295938
 30
0.0
 10
17.4484095550997
 20
-11.0494547498418
 30
0.0
 10
17.1754201888485
 20
-11.05196966954603
 30
0.0
 10
16.89857231565382
 20
-11.05196966954603
 30
0.0
 10
16.74619574234123
 20
-10.93259711098212
 30
0.0
 10
16.74619574234123
 20
-10.76499321562472
 30
0.0
 10
16.74619574234123
 20
-10.5910158936196
 30
0.0
 10
16.90112168631291
 20
-10.49196939841867
 30
0.0
 10
17.16398247183747
 20
-10.49196939841867
 30
0.0
  0
HATCH
  5
D4
330
CA
100
AcDbEntity
  8
Livello 3
 62
   250
420
  1907995
440
 33554687
100
AcDbHatch
 10
0.0
 20
0.0
 30
0.0
210
0.0
220
0.0
230
1.0
  2
SOLID
 70
     1
 71
     1
 91
        2
 92
        1
 93
        1
 72
     4
 94
        3
 73
     0
 74
     0
 95
       17
 96
       13
 40
0.0
 40
0.0
 40
0.0
 40
0.0
 40
1.0
 40
1.0
 40
1.0
 40
2.0
 40
2.0
 40
2.0
 40
3.0
 40
3.0
 40
3.0
 40
4.0
 40
4.0
 40
4.0
 40
4.0
 10
17.17669487417804
 20
-10.94024522295938
 10
17.39128987195426
 20
-10.94024522295938
 10
17.5131773502224
 20
-10.87420274250714
 10
17.5131773502224
 20
-10.77260687664712
 10
17.5131773502224
 20
-10.65829860844653
 10
17.37985215494323
 20
-10.60372829596017
 10
17.16904676220079
 20
-10.60372829596017
 10
16.96588948143561
 20
-10.60372829596017
 10
16.83256428615644
 20
-10.6557836887423
 10
16.83256428615644
 20
-10.77133219131758
 10
16.83256428615644
 20
-10.86913845214382
 10
16.9519023937655
 20
-10.94024522295938
 10
17.17669487417804
 20
-10.94024522295938
 97
        0
 97
        1
330
D2
 92
        1
 93
        1
 72
     4
 94
        3
 73
     0
 74
     0
 95
       17
 96
       13
 40
0.0
 40
0.0
 40
0.0
 40
0.0
 40
1.0
 40
1.0
 40
1.0
 40
2.0
 40
2.0
 40
2.0
 40
3.0
 40
3.0
 40
3.0
 40
4.0
 40
4.0
 40
4.0
 40
4.0
 10
17.16398247183747
 20
-10.49196939841867
 10
17.44461995006593
 20
-10.49196939841867
 10
17.59954589403761
 20
-10.59608018398292
 10
17.59954589403761
 20
-10.77894585233998
 10
17.59954589403761
 20
-10.94024522295938
 10
17.4484095550997
 20
-11.0494547498418
 10
17.1754201888485
 20
-11.05196966954603
 10
16.89857231565382
 20
-11.05196966954603
 10
16.74619574234123
 20
-10.93259711098212
 10
16.74619574234123
 20
-10.76499321562472
 10
16.74619574234123
 20
-10.5910158936196
 10
16.90112168631291
 20
-10.49196939841867
 10
17.16398247183747
 20
-10.49196939841867
 97
        0
 97
        1
330
D3
 75
     2
 76
     1
 98
        1
 10
0.0
 20
0.0
450
        0
451
        0
460
0.0
461
0.0
452
        0
462
0.0
453
        0
470

  0
ENDBLK
  5
CD
330
CA
100
AcDbEntity
  8
0
100
AcDbBlockEnd
  0
ENDSEC
  0
SECTION
  2
ENTITIES
  0
LINE
  5
B4
330
70
100
AcDbEntity
  8
Livello 3
100
AcDbLine
 10
13.10642083229401
 20
-17.44682098329258
 30
0.0
 11
16.03821222972
 21
-17.44682098329258
 31
0.0
  0
LINE
  5
B5
330
70
100
AcDbEntity
  8
Livello 3
100
AcDbLine
 10
16.36104937862577
 20
-3.877045856669638
 30
0.0
 11
16.36104937862577
 21
-17.10012269364167
 31
0.0
  0
SPLINE
  5
11B
330
70
100
AcDbEntity
  8
Livello 3
100
AcDbSpline
210
0.0
220
0.0
230
1.0
 70
    24
 71
     3
 72
     8
 73
     4
 74
     0
 42
0.000000001
 43
0.0000000001
 40
0.0
 40
0.0
 40
0.0
 40
0.0
 40
1.0
 40
1.0
 40
1.0
 40
1.0
 10
13.42337082997749
 20
-16.56200958266509
 30
0.0
 10
13.42337082997749
 20
-16.56200958266509
 30
0.0
 10
13.51210115527758
 20
-6.252375363020233
 30
0.0
 10
13.51210115527758
 20
-6.252375363020233
 30
0.0
  0
SPLINE
  5
11C
330
70
100
AcDbEntity
  8
Livello 3
100
AcDbSpline
210
0.0
220
0.0
230
1.0
 70
    24
 71
     3
 72
     8
 73
     4
 74
     0
 42
0.000000001
 43
0.0000000001
 40
1.0
 40
1.0
 40
1.0
 40
1.0
 40
2.0
 40
2.0
 40
2.0
 40
2.0
 10
13.51210115527758
 20
-6.252375363020233
 30
0.0
 10
13.51210115527758
 20
-6.252375363020233
 30
0.0
 10
13.52609584936499
 20
-4.744257418952834
 30
0.0
 10
13.52609584936499
 20
-4.744257418952834
 30
0.0
  0
SPLINE
  5
11D
330
70
100
AcDbEntity
  8
Livello 3
100
AcDbSpline
210
0.0
220
0.0
230
1.0
 70
    24
 71
     3
 72
     8
 73
     4
 74
     0
 42
0.000000001
 43
0.0000000001
 40
2.0
 40
2.0
 40
2.0
 40
2.0
 40
3.0
 40
3.0
 40
3.0
 40
3.0
 10
13.52609584936499
 20
-4.744257418952834
 30
0.0
 10
13.52609584936499
 20
-4.744257418952834
 30
0.0
 10
13.56431932061205
 20
-4.017401141356774
 30
0.0
 10
13.56431932061205
 20
-4.017401141356774
 30
0.0
  0
SPLINE
  5
11E
330
70
100
AcDbEntity
  8
Livello 3
100
AcDbSpline
210
0.0
220
0.0
230
1.0
 70
    24
 71
     3
 72
     8
 73
     4
 74
     0
 42
0.000000001
 43
0.0000000001
 40
3.0
 40
3.0
 40
3.0
 40
3.0
 40
4.0
 40
4.0
 40
4.0
 40
4.0
 10
13.56431932061205
 20
-4.017401141356774
 30
0.0
 10
13.56431932061205
 20
-4.017401141356774
 30
0.0
 10
13.56431932061205
 20
-3.985248974698147
 30
0.0
 10
13.56431932061205
 20
-3.985248974698147
 30
0.0
  0
SPLINE
  5
11F
330
70
100
AcDbEntity
  8
Livello 3
100
AcDbSpline
210
0.0
220
0.0
230
1.0
 70
    24
 71
     3
 72
     8
 73
     4
 74
     0
 42
0.000000001
 43
0.0000000001
 40
4.0
 40
4.0
 40
4.0
 40
4.0
 40
5.0
 40
5.0
 40
5.0
 40
5.0
 10
13.56431932061205
 20
-3.985248974698147
 30
0.0
 10
13.56431932061205
 20
-3.985248974698147
 30
0.0
 10
13.63661054098997
 20
-3.913024780271753
 30
0.0
 10
13.63661054098997
 20
-3.913024780271753
 30
0.0
  0
SPLINE
  5
120
330
70
100
AcDbEntity
  8
Livello 3
100
AcDbSpline
210
0.0
220
0.0
230
1.0
 70
    24
 71
     3
 72
     8
 73
     4
 74
     0
 42
0.000000001
 43
0.0000000001
 40
5.0
 40
5.0
 40
5.0
 40
5.0
 40
6.0
 40
6.0
 40
6.0
 40
6.0
 10
13.63661054098997
 20
-3.913024780271753
 30
0.0
 10
13.63661054098997
 20
-3.913024780271753
 30
0.0
 10
13.86958497949074
 20
-3.896849919164694
 30
0.0
 10
13.86958497949074
 20
-3.896849919164694
 30
0.0
  0
SPLINE
  5
121
330
70
100
AcDbEntity
  8
Livello 3
100
AcDbSpline
210
0.0
220
0.0
230
1.0
 70
     8
 71
     3
 72
     8
 73
     4
 74
     0
 42
0.000000001
 43
0.0000000001
 40
6.0
 40
6.0
 40
6.0
 40
6.0
 40
7.0
 40
7.0
 40
7.0
 40
7.0
 10
13.86958497949074
 20
-3.896849919164694
 30
0.0
 10
14.3443885784886
 20
-3.870444502504608
 30
0.0
 10
14.80037501129986
 20
-3.870444502504608
 30
0.0
 10
15.27517508252004
 20
-3.896849919164694
 30
0.0
  0
SPLINE
  5
122
330
70
100
AcDbEntity
  8
Livello 3
100
AcDbSpline
210
0.0
220
0.0
230
1.0
 70
    24
 71
     3
 72
     8
 73
     4
 74
     0
 42
0.000000001
 43
0.0000000001
 40
7.0
 40
7.0
 40
7.0
 40
7.0
 40
8.0
 40
8.0
 40
8.0
 40
8.0
 10
15.27517508252004
 20
-3.896849919164694
 30
0.0
 10
15.27517508252004
 20
-3.896849919164694
 30
0.0
 10
15.50815304879849
 20
-3.913024780271753
 30
0.0
 10
15.50815304879849
 20
-3.913024780271753
 30
0.0
  0
SPLINE
  5
123
330
70
100
AcDbEntity
  8
Livello 3
100
AcDbSpline
210
0.0
220
0.0
230
1.0
 70
    24
 71
     3
 72
     8
 73
     4
 74
     0
 42
0.000000001
 43
0.0000000001
 40
8.0
 40
8.0
 40
8.0
 40
8.0
 40
9.0
 40
9.0
 40
9.0
 40
9.0
 10
15.50815304879849
 20
-3.913024780271753
 30
0.0
 10
15.50815304879849
 20
-3.913024780271753
 30
0.0
 10
15.58044426917641
 20
-3.985248974698147
 30
0.0
 10
15.58044426917641
 20
-3.985248974698147
 30
0.0
  0
SPLINE
  5
124
330
70
100
AcDbEntity
  8
Livello 3
100
AcDbSpline
210
0.0
220
0.0
230
1.0
 70
    24
 71
     3
 72
     8
 73
     4
 74
     0
 42
0.000000001
 43
0.0000000001
 40
9.0
 40
9.0
 40
9.0
 40
9.0
 40
10.0
 40
10.0
 40
10.0
 40
10.0
 10
15.58044426917641
 20
-3.985248974698147
 30
0.0
 10
15.58044426917641
 20
-3.985248974698147
 30
0.0
 10
15.58037724140035
 20
-4.017401141356774
 30
0.0
 10
15.58037724140035
 20
-4.017401141356774
 30
0.0
  0
SPLINE
  5
125
330
70
100
AcDbEntity
  8
Livello 3
100
AcDbSpline
210
0.0
220
0.0
230
1.0
 70
    24
 71
     3
 72
     8
 73
     4
 74
     0
 42
0.000000001
 43
0.0000000001
 40
10.0
 40
10.0
 40
10.0
 40
10.0
 40
11.0
 40
11.0
 40
11.0
 40
11.0
 10
15.58037724140035
 20
-4.017401141356774
 30
0.0
 10
15.58037724140035
 20
-4.017401141356774
 30
0.0
 10
15.61860424042509
 20
-4.744257418952834
 30
0.0
 10
15.61860424042509
 20
-4.744257418952834
 30
0.0
  0
SPLINE
  5
126
330
70
100
AcDbEntity
  8
Livello 3
100
AcDbSpline
210
0.0
220
0.0
230
1.0
 70
    24
 71
     3
 72
     8
 73
     4
 74
     0
 42
0.000000001
 43
0.0000000001
 40
11.0
 40
11.0
 40
11.0
 40
11.0
 40
12.0
 40
12.0
 40
12.0
 40
12.0
 10
15.61860424042509
 20
-4.744257418952834
 30
0.0
 10
15.61860424042509
 20
-4.744257418952834
 30
0.0
 10
15.63266596228857
 20
-6.252375363020233
 30
0.0
 10
15.63266596228857
 20
-6.252375363020233
 30
0.0
  0
SPLINE
  5
127
330
70
100
AcDbEntity
  8
Livello 3
100
AcDbSpline
210
0.0
220
0.0
230
1.0
 70
    24
 71
     3
 72
     8
 73
     4
 74
     0
 42
0.000000001
 43
0.0000000001
 40
12.0
 40
12.0
 40
12.0
 40
12.0
 40
13.0
 40
13.0
 40
13.0
 40
13.0
 10
15.63266596228857
 20
-6.252375363020233
 30
0.0
 10
15.63266596228857
 20
-6.252375363020233
 30
0.0
 10
15.72304409887172
 20
-16.56187905488731
 30
0.0
 10
15.72304409887172
 20
-16.56187905488731
 30
0.0
  0
SPLINE
  5
128
330
70
100
AcDbEntity
  8
Livello 3
100
AcDbSpline
210
0.0
220
0.0
230
1.0
 70
    24
 71
     3
 72
     8
 73
     4
 74
     0
 42
0.000000001
 43
0.0000000001
 40
13.0
 40
13.0
 40
13.0
 40
13.0
 40
14.0
 40
14.0
 40
14.0
 40
14.0
 10
15.72304409887172
 20
-16.56187905488731
 30
0.0
 10
15.72304409887172
 20
-16.56187905488731
 30
0.0
 10
15.75512610717234
 20
-16.55989997155447
 30
0.0
 10
15.75512610717234
 20
-16.55989997155447
 30
0.0
  0
SPLINE
  5
129
330
70
100
AcDbEntity
  8
Livello 3
100
AcDbSpline
210
0.0
220
0.0
230
1.0
 70
     8
 71
     3
 72
     8
 73
     4
 74
     0
 42
0.000000001
 43
0.0000000001
 40
14.0
 40
14.0
 40
14.0
 40
14.0
 40
15.0
 40
15.0
 40
15.0
 40
15.0
 10
15.75512610717234
 20
-16.55989997155447
 30
0.0
 10
15.79685226365539
 20
-16.55824897155488
 30
0.0
 10
15.97589050908774
 20
-16.55091824933449
 30
0.0
 10
15.9801167867577
 20
-16.62816247153739
 30
0.0
  0
SPLINE
  5
12A
330
70
100
AcDbEntity
  8
Livello 3
100
AcDbSpline
210
0.0
220
0.0
230
1.0
 70
    24
 71
     3
 72
     8
 73
     4
 74
     0
 42
0.000000001
 43
0.0000000001
 40
15.0
 40
15.0
 40
15.0
 40
15.0
 40
16.0
 40
16.0
 40
16.0
 40
16.0
 10
15.9801167867577
 20
-16.62816247153739
 30
0.0
 10
15.9801167867577
 20
-16.62816247153739
 30
0.0
 10
15.99001925872729
 20
-16.82093436037811
 30
0.0
 10
15.99001925872729
 20
-16.82093436037811
 30
0.0
  0
SPLINE
  5
12B
330
70
100
AcDbEntity
  8
Livello 3
100
AcDbSpline
210
0.0
220
0.0
230
1.0
 70
    24
 71
     3
 72
     8
 73
     4
 74
     0
 42
0.000000001
 43
0.0000000001
 40
16.0
 40
16.0
 40
16.0
 40
16.0
 40
17.0
 40
17.0
 40
17.0
 40
17.0
 10
15.99001925872729
 20
-16.82093436037811
 30
0.0
 10
15.99001925872729
 20
-16.82093436037811
 30
0.0
 10
16.02421753563258
 20
-16.82905177704277
 30
0.0
 10
16.02421753563258
 20
-16.82905177704277
 30
0.0
  0
SPLINE
  5
12C
330
70
100
AcDbEntity
  8
Livello 3
100
AcDbSpline
210
0.0
220
0.0
230
1.0
 70
    24
 71
     3
 72
     8
 73
     4
 74
     0
 42
0.000000001
 43
0.0000000001
 40
17.0
 40
17.0
 40
17.0
 40
17.0
 40
18.0
 40
18.0
 40
18.0
 40
18.0
 10
16.02421753563258
 20
-16.82905177704277
 30
0.0
 10
16.02421753563258
 20
-16.82905177704277
 30
0.0
 10
16.02421753563258
 20
-16.84714222148264
 30
0.0
 10
16.02421753563258
 20
-16.84714222148264
 30
0.0
  0
SPLINE
  5
12D
330
70
100
AcDbEntity
  8
Livello 3
100
AcDbSpline
210
0.0
220
0.0
230
1.0
 70
    24
 71
     3
 72
     8
 73
     4
 74
     0
 42
0.000000001
 43
0.0000000001
 40
18.0
 40
18.0
 40
18.0
 40
18.0
 40
19.0
 40
19.0
 40
19.0
 40
19.0
 10
16.02421753563258
 20
-16.84714222148264
 30
0.0
 10
16.02421753563258
 20
-16.84714222148264
 30
0.0
 10
16.03821222972
 20
-17.10012269364167
 30
0.0
 10
16.03821222972
 20
-17.10012269364167
 30
0.0
  0
SPLINE
  5
12E
330
70
100
AcDbEntity
  8
Livello 3
100
AcDbSpline
210
0.0
220
0.0
230
1.0
 70
    24
 71
     3
 72
     8
 73
     4
 74
     0
 42
0.000000001
 43
0.0000000001
 40
19.0
 40
19.0
 40
19.0
 40
19.0
 40
20.0
 40
20.0
 40
20.0
 40
20.0
 10
16.03821222972
 20
-17.10012269364167
 30
0.0
 10
16.03821222972
 20
-17.10012269364167
 30
0.0
 10
13.10648433229239
 20
-17.10012269364167
 30
0.0
 10
13.10648433229239
 20
-17.10012269364167
 30
0.0
  0
SPLINE
  5
12F
330
70
100
AcDbEntity
  8
Livello 3
100
AcDbSpline
210
0.0
220
0.0
230
1.0
 70
    24
 71
     3
 72
     8
 73
     4
 74
     0
 42
0.000000001
 43
0.0000000001
 40
20.0
 40
20.0
 40
20.0
 40
20.0
 40
21.0
 40
21.0
 40
21.0
 40
21.0
 10
13.10648433229239
 20
-17.10012269364167
 30
0.0
 10
13.10648433229239
 20
-17.10012269364167
 30
0.0
 10
13.12061308193194
 20
-16.82905177704277
 30
0.0
 10
13.12061308193194
 20
-16.82905177704277
 30
0.0
  0
SPLINE
  5
130
330
70
100
AcDbEntity
  8
Livello 3
100
AcDbSpline
210
0.0
220
0.0
230
1.0
 70
    24
 71
     3
 72
     8
 73
     4
 74
     0
 42
0.000000001
 43
0.0000000001
 40
21.0
 40
21.0
 40
21.0
 40
21.0
 40
22.0
 40
22.0
 40
22.0
 40
22.0
 10
13.12061308193194
 20
-16.82905177704277
 30
0.0
 10
13.12061308193194
 20
-16.82905177704277
 30
0.0
 10
13.15467730328511
 20
-16.82093436037811
 30
0.0
 10
13.15467730328511
 20
-16.82093436037811
 30
0.0
  0
SPLINE
  5
131
330
70
100
AcDbEntity
  8
Livello 3
100
AcDbSpline
210
0.0
220
0.0
230
1.0
 70
    24
 71
     3
 72
     8
 73
     4
 74
     0
 42
0.000000001
 43
0.0000000001
 40
22.0
 40
22.0
 40
22.0
 40
22.0
 40
23.0
 40
23.0
 40
23.0
 40
23.0
 10
13.15467730328511
 20
-16.82093436037811
 30
0.0
 10
13.15467730328511
 20
-16.82093436037811
 30
0.0
 10
13.16471030302915
 20
-16.62822597153737
 30
0.0
 10
13.16471030302915
 20
-16.62822597153737
 30
0.0
  0
SPLINE
  5
132
330
70
100
AcDbEntity
  8
Livello 3
100
AcDbSpline
210
0.0
220
0.0
230
1.0
 70
     8
 71
     3
 72
     8
 73
     4
 74
     0
 42
0.000000001
 43
0.0000000001
 40
23.0
 40
23.0
 40
23.0
 40
23.0
 40
24.0
 40
24.0
 40
24.0
 40
24.0
 10
13.16471030302915
 20
-16.62822597153737
 30
0.0
 10
13.16431519192811
 20
-16.57257174932911
 30
0.0
 10
13.26908666147739
 20
-16.5624717215538
 30
0.0
 10
13.30520052166716
 20
-16.55989997155447
 30
0.0
  0
SPLINE
  5
133
330
70
100
AcDbEntity
  8
Livello 3
100
AcDbSpline
210
0.0
220
0.0
230
1.0
 70
    24
 71
     3
 72
     8
 73
     4
 74
     0
 42
0.000000001
 43
0.0000000001
 40
24.0
 40
24.0
 40
24.0
 40
24.0
 40
25.0
 40
25.0
 40
25.0
 40
25.0
 10
13.30520052166716
 20
-16.55989997155447
 30
0.0
 10
13.30520052166716
 20
-16.55989997155447
 30
0.0
 10
13.38957085284803
 20
-16.55989997155447
 30
0.0
 10
13.38957085284803
 20
-16.55989997155447
 30
0.0
  0
LINE
  5
134
330
70
100
AcDbEntity
  8
Livello 3
100
AcDbLine
 10
15.99206889756388
 20
-16.84707519370491
 30
0.0
 11
15.97998666267169
 21
-16.63014155487022
 31
0.0
  0
LINE
  5
135
330
70
100
AcDbEntity
  8
Livello 3
100
AcDbLine
 10
15.61451201830727
 20
-16.63013802709247
 30
0.0
 11
15.60447549078555
 21
-16.84707519370491
 31
0.0
  0
SPLINE
  5
136
330
70
100
AcDbEntity
  8
Livello 3
100
AcDbSpline
210
0.0
220
0.0
230
1.0
 70
     8
 71
     3
 72
    14
 73
    10
 74
     0
 42
0.000000001
 43
0.0000000001
 40
0.0
 40
0.0
 40
0.0
 40
0.0
 40
1.0
 40
1.0
 40
1.0
 40
2.0
 40
2.0
 40
2.0
 40
3.0
 40
3.0
 40
3.0
 40
3.0
 10
15.64263546203423
 20
-16.5880198882141
 30
0.0
 10
15.64263546203423
 20
-16.5880198882141
 30
0.0
 10
15.63662805164641
 20
-16.59198158265758
 30
0.0
 10
15.63662805164641
 20
-16.59198158265758
 30
0.0
 10
15.61985660150426
 20
-16.60280833265486
 30
0.0
 10
15.6215746292382
 20
-16.60630788820956
 30
0.0
 10
15.61655812936618
 20
-16.62221816598333
 30
0.0
 10
15.61655812936618
 20
-16.62221816598333
 30
0.0
 10
15.61450888498526
 20
-16.63013802709247
 30
0.0
 10
15.61450888498526
 20
-16.63013802709247
 30
0.0
  0
SPLINE
  5
137
330
70
100
AcDbEntity
  8
Livello 3
100
AcDbSpline
210
0.0
220
0.0
230
1.0
 70
     8
 71
     3
 72
    23
 73
    19
 74
     0
 42
0.000000001
 43
0.0000000001
 40
0.0
 40
0.0
 40
0.0
 40
0.0
 40
1.0
 40
1.0
 40
1.0
 40
2.0
 40
2.0
 40
2.0
 40
3.0
 40
3.0
 40
3.0
 40
4.0
 40
4.0
 40
4.0
 40
5.0
 40
5.0
 40
5.0
 40
6.0
 40
6.0
 40
6.0
 40
6.0
 10
15.97998666267169
 20
-16.63013802709247
 30
0.0
 10
15.97998666267169
 20
-16.63013802709247
 30
0.0
 10
15.97800364792272
 20
-16.62221816598333
 30
0.0
 10
15.97800364792272
 20
-16.62221816598333
 30
0.0
 10
15.9729871480507
 20
-16.60630788820956
 30
0.0
 10
15.97457112023251
 20
-16.60280833265486
 30
0.0
 10
15.95787062065858
 20
-16.59198158265758
 30
0.0
 10
15.95787062065858
 20
-16.59198158265758
 30
0.0
 10
15.95192984303236
 20
-16.58802341599192
 30
0.0
 10
15.95192984303236
 20
-16.58802341599192
 30
0.0
 10
15.95192984303236
 20
-16.58802341599192
 30
0.0
 10
15.91574895506652
 20
-16.57395816599538
 30
0.0
 10
15.91574895506652
 20
-16.57395816599538
 30
0.0
 10
15.91574895506652
 20
-16.57395816599538
 30
0.0
 10
15.87759251159553
 20
-16.56392516599793
 30
0.0
 10
15.87759251159553
 20
-16.56392516599793
 30
0.0
 10
15.87759251159553
 20
-16.56392516599793
 30
0.0
 10
15.83943254034685
 20
-16.56187552710955
 30
0.0
 10
15.83943254034685
 20
-16.56187552710955
 30
0.0
  0
LWPOLYLINE
  5
138
330
70
100
AcDbEntity
  8
Livello 3
100
AcDbPolyline
 90
        4
 70
     0
 43
0.0
 10
15.75512923694205
 20
-16.56187552710955
 10
15.71690223791731
 20
-16.56392516599793
 10
15.67874579444631
 20
-16.57395816599538
 10
15.64263193425654
 20
-16.58802341599192
  0
LINE
  5
139
330
70
100
AcDbEntity
  8
Livello 3
100
AcDbLine
 10
15.75512923694205
 20
-16.56187552710955
 30
0.0
 11
15.83943254034685
 21
-16.56187552710955
 31
0.0
  0
LINE
  5
13A
330
70
100
AcDbEntity
  8
Livello 3
100
AcDbLine
 10
13.16464680303077
 20
-16.63013802709247
 30
0.0
 11
13.15461380328673
 21
-16.8209308326003
 31
0.0
  0
SPLINE
  5
13B
330
70
100
AcDbEntity
  8
Livello 3
100
AcDbSpline
210
0.0
220
0.0
230
1.0
 70
     8
 71
     3
 72
    14
 73
    10
 74
     0
 42
0.000000001
 43
0.0000000001
 40
0.0
 40
0.0
 40
0.0
 40
0.0
 40
1.0
 40
1.0
 40
1.0
 40
2.0
 40
2.0
 40
2.0
 40
3.0
 40
3.0
 40
3.0
 40
3.0
 10
13.19277024675772
 20
-16.5880198882141
 30
0.0
 10
13.19277024675772
 20
-16.5880198882141
 30
0.0
 10
13.1847833580726
 20
-16.59198158265758
 30
0.0
 10
13.1847833580726
 20
-16.59198158265758
 30
0.0
 10
13.17388958057274
 20
-16.60227916598834
 30
0.0
 10
13.16920116402569
 20
-16.60723216598712
 30
0.0
 10
13.16464680303077
 20
-16.62221816598333
 30
0.0
 10
13.16464680303077
 20
-16.62221816598333
 30
0.0
 10
13.16464680303077
 20
-16.63013802709247
 30
0.0
 10
13.16464680303077
 20
-16.63013802709247
 30
0.0
  0
LINE
  5
13C
330
70
100
AcDbEntity
  8
Livello 3
100
AcDbLine
 10
13.42165599091836
 20
-16.56392516599793
 30
0.0
 11
13.38957085284803
 21
-16.56187905488731
 31
0.0
  0
LWPOLYLINE
  5
13D
330
70
100
AcDbEntity
  8
Livello 3
100
AcDbPolyline
 90
        4
 70
     0
 43
0.0
 10
13.30520052166716
 20
-16.56187552710955
 10
13.26505793935795
 20
-16.56392516599793
 10
13.2288805791698
 20
-16.57395816599538
 10
13.19277024675772
 20
-16.58802341599192
  0
LINE
  5
13E
330
70
100
AcDbEntity
  8
Livello 3
100
AcDbLine
 10
13.30520052166716
 20
-16.56187552710955
 30
0.0
 11
13.38957085284803
 21
-16.56187552710955
 31
0.0
  0
LINE
  5
13F
330
70
100
AcDbEntity
  8
Livello 3
100
AcDbLine
 10
13.65463042941913
 20
-4.744320918952818
 30
0.0
 11
13.67067476234314
 21
-4.019376696911821
 31
0.0
  0
SPLINE
  5
140
330
70
100
AcDbEntity
  8
Livello 3
100
AcDbSpline
210
0.0
220
0.0
230
1.0
 70
     8
 71
     3
 72
    14
 73
    10
 74
     0
 42
0.000000001
 43
0.0000000001
 40
0.0
 40
0.0
 40
0.0
 40
0.0
 40
1.0
 40
1.0
 40
1.0
 40
2.0
 40
2.0
 40
2.0
 40
3.0
 40
3.0
 40
3.0
 40
3.0
 10
15.47395477189319
 20
-4.019373169134038
 30
0.0
 10
15.47395477189319
 20
-4.019373169134038
 30
0.0
 10
15.21688208400721
 20
-4.003402919138037
 30
0.0
 10
15.21688208400721
 20
-4.003402919138037
 30
0.0
 10
14.78406609504927
 20
-3.981544808032391
 30
0.0
 10
14.36056343918705
 20
-3.981347252476902
 30
0.0
 10
13.92774745022911
 20
-4.003402919138037
 30
0.0
 10
13.92774745022911
 20
-4.003402919138037
 30
0.0
 10
13.67067476234314
 20
-4.019373169134038
 30
0.0
 10
13.67067476234314
 20
-4.019373169134038
 30
0.0
  0
LINE
  5
141
330
70
100
AcDbEntity
  8
Livello 3
100
AcDbLine
 10
15.48801649375667
 20
-4.744320918952818
 30
0.0
 11
15.47395477189319
 21
-4.019376696911821
 31
0.0
  0
LINE
  5
142
330
70
100
AcDbEntity
  8
Livello 3
100
AcDbLine
 10
13.65463042941913
 20
-4.744320918952818
 30
0.0
 11
15.48801649375667
 21
-4.744320918952818
 31
0.0
  0
LWPOLYLINE
  5
143
330
70
100
AcDbEntity
  8
Livello 3
100
AcDbPolyline
 90
        4
 70
     0
 43
0.0
 10
13.52609584936499
 20
-4.744320918952818
 10
13.56220618177707
 20
-4.019376696911821
 10
13.56425229283598
 20
-4.017394085801206
 10
13.66869249658282
 20
-4.017394085801206
  0
LINE
  5
144
330
70
100
AcDbEntity
  8
Livello 3
100
AcDbLine
 10
13.67067476234314
 20
-4.019373169134038
 30
0.0
 11
13.66869249658282
 21
-4.017394085801206
 31
0.0
  0
LWPOLYLINE
  5
145
330
70
100
AcDbEntity
  8
Livello 3
100
AcDbPolyline
 90
        3
 70
     0
 43
0.0
 10
15.47395477189319
 20
-4.019373169134038
 10
15.47395477189319
 20
-4.017394085801206
 10
15.58037724140035
 20
-4.017394085801206
  0
LINE
  5
146
330
70
100
AcDbEntity
  8
Livello 3
100
AcDbLine
 10
15.58037724140035
 20
-4.019373169134038
 30
0.0
 11
15.58037724140035
 21
-4.017394085801206
 31
0.0
  0
LINE
  5
147
330
70
100
AcDbEntity
  8
Livello 3
100
AcDbLine
 10
15.61853721264903
 20
-4.744320918952818
 30
0.0
 11
15.58037724140035
 21
-4.019376696911821
 31
0.0
  0
LWPOLYLINE
  5
148
330
70
100
AcDbEntity
  8
Livello 3
100
AcDbPolyline
 90
        5
 70
     0
 43
0.0
 10
14.57235004489504
 20
-3.878822974724743
 10
14.80526098339743
 20
-3.880872613613126
 10
15.04015453296035
 20
-3.886947446944939
 10
15.27312897146113
 20
-3.898963058053031
 10
15.50808954880011
 20
-3.913021252493968
  0
LWPOLYLINE
  5
149
330
70
100
AcDbEntity
  8
Livello 3
100
AcDbPolyline
 90
        5
 70
     0
 43
0.0
 10
13.6365435132139
 20
-3.913021252493968
 10
13.86952147949236
 20
-3.898963058053031
 10
14.10441150127759
 20
-3.886947446944939
 10
14.33738946755605
 20
-3.880872613613126
 10
14.57235004489504
 20
-3.878826502502526
  0
LINE
  5
14A
330
70
100
AcDbEntity
  8
Livello 3
100
AcDbLine
 10
13.6365435132139
 20
-3.913021252493968
 30
0.0
 11
13.56425582061367
 21
-3.987291558030963
 31
0.0
  0
LINE
  5
14B
330
70
100
AcDbEntity
  8
Livello 3
100
AcDbLine
 10
13.56227320955314
 20
-4.019376696911821
 30
0.0
 11
13.56425582061367
 21
-3.987295085808746
 31
0.0
  0
LINE
  5
14C
330
70
100
AcDbEntity
  8
Livello 3
100
AcDbLine
 10
15.57839815811751
 20
-3.987291558030963
 30
0.0
 11
15.58037724140035
 21
-4.019376696911821
 31
0.0
  0
LINE
  5
14D
330
70
100
AcDbEntity
  8
Livello 3
100
AcDbLine
 10
15.58037724140035
 20
-3.987291558030963
 30
0.0
 11
15.50808954880011
 21
-3.913021252493968
 31
0.0
  0
LINE
  5
14E
330
70
100
AcDbEntity
  8
Livello 3
100
AcDbLine
 10
16.03821222972
 20
-17.10011916586385
 30
0.0
 11
16.02415050785652
 21
-16.84707519370491
 31
0.0
  0
LINE
  5
14F
330
70
100
AcDbEntity
  8
Livello 3
100
AcDbLine
 10
16.03821222972
 20
-17.10011916586385
 30
0.0
 11
15.90769503860533
 21
-17.10011916586385
 31
0.0
  0
LINE
  5
150
330
70
100
AcDbEntity
  8
Livello 3
100
AcDbLine
 10
15.89363331674185
 20
-16.84707166592716
 30
0.0
 11
15.90769503860533
 21
-17.10011916586385
 31
0.0
  0
LINE
  5
151
330
70
100
AcDbEntity
  8
Livello 3
100
AcDbLine
 10
15.89363331674185
 20
-16.84707166592716
 30
0.0
 11
16.02415050785652
 21
-16.84707166592716
 31
0.0
  0
LINE
  5
152
330
70
100
AcDbEntity
  8
Livello 3
100
AcDbLine
 10
13.24499193986988
 20
-16.82904824926495
 30
0.0
 11
13.25099974527216
 21
-16.8309638325978
 31
0.0
  0
LWPOLYLINE
  5
153
330
70
100
AcDbEntity
  8
Livello 3
100
AcDbPolyline
 90
        4
 70
     0
 43
0.0
 10
13.23693802340869
 20
-17.10011916586385
 10
13.10642083229401
 20
-17.10011916586385
 10
13.12048255415749
 20
-16.8309638325978
 10
13.24499193986988
 20
-16.82904824926495
  0
LINE
  5
154
330
70
100
AcDbEntity
  8
Livello 3
100
AcDbLine
 10
15.59443896326382
 20
-16.84707166592716
 30
0.0
 11
15.59443896326382
 21
-16.8309638325978
 31
0.0
  0
LINE
  5
155
330
70
100
AcDbEntity
  8
Livello 3
100
AcDbLine
 10
15.89363331674185
 20
-16.84707166592716
 30
0.0
 11
15.59443896326382
 21
-16.84707166592716
 31
0.0
  0
LINE
  5
156
330
70
100
AcDbEntity
  8
Livello 3
100
AcDbLine
 10
13.23693802340869
 20
-17.10011916586385
 30
0.0
 11
15.90769503860533
 21
-17.10011916586385
 31
0.0
  0
LINE
  5
157
330
70
100
AcDbEntity
  8
Livello 3
100
AcDbLine
 10
15.59443896326382
 20
-16.8309638325978
 30
0.0
 11
13.25099974527216
 21
-16.8309638325978
 31
0.0
  0
LINE
  5
158
330
70
100
AcDbEntity
  8
Livello 3
100
AcDbLine
 10
15.59443896326382
 20
-16.7506857215068
 30
0.0
 11
15.59642157432435
 21
-16.7506857215068
 31
0.0
  0
LINE
  5
159
330
70
100
AcDbEntity
  8
Livello 3
100
AcDbLine
 10
15.59443896326382
 20
-16.7506857215068
 30
0.0
 11
13.55025759874857
 21
-16.7506857215068
 31
0.0
  0
LINE
  5
15A
330
70
100
AcDbEntity
  8
Livello 3
100
AcDbLine
 10
15.59443896326382
 20
-16.8309638325978
 30
0.0
 11
15.59443896326382
 21
-16.7506857215068
 31
0.0
  0
LINE
  5
15B
330
70
100
AcDbEntity
  8
Livello 3
100
AcDbLine
 10
13.54616537663075
 20
-16.74863961039617
 30
0.0
 11
13.41967337985783
 21
-16.7506857215068
 31
0.0
  0
LINE
  5
15C
330
70
100
AcDbEntity
  8
Livello 3
100
AcDbLine
 10
13.12048255415749
 20
-16.8309638325978
 30
0.0
 11
13.41967337985783
 21
-16.7506857215068
 31
0.0
  0
LINE
  5
15D
330
70
100
AcDbEntity
  8
Livello 3
100
AcDbLine
 10
15.59443896326382
 20
-16.7506857215068
 30
0.0
 11
15.50214524339621
 21
-6.252435335242465
 31
0.0
  0
LINE
  5
15E
330
70
100
AcDbEntity
  8
Livello 3
100
AcDbLine
 10
13.55025759874857
 20
-16.7506857215068
 30
0.0
 11
13.64261481861456
 21
-6.252435335242465
 31
0.0
  0
LWPOLYLINE
  5
15F
330
70
100
AcDbEntity
  8
Livello 3
100
AcDbPolyline
 90
        4
 70
     0
 43
0.0
 10
13.41967337985783
 20
-16.7506857215068
 10
13.51203412750151
 20
-6.252435335242465
 10
15.6325989345125
 20
-6.252435335242465
 10
15.72093096003674
 20
-16.56392163822012
  0
LWPOLYLINE
  5
160
330
70
100
AcDbEntity
  8
Livello 3
100
AcDbPolyline
 90
        3
 70
     0
 43
0.0
 10
16.02415050785652
 20
-16.84707166592716
 10
16.02415050785652
 20
-16.8309638325978
 10
15.98995223095122
 20
-16.82092730482255
  0
LINE
  5
161
330
70
100
AcDbEntity
  8
Livello 3
100
AcDbLine
 10
15.37842999615542
 20
-4.744320918952818
 30
0.0
 11
15.32336805351275
 21
-6.252438863020218
 31
0.0
  0
LINE
  5
162
330
70
100
AcDbEntity
  8
Livello 3
100
AcDbLine
 10
13.76633398212489
 20
-4.744320918952818
 30
0.0
 11
13.82132850849964
 21
-6.252438863020218
 31
0.0
  0
LWPOLYLINE
  5
163
330
70
100
AcDbEntity
  8
Livello 3
100
AcDbPolyline
 90
        4
 70
     0
 43
0.0
 10
15.63272946228695
 20
-6.252435335242465
 10
15.61853368487134
 20
-4.744320918952818
 10
15.49006260481557
 20
-4.744320918952818
 10
15.50201471562176
 20
-6.252435335242465
  0
LINE
  5
164
330
70
100
AcDbEntity
  8
Livello 3
100
AcDbLine
 10
13.82132850849964
 20
-6.252435335242465
 30
0.0
 11
14.33131499641717
 21
-5.105904029973537
 31
0.0
  0
LINE
  5
165
330
70
100
AcDbEntity
  8
Livello 3
100
AcDbLine
 10
13.86753886843183
 20
-4.744320918952818
 30
0.0
 11
14.33131499641717
 21
-5.105904029973537
 31
0.0
  0
LINE
  5
166
330
70
100
AcDbEntity
  8
Livello 3
100
AcDbLine
 10
14.81337839985701
 20
-5.105900502195752
 30
0.0
 11
14.33131499641717
 21
-5.105900502195752
 31
0.0
  0
LINE
  5
167
330
70
100
AcDbEntity
  8
Livello 3
100
AcDbLine
 10
15.32336805351275
 20
-6.252435335242465
 30
0.0
 11
14.81337839985701
 21
-5.105904029973537
 31
0.0
  0
LINE
  5
168
330
70
100
AcDbEntity
  8
Livello 3
100
AcDbLine
 10
15.2770906658045
 20
-4.744320918952818
 30
0.0
 11
14.81337839985701
 21
-5.105904029973537
 31
0.0
  0
LWPOLYLINE
  5
169
330
70
100
AcDbEntity
  8
Livello 3
100
AcDbPolyline
 90
        4
 70
     0
 43
0.0
 10
13.64261481861456
 20
-6.252435335242465
 10
13.65463042941913
 20
-4.744320918952818
 10
13.52602916328516
 20
-4.744320918952818
 10
13.51203059972382
 20
-6.252435335242465
  0
INSERT
  5
16A
330
70
100
AcDbEntity
  8
Livello 3
100
AcDbBlockReference
  2
Block_2
 10
0.0
 20
0.0
 30
0.0
  0
INSERT
  5
16B
330
70
100
AcDbEntity
  8
Livello 3
100
AcDbBlockReference
  2
Block_4
 10
0.0
 20
0.0
 30
0.0
  0
ENDSEC
  0
SECTION
  2
OBJECTS
  0
DICTIONARY
  5
C
330
0
100
AcDbDictionary
281
     1
  3
ACAD_CIP_PREVIOUS_PRODUCT_INFO
350
118
  3
ACAD_COLOR
350
63
  3
ACAD_DETAILVIEWSTYLE
350
6A
  3
ACAD_GROUP
350
D
  3
ACAD_LAYOUT
350
62
  3
ACAD_MATERIAL
350
10
  3
ACAD_MLEADERSTYLE
350
66
  3
ACAD_MLINESTYLE
350
5F
  3
ACAD_PLOTSETTINGS
350
61
  3
ACAD_PLOTSTYLENAME
350
E
  3
ACAD_SCALELIST
350
42
  3
ACAD_SECTIONVIEWSTYLE
350
68
  3
ACAD_TABLESTYLE
350
64
  3
ACAD_VISUALSTYLE
350
29
  3
ACDB_RECOMPOSE_DATA
350
174
  3
AcDbVariableDictionary
350
D5
  0
DICTIONARY
  5
119
330
70
100
AcDbDictionary
280
     1
281
     1
  3
ACAD_SORTENTS
360
11A
  0
XRECORD
  5
118
102
{ACAD_REACTORS
330
C
102
}
330
C
100
AcDbXrecord
280
     1
300
ACD
300
2019
300
ACD_F_S
  0
DICTIONARY
  5
63
102
{ACAD_REACTORS
330
C
102
}
330
C
100
AcDbDictionary
281
     1
  0
DICTIONARY
  5
6A
102
{ACAD_REACTORS
330
C
102
}
330
C
100
AcDbDictionary
281
     1
  3
Imperial24
350
6B
  0
DICTIONARY
  5
D
102
{ACAD_REACTORS
330
C
102
}
330
C
100
AcDbDictionary
281
     1
  0
DICTIONARY
  5
62
102
{ACAD_REACTORS
330
C
102
}
330
C
100
AcDbDictionary
281
     1
  3
Layout1
350
6F
  3
Layout2
350
77
  3
Model
350
73
  0
DICTIONARY
  5
10
102
{ACAD_REACTORS
330
C
102
}
330
C
100
AcDbDictionary
281
     1
  3
ByBlock
350
19
  3
ByLayer
350
11
  3
Global
350
21
  0
DICTIONARY
  5
66
102
{ACAD_REACTORS
330
C
102
}
330
C
100
AcDbDictionary
281
     1
  3
Standard
350
67
  0
DICTIONARY
  5
5F
102
{ACAD_REACTORS
330
C
102
}
330
C
100
AcDbDictionary
281
     1
  3
Standard
350
60
  0
DICTIONARY
  5
61
102
{ACAD_REACTORS
330
C
102
}
330
C
100
AcDbDictionary
281
     1
  0
ACDBDICTIONARYWDFLT
  5
E
102
{ACAD_REACTORS
330
C
102
}
330
C
100
AcDbDictionary
281
     1
  3
Normal
350
F
100
AcDbDictionaryWithDefault
340
F
  0
DICTIONARY
  5
42
102
{ACAD_REACTORS
330
C
102
}
330
C
100
AcDbDictionary
281
     1
  3
A0
350
43
  3
A1
350
44
  3
A2
350
45
  3
A3
350
46
  3
A4
350
47
  3
A5
350
48
  3
A6
350
49
  3
A7
350
4A
  3
A8
350
4B
  3
A9
350
4C
  3
B0
350
4D
  3
B1
350
4E
  3
B2
350
4F
  3
B3
350
50
  3
B4
350
51
  3
B5
350
52
  3
B6
350
53
  0
DICTIONARY
  5
68
102
{ACAD_REACTORS
330
C
102
}
330
C
100
AcDbDictionary
281
     1
  3
Imperial24
350
69
  0
DICTIONARY
  5
64
102
{ACAD_REACTORS
330
C
102
}
330
C
100
AcDbDictionary
281
     1
  3
Standard
350
65
  0
DICTIONARY
  5
29
102
{ACAD_REACTORS
330
C
102
}
330
C
100
AcDbDictionary
281
     1
  3
2dWireframe
350
2F
  3
Basic
350
2E
  3
Brighten
350
35
  3
ColorChange
350
39
  3
Conceptual
350
32
  3
Dim
350
34
  3
EdgeColorOff
350
41
  3
Facepattern
350
38
  3
Flat
350
2A
  3
FlatWithEdges
350
2B
  3
Gouraud
350
2C
  3
GouraudWithEdges
350
2D
  3
Hidden
350
31
  3
JitterOff
350
3F
  3
Linepattern
350
37
  3
OverhangOff
350
40
  3
Realistic
350
33
  3
Shaded
350
3E
  3
Shaded with edges
350
3D
  3
Shades of Gray
350
3A
  3
Sketchy
350
3B
  3
Thicken
350
36
  3
Wireframe
350
30
  3
X-Ray
350
3C
  0
XRECORD
  5
174
102
{ACAD_REACTORS
330
C
102
}
330
C
100
AcDbXrecord
280
     1
 90
        1
330
65
  0
DICTIONARY
  5
D5
102
{ACAD_REACTORS
330
C
102
}
330
C
100
AcDbDictionary
281
     1
  3
CANNOSCALE
350
DA
  3
CMLEADERSTYLE
350
D7
  3
CTABLESTYLE
350
D6
  3
CVIEWDETAILSTYLE
350
D8
  3
CVIEWSECTIONSTYLE
350
D9
  0
SORTENTSTABLE
  5
11A
102
{ACAD_REACTORS
330
119
102
}
330
119
100
AcDbSortentsTable
330
70
331
B4
  5
168
331
B5
  5
169
331
11B
  5
B4
331
11C
  5
B5
331
11D
  5
11B
331
11E
  5
11C
331
11F
  5
11D
331
120
  5
11E
331
121
  5
11F
331
122
  5
120
331
123
  5
121
331
124
  5
122
331
125
  5
123
331
126
  5
124
331
127
  5
125
331
128
  5
126
331
129
  5
127
331
12A
  5
128
331
12B
  5
129
331
12C
  5
12A
331
12D
  5
12B
331
12E
  5
12C
331
12F
  5
12D
331
130
  5
12E
331
131
  5
12F
331
132
  5
130
331
133
  5
131
331
134
  5
132
331
135
  5
133
331
136
  5
134
331
137
  5
135
331
138
  5
136
331
139
  5
137
331
13A
  5
138
331
13B
  5
139
331
13C
  5
13A
331
13D
  5
13B
331
13E
  5
13C
331
13F
  5
13D
331
140
  5
13E
331
141
  5
13F
331
142
  5
140
331
143
  5
141
331
144
  5
142
331
145
  5
143
331
146
  5
144
331
147
  5
145
331
148
  5
146
331
149
  5
147
331
14A
  5
148
331
14B
  5
149
331
14C
  5
14A
331
14D
  5
14B
331
14E
  5
14C
331
14F
  5
14D
331
150
  5
14E
331
151
  5
14F
331
152
  5
150
331
153
  5
151
331
154
  5
152
331
155
  5
153
331
156
  5
154
331
157
  5
155
331
158
  5
156
331
159
  5
157
331
15A
  5
158
331
15B
  5
159
331
15C
  5
15A
331
15D
  5
15B
331
15E
  5
15C
331
15F
  5
15D
331
160
  5
15E
331
161
  5
15F
331
162
  5
160
331
163
  5
161
331
164
  5
162
331
165
  5
163
331
166
  5
164
331
167
  5
165
331
168
  5
166
331
169
  5
167
  0
ACDBDETAILVIEWSTYLE
  5
6B
102
{ACAD_XDICTIONARY
360
177
102
}
102
{ACAD_REACTORS
330
6A
102
}
330
6A
100
AcDbModelDocViewStyle
 70
     0
  3
Imperial24
290
     0
100
AcDbDetailViewStyle
 70
     0
 71
     0
 90
        3
 71
     1
340
55
 62
   256
 40
0.24
340
0
 62
   256
 40
0.24
300

 40
0.36
280
     3
 71
     2
340
5D
 90
       25
 62
   256
 71
     3
340
55
 62
   256
 40
0.24
 90
        1
 40
0.75
 90
        1
300
%<\AcVar ViewType \f "%tc1">% %<\AcVar ViewDetailId>%\PSCALE %<\AcVar ViewScale \f "%sn">%
 71
     4
340
5D
 90
       25
 62
   256
340
5D
 90
       25
 62
   256
280
     0
  0
LAYOUT
  5
6F
102
{ACAD_REACTORS
330
62
102
}
330
62
100
AcDbPlotSettings
  1

  2

  4

  6

 40
0.0
 41
0.0
 42
0.0
 43
0.0
 44
0.0
 45
0.0
 46
0.0
 47
0.0
 48
0.0
 49
0.0
140
0.0
141
0.0
142
1.0
143
1.0
 70
   688
 72
     0
 73
     0
 74
     5
  7

 75
    16
147
1.0
 76
     0
 77
     2
 78
   300
148
0.0
149
0.0
100
AcDbLayout
  1
Layout1
 70
     1
 71
     1
 10
0.0
 20
0.0
 11
12.0
 21
9.0
 12
0.0
 22
0.0
 32
0.0
 14
1.000000000000000E+20
 24
1.000000000000000E+20
 34
1.000000000000000E+20
 15
-1.000000000000000E+20
 25
-1.000000000000000E+20
 35
-1.000000000000000E+20
146
0.0
 13
0.0
 23
0.0
 33
0.0
 16
1.0
 26
0.0
 36
0.0
 17
0.0
 27
1.0
 37
0.0
 76
     0
330
6C
  0
LAYOUT
  5
77
102
{ACAD_REACTORS
330
62
102
}
330
62
100
AcDbPlotSettings
  1

  2

  4

  6

 40
0.0
 41
0.0
 42
0.0
 43
0.0
 44
0.0
 45
0.0
 46
0.0
 47
0.0
 48
0.0
 49
0.0
140
0.0
141
0.0
142
1.0
143
1.0
 70
   688
 72
     0
 73
     0
 74
     5
  7

 75
    16
147
1.0
 76
     0
 77
     2
 78
   300
148
0.0
149
0.0
100
AcDbLayout
  1
Layout2
 70
     1
 71
     2
 10
0.0
 20
0.0
 11
12.0
 21
9.0
 12
0.0
 22
0.0
 32
0.0
 14
0.0
 24
0.0
 34
0.0
 15
0.0
 25
0.0
 35
0.0
146
0.0
 13
0.0
 23
0.0
 33
0.0
 16
1.0
 26
0.0
 36
0.0
 17
0.0
 27
1.0
 37
0.0
 76
     0
330
74
  0
LAYOUT
  5
73
102
{ACAD_REACTORS
330
62
102
}
330
62
100
AcDbPlotSettings
  1

  2

  4

  6

 40
0.0
 41
0.0
 42
0.0
 43
0.0
 44
0.0
 45
0.0
 46
0.0
 47
0.0
 48
0.0
 49
0.0
140
0.0
141
0.0
142
1.0
143
1.0
 70
  1712
 72
     0
 73
     0
 74
     0
  7

 75
     0
147
1.0
 76
     0
 77
     2
 78
   300
148
0.0
149
0.0
100
AcDbLayout
  1
Model
 70
     1
 71
     0
 10
0.0
 20
0.0
 11
12.0
 21
9.0
 12
0.0
 22
0.0
 32
0.0
 14
0.0
 24
0.0
 34
0.0
 15
0.0
 25
0.0
 35
0.0
146
0.0
 13
0.0
 23
0.0
 33
0.0
 16
1.0
 26
0.0
 36
0.0
 17
0.0
 27
1.0
 37
0.0
 76
     0
330
70
331
57
  0
MATERIAL
  5
19
102
{ACAD_XDICTIONARY
360
1A
102
}
102
{ACAD_REACTORS
330
10
102
}
330
10
100
AcDbMaterial
  1
ByBlock
 72
     0
 43
0.0208333333333333
 43
0.0
 43
0.0
 43
0.0
 43
0.0
 43
0.0208333333333333
 43
0.0
 43
0.0
 43
0.0
 43
0.0
 43
1.0
 43
0.0
 43
0.0
 43
0.0
 43
0.0
 43
1.0
 77
     0
 47
0.0208333333333333
 47
0.0
 47
0.0
 47
0.0
 47
0.0
 47
0.0208333333333333
 47
0.0
 47
0.0
 47
0.0
 47
0.0
 47
1.0
 47
0.0
 47
0.0
 47
0.0
 47
0.0
 47
1.0
171
     0
 49
0.0208333333333333
 49
0.0
 49
0.0
 49
0.0
 49
0.0
 49
0.0208333333333333
 49
0.0
 49
0.0
 49
0.0
 49
0.0
 49
1.0
 49
0.0
 49
0.0
 49
0.0
 49
0.0
 49
1.0
175
     0
142
0.0208333333333333
142
0.0
142
0.0
142
0.0
142
0.0
142
0.0208333333333333
142
0.0
142
0.0
142
0.0
142
0.0
142
1.0
142
0.0
142
0.0
142
0.0
142
0.0
142
1.0
179
     0
144
0.0208333333333333
144
0.0
144
0.0
144
0.0
144
0.0
144
0.0208333333333333
144
0.0
144
0.0
144
0.0
144
0.0
144
1.0
144
0.0
144
0.0
144
0.0
144
0.0
144
1.0
147
0.0208333333333333
147
0.0
147
0.0
147
0.0
147
0.0
147
0.0208333333333333
147
0.0
147
0.0
147
0.0
147
0.0
147
1.0
147
0.0
147
0.0
147
0.0
147
0.0
147
1.0
  0
MATERIAL
  5
11
102
{ACAD_XDICTIONARY
360
12
102
}
102
{ACAD_REACTORS
330
10
102
}
330
10
100
AcDbMaterial
  1
ByLayer
 72
     0
 43
0.0208333333333333
 43
0.0
 43
0.0
 43
0.0
 43
0.0
 43
0.0208333333333333
 43
0.0
 43
0.0
 43
0.0
 43
0.0
 43
1.0
 43
0.0
 43
0.0
 43
0.0
 43
0.0
 43
1.0
 77
     0
 47
0.0208333333333333
 47
0.0
 47
0.0
 47
0.0
 47
0.0
 47
0.0208333333333333
 47
0.0
 47
0.0
 47
0.0
 47
0.0
 47
1.0
 47
0.0
 47
0.0
 47
0.0
 47
0.0
 47
1.0
171
     0
 49
0.0208333333333333
 49
0.0
 49
0.0
 49
0.0
 49
0.0
 49
0.0208333333333333
 49
0.0
 49
0.0
 49
0.0
 49
0.0
 49
1.0
 49
0.0
 49
0.0
 49
0.0
 49
0.0
 49
1.0
175
     0
142
0.0208333333333333
142
0.0
142
0.0
142
0.0
142
0.0
142
0.0208333333333333
142
0.0
142
0.0
142
0.0
142
0.0
142
1.0
142
0.0
142
0.0
142
0.0
142
0.0
142
1.0
179
     0
144
0.0208333333333333
144
0.0
144
0.0
144
0.0
144
0.0
144
0.0208333333333333
144
0.0
144
0.0
144
0.0
144
0.0
144
1.0
144
0.0
144
0.0
144
0.0
144
0.0
144
1.0
147
0.0208333333333333
147
0.0
147
0.0
147
0.0
147
0.0
147
0.0208333333333333
147
0.0
147
0.0
147
0.0
147
0.0
147
1.0
147
0.0
147
0.0
147
0.0
147
0.0
147
1.0
  0
MATERIAL
  5
21
102
{ACAD_XDICTIONARY
360
22
102
}
102
{ACAD_REACTORS
330
10
102
}
330
10
100
AcDbMaterial
  1
Global
 72
     0
 43
0.0208333333333333
 43
0.0
 43
0.0
 43
0.0
 43
0.0
 43
0.0208333333333333
 43
0.0
 43
0.0
 43
0.0
 43
0.0
 43
1.0
 43
0.0
 43
0.0
 43
0.0
 43
0.0
 43
1.0
 77
     0
 47
0.0208333333333333
 47
0.0
 47
0.0
 47
0.0
 47
0.0
 47
0.0208333333333333
 47
0.0
 47
0.0
 47
0.0
 47
0.0
 47
1.0
 47
0.0
 47
0.0
 47
0.0
 47
0.0
 47
1.0
171
     0
 49
0.0208333333333333
 49
0.0
 49
0.0
 49
0.0
 49
0.0
 49
0.0208333333333333
 49
0.0
 49
0.0
 49
0.0
 49
0.0
 49
1.0
 49
0.0
 49
0.0
 49
0.0
 49
0.0
 49
1.0
175
     0
142
0.0208333333333333
142
0.0
142
0.0
142
0.0
142
0.0
142
0.0208333333333333
142
0.0
142
0.0
142
0.0
142
0.0
142
1.0
142
0.0
142
0.0
142
0.0
142
0.0
142
1.0
179
     0
144
0.0208333333333333
144
0.0
144
0.0
144
0.0
144
0.0
144
0.0208333333333333
144
0.0
144
0.0
144
0.0
144
0.0
144
1.0
144
0.0
144
0.0
144
0.0
144
0.0
144
1.0
147
0.0208333333333333
147
0.0
147
0.0
147
0.0
147
0.0
147
0.0208333333333333
147
0.0
147
0.0
147
0.0
147
0.0
147
1.0
147
0.0
147
0.0
147
0.0
147
0.0
147
1.0
  0
MLEADERSTYLE
  5
67
102
{ACAD_REACTORS
330
66
102
}
330
66
100
AcDbMLeaderStyle
179
     2
170
     2
171
     1
172
     0
 90
        2
 40
0.0
 41
0.0
173
     1
 91
-1056964608
340
5B
 92
       -2
290
     1
 42
0.09
291
     1
 43
0.36
  3
Standard
 44
0.18
300

342
55
174
     1
178
     6
175
     1
176
     0
 93
-1056964608
 45
0.18
292
     0
297
     0
 46
0.18
 94
-1056964608
 47
1.0
 49
1.0
140
1.0
293
     1
141
0.0
294
     1
177
     0
142
1.0
295
     0
296
     0
143
0.125
271
     0
272
     9
273
     9
298
     1
  0
MLINESTYLE
  5
60
102
{ACAD_REACTORS
330
5F
102
}
330
5F
100
AcDbMlineStyle
  2
STANDARD
 70
     0
  3

 62
   256
 51
90.0
 52
90.0
 71
     2
 49
0.5
 62
   256
  6
BYLAYER
 49
-0.5
 62
   256
  6
BYLAYER
  0
ACDBPLACEHOLDER
  5
F
102
{ACAD_REACTORS
330
E
102
}
330
E
  0
SCALE
  5
43
102
{ACAD_REACTORS
330
42
102
}
330
42
100
AcDbScale
 70
     0
300
1:1
140
1.0
141
1.0
290
     1
  0
SCALE
  5
44
102
{ACAD_REACTORS
330
42
102
}
330
42
100
AcDbScale
 70
     0
300
1/128" = 1'-0"
140
0.0078125
141
12.0
290
     0
  0
SCALE
  5
45
102
{ACAD_REACTORS
330
42
102
}
330
42
100
AcDbScale
 70
     0
300
1/64" = 1'-0"
140
0.015625
141
12.0
290
     0
  0
SCALE
  5
46
102
{ACAD_REACTORS
330
42
102
}
330
42
100
AcDbScale
 70
     0
300
1/32" = 1'-0"
140
0.03125
141
12.0
290
     0
  0
SCALE
  5
47
102
{ACAD_REACTORS
330
42
102
}
330
42
100
AcDbScale
 70
     0
300
1/16" = 1'-0"
140
0.0625
141
12.0
290
     0
  0
SCALE
  5
48
102
{ACAD_REACTORS
330
42
102
}
330
42
100
AcDbScale
 70
     0
300
3/32" = 1'-0"
140
0.09375
141
12.0
290
     0
  0
SCALE
  5
49
102
{ACAD_REACTORS
330
42
102
}
330
42
100
AcDbScale
 70
     0
300
1/8" = 1'-0"
140
0.125
141
12.0
290
     0
  0
SCALE
  5
4A
102
{ACAD_REACTORS
330
42
102
}
330
42
100
AcDbScale
 70
     0
300
3/16" = 1'-0"
140
0.1875
141
12.0
290
     0
  0
SCALE
  5
4B
102
{ACAD_REACTORS
330
42
102
}
330
42
100
AcDbScale
 70
     0
300
1/4" = 1'-0"
140
0.25
141
12.0
290
     0
  0
SCALE
  5
4C
102
{ACAD_REACTORS
330
42
102
}
330
42
100
AcDbScale
 70
     0
300
3/8" = 1'-0"
140
0.375
141
12.0
290
     0
  0
SCALE
  5
4D
102
{ACAD_REACTORS
330
42
102
}
330
42
100
AcDbScale
 70
     0
300
1/2" = 1'-0"
140
0.5
141
12.0
290
     0
  0
SCALE
  5
4E
102
{ACAD_REACTORS
330
42
102
}
330
42
100
AcDbScale
 70
     0
300
3/4" = 1'-0"
140
0.75
141
12.0
290
     0
  0
SCALE
  5
4F
102
{ACAD_REACTORS
330
42
102
}
330
42
100
AcDbScale
 70
     0
300
1" = 1'-0"
140
1.0
141
12.0
290
     0
  0
SCALE
  5
50
102
{ACAD_REACTORS
330
42
102
}
330
42
100
AcDbScale
 70
     0
300
1-1/2" = 1'-0"
140
1.5
141
12.0
290
     0
  0
SCALE
  5
51
102
{ACAD_REACTORS
330
42
102
}
330
42
100
AcDbScale
 70
     0
300
3" = 1'-0"
140
3.0
141
12.0
290
     0
  0
SCALE
  5
52
102
{ACAD_REACTORS
330
42
102
}
330
42
100
AcDbScale
 70
     0
300
6" = 1'-0"
140
6.0
141
12.0
290
     0
  0
SCALE
  5
53
102
{ACAD_REACTORS
330
42
102
}
330
42
100
AcDbScale
 70
     0
300
1'-0" = 1'-0"
140
12.0
141
12.0
290
     0
  0
ACDBSECTIONVIEWSTYLE
  5
69
102
{ACAD_XDICTIONARY
360
175
102
}
102
{ACAD_REACTORS
330
68
102
}
330
68
100
AcDbModelDocViewStyle
 70
     0
  3
Imperial24
290
     0
100
AcDbSectionViewStyle
 70
     0
 71
     0
 90
       78
 71
     1
340
55
 62
   256
 40
0.24
340
0
340
0
 62
   256
 40
0.24
300
I, O, Q, S, X, Z
 40
0.48
 90
        3
 40
0.18
 90
        1
 71
     2
340
5D
 90
       25
 62
   256
340
5D
 90
       50
 62
   256
 40
0.24
 40
0.0
 40
0.24
 71
     3
340
55
 62
   256
 40
0.24
 90
        1
 40
0.75
 90
        1
300
%<\AcVar ViewType \f "%tc1">% %<\AcVar ViewSectionStartId>%-%<\AcVar ViewSectionEndId>%\PSCALE %<\AcVar ViewScale \f "%sn">%
 71
     4
 62
   256
 62
   257
300
ANSI31
 40
1.0
 90
        0
290
     0
290
     0
 90
        6
 40
0.0
 40
1.570796326794896
 40
0.2617993877991494
 40
1.308996938995747
 40
-0.2617993877991494
 40
1.832595714594045
  0
TABLESTYLE
  5
65
102
{ACAD_XDICTIONARY
360
DB
102
}
102
{ACAD_REACTORS
330
64
102
}
330
64
100
AcDbTableStyle
280
     0
  3
Standard
 70
     0
 71
     0
 40
0.06
 41
0.06
280
     0
281
     0
  7
Standard
140
0.18
170
     2
 62
     0
 63
     7
283
     0
 90
      512
 91
        0
  1

274
    -2
284
     1
 64
     0
275
    -2
285
     1
 65
     0
276
    -2
286
     1
 66
     0
277
    -2
287
     1
 67
     0
278
    -2
288
     1
 68
     0
279
    -2
289
     1
 69
     0
  7
Standard
140
0.25
170
     5
 62
     0
 63
     7
283
     0
 90
      512
 91
        0
  1

274
    -2
284
     1
 64
     0
275
    -2
285
     1
 65
     0
276
    -2
286
     1
 66
     0
277
    -2
287
     1
 67
     0
278
    -2
288
     1
 68
     0
279
    -2
289
     1
 69
     0
  7
Standard
140
0.18
170
     5
 62
     0
 63
     7
283
     0
 90
      512
 91
        0
  1

274
    -2
284
     1
 64
     0
275
    -2
285
     1
 65
     0
276
    -2
286
     1
 66
     0
277
    -2
287
     1
 67
     0
278
    -2
288
     1
 68
     0
279
    -2
289
     1
 69
     0
  0
VISUALSTYLE
  5
2F
102
{ACAD_REACTORS
330
29
102
}
330
29
100
AcDbVisualStyle
  2
2dWireframe
 70
     4
177
     3
291
     0
 70
    58
 90
        0
176
     1
 90
        2
176
     1
 90
        0
176
     1
 90
        0
176
     1
 40
0.6
176
     1
 40
30.0
176
     1
 62
     7
420
 16777215
176
     1
 90
        1
176
     1
 90
        4
176
     1
 62
     7
176
     1
 62
   257
176
     1
 90
        1
176
     1
 90
        1
176
     1
 40
1.0
176
     1
 90
        0
176
     1
 62
   257
176
     1
 40
1.0
176
     1
 90
        1
176
     1
 90
        6
176
     1
 90
        2
176
     1
 62
     7
176
     1
 90
        5
176
     1
 90
        0
176
     1
 90
        0
176
     1
290
     0
176
     1
 90
        1
176
     1
 40
0.0
176
     1
 90
        0
176
     1
290
     1
176
     1
290
     1
176
     1
290
     0
176
     1
290
     0
176
     1
290
     0
176
     1
290
     0
176
     1
290
     0
176
     1
290
     0
176
     1
290
     0
176
     1
 90
       50
176
     1
 40
0.0
176
     1
 40
1.0
176
     1
 90
        0
176
     1
 62
    18
420
        0
176
     1
 90
       50
176
     1
 90
        3
176
     1
 62
     5
420
      255
176
     1
290
     0
176
     1
 90
       50
176
     1
 90
       50
176
     1
 90
       50
176
     1
290
     0
176
     1
 90
       50
176
     1
 62
   256
176
     0
 40
1.0
176
     0
 90
        2
176
     1
  1
strokes_ogs.tif
176
     1
290
     0
176
     1
 40
1.0
176
     1
 40
1.0
176
     1
1001
ACAD
1000
AcDbSavedByObjectVersion
1070
     0
  0
VISUALSTYLE
  5
2E
102
{ACAD_REACTORS
330
29
102
}
330
29
100
AcDbVisualStyle
  2
Basic
 70
     7
177
     3
291
     1
 70
    58
 90
        1
176
     1
 90
        0
176
     1
 90
        1
176
     1
 90
        0
176
     1
 40
0.6
176
     1
 40
30.0
176
     1
 62
     7
420
 16777215
176
     1
 90
        0
176
     1
 90
        4
176
     1
 62
     7
176
     1
 62
   257
176
     1
 90
        1
176
     1
 90
        1
176
     1
 40
1.0
176
     1
 90
        8
176
     1
 62
     7
176
     1
 40
1.0
176
     1
 90
        1
176
     1
 90
        6
176
     1
 90
        2
176
     1
 62
     7
176
     1
 90
        5
176
     1
 90
        0
176
     1
 90
        0
176
     1
290
     0
176
     1
 90
        1
176
     1
 40
0.0
176
     1
 90
        0
176
     1
290
     0
176
     1
290
     1
176
     1
290
     1
176
     1
290
     0
176
     1
290
     0
176
     1
290
     0
176
     1
290
     0
176
     1
290
     0
176
     1
290
     0
176
     1
 90
       50
176
     1
 40
0.0
176
     1
 40
1.0
176
     1
 90
        0
176
     1
 62
    18
420
        0
176
     1
 90
       50
176
     1
 90
        3
176
     1
 62
     5
420
      255
176
     1
290
     0
176
     1
 90
       50
176
     1
 90
       50
176
     1
 90
       50
176
     1
290
     0
176
     1
 90
       50
176
     1
 62
   256
176
     0
 40
1.0
176
     0
 90
        2
176
     1
  1
strokes_ogs.tif
176
     1
290
     0
176
     1
 40
1.0
176
     1
 40
1.0
176
     1
1001
ACAD
1000
AcDbSavedByObjectVersion
1070
     0
  0
VISUALSTYLE
  5
35
102
{ACAD_REACTORS
330
29
102
}
330
29
100
AcDbVisualStyle
  2
Brighten
 70
    12
177
     3
291
     1
 70
    58
 90
        2
176
     1
 90
        2
176
     1
 90
        0
176
     1
 90
        0
176
     1
 40
0.6
176
     1
 40
30.0
176
     1
 62
     7
420
 16777215
176
     1
 90
        1
176
     1
 90
        4
176
     1
 62
     7
176
     1
 62
   257
176
     1
 90
        1
176
     1
 90
        1
176
     1
 40
1.0
176
     1
 90
        8
176
     1
 62
     7
176
     1
 40
1.0
176
     1
 90
        1
176
     1
 90
        6
176
     1
 90
        2
176
     1
 62
     7
176
     1
 90
        5
176
     1
 90
        0
176
     1
 90
        0
176
     1
290
     0
176
     1
 90
        1
176
     1
 40
50.0
176
     1
 90
        0
176
     1
290
     0
176
     1
290
     1
176
     1
290
     1
176
     1
290
     0
176
     1
290
     0
176
     1
290
     0
176
     1
290
     0
176
     1
290
     0
176
     1
290
     0
176
     1
 90
       50
176
     1
 40
0.0
176
     1
 40
1.0
176
     1
 90
        0
176
     1
 62
    18
420
        0
176
     1
 90
       50
176
     1
 90
        3
176
     1
 62
     5
420
      255
176
     1
290
     0
176
     1
 90
       50
176
     1
 90
       50
176
     1
 90
       50
176
     1
290
     0
176
     1
 90
       50
176
     1
 62
   256
176
     0
 40
1.0
176
     0
 90
        2
176
     1
  1
strokes_ogs.tif
176
     1
290
     0
176
     1
 40
1.0
176
     1
 40
1.0
176
     1
1001
ACAD
1000
AcDbSavedByObjectVersion
1070
     0
  0
VISUALSTYLE
  5
39
102
{ACAD_REACTORS
330
29
102
}
330
29
100
AcDbVisualStyle
  2
ColorChange
 70
    16
177
     3
291
     1
 70
    58
 90
        2
176
     1
 90
        2
176
     1
 90
        3
176
     1
 90
        0
176
     1
 40
0.6
176
     1
 40
30.0
176
     1
 62
     8
420
  8421504
176
     1
 90
        1
176
     1
 90
        4
176
     1
 62
     7
176
     1
 62
   257
176
     1
 90
        1
176
     1
 90
        1
176
     1
 40
1.0
176
     1
 90
        8
176
     1
 62
     8
420
  8421504
176
     1
 40
1.0
176
     1
 90
        1
176
     1
 90
        6
176
     1
 90
        2
176
     1
 62
     7
176
     1
 90
        5
176
     1
 90
        0
176
     1
 90
        0
176
     1
290
     0
176
     1
 90
        1
176
     1
 40
0.0
176
     1
 90
        0
176
     1
290
     0
176
     1
290
     1
176
     1
290
     1
176
     1
290
     0
176
     1
290
     0
176
     1
290
     0
176
     1
290
     0
176
     1
290
     0
176
     1
290
     0
176
     1
 90
       50
176
     1
 40
0.0
176
     1
 40
1.0
176
     1
 90
        0
176
     1
 62
    18
420
        0
176
     1
 90
       50
176
     1
 90
        3
176
     1
 62
     5
420
      255
176
     1
290
     0
176
     1
 90
       50
176
     1
 90
       50
176
     1
 90
       50
176
     1
290
     0
176
     1
 90
       50
176
     1
 62
   256
176
     0
 40
1.0
176
     0
 90
        2
176
     1
  1
strokes_ogs.tif
176
     1
290
     0
176
     1
 40
1.0
176
     1
 40
1.0
176
     1
1001
ACAD
1000
AcDbSavedByObjectVersion
1070
     0
  0
VISUALSTYLE
  5
32
102
{ACAD_REACTORS
330
29
102
}
330
29
100
AcDbVisualStyle
  2
Conceptual
 70
     9
177
     3
291
     0
 70
    58
 90
        3
176
     1
 90
        2
176
     1
 90
        0
176
     1
 90
        0
176
     1
 40
0.6
176
     1
 40
30.0
176
     1
 62
     7
420
 16777215
176
     1
 90
        2
176
     1
 90
        2
176
     1
 62
     7
176
     1
 62
   257
176
     1
 90
        1
176
     1
 90
        1
176
     1
 40
179.0
176
     1
 90
        8
176
     1
 62
     7
176
     1
 40
1.0
176
     1
 90
        1
176
     1
 90
        6
176
     1
 90
        2
176
     1
 62
     7
176
     1
 90
        3
176
     1
 90
        0
176
     1
 90
        0
176
     1
290
     0
176
     1
 90
        1
176
     1
 40
0.0
176
     1
 90
        0
176
     1
290
     0
176
     1
290
     1
176
     1
290
     1
176
     1
290
     0
176
     1
290
     0
176
     1
290
     0
176
     1
290
     0
176
     1
290
     0
176
     1
290
     0
176
     1
 90
       50
176
     1
 40
0.0
176
     1
 40
1.0
176
     1
 90
        0
176
     1
 62
    18
420
        0
176
     1
 90
       50
176
     1
 90
        3
176
     1
 62
     5
420
      255
176
     1
290
     0
176
     1
 90
       50
176
     1
 90
       50
176
     1
 90
       50
176
     1
290
     0
176
     1
 90
       50
176
     1
 62
   256
176
     0
 40
1.0
176
     0
 90
        2
176
     1
  1
strokes_ogs.tif
176
     1
290
     0
176
     1
 40
1.0
176
     1
 40
1.0
176
     1
1001
ACAD
1000
AcDbSavedByObjectVersion
1070
     0
  0
VISUALSTYLE
  5
34
102
{ACAD_REACTORS
330
29
102
}
330
29
100
AcDbVisualStyle
  2
Dim
 70
    11
177
     3
291
     1
 70
    58
 90
        2
176
     1
 90
        2
176
     1
 90
        0
176
     1
 90
        0
176
     1
 40
0.6
176
     1
 40
30.0
176
     1
 62
     7
420
 16777215
176
     1
 90
        1
176
     1
 90
        4
176
     1
 62
     7
176
     1
 62
   257
176
     1
 90
        1
176
     1
 90
        1
176
     1
 40
1.0
176
     1
 90
        8
176
     1
 62
     7
176
     1
 40
1.0
176
     1
 90
        1
176
     1
 90
        6
176
     1
 90
        2
176
     1
 62
     7
176
     1
 90
        5
176
     1
 90
        0
176
     1
 90
        0
176
     1
290
     0
176
     1
 90
        1
176
     1
 40
-50.0
176
     1
 90
        0
176
     1
290
     0
176
     1
290
     1
176
     1
290
     1
176
     1
290
     0
176
     1
290
     0
176
     1
290
     0
176
     1
290
     0
176
     1
290
     0
176
     1
290
     0
176
     1
 90
       50
176
     1
 40
0.0
176
     1
 40
1.0
176
     1
 90
        0
176
     1
 62
    18
420
        0
176
     1
 90
       50
176
     1
 90
        3
176
     1
 62
     5
420
      255
176
     1
290
     0
176
     1
 90
       50
176
     1
 90
       50
176
     1
 90
       50
176
     1
290
     0
176
     1
 90
       50
176
     1
 62
   256
176
     0
 40
1.0
176
     0
 90
        2
176
     1
  1
strokes_ogs.tif
176
     1
290
     0
176
     1
 40
1.0
176
     1
 40
1.0
176
     1
1001
ACAD
1000
AcDbSavedByObjectVersion
1070
     0
  0
VISUALSTYLE
  5
41
102
{ACAD_REACTORS
330
29
102
}
330
29
100
AcDbVisualStyle
  2
EdgeColorOff
 70
    22
177
     3
291
     1
 70
    58
 90
        2
176
     0
 90
        2
176
     0
 90
        0
176
     0
 90
        0
176
     0
 40
0.6
176
     0
 40
30.0
176
     0
 62
     7
420
 16777215
176
     0
 90
        1
176
     0
 90
        4
176
     0
 62
     7
176
     0
 62
   257
176
     0
 90
        1
176
     0
 90
        1
176
     0
 40
1.0
176
     0
 90
        8
176
     2
 62
     7
176
     0
 40
1.0
176
     0
 90
        1
176
     0
 90
        6
176
     0
 90
        2
176
     0
 62
     7
176
     0
 90
        5
176
     0
 90
        0
176
     0
 90
        0
176
     0
290
     0
176
     0
 90
        1
176
     0
 40
0.0
176
     0
 90
        0
176
     0
290
     0
176
     0
290
     1
176
     0
290
     1
176
     0
290
     0
176
     0
290
     0
176
     0
290
     0
176
     0
290
     0
176
     0
290
     0
176
     0
290
     0
176
     0
 90
       50
176
     0
 40
0.0
176
     0
 40
1.0
176
     0
 90
        0
176
     0
 62
    18
420
        0
176
     0
 90
       50
176
     0
 90
        3
176
     0
 62
     5
420
      255
176
     0
290
     0
176
     0
 90
       50
176
     0
 90
       50
176
     0
 90
       50
176
     0
290
     0
176
     0
 90
       50
176
     0
 62
   256
176
     0
 40
1.0
176
     0
 90
        2
176
     0
  1
strokes_ogs.tif
176
     0
290
     0
176
     0
 40
1.0
176
     0
 40
1.0
176
     0
1001
ACAD
1000
AcDbSavedByObjectVersion
1070
     0
  0
VISUALSTYLE
  5
38
102
{ACAD_REACTORS
330
29
102
}
330
29
100
AcDbVisualStyle
  2
Facepattern
 70
    15
177
     3
291
     1
 70
    58
 90
        2
176
     1
 90
        2
176
     1
 90
        0
176
     1
 90
        0
176
     1
 40
0.6
176
     1
 40
30.0
176
     1
 62
     7
420
 16777215
176
     1
 90
        1
176
     1
 90
        4
176
     1
 62
     7
176
     1
 62
   257
176
     1
 90
        1
176
     1
 90
        1
176
     1
 40
1.0
176
     1
 90
        8
176
     1
 62
     7
176
     1
 40
1.0
176
     1
 90
        1
176
     1
 90
        6
176
     1
 90
        2
176
     1
 62
     7
176
     1
 90
        5
176
     1
 90
        0
176
     1
 90
        0
176
     1
290
     0
176
     1
 90
        1
176
     1
 40
0.0
176
     1
 90
        0
176
     1
290
     0
176
     1
290
     1
176
     1
290
     1
176
     1
290
     0
176
     1
290
     0
176
     1
290
     0
176
     1
290
     0
176
     1
290
     0
176
     1
290
     0
176
     1
 90
       50
176
     1
 40
0.0
176
     1
 40
1.0
176
     1
 90
        0
176
     1
 62
    18
420
        0
176
     1
 90
       50
176
     1
 90
        3
176
     1
 62
     5
420
      255
176
     1
290
     0
176
     1
 90
       50
176
     1
 90
       50
176
     1
 90
       50
176
     1
290
     0
176
     1
 90
       50
176
     1
 62
   256
176
     0
 40
1.0
176
     0
 90
        2
176
     1
  1
strokes_ogs.tif
176
     1
290
     0
176
     1
 40
1.0
176
     1
 40
1.0
176
     1
1001
ACAD
1000
AcDbSavedByObjectVersion
1070
     0
  0
VISUALSTYLE
  5
2A
102
{ACAD_REACTORS
330
29
102
}
330
29
100
AcDbVisualStyle
  2
Flat
 70
     0
177
     3
291
     1
 70
    58
 90
        2
176
     1
 90
        1
176
     1
 90
        1
176
     1
 90
        2
176
     1
 40
0.6
176
     1
 40
30.0
176
     1
 62
     7
420
 16777215
176
     1
 90
        0
176
     1
 90
        0
176
     1
 62
     7
176
     1
 62
   257
176
     1
 90
        1
176
     1
 90
        1
176
     1
 40
1.0
176
     1
 90
        8
176
     1
 62
     7
176
     1
 40
1.0
176
     1
 90
        1
176
     1
 90
        6
176
     1
 90
        2
176
     1
 62
     7
176
     1
 90
        5
176
     1
 90
        0
176
     1
 90
        0
176
     1
290
     0
176
     1
 90
       13
176
     1
 40
0.0
176
     1
 90
        0
176
     1
290
     0
176
     1
290
     1
176
     1
290
     1
176
     1
290
     0
176
     1
290
     0
176
     1
290
     0
176
     1
290
     0
176
     1
290
     0
176
     1
290
     0
176
     1
 90
       50
176
     1
 40
0.0
176
     1
 40
1.0
176
     1
 90
        0
176
     1
 62
    18
420
        0
176
     1
 90
       50
176
     1
 90
        3
176
     1
 62
     5
420
      255
176
     1
290
     0
176
     1
 90
       50
176
     1
 90
       50
176
     1
 90
       50
176
     1
290
     0
176
     1
 90
       50
176
     1
 62
   256
176
     0
 40
1.0
176
     0
 90
        2
176
     1
  1
strokes_ogs.tif
176
     1
290
     0
176
     1
 40
1.0
176
     1
 40
1.0
176
     1
1001
ACAD
1000
AcDbSavedByObjectVersion
1070
     0
  0
VISUALSTYLE
  5
2B
102
{ACAD_REACTORS
330
29
102
}
330
29
100
AcDbVisualStyle
  2
FlatWithEdges
 70
     1
177
     3
291
     1
 70
    58
 90
        2
176
     1
 90
        1
176
     1
 90
        1
176
     1
 90
        2
176
     1
 40
0.6
176
     1
 40
30.0
176
     1
 62
     7
420
 16777215
176
     1
 90
        1
176
     1
 90
        0
176
     1
 62
     7
176
     1
 62
   257
176
     1
 90
        1
176
     1
 90
        1
176
     1
 40
1.0
176
     1
 90
        0
176
     1
 62
   257
176
     1
 40
1.0
176
     1
 90
        1
176
     1
 90
        6
176
     1
 90
        2
176
     1
 62
     7
176
     1
 90
        5
176
     1
 90
        0
176
     1
 90
        0
176
     1
290
     0
176
     1
 90
       13
176
     1
 40
0.0
176
     1
 90
        0
176
     1
290
     0
176
     1
290
     1
176
     1
290
     1
176
     1
290
     0
176
     1
290
     0
176
     1
290
     0
176
     1
290
     0
176
     1
290
     0
176
     1
290
     0
176
     1
 90
       50
176
     1
 40
0.0
176
     1
 40
1.0
176
     1
 90
        0
176
     1
 62
    18
420
        0
176
     1
 90
       50
176
     1
 90
        3
176
     1
 62
     5
420
      255
176
     1
290
     0
176
     1
 90
       50
176
     1
 90
       50
176
     1
 90
       50
176
     1
290
     0
176
     1
 90
       50
176
     1
 62
   256
176
     0
 40
1.0
176
     0
 90
        2
176
     1
  1
strokes_ogs.tif
176
     1
290
     0
176
     1
 40
1.0
176
     1
 40
1.0
176
     1
1001
ACAD
1000
AcDbSavedByObjectVersion
1070
     0
  0
VISUALSTYLE
  5
2C
102
{ACAD_REACTORS
330
29
102
}
330
29
100
AcDbVisualStyle
  2
Gouraud
 70
     2
177
     3
291
     1
 70
    58
 90
        2
176
     1
 90
        2
176
     1
 90
        1
176
     1
 90
        2
176
     1
 40
0.6
176
     1
 40
30.0
176
     1
 62
     7
420
 16777215
176
     1
 90
        0
176
     1
 90
        0
176
     1
 62
     7
176
     1
 62
   257
176
     1
 90
        1
176
     1
 90
        1
176
     1
 40
1.0
176
     1
 90
        0
176
     1
 62
     7
176
     1
 40
1.0
176
     1
 90
        1
176
     1
 90
        6
176
     1
 90
        2
176
     1
 62
     7
176
     1
 90
        5
176
     1
 90
        0
176
     1
 90
        0
176
     1
290
     0
176
     1
 90
       13
176
     1
 40
0.0
176
     1
 90
        0
176
     1
290
     0
176
     1
290
     1
176
     1
290
     1
176
     1
290
     0
176
     1
290
     0
176
     1
290
     0
176
     1
290
     0
176
     1
290
     0
176
     1
290
     0
176
     1
 90
       50
176
     1
 40
0.0
176
     1
 40
1.0
176
     1
 90
        0
176
     1
 62
    18
420
        0
176
     1
 90
       50
176
     1
 90
        3
176
     1
 62
     5
420
      255
176
     1
290
     0
176
     1
 90
       50
176
     1
 90
       50
176
     1
 90
       50
176
     1
290
     0
176
     1
 90
       50
176
     1
 62
   256
176
     0
 40
1.0
176
     0
 90
        2
176
     1
  1
strokes_ogs.tif
176
     1
290
     0
176
     1
 40
1.0
176
     1
 40
1.0
176
     1
1001
ACAD
1000
AcDbSavedByObjectVersion
1070
     0
  0
VISUALSTYLE
  5
2D
102
{ACAD_REACTORS
330
29
102
}
330
29
100
AcDbVisualStyle
  2
GouraudWithEdges
 70
     3
177
     3
291
     1
 70
    58
 90
        2
176
     1
 90
        2
176
     1
 90
        1
176
     1
 90
        2
176
     1
 40
0.6
176
     1
 40
30.0
176
     1
 62
     7
420
 16777215
176
     1
 90
        1
176
     1
 90
        0
176
     1
 62
     7
176
     1
 62
   257
176
     1
 90
        1
176
     1
 90
        1
176
     1
 40
1.0
176
     1
 90
        0
176
     1
 62
   257
176
     1
 40
1.0
176
     1
 90
        1
176
     1
 90
        6
176
     1
 90
        2
176
     1
 62
     7
176
     1
 90
        5
176
     1
 90
        0
176
     1
 90
        0
176
     1
290
     0
176
     1
 90
       13
176
     1
 40
0.0
176
     1
 90
        0
176
     1
290
     0
176
     1
290
     1
176
     1
290
     1
176
     1
290
     0
176
     1
290
     0
176
     1
290
     0
176
     1
290
     0
176
     1
290
     0
176
     1
290
     0
176
     1
 90
       50
176
     1
 40
0.0
176
     1
 40
1.0
176
     1
 90
        0
176
     1
 62
    18
420
        0
176
     1
 90
       50
176
     1
 90
        3
176
     1
 62
     5
420
      255
176
     1
290
     0
176
     1
 90
       50
176
     1
 90
       50
176
     1
 90
       50
176
     1
290
     0
176
     1
 90
       50
176
     1
 62
   256
176
     0
 40
1.0
176
     0
 90
        2
176
     1
  1
strokes_ogs.tif
176
     1
290
     0
176
     1
 40
1.0
176
     1
 40
1.0
176
     1
1001
ACAD
1000
AcDbSavedByObjectVersion
1070
     0
  0
VISUALSTYLE
  5
31
102
{ACAD_REACTORS
330
29
102
}
330
29
100
AcDbVisualStyle
  2
Hidden
 70
     6
177
     3
291
     0
 70
    58
 90
        1
176
     1
 90
        2
176
     1
 90
        2
176
     1
 90
        0
176
     1
 40
0.6
176
     1
 40
30.0
176
     1
 62
     7
420
 16777215
176
     1
 90
        2
176
     1
 90
        2
176
     1
 62
     7
176
     1
 62
   257
176
     1
 90
        2
176
     1
 90
        1
176
     1
 40
40.0
176
     1
 90
        0
176
     1
 62
   257
176
     1
 40
1.0
176
     1
 90
        1
176
     1
 90
        6
176
     1
 90
        2
176
     1
 62
     7
176
     1
 90
        3
176
     1
 90
        0
176
     1
 90
        0
176
     1
290
     0
176
     1
 90
        1
176
     1
 40
0.0
176
     1
 90
        0
176
     1
290
     0
176
     1
290
     1
176
     1
290
     1
176
     1
290
     0
176
     1
290
     0
176
     1
290
     0
176
     1
290
     0
176
     1
290
     0
176
     1
290
     0
176
     1
 90
       50
176
     1
 40
0.0
176
     1
 40
1.0
176
     1
 90
        0
176
     1
 62
    18
420
        0
176
     1
 90
       50
176
     1
 90
        3
176
     1
 62
     5
420
      255
176
     1
290
     0
176
     1
 90
       50
176
     1
 90
       50
176
     1
 90
       50
176
     1
290
     0
176
     1
 90
       50
176
     1
 62
   256
176
     0
 40
1.0
176
     0
 90
        2
176
     1
  1
strokes_ogs.tif
176
     1
290
     0
176
     1
 40
1.0
176
     1
 40
1.0
176
     1
1001
ACAD
1000
AcDbSavedByObjectVersion
1070
     0
  0
VISUALSTYLE
  5
3F
102
{ACAD_REACTORS
330
29
102
}
330
29
100
AcDbVisualStyle
  2
JitterOff
 70
    20
177
     3
291
     1
 70
    58
 90
        2
176
     0
 90
        2
176
     0
 90
        0
176
     0
 90
        0
176
     0
 40
0.6
176
     0
 40
30.0
176
     0
 62
     7
420
 16777215
176
     0
 90
        1
176
     0
 90
        4
176
     0
 62
     7
176
     0
 62
   257
176
     0
 90
        1
176
     0
 90
        1
176
     0
 40
1.0
176
     0
 90
       10
176
     2
 62
     7
176
     0
 40
1.0
176
     0
 90
        1
176
     0
 90
        6
176
     0
 90
        2
176
     0
 62
     7
176
     0
 90
        5
176
     0
 90
        0
176
     0
 90
        0
176
     0
290
     0
176
     0
 90
        1
176
     0
 40
0.0
176
     0
 90
        0
176
     0
290
     0
176
     0
290
     1
176
     0
290
     1
176
     0
290
     0
176
     0
290
     0
176
     0
290
     0
176
     0
290
     0
176
     0
290
     0
176
     0
290
     0
176
     0
 90
       50
176
     0
 40
0.0
176
     0
 40
1.0
176
     0
 90
        0
176
     0
 62
    18
420
        0
176
     0
 90
       50
176
     0
 90
        3
176
     0
 62
     5
420
      255
176
     0
290
     0
176
     0
 90
       50
176
     0
 90
       50
176
     0
 90
       50
176
     0
290
     0
176
     0
 90
       50
176
     0
 62
   256
176
     0
 40
1.0
176
     0
 90
        2
176
     0
  1
strokes_ogs.tif
176
     0
290
     0
176
     0
 40
1.0
176
     0
 40
1.0
176
     0
1001
ACAD
1000
AcDbSavedByObjectVersion
1070
     0
  0
VISUALSTYLE
  5
37
102
{ACAD_REACTORS
330
29
102
}
330
29
100
AcDbVisualStyle
  2
Linepattern
 70
    14
177
     3
291
     1
 70
    58
 90
        2
176
     1
 90
        2
176
     1
 90
        0
176
     1
 90
        0
176
     1
 40
0.6
176
     1
 40
30.0
176
     1
 62
     7
420
 16777215
176
     1
 90
        1
176
     1
 90
        4
176
     1
 62
     7
176
     1
 62
   257
176
     1
 90
        7
176
     1
 90
        7
176
     1
 40
1.0
176
     1
 90
        8
176
     1
 62
     7
176
     1
 40
1.0
176
     1
 90
        1
176
     1
 90
        6
176
     1
 90
        2
176
     1
 62
     7
176
     1
 90
        5
176
     1
 90
        0
176
     1
 90
        0
176
     1
290
     0
176
     1
 90
        1
176
     1
 40
0.0
176
     1
 90
        0
176
     1
290
     0
176
     1
290
     1
176
     1
290
     1
176
     1
290
     0
176
     1
290
     0
176
     1
290
     0
176
     1
290
     0
176
     1
290
     0
176
     1
290
     0
176
     1
 90
       50
176
     1
 40
0.0
176
     1
 40
1.0
176
     1
 90
        0
176
     1
 62
    18
420
        0
176
     1
 90
       50
176
     1
 90
        3
176
     1
 62
     5
420
      255
176
     1
290
     0
176
     1
 90
       50
176
     1
 90
       50
176
     1
 90
       50
176
     1
290
     0
176
     1
 90
       50
176
     1
 62
   256
176
     0
 40
1.0
176
     0
 90
        2
176
     1
  1
strokes_ogs.tif
176
     1
290
     0
176
     1
 40
1.0
176
     1
 40
1.0
176
     1
1001
ACAD
1000
AcDbSavedByObjectVersion
1070
     0
  0
VISUALSTYLE
  5
40
102
{ACAD_REACTORS
330
29
102
}
330
29
100
AcDbVisualStyle
  2
OverhangOff
 70
    21
177
     3
291
     1
 70
    58
 90
        2
176
     0
 90
        2
176
     0
 90
        0
176
     0
 90
        0
176
     0
 40
0.6
176
     0
 40
30.0
176
     0
 62
     7
420
 16777215
176
     0
 90
        1
176
     0
 90
        4
176
     0
 62
     7
176
     0
 62
   257
176
     0
 90
        1
176
     0
 90
        1
176
     0
 40
1.0
176
     0
 90
        9
176
     2
 62
     7
176
     0
 40
1.0
176
     0
 90
        1
176
     0
 90
        6
176
     0
 90
        2
176
     0
 62
     7
176
     0
 90
        5
176
     0
 90
        0
176
     0
 90
        0
176
     0
290
     0
176
     0
 90
        1
176
     0
 40
0.0
176
     0
 90
        0
176
     0
290
     0
176
     0
290
     1
176
     0
290
     1
176
     0
290
     0
176
     0
290
     0
176
     0
290
     0
176
     0
290
     0
176
     0
290
     0
176
     0
290
     0
176
     0
 90
       50
176
     0
 40
0.0
176
     0
 40
1.0
176
     0
 90
        0
176
     0
 62
    18
420
        0
176
     0
 90
       50
176
     0
 90
        3
176
     0
 62
     5
420
      255
176
     0
290
     0
176
     0
 90
       50
176
     0
 90
       50
176
     0
 90
       50
176
     0
290
     0
176
     0
 90
       50
176
     0
 62
   256
176
     0
 40
1.0
176
     0
 90
        2
176
     0
  1
strokes_ogs.tif
176
     0
290
     0
176
     0
 40
1.0
176
     0
 40
1.0
176
     0
1001
ACAD
1000
AcDbSavedByObjectVersion
1070
     0
  0
VISUALSTYLE
  5
33
102
{ACAD_REACTORS
330
29
102
}
330
29
100
AcDbVisualStyle
  2
Realistic
 70
     8
177
     3
291
     0
 70
    58
 90
        2
176
     1
 90
        3
176
     1
 90
        0
176
     1
 90
        2
176
     1
 40
0.6
176
     1
 40
30.0
176
     1
 62
     7
420
 16777215
176
     1
 90
        0
176
     1
 90
        0
176
     1
 62
     7
176
     1
 62
   257
176
     1
 90
        1
176
     1
 90
        1
176
     1
 40
1.0
176
     1
 90
        8
176
     1
 62
   257
176
     1
 40
1.0
176
     1
 90
        1
176
     1
 90
        6
176
     1
 90
        2
176
     1
 62
     7
176
     1
 90
        3
176
     1
 90
        0
176
     1
 90
        0
176
     1
290
     0
176
     1
 90
       13
176
     1
 40
0.0
176
     1
 90
        0
176
     1
290
     0
176
     1
290
     1
176
     1
290
     1
176
     1
290
     0
176
     1
290
     0
176
     1
290
     0
176
     1
290
     0
176
     1
290
     0
176
     1
290
     0
176
     1
 90
       50
176
     1
 40
0.0
176
     1
 40
1.0
176
     1
 90
        0
176
     1
 62
    18
420
        0
176
     1
 90
       50
176
     1
 90
        3
176
     1
 62
     5
420
      255
176
     1
290
     0
176
     1
 90
       50
176
     1
 90
       50
176
     1
 90
       50
176
     1
290
     0
176
     1
 90
       50
176
     1
 62
   256
176
     0
 40
1.0
176
     0
 90
        2
176
     1
  1
strokes_ogs.tif
176
     1
290
     0
176
     1
 40
1.0
176
     1
 40
1.0
176
     1
1001
ACAD
1000
AcDbSavedByObjectVersion
1070
     0
  0
VISUALSTYLE
  5
3E
102
{ACAD_REACTORS
330
29
102
}
330
29
100
AcDbVisualStyle
  2
Shaded
 70
    27
177
     3
291
     0
 70
    58
 90
        2
176
     1
 90
        2
176
     1
 90
        1
176
     1
 90
        2
176
     1
 40
0.6
176
     1
 40
30.0
176
     1
 62
     7
420
 16777215
176
     1
 90
        0
176
     1
 90
        4
176
     1
 62
     7
176
     1
 62
   257
176
     1
 90
        1
176
     1
 90
        1
176
     1
 40
1.0
176
     1
 90
        8
176
     1
 62
   257
176
     1
 40
1.0
176
     1
 90
        1
176
     1
 90
        6
176
     1
 90
        2
176
     1
 62
     8
420
  7895160
176
     1
 90
        3
176
     1
 90
        0
176
     1
 90
        0
176
     1
290
     0
176
     1
 90
        5
176
     1
 40
0.0
176
     1
 90
        0
176
     1
290
     0
176
     1
290
     1
176
     1
290
     1
176
     1
290
     0
176
     1
290
     0
176
     1
290
     0
176
     1
290
     0
176
     1
290
     0
176
     1
290
     0
176
     1
 90
       50
176
     1
 40
0.0
176
     1
 40
1.0
176
     1
 90
        0
176
     1
 62
    18
420
        0
176
     1
 90
       50
176
     1
 90
        3
176
     1
 62
     5
420
      255
176
     1
290
     0
176
     1
 90
       50
176
     1
 90
       50
176
     1
 90
       50
176
     1
290
     0
176
     1
 90
       50
176
     1
 62
   256
176
     0
 40
1.0
176
     0
 90
        2
176
     1
  1
strokes_ogs.tif
176
     1
290
     0
176
     1
 40
1.0
176
     1
 40
1.0
176
     1
1001
ACAD
1000
AcDbSavedByObjectVersion
1070
     0
  0
VISUALSTYLE
  5
3D
102
{ACAD_REACTORS
330
29
102
}
330
29
100
AcDbVisualStyle
  2
Shaded with edges
 70
    26
177
     3
291
     0
 70
    58
 90
        2
176
     1
 90
        2
176
     1
 90
        1
176
     1
 90
        2
176
     1
 40
0.6
176
     1
 40
30.0
176
     1
 62
     7
420
 16777215
176
     1
 90
        1
176
     1
 90
        2
176
     1
 62
     7
176
     1
 62
   257
176
     1
 90
        2
176
     1
 90
        1
176
     1
 40
1.0
176
     1
 90
        8
176
     1
 62
   257
176
     1
 40
1.0
176
     1
 90
        1
176
     1
 90
        6
176
     1
 90
        2
176
     1
 62
     7
176
     1
 90
        3
176
     1
 90
        0
176
     1
 90
        0
176
     1
290
     0
176
     1
 90
        5
176
     1
 40
0.0
176
     1
 90
        0
176
     1
290
     0
176
     1
290
     1
176
     1
290
     1
176
     1
290
     0
176
     1
290
     0
176
     1
290
     0
176
     1
290
     0
176
     1
290
     0
176
     1
290
     0
176
     1
 90
       50
176
     1
 40
0.0
176
     1
 40
1.0
176
     1
 90
        0
176
     1
 62
    18
420
        0
176
     1
 90
       50
176
     1
 90
        3
176
     1
 62
     5
420
      255
176
     1
290
     0
176
     1
 90
       50
176
     1
 90
       50
176
     1
 90
       50
176
     1
290
     0
176
     1
 90
       50
176
     1
 62
   256
176
     0
 40
1.0
176
     0
 90
        2
176
     1
  1
strokes_ogs.tif
176
     1
290
     0
176
     1
 40
1.0
176
     1
 40
1.0
176
     1
1001
ACAD
1000
AcDbSavedByObjectVersion
1070
     0
  0
VISUALSTYLE
  5
3A
102
{ACAD_REACTORS
330
29
102
}
330
29
100
AcDbVisualStyle
  2
Shades of Gray
 70
    23
177
     3
291
     0
 70
    58
 90
        2
176
     1
 90
        2
176
     1
 90
        3
176
     1
 90
        0
176
     1
 40
0.6
176
     1
 40
30.0
176
     1
 62
     7
420
 16777215
176
     1
 90
        2
176
     1
 90
        2
176
     1
 62
     7
176
     1
 62
     7
176
     1
 90
        1
176
     1
 90
        1
176
     1
 40
40.0
176
     1
 90
        8
176
     1
 62
     7
176
     1
 40
1.0
176
     1
 90
        1
176
     1
 90
        6
176
     1
 90
        2
176
     1
 62
     7
176
     1
 90
        3
176
     1
 90
        0
176
     1
 90
        0
176
     1
290
     0
176
     1
 90
        1
176
     1
 40
0.0
176
     1
 90
        0
176
     1
290
     0
176
     1
290
     1
176
     1
290
     1
176
     1
290
     0
176
     1
290
     0
176
     1
290
     0
176
     1
290
     0
176
     1
290
     0
176
     1
290
     0
176
     1
 90
       50
176
     1
 40
0.0
176
     1
 40
1.0
176
     1
 90
        0
176
     1
 62
    18
420
        0
176
     1
 90
       50
176
     1
 90
        3
176
     1
 62
     5
420
      255
176
     1
290
     0
176
     1
 90
       50
176
     1
 90
       50
176
     1
 90
       50
176
     1
290
     0
176
     1
 90
       50
176
     1
 62
   256
176
     0
 40
1.0
176
     0
 90
        2
176
     1
  1
strokes_ogs.tif
176
     1
290
     0
176
     1
 40
1.0
176
     1
 40
1.0
176
     1
1001
ACAD
1000
AcDbSavedByObjectVersion
1070
     0
  0
VISUALSTYLE
  5
3B
102
{ACAD_REACTORS
330
29
102
}
330
29
100
AcDbVisualStyle
  2
Sketchy
 70
    24
177
     3
291
     0
 70
    58
 90
        1
176
     1
 90
        2
176
     1
 90
        2
176
     1
 90
        0
176
     1
 40
0.6
176
     1
 40
30.0
176
     1
 62
     7
420
 16777215
176
     1
 90
        2
176
     1
 90
        2
176
     1
 62
     7
176
     1
 62
     7
176
     1
 90
        1
176
     1
 90
        1
176
     1
 40
40.0
176
     1
 90
       11
176
     1
 62
     7
176
     1
 40
1.0
176
     1
 90
        1
176
     1
 90
        6
176
     1
 90
        2
176
     1
 62
     7
176
     1
 90
        6
176
     1
 90
        0
176
     1
 90
        0
176
     1
290
     0
176
     1
 90
        1
176
     1
 40
0.0
176
     1
 90
        0
176
     1
290
     0
176
     1
290
     1
176
     1
290
     1
176
     1
290
     0
176
     1
290
     0
176
     1
290
     0
176
     1
290
     0
176
     1
290
     0
176
     1
290
     0
176
     1
 90
       50
176
     1
 40
0.0
176
     1
 40
1.0
176
     1
 90
        0
176
     1
 62
    18
420
        0
176
     1
 90
       50
176
     1
 90
        3
176
     1
 62
     5
420
      255
176
     1
290
     0
176
     1
 90
       50
176
     1
 90
       50
176
     1
 90
       50
176
     1
290
     0
176
     1
 90
       50
176
     1
 62
   256
176
     0
 40
1.0
176
     0
 90
        2
176
     1
  1
strokes_ogs.tif
176
     1
290
     0
176
     1
 40
1.0
176
     1
 40
1.0
176
     1
1001
ACAD
1000
AcDbSavedByObjectVersion
1070
     0
  0
VISUALSTYLE
  5
36
102
{ACAD_REACTORS
330
29
102
}
330
29
100
AcDbVisualStyle
  2
Thicken
 70
    13
177
     3
291
     1
 70
    58
 90
        2
176
     1
 90
        2
176
     1
 90
        0
176
     1
 90
        0
176
     1
 40
0.6
176
     1
 40
30.0
176
     1
 62
     7
420
 16777215
176
     1
 90
        1
176
     1
 90
        4
176
     1
 62
     7
176
     1
 62
   257
176
     1
 90
        1
176
     1
 90
        1
176
     1
 40
1.0
176
     1
 90
       12
176
     1
 62
     7
176
     1
 40
1.0
176
     1
 90
        1
176
     1
 90
        6
176
     1
 90
        2
176
     1
 62
     7
176
     1
 90
        5
176
     1
 90
        0
176
     1
 90
        0
176
     1
290
     0
176
     1
 90
        1
176
     1
 40
0.0
176
     1
 90
        0
176
     1
290
     0
176
     1
290
     1
176
     1
290
     1
176
     1
290
     0
176
     1
290
     0
176
     1
290
     0
176
     1
290
     0
176
     1
290
     0
176
     1
290
     0
176
     1
 90
       50
176
     1
 40
0.0
176
     1
 40
1.0
176
     1
 90
        0
176
     1
 62
    18
420
        0
176
     1
 90
       50
176
     1
 90
        3
176
     1
 62
     5
420
      255
176
     1
290
     0
176
     1
 90
       50
176
     1
 90
       50
176
     1
 90
       50
176
     1
290
     0
176
     1
 90
       50
176
     1
 62
   256
176
     0
 40
1.0
176
     0
 90
        2
176
     1
  1
strokes_ogs.tif
176
     1
290
     0
176
     1
 40
1.0
176
     1
 40
1.0
176
     1
1001
ACAD
1000
AcDbSavedByObjectVersion
1070
     0
  0
VISUALSTYLE
  5
30
102
{ACAD_REACTORS
330
29
102
}
330
29
100
AcDbVisualStyle
  2
Wireframe
 70
     5
177
     3
291
     0
 70
    58
 90
        0
176
     1
 90
        2
176
     1
 90
        0
176
     1
 90
        0
176
     1
 40
0.6
176
     1
 40
30.0
176
     1
 62
     7
420
 16777215
176
     1
 90
        1
176
     1
 90
        4
176
     1
 62
     7
176
     1
 62
   257
176
     1
 90
        1
176
     1
 90
        1
176
     1
 40
1.0
176
     1
 90
        0
176
     1
 62
   257
176
     1
 40
1.0
176
     1
 90
        1
176
     1
 90
        6
176
     1
 90
        2
176
     1
 62
     7
176
     1
 90
        3
176
     1
 90
        0
176
     1
 90
        0
176
     1
290
     0
176
     1
 90
        1
176
     1
 40
0.0
176
     1
 90
        0
176
     1
290
     0
176
     1
290
     1
176
     1
290
     1
176
     1
290
     0
176
     1
290
     0
176
     1
290
     0
176
     1
290
     0
176
     1
290
     0
176
     1
290
     0
176
     1
 90
       50
176
     1
 40
0.0
176
     1
 40
1.0
176
     1
 90
        0
176
     1
 62
    18
420
        0
176
     1
 90
       50
176
     1
 90
        3
176
     1
 62
     5
420
      255
176
     1
290
     0
176
     1
 90
       50
176
     1
 90
       50
176
     1
 90
       50
176
     1
290
     0
176
     1
 90
       50
176
     1
 62
   256
176
     0
 40
1.0
176
     0
 90
        2
176
     1
  1
strokes_ogs.tif
176
     1
290
     0
176
     1
 40
1.0
176
     1
 40
1.0
176
     1
1001
ACAD
1000
AcDbSavedByObjectVersion
1070
     0
  0
VISUALSTYLE
  5
3C
102
{ACAD_REACTORS
330
29
102
}
330
29
100
AcDbVisualStyle
  2
X-Ray
 70
    25
177
     3
291
     0
 70
    58
 90
        2
176
     1
 90
        2
176
     1
 90
        1
176
     1
 90
        1
176
     1
 40
0.5
176
     1
 40
30.0
176
     1
 62
     7
420
 16777215
176
     1
 90
        1
176
     1
 90
        0
176
     1
 62
     7
176
     1
 62
   257
176
     1
 90
        1
176
     1
 90
        1
176
     1
 40
1.0
176
     1
 90
        8
176
     1
 62
     7
176
     1
 40
1.0
176
     1
 90
        1
176
     1
 90
        6
176
     1
 90
        2
176
     1
 62
     7
176
     1
 90
        3
176
     1
 90
        0
176
     1
 90
        0
176
     1
290
     0
176
     1
 90
       13
176
     1
 40
0.0
176
     1
 90
        0
176
     1
290
     0
176
     1
290
     1
176
     1
290
     1
176
     1
290
     0
176
     1
290
     0
176
     1
290
     0
176
     1
290
     0
176
     1
290
     0
176
     1
290
     0
176
     1
 90
       50
176
     1
 40
0.0
176
     1
 40
1.0
176
     1
 90
        0
176
     1
 62
    18
420
        0
176
     1
 90
       50
176
     1
 90
        3
176
     1
 62
     5
420
      255
176
     1
290
     0
176
     1
 90
       50
176
     1
 90
       50
176
     1
 90
       50
176
     1
290
     0
176
     1
 90
       50
176
     1
 62
   256
176
     0
 40
1.0
176
     0
 90
        2
176
     1
  1
strokes_ogs.tif
176
     1
290
     0
176
     1
 40
1.0
176
     1
 40
1.0
176
     1
1001
ACAD
1000
AcDbSavedByObjectVersion
1070
     0
  0
DICTIONARYVAR
  5
DA
102
{ACAD_REACTORS
330
D5
102
}
330
D5
100
DictionaryVariables
280
     0
  1
1:1
  0
DICTIONARYVAR
  5
D7
102
{ACAD_REACTORS
330
D5
102
}
330
D5
100
DictionaryVariables
280
     0
  1
STANDARD
  0
DICTIONARYVAR
  5
D6
102
{ACAD_REACTORS
330
D5
102
}
330
D5
100
DictionaryVariables
280
     0
  1
STANDARD
  0
DICTIONARYVAR
  5
D8
102
{ACAD_REACTORS
330
D5
102
}
330
D5
100
DictionaryVariables
280
     0
  1
Imperial24
  0
DICTIONARYVAR
  5
D9
102
{ACAD_REACTORS
330
D5
102
}
330
D5
100
DictionaryVariables
280
     0
  1
Imperial24
  0
DICTIONARY
  5
177
330
6B
100
AcDbDictionary
280
     1
281
     1
  3
ACAD_XREC_ROUNDTRIP
360
178
  0
DICTIONARY
  5
1A
330
19
100
AcDbDictionary
280
     1
281
     1
  3
BUMPTILE
360
1C
  3
DIFFUSETILE
360
1B
  3
OPACITYTILE
360
1F
  3
REFLECTIONTILE
360
1E
  3
REFRACTIONTILE
360
20
  3
SPECULARTILE
360
1D
  0
DICTIONARY
  5
12
330
11
100
AcDbDictionary
280
     1
281
     1
  3
BUMPTILE
360
14
  3
DIFFUSETILE
360
13
  3
OPACITYTILE
360
17
  3
REFLECTIONTILE
360
16
  3
REFRACTIONTILE
360
18
  3
SPECULARTILE
360
15
  0
DICTIONARY
  5
22
330
21
100
AcDbDictionary
280
     1
281
     1
  3
BUMPTILE
360
24
  3
DIFFUSETILE
360
23
  3
OPACITYTILE
360
27
  3
REFLECTIONTILE
360
26
  3
REFRACTIONTILE
360
28
  3
SPECULARTILE
360
25
  0
DICTIONARY
  5
175
330
69
100
AcDbDictionary
280
     1
281
     1
  3
ACAD_XREC_ROUNDTRIP
360
176
  0
DICTIONARY
  5
DB
330
65
100
AcDbDictionary
280
     1
281
     1
  3
ACAD_ROUNDTRIP_2008_TABLESTYLE_CELLSTYLEMAP
360
173
  0
XRECORD
  5
178
102
{ACAD_REACTORS
330
177
102
}
330
177
100
AcDbXrecord
280
     1
102
DISPLAYNAME
  1
Imperial24
102
FLAGS
 90
        0
  0
XRECORD
  5
1C
102
{ACAD_REACTORS
330
1A
102
}
330
1A
100
AcDbXrecord
280
     1
270
     1
271
     1
  0
XRECORD
  5
1B
102
{ACAD_REACTORS
330
1A
102
}
330
1A
100
AcDbXrecord
280
     1
270
     1
271
     1
  0
XRECORD
  5
1F
102
{ACAD_REACTORS
330
1A
102
}
330
1A
100
AcDbXrecord
280
     1
270
     1
271
     1
  0
XRECORD
  5
1E
102
{ACAD_REACTORS
330
1A
102
}
330
1A
100
AcDbXrecord
280
     1
270
     1
271
     1
  0
XRECORD
  5
20
102
{ACAD_REACTORS
330
1A
102
}
330
1A
100
AcDbXrecord
280
     1
270
     1
271
     1
  0
XRECORD
  5
1D
102
{ACAD_REACTORS
330
1A
102
}
330
1A
100
AcDbXrecord
280
     1
270
     1
271
     1
  0
XRECORD
  5
14
102
{ACAD_REACTORS
330
12
102
}
330
12
100
AcDbXrecord
280
     1
270
     1
271
     1
  0
XRECORD
  5
13
102
{ACAD_REACTORS
330
12
102
}
330
12
100
AcDbXrecord
280
     1
270
     1
271
     1
  0
XRECORD
  5
17
102
{ACAD_REACTORS
330
12
102
}
330
12
100
AcDbXrecord
280
     1
270
     1
271
     1
  0
XRECORD
  5
16
102
{ACAD_REACTORS
330
12
102
}
330
12
100
AcDbXrecord
280
     1
270
     1
271
     1
  0
XRECORD
  5
18
102
{ACAD_REACTORS
330
12
102
}
330
12
100
AcDbXrecord
280
     1
270
     1
271
     1
  0
XRECORD
  5
15
102
{ACAD_REACTORS
330
12
102
}
330
12
100
AcDbXrecord
280
     1
270
     1
271
     1
  0
XRECORD
  5
24
102
{ACAD_REACTORS
330
22
102
}
330
22
100
AcDbXrecord
280
     1
270
     1
271
     1
  0
XRECORD
  5
23
102
{ACAD_REACTORS
330
22
102
}
330
22
100
AcDbXrecord
280
     1
270
     1
271
     1
  0
XRECORD
  5
27
102
{ACAD_REACTORS
330
22
102
}
330
22
100
AcDbXrecord
280
     1
270
     1
271
     1
  0
XRECORD
  5
26
102
{ACAD_REACTORS
330
22
102
}
330
22
100
AcDbXrecord
280
     1
270
     1
271
     1
  0
XRECORD
  5
28
102
{ACAD_REACTORS
330
22
102
}
330
22
100
AcDbXrecord
280
     1
270
     1
271
     1
  0
XRECORD
  5
25
102
{ACAD_REACTORS
330
22
102
}
330
22
100
AcDbXrecord
280
     1
270
     1
271
     1
  0
XRECORD
  5
176
102
{ACAD_REACTORS
330
175
102
}
330
175
100
AcDbXrecord
280
     1
102
DISPLAYNAME
  1
Imperial24
102
FLAGS
 90
        0
  0
CELLSTYLEMAP
  5
173
102
{ACAD_REACTORS
330
DB
102
}
330
DB
100
AcDbCellStyleMap
 90
        3
300
CELLSTYLE
  1
TABLEFORMAT_BEGIN
 90
        5
170
     1
 91
        0
 92
    32768
 62
   257
 93
        1
300
CONTENTFORMAT
  1
CONTENTFORMAT_BEGIN
 90
        0
 91
        0
 92
      512
 93
        0
300

 40
0.0
140
1.0
 94
        5
 62
     0
340
55
144
0.25
309
CONTENTFORMAT_END
171
     1
301
MARGIN
  1
CELLMARGIN_BEGIN
 40
0.06
 40
0.06
 40
0.06
 40
0.06
 40
0.18
 40
0.18
309
CELLMARGIN_END
 94
        6
 95
        1
302
GRIDFORMAT
  1
GRIDFORMAT_BEGIN
 90
        0
 91
        1
 62
     0
 92
       -2
340
0
 93
        0
 40
0.045
309
GRIDFORMAT_END
 95
        2
302
GRIDFORMAT
  1
GRIDFORMAT_BEGIN
 90
        0
 91
        1
 62
     0
 92
       -2
340
0
 93
        0
 40
0.045
309
GRIDFORMAT_END
 95
        4
302
GRIDFORMAT
  1
GRIDFORMAT_BEGIN
 90
        0
 91
        1
 62
     0
 92
       -2
340
0
 93
        0
 40
0.045
309
GRIDFORMAT_END
 95
        8
302
GRIDFORMAT
  1
GRIDFORMAT_BEGIN
 90
        0
 91
        1
 62
     0
 92
       -2
340
0
 93
        0
 40
0.045
309
GRIDFORMAT_END
 95
       16
302
GRIDFORMAT
  1
GRIDFORMAT_BEGIN
 90
        0
 91
        1
 62
     0
 92
       -2
340
0
 93
        0
 40
0.045
309
GRIDFORMAT_END
 95
       32
302
GRIDFORMAT
  1
GRIDFORMAT_BEGIN
 90
        0
 91
        1
 62
     0
 92
       -2
340
0
 93
        0
 40
0.045
309
GRIDFORMAT_END
309
TABLEFORMAT_END
  1
CELLSTYLE_BEGIN
 90
        1
 91
        1
300
_TITLE
309
CELLSTYLE_END
300
CELLSTYLE
  1
TABLEFORMAT_BEGIN
 90
        5
170
     1
 91
        0
 92
        0
 62
   257
 93
        1
300
CONTENTFORMAT
  1
CONTENTFORMAT_BEGIN
 90
        0
 91
        0
 92
      512
 93
        0
300

 40
0.0
140
1.0
 94
        5
 62
     0
340
55
144
0.18
309
CONTENTFORMAT_END
171
     1
301
MARGIN
  1
CELLMARGIN_BEGIN
 40
0.06
 40
0.06
 40
0.06
 40
0.06
 40
0.18
 40
0.18
309
CELLMARGIN_END
 94
        6
 95
        1
302
GRIDFORMAT
  1
GRIDFORMAT_BEGIN
 90
        0
 91
        1
 62
     0
 92
       -2
340
0
 93
        0
 40
0.045
309
GRIDFORMAT_END
 95
        2
302
GRIDFORMAT
  1
GRIDFORMAT_BEGIN
 90
        0
 91
        1
 62
     0
 92
       -2
340
0
 93
        0
 40
0.045
309
GRIDFORMAT_END
 95
        4
302
GRIDFORMAT
  1
GRIDFORMAT_BEGIN
 90
        0
 91
        1
 62
     0
 92
       -2
340
0
 93
        0
 40
0.045
309
GRIDFORMAT_END
 95
        8
302
GRIDFORMAT
  1
GRIDFORMAT_BEGIN
 90
        0
 91
        1
 62
     0
 92
       -2
340
0
 93
        0
 40
0.045
309
GRIDFORMAT_END
 95
       16
302
GRIDFORMAT
  1
GRIDFORMAT_BEGIN
 90
        0
 91
        1
 62
     0
 92
       -2
340
0
 93
        0
 40
0.045
309
GRIDFORMAT_END
 95
       32
302
GRIDFORMAT
  1
GRIDFORMAT_BEGIN
 90
        0
 91
        1
 62
     0
 92
       -2
340
0
 93
        0
 40
0.045
309
GRIDFORMAT_END
309
TABLEFORMAT_END
  1
CELLSTYLE_BEGIN
 90
        2
 91
        1
300
_HEADER
309
CELLSTYLE_END
300
CELLSTYLE
  1
TABLEFORMAT_BEGIN
 90
        5
170
     1
 91
        0
 92
        0
 62
   257
 93
        1
300
CONTENTFORMAT
  1
CONTENTFORMAT_BEGIN
 90
        0
 91
        0
 92
      512
 93
        0
300

 40
0.0
140
1.0
 94
        2
 62
     0
340
55
144
0.18
309
CONTENTFORMAT_END
171
     1
301
MARGIN
  1
CELLMARGIN_BEGIN
 40
0.06
 40
0.06
 40
0.06
 40
0.06
 40
0.18
 40
0.18
309
CELLMARGIN_END
 94
        6
 95
        1
302
GRIDFORMAT
  1
GRIDFORMAT_BEGIN
 90
        0
 91
        1
 62
     0
 92
       -2
340
0
 93
        0
 40
0.045
309
GRIDFORMAT_END
 95
        2
302
GRIDFORMAT
  1
GRIDFORMAT_BEGIN
 90
        0
 91
        1
 62
     0
 92
       -2
340
0
 93
        0
 40
0.045
309
GRIDFORMAT_END
 95
        4
302
GRIDFORMAT
  1
GRIDFORMAT_BEGIN
 90
        0
 91
        1
 62
     0
 92
       -2
340
0
 93
        0
 40
0.045
309
GRIDFORMAT_END
 95
        8
302
GRIDFORMAT
  1
GRIDFORMAT_BEGIN
 90
        0
 91
        1
 62
     0
 92
       -2
340
0
 93
        0
 40
0.045
309
GRIDFORMAT_END
 95
       16
302
GRIDFORMAT
  1
GRIDFORMAT_BEGIN
 90
        0
 91
        1
 62
     0
 92
       -2
340
0
 93
        0
 40
0.045
309
GRIDFORMAT_END
 95
       32
302
GRIDFORMAT
  1
GRIDFORMAT_BEGIN
 90
        0
 91
        1
 62
     0
 92
       -2
340
0
 93
        0
 40
0.045
309
GRIDFORMAT_END
309
TABLEFORMAT_END
  1
CELLSTYLE_BEGIN
 90
        3
 91
        2
300
_DATA
309
CELLSTYLE_END
  0
ENDSEC
  0
EOF
