  0
SECTION
  2
HEADER
  9
$ACADVER
  1
AC1027
  9
$ACADMAINTVER
 70
   125
  9
$DWGCODEPAGE
  3
ANSI_1252
  9
$LASTSAVEDBY
  1
andrea.ragusa
  9
$REQUIREDVERSIONS
160
                 0
  9
$INSBASE
 10
0.0
 20
0.0
 30
0.0
  9
$EXTMIN
 10
0.1474008804041205
 20
0.104233479714253
 30
-0.0015258207003583
  9
$EXTMAX
 10
28.40972952592392
 20
21.38131750931655
 30
0.0000000349246037
  9
$LIMMIN
 10
0.0
 20
0.0
  9
$LIMMAX
 10
420.0
 20
297.0
  9
$ORTHOMODE
 70
     0
  9
$REGENMODE
 70
     1
  9
$FILLMODE
 70
     1
  9
$QTEXTMODE
 70
     0
  9
$MIRRTEXT
 70
     0
  9
$LTSCALE
 40
1.0
  9
$ATTMODE
 70
     1
  9
$TEXTSIZE
 40
2.5
  9
$TRACEWID
 40
1.0
  9
$TEXTSTYLE
  7
Standard
  9
$CLAYER
  8
0
  9
$CELTYPE
  6
ByLayer
  9
$CECOLOR
 62
   256
  9
$CELTSCALE
 40
1.0
  9
$DISPSILH
 70
     0
  9
$DIMSCALE
 40
1.0
  9
$DIMASZ
 40
2.5
  9
$DIMEXO
 40
0.625
  9
$DIMDLI
 40
3.75
  9
$DIMRND
 40
0.0
  9
$DIMDLE
 40
0.0
  9
$DIMEXE
 40
1.25
  9
$DIMTP
 40
0.0
  9
$DIMTM
 40
0.0
  9
$DIMTXT
 40
2.5
  9
$DIMCEN
 40
2.5
  9
$DIMTSZ
 40
0.0
  9
$DIMTOL
 70
     0
  9
$DIMLIM
 70
     0
  9
$DIMTIH
 70
     0
  9
$DIMTOH
 70
     0
  9
$DIMSE1
 70
     0
  9
$DIMSE2
 70
     0
  9
$DIMTAD
 70
     1
  9
$DIMZIN
 70
     8
  9
$DIMBLK
  1

  9
$DIMASO
 70
     1
  9
$DIMSHO
 70
     1
  9
$DIMPOST
  1

  9
$DIMAPOST
  1

  9
$DIMALT
 70
     0
  9
$DIMALTD
 70
     3
  9
$DIMALTF
 40
0.03937007874016
  9
$DIMLFAC
 40
1.0
  9
$DIMTOFL
 70
     1
  9
$DIMTVP
 40
0.0
  9
$DIMTIX
 70
     0
  9
$DIMSOXD
 70
     0
  9
$DIMSAH
 70
     0
  9
$DIMBLK1
  1

  9
$DIMBLK2
  1

  9
$DIMSTYLE
  2
ISO-25
  9
$DIMCLRD
 70
     0
  9
$DIMCLRE
 70
     0
  9
$DIMCLRT
 70
     0
  9
$DIMTFAC
 40
1.0
  9
$DIMGAP
 40
0.625
  9
$DIMJUST
 70
     0
  9
$DIMSD1
 70
     0
  9
$DIMSD2
 70
     0
  9
$DIMTOLJ
 70
     0
  9
$DIMTZIN
 70
     8
  9
$DIMALTZ
 70
     0
  9
$DIMALTTZ
 70
     0
  9
$DIMUPT
 70
     0
  9
$DIMDEC
 70
     2
  9
$DIMTDEC
 70
     2
  9
$DIMALTU
 70
     2
  9
$DIMALTTD
 70
     3
  9
$DIMTXSTY
  7
Standard
  9
$DIMAUNIT
 70
     0
  9
$DIMADEC
 70
     0
  9
$DIMALTRND
 40
0.0
  9
$DIMAZIN
 70
     0
  9
$DIMDSEP
 70
    44
  9
$DIMATFIT
 70
     3
  9
$DIMFRAC
 70
     0
  9
$DIMLDRBLK
  1

  9
$DIMLUNIT
 70
     2
  9
$DIMLWD
 70
    -2
  9
$DIMLWE
 70
    -2
  9
$DIMTMOVE
 70
     0
  9
$DIMFXL
 40
1.0
  9
$DIMFXLON
 70
     0
  9
$DIMJOGANG
 40
0.7853981633974483
  9
$DIMTFILL
 70
     0
  9
$DIMTFILLCLR
 70
     0
  9
$DIMARCSYM
 70
     0
  9
$DIMLTYPE
  6

  9
$DIMLTEX1
  6

  9
$DIMLTEX2
  6

  9
$DIMTXTDIRECTION
 70
     0
  9
$LUNITS
 70
     2
  9
$LUPREC
 70
     4
  9
$SKETCHINC
 40
1.0
  9
$FILLETRAD
 40
0.0
  9
$AUNITS
 70
     0
  9
$AUPREC
 70
     0
  9
$MENU
  1
.
  9
$ELEVATION
 40
0.0
  9
$PELEVATION
 40
0.0
  9
$THICKNESS
 40
0.0
  9
$LIMCHECK
 70
     0
  9
$CHAMFERA
 40
0.0
  9
$CHAMFERB
 40
0.0
  9
$CHAMFERC
 40
0.0
  9
$CHAMFERD
 40
0.0
  9
$SKPOLY
 70
     0
  9
$TDCREATE
 40
2459023.676932871
  9
$TDUCREATE
 40
2459023.593599537
  9
$TDUPDATE
 40
2459023.677222222
  9
$TDUUPDATE
 40
2459023.593888889
  9
$TDINDWG
 40
0.0002893519
  9
$TDUSRTIMER
 40
0.0002893519
  9
$USRTIMER
 70
     1
  9
$ANGBASE
 50
0.0
  9
$ANGDIR
 70
     0
  9
$PDMODE
 70
     0
  9
$PDSIZE
 40
0.0
  9
$PLINEWID
 40
0.0
  9
$SPLFRAME
 70
     0
  9
$SPLINETYPE
 70
     6
  9
$SPLINESEGS
 70
     8
  9
$HANDSEED
  5
3BE
  9
$SURFTAB1
 70
     6
  9
$SURFTAB2
 70
     6
  9
$SURFTYPE
 70
     6
  9
$SURFU
 70
     6
  9
$SURFV
 70
     6
  9
$UCSBASE
  2

  9
$UCSNAME
  2

  9
$UCSORG
 10
0.0
 20
0.0
 30
0.0
  9
$UCSXDIR
 10
1.0
 20
0.0
 30
0.0
  9
$UCSYDIR
 10
0.0
 20
1.0
 30
0.0
  9
$UCSORTHOREF
  2

  9
$UCSORTHOVIEW
 70
     0
  9
$UCSORGTOP
 10
0.0
 20
0.0
 30
0.0
  9
$UCSORGBOTTOM
 10
0.0
 20
0.0
 30
0.0
  9
$UCSORGLEFT
 10
0.0
 20
0.0
 30
0.0
  9
$UCSORGRIGHT
 10
0.0
 20
0.0
 30
0.0
  9
$UCSORGFRONT
 10
0.0
 20
0.0
 30
0.0
  9
$UCSORGBACK
 10
0.0
 20
0.0
 30
0.0
  9
$PUCSBASE
  2

  9
$PUCSNAME
  2

  9
$PUCSORG
 10
0.0
 20
0.0
 30
0.0
  9
$PUCSXDIR
 10
1.0
 20
0.0
 30
0.0
  9
$PUCSYDIR
 10
0.0
 20
1.0
 30
0.0
  9
$PUCSORTHOREF
  2

  9
$PUCSORTHOVIEW
 70
     0
  9
$PUCSORGTOP
 10
0.0
 20
0.0
 30
0.0
  9
$PUCSORGBOTTOM
 10
0.0
 20
0.0
 30
0.0
  9
$PUCSORGLEFT
 10
0.0
 20
0.0
 30
0.0
  9
$PUCSORGRIGHT
 10
0.0
 20
0.0
 30
0.0
  9
$PUCSORGFRONT
 10
0.0
 20
0.0
 30
0.0
  9
$PUCSORGBACK
 10
0.0
 20
0.0
 30
0.0
  9
$USERI1
 70
     0
  9
$USERI2
 70
     0
  9
$USERI3
 70
     0
  9
$USERI4
 70
     0
  9
$USERI5
 70
     0
  9
$USERR1
 40
0.0
  9
$USERR2
 40
0.0
  9
$USERR3
 40
0.0
  9
$USERR4
 40
0.0
  9
$USERR5
 40
0.0
  9
$WORLDVIEW
 70
     1
  9
$SHADEDGE
 70
     3
  9
$SHADEDIF
 70
    70
  9
$TILEMODE
 70
     1
  9
$MAXACTVP
 70
    64
  9
$PINSBASE
 10
0.0
 20
0.0
 30
0.0
  9
$PLIMCHECK
 70
     0
  9
$PEXTMIN
 10
0.0
 20
0.0
 30
0.0
  9
$PEXTMAX
 10
0.0
 20
0.0
 30
0.0
  9
$PLIMMIN
 10
0.0
 20
0.0
  9
$PLIMMAX
 10
12.0
 20
9.0
  9
$UNITMODE
 70
     0
  9
$VISRETAIN
 70
     1
  9
$PLINEGEN
 70
     0
  9
$PSLTSCALE
 70
     1
  9
$TREEDEPTH
 70
  3020
  9
$CMLSTYLE
  2
Standard
  9
$CMLJUST
 70
     0
  9
$CMLSCALE
 40
20.0
  9
$PROXYGRAPHICS
 70
     1
  9
$MEASUREMENT
 70
     1
  9
$CELWEIGHT
370
    -1
  9
$ENDCAPS
280
     0
  9
$JOINSTYLE
280
     0
  9
$LWDISPLAY
290
     0
  9
$INSUNITS
 70
     4
  9
$HYPERLINKBASE
  1

  9
$STYLESHEET
  1

  9
$XEDIT
290
     1
  9
$CEPSNTYPE
380
     0
  9
$PSTYLEMODE
290
     1
  9
$FINGERPRINTGUID
  2
{273586FE-1173-744B-9678-3ACBFCC0A569}
  9
$VERSIONGUID
  2
{D38CFFB8-F110-3E44-9C88-28EA2BF6858D}
  9
$EXTNAMES
290
     1
  9
$PSVPSCALE
 40
0.0
  9
$OLESTARTUP
290
     0
  9
$SORTENTS
280
   127
  9
$INDEXCTL
280
     0
  9
$HIDETEXT
280
     1
  9
$XCLIPFRAME
280
     2
  9
$HALOGAP
280
     0
  9
$OBSCOLOR
 70
   257
  9
$OBSLTYPE
280
     0
  9
$INTERSECTIONDISPLAY
280
     0
  9
$INTERSECTIONCOLOR
 70
   257
  9
$DIMASSOC
280
     2
  9
$PROJECTNAME
  1

  9
$CAMERADISPLAY
290
     0
  9
$LENSLENGTH
 40
50.0
  9
$CAMERAHEIGHT
 40
0.0
  9
$STEPSPERSEC
 40
2.0
  9
$STEPSIZE
 40
6.0
  9
$3DDWFPREC
 40
2.0
  9
$PSOLWIDTH
 40
5.0
  9
$PSOLHEIGHT
 40
80.0
  9
$LOFTANG1
 40
1.570796326794896
  9
$LOFTANG2
 40
1.570796326794896
  9
$LOFTMAG1
 40
0.0
  9
$LOFTMAG2
 40
0.0
  9
$LOFTPARAM
 70
     7
  9
$LOFTNORMALS
280
     1
  9
$LATITUDE
 40
37.795
  9
$LONGITUDE
 40
-122.394
  9
$NORTHDIRECTION
 40
0.0
  9
$TIMEZONE
 70
 -8000
  9
$LIGHTGLYPHDISPLAY
280
     1
  9
$TILEMODELIGHTSYNCH
280
     1
  9
$CMATERIAL
347
EC
  9
$SOLIDHIST
280
     0
  9
$SHOWHIST
280
     1
  9
$DWFFRAME
280
     2
  9
$DGNFRAME
280
     0
  9
$REALWORLDSCALE
290
     1
  9
$INTERFERECOLOR
 62
     1
  9
$INTERFEREOBJVS
345
F9
  9
$INTERFEREVPVS
346
F6
  9
$CSHADOW
280
     0
  9
$SHADOWPLANELOCATION
 40
0.0
  0
ENDSEC
  0
SECTION
  2
CLASSES
  0
CLASS
  1
ACDBDICTIONARYWDFLT
  2
AcDbDictionaryWithDefault
  3
ObjectDBX Classes
 90
        0
 91
        1
280
     0
281
     0
  0
CLASS
  1
DICTIONARYVAR
  2
AcDbDictionaryVar
  3
ObjectDBX Classes
 90
        0
 91
       11
280
     0
281
     0
  0
CLASS
  1
TABLESTYLE
  2
AcDbTableStyle
  3
ObjectDBX Classes
 90
     4095
 91
        1
280
     0
281
     0
  0
CLASS
  1
MATERIAL
  2
AcDbMaterial
  3
ObjectDBX Classes
 90
     1153
 91
        3
280
     0
281
     0
  0
CLASS
  1
VISUALSTYLE
  2
AcDbVisualStyle
  3
ObjectDBX Classes
 90
     4095
 91
       24
280
     0
281
     0
  0
CLASS
  1
SCALE
  2
AcDbScale
  3
ObjectDBX Classes
 90
     1153
 91
       17
280
     0
281
     0
  0
CLASS
  1
MLEADERSTYLE
  2
AcDbMLeaderStyle
  3
ACDB_MLEADERSTYLE_CLASS
 90
     4095
 91
        2
280
     0
281
     0
  0
CLASS
  1
CELLSTYLEMAP
  2
AcDbCellStyleMap
  3
ObjectDBX Classes
 90
     1152
 91
        1
280
     0
281
     0
  0
CLASS
  1
EXACXREFPANELOBJECT
  2
ExAcXREFPanelObject
  3
EXAC_ESW
 90
     1025
 91
        0
280
     0
281
     0
  0
CLASS
  1
NPOCOLLECTION
  2
AcDbImpNonPersistentObjectsCollection
  3
ObjectDBX Classes
 90
     1153
 91
        0
280
     0
281
     0
  0
CLASS
  1
LAYER_INDEX
  2
AcDbLayerIndex
  3
ObjectDBX Classes
 90
        0
 91
        0
280
     0
281
     0
  0
CLASS
  1
SPATIAL_INDEX
  2
AcDbSpatialIndex
  3
ObjectDBX Classes
 90
        0
 91
        0
280
     0
281
     0
  0
CLASS
  1
IDBUFFER
  2
AcDbIdBuffer
  3
ObjectDBX Classes
 90
        0
 91
        0
280
     0
281
     0
  0
CLASS
  1
ACDBSECTIONVIEWSTYLE
  2
AcDbSectionViewStyle
  3
ObjectDBX Classes
 90
     1025
 91
        2
280
     0
281
     0
  0
CLASS
  1
ACDBDETAILVIEWSTYLE
  2
AcDbDetailViewStyle
  3
ObjectDBX Classes
 90
     1025
 91
        2
280
     0
281
     0
  0
CLASS
  1
SORTENTSTABLE
  2
AcDbSortentsTable
  3
ObjectDBX Classes
 90
        0
 91
        1
280
     0
281
     0
  0
ENDSEC
  0
SECTION
  2
TABLES
  0
TABLE
  2
VPORT
  5
8
330
0
100
AcDbSymbolTable
 70
     1
1001
ACAD
1000
DbSaveVer
1071
      208
  0
VPORT
  5
EA
330
8
100
AcDbSymbolTableRecord
100
AcDbViewportTableRecord
  2
*Active
 70
     0
 10
0.0
 20
0.0
 11
1.0
 21
1.0
 12
14.27856520316402
 22
10.7427754945154
 13
0.0
 23
0.0
 14
10.0
 24
10.0
 15
10.0
 25
10.0
 16
0.0
 26
0.0
 36
1.0
 17
0.0
 27
0.0
 37
0.0
 40
21.45268582351923
 41
1.887052341597796
 42
50.0
 43
0.0
 44
0.0
 50
0.0
 51
0.0
 71
     0
 72
  1000
 73
     1
 74
     3
 75
     0
 76
     1
 77
     0
 78
     0
281
     0
 65
     1
110
0.0
120
0.0
130
0.0
111
1.0
121
0.0
131
0.0
112
0.0
122
1.0
132
0.0
 79
     0
146
0.0
348
F5
 60
     3
 61
     5
292
     1
282
     1
141
0.0
142
0.0
 63
   250
421
  3355443
1001
ACAD_NAV_VCDISPLAY
1070
     3
  0
ENDTAB
  0
TABLE
  2
LTYPE
  5
5
330
0
100
AcDbSymbolTable
 70
     1
  0
LTYPE
  5
14
330
5
100
AcDbSymbolTableRecord
100
AcDbLinetypeTableRecord
  2
ByBlock
 70
     0
  3

 72
    65
 73
     0
 40
0.0
  0
LTYPE
  5
15
330
5
100
AcDbSymbolTableRecord
100
AcDbLinetypeTableRecord
  2
ByLayer
 70
     0
  3

 72
    65
 73
     0
 40
0.0
  0
LTYPE
  5
16
330
5
100
AcDbSymbolTableRecord
100
AcDbLinetypeTableRecord
  2
Continuous
 70
     0
  3
Solid line
 72
    65
 73
     0
 40
0.0
  0
ENDTAB
  0
TABLE
  2
LAYER
  5
2
102
{ACAD_XDICTIONARY
360
1FF
102
}
330
0
100
AcDbSymbolTable
 70
     2
  0
LAYER
  5
10
102
{ACAD_XDICTIONARY
360
13C
102
}
330
2
100
AcDbSymbolTableRecord
100
AcDbLayerTableRecord
  2
0
 70
     0
 62
     7
  6
Continuous
370
    -3
390
F
347
EE
348
0
  0
LAYER
  5
28D
330
2
100
AcDbSymbolTableRecord
100
AcDbLayerTableRecord
  2
Livello 1
 70
     0
 62
     7
  6
Continuous
370
    -3
390
F
347
EE
348
0
  0
ENDTAB
  0
TABLE
  2
STYLE
  5
3
330
0
100
AcDbSymbolTable
 70
     2
  0
STYLE
  5
11
330
3
100
AcDbSymbolTableRecord
100
AcDbTextStyleTableRecord
  2
Standard
 70
     0
 40
0.0
 41
1.0
 50
0.0
 71
     0
 42
2.5
  3
arial.ttf
  4

1001
ACAD
1000
Arial
1071
       34
  0
STYLE
  5
132
330
3
100
AcDbSymbolTableRecord
100
AcDbTextStyleTableRecord
  2
Annotativa
 70
     0
 40
0.0
 41
1.0
 50
0.0
 71
     0
 42
2.5
  3
arial.ttf
  4

1001
AcadAnnotative
1000
AnnotativeData
1002
{
1070
     1
1070
     1
1002
}
1001
ACAD
1000
Arial
1071
       34
  0
ENDTAB
  0
TABLE
  2
VIEW
  5
6
330
0
100
AcDbSymbolTable
 70
     0
  0
ENDTAB
  0
TABLE
  2
UCS
  5
7
330
0
100
AcDbSymbolTable
 70
     0
  0
ENDTAB
  0
TABLE
  2
APPID
  5
9
330
0
100
AcDbSymbolTable
 70
     8
  0
APPID
  5
12
330
9
100
AcDbSymbolTableRecord
100
AcDbRegAppTableRecord
  2
ACAD
 70
     0
  0
APPID
  5
9E
330
9
100
AcDbSymbolTableRecord
100
AcDbRegAppTableRecord
  2
ACAD_PSEXT
 70
     0
  0
APPID
  5
133
330
9
100
AcDbSymbolTableRecord
100
AcDbRegAppTableRecord
  2
AcadAnnoPO
 70
     0
  0
APPID
  5
134
330
9
100
AcDbSymbolTableRecord
100
AcDbRegAppTableRecord
  2
AcadAnnotative
 70
     0
  0
APPID
  5
135
330
9
100
AcDbSymbolTableRecord
100
AcDbRegAppTableRecord
  2
ACAD_DSTYLE_DIMJAG
 70
     0
  0
APPID
  5
136
330
9
100
AcDbSymbolTableRecord
100
AcDbRegAppTableRecord
  2
ACAD_DSTYLE_DIMTALN
 70
     0
  0
APPID
  5
165
330
9
100
AcDbSymbolTableRecord
100
AcDbRegAppTableRecord
  2
ACAD_MLEADERVER
 70
     0
  0
APPID
  5
217
330
9
100
AcDbSymbolTableRecord
100
AcDbRegAppTableRecord
  2
ACAD_NAV_VCDISPLAY
 70
     0
  0
ENDTAB
  0
TABLE
  2
DIMSTYLE
  5
A
330
0
100
AcDbSymbolTable
 70
     3
100
AcDbDimStyleTable
 71
     2
340
27
340
137
  0
DIMSTYLE
105
1B0
330
A
100
AcDbSymbolTableRecord
100
AcDbDimStyleTableRecord
  2
Standard
 70
     0
340
11
  0
DIMSTYLE
105
137
330
A
100
AcDbSymbolTableRecord
100
AcDbDimStyleTableRecord
  2
Annotativa
 70
     0
 40
0.0
 41
2.5
 42
0.625
 43
3.75
 44
1.25
 73
     0
 74
     0
 77
     1
 78
     8
140
2.5
141
2.5
143
0.03937007874016
147
0.625
171
     3
172
     1
271
     2
272
     2
274
     3
278
    44
283
     0
284
     8
340
11
1001
AcadAnnotative
1000
AnnotativeData
1002
{
1070
     1
1070
     1
1002
}
1001
ACAD_DSTYLE_DIMJAG
1070
   388
1040
1.5
1001
ACAD_DSTYLE_DIMTALN
1070
   392
1070
     0
  0
DIMSTYLE
105
27
330
A
100
AcDbSymbolTableRecord
100
AcDbDimStyleTableRecord
  2
ISO-25
 70
     0
 41
2.5
 42
0.625
 43
3.75
 44
1.25
 73
     0
 74
     0
 77
     1
 78
     8
140
2.5
141
2.5
143
0.03937007874016
147
0.625
171
     3
172
     1
271
     2
272
     2
274
     3
278
    44
283
     0
284
     8
340
11
  0
ENDTAB
  0
TABLE
  2
BLOCK_RECORD
  5
1
330
0
100
AcDbSymbolTable
 70
     2
  0
BLOCK_RECORD
  5
1F
102
{ACAD_XDICTIONARY
360
1CE
102
}
330
1
100
AcDbSymbolTableRecord
100
AcDbBlockTableRecord
  2
*Model_Space
340
22
 70
     0
280
     1
281
     0
  0
BLOCK_RECORD
  5
D2
330
1
100
AcDbSymbolTableRecord
100
AcDbBlockTableRecord
  2
*Paper_Space
340
D3
 70
     0
280
     1
281
     0
  0
BLOCK_RECORD
  5
D6
330
1
100
AcDbSymbolTableRecord
100
AcDbBlockTableRecord
  2
*Paper_Space0
340
D7
 70
     0
280
     1
281
     0
  0
ENDTAB
  0
ENDSEC
  0
SECTION
  2
BLOCKS
  0
BLOCK
  5
20
330
1F
100
AcDbEntity
  8
0
100
AcDbBlockBegin
  2
*Model_Space
 70
     0
 10
0.0
 20
0.0
 30
0.0
  3
*Model_Space
  1

  0
ENDBLK
  5
21
330
1F
100
AcDbEntity
  8
0
100
AcDbBlockEnd
  0
BLOCK
  5
D4
330
D2
100
AcDbEntity
 67
     1
  8
0
100
AcDbBlockBegin
  2
*Paper_Space
 70
     0
 10
0.0
 20
0.0
 30
0.0
  3
*Paper_Space
  1

  0
ENDBLK
  5
D5
330
D2
100
AcDbEntity
 67
     1
  8
0
100
AcDbBlockEnd
  0
BLOCK
  5
D8
330
D6
100
AcDbEntity
 67
     1
  8
0
100
AcDbBlockBegin
  2
*Paper_Space0
 70
     0
 10
0.0
 20
0.0
 30
0.0
  3
*Paper_Space0
  1

  0
ENDBLK
  5
D9
330
D6
100
AcDbEntity
 67
     1
  8
0
100
AcDbBlockEnd
  0
ENDSEC
  0
SECTION
  2
ENTITIES
  0
SPLINE
  5
322
330
1F
100
AcDbEntity
  8
Livello 1
100
AcDbSpline
210
0.0
220
0.0
230
1.0
 70
     9
 71
     3
 72
    23
 73
    19
 74
     0
 42
0.000000001
 43
0.0000000001
 40
0.0
 40
0.0
 40
0.0
 40
0.0
 40
1.0
 40
1.0
 40
1.0
 40
2.0
 40
2.0
 40
2.0
 40
3.0
 40
3.0
 40
3.0
 40
4.0
 40
4.0
 40
4.0
 40
5.0
 40
5.0
 40
5.0
 40
6.0
 40
6.0
 40
6.0
 40
6.0
 10
5.952804239656963
 20
11.1117247708832
 30
0.0
 10
5.952804239656963
 20
11.1117247708832
 30
0.0
 10
5.380245518893516
 20
11.1117247708832
 30
0.0
 10
5.380245518893516
 20
11.1117247708832
 30
0.0
 10
5.368956775347413
 20
11.1117247708832
 30
0.0
 10
5.359784208617945
 20
11.12089599187231
 30
0.0
 10
5.359784208617945
 20
11.13218540828859
 30
0.0
 10
5.359784208617945
 20
11.14382740869598
 30
0.0
 10
5.368956775347413
 20
11.15299862968498
 30
0.0
 10
5.380245518893516
 20
11.15299862968498
 30
0.0
 10
5.380245518893516
 20
11.15299862968498
 30
0.0
 10
5.952804239656963
 20
11.15299862968498
 30
0.0
 10
5.952804239656963
 20
11.15299862968498
 30
0.0
 10
5.964092983203052
 20
11.15299862968498
 30
0.0
 10
5.973264877062334
 20
11.14382740869598
 30
0.0
 10
5.973264877062334
 20
11.13218540828859
 30
0.0
 10
5.973264877062334
 20
11.12089599187231
 30
0.0
 10
5.964092983203052
 20
11.1117247708832
 30
0.0
 10
5.952804239656963
 20
11.1117247708832
 30
0.0
  0
SPLINE
  5
323
330
1F
100
AcDbEntity
  8
Livello 1
100
AcDbSpline
210
0.0
220
0.0
230
1.0
 70
     9
 71
     3
 72
    23
 73
    19
 74
     0
 42
0.000000001
 43
0.0000000001
 40
0.0
 40
0.0
 40
0.0
 40
0.0
 40
1.0
 40
1.0
 40
1.0
 40
2.0
 40
2.0
 40
2.0
 40
3.0
 40
3.0
 40
3.0
 40
4.0
 40
4.0
 40
4.0
 40
5.0
 40
5.0
 40
5.0
 40
6.0
 40
6.0
 40
6.0
 40
6.0
 10
6.504760347400306
 20
12.3179778541286
 30
0.0
 10
6.493470930983988
 20
12.3179778541286
 30
0.0
 10
6.484299037124728
 20
12.32714907511769
 30
0.0
 10
6.484299037124728
 20
12.33843849153399
 30
0.0
 10
6.484299037124728
 20
12.33843849153399
 30
0.0
 10
6.484299037124728
 20
13.07468500302119
 30
0.0
 10
6.484299037124728
 20
13.07468500302119
 30
0.0
 10
6.484299037124728
 20
13.08597441943749
 30
0.0
 10
6.493470930983988
 20
13.09514698616701
 30
0.0
 10
6.504760347400306
 20
13.09514698616701
 30
0.0
 10
6.516049090946395
 20
13.09514698616701
 30
0.0
 10
6.525220984805663
 20
13.08597441943749
 30
0.0
 10
6.525220984805663
 20
13.07468500302119
 30
0.0
 10
6.525220984805663
 20
13.07468500302119
 30
0.0
 10
6.525220984805663
 20
12.33843849153399
 30
0.0
 10
6.525220984805663
 20
12.33843849153399
 30
0.0
 10
6.525220984805663
 20
12.32714907511769
 30
0.0
 10
6.516049090946395
 20
12.3179778541286
 30
0.0
 10
6.504760347400306
 20
12.3179778541286
 30
0.0
  0
SPLINE
  5
324
330
1F
100
AcDbEntity
  8
Livello 1
100
AcDbSpline
210
0.0
220
0.0
230
1.0
 70
     9
 71
     3
 72
    23
 73
    19
 74
     0
 42
0.000000001
 43
0.0000000001
 40
0.0
 40
0.0
 40
0.0
 40
0.0
 40
1.0
 40
1.0
 40
1.0
 40
2.0
 40
2.0
 40
2.0
 40
3.0
 40
3.0
 40
3.0
 40
4.0
 40
4.0
 40
4.0
 40
5.0
 40
5.0
 40
5.0
 40
6.0
 40
6.0
 40
6.0
 40
6.0
 10
5.952804239656963
 20
9.476247106556513
 30
0.0
 10
5.941514823240652
 20
9.476247106556513
 30
0.0
 10
5.932342929381377
 20
9.485419000415816
 30
0.0
 10
5.932342929381377
 20
9.496707743961906
 30
0.0
 10
5.932342929381377
 20
9.496707743961906
 30
0.0
 10
5.932342929381377
 20
11.13218540828859
 30
0.0
 10
5.932342929381377
 20
11.13218540828859
 30
0.0
 10
5.932342929381377
 20
11.14347482470489
 30
0.0
 10
5.941514823240652
 20
11.15264604569401
 30
0.0
 10
5.952804239656963
 20
11.15264604569401
 30
0.0
 10
5.964092983203052
 20
11.15264604569401
 30
0.0
 10
5.973264877062334
 20
11.14347482470489
 30
0.0
 10
5.973264877062334
 20
11.13218540828859
 30
0.0
 10
5.973264877062334
 20
11.13218540828859
 30
0.0
 10
5.973264877062334
 20
9.496707743961906
 30
0.0
 10
5.973264877062334
 20
9.496707743961906
 30
0.0
 10
5.973264877062334
 20
9.485419000415816
 30
0.0
 10
5.964092983203052
 20
9.476247106556513
 30
0.0
 10
5.952804239656963
 20
9.476247106556513
 30
0.0
  0
SPLINE
  5
325
330
1F
100
AcDbEntity
  8
Livello 1
100
AcDbSpline
210
0.0
220
0.0
230
1.0
 70
     9
 71
     3
 72
    23
 73
    19
 74
     0
 42
0.000000001
 43
0.0000000001
 40
0.0
 40
0.0
 40
0.0
 40
0.0
 40
1.0
 40
1.0
 40
1.0
 40
2.0
 40
2.0
 40
2.0
 40
3.0
 40
3.0
 40
3.0
 40
4.0
 40
4.0
 40
4.0
 40
5.0
 40
5.0
 40
5.0
 40
6.0
 40
6.0
 40
6.0
 40
6.0
 10
5.942573920954266
 20
9.476247106556513
 30
0.0
 10
5.931284504537963
 20
9.476247106556513
 30
0.0
 10
5.922112610678695
 20
9.485419000415816
 30
0.0
 10
5.922112610678695
 20
9.496707743961906
 30
0.0
 10
5.922112610678695
 20
9.496707743961906
 30
0.0
 10
5.922112610678695
 20
11.13218540828859
 30
0.0
 10
5.922112610678695
 20
11.13218540828859
 30
0.0
 10
5.922112610678695
 20
11.14347482470489
 30
0.0
 10
5.931284504537963
 20
11.15264604569401
 30
0.0
 10
5.942573920954266
 20
11.15264604569401
 30
0.0
 10
5.953862664500377
 20
11.15264604569401
 30
0.0
 10
5.963034558359645
 20
11.14347482470489
 30
0.0
 10
5.963034558359645
 20
11.13218540828859
 30
0.0
 10
5.963034558359645
 20
11.13218540828859
 30
0.0
 10
5.963034558359645
 20
9.496707743961906
 30
0.0
 10
5.963034558359645
 20
9.496707743961906
 30
0.0
 10
5.963034558359645
 20
9.485419000415816
 30
0.0
 10
5.953862664500377
 20
9.476247106556513
 30
0.0
 10
5.942573920954266
 20
9.476247106556513
 30
0.0
  0
SPLINE
  5
326
330
1F
100
AcDbEntity
  8
Livello 1
100
AcDbSpline
210
0.0
220
0.0
230
1.0
 70
     9
 71
     3
 72
    26
 73
    22
 74
     0
 42
0.000000001
 43
0.0000000001
 40
0.0
 40
0.0
 40
0.0
 40
0.0
 40
1.0
 40
1.0
 40
1.0
 40
2.0
 40
2.0
 40
2.0
 40
3.0
 40
3.0
 40
3.0
 40
4.0
 40
4.0
 40
4.0
 40
5.0
 40
5.0
 40
5.0
 40
6.0
 40
6.0
 40
6.0
 40
7.0
 40
7.0
 40
7.0
 40
7.0
 10
4.833193289254964
 20
12.3177665728821
 30
0.0
 10
4.827901165037864
 20
12.3177665728821
 30
0.0
 10
4.822962297682074
 20
12.31988207682849
 30
0.0
 10
4.819081855169677
 20
12.32411577620209
 30
0.0
 10
4.814848828666221
 20
12.32799689158469
 30
0.0
 10
4.812731978979392
 20
12.33328834293161
 30
0.0
 10
4.812731978979392
 20
12.33822721028741
 30
0.0
 10
4.812731978979392
 20
12.34387124562542
 30
0.0
 10
4.814848828666221
 20
12.34916269697231
 30
0.0
 10
4.819081855169677
 20
12.3530438123548
 30
0.0
 10
4.826490156203391
 20
12.36115728137071
 30
0.0
 10
4.840601590288663
 20
12.36115728137071
 30
0.0
 10
4.848009891322377
 20
12.3530438123548
 30
0.0
 10
4.851890333834766
 20
12.34916269697231
 30
0.0
 10
4.854359767512683
 20
12.34387124562542
 30
0.0
 10
4.854359767512683
 20
12.33822721028741
 30
0.0
 10
4.854359767512683
 20
12.33328834293161
 30
0.0
 10
4.851890333834766
 20
12.32799689158469
 30
0.0
 10
4.848009891322377
 20
12.32411577620209
 30
0.0
 10
4.84448203280106
 20
12.31988207682849
 30
0.0
 10
4.838837324592908
 20
12.3177665728821
 30
0.0
 10
4.833193289254964
 20
12.3177665728821
 30
0.0
  0
SPLINE
  5
327
330
1F
100
AcDbEntity
  8
Livello 1
100
AcDbSpline
210
0.0
220
0.0
230
1.0
 70
     9
 71
     3
 72
    26
 73
    22
 74
     0
 42
0.000000001
 43
0.0000000001
 40
0.0
 40
0.0
 40
0.0
 40
0.0
 40
1.0
 40
1.0
 40
1.0
 40
2.0
 40
2.0
 40
2.0
 40
3.0
 40
3.0
 40
3.0
 40
4.0
 40
4.0
 40
4.0
 40
5.0
 40
5.0
 40
5.0
 40
6.0
 40
6.0
 40
6.0
 40
7.0
 40
7.0
 40
7.0
 40
7.0
 10
6.505042280019118
 20
12.3177665728821
 30
0.0
 10
6.499397571810959
 20
12.3177665728821
 30
0.0
 10
6.493752863602793
 20
12.31988207682849
 30
0.0
 10
6.490225005081477
 20
12.32411577620209
 30
0.0
 10
6.486344562569087
 20
12.32799689158469
 30
0.0
 10
6.484580969743539
 20
12.33328834293161
 30
0.0
 10
6.484580969743539
 20
12.33822721028741
 30
0.0
 10
6.484580969743539
 20
12.34387124562542
 30
0.0
 10
6.486344562569087
 20
12.34916269697231
 30
0.0
 10
6.490225005081477
 20
12.3530438123548
 30
0.0
 10
6.49763330611519
 20
12.36045211338862
 30
0.0
 10
6.51139215620941
 20
12.36115728137071
 30
0.0
 10
6.51915304123419
 20
12.3530438123548
 30
0.0
 10
6.523386067737654
 20
12.34916269697231
 30
0.0
 10
6.525502917424482
 20
12.34387124562542
 30
0.0
 10
6.525502917424482
 20
12.33822721028741
 30
0.0
 10
6.525502917424482
 20
12.33328834293161
 30
0.0
 10
6.523386067737654
 20
12.32799689158469
 30
0.0
 10
6.51915304123419
 20
12.32411577620209
 30
0.0
 10
6.515272598721793
 20
12.31988207682849
 30
0.0
 10
6.510333731365989
 20
12.3177665728821
 30
0.0
 10
6.505042280019118
 20
12.3177665728821
 30
0.0
  0
SPLINE
  5
328
330
1F
100
AcDbEntity
  8
Livello 1
100
AcDbSpline
210
0.0
220
0.0
230
1.0
 70
     9
 71
     3
 72
    23
 73
    19
 74
     0
 42
0.000000001
 43
0.0000000001
 40
0.0
 40
0.0
 40
0.0
 40
0.0
 40
1.0
 40
1.0
 40
1.0
 40
2.0
 40
2.0
 40
2.0
 40
3.0
 40
3.0
 40
3.0
 40
4.0
 40
4.0
 40
4.0
 40
5.0
 40
5.0
 40
5.0
 40
6.0
 40
6.0
 40
6.0
 40
6.0
 10
6.504760347400306
 20
12.3179778541286
 30
0.0
 10
6.504760347400306
 20
12.3179778541286
 30
0.0
 10
4.833298929878239
 20
12.3179778541286
 30
0.0
 10
4.833298929878239
 20
12.3179778541286
 30
0.0
 10
4.822010186332143
 20
12.3179778541286
 30
0.0
 10
4.81283761960266
 20
12.32714907511769
 30
0.0
 10
4.81283761960266
 20
12.33843849153399
 30
0.0
 10
4.81283761960266
 20
12.35008049194141
 30
0.0
 10
4.822010186332143
 20
12.35925171293041
 30
0.0
 10
4.833298929878239
 20
12.35925171293041
 30
0.0
 10
4.833298929878239
 20
12.35925171293041
 30
0.0
 10
6.499468223183214
 20
12.35925171293041
 30
0.0
 10
6.499468223183214
 20
12.35925171293041
 30
0.0
 10
6.511110223590605
 20
12.35925171293041
 30
0.0
 10
6.522751551127768
 20
12.35008049194141
 30
0.0
 10
6.522751551127768
 20
12.33843849153399
 30
0.0
 10
6.522751551127768
 20
12.32714907511769
 30
0.0
 10
6.516049090946395
 20
12.3179778541286
 30
0.0
 10
6.504760347400306
 20
12.3179778541286
 30
0.0
  0
SPLINE
  5
329
330
1F
100
AcDbEntity
  8
Livello 1
100
AcDbSpline
210
0.0
220
0.0
230
1.0
 70
     9
 71
     3
 72
    23
 73
    19
 74
     0
 42
0.000000001
 43
0.0000000001
 40
0.0
 40
0.0
 40
0.0
 40
0.0
 40
1.0
 40
1.0
 40
1.0
 40
2.0
 40
2.0
 40
2.0
 40
3.0
 40
3.0
 40
3.0
 40
4.0
 40
4.0
 40
4.0
 40
5.0
 40
5.0
 40
5.0
 40
6.0
 40
6.0
 40
6.0
 40
6.0
 10
5.395662321190016
 20
9.476247106556513
 30
0.0
 10
5.384372904773712
 20
9.476247106556513
 30
0.0
 10
5.375201010914445
 20
9.485419000415816
 30
0.0
 10
5.375201010914445
 20
9.496707743961906
 30
0.0
 10
5.375201010914445
 20
9.496707743961906
 30
0.0
 10
5.375201010914445
 20
11.13218540828859
 30
0.0
 10
5.375201010914445
 20
11.13218540828859
 30
0.0
 10
5.375201010914445
 20
11.14347482470489
 30
0.0
 10
5.384372904773712
 20
11.15264604569401
 30
0.0
 10
5.395662321190016
 20
11.15264604569401
 30
0.0
 10
5.406951064736119
 20
11.15264604569401
 30
0.0
 10
5.41612295859538
 20
11.14347482470489
 30
0.0
 10
5.41612295859538
 20
11.13218540828859
 30
0.0
 10
5.41612295859538
 20
11.13218540828859
 30
0.0
 10
5.41612295859538
 20
9.496707743961906
 30
0.0
 10
5.41612295859538
 20
9.496707743961906
 30
0.0
 10
5.41612295859538
 20
9.485419000415816
 30
0.0
 10
5.406951064736119
 20
9.476247106556513
 30
0.0
 10
5.395662321190016
 20
9.476247106556513
 30
0.0
  0
SPLINE
  5
32A
330
1F
100
AcDbEntity
  8
Livello 1
100
AcDbSpline
210
0.0
220
0.0
230
1.0
 70
     9
 71
     3
 72
    23
 73
    19
 74
     0
 42
0.000000001
 43
0.0000000001
 40
0.0
 40
0.0
 40
0.0
 40
0.0
 40
1.0
 40
1.0
 40
1.0
 40
2.0
 40
2.0
 40
2.0
 40
3.0
 40
3.0
 40
3.0
 40
4.0
 40
4.0
 40
4.0
 40
5.0
 40
5.0
 40
5.0
 40
6.0
 40
6.0
 40
6.0
 40
6.0
 10
5.380386821638033
 20
9.476247106556513
 30
0.0
 10
5.369097405221722
 20
9.476247106556513
 30
0.0
 10
5.359925511362462
 20
9.485419000415816
 30
0.0
 10
5.359925511362462
 20
9.496707743961906
 30
0.0
 10
5.359925511362462
 20
9.496707743961906
 30
0.0
 10
5.359925511362462
 20
11.13218540828859
 30
0.0
 10
5.359925511362462
 20
11.13218540828859
 30
0.0
 10
5.359925511362462
 20
11.14347482470489
 30
0.0
 10
5.369097405221722
 20
11.15264604569401
 30
0.0
 10
5.380386821638033
 20
11.15264604569401
 30
0.0
 10
5.391675565184144
 20
11.15264604569401
 30
0.0
 10
5.400847459043397
 20
11.14347482470489
 30
0.0
 10
5.400847459043397
 20
11.13218540828859
 30
0.0
 10
5.400847459043397
 20
11.13218540828859
 30
0.0
 10
5.400847459043397
 20
9.496707743961906
 30
0.0
 10
5.400847459043397
 20
9.496707743961906
 30
0.0
 10
5.400847459043397
 20
9.485419000415816
 30
0.0
 10
5.391675565184144
 20
9.476247106556513
 30
0.0
 10
5.380386821638033
 20
9.476247106556513
 30
0.0
  0
SPLINE
  5
32B
330
1F
100
AcDbEntity
  8
Livello 1
100
AcDbSpline
210
0.0
220
0.0
230
1.0
 70
     9
 71
     3
 72
    23
 73
    19
 74
     0
 42
0.000000001
 43
0.0000000001
 40
0.0
 40
0.0
 40
0.0
 40
0.0
 40
1.0
 40
1.0
 40
1.0
 40
2.0
 40
2.0
 40
2.0
 40
3.0
 40
3.0
 40
3.0
 40
4.0
 40
4.0
 40
4.0
 40
5.0
 40
5.0
 40
5.0
 40
6.0
 40
6.0
 40
6.0
 40
6.0
 10
4.833475894743976
 20
12.3179778541286
 30
0.0
 10
4.822186478327665
 20
12.3179778541286
 30
0.0
 10
4.813014584468412
 20
12.32714907511769
 30
0.0
 10
4.813014584468412
 20
12.33843849153399
 30
0.0
 10
4.813014584468412
 20
12.33843849153399
 30
0.0
 10
4.813014584468412
 20
13.07468500302119
 30
0.0
 10
4.813014584468412
 20
13.07468500302119
 30
0.0
 10
4.813014584468412
 20
13.08597441943749
 30
0.0
 10
4.822186478327665
 20
13.09514698616701
 30
0.0
 10
4.833475894743976
 20
13.09514698616701
 30
0.0
 10
4.844764638290087
 20
13.09514698616701
 30
0.0
 10
4.853936532149361
 20
13.08597441943749
 30
0.0
 10
4.853936532149361
 20
13.07468500302119
 30
0.0
 10
4.853936532149361
 20
13.07468500302119
 30
0.0
 10
4.853936532149361
 20
12.33843849153399
 30
0.0
 10
4.853936532149361
 20
12.33843849153399
 30
0.0
 10
4.853936532149361
 20
12.32714907511769
 30
0.0
 10
4.844764638290087
 20
12.3179778541286
 30
0.0
 10
4.833475894743976
 20
12.3179778541286
 30
0.0
  0
SPLINE
  5
32C
330
1F
100
AcDbEntity
  8
Livello 1
100
AcDbSpline
210
0.0
220
0.0
230
1.0
 70
    11
 71
     3
 72
    17
 73
    13
 74
     0
 42
0.000000001
 43
0.0000000001
 40
0.0
 40
0.0
 40
0.0
 40
0.0
 40
1.0
 40
1.0
 40
1.0
 40
2.0
 40
2.0
 40
2.0
 40
3.0
 40
3.0
 40
3.0
 40
4.0
 40
4.0
 40
4.0
 40
4.0
 10
5.664020456346307
 20
5.091042930220226
 30
0.0
 10
4.436706535466484
 20
5.091042930220226
 30
0.0
 10
3.437992194658484
 20
6.089404014166888
 30
0.0
 10
3.437992194658484
 20
7.317070519037798
 30
0.0
 10
3.437992194658484
 20
8.544384439917706
 30
0.0
 10
4.436706535466484
 20
9.543098107855513
 30
0.0
 10
5.664020456346307
 20
9.543098107855513
 30
0.0
 10
6.891334377226144
 20
9.543098107855513
 30
0.0
 10
7.890048045163936
 20
8.544384439917706
 30
0.0
 10
7.890048045163936
 20
7.317070519037798
 30
0.0
 10
7.890048045163936
 20
6.089404014166888
 30
0.0
 10
6.891334377226144
 20
5.091042930220226
 30
0.0
 10
5.664020456346307
 20
5.091042930220226
 30
0.0
  0
SPLINE
  5
32D
330
1F
100
AcDbEntity
  8
Livello 1
100
AcDbSpline
210
0.0
220
0.0
230
1.0
 70
     9
 71
     3
 72
    17
 73
    13
 74
     0
 42
0.000000001
 43
0.0000000001
 40
0.0
 40
0.0
 40
0.0
 40
0.0
 40
1.0
 40
1.0
 40
1.0
 40
2.0
 40
2.0
 40
2.0
 40
3.0
 40
3.0
 40
3.0
 40
4.0
 40
4.0
 40
4.0
 40
4.0
 10
5.664020456346307
 20
9.501823576183397
 30
0.0
 10
4.459284022558684
 20
9.501823576183397
 30
0.0
 10
3.478914815209655
 20
8.521806279955313
 30
0.0
 10
3.478914815209655
 20
7.317070519037798
 30
0.0
 10
3.478914815209655
 20
6.112334758120397
 30
0.0
 10
4.459284022558684
 20
5.131965214336304
 30
0.0
 10
5.664020456346307
 20
5.131965214336304
 30
0.0
 10
6.868756217263729
 20
5.131965214336304
 30
0.0
 10
7.849125424612765
 20
6.112334758120397
 30
0.0
 10
7.849125424612765
 20
7.317070519037798
 30
0.0
 10
7.849125424612765
 20
8.521806279955313
 30
0.0
 10
6.868756217263729
 20
9.501823576183397
 30
0.0
 10
5.664020456346307
 20
9.501823576183397
 30
0.0
  0
SPLINE
  5
32E
330
1F
100
AcDbEntity
  8
Livello 1
100
AcDbSpline
210
0.0
220
0.0
230
1.0
 70
    11
 71
     3
 72
    17
 73
    13
 74
     0
 42
0.000000001
 43
0.0000000001
 40
0.0
 40
0.0
 40
0.0
 40
0.0
 40
1.0
 40
1.0
 40
1.0
 40
2.0
 40
2.0
 40
2.0
 40
3.0
 40
3.0
 40
3.0
 40
4.0
 40
4.0
 40
4.0
 40
4.0
 10
5.664020456346307
 20
5.157541011093002
 30
0.0
 10
4.47339545664397
 20
5.157541011093002
 30
0.0
 10
3.504667576832112
 20
6.126268554469817
 30
0.0
 10
3.504667576832112
 20
7.316893554172111
 30
0.0
 10
3.504667576832112
 20
8.507518553874405
 30
0.0
 10
4.47339545664397
 20
9.476599017677415
 30
0.0
 10
5.664020456346307
 20
9.476599017677415
 30
0.0
 10
6.854645456048658
 20
9.476599017677415
 30
0.0
 10
7.823372662990323
 20
8.507518553874405
 30
0.0
 10
7.823372662990323
 20
7.316893554172111
 30
0.0
 10
7.823372662990323
 20
6.126268554469817
 30
0.0
 10
6.854645456048658
 20
5.157541011093002
 30
0.0
 10
5.664020456346307
 20
5.157541011093002
 30
0.0
  0
SPLINE
  5
32F
330
1F
100
AcDbEntity
  8
Livello 1
100
AcDbSpline
210
0.0
220
0.0
230
1.0
 70
     9
 71
     3
 72
    17
 73
    13
 74
     0
 42
0.000000001
 43
0.0000000001
 40
0.0
 40
0.0
 40
0.0
 40
0.0
 40
1.0
 40
1.0
 40
1.0
 40
2.0
 40
2.0
 40
2.0
 40
3.0
 40
3.0
 40
3.0
 40
4.0
 40
4.0
 40
4.0
 40
4.0
 10
5.664020456346307
 20
9.435324486005413
 30
0.0
 10
4.495972943736163
 20
9.435324486005413
 30
0.0
 10
3.545589524513047
 20
8.484941066782198
 30
0.0
 10
3.545589524513047
 20
7.316893554172111
 30
0.0
 10
3.545589524513047
 20
6.14884671443221
 30
0.0
 10
4.495972943736163
 20
5.198463295208995
 30
0.0
 10
5.664020456346307
 20
5.198463295208995
 30
0.0
 10
6.832067296086236
 20
5.198463295208995
 30
0.0
 10
7.782450715309366
 20
6.14884671443221
 30
0.0
 10
7.782450715309366
 20
7.316893554172111
 30
0.0
 10
7.782450715309366
 20
8.484941066782198
 30
0.0
 10
6.832067296086236
 20
9.435324486005413
 30
0.0
 10
5.664020456346307
 20
9.435324486005413
 30
0.0
  0
SPLINE
  5
330
330
1F
100
AcDbEntity
  8
Livello 1
100
AcDbSpline
210
0.0
220
0.0
230
1.0
 70
     9
 71
     3
 72
    17
 73
    13
 74
     0
 42
0.000000001
 43
0.0000000001
 40
0.0
 40
0.0
 40
0.0
 40
0.0
 40
1.0
 40
1.0
 40
1.0
 40
2.0
 40
2.0
 40
2.0
 40
3.0
 40
3.0
 40
3.0
 40
4.0
 40
4.0
 40
4.0
 40
4.0
 10
5.664020456346307
 20
5.172569567277207
 30
0.0
 10
4.479039491981914
 20
5.172569567277207
 30
0.0
 10
3.51454531154372
 20
6.134594650472593
 30
0.0
 10
3.51454531154372
 20
7.317105508288904
 30
0.0
 10
3.51454531154372
 20
8.499263782114127
 30
0.0
 10
4.479039491981914
 20
9.461288528874405
 30
0.0
 10
5.664020456346307
 20
9.461288528874405
 30
0.0
 10
6.849000747840499
 20
9.461288528874405
 30
0.0
 10
7.813142344287626
 20
8.499263782114127
 30
0.0
 10
7.813142344287626
 20
7.317105508288904
 30
0.0
 10
7.813142344287626
 20
6.134594650472593
 30
0.0
 10
6.849000747840499
 20
5.172569567277207
 30
0.0
 10
5.664020456346307
 20
5.172569567277207
 30
0.0
  0
SPLINE
  5
331
330
1F
100
AcDbEntity
  8
Livello 1
100
AcDbSpline
210
0.0
220
0.0
230
1.0
 70
    11
 71
     3
 72
    17
 73
    13
 74
     0
 42
0.000000001
 43
0.0000000001
 40
0.0
 40
0.0
 40
0.0
 40
0.0
 40
1.0
 40
1.0
 40
1.0
 40
2.0
 40
2.0
 40
2.0
 40
3.0
 40
3.0
 40
3.0
 40
4.0
 40
4.0
 40
4.0
 40
4.0
 10
5.664020456346307
 20
9.420013997202403
 30
0.0
 10
4.501617651944329
 20
9.420013997202403
 30
0.0
 10
3.555820516085937
 20
8.476685622151705
 30
0.0
 10
3.555820516085937
 20
7.317105508288904
 30
0.0
 10
3.555820516085937
 20
6.157172137564799
 30
0.0
 10
4.501617651944329
 20
5.213844435384316
 30
0.0
 10
5.664020456346307
 20
5.213844435384316
 30
0.0
 10
6.826423260748299
 20
5.213844435384316
 30
0.0
 10
7.772220396606677
 20
6.157172137564799
 30
0.0
 10
7.772220396606677
 20
7.317105508288904
 30
0.0
 10
7.772220396606677
 20
8.476685622151705
 30
0.0
 10
6.826423260748299
 20
9.420013997202403
 30
0.0
 10
5.664020456346307
 20
9.420013997202403
 30
0.0
  0
SPLINE
  5
332
330
1F
100
AcDbEntity
  8
Livello 1
100
AcDbSpline
210
0.0
220
0.0
230
1.0
 70
     9
 71
     3
 72
    17
 73
    13
 74
     0
 42
0.000000001
 43
0.0000000001
 40
0.0
 40
0.0
 40
0.0
 40
0.0
 40
1.0
 40
1.0
 40
1.0
 40
2.0
 40
2.0
 40
2.0
 40
3.0
 40
3.0
 40
3.0
 40
4.0
 40
4.0
 40
4.0
 40
4.0
 10
5.664020456346307
 20
5.244254468178922
 30
0.0
 10
4.521019864506286
 20
5.244254468178922
 30
0.0
 10
3.591451012420009
 20
6.174176240691309
 30
0.0
 10
3.591451012420009
 20
7.316823575670014
 30
0.0
 10
3.591451012420009
 20
8.459823494639891
 30
0.0
 10
4.521019864506286
 20
9.389745603587414
 30
0.0
 10
5.664020456346307
 20
9.389745603587414
 30
0.0
 10
6.807020375316142
 20
9.389745603587414
 30
0.0
 10
7.736589900272619
 20
8.459823494639891
 30
0.0
 10
7.736589900272619
 20
7.316823575670014
 30
0.0
 10
7.736589900272619
 20
6.174176240691309
 30
0.0
 10
6.807020375316142
 20
5.244254468178922
 30
0.0
 10
5.664020456346307
 20
5.244254468178922
 30
0.0
  0
SPLINE
  5
333
330
1F
100
AcDbEntity
  8
Livello 1
100
AcDbSpline
210
0.0
220
0.0
230
1.0
 70
     9
 71
     3
 72
    17
 73
    13
 74
     0
 42
0.000000001
 43
0.0000000001
 40
0.0
 40
0.0
 40
0.0
 40
0.0
 40
1.0
 40
1.0
 40
1.0
 40
2.0
 40
2.0
 40
2.0
 40
3.0
 40
3.0
 40
3.0
 40
4.0
 40
4.0
 40
4.0
 40
4.0
 10
5.664020456346307
 20
9.348471071915412
 30
0.0
 10
4.543598024468693
 20
9.348471071915412
 30
0.0
 10
3.632372960100958
 20
8.437246007547685
 30
0.0
 10
3.632372960100958
 20
7.316823575670014
 30
0.0
 10
3.632372960100958
 20
6.19675440065373
 30
0.0
 10
4.543598024468693
 20
5.285176752294916
 30
0.0
 10
5.664020456346307
 20
5.285176752294916
 30
0.0
 10
6.784442215353728
 20
5.285176752294916
 30
0.0
 10
7.695667279721462
 20
6.19675440065373
 30
0.0
 10
7.695667279721462
 20
7.316823575670014
 30
0.0
 10
7.695667279721462
 20
8.437246007547685
 30
0.0
 10
6.784442215353728
 20
9.348471071915412
 30
0.0
 10
5.664020456346307
 20
9.348471071915412
 30
0.0
  0
SPLINE
  5
334
330
1F
100
AcDbEntity
  8
Livello 1
100
AcDbSpline
210
0.0
220
0.0
230
1.0
 70
     9
 71
     3
 72
    23
 73
    19
 74
     0
 42
0.000000001
 43
0.0000000001
 40
0.0
 40
0.0
 40
0.0
 40
0.0
 40
1.0
 40
1.0
 40
1.0
 40
2.0
 40
2.0
 40
2.0
 40
3.0
 40
3.0
 40
3.0
 40
4.0
 40
4.0
 40
4.0
 40
5.0
 40
5.0
 40
5.0
 40
6.0
 40
6.0
 40
6.0
 40
6.0
 10
5.380386821638033
 20
11.11433550730561
 30
0.0
 10
5.369097405221722
 20
11.11433550730561
 30
0.0
 10
5.359925511362462
 20
11.1235067282947
 30
0.0
 10
5.359925511362462
 20
11.134796144711
 30
0.0
 10
5.359925511362462
 20
11.59023238489939
 30
0.0
 10
5.162370144259945
 20
12.02203204028188
 30
0.0
 10
4.818058419577283
 20
12.3197771090754
 30
0.0
 10
4.809592366570356
 20
12.32718541010911
 30
0.0
 10
4.808533941726949
 20
12.34023774648082
 30
0.0
 10
4.815942242760662
 20
12.34870379948771
 30
0.0
 10
4.823350543794369
 20
12.35717119823499
 30
0.0
 10
4.836402880166033
 20
12.35822895020831
 30
0.0
 10
4.844869606043147
 20
12.35082064917449
 30
0.0
 10
5.198353224585083
 20
12.04531604109661
 30
0.0
 10
5.400847459043397
 20
11.60222696929779
 30
0.0
 10
5.400847459043397
 20
11.134796144711
 30
0.0
 10
5.400847459043397
 20
11.1235067282947
 30
0.0
 10
5.391675565184144
 20
11.11433550730561
 30
0.0
 10
5.380386821638033
 20
11.11433550730561
 30
0.0
  0
SPLINE
  5
335
330
1F
100
AcDbEntity
  8
Livello 1
100
AcDbSpline
210
0.0
220
0.0
230
1.0
 70
     9
 71
     3
 72
    23
 73
    19
 74
     0
 42
0.000000001
 43
0.0000000001
 40
0.0
 40
0.0
 40
0.0
 40
0.0
 40
1.0
 40
1.0
 40
1.0
 40
2.0
 40
2.0
 40
2.0
 40
3.0
 40
3.0
 40
3.0
 40
4.0
 40
4.0
 40
4.0
 40
5.0
 40
5.0
 40
5.0
 40
6.0
 40
6.0
 40
6.0
 40
6.0
 10
5.947689080305622
 20
11.1145117993012
 30
0.0
 10
5.936399663889297
 20
11.1145117993012
 30
0.0
 10
5.927227770030043
 20
11.1236830202902
 30
0.0
 10
5.927227770030043
 20
11.13497243670662
 30
0.0
 10
5.927227770030043
 20
11.60205067730231
 30
0.0
 10
6.129722004488357
 20
12.0451384033606
 30
0.0
 10
6.483205623030293
 20
12.35099694117011
 30
0.0
 10
6.491672348907407
 20
12.35840524220381
 30
0.0
 10
6.504724685279072
 20
12.35734749023061
 30
0.0
 10
6.512132986312778
 20
12.34888009148321
 30
0.0
 10
6.519541287346484
 20
12.34041403847629
 30
0.0
 10
6.518836119364351
 20
12.32736170210469
 30
0.0
 10
6.510016809496157
 20
12.31995340107102
 30
0.0
 10
6.165705084813488
 20
12.02220833227741
 30
0.0
 10
5.968149717710986
 20
11.59040867689489
 30
0.0
 10
5.968149717710986
 20
11.13497243670662
 30
0.0
 10
5.968149717710986
 20
11.1236830202902
 30
0.0
 10
5.958977823851718
 20
11.1145117993012
 30
0.0
 10
5.947689080305622
 20
11.1145117993012
 30
0.0
  0
SPLINE
  5
336
330
1F
100
AcDbEntity
  8
Livello 1
100
AcDbSpline
210
0.0
220
0.0
230
1.0
 70
     9
 71
     3
 72
    26
 73
    22
 74
     0
 42
0.000000001
 43
0.0000000001
 40
0.0
 40
0.0
 40
0.0
 40
0.0
 40
1.0
 40
1.0
 40
1.0
 40
2.0
 40
2.0
 40
2.0
 40
3.0
 40
3.0
 40
3.0
 40
4.0
 40
4.0
 40
4.0
 40
5.0
 40
5.0
 40
5.0
 40
6.0
 40
6.0
 40
6.0
 40
7.0
 40
7.0
 40
7.0
 40
7.0
 10
4.839720130311
 20
12.31067586658841
 30
0.0
 10
4.834780590084982
 20
12.31067586658841
 30
0.0
 10
4.830194979590459
 20
12.31243878654382
 30
0.0
 10
4.826314537078069
 20
12.31561473394419
 30
0.0
 10
4.826314537078069
 20
12.31561473394419
 30
0.0
 10
4.815730961514113
 20
12.3247859549333
 30
0.0
 10
4.815730961514113
 20
12.3247859549333
 30
0.0
 10
4.807264235636971
 20
12.33219425596701
 30
0.0
 10
4.806558394784616
 20
12.3452479380791
 30
0.0
 10
4.813966695818336
 20
12.35371399108601
 30
0.0
 10
4.821375669722257
 20
12.36218138983329
 30
0.0
 10
4.834428006093915
 20
12.3632391418065
 30
0.0
 10
4.842894731971043
 20
12.35583084077282
 30
0.0
 10
4.842894731971043
 20
12.35583084077282
 30
0.0
 10
4.853125050673732
 20
12.3466582740433
 30
0.0
 10
4.853125050673732
 20
12.3466582740433
 30
0.0
 10
4.861945033412126
 20
12.33924997300963
 30
0.0
 10
4.862650201394266
 20
12.326197636638
 30
0.0
 10
4.855241900360553
 20
12.31773023789063
 30
0.0
 10
4.851008873857104
 20
12.31314530026631
 30
0.0
 10
4.845364165648945
 20
12.31067586658841
 30
0.0
 10
4.839720130311
 20
12.31067586658841
 30
0.0
  0
SPLINE
  5
337
330
1F
100
AcDbEntity
  8
Livello 1
100
AcDbSpline
210
0.0
220
0.0
230
1.0
 70
     9
 71
     3
 72
    26
 73
    22
 74
     0
 42
0.000000001
 43
0.0000000001
 40
0.0
 40
0.0
 40
0.0
 40
0.0
 40
1.0
 40
1.0
 40
1.0
 40
2.0
 40
2.0
 40
2.0
 40
3.0
 40
3.0
 40
3.0
 40
4.0
 40
4.0
 40
4.0
 40
5.0
 40
5.0
 40
5.0
 40
6.0
 40
6.0
 40
6.0
 40
7.0
 40
7.0
 40
7.0
 40
7.0
 10
6.490049385956162
 20
12.31106343983052
 30
0.0
 10
6.484404677748003
 20
12.31106343983052
 30
0.0
 10
6.478759969539837
 20
12.31353287350842
 30
0.0
 10
6.474526943036387
 20
12.31811781113271
 30
0.0
 10
6.467118642002667
 20
12.32658520987999
 30
0.0
 10
6.467823809984807
 20
12.33963754625171
 30
0.0
 10
6.476643792723216
 20
12.34704584728538
 30
0.0
 10
6.476643792723216
 20
12.34704584728538
 30
0.0
 10
6.487226695416971
 20
12.35657099800599
 30
0.0
 10
6.487226695416971
 20
12.35657099800599
 30
0.0
 10
6.496046005285165
 20
12.36362671504861
 30
0.0
 10
6.509099014527038
 20
12.3625689630754
 30
0.0
 10
6.516154731569685
 20
12.353748980337
 30
0.0
 10
6.523563032603391
 20
12.34528158158971
 30
0.0
 10
6.522504607759977
 20
12.332229245218
 30
0.0
 10
6.513685297891782
 20
12.32482094418432
 30
0.0
 10
6.513685297891782
 20
12.32482094418432
 30
0.0
 10
6.503454306318893
 20
12.31600230718632
 30
0.0
 10
6.503454306318893
 20
12.31600230718632
 30
0.0
 10
6.499573863806503
 20
12.31282635978582
 30
0.0
 10
6.494988253311966
 20
12.31106343983052
 30
0.0
 10
6.490049385956162
 20
12.31106343983052
 30
0.0
  0
SPLINE
  5
338
330
1F
100
AcDbEntity
  8
Livello 1
100
AcDbSpline
210
0.0
220
0.0
230
1.0
 70
    11
 71
     3
 72
    17
 73
    13
 74
     0
 42
0.000000001
 43
0.0000000001
 40
0.0
 40
0.0
 40
0.0
 40
0.0
 40
1.0
 40
1.0
 40
1.0
 40
2.0
 40
2.0
 40
2.0
 40
3.0
 40
3.0
 40
3.0
 40
4.0
 40
4.0
 40
4.0
 40
4.0
 10
5.664020456346307
 20
5.990556015678492
 30
0.0
 10
4.932712139344687
 20
5.990556015678492
 30
0.0
 10
4.337575931489055
 20
6.585691550663995
 30
0.0
 10
4.337575931489055
 20
7.3169998676656
 30
0.0
 10
4.337575931489055
 20
8.048308184667206
 30
0.0
 10
4.932712139344687
 20
8.643444392522809
 30
0.0
 10
5.664020456346307
 20
8.643444392522809
 30
0.0
 10
6.395328773347934
 20
8.643444392522809
 30
0.0
 10
6.990464308333358
 20
8.048308184667206
 30
0.0
 10
6.990464308333358
 20
7.3169998676656
 30
0.0
 10
6.990464308333358
 20
6.585691550663995
 30
0.0
 10
6.395328773347934
 20
5.990556015678492
 30
0.0
 10
5.664020456346307
 20
5.990556015678492
 30
0.0
  0
SPLINE
  5
339
330
1F
100
AcDbEntity
  8
Livello 1
100
AcDbSpline
210
0.0
220
0.0
230
1.0
 70
     9
 71
     3
 72
    17
 73
    13
 74
     0
 42
0.000000001
 43
0.0000000001
 40
0.0
 40
0.0
 40
0.0
 40
0.0
 40
1.0
 40
1.0
 40
1.0
 40
2.0
 40
2.0
 40
2.0
 40
3.0
 40
3.0
 40
3.0
 40
4.0
 40
4.0
 40
4.0
 40
4.0
 10
5.664020456346307
 20
8.602169860850807
 30
0.0
 10
4.955289626436893
 20
8.602169860850807
 30
0.0
 10
4.378497879169998
 20
8.025730697574999
 30
0.0
 10
4.378497879169998
 20
7.3169998676656
 30
0.0
 10
4.378497879169998
 20
6.608269710626416
 30
0.0
 10
4.955289626436893
 20
6.031477963359492
 30
0.0
 10
5.664020456346307
 20
6.031477963359492
 30
0.0
 10
6.37275061338552
 20
6.031477963359492
 30
0.0
 10
6.949542360652415
 20
6.608269710626416
 30
0.0
 10
6.949542360652415
 20
7.3169998676656
 30
0.0
 10
6.949542360652415
 20
8.025730697574999
 30
0.0
 10
6.37275061338552
 20
8.602169860850807
 30
0.0
 10
5.664020456346307
 20
8.602169860850807
 30
0.0
  0
SPLINE
  5
33A
330
1F
100
AcDbEntity
  8
Livello 1
100
AcDbSpline
210
0.0
220
0.0
230
1.0
 70
     9
 71
     3
 72
    26
 73
    22
 74
     0
 42
0.000000001
 43
0.0000000001
 40
0.0
 40
0.0
 40
0.0
 40
0.0
 40
1.0
 40
1.0
 40
1.0
 40
2.0
 40
2.0
 40
2.0
 40
3.0
 40
3.0
 40
3.0
 40
4.0
 40
4.0
 40
4.0
 40
5.0
 40
5.0
 40
5.0
 40
6.0
 40
6.0
 40
6.0
 40
7.0
 40
7.0
 40
7.0
 40
7.0
 10
4.828290084020395
 20
12.31631990192639
 30
0.0
 10
4.82370380065565
 20
12.31631990192639
 30
0.0
 10
4.819470101281979
 20
12.31808282188171
 30
0.0
 10
4.815589658769589
 20
12.32125876928219
 30
0.0
 10
4.815589658769589
 20
12.32125876928219
 30
0.0
 10
4.829701092854875
 20
12.33642795534061
 30
0.0
 10
4.829701092854875
 20
12.33642795534061
 30
0.0
 10
4.829701092854875
 20
12.33642795534061
 30
0.0
 10
4.815237074778515
 20
12.32196393726431
 30
0.0
 10
4.815237074778515
 20
12.32196393726431
 30
0.0
 10
4.815237074778515
 20
12.32196393726431
 30
0.0
 10
4.82758424316804
 20
12.33819087529599
 30
0.0
 10
4.82758424316804
 20
12.33819087529599
 30
0.0
 10
4.82758424316804
 20
12.33819087529599
 30
0.0
 10
4.842048261244393
 20
12.3530074773634
 30
0.0
 10
4.842048261244393
 20
12.3530074773634
 30
0.0
 10
4.850161730260232
 20
12.34489400834761
 30
0.0
 10
4.851220155103654
 20
12.3311365039938
 30
0.0
 10
4.843459270078874
 20
12.32302168923749
 30
0.0
 10
4.839225570705217
 20
12.31878933560432
 30
0.0
 10
4.833581535367265
 20
12.31631990192639
 30
0.0
 10
4.828290084020395
 20
12.31631990192639
 30
0.0
  0
SPLINE
  5
33B
330
1F
100
AcDbEntity
  8
Livello 1
100
AcDbSpline
210
0.0
220
0.0
230
1.0
 70
     9
 71
     3
 72
    23
 73
    19
 74
     0
 42
0.000000001
 43
0.0000000001
 40
0.0
 40
0.0
 40
0.0
 40
0.0
 40
1.0
 40
1.0
 40
1.0
 40
2.0
 40
2.0
 40
2.0
 40
3.0
 40
3.0
 40
3.0
 40
4.0
 40
4.0
 40
4.0
 40
5.0
 40
5.0
 40
5.0
 40
6.0
 40
6.0
 40
6.0
 40
6.0
 10
6.499115639192147
 20
12.31653118317291
 30
0.0
 10
6.493118346992915
 20
12.31653118317291
 30
0.0
 10
6.486767797932415
 20
12.3193532008419
 30
0.0
 10
6.482887355420032
 20
12.32464465218882
 30
0.0
 10
6.475831638377393
 20
12.33346328918671
 30
0.0
 10
6.477595904073147
 20
12.34616438730779
 30
0.0
 10
6.486415213941349
 20
12.35321875860998
 30
0.0
 10
6.49452935582741
 20
12.36133357336621
 30
0.0
 10
6.507229108207987
 20
12.3609809893752
 30
0.0
 10
6.515343250094055
 20
12.35321875860998
 30
0.0
 10
6.523104135118835
 20
12.3451052895941
 30
0.0
 10
6.523104135118835
 20
12.33170036923141
 30
0.0
 10
6.514989993232767
 20
12.32393948420662
 30
0.0
 10
6.514284825250641
 20
12.32323297048413
 30
0.0
 10
6.512167975563805
 20
12.32147005052872
 30
0.0
 10
6.511815391572731
 20
12.3207635368062
 30
0.0
 10
6.507934949060334
 20
12.3179415191372
 30
0.0
 10
6.503348665695604
 20
12.31653118317291
 30
0.0
 10
6.499115639192147
 20
12.31653118317291
 30
0.0
  0
SPLINE
  5
33C
330
1F
100
AcDbEntity
  8
Livello 1
100
AcDbSpline
210
0.0
220
0.0
230
1.0
 70
     9
 71
     3
 72
    23
 73
    19
 74
     0
 42
0.000000001
 43
0.0000000001
 40
0.0
 40
0.0
 40
0.0
 40
0.0
 40
1.0
 40
1.0
 40
1.0
 40
2.0
 40
2.0
 40
2.0
 40
3.0
 40
3.0
 40
3.0
 40
4.0
 40
4.0
 40
4.0
 40
5.0
 40
5.0
 40
5.0
 40
6.0
 40
6.0
 40
6.0
 40
6.0
 10
6.498410471210007
 20
12.31586100444181
 30
0.0
 10
6.493118346992915
 20
12.31586100444181
 30
0.0
 10
6.487826895646051
 20
12.3179765083882
 30
0.0
 10
6.483946453133654
 20
12.32185762377079
 30
0.0
 10
6.475832311247586
 20
12.32997109278662
 30
0.0
 10
6.475832311247586
 20
12.34302477489868
 30
0.0
 10
6.483946453133654
 20
12.3507856599235
 30
0.0
 10
6.492059922149501
 20
12.35889912893941
 30
0.0
 10
6.505112931391366
 20
12.35925171293041
 30
0.0
 10
6.513227073277434
 20
12.35113824391462
 30
0.0
 10
6.52134054229328
 20
12.34337735888982
 30
0.0
 10
6.521693799154554
 20
12.3306776065092
 30
0.0
 10
6.5135796572685
 20
12.32256279175291
 30
0.0
 10
6.5135796572685
 20
12.32256279175291
 30
0.0
 10
6.512873816416153
 20
12.32185762377079
 30
0.0
 10
6.512873816416153
 20
12.32185762377079
 30
0.0
 10
6.508993373903756
 20
12.3179765083882
 30
0.0
 10
6.503701922556892
 20
12.31586100444181
 30
0.0
 10
6.498410471210007
 20
12.31586100444181
 30
0.0
  0
SPLINE
  5
33D
330
1F
100
AcDbEntity
  8
Livello 1
100
AcDbSpline
210
0.0
220
0.0
230
1.0
 70
     9
 71
     3
 72
   146
 73
   142
 74
     0
 42
0.000000001
 43
0.0000000001
 40
0.0
 40
0.0
 40
0.0
 40
0.0
 40
1.0
 40
1.0
 40
1.0
 40
2.0
 40
2.0
 40
2.0
 40
3.0
 40
3.0
 40
3.0
 40
4.0
 40
4.0
 40
4.0
 40
5.0
 40
5.0
 40
5.0
 40
6.0
 40
6.0
 40
6.0
 40
7.0
 40
7.0
 40
7.0
 40
8.0
 40
8.0
 40
8.0
 40
9.0
 40
9.0
 40
9.0
 40
10.0
 40
10.0
 40
10.0
 40
11.0
 40
11.0
 40
11.0
 40
12.0
 40
12.0
 40
12.0
 40
13.0
 40
13.0
 40
13.0
 40
14.0
 40
14.0
 40
14.0
 40
15.0
 40
15.0
 40
15.0
 40
16.0
 40
16.0
 40
16.0
 40
17.0
 40
17.0
 40
17.0
 40
18.0
 40
18.0
 40
18.0
 40
19.0
 40
19.0
 40
19.0
 40
20.0
 40
20.0
 40
20.0
 40
21.0
 40
21.0
 40
21.0
 40
22.0
 40
22.0
 40
22.0
 40
23.0
 40
23.0
 40
23.0
 40
24.0
 40
24.0
 40
24.0
 40
25.0
 40
25.0
 40
25.0
 40
26.0
 40
26.0
 40
26.0
 40
27.0
 40
27.0
 40
27.0
 40
28.0
 40
28.0
 40
28.0
 40
29.0
 40
29.0
 40
29.0
 40
30.0
 40
30.0
 40
30.0
 40
31.0
 40
31.0
 40
31.0
 40
32.0
 40
32.0
 40
32.0
 40
33.0
 40
33.0
 40
33.0
 40
34.0
 40
34.0
 40
34.0
 40
35.0
 40
35.0
 40
35.0
 40
36.0
 40
36.0
 40
36.0
 40
37.0
 40
37.0
 40
37.0
 40
38.0
 40
38.0
 40
38.0
 40
39.0
 40
39.0
 40
39.0
 40
40.0
 40
40.0
 40
40.0
 40
41.0
 40
41.0
 40
41.0
 40
42.0
 40
42.0
 40
42.0
 40
43.0
 40
43.0
 40
43.0
 40
44.0
 40
44.0
 40
44.0
 40
45.0
 40
45.0
 40
45.0
 40
46.0
 40
46.0
 40
46.0
 40
47.0
 40
47.0
 40
47.0
 40
47.0
 10
5.395662321190016
 20
11.1117247708832
 30
0.0
 10
5.385431329617119
 20
11.1117247708832
 30
0.0
 10
5.376612019748932
 20
11.11948565590799
 30
0.0
 10
5.375201010914445
 20
11.12971597461069
 30
0.0
 10
5.375201010914445
 20
11.12971597461069
 30
0.0
 10
5.370262143558626
 20
11.17063859516182
 30
0.0
 10
5.370262143558626
 20
11.17063859516182
 30
0.0
 10
5.370262143558626
 20
11.17063859516182
 30
0.0
 10
5.370262143558626
 20
11.21932075499739
 30
0.0
 10
5.370262143558626
 20
11.21932075499739
 30
0.0
 10
5.370262143558626
 20
11.21932075499739
 30
0.0
 10
5.364970019341541
 20
11.25742135787962
 30
0.0
 10
5.364970019341541
 20
11.25742135787962
 30
0.0
 10
5.364970019341541
 20
11.25742135787962
 30
0.0
 10
5.364970019341541
 20
11.30081341210859
 30
0.0
 10
5.364970019341541
 20
11.30081341210859
 30
0.0
 10
5.364970019341541
 20
11.30081341210859
 30
0.0
 10
5.360031151985737
 20
11.33926525324139
 30
0.0
 10
5.360031151985737
 20
11.33926525324139
 30
0.0
 10
5.360031151985737
 20
11.33926525324139
 30
0.0
 10
5.350153417274121
 20
11.38336247545271
 30
0.0
 10
5.350153417274121
 20
11.38336247545271
 30
0.0
 10
5.350153417274121
 20
11.38336247545271
 30
0.0
 10
5.344509381936177
 20
11.4264019456906
 30
0.0
 10
5.344509381936177
 20
11.4264019456906
 30
0.0
 10
5.344509381936177
 20
11.4264019456906
 30
0.0
 10
5.304292602237367
 20
11.58726906448589
 30
0.0
 10
5.304292602237367
 20
11.58726906448589
 30
0.0
 10
5.304292602237367
 20
11.58726906448589
 30
0.0
 10
5.228092742213419
 20
11.78447117472711
 30
0.0
 10
5.228092742213419
 20
11.78447117472711
 30
0.0
 10
5.228092742213419
 20
11.78447117472711
 30
0.0
 10
5.188934387358031
 20
11.85291014972631
 30
0.0
 10
5.188934387358031
 20
11.85291014972631
 30
0.0
 10
5.188934387358031
 20
11.85291014972631
 30
0.0
 10
5.127551129401503
 20
11.9654463469366
 30
0.0
 10
5.127551129401503
 20
11.9654463469366
 30
0.0
 10
5.127551129401503
 20
11.9654463469366
 30
0.0
 10
5.10285611975226
 20
11.99931325044511
 30
0.0
 10
5.10285611975226
 20
11.99931325044511
 30
0.0
 10
5.10285611975226
 20
11.99931325044511
 30
0.0
 10
5.081337057503475
 20
12.03705992359579
 30
0.0
 10
5.081337057503475
 20
12.03705992359579
 30
0.0
 10
5.081337057503475
 20
12.03705992359579
 30
0.0
 10
5.05805372955892
 20
12.06493020777532
 30
0.0
 10
5.05805372955892
 20
12.06493020777532
 30
0.0
 10
5.05805372955892
 20
12.06493020777532
 30
0.0
 10
5.031595127084116
 20
12.10161912895282
 30
0.0
 10
5.031595127084116
 20
12.10161912895282
 30
0.0
 10
5.031595127084116
 20
12.10161912895282
 30
0.0
 10
5.003020347792691
 20
12.129840651383
 30
0.0
 10
5.003020347792691
 20
12.129840651383
 30
0.0
 10
5.003020347792691
 20
12.129840651383
 30
0.0
 10
4.975150736483399
 20
12.1682938382562
 30
0.0
 10
4.975150736483399
 20
12.1682938382562
 30
0.0
 10
4.975150736483399
 20
12.1682938382562
 30
0.0
 10
4.950456399704364
 20
12.1975744584
 30
0.0
 10
4.950456399704364
 20
12.1975744584
 30
0.0
 10
4.950456399704364
 20
12.1975744584
 30
0.0
 10
4.890484150582331
 20
12.25754603465179
 30
0.0
 10
4.890484150582331
 20
12.25754603465179
 30
0.0
 10
4.890484150582331
 20
12.25754603465179
 30
0.0
 10
4.861203530438551
 20
12.28188778743981
 30
0.0
 10
4.861203530438551
 20
12.28188778743981
 30
0.0
 10
4.861203530438551
 20
12.28188778743981
 30
0.0
 10
4.829100892625802
 20
12.31363784126148
 30
0.0
 10
4.829100892625802
 20
12.31363784126148
 30
0.0
 10
4.821340007601015
 20
12.3217513102773
 30
0.0
 10
4.821340007601015
 20
12.33480499238939
 30
0.0
 10
4.829100892625802
 20
12.34291846140519
 30
0.0
 10
4.837215034511864
 20
12.35067934643001
 30
0.0
 10
4.850267370883521
 20
12.35067934643001
 30
0.0
 10
4.858028928778509
 20
12.34291846140519
 30
0.0
 10
4.858028928778509
 20
12.34291846140519
 30
0.0
 10
4.888720557756784
 20
12.31222750529719
 30
0.0
 10
4.888720557756784
 20
12.31222750529719
 30
0.0
 10
4.888720557756784
 20
12.31222750529719
 30
0.0
 10
4.918001177900549
 20
12.2878857525092
 30
0.0
 10
4.918001177900549
 20
12.2878857525092
 30
0.0
 10
4.918001177900549
 20
12.2878857525092
 30
0.0
 10
4.980795444691551
 20
12.22544339683912
 30
0.0
 10
4.980795444691551
 20
12.22544339683912
 30
0.0
 10
4.980795444691551
 20
12.22544339683912
 30
0.0
 10
5.007606631157436
 20
12.19334075902631
 30
0.0
 10
5.007606631157436
 20
12.19334075902631
 30
0.0
 10
5.007606631157436
 20
12.19334075902631
 30
0.0
 10
5.034064560762033
 20
12.15629925385781
 30
0.0
 10
5.034064560762033
 20
12.15629925385781
 30
0.0
 10
5.034064560762033
 20
12.15629925385781
 30
0.0
 10
5.062640012923658
 20
12.12807638568722
 30
0.0
 10
5.062640012923658
 20
12.12807638568722
 30
0.0
 10
5.062640012923658
 20
12.12807638568722
 30
0.0
 10
5.090508951362735
 20
12.0899771285454
 30
0.0
 10
5.090508951362735
 20
12.0899771285454
 30
0.0
 10
5.090508951362735
 20
12.0899771285454
 30
0.0
 10
5.115203961011985
 20
12.0603439244106
 30
0.0
 10
5.115203961011985
 20
12.0603439244106
 30
0.0
 10
5.115203961011985
 20
12.0603439244106
 30
0.0
 10
5.137428864113118
 20
12.02153815354632
 30
0.0
 10
5.137428864113118
 20
12.02153815354632
 30
0.0
 10
5.137428864113118
 20
12.02153815354632
 30
0.0
 10
5.161770616901087
 20
11.98767125003769
 30
0.0
 10
5.161770616901087
 20
11.98767125003769
 30
0.0
 10
5.161770616901087
 20
11.98767125003769
 30
0.0
 10
5.204103573416517
 20
11.9142934076828
 30
0.0
 10
5.204103573416517
 20
11.9142934076828
 30
0.0
 10
5.204103573416517
 20
11.9142934076828
 30
0.0
 10
5.265134247381979
 20
11.8017572104724
 30
0.0
 10
5.265134247381979
 20
11.8017572104724
 30
0.0
 10
5.265134247381979
 20
11.8017572104724
 30
0.0
 10
5.343450957092755
 20
11.5996162328754
 30
0.0
 10
5.343450957092755
 20
11.5996162328754
 30
0.0
 10
5.343450957092755
 20
11.5996162328754
 30
0.0
 10
5.385078745626053
 20
11.4338102467243
 30
0.0
 10
5.385078745626053
 20
11.4338102467243
 30
0.0
 10
5.385078745626053
 20
11.4338102467243
 30
0.0
 10
5.390370196972916
 20
11.39041819249533
 30
0.0
 10
5.390370196972916
 20
11.39041819249533
 30
0.0
 10
5.390370196972916
 20
11.39041819249533
 30
0.0
 10
5.400247931684546
 20
11.34632097028412
 30
0.0
 10
5.400247931684546
 20
11.34632097028412
 30
0.0
 10
5.400247931684546
 20
11.34632097028412
 30
0.0
 10
5.405892639892698
 20
11.30363542977761
 30
0.0
 10
5.405892639892698
 20
11.30363542977761
 30
0.0
 10
5.405892639892698
 20
11.30363542977761
 30
0.0
 10
5.405892639892698
 20
11.26024337554849
 30
0.0
 10
5.405892639892698
 20
11.26024337554849
 30
0.0
 10
5.405892639892698
 20
11.26024337554849
 30
0.0
 10
5.410831507248502
 20
11.22179018867533
 30
0.0
 10
5.410831507248502
 20
11.22179018867533
 30
0.0
 10
5.410831507248502
 20
11.22179018867533
 30
0.0
 10
5.411184091239576
 20
11.17310802883969
 30
0.0
 10
5.411184091239576
 20
11.17310802883969
 30
0.0
 10
5.411184091239576
 20
11.17310802883969
 30
0.0
 10
5.41612295859538
 20
11.13465484196649
 30
0.0
 10
5.41612295859538
 20
11.13465484196649
 30
0.0
 10
5.417533967429868
 20
11.12336542555022
 30
0.0
 10
5.409420498414014
 20
11.11313510684749
 30
0.0
 10
5.398131754867918
 20
11.1117247708832
 30
0.0
 10
5.39742591401557
 20
11.1117247708832
 30
0.0
 10
5.396367489172149
 20
11.1117247708832
 30
0.0
 10
5.395662321190016
 20
11.1117247708832
 30
0.0
  0
SPLINE
  5
33E
330
1F
100
AcDbEntity
  8
Livello 1
100
AcDbSpline
210
0.0
220
0.0
230
1.0
 70
     9
 71
     3
 72
   137
 73
   133
 74
     0
 42
0.000000001
 43
0.0000000001
 40
0.0
 40
0.0
 40
0.0
 40
0.0
 40
1.0
 40
1.0
 40
1.0
 40
2.0
 40
2.0
 40
2.0
 40
3.0
 40
3.0
 40
3.0
 40
4.0
 40
4.0
 40
4.0
 40
5.0
 40
5.0
 40
5.0
 40
6.0
 40
6.0
 40
6.0
 40
7.0
 40
7.0
 40
7.0
 40
8.0
 40
8.0
 40
8.0
 40
9.0
 40
9.0
 40
9.0
 40
10.0
 40
10.0
 40
10.0
 40
11.0
 40
11.0
 40
11.0
 40
12.0
 40
12.0
 40
12.0
 40
13.0
 40
13.0
 40
13.0
 40
14.0
 40
14.0
 40
14.0
 40
15.0
 40
15.0
 40
15.0
 40
16.0
 40
16.0
 40
16.0
 40
17.0
 40
17.0
 40
17.0
 40
18.0
 40
18.0
 40
18.0
 40
19.0
 40
19.0
 40
19.0
 40
20.0
 40
20.0
 40
20.0
 40
21.0
 40
21.0
 40
21.0
 40
22.0
 40
22.0
 40
22.0
 40
23.0
 40
23.0
 40
23.0
 40
24.0
 40
24.0
 40
24.0
 40
25.0
 40
25.0
 40
25.0
 40
26.0
 40
26.0
 40
26.0
 40
27.0
 40
27.0
 40
27.0
 40
28.0
 40
28.0
 40
28.0
 40
29.0
 40
29.0
 40
29.0
 40
30.0
 40
30.0
 40
30.0
 40
31.0
 40
31.0
 40
31.0
 40
32.0
 40
32.0
 40
32.0
 40
33.0
 40
33.0
 40
33.0
 40
34.0
 40
34.0
 40
34.0
 40
35.0
 40
35.0
 40
35.0
 40
36.0
 40
36.0
 40
36.0
 40
37.0
 40
37.0
 40
37.0
 40
38.0
 40
38.0
 40
38.0
 40
39.0
 40
39.0
 40
39.0
 40
40.0
 40
40.0
 40
40.0
 40
41.0
 40
41.0
 40
41.0
 40
42.0
 40
42.0
 40
42.0
 40
43.0
 40
43.0
 40
43.0
 40
44.0
 40
44.0
 40
44.0
 40
44.0
 10
5.942573920954266
 20
11.1117247708832
 30
0.0
 10
5.931284504537963
 20
11.1117247708832
 30
0.0
 10
5.922112610678695
 20
11.12089599187231
 30
0.0
 10
5.922112610678695
 20
11.13218540828859
 30
0.0
 10
5.922112610678695
 20
11.13218540828859
 30
0.0
 10
5.922112610678695
 20
11.21932075499739
 30
0.0
 10
5.922112610678695
 20
11.21932075499739
 30
0.0
 10
5.922112610678695
 20
11.21932075499739
 30
0.0
 10
5.927404062025573
 20
11.2627128092264
 30
0.0
 10
5.927404062025573
 20
11.2627128092264
 30
0.0
 10
5.927404062025573
 20
11.2627128092264
 30
0.0
 10
5.927051478034506
 20
11.30081341210859
 30
0.0
 10
5.927051478034506
 20
11.30081341210859
 30
0.0
 10
5.927051478034506
 20
11.30081341210859
 30
0.0
 10
5.932342929381377
 20
11.34455805032871
 30
0.0
 10
5.932342929381377
 20
11.34455805032871
 30
0.0
 10
5.932342929381377
 20
11.34455805032871
 30
0.0
 10
5.942926504945333
 20
11.39218245819111
 30
0.0
 10
5.942926504945333
 20
11.39218245819111
 30
0.0
 10
5.942926504945333
 20
11.39218245819111
 30
0.0
 10
5.947865372301151
 20
11.4313408130464
 30
0.0
 10
5.947865372301151
 20
11.4313408130464
 30
0.0
 10
5.947865372301151
 20
11.4313408130464
 30
0.0
 10
5.989140576843375
 20
11.59749938318859
 30
0.0
 10
5.989140576843375
 20
11.59749938318859
 30
0.0
 10
5.989140576843375
 20
11.59749938318859
 30
0.0
 10
6.066398861710737
 20
11.79893519280341
 30
0.0
 10
6.066398861710737
 20
11.79893519280341
 30
0.0
 10
6.066398861710737
 20
11.79893519280341
 30
0.0
 10
6.170115076182696
 20
11.98590698434199
 30
0.0
 10
6.170115076182696
 20
11.98590698434199
 30
0.0
 10
6.170115076182696
 20
11.98590698434199
 30
0.0
 10
6.196926262648574
 20
12.02330241924199
 30
0.0
 10
6.196926262648574
 20
12.02330241924199
 30
0.0
 10
6.196926262648574
 20
12.02330241924199
 30
0.0
 10
6.215976564089658
 20
12.05752190674161
 30
0.0
 10
6.215976564089658
 20
12.05752190674161
 30
0.0
 10
6.215976564089658
 20
12.05752190674161
 30
0.0
 10
6.243845502528735
 20
12.0910348805186
 30
0.0
 10
6.243845502528735
 20
12.0910348805186
 30
0.0
 10
6.243845502528735
 20
12.0910348805186
 30
0.0
 10
6.268187255316696
 20
12.12560695200932
 30
0.0
 10
6.268187255316696
 20
12.12560695200932
 30
0.0
 10
6.268187255316696
 20
12.12560695200932
 30
0.0
 10
6.301348317972866
 20
12.15876868753571
 30
0.0
 10
6.301348317972866
 20
12.15876868753571
 30
0.0
 10
6.301348317972866
 20
12.15876868753571
 30
0.0
 10
6.324631645917413
 20
12.19192907732162
 30
0.0
 10
6.324631645917413
 20
12.19192907732162
 30
0.0
 10
6.324631645917413
 20
12.19192907732162
 30
0.0
 10
6.357440124582517
 20
12.22509081284801
 30
0.0
 10
6.357440124582517
 20
12.22509081284801
 30
0.0
 10
6.357440124582517
 20
12.22509081284801
 30
0.0
 10
6.381781877370485
 20
12.25472401698292
 30
0.0
 10
6.381781877370485
 20
12.25472401698292
 30
0.0
 10
6.381781877370485
 20
12.25472401698292
 30
0.0
 10
6.413531931192167
 20
12.28682665479559
 30
0.0
 10
6.413531931192167
 20
12.28682665479559
 30
0.0
 10
6.413531931192167
 20
12.28682665479559
 30
0.0
 10
6.445634569004916
 20
12.31328525727039
 30
0.0
 10
6.445634569004916
 20
12.31328525727039
 30
0.0
 10
6.445634569004916
 20
12.31328525727039
 30
0.0
 10
6.474915189148688
 20
12.34291846140519
 30
0.0
 10
6.474915189148688
 20
12.34291846140519
 30
0.0
 10
6.483029331034749
 20
12.35103193042113
 30
0.0
 10
6.496081667406407
 20
12.35067934643001
 30
0.0
 10
6.503843225301402
 20
12.34291846140519
 30
0.0
 10
6.511956694317248
 20
12.33480499238939
 30
0.0
 10
6.511956694317248
 20
12.3217513102773
 30
0.0
 10
6.503843225301402
 20
12.31363784126148
 30
0.0
 10
6.503843225301402
 20
12.31363784126148
 30
0.0
 10
6.473151596323141
 20
12.28294688515339
 30
0.0
 10
6.473151596323141
 20
12.28294688515339
 30
0.0
 10
6.473151596323141
 20
12.28294688515339
 30
0.0
 10
6.441401542501459
 20
12.25648828267862
 30
0.0
 10
6.441401542501459
 20
12.25648828267862
 30
0.0
 10
6.441401542501459
 20
12.25648828267862
 30
0.0
 10
6.411768338366613
 20
12.22685507854382
 30
0.0
 10
6.411768338366613
 20
12.22685507854382
 30
0.0
 10
6.411768338366613
 20
12.22685507854382
 30
0.0
 10
6.387779169569711
 20
12.1975744584
 30
0.0
 10
6.387779169569711
 20
12.1975744584
 30
0.0
 10
6.387779169569711
 20
12.1975744584
 30
0.0
 10
6.355676531756962
 20
12.16547182058721
 30
0.0
 10
6.355676531756962
 20
12.16547182058721
 30
0.0
 10
6.355676531756962
 20
12.16547182058721
 30
0.0
 10
6.332393203812415
 20
12.13231008506091
 30
0.0
 10
6.332393203812415
 20
12.13231008506091
 30
0.0
 10
6.332393203812415
 20
12.13231008506091
 30
0.0
 10
6.299584725147319
 20
12.09914969527489
 30
0.0
 10
6.299584725147319
 20
12.09914969527489
 30
0.0
 10
6.299584725147319
 20
12.09914969527489
 30
0.0
 10
6.276301397202765
 20
12.0659879597485
 30
0.0
 10
6.276301397202765
 20
12.0659879597485
 30
0.0
 10
6.276301397202765
 20
12.0659879597485
 30
0.0
 10
6.24984279472796
 20
12.03388532193583
 30
0.0
 10
6.24984279472796
 20
12.03388532193583
 30
0.0
 10
6.24984279472796
 20
12.03388532193583
 30
0.0
 10
6.231145750148151
 20
12.00143010013201
 30
0.0
 10
6.231145750148151
 20
12.00143010013201
 30
0.0
 10
6.231145750148151
 20
12.00143010013201
 30
0.0
 10
6.204687147673354
 20
11.96368208124082
 30
0.0
 10
6.204687147673354
 20
11.96368208124082
 30
0.0
 10
6.204687147673354
 20
11.96368208124082
 30
0.0
 10
6.103440366879297
 20
11.78164915705812
 30
0.0
 10
6.103440366879297
 20
11.78164915705812
 30
0.0
 10
6.103440366879297
 20
11.78164915705812
 30
0.0
 10
6.028298258828556
 20
11.58515221479899
 30
0.0
 10
6.028298258828556
 20
11.58515221479899
 30
0.0
 10
6.028298258828556
 20
11.58515221479899
 30
0.0
 10
5.988082151999961
 20
11.42393251201269
 30
0.0
 10
5.988082151999961
 20
11.42393251201269
 30
0.0
 10
5.988082151999961
 20
11.42393251201269
 30
0.0
 10
5.983495868635223
 20
11.3854793251395
 30
0.0
 10
5.983495868635223
 20
11.3854793251395
 30
0.0
 10
5.983495868635223
 20
11.3854793251395
 30
0.0
 10
5.972912293071253
 20
11.33750233328609
 30
0.0
 10
5.972912293071253
 20
11.33750233328609
 30
0.0
 10
5.972912293071253
 20
11.33750233328609
 30
0.0
 10
5.967973425715449
 20
11.29834397843069
 30
0.0
 10
5.967973425715449
 20
11.29834397843069
 30
0.0
 10
5.967973425715449
 20
11.29834397843069
 30
0.0
 10
5.96832668257673
 20
11.26024337554849
 30
0.0
 10
5.96832668257673
 20
11.26024337554849
 30
0.0
 10
5.96832668257673
 20
11.26024337554849
 30
0.0
 10
5.963034558359645
 20
11.21685132131949
 30
0.0
 10
5.963034558359645
 20
11.21685132131949
 30
0.0
 10
5.963034558359645
 20
11.21685132131949
 30
0.0
 10
5.963034558359645
 20
11.13218540828859
 30
0.0
 10
5.963034558359645
 20
11.13218540828859
 30
0.0
 10
5.963034558359645
 20
11.12089599187231
 30
0.0
 10
5.953862664500377
 20
11.1117247708832
 30
0.0
 10
5.942573920954266
 20
11.1117247708832
 30
0.0
  0
SPLINE
  5
33F
330
1F
100
AcDbEntity
  8
Livello 1
100
AcDbSpline
210
0.0
220
0.0
230
1.0
 70
     9
 71
     3
 72
    23
 73
    19
 74
     0
 42
0.000000001
 43
0.0000000001
 40
0.0
 40
0.0
 40
0.0
 40
0.0
 40
1.0
 40
1.0
 40
1.0
 40
2.0
 40
2.0
 40
2.0
 40
3.0
 40
3.0
 40
3.0
 40
4.0
 40
4.0
 40
4.0
 40
5.0
 40
5.0
 40
5.0
 40
6.0
 40
6.0
 40
6.0
 40
6.0
 10
6.504760347400306
 20
13.0540130843693
 30
0.0
 10
6.504760347400306
 20
13.0540130843693
 30
0.0
 10
4.833298929878239
 20
13.0540130843693
 30
0.0
 10
4.833298929878239
 20
13.0540130843693
 30
0.0
 10
4.822010186332143
 20
13.0540130843693
 30
0.0
 10
4.81283761960266
 20
13.0631843053583
 30
0.0
 10
4.81283761960266
 20
13.07447372177469
 30
0.0
 10
4.81283761960266
 20
13.086115722182
 30
0.0
 10
4.822010186332143
 20
13.09528694317112
 30
0.0
 10
4.833298929878239
 20
13.09528694317112
 30
0.0
 10
4.833298929878239
 20
13.09528694317112
 30
0.0
 10
6.504760347400306
 20
13.09528694317112
 30
0.0
 10
6.504760347400306
 20
13.09528694317112
 30
0.0
 10
6.516049090946395
 20
13.09528694317112
 30
0.0
 10
6.525220984805663
 20
13.086115722182
 30
0.0
 10
6.525220984805663
 20
13.07447372177469
 30
0.0
 10
6.525220984805663
 20
13.0631843053583
 30
0.0
 10
6.516049090946395
 20
13.0540130843693
 30
0.0
 10
6.504760347400306
 20
13.0540130843693
 30
0.0
  0
SPLINE
  5
340
330
1F
100
AcDbEntity
  8
Livello 1
100
AcDbSpline
210
0.0
220
0.0
230
1.0
 70
     9
 71
     3
 72
    32
 73
    28
 74
     0
 42
0.000000001
 43
0.0000000001
 40
0.0
 40
0.0
 40
0.0
 40
0.0
 40
1.0
 40
1.0
 40
1.0
 40
2.0
 40
2.0
 40
2.0
 40
3.0
 40
3.0
 40
3.0
 40
4.0
 40
4.0
 40
4.0
 40
5.0
 40
5.0
 40
5.0
 40
6.0
 40
6.0
 40
6.0
 40
7.0
 40
7.0
 40
7.0
 40
8.0
 40
8.0
 40
8.0
 40
9.0
 40
9.0
 40
9.0
 40
9.0
 10
6.495658432043079
 20
13.0540130843693
 30
0.0
 10
6.495305175181798
 20
13.0540130843693
 30
0.0
 10
6.494952591190731
 20
13.0540130843693
 30
0.0
 10
6.494600007199665
 20
13.0540130843693
 30
0.0
 10
6.494600007199665
 20
13.0540130843693
 30
0.0
 10
4.838661032597364
 20
13.0540130843693
 30
0.0
 10
4.838661032597364
 20
13.0540130843693
 30
0.0
 10
4.827372289051268
 20
13.0540130843693
 30
0.0
 10
4.817847138330726
 20
13.0631843053583
 30
0.0
 10
4.817847138330726
 20
13.07447372177469
 30
0.0
 10
4.817847138330726
 20
13.086115722182
 30
0.0
 10
4.827372289051268
 20
13.09528694317112
 30
0.0
 10
4.838661032597364
 20
13.09528694317112
 30
0.0
 10
4.838661032597364
 20
13.09528694317112
 30
0.0
 10
6.494600007199665
 20
13.09528694317112
 30
0.0
 10
6.494600007199665
 20
13.09528694317112
 30
0.0
 10
6.494600007199665
 20
13.09528694317112
 30
0.0
 10
6.495305175181798
 20
13.09528694317112
 30
0.0
 10
6.495305175181798
 20
13.09528694317112
 30
0.0
 10
6.495305175181798
 20
13.09528694317112
 30
0.0
 10
6.495658432043079
 20
13.09528694317112
 30
0.0
 10
6.495658432043079
 20
13.09528694317112
 30
0.0
 10
6.506947175589182
 20
13.09528694317112
 30
0.0
 10
6.51611906944845
 20
13.086115722182
 30
0.0
 10
6.51611906944845
 20
13.07447372177469
 30
0.0
 10
6.51611906944845
 20
13.0631843053583
 30
0.0
 10
6.506947175589182
 20
13.0540130843693
 30
0.0
 10
6.495658432043079
 20
13.0540130843693
 30
0.0
  0
SPLINE
  5
341
330
1F
100
AcDbEntity
  8
Livello 1
100
AcDbSpline
210
0.0
220
0.0
230
1.0
 70
     9
 71
     3
 72
    23
 73
    19
 74
     0
 42
0.000000001
 43
0.0000000001
 40
0.0
 40
0.0
 40
0.0
 40
0.0
 40
1.0
 40
1.0
 40
1.0
 40
2.0
 40
2.0
 40
2.0
 40
3.0
 40
3.0
 40
3.0
 40
4.0
 40
4.0
 40
4.0
 40
5.0
 40
5.0
 40
5.0
 40
6.0
 40
6.0
 40
6.0
 40
6.0
 10
6.836971174191035
 20
13.22775624754061
 30
0.0
 10
6.825681757774724
 20
13.22775624754061
 30
0.0
 10
6.816509863915442
 20
13.2369274685297
 30
0.0
 10
6.816509863915442
 20
13.248216884946
 30
0.0
 10
6.816509863915442
 20
13.248216884946
 30
0.0
 10
6.816509863915442
 20
15.88064395151468
 30
0.0
 10
6.816509863915442
 20
15.88064395151468
 30
0.0
 10
6.816509863915442
 20
15.89193336793099
 30
0.0
 10
6.825681757774724
 20
15.9011059346605
 30
0.0
 10
6.836971174191035
 20
15.9011059346605
 30
0.0
 10
6.848259917737131
 20
15.9011059346605
 30
0.0
 10
6.857431811596399
 20
15.89193336793099
 30
0.0
 10
6.857431811596399
 20
15.88064395151468
 30
0.0
 10
6.857431811596399
 20
15.88064395151468
 30
0.0
 10
6.857431811596399
 20
13.248216884946
 30
0.0
 10
6.857431811596399
 20
13.248216884946
 30
0.0
 10
6.857431811596399
 20
13.2369274685297
 30
0.0
 10
6.848259917737131
 20
13.22775624754061
 30
0.0
 10
6.836971174191035
 20
13.22775624754061
 30
0.0
  0
SPLINE
  5
342
330
1F
100
AcDbEntity
  8
Livello 1
100
AcDbSpline
210
0.0
220
0.0
230
1.0
 70
     9
 71
     3
 72
    23
 73
    19
 74
     0
 42
0.000000001
 43
0.0000000001
 40
0.0
 40
0.0
 40
0.0
 40
0.0
 40
1.0
 40
1.0
 40
1.0
 40
2.0
 40
2.0
 40
2.0
 40
3.0
 40
3.0
 40
3.0
 40
4.0
 40
4.0
 40
4.0
 40
5.0
 40
5.0
 40
5.0
 40
6.0
 40
6.0
 40
6.0
 40
6.0
 10
6.760348078803758
 20
14.1478012946468
 30
0.0
 10
6.749058662387447
 20
14.1478012946468
 30
0.0
 10
6.73988676852818
 20
14.1569725156358
 30
0.0
 10
6.73988676852818
 20
14.16826193205222
 30
0.0
 10
6.73988676852818
 20
14.16826193205222
 30
0.0
 10
6.73988676852818
 20
15.8806452972552
 30
0.0
 10
6.73988676852818
 20
15.8806452972552
 30
0.0
 10
6.73988676852818
 20
15.89193336793099
 30
0.0
 10
6.749058662387447
 20
15.9011059346605
 30
0.0
 10
6.760348078803758
 20
15.9011059346605
 30
0.0
 10
6.771636822349861
 20
15.9011059346605
 30
0.0
 10
6.780808716209115
 20
15.89193336793099
 30
0.0
 10
6.780808716209115
 20
15.8806452972552
 30
0.0
 10
6.780808716209115
 20
15.8806452972552
 30
0.0
 10
6.780808716209115
 20
14.16826193205222
 30
0.0
 10
6.780808716209115
 20
14.16826193205222
 30
0.0
 10
6.780808716209115
 20
14.1569725156358
 30
0.0
 10
6.771636822349861
 20
14.1478012946468
 30
0.0
 10
6.760348078803758
 20
14.1478012946468
 30
0.0
  0
SPLINE
  5
343
330
1F
100
AcDbEntity
  8
Livello 1
100
AcDbSpline
210
0.0
220
0.0
230
1.0
 70
     9
 71
     3
 72
    23
 73
    19
 74
     0
 42
0.000000001
 43
0.0000000001
 40
0.0
 40
0.0
 40
0.0
 40
0.0
 40
1.0
 40
1.0
 40
1.0
 40
2.0
 40
2.0
 40
2.0
 40
3.0
 40
3.0
 40
3.0
 40
4.0
 40
4.0
 40
4.0
 40
5.0
 40
5.0
 40
5.0
 40
6.0
 40
6.0
 40
6.0
 40
6.0
 10
6.494635669320899
 20
13.0540130843693
 30
0.0
 10
6.483346252904588
 20
13.0540130843693
 30
0.0
 10
6.474174359045321
 20
13.0631843053583
 30
0.0
 10
6.474174359045321
 20
13.07447372177469
 30
0.0
 10
6.474174359045321
 20
13.07447372177469
 30
0.0
 10
6.474174359045321
 20
13.2483931769415
 30
0.0
 10
6.474174359045321
 20
13.2483931769415
 30
0.0
 10
6.474174359045321
 20
13.25968124761741
 30
0.0
 10
6.483346252904588
 20
13.2688538143469
 30
0.0
 10
6.494635669320899
 20
13.2688538143469
 30
0.0
 10
6.505924412867003
 20
13.2688538143469
 30
0.0
 10
6.515096306726263
 20
13.25968124761741
 30
0.0
 10
6.515096306726263
 20
13.2483931769415
 30
0.0
 10
6.515096306726263
 20
13.2483931769415
 30
0.0
 10
6.515096306726263
 20
13.07447372177469
 30
0.0
 10
6.515096306726263
 20
13.07447372177469
 30
0.0
 10
6.515096306726263
 20
13.0631843053583
 30
0.0
 10
6.505924412867003
 20
13.0540130843693
 30
0.0
 10
6.494635669320899
 20
13.0540130843693
 30
0.0
  0
SPLINE
  5
344
330
1F
100
AcDbEntity
  8
Livello 1
100
AcDbSpline
210
0.0
220
0.0
230
1.0
 70
     9
 71
     3
 72
    23
 73
    19
 74
     0
 42
0.000000001
 43
0.0000000001
 40
0.0
 40
0.0
 40
0.0
 40
0.0
 40
1.0
 40
1.0
 40
1.0
 40
2.0
 40
2.0
 40
2.0
 40
3.0
 40
3.0
 40
3.0
 40
4.0
 40
4.0
 40
4.0
 40
5.0
 40
5.0
 40
5.0
 40
6.0
 40
6.0
 40
6.0
 40
6.0
 10
6.336168005701516
 20
13.22775624754061
 30
0.0
 10
6.324878589285212
 20
13.22775624754061
 30
0.0
 10
6.315706695425944
 20
13.2369274685297
 30
0.0
 10
6.315706695425944
 20
13.248216884946
 30
0.0
 10
6.315706695425944
 20
13.248216884946
 30
0.0
 10
6.315706695425944
 20
14.1682605863117
 30
0.0
 10
6.315706695425944
 20
14.1682605863117
 30
0.0
 10
6.315706695425944
 20
14.179550002728
 30
0.0
 10
6.324878589285212
 20
14.18872256945749
 30
0.0
 10
6.336168005701516
 20
14.18872256945749
 30
0.0
 10
6.347456749247626
 20
14.18872256945749
 30
0.0
 10
6.356628643106901
 20
14.179550002728
 30
0.0
 10
6.356628643106901
 20
14.1682605863117
 30
0.0
 10
6.356628643106901
 20
14.1682605863117
 30
0.0
 10
6.356628643106901
 20
13.248216884946
 30
0.0
 10
6.356628643106901
 20
13.248216884946
 30
0.0
 10
6.356628643106901
 20
13.2369274685297
 30
0.0
 10
6.347456749247626
 20
13.22775624754061
 30
0.0
 10
6.336168005701516
 20
13.22775624754061
 30
0.0
  0
SPLINE
  5
345
330
1F
100
AcDbEntity
  8
Livello 1
100
AcDbSpline
210
0.0
220
0.0
230
1.0
 70
     9
 71
     3
 72
    26
 73
    22
 74
     0
 42
0.000000001
 43
0.0000000001
 40
0.0
 40
0.0
 40
0.0
 40
0.0
 40
1.0
 40
1.0
 40
1.0
 40
2.0
 40
2.0
 40
2.0
 40
3.0
 40
3.0
 40
3.0
 40
4.0
 40
4.0
 40
4.0
 40
5.0
 40
5.0
 40
5.0
 40
6.0
 40
6.0
 40
6.0
 40
7.0
 40
7.0
 40
7.0
 40
7.0
 10
5.73302396945332
 20
15.86000836785422
 30
0.0
 10
5.731259703757551
 20
15.86000836785422
 30
0.0
 10
5.729142854070722
 20
15.86036095184531
 30
0.0
 10
5.727379261245154
 20
15.86071353583639
 30
0.0
 10
5.727379261245154
 20
15.86071353583639
 30
0.0
 10
4.459848560666522
 20
16.22866049958449
 30
0.0
 10
4.459848560666522
 20
16.22866049958449
 30
0.0
 10
4.448912401111485
 20
16.23183510124451
 30
0.0
 10
4.442562524921193
 20
16.2434771016519
 30
0.0
 10
4.44573779945145
 20
16.25441393407709
 30
0.0
 10
4.448912401111485
 20
16.2649968367709
 30
0.0
 10
4.460201144657588
 20
16.271346040091
 30
0.0
 10
4.471137304212625
 20
16.26817143843092
 30
0.0
 10
4.471137304212625
 20
16.26817143843092
 30
0.0
 10
5.738668004791264
 20
15.90022447468288
 30
0.0
 10
5.738668004791264
 20
15.90022447468288
 30
0.0
 10
5.749604164346301
 20
15.89704987302281
 30
0.0
 10
5.755954040536586
 20
15.8857604566065
 30
0.0
 10
5.752779438876537
 20
15.87482496992169
 30
0.0
 10
5.749956748337361
 20
15.86600498718332
 30
0.0
 10
5.741843279321521
 20
15.86000836785422
 30
0.0
 10
5.73302396945332
 20
15.86000836785422
 30
0.0
  0
SPLINE
  5
346
330
1F
100
AcDbEntity
  8
Livello 1
100
AcDbSpline
210
0.0
220
0.0
230
1.0
 70
     9
 71
     3
 72
    26
 73
    22
 74
     0
 42
0.000000001
 43
0.0000000001
 40
0.0
 40
0.0
 40
0.0
 40
0.0
 40
1.0
 40
1.0
 40
1.0
 40
2.0
 40
2.0
 40
2.0
 40
3.0
 40
3.0
 40
3.0
 40
4.0
 40
4.0
 40
4.0
 40
5.0
 40
5.0
 40
5.0
 40
6.0
 40
6.0
 40
6.0
 40
7.0
 40
7.0
 40
7.0
 40
7.0
 10
5.594981953988288
 20
15.86000836785422
 30
0.0
 10
5.593217688292533
 20
15.86000836785422
 30
0.0
 10
5.59110083860569
 20
15.86036095184531
 30
0.0
 10
5.589337245780143
 20
15.86071353583639
 30
0.0
 10
5.589337245780143
 20
15.86071353583639
 30
0.0
 10
4.459742920043247
 20
16.18809046302439
 30
0.0
 10
4.459742920043247
 20
16.18809046302439
 30
0.0
 10
4.44880676048821
 20
16.19126641042482
 30
0.0
 10
4.442456884297918
 20
16.20255448110069
 30
0.0
 10
4.44563148595796
 20
16.21349131352599
 30
0.0
 10
4.44880676048821
 20
16.2244268002108
 30
0.0
 10
4.460448088025373
 20
16.23042476528019
 30
0.0
 10
4.471031663589336
 20
16.2272488178798
 30
0.0
 10
4.471031663589336
 20
16.2272488178798
 30
0.0
 10
5.600625989326232
 20
15.90022447468288
 30
0.0
 10
5.600625989326232
 20
15.90022447468288
 30
0.0
 10
5.611562148881262
 20
15.89704987302281
 30
0.0
 10
5.617912025071554
 20
15.8857604566065
 30
0.0
 10
5.614737423411519
 20
15.87482496992169
 30
0.0
 10
5.611914732872342
 20
15.86600498718332
 30
0.0
 10
5.603801263856482
 20
15.86000836785422
 30
0.0
 10
5.594981953988288
 20
15.86000836785422
 30
0.0
  0
SPLINE
  5
347
330
1F
100
AcDbEntity
  8
Livello 1
100
AcDbSpline
210
0.0
220
0.0
230
1.0
 70
     9
 71
     3
 72
    23
 73
    19
 74
     0
 42
0.000000001
 43
0.0000000001
 40
0.0
 40
0.0
 40
0.0
 40
0.0
 40
1.0
 40
1.0
 40
1.0
 40
2.0
 40
2.0
 40
2.0
 40
3.0
 40
3.0
 40
3.0
 40
4.0
 40
4.0
 40
4.0
 40
5.0
 40
5.0
 40
5.0
 40
6.0
 40
6.0
 40
6.0
 40
6.0
 10
6.494635669320899
 20
13.0540130843693
 30
0.0
 10
6.494635669320899
 20
13.0540130843693
 30
0.0
 10
4.838696694718606
 20
13.0540130843693
 30
0.0
 10
4.838696694718606
 20
13.0540130843693
 30
0.0
 10
4.827054694311222
 20
13.0540130843693
 30
0.0
 10
4.817882800451961
 20
13.0631843053583
 30
0.0
 10
4.817882800451961
 20
13.07447372177469
 30
0.0
 10
4.817882800451961
 20
13.086115722182
 30
0.0
 10
4.827054694311222
 20
13.09528694317112
 30
0.0
 10
4.838696694718606
 20
13.09528694317112
 30
0.0
 10
4.838696694718606
 20
13.09528694317112
 30
0.0
 10
6.494635669320899
 20
13.09528694317112
 30
0.0
 10
6.494635669320899
 20
13.09528694317112
 30
0.0
 10
6.505924412867003
 20
13.09528694317112
 30
0.0
 10
6.515096306726263
 20
13.086115722182
 30
0.0
 10
6.515096306726263
 20
13.07447372177469
 30
0.0
 10
6.515096306726263
 20
13.0631843053583
 30
0.0
 10
6.505924412867003
 20
13.0540130843693
 30
0.0
 10
6.494635669320899
 20
13.0540130843693
 30
0.0
  0
SPLINE
  5
348
330
1F
100
AcDbEntity
  8
Livello 1
100
AcDbSpline
210
0.0
220
0.0
230
1.0
 70
     9
 71
     3
 72
    23
 73
    19
 74
     0
 42
0.000000001
 43
0.0000000001
 40
0.0
 40
0.0
 40
0.0
 40
0.0
 40
1.0
 40
1.0
 40
1.0
 40
2.0
 40
2.0
 40
2.0
 40
3.0
 40
3.0
 40
3.0
 40
4.0
 40
4.0
 40
4.0
 40
5.0
 40
5.0
 40
5.0
 40
6.0
 40
6.0
 40
6.0
 40
6.0
 10
4.690388698429657
 20
13.0693599081637
 30
0.0
 10
4.690388698429657
 20
13.0693599081637
 30
0.0
 10
4.496360516978263
 20
13.0693599081637
 30
0.0
 10
4.496360516978263
 20
13.0693599081637
 30
0.0
 10
4.484719189441086
 20
13.0693599081637
 30
0.0
 10
4.475546622711618
 20
13.07853112915279
 30
0.0
 10
4.475546622711618
 20
13.08982054556909
 30
0.0
 10
4.475546622711618
 20
13.10146254597649
 30
0.0
 10
4.484719189441086
 20
13.11063376696549
 30
0.0
 10
4.496360516978263
 20
13.11063376696549
 30
0.0
 10
4.496360516978263
 20
13.11063376696549
 30
0.0
 10
4.690388698429657
 20
13.11063376696549
 30
0.0
 10
4.690388698429657
 20
13.11063376696549
 30
0.0
 10
4.70167744197576
 20
13.11063376696549
 30
0.0
 10
4.710849335835035
 20
13.10146254597649
 30
0.0
 10
4.710849335835035
 20
13.08982054556909
 30
0.0
 10
4.710849335835035
 20
13.07853112915279
 30
0.0
 10
4.70167744197576
 20
13.0693599081637
 30
0.0
 10
4.690388698429657
 20
13.0693599081637
 30
0.0
  0
SPLINE
  5
349
330
1F
100
AcDbEntity
  8
Livello 1
100
AcDbSpline
210
0.0
220
0.0
230
1.0
 70
     9
 71
     3
 72
    23
 73
    19
 74
     0
 42
0.000000001
 43
0.0000000001
 40
0.0
 40
0.0
 40
0.0
 40
0.0
 40
1.0
 40
1.0
 40
1.0
 40
2.0
 40
2.0
 40
2.0
 40
3.0
 40
3.0
 40
3.0
 40
4.0
 40
4.0
 40
4.0
 40
5.0
 40
5.0
 40
5.0
 40
6.0
 40
6.0
 40
6.0
 40
6.0
 10
6.836971174191035
 20
13.22775624754061
 30
0.0
 10
6.836971174191035
 20
13.22775624754061
 30
0.0
 10
2.155257318770338
 20
13.22775624754061
 30
0.0
 10
2.155257318770338
 20
13.22775624754061
 30
0.0
 10
2.143968238789142
 20
13.22775624754061
 30
0.0
 10
2.13479600849476
 20
13.2369274685297
 30
0.0
 10
2.13479600849476
 20
13.248216884946
 30
0.0
 10
2.13479600849476
 20
13.25985888535339
 30
0.0
 10
2.143968238789142
 20
13.26903010634251
 30
0.0
 10
2.155257318770338
 20
13.26903010634251
 30
0.0
 10
2.155257318770338
 20
13.26903010634251
 30
0.0
 10
6.836971174191035
 20
13.26903010634251
 30
0.0
 10
6.836971174191035
 20
13.26903010634251
 30
0.0
 10
6.848259917737131
 20
13.26903010634251
 30
0.0
 10
6.857431811596399
 20
13.25985888535339
 30
0.0
 10
6.857431811596399
 20
13.248216884946
 30
0.0
 10
6.857431811596399
 20
13.2369274685297
 30
0.0
 10
6.848259917737131
 20
13.22775624754061
 30
0.0
 10
6.836971174191035
 20
13.22775624754061
 30
0.0
  0
SPLINE
  5
34A
330
1F
100
AcDbEntity
  8
Livello 1
100
AcDbSpline
210
0.0
220
0.0
230
1.0
 70
     9
 71
     3
 72
    23
 73
    19
 74
     0
 42
0.000000001
 43
0.0000000001
 40
0.0
 40
0.0
 40
0.0
 40
0.0
 40
1.0
 40
1.0
 40
1.0
 40
2.0
 40
2.0
 40
2.0
 40
3.0
 40
3.0
 40
3.0
 40
4.0
 40
4.0
 40
4.0
 40
5.0
 40
5.0
 40
5.0
 40
6.0
 40
6.0
 40
6.0
 40
6.0
 10
2.727709726040288
 20
13.31976048310321
 30
0.0
 10
2.727709726040288
 20
13.31976048310321
 30
0.0
 10
1.945601390211002
 20
13.31976048310321
 30
0.0
 10
1.945601390211002
 20
13.31976048310321
 30
0.0
 10
1.934312310229792
 20
13.31976048310321
 30
0.0
 10
1.925140079935417
 20
13.32893170409221
 30
0.0
 10
1.925140079935417
 20
13.34022112050849
 30
0.0
 10
1.925140079935417
 20
13.35186312091591
 30
0.0
 10
1.934312310229792
 20
13.361034341905
 30
0.0
 10
1.945601390211002
 20
13.361034341905
 30
0.0
 10
1.945601390211002
 20
13.361034341905
 30
0.0
 10
2.727709726040288
 20
13.361034341905
 30
0.0
 10
2.727709726040288
 20
13.361034341905
 30
0.0
 10
2.738998469586377
 20
13.361034341905
 30
0.0
 10
2.748170699880759
 20
13.35186312091591
 30
0.0
 10
2.748170699880759
 20
13.34022112050849
 30
0.0
 10
2.748170699880759
 20
13.32893170409221
 30
0.0
 10
2.738998469586377
 20
13.31976048310321
 30
0.0
 10
2.727709726040288
 20
13.31976048310321
 30
0.0
  0
SPLINE
  5
34B
330
1F
100
AcDbEntity
  8
Livello 1
100
AcDbSpline
210
0.0
220
0.0
230
1.0
 70
     9
 71
     3
 72
    23
 73
    19
 74
     0
 42
0.000000001
 43
0.0000000001
 40
0.0
 40
0.0
 40
0.0
 40
0.0
 40
1.0
 40
1.0
 40
1.0
 40
2.0
 40
2.0
 40
2.0
 40
3.0
 40
3.0
 40
3.0
 40
4.0
 40
4.0
 40
4.0
 40
5.0
 40
5.0
 40
5.0
 40
6.0
 40
6.0
 40
6.0
 40
6.0
 10
4.03612738504885
 20
13.3913754055028
 30
0.0
 10
4.03612738504885
 20
13.3913754055028
 30
0.0
 10
2.952393874348715
 20
13.3913754055028
 30
0.0
 10
2.952393874348715
 20
13.3913754055028
 30
0.0
 10
2.941105130802611
 20
13.3913754055028
 30
0.0
 10
2.931932564073122
 20
13.40054662649192
 30
0.0
 10
2.931932564073122
 20
13.41183604290819
 30
0.0
 10
2.931932564073122
 20
13.4234780433155
 30
0.0
 10
2.941105130802611
 20
13.43264926430461
 30
0.0
 10
2.952393874348715
 20
13.43264926430461
 30
0.0
 10
2.952393874348715
 20
13.43264926430461
 30
0.0
 10
4.03612738504885
 20
13.43264926430461
 30
0.0
 10
4.03612738504885
 20
13.43264926430461
 30
0.0
 10
4.047416128594946
 20
13.43264926430461
 30
0.0
 10
4.056588022454214
 20
13.4234780433155
 30
0.0
 10
4.056588022454214
 20
13.41183604290819
 30
0.0
 10
4.056588022454214
 20
13.40054662649192
 30
0.0
 10
4.047416128594946
 20
13.3913754055028
 30
0.0
 10
4.03612738504885
 20
13.3913754055028
 30
0.0
  0
SPLINE
  5
34C
330
1F
100
AcDbEntity
  8
Livello 1
100
AcDbSpline
210
0.0
220
0.0
230
1.0
 70
     9
 71
     3
 72
    23
 73
    19
 74
     0
 42
0.000000001
 43
0.0000000001
 40
0.0
 40
0.0
 40
0.0
 40
0.0
 40
1.0
 40
1.0
 40
1.0
 40
2.0
 40
2.0
 40
2.0
 40
3.0
 40
3.0
 40
3.0
 40
4.0
 40
4.0
 40
4.0
 40
5.0
 40
5.0
 40
5.0
 40
6.0
 40
6.0
 40
6.0
 40
6.0
 10
4.03612738504885
 20
13.67246828229071
 30
0.0
 10
4.03612738504885
 20
13.67246828229071
 30
0.0
 10
2.952393874348715
 20
13.67246828229071
 30
0.0
 10
2.952393874348715
 20
13.67246828229071
 30
0.0
 10
2.941105130802611
 20
13.67246828229071
 30
0.0
 10
2.931932564073122
 20
13.68163950327982
 30
0.0
 10
2.931932564073122
 20
13.6929289196961
 30
0.0
 10
2.931932564073122
 20
13.70457092010349
 30
0.0
 10
2.941105130802611
 20
13.71374214109249
 30
0.0
 10
2.952393874348715
 20
13.71374214109249
 30
0.0
 10
2.952393874348715
 20
13.71374214109249
 30
0.0
 10
4.03612738504885
 20
13.71374214109249
 30
0.0
 10
4.03612738504885
 20
13.71374214109249
 30
0.0
 10
4.047416128594946
 20
13.71374214109249
 30
0.0
 10
4.056588022454214
 20
13.70457092010349
 30
0.0
 10
4.056588022454214
 20
13.6929289196961
 30
0.0
 10
4.056588022454214
 20
13.68163950327982
 30
0.0
 10
4.047416128594946
 20
13.67246828229071
 30
0.0
 10
4.03612738504885
 20
13.67246828229071
 30
0.0
  0
SPLINE
  5
34D
330
1F
100
AcDbEntity
  8
Livello 1
100
AcDbSpline
210
0.0
220
0.0
230
1.0
 70
     9
 71
     3
 72
    23
 73
    19
 74
     0
 42
0.000000001
 43
0.0000000001
 40
0.0
 40
0.0
 40
0.0
 40
0.0
 40
1.0
 40
1.0
 40
1.0
 40
2.0
 40
2.0
 40
2.0
 40
3.0
 40
3.0
 40
3.0
 40
4.0
 40
4.0
 40
4.0
 40
5.0
 40
5.0
 40
5.0
 40
6.0
 40
6.0
 40
6.0
 40
6.0
 10
4.838555391974104
 20
13.0540130843693
 30
0.0
 10
4.827265975557779
 20
13.0540130843693
 30
0.0
 10
4.818094081698518
 20
13.0631843053583
 30
0.0
 10
4.818094081698518
 20
13.07447372177469
 30
0.0
 10
4.818094081698518
 20
13.07447372177469
 30
0.0
 10
4.818094081698518
 20
13.2483931769415
 30
0.0
 10
4.818094081698518
 20
13.2483931769415
 30
0.0
 10
4.818094081698518
 20
13.25968124761741
 30
0.0
 10
4.827265975557779
 20
13.2688538143469
 30
0.0
 10
4.838555391974104
 20
13.2688538143469
 30
0.0
 10
4.849844135520186
 20
13.2688538143469
 30
0.0
 10
4.859016029379461
 20
13.25968124761741
 30
0.0
 10
4.859016029379461
 20
13.2483931769415
 30
0.0
 10
4.859016029379461
 20
13.2483931769415
 30
0.0
 10
4.859016029379461
 20
13.07447372177469
 30
0.0
 10
4.859016029379461
 20
13.07447372177469
 30
0.0
 10
4.859016029379461
 20
13.0631843053583
 30
0.0
 10
4.849844135520186
 20
13.0540130843693
 30
0.0
 10
4.838555391974104
 20
13.0540130843693
 30
0.0
  0
SPLINE
  5
34E
330
1F
100
AcDbEntity
  8
Livello 1
100
AcDbSpline
210
0.0
220
0.0
230
1.0
 70
     9
 71
     3
 72
    23
 73
    19
 74
     0
 42
0.000000001
 43
0.0000000001
 40
0.0
 40
0.0
 40
0.0
 40
0.0
 40
1.0
 40
1.0
 40
1.0
 40
2.0
 40
2.0
 40
2.0
 40
3.0
 40
3.0
 40
3.0
 40
4.0
 40
4.0
 40
4.0
 40
5.0
 40
5.0
 40
5.0
 40
6.0
 40
6.0
 40
6.0
 40
6.0
 10
4.690388698429657
 20
13.0693599081637
 30
0.0
 10
4.679099282013353
 20
13.0693599081637
 30
0.0
 10
4.669927388154086
 20
13.07853112915279
 30
0.0
 10
4.669927388154086
 20
13.08982054556909
 30
0.0
 10
4.669927388154086
 20
13.08982054556909
 30
0.0
 10
4.669927388154086
 20
13.2482182306864
 30
0.0
 10
4.669927388154086
 20
13.2482182306864
 30
0.0
 10
4.669927388154086
 20
13.25985888535339
 30
0.0
 10
4.679099282013353
 20
13.26903145208291
 30
0.0
 10
4.690388698429657
 20
13.26903145208291
 30
0.0
 10
4.70167744197576
 20
13.26903145208291
 30
0.0
 10
4.710849335835035
 20
13.25985888535339
 30
0.0
 10
4.710849335835035
 20
13.2482182306864
 30
0.0
 10
4.710849335835035
 20
13.2482182306864
 30
0.0
 10
4.710849335835035
 20
13.08982054556909
 30
0.0
 10
4.710849335835035
 20
13.08982054556909
 30
0.0
 10
4.710849335835035
 20
13.07853112915279
 30
0.0
 10
4.70167744197576
 20
13.0693599081637
 30
0.0
 10
4.690388698429657
 20
13.0693599081637
 30
0.0
  0
SPLINE
  5
34F
330
1F
100
AcDbEntity
  8
Livello 1
100
AcDbSpline
210
0.0
220
0.0
230
1.0
 70
     9
 71
     3
 72
    23
 73
    19
 74
     0
 42
0.000000001
 43
0.0000000001
 40
0.0
 40
0.0
 40
0.0
 40
0.0
 40
1.0
 40
1.0
 40
1.0
 40
2.0
 40
2.0
 40
2.0
 40
3.0
 40
3.0
 40
3.0
 40
4.0
 40
4.0
 40
4.0
 40
5.0
 40
5.0
 40
5.0
 40
6.0
 40
6.0
 40
6.0
 40
6.0
 10
2.727709726040288
 20
14.05579705908431
 30
0.0
 10
2.727709726040288
 20
14.05579705908431
 30
0.0
 10
1.945601390211002
 20
14.05579705908431
 30
0.0
 10
1.945601390211002
 20
14.05579705908431
 30
0.0
 10
1.934312310229792
 20
14.05579705908431
 30
0.0
 10
1.925140079935417
 20
14.06496828007331
 30
0.0
 10
1.925140079935417
 20
14.07625769648962
 30
0.0
 10
1.925140079935417
 20
14.08789969689701
 30
0.0
 10
1.934312310229792
 20
14.09707091788613
 30
0.0
 10
1.945601390211002
 20
14.09707091788613
 30
0.0
 10
1.945601390211002
 20
14.09707091788613
 30
0.0
 10
2.727709726040288
 20
14.09707091788613
 30
0.0
 10
2.727709726040288
 20
14.09707091788613
 30
0.0
 10
2.738998469586377
 20
14.09707091788613
 30
0.0
 10
2.748170699880759
 20
14.08789969689701
 30
0.0
 10
2.748170699880759
 20
14.07625769648962
 30
0.0
 10
2.748170699880759
 20
14.06496828007331
 30
0.0
 10
2.738998469586377
 20
14.05579705908431
 30
0.0
 10
2.727709726040288
 20
14.05579705908431
 30
0.0
  0
SPLINE
  5
350
330
1F
100
AcDbEntity
  8
Livello 1
100
AcDbSpline
210
0.0
220
0.0
230
1.0
 70
     9
 71
     3
 72
    23
 73
    19
 74
     0
 42
0.000000001
 43
0.0000000001
 40
0.0
 40
0.0
 40
0.0
 40
0.0
 40
1.0
 40
1.0
 40
1.0
 40
2.0
 40
2.0
 40
2.0
 40
3.0
 40
3.0
 40
3.0
 40
4.0
 40
4.0
 40
4.0
 40
5.0
 40
5.0
 40
5.0
 40
6.0
 40
6.0
 40
6.0
 40
6.0
 10
6.760348078803758
 20
14.1478012946468
 30
0.0
 10
6.760348078803758
 20
14.1478012946468
 30
0.0
 10
2.232092368274372
 20
14.1478012946468
 30
0.0
 10
2.232092368274372
 20
14.1478012946468
 30
0.0
 10
2.220450704302102
 20
14.1478012946468
 30
0.0
 10
2.211278474007727
 20
14.1569725156358
 30
0.0
 10
2.211278474007727
 20
14.16826193205222
 30
0.0
 10
2.211278474007727
 20
14.17990393245949
 30
0.0
 10
2.220450704302102
 20
14.18907515344861
 30
0.0
 10
2.232092368274372
 20
14.18907515344861
 30
0.0
 10
2.232092368274372
 20
14.18907515344861
 30
0.0
 10
6.760348078803758
 20
14.18907515344861
 30
0.0
 10
6.760348078803758
 20
14.18907515344861
 30
0.0
 10
6.771636822349861
 20
14.18907515344861
 30
0.0
 10
6.780808716209115
 20
14.17990393245949
 30
0.0
 10
6.780808716209115
 20
14.16826193205222
 30
0.0
 10
6.780808716209115
 20
14.1569725156358
 30
0.0
 10
6.771636822349861
 20
14.1478012946468
 30
0.0
 10
6.760348078803758
 20
14.1478012946468
 30
0.0
  0
SPLINE
  5
351
330
1F
100
AcDbEntity
  8
Livello 1
100
AcDbSpline
210
0.0
220
0.0
230
1.0
 70
     9
 71
     3
 72
    23
 73
    19
 74
     0
 42
0.000000001
 43
0.0000000001
 40
0.0
 40
0.0
 40
0.0
 40
0.0
 40
1.0
 40
1.0
 40
1.0
 40
2.0
 40
2.0
 40
2.0
 40
3.0
 40
3.0
 40
3.0
 40
4.0
 40
4.0
 40
4.0
 40
5.0
 40
5.0
 40
5.0
 40
6.0
 40
6.0
 40
6.0
 40
6.0
 10
4.496184897852934
 20
13.0693599081637
 30
0.0
 10
4.484895481436623
 20
13.0693599081637
 30
0.0
 10
4.475723587577355
 20
13.07853112915279
 30
0.0
 10
4.475723587577355
 20
13.08982054556909
 30
0.0
 10
4.475723587577355
 20
13.08982054556909
 30
0.0
 10
4.475723587577355
 20
13.2482182306864
 30
0.0
 10
4.475723587577355
 20
13.2482182306864
 30
0.0
 10
4.475723587577355
 20
13.25985888535339
 30
0.0
 10
4.484895481436623
 20
13.26903145208291
 30
0.0
 10
4.496184897852934
 20
13.26903145208291
 30
0.0
 10
4.507473641399045
 20
13.26903145208291
 30
0.0
 10
4.516645535258305
 20
13.25985888535339
 30
0.0
 10
4.516645535258305
 20
13.2482182306864
 30
0.0
 10
4.516645535258305
 20
13.2482182306864
 30
0.0
 10
4.516645535258305
 20
13.08982054556909
 30
0.0
 10
4.516645535258305
 20
13.08982054556909
 30
0.0
 10
4.516645535258305
 20
13.07853112915279
 30
0.0
 10
4.507473641399045
 20
13.0693599081637
 30
0.0
 10
4.496184897852934
 20
13.0693599081637
 30
0.0
  0
SPLINE
  5
352
330
1F
100
AcDbEntity
  8
Livello 1
100
AcDbSpline
210
0.0
220
0.0
230
1.0
 70
     9
 71
     3
 72
    23
 73
    19
 74
     0
 42
0.000000001
 43
0.0000000001
 40
0.0
 40
0.0
 40
0.0
 40
0.0
 40
1.0
 40
1.0
 40
1.0
 40
2.0
 40
2.0
 40
2.0
 40
3.0
 40
3.0
 40
3.0
 40
4.0
 40
4.0
 40
4.0
 40
5.0
 40
5.0
 40
5.0
 40
6.0
 40
6.0
 40
6.0
 40
6.0
 10
4.03612738504885
 20
13.3913754055028
 30
0.0
 10
4.024837968632532
 20
13.3913754055028
 30
0.0
 10
4.015666074773264
 20
13.40054662649192
 30
0.0
 10
4.015666074773264
 20
13.41183604290819
 30
0.0
 10
4.015666074773264
 20
13.41183604290819
 30
0.0
 10
4.015666074773264
 20
13.69300024393848
 30
0.0
 10
4.015666074773264
 20
13.69300024393848
 30
0.0
 10
4.015666074773264
 20
13.70428831461441
 30
0.0
 10
4.024837968632532
 20
13.7134608813439
 30
0.0
 10
4.03612738504885
 20
13.7134608813439
 30
0.0
 10
4.047416128594946
 20
13.7134608813439
 30
0.0
 10
4.056588022454214
 20
13.70428831461441
 30
0.0
 10
4.056588022454214
 20
13.69300024393848
 30
0.0
 10
4.056588022454214
 20
13.69300024393848
 30
0.0
 10
4.056588022454214
 20
13.41183604290819
 30
0.0
 10
4.056588022454214
 20
13.41183604290819
 30
0.0
 10
4.056588022454214
 20
13.40054662649192
 30
0.0
 10
4.047416128594946
 20
13.3913754055028
 30
0.0
 10
4.03612738504885
 20
13.3913754055028
 30
0.0
  0
SPLINE
  5
353
330
1F
100
AcDbEntity
  8
Livello 1
100
AcDbSpline
210
0.0
220
0.0
230
1.0
 70
     9
 71
     3
 72
    23
 73
    19
 74
     0
 42
0.000000001
 43
0.0000000001
 40
0.0
 40
0.0
 40
0.0
 40
0.0
 40
1.0
 40
1.0
 40
1.0
 40
2.0
 40
2.0
 40
2.0
 40
3.0
 40
3.0
 40
3.0
 40
4.0
 40
4.0
 40
4.0
 40
5.0
 40
5.0
 40
5.0
 40
6.0
 40
6.0
 40
6.0
 40
6.0
 10
2.952535177093224
 20
13.3913754055028
 30
0.0
 10
2.941245760676906
 20
13.3913754055028
 30
0.0
 10
2.932073866817653
 20
13.40054662649192
 30
0.0
 10
2.932073866817653
 20
13.41183604290819
 30
0.0
 10
2.932073866817653
 20
13.41183604290819
 30
0.0
 10
2.932073866817653
 20
13.69300024393848
 30
0.0
 10
2.932073866817653
 20
13.69300024393848
 30
0.0
 10
2.932073866817653
 20
13.70428831461441
 30
0.0
 10
2.941245760676906
 20
13.7134608813439
 30
0.0
 10
2.952535177093224
 20
13.7134608813439
 30
0.0
 10
2.96382392063932
 20
13.7134608813439
 30
0.0
 10
2.972995814498588
 20
13.70428831461441
 30
0.0
 10
2.972995814498588
 20
13.69300024393848
 30
0.0
 10
2.972995814498588
 20
13.69300024393848
 30
0.0
 10
2.972995814498588
 20
13.41183604290819
 30
0.0
 10
2.972995814498588
 20
13.41183604290819
 30
0.0
 10
2.972995814498588
 20
13.40054662649192
 30
0.0
 10
2.96382392063932
 20
13.3913754055028
 30
0.0
 10
2.952535177093224
 20
13.3913754055028
 30
0.0
  0
SPLINE
  5
354
330
1F
100
AcDbEntity
  8
Livello 1
100
AcDbSpline
210
0.0
220
0.0
230
1.0
 70
     9
 71
     3
 72
    23
 73
    19
 74
     0
 42
0.000000001
 43
0.0000000001
 40
0.0
 40
0.0
 40
0.0
 40
0.0
 40
1.0
 40
1.0
 40
1.0
 40
2.0
 40
2.0
 40
2.0
 40
3.0
 40
3.0
 40
3.0
 40
4.0
 40
4.0
 40
4.0
 40
5.0
 40
5.0
 40
5.0
 40
6.0
 40
6.0
 40
6.0
 40
6.0
 10
2.727709726040288
 20
13.31976048310321
 30
0.0
 10
2.716420646059077
 20
13.31976048310321
 30
0.0
 10
2.707248415764716
 20
13.32893170409221
 30
0.0
 10
2.707248415764716
 20
13.34022112050849
 30
0.0
 10
2.707248415764716
 20
13.34022112050849
 30
0.0
 10
2.707248415764716
 20
14.07646763199579
 30
0.0
 10
2.707248415764716
 20
14.07646763199579
 30
0.0
 10
2.707248415764716
 20
14.0877570484121
 30
0.0
 10
2.716420646059077
 20
14.0969296151415
 30
0.0
 10
2.727709726040288
 20
14.0969296151415
 30
0.0
 10
2.738998469586377
 20
14.0969296151415
 30
0.0
 10
2.748170699880759
 20
14.0877570484121
 30
0.0
 10
2.748170699880759
 20
14.07646763199579
 30
0.0
 10
2.748170699880759
 20
14.07646763199579
 30
0.0
 10
2.748170699880759
 20
13.34022112050849
 30
0.0
 10
2.748170699880759
 20
13.34022112050849
 30
0.0
 10
2.748170699880759
 20
13.32893170409221
 30
0.0
 10
2.738998469586377
 20
13.31976048310321
 30
0.0
 10
2.727709726040288
 20
13.31976048310321
 30
0.0
  0
SPLINE
  5
355
330
1F
100
AcDbEntity
  8
Livello 1
100
AcDbSpline
210
0.0
220
0.0
230
1.0
 70
     9
 71
     3
 72
    23
 73
    19
 74
     0
 42
0.000000001
 43
0.0000000001
 40
0.0
 40
0.0
 40
0.0
 40
0.0
 40
1.0
 40
1.0
 40
1.0
 40
2.0
 40
2.0
 40
2.0
 40
3.0
 40
3.0
 40
3.0
 40
4.0
 40
4.0
 40
4.0
 40
5.0
 40
5.0
 40
5.0
 40
6.0
 40
6.0
 40
6.0
 40
6.0
 10
6.836971174191035
 20
15.86000836785422
 30
0.0
 10
6.836971174191035
 20
15.86000836785422
 30
0.0
 10
2.155257318770338
 20
15.86000836785422
 30
0.0
 10
2.155257318770338
 20
15.86000836785422
 30
0.0
 10
2.143968238789142
 20
15.86000836785422
 30
0.0
 10
2.13479600849476
 20
15.86917958884331
 30
0.0
 10
2.13479600849476
 20
15.88046900525961
 30
0.0
 10
2.13479600849476
 20
15.892111005667
 30
0.0
 10
2.143968238789142
 20
15.90128222665609
 30
0.0
 10
2.155257318770338
 20
15.90128222665609
 30
0.0
 10
2.155257318770338
 20
15.90128222665609
 30
0.0
 10
6.836971174191035
 20
15.90128222665609
 30
0.0
 10
6.836971174191035
 20
15.90128222665609
 30
0.0
 10
6.848259917737131
 20
15.90128222665609
 30
0.0
 10
6.857431811596399
 20
15.892111005667
 30
0.0
 10
6.857431811596399
 20
15.88046900525961
 30
0.0
 10
6.857431811596399
 20
15.86917958884331
 30
0.0
 10
6.848259917737131
 20
15.86000836785422
 30
0.0
 10
6.836971174191035
 20
15.86000836785422
 30
0.0
  0
SPLINE
  5
356
330
1F
100
AcDbEntity
  8
Livello 1
100
AcDbSpline
210
0.0
220
0.0
230
1.0
 70
     9
 71
     3
 72
    23
 73
    19
 74
     0
 42
0.000000001
 43
0.0000000001
 40
0.0
 40
0.0
 40
0.0
 40
0.0
 40
1.0
 40
1.0
 40
1.0
 40
2.0
 40
2.0
 40
2.0
 40
3.0
 40
3.0
 40
3.0
 40
4.0
 40
4.0
 40
4.0
 40
5.0
 40
5.0
 40
5.0
 40
6.0
 40
6.0
 40
6.0
 40
6.0
 10
2.656131138632105
 20
14.05579705908431
 30
0.0
 10
2.644842058650887
 20
14.05579705908431
 30
0.0
 10
2.635669828356512
 20
14.06496828007331
 30
0.0
 10
2.635669828356512
 20
14.07625769648962
 30
0.0
 10
2.635669828356512
 20
14.07625769648962
 30
0.0
 10
2.635669828356512
 20
14.1683319105542
 30
0.0
 10
2.635669828356512
 20
14.1683319105542
 30
0.0
 10
2.635669828356512
 20
14.1796213269705
 30
0.0
 10
2.644842058650887
 20
14.18879389369999
 30
0.0
 10
2.656131138632105
 20
14.18879389369999
 30
0.0
 10
2.667419882178201
 20
14.18879389369999
 30
0.0
 10
2.676592112472576
 20
14.1796213269705
 30
0.0
 10
2.676592112472576
 20
14.1683319105542
 30
0.0
 10
2.676592112472576
 20
14.1683319105542
 30
0.0
 10
2.676592112472576
 20
14.07625769648962
 30
0.0
 10
2.676592112472576
 20
14.07625769648962
 30
0.0
 10
2.676592112472576
 20
14.06496828007331
 30
0.0
 10
2.667419882178201
 20
14.05579705908431
 30
0.0
 10
2.656131138632105
 20
14.05579705908431
 30
0.0
  0
SPLINE
  5
357
330
1F
100
AcDbEntity
  8
Livello 1
100
AcDbSpline
210
0.0
220
0.0
230
1.0
 70
     9
 71
     3
 72
    23
 73
    19
 74
     0
 42
0.000000001
 43
0.0000000001
 40
0.0
 40
0.0
 40
0.0
 40
0.0
 40
1.0
 40
1.0
 40
1.0
 40
2.0
 40
2.0
 40
2.0
 40
3.0
 40
3.0
 40
3.0
 40
4.0
 40
4.0
 40
4.0
 40
5.0
 40
5.0
 40
5.0
 40
6.0
 40
6.0
 40
6.0
 40
6.0
 10
2.656131138632105
 20
13.22775624754061
 30
0.0
 10
2.644842058650887
 20
13.22775624754061
 30
0.0
 10
2.635669828356512
 20
13.2369274685297
 30
0.0
 10
2.635669828356512
 20
13.248216884946
 30
0.0
 10
2.635669828356512
 20
13.248216884946
 30
0.0
 10
2.635669828356512
 20
13.34029109901061
 30
0.0
 10
2.635669828356512
 20
13.34029109901061
 30
0.0
 10
2.635669828356512
 20
13.35158051542691
 30
0.0
 10
2.644842058650887
 20
13.3607530821564
 30
0.0
 10
2.656131138632105
 20
13.3607530821564
 30
0.0
 10
2.667419882178201
 20
13.3607530821564
 30
0.0
 10
2.676592112472576
 20
13.35158051542691
 30
0.0
 10
2.676592112472576
 20
13.34029109901061
 30
0.0
 10
2.676592112472576
 20
13.34029109901061
 30
0.0
 10
2.676592112472576
 20
13.248216884946
 30
0.0
 10
2.676592112472576
 20
13.248216884946
 30
0.0
 10
2.676592112472576
 20
13.2369274685297
 30
0.0
 10
2.667419882178201
 20
13.22775624754061
 30
0.0
 10
2.656131138632105
 20
13.22775624754061
 30
0.0
  0
SPLINE
  5
358
330
1F
100
AcDbEntity
  8
Livello 1
100
AcDbSpline
210
0.0
220
0.0
230
1.0
 70
     9
 71
     3
 72
    23
 73
    19
 74
     0
 42
0.000000001
 43
0.0000000001
 40
0.0
 40
0.0
 40
0.0
 40
0.0
 40
1.0
 40
1.0
 40
1.0
 40
2.0
 40
2.0
 40
2.0
 40
3.0
 40
3.0
 40
3.0
 40
4.0
 40
4.0
 40
4.0
 40
5.0
 40
5.0
 40
5.0
 40
6.0
 40
6.0
 40
6.0
 40
6.0
 10
2.231916076278835
 20
14.1478012946468
 30
0.0
 10
2.220626996297639
 20
14.1478012946468
 30
0.0
 10
2.211454766003257
 20
14.1569725156358
 30
0.0
 10
2.211454766003257
 20
14.16826193205222
 30
0.0
 10
2.211454766003257
 20
14.16826193205222
 30
0.0
 10
2.211454766003257
 20
15.8806452972552
 30
0.0
 10
2.211454766003257
 20
15.8806452972552
 30
0.0
 10
2.211454766003257
 20
15.89193336793099
 30
0.0
 10
2.220626996297639
 20
15.9011059346605
 30
0.0
 10
2.231916076278835
 20
15.9011059346605
 30
0.0
 10
2.243204819824946
 20
15.9011059346605
 30
0.0
 10
2.252377050119307
 20
15.89193336793099
 30
0.0
 10
2.252377050119307
 20
15.8806452972552
 30
0.0
 10
2.252377050119307
 20
15.8806452972552
 30
0.0
 10
2.252377050119307
 20
14.16826193205222
 30
0.0
 10
2.252377050119307
 20
14.16826193205222
 30
0.0
 10
2.252377050119307
 20
14.1569725156358
 30
0.0
 10
2.243204819824946
 20
14.1478012946468
 30
0.0
 10
2.231916076278835
 20
14.1478012946468
 30
0.0
  0
SPLINE
  5
359
330
1F
100
AcDbEntity
  8
Livello 1
100
AcDbSpline
210
0.0
220
0.0
230
1.0
 70
     9
 71
     3
 72
    23
 73
    19
 74
     0
 42
0.000000001
 43
0.0000000001
 40
0.0
 40
0.0
 40
0.0
 40
0.0
 40
1.0
 40
1.0
 40
1.0
 40
2.0
 40
2.0
 40
2.0
 40
3.0
 40
3.0
 40
3.0
 40
4.0
 40
4.0
 40
4.0
 40
5.0
 40
5.0
 40
5.0
 40
6.0
 40
6.0
 40
6.0
 40
6.0
 10
2.155292644456466
 20
14.05579705908431
 30
0.0
 10
2.144003564475262
 20
14.05579705908431
 30
0.0
 10
2.134831334180887
 20
14.06496828007331
 30
0.0
 10
2.134831334180887
 20
14.07625769648962
 30
0.0
 10
2.134831334180887
 20
14.07625769648962
 30
0.0
 10
2.134831334180887
 20
15.88071527575721
 30
0.0
 10
2.134831334180887
 20
15.88071527575721
 30
0.0
 10
2.134831334180887
 20
15.89200469217348
 30
0.0
 10
2.144003564475262
 20
15.901177258903
 30
0.0
 10
2.155292644456466
 20
15.901177258903
 30
0.0
 10
2.166581388002576
 20
15.901177258903
 30
0.0
 10
2.175753618296937
 20
15.89200469217348
 30
0.0
 10
2.175753618296937
 20
15.88071527575721
 30
0.0
 10
2.175753618296937
 20
15.88071527575721
 30
0.0
 10
2.175753618296937
 20
14.07625769648962
 30
0.0
 10
2.175753618296937
 20
14.07625769648962
 30
0.0
 10
2.175753618296937
 20
14.06496828007331
 30
0.0
 10
2.166581388002576
 20
14.05579705908431
 30
0.0
 10
2.155292644456466
 20
14.05579705908431
 30
0.0
  0
SPLINE
  5
35A
330
1F
100
AcDbEntity
  8
Livello 1
100
AcDbSpline
210
0.0
220
0.0
230
1.0
 70
     9
 71
     3
 72
    23
 73
    19
 74
     0
 42
0.000000001
 43
0.0000000001
 40
0.0
 40
0.0
 40
0.0
 40
0.0
 40
1.0
 40
1.0
 40
1.0
 40
2.0
 40
2.0
 40
2.0
 40
3.0
 40
3.0
 40
3.0
 40
4.0
 40
4.0
 40
4.0
 40
5.0
 40
5.0
 40
5.0
 40
6.0
 40
6.0
 40
6.0
 40
6.0
 10
2.155292644456466
 20
13.22775624754061
 30
0.0
 10
2.144003564475262
 20
13.22775624754061
 30
0.0
 10
2.134831334180887
 20
13.2369274685297
 30
0.0
 10
2.134831334180887
 20
13.248216884946
 30
0.0
 10
2.134831334180887
 20
13.248216884946
 30
0.0
 10
2.134831334180887
 20
13.34029109901061
 30
0.0
 10
2.134831334180887
 20
13.34029109901061
 30
0.0
 10
2.134831334180887
 20
13.35158051542691
 30
0.0
 10
2.144003564475262
 20
13.3607530821564
 30
0.0
 10
2.155292644456466
 20
13.3607530821564
 30
0.0
 10
2.166581388002576
 20
13.3607530821564
 30
0.0
 10
2.175753618296937
 20
13.35158051542691
 30
0.0
 10
2.175753618296937
 20
13.34029109901061
 30
0.0
 10
2.175753618296937
 20
13.34029109901061
 30
0.0
 10
2.175753618296937
 20
13.248216884946
 30
0.0
 10
2.175753618296937
 20
13.248216884946
 30
0.0
 10
2.175753618296937
 20
13.2369274685297
 30
0.0
 10
2.166581388002576
 20
13.22775624754061
 30
0.0
 10
2.155292644456466
 20
13.22775624754061
 30
0.0
  0
SPLINE
  5
35B
330
1F
100
AcDbEntity
  8
Livello 1
100
AcDbSpline
210
0.0
220
0.0
230
1.0
 70
     9
 71
     3
 72
    23
 73
    19
 74
     0
 42
0.000000001
 43
0.0000000001
 40
0.0
 40
0.0
 40
0.0
 40
0.0
 40
1.0
 40
1.0
 40
1.0
 40
2.0
 40
2.0
 40
2.0
 40
3.0
 40
3.0
 40
3.0
 40
4.0
 40
4.0
 40
4.0
 40
5.0
 40
5.0
 40
5.0
 40
6.0
 40
6.0
 40
6.0
 40
6.0
 10
2.129680849143419
 20
13.31976048310321
 30
0.0
 10
2.118391769162222
 20
13.31976048310321
 30
0.0
 10
2.10921953886784
 20
13.32893170409221
 30
0.0
 10
2.10921953886784
 20
13.34022112050849
 30
0.0
 10
2.10921953886784
 20
13.34022112050849
 30
0.0
 10
2.10921953886784
 20
14.07646763199579
 30
0.0
 10
2.10921953886784
 20
14.07646763199579
 30
0.0
 10
2.10921953886784
 20
14.0877570484121
 30
0.0
 10
2.118391769162222
 20
14.0969296151415
 30
0.0
 10
2.129680849143419
 20
14.0969296151415
 30
0.0
 10
2.140969592689515
 20
14.0969296151415
 30
0.0
 10
2.15014182298389
 20
14.0877570484121
 30
0.0
 10
2.15014182298389
 20
14.07646763199579
 30
0.0
 10
2.15014182298389
 20
14.07646763199579
 30
0.0
 10
2.15014182298389
 20
13.34022112050849
 30
0.0
 10
2.15014182298389
 20
13.34022112050849
 30
0.0
 10
2.15014182298389
 20
13.32893170409221
 30
0.0
 10
2.140969592689515
 20
13.31976048310321
 30
0.0
 10
2.129680849143419
 20
13.31976048310321
 30
0.0
  0
SPLINE
  5
35C
330
1F
100
AcDbEntity
  8
Livello 1
100
AcDbSpline
210
0.0
220
0.0
230
1.0
 70
     9
 71
     3
 72
    23
 73
    19
 74
     0
 42
0.000000001
 43
0.0000000001
 40
0.0
 40
0.0
 40
0.0
 40
0.0
 40
1.0
 40
1.0
 40
1.0
 40
2.0
 40
2.0
 40
2.0
 40
3.0
 40
3.0
 40
3.0
 40
4.0
 40
4.0
 40
4.0
 40
5.0
 40
5.0
 40
5.0
 40
6.0
 40
6.0
 40
6.0
 40
6.0
 10
1.945707367269392
 20
13.31976048310321
 30
0.0
 10
1.934418287288181
 20
13.31976048310321
 30
0.0
 10
1.925246056993806
 20
13.32893170409221
 30
0.0
 10
1.925246056993806
 20
13.34022112050849
 30
0.0
 10
1.925246056993806
 20
13.34022112050849
 30
0.0
 10
1.925246056993806
 20
14.07646763199579
 30
0.0
 10
1.925246056993806
 20
14.07646763199579
 30
0.0
 10
1.925246056993806
 20
14.0877570484121
 30
0.0
 10
1.934418287288181
 20
14.0969296151415
 30
0.0
 10
1.945707367269392
 20
14.0969296151415
 30
0.0
 10
1.956996110815481
 20
14.0969296151415
 30
0.0
 10
1.966168341109856
 20
14.0877570484121
 30
0.0
 10
1.966168341109856
 20
14.07646763199579
 30
0.0
 10
1.966168341109856
 20
14.07646763199579
 30
0.0
 10
1.966168341109856
 20
13.34022112050849
 30
0.0
 10
1.966168341109856
 20
13.34022112050849
 30
0.0
 10
1.966168341109856
 20
13.32893170409221
 30
0.0
 10
1.956996110815481
 20
13.31976048310321
 30
0.0
 10
1.945707367269392
 20
13.31976048310321
 30
0.0
  0
SPLINE
  5
35D
330
1F
100
AcDbEntity
  8
Livello 1
100
AcDbSpline
210
0.0
220
0.0
230
1.0
 70
     9
 71
     3
 72
    23
 73
    19
 74
     0
 42
0.000000001
 43
0.0000000001
 40
0.0
 40
0.0
 40
0.0
 40
0.0
 40
1.0
 40
1.0
 40
1.0
 40
2.0
 40
2.0
 40
2.0
 40
3.0
 40
3.0
 40
3.0
 40
4.0
 40
4.0
 40
4.0
 40
5.0
 40
5.0
 40
5.0
 40
6.0
 40
6.0
 40
6.0
 40
6.0
 10
11.81724853921073
 20
5.02559204250852
 30
0.0
 10
11.80595912279441
 20
5.02559204250852
 30
0.0
 10
11.79678655606494
 20
5.034763936367681
 30
0.0
 10
11.79678655606494
 20
5.046053016348992
 30
0.0
 10
11.79678655606494
 20
5.046053016348992
 30
0.0
 10
11.79678655606494
 20
9.297730809212708
 30
0.0
 10
11.79678655606494
 20
9.297730809212708
 30
0.0
 10
11.79678655606494
 20
9.309019552758797
 30
0.0
 10
11.80595912279441
 20
9.318192119488315
 30
0.0
 10
11.81724853921073
 20
9.318192119488315
 30
0.0
 10
11.82853660988661
 20
9.318192119488315
 30
0.0
 10
11.8377091766161
 20
9.309019552758797
 30
0.0
 10
11.8377091766161
 20
9.297730809212708
 30
0.0
 10
11.8377091766161
 20
9.297730809212708
 30
0.0
 10
11.8377091766161
 20
5.046053016348992
 30
0.0
 10
11.8377091766161
 20
5.046053016348992
 30
0.0
 10
11.8377091766161
 20
5.034763936367681
 30
0.0
 10
11.82853660988661
 20
5.02559204250852
 30
0.0
 10
11.81724853921073
 20
5.02559204250852
 30
0.0
  0
SPLINE
  5
35E
330
1F
100
AcDbEntity
  8
Livello 1
100
AcDbSpline
210
0.0
220
0.0
230
1.0
 70
     9
 71
     3
 72
    23
 73
    19
 74
     0
 42
0.000000001
 43
0.0000000001
 40
0.0
 40
0.0
 40
0.0
 40
0.0
 40
1.0
 40
1.0
 40
1.0
 40
2.0
 40
2.0
 40
2.0
 40
3.0
 40
3.0
 40
3.0
 40
4.0
 40
4.0
 40
4.0
 40
5.0
 40
5.0
 40
5.0
 40
6.0
 40
6.0
 40
6.0
 40
6.0
 10
23.40589437600474
 20
5.02559204250852
 30
0.0
 10
23.40589437600474
 20
5.02559204250852
 30
0.0
 10
11.8171449171981
 20
5.02559204250852
 30
0.0
 10
11.8171449171981
 20
5.02559204250852
 30
0.0
 10
11.80585550078178
 20
5.02559204250852
 30
0.0
 10
11.79668293405229
 20
5.034763936367681
 30
0.0
 10
11.79668293405229
 20
5.046053016348992
 30
0.0
 10
11.79668293405229
 20
5.057694680321191
 30
0.0
 10
11.80585550078178
 20
5.066866910615601
 30
0.0
 10
11.8171449171981
 20
5.066866910615601
 30
0.0
 10
11.8171449171981
 20
5.066866910615601
 30
0.0
 10
23.40589437600474
 20
5.066866910615601
 30
0.0
 10
23.40589437600474
 20
5.066866910615601
 30
0.0
 10
23.41718244668061
 20
5.066866910615601
 30
0.0
 10
23.42635501341011
 20
5.057694680321191
 30
0.0
 10
23.42635501341011
 20
5.046053016348992
 30
0.0
 10
23.42635501341011
 20
5.034763936367681
 30
0.0
 10
23.41718244668061
 20
5.02559204250852
 30
0.0
 10
23.40589437600474
 20
5.02559204250852
 30
0.0
  0
SPLINE
  5
35F
330
1F
100
AcDbEntity
  8
Livello 1
100
AcDbSpline
210
0.0
220
0.0
230
1.0
 70
     9
 71
     3
 72
    23
 73
    19
 74
     0
 42
0.000000001
 43
0.0000000001
 40
0.0
 40
0.0
 40
0.0
 40
0.0
 40
1.0
 40
1.0
 40
1.0
 40
2.0
 40
2.0
 40
2.0
 40
3.0
 40
3.0
 40
3.0
 40
4.0
 40
4.0
 40
4.0
 40
5.0
 40
5.0
 40
5.0
 40
6.0
 40
6.0
 40
6.0
 40
6.0
 10
23.40589437600474
 20
9.252575162158109
 30
0.0
 10
23.40589437600474
 20
9.252575162158109
 30
0.0
 10
21.7968732955422
 20
9.252575162158109
 30
0.0
 10
21.7968732955422
 20
9.252575162158109
 30
0.0
 10
21.78523264087522
 20
9.252575162158109
 30
0.0
 10
21.77606007414575
 20
9.261747056017298
 30
0.0
 10
21.77606007414575
 20
9.273035799563416
 30
0.0
 10
21.77606007414575
 20
9.284677799970808
 30
0.0
 10
21.78523264087522
 20
9.293849693830082
 30
0.0
 10
21.7968732955422
 20
9.293849693830082
 30
0.0
 10
21.7968732955422
 20
9.293849693830082
 30
0.0
 10
23.40589437600474
 20
9.293849693830082
 30
0.0
 10
23.40589437600474
 20
9.293849693830082
 30
0.0
 10
23.41718244668061
 20
9.293849693830082
 30
0.0
 10
23.42635501341011
 20
9.284677799970808
 30
0.0
 10
23.42635501341011
 20
9.273035799563416
 30
0.0
 10
23.42635501341011
 20
9.261747056017298
 30
0.0
 10
23.41718244668061
 20
9.252575162158109
 30
0.0
 10
23.40589437600474
 20
9.252575162158109
 30
0.0
  0
SPLINE
  5
360
330
1F
100
AcDbEntity
  8
Livello 1
100
AcDbSpline
210
0.0
220
0.0
230
1.0
 70
     9
 71
     3
 72
    23
 73
    19
 74
     0
 42
0.000000001
 43
0.0000000001
 40
0.0
 40
0.0
 40
0.0
 40
0.0
 40
1.0
 40
1.0
 40
1.0
 40
2.0
 40
2.0
 40
2.0
 40
3.0
 40
3.0
 40
3.0
 40
4.0
 40
4.0
 40
4.0
 40
5.0
 40
5.0
 40
5.0
 40
6.0
 40
6.0
 40
6.0
 40
6.0
 10
21.47196580203211
 20
9.27719884756479
 30
0.0
 10
21.47196580203211
 20
9.27719884756479
 30
0.0
 10
11.81714357145767
 20
9.27719884756479
 30
0.0
 10
11.81714357145767
 20
9.27719884756479
 30
0.0
 10
11.80585415504136
 20
9.27719884756479
 30
0.0
 10
11.79668158831187
 20
9.286370741424121
 30
0.0
 10
11.79668158831187
 20
9.29765948497021
 30
0.0
 10
11.79668158831187
 20
9.309301485377602
 30
0.0
 10
11.80585415504136
 20
9.318473379236905
 30
0.0
 10
11.81714357145767
 20
9.318473379236905
 30
0.0
 10
11.81714357145767
 20
9.318473379236905
 30
0.0
 10
21.47196580203211
 20
9.318473379236905
 30
0.0
 10
21.47196580203211
 20
9.318473379236905
 30
0.0
 10
21.48325387270799
 20
9.318473379236905
 30
0.0
 10
21.49242643943747
 20
9.309301485377602
 30
0.0
 10
21.49242643943747
 20
9.29765948497021
 30
0.0
 10
21.49242643943747
 20
9.286370741424121
 30
0.0
 10
21.48325387270799
 20
9.27719884756479
 30
0.0
 10
21.47196580203211
 20
9.27719884756479
 30
0.0
  0
SPLINE
  5
361
330
1F
100
AcDbEntity
  8
Livello 1
100
AcDbSpline
210
0.0
220
0.0
230
1.0
 70
     9
 71
     3
 72
    26
 73
    22
 74
     0
 42
0.000000001
 43
0.0000000001
 40
0.0
 40
0.0
 40
0.0
 40
0.0
 40
1.0
 40
1.0
 40
1.0
 40
2.0
 40
2.0
 40
2.0
 40
3.0
 40
3.0
 40
3.0
 40
4.0
 40
4.0
 40
4.0
 40
5.0
 40
5.0
 40
5.0
 40
6.0
 40
6.0
 40
6.0
 40
7.0
 40
7.0
 40
7.0
 40
7.0
 10
22.38724692803756
 20
9.444662785918211
 30
0.0
 10
22.38160020121875
 20
9.444662785918211
 30
0.0
 10
22.37630874987189
 20
9.446778962734811
 30
0.0
 10
22.37242763448929
 20
9.451012662108496
 30
0.0
 10
22.3689017945786
 20
9.454187263768517
 30
0.0
 10
22.36678359915133
 20
9.459479387985595
 30
0.0
 10
22.36678359915133
 20
9.465123423323518
 30
0.0
 10
22.36678359915133
 20
9.470415547540596
 30
0.0
 10
22.3689017945786
 20
9.475354414896429
 30
0.0
 10
22.37242763448929
 20
9.479234857408783
 30
0.0
 10
22.38054244924555
 20
9.487348326424694
 30
0.0
 10
22.39394871534871
 20
9.487348326424694
 30
0.0
 10
22.40135567064199
 20
9.479940025391016
 30
0.0
 10
22.40558937001567
 20
9.475354414896429
 30
0.0
 10
22.40770756544292
 20
9.470415547540596
 30
0.0
 10
22.40770756544292
 20
9.465123423323518
 30
0.0
 10
22.40770756544292
 20
9.460184555967714
 30
0.0
 10
22.40558937001567
 20
9.454893104620794
 30
0.0
 10
22.40206353010497
 20
9.451012662108496
 30
0.0
 10
22.39818241472236
 20
9.446778962734811
 30
0.0
 10
22.3928909633755
 20
9.444662785918211
 30
0.0
 10
22.38724692803756
 20
9.444662785918211
 30
0.0
  0
SPLINE
  5
362
330
1F
100
AcDbEntity
  8
Livello 1
100
AcDbSpline
210
0.0
220
0.0
230
1.0
 70
     9
 71
     3
 72
    23
 73
    19
 74
     0
 42
0.000000001
 43
0.0000000001
 40
0.0
 40
0.0
 40
0.0
 40
0.0
 40
1.0
 40
1.0
 40
1.0
 40
2.0
 40
2.0
 40
2.0
 40
3.0
 40
3.0
 40
3.0
 40
4.0
 40
4.0
 40
4.0
 40
5.0
 40
5.0
 40
5.0
 40
6.0
 40
6.0
 40
6.0
 40
6.0
 10
22.38724692803756
 20
10.82726909588709
 30
0.0
 10
22.38724692803756
 20
10.82726909588709
 30
0.0
 10
21.61466273362349
 20
10.82726909588709
 30
0.0
 10
21.61466273362349
 20
10.82726909588709
 30
0.0
 10
21.6033746629476
 20
10.82726909588709
 30
0.0
 10
21.59420209621813
 20
10.83644098974639
 30
0.0
 10
21.59420209621813
 20
10.84772973329251
 30
0.0
 10
21.59420209621813
 20
10.85937173369993
 30
0.0
 10
21.6033746629476
 20
10.86854362755909
 30
0.0
 10
21.61466273362349
 20
10.86854362755909
 30
0.0
 10
21.61466273362349
 20
10.86854362755909
 30
0.0
 10
22.38724692803756
 20
10.86854362755909
 30
0.0
 10
22.38724692803756
 20
10.86854362755909
 30
0.0
 10
22.39853499871345
 20
10.86854362755909
 30
0.0
 10
22.40770756544292
 20
10.85937173369993
 30
0.0
 10
22.40770756544292
 20
10.84772973329251
 30
0.0
 10
22.40770756544292
 20
10.83644098974639
 30
0.0
 10
22.39853499871345
 20
10.82726909588709
 30
0.0
 10
22.38724692803756
 20
10.82726909588709
 30
0.0
  0
SPLINE
  5
363
330
1F
100
AcDbEntity
  8
Livello 1
100
AcDbSpline
210
0.0
220
0.0
230
1.0
 70
     9
 71
     3
 72
    23
 73
    19
 74
     0
 42
0.000000001
 43
0.0000000001
 40
0.0
 40
0.0
 40
0.0
 40
0.0
 40
1.0
 40
1.0
 40
1.0
 40
2.0
 40
2.0
 40
2.0
 40
3.0
 40
3.0
 40
3.0
 40
4.0
 40
4.0
 40
4.0
 40
5.0
 40
5.0
 40
5.0
 40
6.0
 40
6.0
 40
6.0
 40
6.0
 10
22.00342561024886
 20
11.98857848619471
 30
0.0
 10
22.00342561024886
 20
11.98857848619471
 30
0.0
 10
21.19662192833522
 20
11.98857848619471
 30
0.0
 10
21.19662192833522
 20
11.98857848619471
 30
0.0
 10
21.18497858218741
 20
11.98857848619471
 30
0.0
 10
21.17580870693878
 20
11.99774970718371
 30
0.0
 10
21.17580870693878
 20
12.00903912360002
 30
0.0
 10
21.17580870693878
 20
12.02068112400741
 30
0.0
 10
21.18497858218741
 20
12.0298523449965
 30
0.0
 10
21.19662192833522
 20
12.0298523449965
 30
0.0
 10
21.19662192833522
 20
12.0298523449965
 30
0.0
 10
22.00342561024886
 20
12.0298523449965
 30
0.0
 10
22.00342561024886
 20
12.0298523449965
 30
0.0
 10
22.01471368092475
 20
12.0298523449965
 30
0.0
 10
22.02388624765422
 20
12.02068112400741
 30
0.0
 10
22.02388624765422
 20
12.00903912360002
 30
0.0
 10
22.02388624765422
 20
11.99774970718371
 30
0.0
 10
22.01471368092475
 20
11.98857848619471
 30
0.0
 10
22.00342561024886
 20
11.98857848619471
 30
0.0
  0
SPLINE
  5
364
330
1F
100
AcDbEntity
  8
Livello 1
100
AcDbSpline
210
0.0
220
0.0
230
1.0
 70
     9
 71
     3
 72
    23
 73
    19
 74
     0
 42
0.000000001
 43
0.0000000001
 40
0.0
 40
0.0
 40
0.0
 40
0.0
 40
1.0
 40
1.0
 40
1.0
 40
2.0
 40
2.0
 40
2.0
 40
3.0
 40
3.0
 40
3.0
 40
4.0
 40
4.0
 40
4.0
 40
5.0
 40
5.0
 40
5.0
 40
6.0
 40
6.0
 40
6.0
 40
6.0
 10
22.80550036031281
 20
11.98857848619471
 30
0.0
 10
22.80550036031281
 20
11.98857848619471
 30
0.0
 10
22.00328296176392
 20
11.98857848619471
 30
0.0
 10
22.00328296176392
 20
11.98857848619471
 30
0.0
 10
21.99199219960718
 20
11.98857848619471
 30
0.0
 10
21.98282232435856
 20
11.99774970718371
 30
0.0
 10
21.98282232435856
 20
12.00903912360002
 30
0.0
 10
21.98282232435856
 20
12.02068112400741
 30
0.0
 10
21.99199219960718
 20
12.0298523449965
 30
0.0
 10
22.00328296176392
 20
12.0298523449965
 30
0.0
 10
22.00328296176392
 20
12.0298523449965
 30
0.0
 10
22.80550036031281
 20
12.0298523449965
 30
0.0
 10
22.80550036031281
 20
12.0298523449965
 30
0.0
 10
22.81678843098871
 20
12.0298523449965
 30
0.0
 10
22.82596099771818
 20
12.02068112400741
 30
0.0
 10
22.82596099771818
 20
12.00903912360002
 30
0.0
 10
22.82596099771818
 20
11.99774970718371
 30
0.0
 10
22.81678843098871
 20
11.98857848619471
 30
0.0
 10
22.80550036031281
 20
11.98857848619471
 30
0.0
  0
SPLINE
  5
365
330
1F
100
AcDbEntity
  8
Livello 1
100
AcDbSpline
210
0.0
220
0.0
230
1.0
 70
     9
 71
     3
 72
    23
 73
    19
 74
     0
 42
0.000000001
 43
0.0000000001
 40
0.0
 40
0.0
 40
0.0
 40
0.0
 40
1.0
 40
1.0
 40
1.0
 40
2.0
 40
2.0
 40
2.0
 40
3.0
 40
3.0
 40
3.0
 40
4.0
 40
4.0
 40
4.0
 40
5.0
 40
5.0
 40
5.0
 40
6.0
 40
6.0
 40
6.0
 40
6.0
 10
21.19641199282907
 20
11.98857848619471
 30
0.0
 10
21.18512123067233
 20
11.98857848619471
 30
0.0
 10
21.17594866394286
 20
11.99774970718371
 30
0.0
 10
21.17594866394286
 20
12.00903912360002
 30
0.0
 10
21.17594866394286
 20
12.00903912360002
 30
0.0
 10
21.17594866394286
 20
12.71776928063931
 30
0.0
 10
21.17594866394286
 20
12.71776928063931
 30
0.0
 10
21.17594866394286
 20
12.72905869705559
 30
0.0
 10
21.18512123067233
 20
12.738231263785
 30
0.0
 10
21.19641199282907
 20
12.738231263785
 30
0.0
 10
21.20770006350496
 20
12.738231263785
 30
0.0
 10
21.21687263023445
 20
12.72905869705559
 30
0.0
 10
21.21687263023445
 20
12.71776928063931
 30
0.0
 10
21.21687263023445
 20
12.71776928063931
 30
0.0
 10
21.21687263023445
 20
12.00903912360002
 30
0.0
 10
21.21687263023445
 20
12.00903912360002
 30
0.0
 10
21.21687263023445
 20
11.99774970718371
 30
0.0
 10
21.20770006350496
 20
11.98857848619471
 30
0.0
 10
21.19641199282907
 20
11.98857848619471
 30
0.0
  0
SPLINE
  5
366
330
1F
100
AcDbEntity
  8
Livello 1
100
AcDbSpline
210
0.0
220
0.0
230
1.0
 70
     9
 71
     3
 72
    20
 73
    16
 74
     0
 42
0.000000001
 43
0.0000000001
 40
0.0
 40
0.0
 40
0.0
 40
0.0
 40
1.0
 40
1.0
 40
1.0
 40
2.0
 40
2.0
 40
2.0
 40
3.0
 40
3.0
 40
3.0
 40
4.0
 40
4.0
 40
4.0
 40
5.0
 40
5.0
 40
5.0
 40
5.0
 10
22.00342561024886
 20
11.9836746080899
 30
0.0
 10
21.99213484809211
 20
11.9836746080899
 30
0.0
 10
21.98296228136264
 20
11.9928458290789
 30
0.0
 10
21.98296228136264
 20
12.00413524549532
 30
0.0
 10
21.98296228136264
 20
12.0157772459026
 30
0.0
 10
21.99213484809211
 20
12.0270653165785
 30
0.0
 10
22.00342561024886
 20
12.0270653165785
 30
0.0
 10
22.01471368092475
 20
12.0270653165785
 30
0.0
 10
22.02388624765422
 20
12.02036218352691
 30
0.0
 10
22.02388624765422
 20
12.00907411285109
 30
0.0
 10
22.02388624765422
 20
12.00907411285109
 30
0.0
 10
22.02388624765422
 20
12.00413524549532
 30
0.0
 10
22.02388624765422
 20
12.00413524549532
 30
0.0
 10
22.02388624765422
 20
11.9928458290789
 30
0.0
 10
22.01471368092475
 20
11.9836746080899
 30
0.0
 10
22.00342561024886
 20
11.9836746080899
 30
0.0
  0
SPLINE
  5
367
330
1F
100
AcDbEntity
  8
Livello 1
100
AcDbSpline
210
0.0
220
0.0
230
1.0
 70
     9
 71
     3
 72
    23
 73
    19
 74
     0
 42
0.000000001
 43
0.0000000001
 40
0.0
 40
0.0
 40
0.0
 40
0.0
 40
1.0
 40
1.0
 40
1.0
 40
2.0
 40
2.0
 40
2.0
 40
3.0
 40
3.0
 40
3.0
 40
4.0
 40
4.0
 40
4.0
 40
5.0
 40
5.0
 40
5.0
 40
6.0
 40
6.0
 40
6.0
 40
6.0
 10
21.61473540360638
 20
9.257514029513913
 30
0.0
 10
21.60344464144965
 20
9.257514029513913
 30
0.0
 10
21.59427207472018
 20
9.266685923373216
 30
0.0
 10
21.59427207472018
 20
9.27797466691922
 30
0.0
 10
21.59427207472018
 20
9.27797466691922
 30
0.0
 10
21.59427207472018
 20
10.847836046786
 30
0.0
 10
21.59427207472018
 20
10.847836046786
 30
0.0
 10
21.59427207472018
 20
10.85912479033209
 30
0.0
 10
21.60344464144965
 20
10.86829735706149
 30
0.0
 10
21.61473540360638
 20
10.86829735706149
 30
0.0
 10
21.62602347428228
 20
10.86829735706149
 30
0.0
 10
21.63519604101175
 20
10.85912479033209
 30
0.0
 10
21.63519604101175
 20
10.847836046786
 30
0.0
 10
21.63519604101175
 20
10.847836046786
 30
0.0
 10
21.63519604101175
 20
9.27797466691922
 30
0.0
 10
21.63519604101175
 20
9.27797466691922
 30
0.0
 10
21.63519604101175
 20
9.266685923373216
 30
0.0
 10
21.62602347428228
 20
9.257514029513913
 30
0.0
 10
21.61473540360638
 20
9.257514029513913
 30
0.0
  0
SPLINE
  5
368
330
1F
100
AcDbEntity
  8
Livello 1
100
AcDbSpline
210
0.0
220
0.0
230
1.0
 70
     9
 71
     3
 72
    23
 73
    19
 74
     0
 42
0.000000001
 43
0.0000000001
 40
0.0
 40
0.0
 40
0.0
 40
0.0
 40
1.0
 40
1.0
 40
1.0
 40
2.0
 40
2.0
 40
2.0
 40
3.0
 40
3.0
 40
3.0
 40
4.0
 40
4.0
 40
4.0
 40
5.0
 40
5.0
 40
5.0
 40
6.0
 40
6.0
 40
6.0
 40
6.0
 10
21.71795638560233
 20
9.252575162158109
 30
0.0
 10
21.7066656234456
 20
9.252575162158109
 30
0.0
 10
21.69749305671611
 20
9.261747056017298
 30
0.0
 10
21.69749305671611
 20
9.273035799563416
 30
0.0
 10
21.69749305671611
 20
9.273035799563416
 30
0.0
 10
21.69749305671611
 20
10.847836046786
 30
0.0
 10
21.69749305671611
 20
10.847836046786
 30
0.0
 10
21.69749305671611
 20
10.85912479033209
 30
0.0
 10
21.7066656234456
 20
10.86829735706149
 30
0.0
 10
21.71795638560233
 20
10.86829735706149
 30
0.0
 10
21.72924445627822
 20
10.86829735706149
 30
0.0
 10
21.73841702300771
 20
10.85912479033209
 30
0.0
 10
21.73841702300771
 20
10.847836046786
 30
0.0
 10
21.73841702300771
 20
10.847836046786
 30
0.0
 10
21.73841702300771
 20
9.273035799563416
 30
0.0
 10
21.73841702300771
 20
9.273035799563416
 30
0.0
 10
21.73841702300771
 20
9.261747056017298
 30
0.0
 10
21.72924445627822
 20
9.252575162158109
 30
0.0
 10
21.71795638560233
 20
9.252575162158109
 30
0.0
  0
SPLINE
  5
369
330
1F
100
AcDbEntity
  8
Livello 1
100
AcDbSpline
210
0.0
220
0.0
230
1.0
 70
     9
 71
     3
 72
    23
 73
    19
 74
     0
 42
0.000000001
 43
0.0000000001
 40
0.0
 40
0.0
 40
0.0
 40
0.0
 40
1.0
 40
1.0
 40
1.0
 40
2.0
 40
2.0
 40
2.0
 40
3.0
 40
3.0
 40
3.0
 40
4.0
 40
4.0
 40
4.0
 40
5.0
 40
5.0
 40
5.0
 40
6.0
 40
6.0
 40
6.0
 40
6.0
 10
21.74265072238138
 20
9.252575162158109
 30
0.0
 10
21.73135996022464
 20
9.252575162158109
 30
0.0
 10
21.72218739349517
 20
9.261747056017298
 30
0.0
 10
21.72218739349517
 20
9.273035799563416
 30
0.0
 10
21.72218739349517
 20
9.273035799563416
 30
0.0
 10
21.72218739349517
 20
10.847836046786
 30
0.0
 10
21.72218739349517
 20
10.847836046786
 30
0.0
 10
21.72218739349517
 20
10.85912479033209
 30
0.0
 10
21.73135996022464
 20
10.86829735706149
 30
0.0
 10
21.74265072238138
 20
10.86829735706149
 30
0.0
 10
21.75393879305726
 20
10.86829735706149
 30
0.0
 10
21.76311135978675
 20
10.85912479033209
 30
0.0
 10
21.76311135978675
 20
10.847836046786
 30
0.0
 10
21.76311135978675
 20
10.847836046786
 30
0.0
 10
21.76311135978675
 20
9.273035799563416
 30
0.0
 10
21.76311135978675
 20
9.273035799563416
 30
0.0
 10
21.76311135978675
 20
9.261747056017298
 30
0.0
 10
21.75393879305726
 20
9.252575162158109
 30
0.0
 10
21.74265072238138
 20
9.252575162158109
 30
0.0
  0
SPLINE
  5
36A
330
1F
100
AcDbEntity
  8
Livello 1
100
AcDbSpline
210
0.0
220
0.0
230
1.0
 70
     9
 71
     3
 72
    23
 73
    19
 74
     0
 42
0.000000001
 43
0.0000000001
 40
0.0
 40
0.0
 40
0.0
 40
0.0
 40
1.0
 40
1.0
 40
1.0
 40
2.0
 40
2.0
 40
2.0
 40
3.0
 40
3.0
 40
3.0
 40
4.0
 40
4.0
 40
4.0
 40
5.0
 40
5.0
 40
5.0
 40
6.0
 40
6.0
 40
6.0
 40
6.0
 10
22.2592939285307
 20
9.252575162158109
 30
0.0
 10
22.24800316637396
 20
9.252575162158109
 30
0.0
 10
22.23883059964448
 20
9.261747056017298
 30
0.0
 10
22.23883059964448
 20
9.273035799563416
 30
0.0
 10
22.23883059964448
 20
9.273035799563416
 30
0.0
 10
22.23883059964448
 20
10.847836046786
 30
0.0
 10
22.23883059964448
 20
10.847836046786
 30
0.0
 10
22.23883059964448
 20
10.85912479033209
 30
0.0
 10
22.24800316637396
 20
10.86829735706149
 30
0.0
 10
22.2592939285307
 20
10.86829735706149
 30
0.0
 10
22.27058199920658
 20
10.86829735706149
 30
0.0
 10
22.27975456593606
 20
10.85912479033209
 30
0.0
 10
22.27975456593606
 20
10.847836046786
 30
0.0
 10
22.27975456593606
 20
10.847836046786
 30
0.0
 10
22.27975456593606
 20
9.273035799563416
 30
0.0
 10
22.27975456593606
 20
9.273035799563416
 30
0.0
 10
22.27975456593606
 20
9.261747056017298
 30
0.0
 10
22.27058199920658
 20
9.252575162158109
 30
0.0
 10
22.2592939285307
 20
9.252575162158109
 30
0.0
  0
SPLINE
  5
36B
330
1F
100
AcDbEntity
  8
Livello 1
100
AcDbSpline
210
0.0
220
0.0
230
1.0
 70
     9
 71
     3
 72
    23
 73
    19
 74
     0
 42
0.000000001
 43
0.0000000001
 40
0.0
 40
0.0
 40
0.0
 40
0.0
 40
1.0
 40
1.0
 40
1.0
 40
2.0
 40
2.0
 40
2.0
 40
3.0
 40
3.0
 40
3.0
 40
4.0
 40
4.0
 40
4.0
 40
5.0
 40
5.0
 40
5.0
 40
6.0
 40
6.0
 40
6.0
 40
6.0
 10
22.28395327605871
 20
9.252575162158109
 30
0.0
 10
22.27266251390198
 20
9.252575162158109
 30
0.0
 10
22.2634899471725
 20
9.261747056017298
 30
0.0
 10
22.2634899471725
 20
9.273035799563416
 30
0.0
 10
22.2634899471725
 20
9.273035799563416
 30
0.0
 10
22.2634899471725
 20
10.847836046786
 30
0.0
 10
22.2634899471725
 20
10.847836046786
 30
0.0
 10
22.2634899471725
 20
10.85912479033209
 30
0.0
 10
22.27266251390198
 20
10.86829735706149
 30
0.0
 10
22.28395327605871
 20
10.86829735706149
 30
0.0
 10
22.2952413467346
 20
10.86829735706149
 30
0.0
 10
22.30441391346408
 20
10.85912479033209
 30
0.0
 10
22.30441391346408
 20
10.847836046786
 30
0.0
 10
22.30441391346408
 20
10.847836046786
 30
0.0
 10
22.30441391346408
 20
9.273035799563416
 30
0.0
 10
22.30441391346408
 20
9.273035799563416
 30
0.0
 10
22.30441391346408
 20
9.261747056017298
 30
0.0
 10
22.2952413467346
 20
9.252575162158109
 30
0.0
 10
22.28395327605871
 20
9.252575162158109
 30
0.0
  0
SPLINE
  5
36C
330
1F
100
AcDbEntity
  8
Livello 1
100
AcDbSpline
210
0.0
220
0.0
230
1.0
 70
     9
 71
     3
 72
    23
 73
    19
 74
     0
 42
0.000000001
 43
0.0000000001
 40
0.0
 40
0.0
 40
0.0
 40
0.0
 40
1.0
 40
1.0
 40
1.0
 40
2.0
 40
2.0
 40
2.0
 40
3.0
 40
3.0
 40
3.0
 40
4.0
 40
4.0
 40
4.0
 40
5.0
 40
5.0
 40
5.0
 40
6.0
 40
6.0
 40
6.0
 40
6.0
 10
22.35285249428286
 20
9.252575162158109
 30
0.0
 10
22.34156173212613
 20
9.252575162158109
 30
0.0
 10
22.33238916539664
 20
9.261747056017298
 30
0.0
 10
22.33238916539664
 20
9.273035799563416
 30
0.0
 10
22.33238916539664
 20
9.273035799563416
 30
0.0
 10
22.33238916539664
 20
9.336888491197925
 30
0.0
 10
22.33238916539664
 20
9.336888491197925
 30
0.0
 10
22.33238916539664
 20
9.348530491605316
 30
0.0
 10
22.34156173212613
 20
9.357702385464506
 30
0.0
 10
22.35285249428286
 20
9.357702385464506
 30
0.0
 10
22.36414056495874
 20
9.357702385464506
 30
0.0
 10
22.37331313168822
 20
9.348530491605316
 30
0.0
 10
22.37331313168822
 20
9.336888491197925
 30
0.0
 10
22.37331313168822
 20
9.336888491197925
 30
0.0
 10
22.37331313168822
 20
9.273035799563416
 30
0.0
 10
22.37331313168822
 20
9.273035799563416
 30
0.0
 10
22.37331313168822
 20
9.261747056017298
 30
0.0
 10
22.36414056495874
 20
9.252575162158109
 30
0.0
 10
22.35285249428286
 20
9.252575162158109
 30
0.0
  0
SPLINE
  5
36D
330
1F
100
AcDbEntity
  8
Livello 1
100
AcDbSpline
210
0.0
220
0.0
230
1.0
 70
     9
 71
     3
 72
    23
 73
    19
 74
     0
 42
0.000000001
 43
0.0000000001
 40
0.0
 40
0.0
 40
0.0
 40
0.0
 40
1.0
 40
1.0
 40
1.0
 40
2.0
 40
2.0
 40
2.0
 40
3.0
 40
3.0
 40
3.0
 40
4.0
 40
4.0
 40
4.0
 40
5.0
 40
5.0
 40
5.0
 40
6.0
 40
6.0
 40
6.0
 40
6.0
 10
22.38724692803756
 20
9.444557145294908
 30
0.0
 10
22.37595616588082
 20
9.444557145294908
 30
0.0
 10
22.36678359915133
 20
9.453729039154097
 30
0.0
 10
22.36678359915133
 20
9.4650177827003
 30
0.0
 10
22.36678359915133
 20
9.4650177827003
 30
0.0
 10
22.36678359915133
 20
10.84790669815822
 30
0.0
 10
22.36678359915133
 20
10.84790669815822
 30
0.0
 10
22.36678359915133
 20
10.85919611457458
 30
0.0
 10
22.37595616588082
 20
10.8683680084338
 30
0.0
 10
22.38724692803756
 20
10.8683680084338
 30
0.0
 10
22.39853499871345
 20
10.8683680084338
 30
0.0
 10
22.40770756544292
 20
10.85919611457458
 30
0.0
 10
22.40770756544292
 20
10.84790669815822
 30
0.0
 10
22.40770756544292
 20
10.84790669815822
 30
0.0
 10
22.40770756544292
 20
9.4650177827003
 30
0.0
 10
22.40770756544292
 20
9.4650177827003
 30
0.0
 10
22.40770756544292
 20
9.453729039154097
 30
0.0
 10
22.39853499871345
 20
9.444557145294908
 30
0.0
 10
22.38724692803756
 20
9.444557145294908
 30
0.0
  0
SPLINE
  5
36E
330
1F
100
AcDbEntity
  8
Livello 1
100
AcDbSpline
210
0.0
220
0.0
230
1.0
 70
     9
 71
     3
 72
    23
 73
    19
 74
     0
 42
0.000000001
 43
0.0000000001
 40
0.0
 40
0.0
 40
0.0
 40
0.0
 40
1.0
 40
1.0
 40
1.0
 40
2.0
 40
2.0
 40
2.0
 40
3.0
 40
3.0
 40
3.0
 40
4.0
 40
4.0
 40
4.0
 40
5.0
 40
5.0
 40
5.0
 40
6.0
 40
6.0
 40
6.0
 40
6.0
 10
22.80550036031281
 20
11.98857848619471
 30
0.0
 10
22.79420959815608
 20
11.98857848619471
 30
0.0
 10
22.78503703142661
 20
11.99774970718371
 30
0.0
 10
22.78503703142661
 20
12.00903912360002
 30
0.0
 10
22.78503703142661
 20
12.00903912360002
 30
0.0
 10
22.78503703142661
 20
12.71776928063931
 30
0.0
 10
22.78503703142661
 20
12.71776928063931
 30
0.0
 10
22.78503703142661
 20
12.72905869705559
 30
0.0
 10
22.79420959815608
 20
12.738231263785
 30
0.0
 10
22.80550036031281
 20
12.738231263785
 30
0.0
 10
22.81678843098871
 20
12.738231263785
 30
0.0
 10
22.82596099771818
 20
12.72905869705559
 30
0.0
 10
22.82596099771818
 20
12.71776928063931
 30
0.0
 10
22.82596099771818
 20
12.71776928063931
 30
0.0
 10
22.82596099771818
 20
12.00903912360002
 30
0.0
 10
22.82596099771818
 20
12.00903912360002
 30
0.0
 10
22.82596099771818
 20
11.99774970718371
 30
0.0
 10
22.81678843098871
 20
11.98857848619471
 30
0.0
 10
22.80550036031281
 20
11.98857848619471
 30
0.0
  0
SPLINE
  5
36F
330
1F
100
AcDbEntity
  8
Livello 1
100
AcDbSpline
210
0.0
220
0.0
230
1.0
 70
     9
 71
     3
 72
    23
 73
    19
 74
     0
 42
0.000000001
 43
0.0000000001
 40
0.0
 40
0.0
 40
0.0
 40
0.0
 40
1.0
 40
1.0
 40
1.0
 40
2.0
 40
2.0
 40
2.0
 40
3.0
 40
3.0
 40
3.0
 40
4.0
 40
4.0
 40
4.0
 40
5.0
 40
5.0
 40
5.0
 40
6.0
 40
6.0
 40
6.0
 40
6.0
 10
23.40589437600474
 20
5.02559204250852
 30
0.0
 10
23.394603613848
 20
5.02559204250852
 30
0.0
 10
23.38543104711853
 20
5.034763936367681
 30
0.0
 10
23.38543104711853
 20
5.046053016348992
 30
0.0
 10
23.38543104711853
 20
5.046053016348992
 30
0.0
 10
23.38543104711853
 20
9.273036472433716
 30
0.0
 10
23.38543104711853
 20
9.273036472433716
 30
0.0
 10
23.38543104711853
 20
9.28432521597972
 30
0.0
 10
23.394603613848
 20
9.293850366700326
 30
0.0
 10
23.40589437600474
 20
9.293850366700326
 30
0.0
 10
23.41718244668061
 20
9.293850366700326
 30
0.0
 10
23.42635501341011
 20
9.28432521597972
 30
0.0
 10
23.42635501341011
 20
9.273036472433716
 30
0.0
 10
23.42635501341011
 20
9.273036472433716
 30
0.0
 10
23.42635501341011
 20
5.046053016348992
 30
0.0
 10
23.42635501341011
 20
5.046053016348992
 30
0.0
 10
23.42635501341011
 20
5.034763936367681
 30
0.0
 10
23.41718244668061
 20
5.02559204250852
 30
0.0
 10
23.40589437600474
 20
5.02559204250852
 30
0.0
  0
SPLINE
  5
370
330
1F
100
AcDbEntity
  8
Livello 1
100
AcDbSpline
210
0.0
220
0.0
230
1.0
 70
     9
 71
     3
 72
    23
 73
    19
 74
     0
 42
0.000000001
 43
0.0000000001
 40
0.0
 40
0.0
 40
0.0
 40
0.0
 40
1.0
 40
1.0
 40
1.0
 40
2.0
 40
2.0
 40
2.0
 40
3.0
 40
3.0
 40
3.0
 40
4.0
 40
4.0
 40
4.0
 40
5.0
 40
5.0
 40
5.0
 40
6.0
 40
6.0
 40
6.0
 40
6.0
 10
22.39222078464438
 20
10.829703540314
 30
0.0
 10
22.38093002248765
 20
10.829703540314
 30
0.0
 10
22.37175745575818
 20
10.8388754341733
 30
0.0
 10
22.37175745575818
 20
10.85016417771942
 30
0.0
 10
22.37175745575818
 20
11.27737754973711
 30
0.0
 10
22.52204167185964
 20
11.69330285107901
 30
0.0
 10
22.7947398198831
 20
12.02173887598059
 30
0.0
 10
22.8021467751764
 20
12.03055885871902
 30
0.0
 10
22.8148478732974
 20
12.03196919468331
 30
0.0
 10
22.82366785603582
 20
12.0245608936496
 30
0.0
 10
22.83248514729338
 20
12.01750517660701
 30
0.0
 10
22.83354559074743
 20
12.0044528402353
 30
0.0
 10
22.82648852796436
 20
11.99563285749693
 30
0.0
 10
22.55978969075076
 20
11.67425254963791
 30
0.0
 10
22.41268142204976
 20
11.26785239901659
 30
0.0
 10
22.41268142204976
 20
10.85016417771942
 30
0.0
 10
22.41268142204976
 20
10.8388754341733
 30
0.0
 10
22.40350885532026
 20
10.829703540314
 30
0.0
 10
22.39222078464438
 20
10.829703540314
 30
0.0
  0
SPLINE
  5
371
330
1F
100
AcDbEntity
  8
Livello 1
100
AcDbSpline
210
0.0
220
0.0
230
1.0
 70
     9
 71
     3
 72
    23
 73
    19
 74
     0
 42
0.000000001
 43
0.0000000001
 40
0.0
 40
0.0
 40
0.0
 40
0.0
 40
1.0
 40
1.0
 40
1.0
 40
2.0
 40
2.0
 40
2.0
 40
3.0
 40
3.0
 40
3.0
 40
4.0
 40
4.0
 40
4.0
 40
5.0
 40
5.0
 40
5.0
 40
6.0
 40
6.0
 40
6.0
 40
6.0
 10
21.61956661172828
 20
10.8298798323095
 30
0.0
 10
21.60827584957154
 20
10.8298798323095
 30
0.0
 10
21.59910328284207
 20
10.8390517261688
 30
0.0
 10
21.59910328284207
 20
10.85034046971492
 30
0.0
 10
21.59910328284207
 20
11.26802869101209
 30
0.0
 10
21.45199501414104
 20
11.6747814256245
 30
0.0
 10
21.18529617692746
 20
11.9958091494924
 30
0.0
 10
21.17823911414439
 20
12.0046291322308
 30
0.0
 10
21.17929955759845
 20
12.01768146860252
 30
0.0
 10
21.188116848856
 20
12.02473718564508
 30
0.0
 10
21.1969368315944
 20
12.03179290268781
 30
0.0
 10
21.20963792971542
 20
12.0307351507146
 30
0.0
 10
21.21704488500871
 20
12.02191516797609
 30
0.0
 10
21.48974303303217
 20
11.69347914307451
 30
0.0
 10
21.64002724913364
 20
11.27755384173272
 30
0.0
 10
21.64002724913364
 20
10.85034046971492
 30
0.0
 10
21.64002724913364
 20
10.8390517261688
 30
0.0
 10
21.63085468240417
 20
10.8298798323095
 30
0.0
 10
21.61956661172828
 20
10.8298798323095
 30
0.0
  0
SPLINE
  5
372
330
1F
100
AcDbEntity
  8
Livello 1
100
AcDbSpline
210
0.0
220
0.0
230
1.0
 70
     9
 71
     3
 72
    68
 73
    64
 74
     0
 42
0.000000001
 43
0.0000000001
 40
0.0
 40
0.0
 40
0.0
 40
0.0
 40
1.0
 40
1.0
 40
1.0
 40
2.0
 40
2.0
 40
2.0
 40
3.0
 40
3.0
 40
3.0
 40
4.0
 40
4.0
 40
4.0
 40
5.0
 40
5.0
 40
5.0
 40
6.0
 40
6.0
 40
6.0
 40
7.0
 40
7.0
 40
7.0
 40
8.0
 40
8.0
 40
8.0
 40
9.0
 40
9.0
 40
9.0
 40
10.0
 40
10.0
 40
10.0
 40
11.0
 40
11.0
 40
11.0
 40
12.0
 40
12.0
 40
12.0
 40
13.0
 40
13.0
 40
13.0
 40
14.0
 40
14.0
 40
14.0
 40
15.0
 40
15.0
 40
15.0
 40
16.0
 40
16.0
 40
16.0
 40
17.0
 40
17.0
 40
17.0
 40
18.0
 40
18.0
 40
18.0
 40
19.0
 40
19.0
 40
19.0
 40
20.0
 40
20.0
 40
20.0
 40
21.0
 40
21.0
 40
21.0
 40
21.0
 10
22.35285249428286
 20
9.316534167285993
 30
0.0
 10
22.34156173212613
 20
9.316534167285993
 30
0.0
 10
22.33238916539664
 20
9.325706061145325
 30
0.0
 10
22.33238916539664
 20
9.336994804691414
 30
0.0
 10
22.33238916539664
 20
9.336994804691414
 30
0.0
 10
22.33238916539664
 20
9.366628008826211
 30
0.0
 10
22.33238916539664
 20
9.366628008826211
 30
0.0
 10
22.33238916539664
 20
9.366628008826211
 30
0.0
 10
22.34226690010826
 20
9.415664098393222
 30
0.0
 10
22.34226690010826
 20
9.415664098393222
 30
0.0
 10
22.34226690010826
 20
9.418133532071095
 30
0.0
 10
22.34261948409933
 20
9.420250381757909
 30
0.0
 10
22.34332734356232
 20
9.422367231444809
 30
0.0
 10
22.34332734356232
 20
9.422367231444809
 30
0.0
 10
22.34826621091811
 20
9.437183833512222
 30
0.0
 10
22.34826621091811
 20
9.437183833512222
 30
0.0
 10
22.3486187949092
 20
9.43894742633779
 30
0.0
 10
22.34932396289133
 20
9.440359108042514
 30
0.0
 10
22.35038171486454
 20
9.442122700867997
 30
0.0
 10
22.35038171486454
 20
9.442122700867997
 30
0.0
 10
22.35884911361187
 20
9.454469869257508
 30
0.0
 10
22.35884911361187
 20
9.454469869257508
 30
0.0
 10
22.35884911361187
 20
9.454469869257508
 30
0.0
 10
22.36308281298554
 20
9.466817037647018
 30
0.0
 10
22.36308281298554
 20
9.466817037647018
 30
0.0
 10
22.36378798096767
 20
9.469639055316008
 30
0.0
 10
22.36555090092303
 20
9.472461745855213
 30
0.0
 10
22.36766909635028
 20
9.474578595541998
 30
0.0
 10
22.36766909635028
 20
9.474578595541998
 30
0.0
 10
22.37260796370608
 20
9.479517462897916
 30
0.0
 10
22.37260796370608
 20
9.479517462897916
 30
0.0
 10
22.38072008698151
 20
9.487630931913713
 30
0.0
 10
22.3937737690936
 20
9.487630931913713
 30
0.0
 10
22.40153330837795
 20
9.479517462897916
 30
0.0
 10
22.40964812313422
 20
9.471755905002822
 30
0.0
 10
22.40964812313422
 20
9.458703568631221
 30
0.0
 10
22.40188858384987
 20
9.450589426745096
 30
0.0
 10
22.40188858384987
 20
9.450589426745096
 30
0.0
 10
22.40012297241368
 20
9.449178417910587
 30
0.0
 10
22.40012297241368
 20
9.449178417910587
 30
0.0
 10
22.40012297241368
 20
9.449178417910587
 30
0.0
 10
22.39694971649406
 20
9.43894742633779
 30
0.0
 10
22.39694971649406
 20
9.43894742633779
 30
0.0
 10
22.39624185703108
 20
9.437183833512222
 30
0.0
 10
22.39553668904894
 20
9.435420240686596
 30
0.0
 10
22.39447893707574
 20
9.434008558981986
 30
0.0
 10
22.39447893707574
 20
9.434008558981986
 30
0.0
 10
22.38319086639985
 20
9.412489496733201
 30
0.0
 10
22.38319086639985
 20
9.412489496733201
 30
0.0
 10
22.38319086639985
 20
9.412489496733201
 30
0.0
 10
22.38319086639985
 20
9.401200753187083
 30
0.0
 10
22.38319086639985
 20
9.401200753187083
 30
0.0
 10
22.38319086639985
 20
9.398731319509096
 30
0.0
 10
22.38283828240876
 20
9.39661446982231
 30
0.0
 10
22.38213042294578
 20
9.394497620135496
 30
0.0
 10
22.38213042294578
 20
9.394497620135496
 30
0.0
 10
22.37296054769717
 20
9.361689141470407
 30
0.0
 10
22.37296054769717
 20
9.361689141470407
 30
0.0
 10
22.37296054769717
 20
9.361689141470407
 30
0.0
 10
22.37331313168822
 20
9.336994804691414
 30
0.0
 10
22.37331313168822
 20
9.336994804691414
 30
0.0
 10
22.37331313168822
 20
9.325706061145325
 30
0.0
 10
22.36414056495874
 20
9.316534167285993
 30
0.0
 10
22.35285249428286
 20
9.316534167285993
 30
0.0
  0
SPLINE
  5
373
330
1F
100
AcDbEntity
  8
Livello 1
100
AcDbSpline
210
0.0
220
0.0
230
1.0
 70
     9
 71
     3
 72
    77
 73
    73
 74
     0
 42
0.000000001
 43
0.0000000001
 40
0.0
 40
0.0
 40
0.0
 40
0.0
 40
1.0
 40
1.0
 40
1.0
 40
2.0
 40
2.0
 40
2.0
 40
3.0
 40
3.0
 40
3.0
 40
4.0
 40
4.0
 40
4.0
 40
5.0
 40
5.0
 40
5.0
 40
6.0
 40
6.0
 40
6.0
 40
7.0
 40
7.0
 40
7.0
 40
8.0
 40
8.0
 40
8.0
 40
9.0
 40
9.0
 40
9.0
 40
10.0
 40
10.0
 40
10.0
 40
11.0
 40
11.0
 40
11.0
 40
12.0
 40
12.0
 40
12.0
 40
13.0
 40
13.0
 40
13.0
 40
14.0
 40
14.0
 40
14.0
 40
15.0
 40
15.0
 40
15.0
 40
16.0
 40
16.0
 40
16.0
 40
17.0
 40
17.0
 40
17.0
 40
18.0
 40
18.0
 40
18.0
 40
19.0
 40
19.0
 40
19.0
 40
20.0
 40
20.0
 40
20.0
 40
21.0
 40
21.0
 40
21.0
 40
22.0
 40
22.0
 40
22.0
 40
23.0
 40
23.0
 40
23.0
 40
24.0
 40
24.0
 40
24.0
 40
24.0
 10
22.28395327605871
 20
10.82726909588709
 30
0.0
 10
22.27266251390198
 20
10.82726909588709
 30
0.0
 10
22.2634899471725
 20
10.83644098974639
 30
0.0
 10
22.2634899471725
 20
10.84772973329251
 30
0.0
 10
22.2634899471725
 20
10.84772973329251
 30
0.0
 10
22.2634899471725
 20
11.0103597720431
 30
0.0
 10
22.2634899471725
 20
11.0103597720431
 30
0.0
 10
22.2634899471725
 20
11.0103597720431
 30
0.0
 10
22.2733676818841
 20
11.3306823279288
 30
0.0
 10
22.2733676818841
 20
11.3306823279288
 30
0.0
 10
22.2733676818841
 20
11.3306823279288
 30
0.0
 10
22.2733676818841
 20
11.6054959798987
 30
0.0
 10
22.2733676818841
 20
11.6054959798987
 30
0.0
 10
22.2733676818841
 20
11.6054959798987
 30
0.0
 10
22.2585510798167
 20
11.7261456461249
 30
0.0
 10
22.2585510798167
 20
11.7261456461249
 30
0.0
 10
22.2585510798167
 20
11.7261456461249
 30
0.0
 10
22.23456191101979
 20
11.81716345395671
 30
0.0
 10
22.23456191101979
 20
11.81716345395671
 30
0.0
 10
22.23456191101979
 20
11.81716345395671
 30
0.0
 10
22.1879966008711
 20
11.89935993330971
 30
0.0
 10
22.1879966008711
 20
11.89935993330971
 30
0.0
 10
22.1879966008711
 20
11.89935993330971
 30
0.0
 10
22.14636746659739
 20
11.94028255386081
 30
0.0
 10
22.14636746659739
 20
11.94028255386081
 30
0.0
 10
22.14636746659739
 20
11.94028255386081
 30
0.0
 10
22.08286735895403
 20
11.9759123773247
 30
0.0
 10
22.08286735895403
 20
11.9759123773247
 30
0.0
 10
22.08286735895403
 20
11.9759123773247
 30
0.0
 10
22.02889240203122
 20
11.98896605943679
 30
0.0
 10
22.02889240203122
 20
11.98896605943679
 30
0.0
 10
22.0179569153464
 20
11.9910829091236
 30
0.0
 10
22.01054996005312
 20
12.00201839580842
 30
0.0
 10
22.01266546399953
 20
12.01330781222472
 30
0.0
 10
22.01513624341785
 20
12.02424329890951
 30
0.0
 10
22.02607173010268
 20
12.0309464319611
 30
0.0
 10
22.0370072167875
 20
12.02918216626543
 30
0.0
 10
22.0370072167875
 20
12.02918216626543
 30
0.0
 10
22.09697879303932
 20
12.0143655641979
 30
0.0
 10
22.09697879303932
 20
12.0143655641979
 30
0.0
 10
22.09697879303932
 20
12.0143655641979
 30
0.0
 10
22.14037084726838
 20
11.9928458290789
 30
0.0
 10
22.14037084726838
 20
11.9928458290789
 30
0.0
 10
22.14037084726838
 20
11.9928458290789
 30
0.0
 10
22.17247483082154
 20
11.97203260768251
 30
0.0
 10
22.17247483082154
 20
11.97203260768251
 30
0.0
 10
22.17247483082154
 20
11.97203260768251
 30
0.0
 10
22.21974530895237
 20
11.92511336780231
 30
0.0
 10
22.21974530895237
 20
11.92511336780231
 30
0.0
 10
22.21974530895237
 20
11.92511336780231
 30
0.0
 10
22.23209382308231
 20
11.90712081833442
 30
0.0
 10
22.23209382308231
 20
11.90712081833442
 30
0.0
 10
22.23209382308231
 20
11.90712081833442
 30
0.0
 10
22.27266251390198
 20
11.8312735423016
 30
0.0
 10
22.27266251390198
 20
11.8312735423016
 30
0.0
 10
22.27266251390198
 20
11.8312735423016
 30
0.0
 10
22.29912246211721
 20
11.73355394715858
 30
0.0
 10
22.29912246211721
 20
11.73355394715858
 30
0.0
 10
22.29912246211721
 20
11.73355394715858
 30
0.0
 10
22.31429164817568
 20
11.60796541357661
 30
0.0
 10
22.31429164817568
 20
11.60796541357661
 30
0.0
 10
22.31429164817568
 20
11.60796541357661
 30
0.0
 10
22.31429164817568
 20
11.32997715994671
 30
0.0
 10
22.31429164817568
 20
11.32997715994671
 30
0.0
 10
22.31429164817568
 20
11.32997715994671
 30
0.0
 10
22.30441391346408
 20
11.0096546040609
 30
0.0
 10
22.30441391346408
 20
11.0096546040609
 30
0.0
 10
22.30441391346408
 20
11.0096546040609
 30
0.0
 10
22.30441391346408
 20
10.84772973329251
 30
0.0
 10
22.30441391346408
 20
10.84772973329251
 30
0.0
 10
22.30441391346408
 20
10.83644098974639
 30
0.0
 10
22.2952413467346
 20
10.82726909588709
 30
0.0
 10
22.28395327605871
 20
10.82726909588709
 30
0.0
  0
SPLINE
  5
374
330
1F
100
AcDbEntity
  8
Livello 1
100
AcDbSpline
210
0.0
220
0.0
230
1.0
 70
     9
 71
     3
 72
   131
 73
   127
 74
     0
 42
0.000000001
 43
0.0000000001
 40
0.0
 40
0.0
 40
0.0
 40
0.0
 40
1.0
 40
1.0
 40
1.0
 40
2.0
 40
2.0
 40
2.0
 40
3.0
 40
3.0
 40
3.0
 40
4.0
 40
4.0
 40
4.0
 40
5.0
 40
5.0
 40
5.0
 40
6.0
 40
6.0
 40
6.0
 40
7.0
 40
7.0
 40
7.0
 40
8.0
 40
8.0
 40
8.0
 40
9.0
 40
9.0
 40
9.0
 40
10.0
 40
10.0
 40
10.0
 40
11.0
 40
11.0
 40
11.0
 40
12.0
 40
12.0
 40
12.0
 40
13.0
 40
13.0
 40
13.0
 40
14.0
 40
14.0
 40
14.0
 40
15.0
 40
15.0
 40
15.0
 40
16.0
 40
16.0
 40
16.0
 40
17.0
 40
17.0
 40
17.0
 40
18.0
 40
18.0
 40
18.0
 40
19.0
 40
19.0
 40
19.0
 40
20.0
 40
20.0
 40
20.0
 40
21.0
 40
21.0
 40
21.0
 40
22.0
 40
22.0
 40
22.0
 40
23.0
 40
23.0
 40
23.0
 40
24.0
 40
24.0
 40
24.0
 40
25.0
 40
25.0
 40
25.0
 40
26.0
 40
26.0
 40
26.0
 40
27.0
 40
27.0
 40
27.0
 40
28.0
 40
28.0
 40
28.0
 40
29.0
 40
29.0
 40
29.0
 40
30.0
 40
30.0
 40
30.0
 40
31.0
 40
31.0
 40
31.0
 40
32.0
 40
32.0
 40
32.0
 40
33.0
 40
33.0
 40
33.0
 40
34.0
 40
34.0
 40
34.0
 40
35.0
 40
35.0
 40
35.0
 40
36.0
 40
36.0
 40
36.0
 40
37.0
 40
37.0
 40
37.0
 40
38.0
 40
38.0
 40
38.0
 40
39.0
 40
39.0
 40
39.0
 40
40.0
 40
40.0
 40
40.0
 40
41.0
 40
41.0
 40
41.0
 40
42.0
 40
42.0
 40
42.0
 40
42.0
 10
21.71795638560233
 20
10.82726909588709
 30
0.0
 10
21.7066656234456
 20
10.82726909588709
 30
0.0
 10
21.69749305671611
 20
10.83644098974639
 30
0.0
 10
21.69749305671611
 20
10.84772973329251
 30
0.0
 10
21.69749305671611
 20
10.84772973329251
 30
0.0
 10
21.69749305671611
 20
11.0103597720431
 30
0.0
 10
21.69749305671611
 20
11.0103597720431
 30
0.0
 10
21.69749305671611
 20
11.0103597720431
 30
0.0
 10
21.68761532200452
 20
11.5663376250433
 30
0.0
 10
21.68761532200452
 20
11.5663376250433
 30
0.0
 10
21.68761532200452
 20
11.5663376250433
 30
0.0
 10
21.69749305671611
 20
11.65206263578778
 30
0.0
 10
21.69749305671611
 20
11.65206263578778
 30
0.0
 10
21.69749305671611
 20
11.65206263578778
 30
0.0
 10
21.69749305671611
 20
11.6891041409564
 30
0.0
 10
21.69749305671611
 20
11.6891041409564
 30
0.0
 10
21.69749305671611
 20
11.6891041409564
 30
0.0
 10
21.70772337541881
 20
11.73355394715858
 30
0.0
 10
21.70772337541881
 20
11.73355394715858
 30
0.0
 10
21.70772337541881
 20
11.73355394715858
 30
0.0
 10
21.71230965878355
 20
11.7705967980676
 30
0.0
 10
21.71230965878355
 20
11.7705967980676
 30
0.0
 10
21.71266224277462
 20
11.7723597180229
 30
0.0
 10
21.71301482676568
 20
11.77447656770979
 30
0.0
 10
21.71407527021974
 20
11.77624083340549
 30
0.0
 10
21.71407527021974
 20
11.77624083340549
 30
0.0
 10
21.7285392882961
 20
11.81046032090509
 30
0.0
 10
21.7285392882961
 20
11.81046032090509
 30
0.0
 10
21.7285392882961
 20
11.81046032090509
 30
0.0
 10
21.73241771219784
 20
11.82704118866829
 30
0.0
 10
21.73241771219784
 20
11.82704118866829
 30
0.0
 10
21.73241771219784
 20
11.82704118866829
 30
0.0
 10
21.74406105834565
 20
11.85102901172479
 30
0.0
 10
21.74406105834565
 20
11.85102901172479
 30
0.0
 10
21.74406105834565
 20
11.85102901172479
 30
0.0
 10
21.74723431426526
 20
11.86655212751481
 30
0.0
 10
21.74723431426526
 20
11.86655212751481
 30
0.0
 10
21.74794217372824
 20
11.86866897720159
 30
0.0
 10
21.74899992570145
 20
11.870784481148
 30
0.0
 10
21.75005767767467
 20
11.8729013308349
 30
0.0
 10
21.75005767767467
 20
11.8729013308349
 30
0.0
 10
21.75993541238629
 20
11.88771793290229
 30
0.0
 10
21.75993541238629
 20
11.88771793290229
 30
0.0
 10
21.75993541238629
 20
11.88771793290229
 30
0.0
 10
21.76840281113361
 20
11.9050039686476
 30
0.0
 10
21.76840281113361
 20
11.9050039686476
 30
0.0
 10
21.76946056310682
 20
11.90712081833442
 30
0.0
 10
21.7708708990711
 20
11.9088850840302
 30
0.0
 10
21.77228392651622
 20
11.9102967657349
 30
0.0
 10
21.77228392651622
 20
11.9102967657349
 30
0.0
 10
21.78710052858365
 20
11.92511336780231
 30
0.0
 10
21.78710052858365
 20
11.92511336780231
 30
0.0
 10
21.78710052858365
 20
11.92511336780231
 30
0.0
 10
21.79450748387692
 20
11.9367540224693
 30
0.0
 10
21.79450748387692
 20
11.9367540224693
 30
0.0
 10
21.79450748387692
 20
11.9367540224693
 30
0.0
 10
21.82661146743009
 20
11.9695631740046
 30
0.0
 10
21.82661146743009
 20
11.9695631740046
 30
0.0
 10
21.82661146743009
 20
11.9695631740046
 30
0.0
 10
21.84424874142607
 20
11.98191034239409
 30
0.0
 10
21.84424874142607
 20
11.98191034239409
 30
0.0
 10
21.84424874142607
 20
11.98191034239409
 30
0.0
 10
21.90069447776721
 20
12.0126012985022
 30
0.0
 10
21.90069447776721
 20
12.0126012985022
 30
0.0
 10
21.90069447776721
 20
12.0126012985022
 30
0.0
 10
21.9638420014195
 20
12.02918216626543
 30
0.0
 10
21.9638420014195
 20
12.02918216626543
 30
0.0
 10
21.97513007209539
 20
12.0316515999433
 30
0.0
 10
21.98606555878022
 20
12.02494846689171
 30
0.0
 10
21.9888889221896
 20
12.01401298020693
 30
0.0
 10
21.99170959411816
 20
12.0030761477816
 30
0.0
 10
21.985007806807
 20
11.99214066109681
 30
0.0
 10
21.97407232012218
 20
11.98931864342779
 30
0.0
 10
21.97407232012218
 20
11.98931864342779
 30
0.0
 10
21.9148059118525
 20
11.97450204136041
 30
0.0
 10
21.9148059118525
 20
11.97450204136041
 30
0.0
 10
21.9148059118525
 20
11.97450204136041
 30
0.0
 10
21.85236355618233
 20
11.93781312018291
 30
0.0
 10
21.85236355618233
 20
11.93781312018291
 30
0.0
 10
21.85236355618233
 20
11.93781312018291
 30
0.0
 10
21.82590629944797
 20
11.91100193371702
 30
0.0
 10
21.82590629944797
 20
11.91100193371702
 30
0.0
 10
21.82590629944797
 20
11.91100193371702
 30
0.0
 10
21.8188492366649
 20
11.89935993330971
 30
0.0
 10
21.8188492366649
 20
11.89935993330971
 30
0.0
 10
21.8188492366649
 20
11.89935993330971
 30
0.0
 10
21.8036800506064
 20
11.88383816326009
 30
0.0
 10
21.8036800506064
 20
11.88383816326009
 30
0.0
 10
21.8036800506064
 20
11.88383816326009
 30
0.0
 10
21.78639266912065
 20
11.8531458614116
 30
0.0
 10
21.78639266912065
 20
11.8531458614116
 30
0.0
 10
21.78639266912065
 20
11.8531458614116
 30
0.0
 10
21.78216166122783
 20
11.83691892337989
 30
0.0
 10
21.78216166122783
 20
11.83691892337989
 30
0.0
 10
21.78216166122783
 20
11.83691892337989
 30
0.0
 10
21.7708708990711
 20
11.81292975458299
 30
0.0
 10
21.7708708990711
 20
11.81292975458299
 30
0.0
 10
21.7708708990711
 20
11.81292975458299
 30
0.0
 10
21.76734505916042
 20
11.79740798453352
 30
0.0
 10
21.76734505916042
 20
11.79740798453352
 30
0.0
 10
21.76734505916042
 20
11.79740798453352
 30
0.0
 10
21.75288104108406
 20
11.76248198331129
 30
0.0
 10
21.75288104108406
 20
11.76248198331129
 30
0.0
 10
21.75288104108406
 20
11.76248198331129
 30
0.0
 10
21.74829475771932
 20
11.7261456461249
 30
0.0
 10
21.74829475771932
 20
11.7261456461249
 30
0.0
 10
21.74829475771932
 20
11.7261456461249
 30
0.0
 10
21.73806443901663
 20
11.68416527360051
 30
0.0
 10
21.73806443901663
 20
11.68416527360051
 30
0.0
 10
21.73806443901663
 20
11.68416527360051
 30
0.0
 10
21.73841702300771
 20
11.649945786101
 30
0.0
 10
21.73841702300771
 20
11.649945786101
 30
0.0
 10
21.73841702300771
 20
11.649945786101
 30
0.0
 10
21.7285392882961
 20
11.56386819136543
 30
0.0
 10
21.7285392882961
 20
11.56386819136543
 30
0.0
 10
21.7285392882961
 20
11.56386819136543
 30
0.0
 10
21.72889187228716
 20
11.32997715994671
 30
0.0
 10
21.72889187228716
 20
11.32997715994671
 30
0.0
 10
21.72889187228716
 20
11.32997715994671
 30
0.0
 10
21.73841702300771
 20
11.0107123560341
 30
0.0
 10
21.73841702300771
 20
11.0107123560341
 30
0.0
 10
21.73841702300771
 20
11.0107123560341
 30
0.0
 10
21.73841702300771
 20
10.84772973329251
 30
0.0
 10
21.73841702300771
 20
10.84772973329251
 30
0.0
 10
21.73841702300771
 20
10.83644098974639
 30
0.0
 10
21.72924445627822
 20
10.82726909588709
 30
0.0
 10
21.71795638560233
 20
10.82726909588709
 30
0.0
  0
SPLINE
  5
375
330
1F
100
AcDbEntity
  8
Livello 1
100
AcDbSpline
210
0.0
220
0.0
230
1.0
 70
     9
 71
     3
 72
   218
 73
   214
 74
     0
 42
0.000000001
 43
0.0000000001
 40
0.0
 40
0.0
 40
0.0
 40
0.0
 40
1.0
 40
1.0
 40
1.0
 40
2.0
 40
2.0
 40
2.0
 40
3.0
 40
3.0
 40
3.0
 40
4.0
 40
4.0
 40
4.0
 40
5.0
 40
5.0
 40
5.0
 40
6.0
 40
6.0
 40
6.0
 40
7.0
 40
7.0
 40
7.0
 40
8.0
 40
8.0
 40
8.0
 40
9.0
 40
9.0
 40
9.0
 40
10.0
 40
10.0
 40
10.0
 40
11.0
 40
11.0
 40
11.0
 40
12.0
 40
12.0
 40
12.0
 40
13.0
 40
13.0
 40
13.0
 40
14.0
 40
14.0
 40
14.0
 40
15.0
 40
15.0
 40
15.0
 40
16.0
 40
16.0
 40
16.0
 40
17.0
 40
17.0
 40
17.0
 40
18.0
 40
18.0
 40
18.0
 40
19.0
 40
19.0
 40
19.0
 40
20.0
 40
20.0
 40
20.0
 40
21.0
 40
21.0
 40
21.0
 40
22.0
 40
22.0
 40
22.0
 40
23.0
 40
23.0
 40
23.0
 40
24.0
 40
24.0
 40
24.0
 40
25.0
 40
25.0
 40
25.0
 40
26.0
 40
26.0
 40
26.0
 40
27.0
 40
27.0
 40
27.0
 40
28.0
 40
28.0
 40
28.0
 40
29.0
 40
29.0
 40
29.0
 40
30.0
 40
30.0
 40
30.0
 40
31.0
 40
31.0
 40
31.0
 40
32.0
 40
32.0
 40
32.0
 40
33.0
 40
33.0
 40
33.0
 40
34.0
 40
34.0
 40
34.0
 40
35.0
 40
35.0
 40
35.0
 40
36.0
 40
36.0
 40
36.0
 40
37.0
 40
37.0
 40
37.0
 40
38.0
 40
38.0
 40
38.0
 40
39.0
 40
39.0
 40
39.0
 40
40.0
 40
40.0
 40
40.0
 40
41.0
 40
41.0
 40
41.0
 40
42.0
 40
42.0
 40
42.0
 40
43.0
 40
43.0
 40
43.0
 40
44.0
 40
44.0
 40
44.0
 40
45.0
 40
45.0
 40
45.0
 40
46.0
 40
46.0
 40
46.0
 40
47.0
 40
47.0
 40
47.0
 40
48.0
 40
48.0
 40
48.0
 40
49.0
 40
49.0
 40
49.0
 40
50.0
 40
50.0
 40
50.0
 40
51.0
 40
51.0
 40
51.0
 40
52.0
 40
52.0
 40
52.0
 40
53.0
 40
53.0
 40
53.0
 40
54.0
 40
54.0
 40
54.0
 40
55.0
 40
55.0
 40
55.0
 40
56.0
 40
56.0
 40
56.0
 40
57.0
 40
57.0
 40
57.0
 40
58.0
 40
58.0
 40
58.0
 40
59.0
 40
59.0
 40
59.0
 40
60.0
 40
60.0
 40
60.0
 40
61.0
 40
61.0
 40
61.0
 40
62.0
 40
62.0
 40
62.0
 40
63.0
 40
63.0
 40
63.0
 40
64.0
 40
64.0
 40
64.0
 40
65.0
 40
65.0
 40
65.0
 40
66.0
 40
66.0
 40
66.0
 40
67.0
 40
67.0
 40
67.0
 40
68.0
 40
68.0
 40
68.0
 40
69.0
 40
69.0
 40
69.0
 40
70.0
 40
70.0
 40
70.0
 40
71.0
 40
71.0
 40
71.0
 40
71.0
 10
22.2592939285307
 20
10.82726909588709
 30
0.0
 10
22.24800316637396
 20
10.82726909588709
 30
0.0
 10
22.23883059964448
 20
10.83644098974639
 30
0.0
 10
22.23883059964448
 20
10.84772973329251
 30
0.0
 10
22.23883059964448
 20
10.84772973329251
 30
0.0
 10
22.23883059964448
 20
10.93133789435009
 30
0.0
 10
22.23883059964448
 20
10.93133789435009
 30
0.0
 10
22.23883059964448
 20
10.93133789435009
 30
0.0
 10
22.24376946700029
 20
11.01141886975671
 30
0.0
 10
22.24376946700029
 20
11.01141886975671
 30
0.0
 10
22.24376946700029
 20
11.01141886975671
 30
0.0
 10
22.25858606906771
 20
11.41993452432441
 30
0.0
 10
22.25858606906771
 20
11.41993452432441
 30
0.0
 10
22.25858606906771
 20
11.41993452432441
 30
0.0
 10
22.25858606906771
 20
11.58115422711071
 30
0.0
 10
22.25858606906771
 20
11.58115422711071
 30
0.0
 10
22.25858606906771
 20
11.58115422711071
 30
0.0
 10
22.2536472017119
 20
11.61784314828821
 30
0.0
 10
22.2536472017119
 20
11.61784314828821
 30
0.0
 10
22.2536472017119
 20
11.61784314828821
 30
0.0
 10
22.2536472017119
 20
11.65982352081261
 30
0.0
 10
22.2536472017119
 20
11.65982352081261
 30
0.0
 10
22.2536472017119
 20
11.65982352081261
 30
0.0
 10
22.24376946700029
 20
11.74096224819229
 30
0.0
 10
22.24376946700029
 20
11.74096224819229
 30
0.0
 10
22.24376946700029
 20
11.74096224819229
 30
0.0
 10
22.22965803291501
 20
11.79740798453352
 30
0.0
 10
22.22965803291501
 20
11.79740798453352
 30
0.0
 10
22.22965803291501
 20
11.79740798453352
 30
0.0
 10
22.22119332564851
 20
11.81292975458299
 30
0.0
 10
22.22119332564851
 20
11.81292975458299
 30
0.0
 10
22.22119332564851
 20
11.81292975458299
 30
0.0
 10
22.21590187430164
 20
11.8330378079973
 30
0.0
 10
22.21590187430164
 20
11.8330378079973
 30
0.0
 10
22.21590187430164
 20
11.8330378079973
 30
0.0
 10
22.20778705954535
 20
11.84538497638692
 30
0.0
 10
22.20778705954535
 20
11.84538497638692
 30
0.0
 10
22.20637672358108
 20
11.84714924208259
 30
0.0
 10
22.20567155559896
 20
11.84926609176952
 30
0.0
 10
22.20496369613597
 20
11.85173552544742
 30
0.0
 10
22.20496369613597
 20
11.85173552544742
 30
0.0
 10
22.20108527223422
 20
11.8672572954969
 30
0.0
 10
22.20108527223422
 20
11.8672572954969
 30
0.0
 10
22.20108527223422
 20
11.8672572954969
 30
0.0
 10
22.17815385541053
 20
11.89935993330971
 30
0.0
 10
22.17815385541053
 20
11.89935993330971
 30
0.0
 10
22.17815385541053
 20
11.89935993330971
 30
0.0
 10
22.16615792527164
 20
11.91100193371702
 30
0.0
 10
22.16615792527164
 20
11.91100193371702
 30
0.0
 10
22.16615792527164
 20
11.91100193371702
 30
0.0
 10
22.15592760656895
 20
11.92581853578448
 30
0.0
 10
22.15592760656895
 20
11.92581853578448
 30
0.0
 10
22.15592760656895
 20
11.92581853578448
 30
0.0
 10
22.11006746440241
 20
11.9575685896061
 30
0.0
 10
22.11006746440241
 20
11.9575685896061
 30
0.0
 10
22.11006746440241
 20
11.9575685896061
 30
0.0
 10
22.07302461349345
 20
11.9759123773247
 30
0.0
 10
22.07302461349345
 20
11.9759123773247
 30
0.0
 10
22.07302461349345
 20
11.9759123773247
 30
0.0
 10
22.03774737402065
 20
11.98437977607202
 30
0.0
 10
22.03774737402065
 20
11.98437977607202
 30
0.0
 10
22.03774737402065
 20
11.98437977607202
 30
0.0
 10
21.96401694767461
 20
11.9836746080899
 30
0.0
 10
21.96401694767461
 20
11.9836746080899
 30
0.0
 10
21.96401694767461
 20
11.9836746080899
 30
0.0
 10
21.92803454021968
 20
11.9752072093425
 30
0.0
 10
21.92803454021968
 20
11.9752072093425
 30
0.0
 10
21.92803454021968
 20
11.9752072093425
 30
0.0
 10
21.91639388555271
 20
11.96744632431782
 30
0.0
 10
21.91639388555271
 20
11.96744632431782
 30
0.0
 10
21.91639388555271
 20
11.96744632431782
 30
0.0
 10
21.86241892862992
 20
11.93781312018291
 30
0.0
 10
21.86241892862992
 20
11.93781312018291
 30
0.0
 10
21.86241892862992
 20
11.93781312018291
 30
0.0
 10
21.82114237834726
 20
11.8961853316496
 30
0.0
 10
21.82114237834726
 20
11.8961853316496
 30
0.0
 10
21.82114237834726
 20
11.8961853316496
 30
0.0
 10
21.78551255488342
 20
11.82774635665052
 30
0.0
 10
21.78551255488342
 20
11.82774635665052
 30
0.0
 10
21.78551255488342
 20
11.82774635665052
 30
0.0
 10
21.77245887277134
 20
11.7780050991013
 30
0.0
 10
21.77245887277134
 20
11.7780050991013
 30
0.0
 10
21.77245887277134
 20
11.7780050991013
 30
0.0
 10
21.76258113805972
 20
11.73849281451441
 30
0.0
 10
21.76258113805972
 20
11.73849281451441
 30
0.0
 10
21.76258113805972
 20
11.73849281451441
 30
0.0
 10
21.74811711998336
 20
11.61784314828821
 30
0.0
 10
21.74811711998336
 20
11.61784314828821
 30
0.0
 10
21.74811711998336
 20
11.61784314828821
 30
0.0
 10
21.74846970397443
 20
11.33491602730251
 30
0.0
 10
21.74846970397443
 20
11.33491602730251
 30
0.0
 10
21.74846970397443
 20
11.33491602730251
 30
0.0
 10
21.75834743868604
 20
11.17369632451621
 30
0.0
 10
21.75834743868604
 20
11.17369632451621
 30
0.0
 10
21.75834743868604
 20
11.17369632451621
 30
0.0
 10
21.76328630604185
 20
10.84772973329251
 30
0.0
 10
21.76328630604185
 20
10.84772973329251
 30
0.0
 10
21.76328630604185
 20
10.83644098974639
 30
0.0
 10
21.75411373931238
 20
10.82726909588709
 30
0.0
 10
21.74247308464542
 20
10.82726909588709
 30
0.0
 10
21.73118501396952
 20
10.82726909588709
 30
0.0
 10
21.72201244724005
 20
10.83644098974639
 30
0.0
 10
21.72201244724005
 20
10.84772973329251
 30
0.0
 10
21.72201244724005
 20
10.84772973329251
 30
0.0
 10
21.72201244724005
 20
11.0103597720431
 30
0.0
 10
21.72201244724005
 20
11.0103597720431
 30
0.0
 10
21.72201244724005
 20
11.0103597720431
 30
0.0
 10
21.71707357988425
 20
11.1719320588204
 30
0.0
 10
21.71707357988425
 20
11.1719320588204
 30
0.0
 10
21.71707357988425
 20
11.1719320588204
 30
0.0
 10
21.70719584517263
 20
11.3338569295889
 30
0.0
 10
21.70719584517263
 20
11.3338569295889
 30
0.0
 10
21.70719584517263
 20
11.3338569295889
 30
0.0
 10
21.70719584517263
 20
11.62031258196609
 30
0.0
 10
21.70719584517263
 20
11.62031258196609
 30
0.0
 10
21.70719584517263
 20
11.62031258196609
 30
0.0
 10
21.72236503123114
 20
11.74554853155712
 30
0.0
 10
21.72236503123114
 20
11.74554853155712
 30
0.0
 10
21.72236503123114
 20
11.74554853155712
 30
0.0
 10
21.74776453599229
 20
11.84362071069108
 30
0.0
 10
21.74776453599229
 20
11.84362071069108
 30
0.0
 10
21.74776453599229
 20
11.84362071069108
 30
0.0
 10
21.77845549210035
 20
11.9050039686476
 30
0.0
 10
21.77845549210035
 20
11.9050039686476
 30
0.0
 10
21.77845549210035
 20
11.9050039686476
 30
0.0
 10
21.78939367026601
 20
11.92193742040192
 30
0.0
 10
21.78939367026601
 20
11.92193742040192
 30
0.0
 10
21.78939367026601
 20
11.92193742040192
 30
0.0
 10
21.83631156440576
 20
11.9695631740046
 30
0.0
 10
21.83631156440576
 20
11.9695631740046
 30
0.0
 10
21.83631156440576
 20
11.9695631740046
 30
0.0
 10
21.85430411387364
 20
11.98191034239409
 30
0.0
 10
21.85430411387364
 20
11.98191034239409
 30
0.0
 10
21.85430411387364
 20
11.98191034239409
 30
0.0
 10
21.90827907079646
 20
12.01154354652902
 30
0.0
 10
21.90827907079646
 20
12.01154354652902
 30
0.0
 10
21.91039457474287
 20
12.0126012985022
 30
0.0
 10
21.91251277017013
 20
12.01366039621581
 30
0.0
 10
21.91462827411653
 20
12.0143655641979
 30
0.0
 10
21.91462827411653
 20
12.0143655641979
 30
0.0
 10
21.96013583229201
 20
12.02424329890951
 30
0.0
 10
21.96013583229201
 20
12.02424329890951
 30
0.0
 10
21.96013583229201
 20
12.02424329890951
 30
0.0
 10
22.04268624137645
 20
12.02494846689171
 30
0.0
 10
22.04268624137645
 20
12.02494846689171
 30
0.0
 10
22.04268624137645
 20
12.02494846689171
 30
0.0
 10
22.08713604757873
 20
12.0143655641979
 30
0.0
 10
22.08713604757873
 20
12.0143655641979
 30
0.0
 10
22.08713604757873
 20
12.0143655641979
 30
0.0
 10
22.13088068579885
 20
11.9928458290789
 30
0.0
 10
22.13088068579885
 20
11.9928458290789
 30
0.0
 10
22.13088068579885
 20
11.9928458290789
 30
0.0
 10
22.18309272276632
 20
11.956863421624
 30
0.0
 10
22.18309272276632
 20
11.956863421624
 30
0.0
 10
22.18485564272168
 20
11.95509915592822
 30
0.0
 10
22.18662125415786
 20
11.95368747422361
 30
0.0
 10
22.18767900613106
 20
11.95157062453671
 30
0.0
 10
22.18767900613106
 20
11.95157062453671
 30
0.0
 10
22.19755674084267
 20
11.9367540224693
 30
0.0
 10
22.19755674084267
 20
11.9367540224693
 30
0.0
 10
22.19755674084267
 20
11.9367540224693
 30
0.0
 10
22.20990256349178
 20
11.92511336780231
 30
0.0
 10
22.20990256349178
 20
11.92511336780231
 30
0.0
 10
22.20990256349178
 20
11.92511336780231
 30
0.0
 10
22.236362511707
 20
11.88842444662481
 30
0.0
 10
22.236362511707
 20
11.88842444662481
 30
0.0
 10
22.23812543166235
 20
11.88630759693802
 30
0.0
 10
22.23918318363555
 20
11.88383816326009
 30
0.0
 10
22.23989104309853
 20
11.88136872958219
 30
0.0
 10
22.23989104309853
 20
11.88136872958219
 30
0.0
 10
22.24376946700029
 20
11.86514044581008
 30
0.0
 10
22.24376946700029
 20
11.86514044581008
 30
0.0
 10
22.24376946700029
 20
11.86514044581008
 30
0.0
 10
22.25188428175656
 20
11.8531458614116
 30
0.0
 10
22.25188428175656
 20
11.8531458614116
 30
0.0
 10
22.25294203372976
 20
11.85102901172479
 30
0.0
 10
22.25399978570298
 20
11.84926609176952
 30
0.0
 10
22.25470764516596
 20
11.84679665809162
 30
0.0
 10
22.25470764516596
 20
11.84679665809162
 30
0.0
 10
22.25964651252176
 20
11.8273937726594
 30
0.0
 10
22.25964651252176
 20
11.8273937726594
 30
0.0
 10
22.25964651252176
 20
11.8273937726594
 30
0.0
 10
22.26775863579719
 20
11.8115180728783
 30
0.0
 10
22.26775863579719
 20
11.8115180728783
 30
0.0
 10
22.26775863579719
 20
11.8115180728783
 30
0.0
 10
22.28434084930081
 20
11.74837189496651
 30
0.0
 10
22.28434084930081
 20
11.74837189496651
 30
0.0
 10
22.28434084930081
 20
11.74837189496651
 30
0.0
 10
22.29457116800349
 20
11.66194037049939
 30
0.0
 10
22.29457116800349
 20
11.66194037049939
 30
0.0
 10
22.29457116800349
 20
11.66194037049939
 30
0.0
 10
22.29457116800349
 20
11.62031258196609
 30
0.0
 10
22.29457116800349
 20
11.62031258196609
 30
0.0
 10
22.29457116800349
 20
11.62031258196609
 30
0.0
 10
22.29951003535928
 20
11.58362366078859
 30
0.0
 10
22.29951003535928
 20
11.58362366078859
 30
0.0
 10
22.29951003535928
 20
11.58362366078859
 30
0.0
 10
22.29951003535928
 20
11.41852418836009
 30
0.0
 10
22.29951003535928
 20
11.41852418836009
 30
0.0
 10
22.29951003535928
 20
11.41852418836009
 30
0.0
 10
22.29457116800349
 20
11.3338569295889
 30
0.0
 10
22.29457116800349
 20
11.3338569295889
 30
0.0
 10
22.29457116800349
 20
11.3338569295889
 30
0.0
 10
22.28469343329188
 20
11.0096546040609
 30
0.0
 10
22.28469343329188
 20
11.0096546040609
 30
0.0
 10
22.28469343329188
 20
11.0096546040609
 30
0.0
 10
22.27975456593606
 20
10.93028014237691
 30
0.0
 10
22.27975456593606
 20
10.93028014237691
 30
0.0
 10
22.27975456593606
 20
10.93028014237691
 30
0.0
 10
22.27975456593606
 20
10.84772973329251
 30
0.0
 10
22.27975456593606
 20
10.84772973329251
 30
0.0
 10
22.27975456593606
 20
10.83644098974639
 30
0.0
 10
22.27058199920658
 20
10.82726909588709
 30
0.0
 10
22.2592939285307
 20
10.82726909588709
 30
0.0
  0
SPLINE
  5
376
330
1F
100
AcDbEntity
  8
Livello 1
100
AcDbSpline
210
0.0
220
0.0
230
1.0
 70
     9
 71
     3
 72
    41
 73
    37
 74
     0
 42
0.000000001
 43
0.0000000001
 40
0.0
 40
0.0
 40
0.0
 40
0.0
 40
1.0
 40
1.0
 40
1.0
 40
2.0
 40
2.0
 40
2.0
 40
3.0
 40
3.0
 40
3.0
 40
4.0
 40
4.0
 40
4.0
 40
5.0
 40
5.0
 40
5.0
 40
6.0
 40
6.0
 40
6.0
 40
7.0
 40
7.0
 40
7.0
 40
8.0
 40
8.0
 40
8.0
 40
9.0
 40
9.0
 40
9.0
 40
10.0
 40
10.0
 40
10.0
 40
11.0
 40
11.0
 40
11.0
 40
12.0
 40
12.0
 40
12.0
 40
12.0
 10
21.79676832778913
 20
9.252575162158109
 30
0.0
 10
21.79676832778913
 20
9.252575162158109
 30
0.0
 10
21.71315747525061
 20
9.252575162158109
 30
0.0
 10
21.71315747525061
 20
9.252575162158109
 30
0.0
 10
21.71315747525061
 20
9.252575162158109
 30
0.0
 10
21.55440855188265
 20
9.262452896869717
 30
0.0
 10
21.55440855188265
 20
9.262452896869717
 30
0.0
 10
21.55440855188265
 20
9.262452896869717
 30
0.0
 10
21.49267136419463
 20
9.273388383554504
 30
0.0
 10
21.49267136419463
 20
9.273388383554504
 30
0.0
 10
21.48879294029288
 20
9.271977374719995
 30
0.0
 10
21.4845592409192
 20
9.271977374719995
 30
0.0
 10
21.48032554154553
 20
9.273388383554504
 30
0.0
 10
21.48032554154553
 20
9.273388383554504
 30
0.0
 10
21.46550893947811
 20
9.278327923780494
 30
0.0
 10
21.46550893947811
 20
9.278327923780494
 30
0.0
 10
21.45527862077543
 20
9.2815025254406
 30
0.0
 10
21.44928200144641
 20
9.292438684995602
 30
0.0
 10
21.45210267337497
 20
9.302669003698298
 30
0.0
 10
21.45457345279329
 20
9.313252579262211
 30
0.0
 10
21.46480377149597
 20
9.319955712313799
 30
0.0
 10
21.47538667418973
 20
9.317838862626985
 30
0.0
 10
21.47538667418973
 20
9.317838862626985
 30
0.0
 10
21.55934741923845
 20
9.3030222605596
 30
0.0
 10
21.55934741923845
 20
9.3030222605596
 30
0.0
 10
21.55934741923845
 20
9.3030222605596
 30
0.0
 10
21.71457050269575
 20
9.293497109838995
 30
0.0
 10
21.71457050269575
 20
9.293497109838995
 30
0.0
 10
21.71457050269575
 20
9.293497109838995
 30
0.0
 10
21.79676832778913
 20
9.293849693830082
 30
0.0
 10
21.79676832778913
 20
9.293849693830082
 30
0.0
 10
21.80805639846501
 20
9.293849693830082
 30
0.0
 10
21.81722896519449
 20
9.284677799970808
 30
0.0
 10
21.81722896519449
 20
9.273035799563416
 30
0.0
 10
21.81722896519449
 20
9.261747056017298
 30
0.0
 10
21.80805639846501
 20
9.252575162158109
 30
0.0
 10
21.79676832778913
 20
9.252575162158109
 30
0.0
  0
SPLINE
  5
377
330
1F
100
AcDbEntity
  8
Livello 1
100
AcDbSpline
210
0.0
220
0.0
230
1.0
 70
     9
 71
     3
 72
    23
 73
    19
 74
     0
 42
0.000000001
 43
0.0000000001
 40
0.0
 40
0.0
 40
0.0
 40
0.0
 40
1.0
 40
1.0
 40
1.0
 40
2.0
 40
2.0
 40
2.0
 40
3.0
 40
3.0
 40
3.0
 40
4.0
 40
4.0
 40
4.0
 40
5.0
 40
5.0
 40
5.0
 40
6.0
 40
6.0
 40
6.0
 40
6.0
 10
22.80550036031281
 20
12.69716868622981
 30
0.0
 10
22.80550036031281
 20
12.69716868622981
 30
0.0
 10
21.19647927985028
 20
12.69716868622981
 30
0.0
 10
21.19647927985028
 20
12.69716868622981
 30
0.0
 10
21.18519120917438
 20
12.69716868622981
 30
0.0
 10
21.1760186424449
 20
12.70633990721882
 30
0.0
 10
21.1760186424449
 20
12.71762932363509
 30
0.0
 10
21.1760186424449
 20
12.72927132404248
 30
0.0
 10
21.18519120917438
 20
12.7384425450316
 30
0.0
 10
21.19647927985028
 20
12.7384425450316
 30
0.0
 10
21.19647927985028
 20
12.7384425450316
 30
0.0
 10
22.80550036031281
 20
12.7384425450316
 30
0.0
 10
22.80550036031281
 20
12.7384425450316
 30
0.0
 10
22.81678843098871
 20
12.7384425450316
 30
0.0
 10
22.82596099771818
 20
12.72927132404248
 30
0.0
 10
22.82596099771818
 20
12.71762932363509
 30
0.0
 10
22.82596099771818
 20
12.70633990721882
 30
0.0
 10
22.81678843098871
 20
12.69716868622981
 30
0.0
 10
22.80550036031281
 20
12.69716868622981
 30
0.0
  0
SPLINE
  5
378
330
1F
100
AcDbEntity
  8
Livello 1
100
AcDbSpline
210
0.0
220
0.0
230
1.0
 70
     9
 71
     3
 72
    32
 73
    28
 74
     0
 42
0.000000001
 43
0.0000000001
 40
0.0
 40
0.0
 40
0.0
 40
0.0
 40
1.0
 40
1.0
 40
1.0
 40
2.0
 40
2.0
 40
2.0
 40
3.0
 40
3.0
 40
3.0
 40
4.0
 40
4.0
 40
4.0
 40
5.0
 40
5.0
 40
5.0
 40
6.0
 40
6.0
 40
6.0
 40
7.0
 40
7.0
 40
7.0
 40
8.0
 40
8.0
 40
8.0
 40
9.0
 40
9.0
 40
9.0
 40
9.0
 10
22.80165423418124
 20
12.69716868622981
 30
0.0
 10
22.80165423418124
 20
12.69716868622981
 30
0.0
 10
22.80059379072719
 20
12.69716868622981
 30
0.0
 10
22.80059379072719
 20
12.69716868622981
 30
0.0
 10
22.80059379072719
 20
12.69716868622981
 30
0.0
 10
21.2063920038129
 20
12.69716868622981
 30
0.0
 10
21.2063920038129
 20
12.69716868622981
 30
0.0
 10
21.19475134914595
 20
12.69716868622981
 30
0.0
 10
21.18557878241648
 20
12.70633990721882
 30
0.0
 10
21.18557878241648
 20
12.71762932363509
 30
0.0
 10
21.18557878241648
 20
12.72927132404248
 30
0.0
 10
21.19475134914595
 20
12.7384425450316
 30
0.0
 10
21.2063920038129
 20
12.7384425450316
 30
0.0
 10
21.2063920038129
 20
12.7384425450316
 30
0.0
 10
22.80059379072719
 20
12.7384425450316
 30
0.0
 10
22.80059379072719
 20
12.7384425450316
 30
0.0
 10
22.80059379072719
 20
12.7384425450316
 30
0.0
 10
22.80129895870933
 20
12.7384425450316
 30
0.0
 10
22.80129895870933
 20
12.7384425450316
 30
0.0
 10
22.80129895870933
 20
12.7384425450316
 30
0.0
 10
22.80165423418124
 20
12.7384425450316
 30
0.0
 10
22.80165423418124
 20
12.7384425450316
 30
0.0
 10
22.81294230485714
 20
12.7384425450316
 30
0.0
 10
22.82211487158661
 20
12.72927132404248
 30
0.0
 10
22.82211487158661
 20
12.71762932363509
 30
0.0
 10
22.82211487158661
 20
12.70633990721882
 30
0.0
 10
22.81294230485714
 20
12.69716868622981
 30
0.0
 10
22.80165423418124
 20
12.69716868622981
 30
0.0
  0
SPLINE
  5
379
330
1F
100
AcDbEntity
  8
Livello 1
100
AcDbSpline
210
0.0
220
0.0
230
1.0
 70
     9
 71
     3
 72
    23
 73
    19
 74
     0
 42
0.000000001
 43
0.0000000001
 40
0.0
 40
0.0
 40
0.0
 40
0.0
 40
1.0
 40
1.0
 40
1.0
 40
2.0
 40
2.0
 40
2.0
 40
3.0
 40
3.0
 40
3.0
 40
4.0
 40
4.0
 40
4.0
 40
5.0
 40
5.0
 40
5.0
 40
6.0
 40
6.0
 40
6.0
 40
6.0
 10
23.23359653804867
 20
12.9531083287541
 30
0.0
 10
23.22230577589193
 20
12.9531083287541
 30
0.0
 10
23.21313320916246
 20
12.96227954974321
 30
0.0
 10
23.21313320916246
 20
12.97356896615949
 30
0.0
 10
23.21313320916246
 20
12.97356896615949
 30
0.0
 10
23.21313320916246
 20
13.6822991231987
 30
0.0
 10
23.21313320916246
 20
13.6822991231987
 30
0.0
 10
23.21313320916246
 20
13.693588539615
 30
0.0
 10
23.22230577589193
 20
13.70276110634452
 30
0.0
 10
23.23359653804867
 20
13.70276110634452
 30
0.0
 10
23.24488460872456
 20
13.70276110634452
 30
0.0
 10
23.25405717545404
 20
13.693588539615
 30
0.0
 10
23.25405717545404
 20
13.6822991231987
 30
0.0
 10
23.25405717545404
 20
13.6822991231987
 30
0.0
 10
23.25405717545404
 20
12.97356896615949
 30
0.0
 10
23.25405717545404
 20
12.97356896615949
 30
0.0
 10
23.25405717545404
 20
12.96227954974321
 30
0.0
 10
23.24488460872456
 20
12.9531083287541
 30
0.0
 10
23.23359653804867
 20
12.9531083287541
 30
0.0
  0
SPLINE
  5
37A
330
1F
100
AcDbEntity
  8
Livello 1
100
AcDbSpline
210
0.0
220
0.0
230
1.0
 70
     9
 71
     3
 72
    23
 73
    19
 74
     0
 42
0.000000001
 43
0.0000000001
 40
0.0
 40
0.0
 40
0.0
 40
0.0
 40
1.0
 40
1.0
 40
1.0
 40
2.0
 40
2.0
 40
2.0
 40
3.0
 40
3.0
 40
3.0
 40
4.0
 40
4.0
 40
4.0
 40
5.0
 40
5.0
 40
5.0
 40
6.0
 40
6.0
 40
6.0
 40
6.0
 10
23.22382377109013
 20
12.9531083287541
 30
0.0
 10
23.2125330089334
 20
12.9531083287541
 30
0.0
 10
23.20336044220391
 20
12.96227954974321
 30
0.0
 10
23.20336044220391
 20
12.97356896615949
 30
0.0
 10
23.20336044220391
 20
12.97356896615949
 30
0.0
 10
23.20336044220391
 20
13.6822991231987
 30
0.0
 10
23.20336044220391
 20
13.6822991231987
 30
0.0
 10
23.20336044220391
 20
13.693588539615
 30
0.0
 10
23.2125330089334
 20
13.70276110634452
 30
0.0
 10
23.22382377109013
 20
13.70276110634452
 30
0.0
 10
23.23511184176601
 20
13.70276110634452
 30
0.0
 10
23.2442844084955
 20
13.693588539615
 30
0.0
 10
23.2442844084955
 20
13.6822991231987
 30
0.0
 10
23.2442844084955
 20
13.6822991231987
 30
0.0
 10
23.2442844084955
 20
12.97356896615949
 30
0.0
 10
23.2442844084955
 20
12.97356896615949
 30
0.0
 10
23.2442844084955
 20
12.96227954974321
 30
0.0
 10
23.23511184176601
 20
12.9531083287541
 30
0.0
 10
23.22382377109013
 20
12.9531083287541
 30
0.0
  0
SPLINE
  5
37B
330
1F
100
AcDbEntity
  8
Livello 1
100
AcDbSpline
210
0.0
220
0.0
230
1.0
 70
     9
 71
     3
 72
    23
 73
    19
 74
     0
 42
0.000000001
 43
0.0000000001
 40
0.0
 40
0.0
 40
0.0
 40
0.0
 40
1.0
 40
1.0
 40
1.0
 40
2.0
 40
2.0
 40
2.0
 40
3.0
 40
3.0
 40
3.0
 40
4.0
 40
4.0
 40
4.0
 40
5.0
 40
5.0
 40
5.0
 40
6.0
 40
6.0
 40
6.0
 40
6.0
 10
22.80066646071007
 20
12.69716868622981
 30
0.0
 10
22.80066646071007
 20
12.69716868622981
 30
0.0
 10
21.20610939832389
 20
12.69716868622981
 30
0.0
 10
21.20610939832389
 20
12.69716868622981
 30
0.0
 10
21.194821327648
 20
12.69716868622981
 30
0.0
 10
21.18564876091851
 20
12.70633990721882
 30
0.0
 10
21.18564876091851
 20
12.71762932363509
 30
0.0
 10
21.18564876091851
 20
12.72927132404248
 30
0.0
 10
21.194821327648
 20
12.7384425450316
 30
0.0
 10
21.20610939832389
 20
12.7384425450316
 30
0.0
 10
21.20610939832389
 20
12.7384425450316
 30
0.0
 10
22.80066646071007
 20
12.7384425450316
 30
0.0
 10
22.80066646071007
 20
12.7384425450316
 30
0.0
 10
22.81195453138597
 20
12.7384425450316
 30
0.0
 10
22.82112709811546
 20
12.72927132404248
 30
0.0
 10
22.82112709811546
 20
12.71762932363509
 30
0.0
 10
22.82112709811546
 20
12.70633990721882
 30
0.0
 10
22.81195453138597
 20
12.69716868622981
 30
0.0
 10
22.80066646071007
 20
12.69716868622981
 30
0.0
  0
SPLINE
  5
37C
330
1F
100
AcDbEntity
  8
Livello 1
100
AcDbSpline
210
0.0
220
0.0
230
1.0
 70
     9
 71
     3
 72
    23
 73
    19
 74
     0
 42
0.000000001
 43
0.0000000001
 40
0.0
 40
0.0
 40
0.0
 40
0.0
 40
1.0
 40
1.0
 40
1.0
 40
2.0
 40
2.0
 40
2.0
 40
3.0
 40
3.0
 40
3.0
 40
4.0
 40
4.0
 40
4.0
 40
5.0
 40
5.0
 40
5.0
 40
6.0
 40
6.0
 40
6.0
 40
6.0
 10
22.00342561024886
 20
12.7119852882972
 30
0.0
 10
22.00342561024886
 20
12.7119852882972
 30
0.0
 10
21.81151225987365
 20
12.7119852882972
 30
0.0
 10
21.81151225987365
 20
12.7119852882972
 30
0.0
 10
21.80022418919776
 20
12.7119852882972
 30
0.0
 10
21.79105162246829
 20
12.72115650928629
 30
0.0
 10
21.79105162246829
 20
12.73244592570259
 30
0.0
 10
21.79105162246829
 20
12.7440879261099
 30
0.0
 10
21.80022418919776
 20
12.75325914709901
 30
0.0
 10
21.81151225987365
 20
12.75325914709901
 30
0.0
 10
21.81151225987365
 20
12.75325914709901
 30
0.0
 10
22.00342561024886
 20
12.75325914709901
 30
0.0
 10
22.00342561024886
 20
12.75325914709901
 30
0.0
 10
22.01471368092475
 20
12.75325914709901
 30
0.0
 10
22.02388624765422
 20
12.7440879261099
 30
0.0
 10
22.02388624765422
 20
12.73244592570259
 30
0.0
 10
22.02388624765422
 20
12.72115650928629
 30
0.0
 10
22.01471368092475
 20
12.7119852882972
 30
0.0
 10
22.00342561024886
 20
12.7119852882972
 30
0.0
  0
SPLINE
  5
37D
330
1F
100
AcDbEntity
  8
Livello 1
100
AcDbSpline
210
0.0
220
0.0
230
1.0
 70
     9
 71
     3
 72
    23
 73
    19
 74
     0
 42
0.000000001
 43
0.0000000001
 40
0.0
 40
0.0
 40
0.0
 40
0.0
 40
1.0
 40
1.0
 40
1.0
 40
2.0
 40
2.0
 40
2.0
 40
3.0
 40
3.0
 40
3.0
 40
4.0
 40
4.0
 40
4.0
 40
5.0
 40
5.0
 40
5.0
 40
6.0
 40
6.0
 40
6.0
 40
6.0
 10
23.03187812294476
 20
12.86445498684711
 30
0.0
 10
23.03187812294476
 20
12.86445498684711
 30
0.0
 10
20.97024416570328
 20
12.86445498684711
 30
0.0
 10
20.97024416570328
 20
12.86445498684711
 30
0.0
 10
20.95860216529589
 20
12.86445498684711
 30
0.0
 10
20.94943094430683
 20
12.87362620783622
 30
0.0
 10
20.94943094430683
 20
12.8849156242525
 30
0.0
 10
20.94943094430683
 20
12.89655762465992
 30
0.0
 10
20.95860216529589
 20
12.90572884564889
 30
0.0
 10
20.97024416570328
 20
12.90572884564889
 30
0.0
 10
20.97024416570328
 20
12.90572884564889
 30
0.0
 10
23.03187812294476
 20
12.90572884564889
 30
0.0
 10
23.03187812294476
 20
12.90572884564889
 30
0.0
 10
23.04316619362064
 20
12.90572884564889
 30
0.0
 10
23.05233876035013
 20
12.89655762465992
 30
0.0
 10
23.05233876035013
 20
12.8849156242525
 30
0.0
 10
23.05233876035013
 20
12.87362620783622
 30
0.0
 10
23.04316619362064
 20
12.86445498684711
 30
0.0
 10
23.03187812294476
 20
12.86445498684711
 30
0.0
  0
SPLINE
  5
37E
330
1F
100
AcDbEntity
  8
Livello 1
100
AcDbSpline
210
0.0
220
0.0
230
1.0
 70
     9
 71
     3
 72
    23
 73
    19
 74
     0
 42
0.000000001
 43
0.0000000001
 40
0.0
 40
0.0
 40
0.0
 40
0.0
 40
1.0
 40
1.0
 40
1.0
 40
2.0
 40
2.0
 40
2.0
 40
3.0
 40
3.0
 40
3.0
 40
4.0
 40
4.0
 40
4.0
 40
5.0
 40
5.0
 40
5.0
 40
6.0
 40
6.0
 40
6.0
 40
6.0
 10
23.23359653804867
 20
12.9531083287541
 30
0.0
 10
23.23359653804867
 20
12.9531083287541
 30
0.0
 10
22.44125687421139
 20
12.9531083287541
 30
0.0
 10
22.44125687421139
 20
12.9531083287541
 30
0.0
 10
22.42996611205464
 20
12.9531083287541
 30
0.0
 10
22.420796236806
 20
12.96227954974321
 30
0.0
 10
22.420796236806
 20
12.97356896615949
 30
0.0
 10
22.420796236806
 20
12.9852109665668
 30
0.0
 10
22.42996611205464
 20
12.99438218755591
 30
0.0
 10
22.44125687421139
 20
12.99438218755591
 30
0.0
 10
22.44125687421139
 20
12.99438218755591
 30
0.0
 10
23.23359653804867
 20
12.99438218755591
 30
0.0
 10
23.23359653804867
 20
12.99438218755591
 30
0.0
 10
23.24488460872456
 20
12.99438218755591
 30
0.0
 10
23.25405717545404
 20
12.9852109665668
 30
0.0
 10
23.25405717545404
 20
12.97356896615949
 30
0.0
 10
23.25405717545404
 20
12.96227954974321
 30
0.0
 10
23.24488460872456
 20
12.9531083287541
 30
0.0
 10
23.23359653804867
 20
12.9531083287541
 30
0.0
  0
SPLINE
  5
37F
330
1F
100
AcDbEntity
  8
Livello 1
100
AcDbSpline
210
0.0
220
0.0
230
1.0
 70
     9
 71
     3
 72
    23
 73
    19
 74
     0
 42
0.000000001
 43
0.0000000001
 40
0.0
 40
0.0
 40
0.0
 40
0.0
 40
1.0
 40
1.0
 40
1.0
 40
2.0
 40
2.0
 40
2.0
 40
3.0
 40
3.0
 40
3.0
 40
4.0
 40
4.0
 40
4.0
 40
5.0
 40
5.0
 40
5.0
 40
6.0
 40
6.0
 40
6.0
 40
6.0
 10
23.03187812294476
 20
13.66162720454679
 30
0.0
 10
23.02058736078803
 20
13.66162720454679
 30
0.0
 10
23.01141479405854
 20
13.67079842553579
 30
0.0
 10
23.01141479405854
 20
13.68208784195209
 30
0.0
 10
23.01141479405854
 20
13.68208784195209
 30
0.0
 10
23.01141479405854
 20
13.7706348703656
 30
0.0
 10
23.01141479405854
 20
13.7706348703656
 30
0.0
 10
23.01141479405854
 20
13.78227687077299
 30
0.0
 10
23.02058736078803
 20
13.79144809176202
 30
0.0
 10
23.03187812294476
 20
13.79144809176202
 30
0.0
 10
23.04316619362064
 20
13.79144809176202
 30
0.0
 10
23.05233876035013
 20
13.78227687077299
 30
0.0
 10
23.05233876035013
 20
13.7706348703656
 30
0.0
 10
23.05233876035013
 20
13.7706348703656
 30
0.0
 10
23.05233876035013
 20
13.68208784195209
 30
0.0
 10
23.05233876035013
 20
13.68208784195209
 30
0.0
 10
23.05233876035013
 20
13.67079842553579
 30
0.0
 10
23.04316619362064
 20
13.66162720454679
 30
0.0
 10
23.03187812294476
 20
13.66162720454679
 30
0.0
  0
SPLINE
  5
380
330
1F
100
AcDbEntity
  8
Livello 1
100
AcDbSpline
210
0.0
220
0.0
230
1.0
 70
     9
 71
     3
 72
    23
 73
    19
 74
     0
 42
0.000000001
 43
0.0000000001
 40
0.0
 40
0.0
 40
0.0
 40
0.0
 40
1.0
 40
1.0
 40
1.0
 40
2.0
 40
2.0
 40
2.0
 40
3.0
 40
3.0
 40
3.0
 40
4.0
 40
4.0
 40
4.0
 40
5.0
 40
5.0
 40
5.0
 40
6.0
 40
6.0
 40
6.0
 40
6.0
 10
23.03187812294476
 20
12.86445498684711
 30
0.0
 10
23.02058736078803
 20
12.86445498684711
 30
0.0
 10
23.01141479405854
 20
12.87362620783622
 30
0.0
 10
23.01141479405854
 20
12.8849156242525
 30
0.0
 10
23.01141479405854
 20
12.8849156242525
 30
0.0
 10
23.01141479405854
 20
12.97381523665709
 30
0.0
 10
23.01141479405854
 20
12.97381523665709
 30
0.0
 10
23.01141479405854
 20
12.98510465307342
 30
0.0
 10
23.02058736078803
 20
12.99427587406242
 30
0.0
 10
23.03187812294476
 20
12.99427587406242
 30
0.0
 10
23.04316619362064
 20
12.99427587406242
 30
0.0
 10
23.05233876035013
 20
12.98510465307342
 30
0.0
 10
23.05233876035013
 20
12.97381523665709
 30
0.0
 10
23.05233876035013
 20
12.97381523665709
 30
0.0
 10
23.05233876035013
 20
12.8849156242525
 30
0.0
 10
23.05233876035013
 20
12.8849156242525
 30
0.0
 10
23.05233876035013
 20
12.87362620783622
 30
0.0
 10
23.04316619362064
 20
12.86445498684711
 30
0.0
 10
23.03187812294476
 20
12.86445498684711
 30
0.0
  0
SPLINE
  5
381
330
1F
100
AcDbEntity
  8
Livello 1
100
AcDbSpline
210
0.0
220
0.0
230
1.0
 70
     9
 71
     3
 72
    23
 73
    19
 74
     0
 42
0.000000001
 43
0.0000000001
 40
0.0
 40
0.0
 40
0.0
 40
0.0
 40
1.0
 40
1.0
 40
1.0
 40
2.0
 40
2.0
 40
2.0
 40
3.0
 40
3.0
 40
3.0
 40
4.0
 40
4.0
 40
4.0
 40
5.0
 40
5.0
 40
5.0
 40
6.0
 40
6.0
 40
6.0
 40
6.0
 10
22.91870673625429
 20
12.9531083287541
 30
0.0
 10
22.90741597409756
 20
12.9531083287541
 30
0.0
 10
22.89824340736808
 20
12.96227954974321
 30
0.0
 10
22.89824340736808
 20
12.97356896615949
 30
0.0
 10
22.89824340736808
 20
12.97356896615949
 30
0.0
 10
22.89824340736808
 20
13.6822991231987
 30
0.0
 10
22.89824340736808
 20
13.6822991231987
 30
0.0
 10
22.89824340736808
 20
13.693588539615
 30
0.0
 10
22.90741597409756
 20
13.70276110634452
 30
0.0
 10
22.91870673625429
 20
13.70276110634452
 30
0.0
 10
22.92999480693019
 20
13.70276110634452
 30
0.0
 10
22.93916737365966
 20
13.693588539615
 30
0.0
 10
22.93916737365966
 20
13.6822991231987
 30
0.0
 10
22.93916737365966
 20
13.6822991231987
 30
0.0
 10
22.93916737365966
 20
12.97356896615949
 30
0.0
 10
22.93916737365966
 20
12.97356896615949
 30
0.0
 10
22.93916737365966
 20
12.96227954974321
 30
0.0
 10
22.92999480693019
 20
12.9531083287541
 30
0.0
 10
22.91870673625429
 20
12.9531083287541
 30
0.0
  0
SPLINE
  5
382
330
1F
100
AcDbEntity
  8
Livello 1
100
AcDbSpline
210
0.0
220
0.0
230
1.0
 70
     9
 71
     3
 72
    23
 73
    19
 74
     0
 42
0.000000001
 43
0.0000000001
 40
0.0
 40
0.0
 40
0.0
 40
0.0
 40
1.0
 40
1.0
 40
1.0
 40
2.0
 40
2.0
 40
2.0
 40
3.0
 40
3.0
 40
3.0
 40
4.0
 40
4.0
 40
4.0
 40
5.0
 40
5.0
 40
5.0
 40
6.0
 40
6.0
 40
6.0
 40
6.0
 10
20.97006921944816
 20
13.02193487699543
 30
0.0
 10
20.97006921944816
 20
13.02193487699543
 30
0.0
 10
20.89139858000589
 20
13.02193487699543
 30
0.0
 10
20.89139858000589
 20
13.02193487699543
 30
0.0
 10
20.87975792533892
 20
13.02193487699543
 30
0.0
 10
20.87058535860945
 20
13.0311060979844
 30
0.0
 10
20.87058535860945
 20
13.04239551440071
 30
0.0
 10
20.87058535860945
 20
13.0540375148081
 30
0.0
 10
20.87975792533892
 20
13.06320873579719
 30
0.0
 10
20.89139858000589
 20
13.06320873579719
 30
0.0
 10
20.89139858000589
 20
13.06320873579719
 30
0.0
 10
20.97006921944816
 20
13.06320873579719
 30
0.0
 10
20.97006921944816
 20
13.06320873579719
 30
0.0
 10
20.98135729012406
 20
13.06320873579719
 30
0.0
 10
20.99052985685353
 20
13.0540375148081
 30
0.0
 10
20.99052985685353
 20
13.04239551440071
 30
0.0
 10
20.99052985685353
 20
13.0311060979844
 30
0.0
 10
20.98135729012406
 20
13.02193487699543
 30
0.0
 10
20.97006921944816
 20
13.02193487699543
 30
0.0
  0
SPLINE
  5
383
330
1F
100
AcDbEntity
  8
Livello 1
100
AcDbSpline
210
0.0
220
0.0
230
1.0
 70
     9
 71
     3
 72
    23
 73
    19
 74
     0
 42
0.000000001
 43
0.0000000001
 40
0.0
 40
0.0
 40
0.0
 40
0.0
 40
1.0
 40
1.0
 40
1.0
 40
2.0
 40
2.0
 40
2.0
 40
3.0
 40
3.0
 40
3.0
 40
4.0
 40
4.0
 40
4.0
 40
5.0
 40
5.0
 40
5.0
 40
6.0
 40
6.0
 40
6.0
 40
6.0
 10
22.80066646071007
 20
12.69716868622981
 30
0.0
 10
22.78937569855335
 20
12.69716868622981
 30
0.0
 10
22.78020313182385
 20
12.70633990721882
 30
0.0
 10
22.78020313182385
 20
12.71762932363509
 30
0.0
 10
22.78020313182385
 20
12.71762932363509
 30
0.0
 10
22.78020313182385
 20
12.88484564575052
 30
0.0
 10
22.78020313182385
 20
12.88484564575052
 30
0.0
 10
22.78020313182385
 20
12.89648764615779
 30
0.0
 10
22.78937569855335
 20
12.90566021288731
 30
0.0
 10
22.80066646071007
 20
12.90566021288731
 30
0.0
 10
22.81195453138597
 20
12.90566021288731
 30
0.0
 10
22.82112709811546
 20
12.89648764615779
 30
0.0
 10
22.82112709811546
 20
12.88484564575052
 30
0.0
 10
22.82112709811546
 20
12.88484564575052
 30
0.0
 10
22.82112709811546
 20
12.71762932363509
 30
0.0
 10
22.82112709811546
 20
12.71762932363509
 30
0.0
 10
22.82112709811546
 20
12.70633990721882
 30
0.0
 10
22.81195453138597
 20
12.69716868622981
 30
0.0
 10
22.80066646071007
 20
12.69716868622981
 30
0.0
  0
SPLINE
  5
384
330
1F
100
AcDbEntity
  8
Livello 1
100
AcDbSpline
210
0.0
220
0.0
230
1.0
 70
     9
 71
     3
 72
    23
 73
    19
 74
     0
 42
0.000000001
 43
0.0000000001
 40
0.0
 40
0.0
 40
0.0
 40
0.0
 40
1.0
 40
1.0
 40
1.0
 40
2.0
 40
2.0
 40
2.0
 40
3.0
 40
3.0
 40
3.0
 40
4.0
 40
4.0
 40
4.0
 40
5.0
 40
5.0
 40
5.0
 40
6.0
 40
6.0
 40
6.0
 40
6.0
 10
20.97006921944816
 20
13.29265747807651
 30
0.0
 10
20.97006921944816
 20
13.29265747807651
 30
0.0
 10
20.89139858000589
 20
13.29265747807651
 30
0.0
 10
20.89139858000589
 20
13.29265747807651
 30
0.0
 10
20.87975792533892
 20
13.29265747807651
 30
0.0
 10
20.87058535860945
 20
13.30182869906551
 30
0.0
 10
20.87058535860945
 20
13.31311811548193
 30
0.0
 10
20.87058535860945
 20
13.3247601158892
 30
0.0
 10
20.87975792533892
 20
13.33393133687829
 30
0.0
 10
20.89139858000589
 20
13.33393133687829
 30
0.0
 10
20.89139858000589
 20
13.33393133687829
 30
0.0
 10
20.97006921944816
 20
13.33393133687829
 30
0.0
 10
20.97006921944816
 20
13.33393133687829
 30
0.0
 10
20.98135729012406
 20
13.33393133687829
 30
0.0
 10
20.99052985685353
 20
13.3247601158892
 30
0.0
 10
20.99052985685353
 20
13.31311811548193
 30
0.0
 10
20.99052985685353
 20
13.30182869906551
 30
0.0
 10
20.98135729012406
 20
13.29265747807651
 30
0.0
 10
20.97006921944816
 20
13.29265747807651
 30
0.0
  0
SPLINE
  5
385
330
1F
100
AcDbEntity
  8
Livello 1
100
AcDbSpline
210
0.0
220
0.0
230
1.0
 70
     9
 71
     3
 72
    23
 73
    19
 74
     0
 42
0.000000001
 43
0.0000000001
 40
0.0
 40
0.0
 40
0.0
 40
0.0
 40
1.0
 40
1.0
 40
1.0
 40
2.0
 40
2.0
 40
2.0
 40
3.0
 40
3.0
 40
3.0
 40
4.0
 40
4.0
 40
4.0
 40
5.0
 40
5.0
 40
5.0
 40
6.0
 40
6.0
 40
6.0
 40
6.0
 10
22.44143451194734
 20
12.9531083287541
 30
0.0
 10
22.43014374979061
 20
12.9531083287541
 30
0.0
 10
22.42097118306114
 20
12.96227954974321
 30
0.0
 10
22.42097118306114
 20
12.97356896615949
 30
0.0
 10
22.42097118306114
 20
12.97356896615949
 30
0.0
 10
22.42097118306114
 20
13.6822991231987
 30
0.0
 10
22.42097118306114
 20
13.6822991231987
 30
0.0
 10
22.42097118306114
 20
13.693588539615
 30
0.0
 10
22.43014374979061
 20
13.70276110634452
 30
0.0
 10
22.44143451194734
 20
13.70276110634452
 30
0.0
 10
22.45272258262324
 20
13.70276110634452
 30
0.0
 10
22.46189514935272
 20
13.693588539615
 30
0.0
 10
22.46189514935272
 20
13.6822991231987
 30
0.0
 10
22.46189514935272
 20
13.6822991231987
 30
0.0
 10
22.46189514935272
 20
12.97356896615949
 30
0.0
 10
22.46189514935272
 20
12.97356896615949
 30
0.0
 10
22.46189514935272
 20
12.96227954974321
 30
0.0
 10
22.45272258262324
 20
12.9531083287541
 30
0.0
 10
22.44143451194734
 20
12.9531083287541
 30
0.0
  0
SPLINE
  5
386
330
1F
100
AcDbEntity
  8
Livello 1
100
AcDbSpline
210
0.0
220
0.0
230
1.0
 70
     9
 71
     3
 72
    23
 73
    19
 74
     0
 42
0.000000001
 43
0.0000000001
 40
0.0
 40
0.0
 40
0.0
 40
0.0
 40
1.0
 40
1.0
 40
1.0
 40
2.0
 40
2.0
 40
2.0
 40
3.0
 40
3.0
 40
3.0
 40
4.0
 40
4.0
 40
4.0
 40
5.0
 40
5.0
 40
5.0
 40
6.0
 40
6.0
 40
6.0
 40
6.0
 10
22.44143451194734
 20
13.7502455572027
 30
0.0
 10
22.43014374979061
 20
13.7502455572027
 30
0.0
 10
22.42097118306114
 20
13.7594167781917
 30
0.0
 10
22.42097118306114
 20
13.77070619460809
 30
0.0
 10
22.42097118306114
 20
13.77070619460809
 30
0.0
 10
22.42097118306114
 20
15.4192368681766
 30
0.0
 10
22.42097118306114
 20
15.4192368681766
 30
0.0
 10
22.42097118306114
 20
15.4305249388525
 30
0.0
 10
22.43014374979061
 20
15.43969750558202
 30
0.0
 10
22.44143451194734
 20
15.43969750558202
 30
0.0
 10
22.45272258262324
 20
15.43969750558202
 30
0.0
 10
22.46189514935272
 20
15.4305249388525
 30
0.0
 10
22.46189514935272
 20
15.4192368681766
 30
0.0
 10
22.46189514935272
 20
15.4192368681766
 30
0.0
 10
22.46189514935272
 20
13.77070619460809
 30
0.0
 10
22.46189514935272
 20
13.77070619460809
 30
0.0
 10
22.46189514935272
 20
13.7594167781917
 30
0.0
 10
22.45272258262324
 20
13.7502455572027
 30
0.0
 10
22.44143451194734
 20
13.7502455572027
 30
0.0
  0
SPLINE
  5
387
330
1F
100
AcDbEntity
  8
Livello 1
100
AcDbSpline
210
0.0
220
0.0
230
1.0
 70
     9
 71
     3
 72
    23
 73
    19
 74
     0
 42
0.000000001
 43
0.0000000001
 40
0.0
 40
0.0
 40
0.0
 40
0.0
 40
1.0
 40
1.0
 40
1.0
 40
2.0
 40
2.0
 40
2.0
 40
3.0
 40
3.0
 40
3.0
 40
4.0
 40
4.0
 40
4.0
 40
5.0
 40
5.0
 40
5.0
 40
6.0
 40
6.0
 40
6.0
 40
6.0
 10
23.23359653804867
 20
13.66162720454679
 30
0.0
 10
23.23359653804867
 20
13.66162720454679
 30
0.0
 10
22.44125687421139
 20
13.66162720454679
 30
0.0
 10
22.44125687421139
 20
13.66162720454679
 30
0.0
 10
22.42996611205464
 20
13.66162720454679
 30
0.0
 10
22.420796236806
 20
13.67079842553579
 30
0.0
 10
22.420796236806
 20
13.68208784195209
 30
0.0
 10
22.420796236806
 20
13.69372984235951
 30
0.0
 10
22.42996611205464
 20
13.70290106334852
 30
0.0
 10
22.44125687421139
 20
13.70290106334852
 30
0.0
 10
22.44125687421139
 20
13.70290106334852
 30
0.0
 10
23.23359653804867
 20
13.70290106334852
 30
0.0
 10
23.23359653804867
 20
13.70290106334852
 30
0.0
 10
23.24488460872456
 20
13.70290106334852
 30
0.0
 10
23.25405717545404
 20
13.69372984235951
 30
0.0
 10
23.25405717545404
 20
13.68208784195209
 30
0.0
 10
23.25405717545404
 20
13.67079842553579
 30
0.0
 10
23.24488460872456
 20
13.66162720454679
 30
0.0
 10
23.23359653804867
 20
13.66162720454679
 30
0.0
  0
SPLINE
  5
388
330
1F
100
AcDbEntity
  8
Livello 1
100
AcDbSpline
210
0.0
220
0.0
230
1.0
 70
     9
 71
     3
 72
    23
 73
    19
 74
     0
 42
0.000000001
 43
0.0000000001
 40
0.0
 40
0.0
 40
0.0
 40
0.0
 40
1.0
 40
1.0
 40
1.0
 40
2.0
 40
2.0
 40
2.0
 40
3.0
 40
3.0
 40
3.0
 40
4.0
 40
4.0
 40
4.0
 40
5.0
 40
5.0
 40
5.0
 40
6.0
 40
6.0
 40
6.0
 40
6.0
 10
21.56545169780138
 20
13.7502455572027
 30
0.0
 10
21.56545169780138
 20
13.7502455572027
 30
0.0
 10
20.96996156021425
 20
13.7502455572027
 30
0.0
 10
20.96996156021425
 20
13.7502455572027
 30
0.0
 10
20.95867348953836
 20
13.7502455572027
 30
0.0
 10
20.94950092280888
 20
13.7594167781917
 30
0.0
 10
20.94950092280888
 20
13.77070619460809
 30
0.0
 10
20.94950092280888
 20
13.78234819501543
 30
0.0
 10
20.95867348953836
 20
13.79151941600452
 30
0.0
 10
20.96996156021425
 20
13.79151941600452
 30
0.0
 10
20.96996156021425
 20
13.79151941600452
 30
0.0
 10
21.56545169780138
 20
13.79151941600452
 30
0.0
 10
21.56545169780138
 20
13.79151941600452
 30
0.0
 10
21.57673976847727
 20
13.79151941600452
 30
0.0
 10
21.58591233520674
 20
13.78234819501543
 30
0.0
 10
21.58591233520674
 20
13.77070619460809
 30
0.0
 10
21.58591233520674
 20
13.7594167781917
 30
0.0
 10
21.57673976847727
 20
13.7502455572027
 30
0.0
 10
21.56545169780138
 20
13.7502455572027
 30
0.0
  0
SPLINE
  5
389
330
1F
100
AcDbEntity
  8
Livello 1
100
AcDbSpline
210
0.0
220
0.0
230
1.0
 70
     9
 71
     3
 72
    23
 73
    19
 74
     0
 42
0.000000001
 43
0.0000000001
 40
0.0
 40
0.0
 40
0.0
 40
0.0
 40
1.0
 40
1.0
 40
1.0
 40
2.0
 40
2.0
 40
2.0
 40
3.0
 40
3.0
 40
3.0
 40
4.0
 40
4.0
 40
4.0
 40
5.0
 40
5.0
 40
5.0
 40
6.0
 40
6.0
 40
6.0
 40
6.0
 10
23.03187812294476
 20
13.7502455572027
 30
0.0
 10
23.03187812294476
 20
13.7502455572027
 30
0.0
 10
22.44132685271343
 20
13.7502455572027
 30
0.0
 10
22.44132685271343
 20
13.7502455572027
 30
0.0
 10
22.43003878203754
 20
13.7502455572027
 30
0.0
 10
22.42086621530806
 20
13.7594167781917
 30
0.0
 10
22.42086621530806
 20
13.77070619460809
 30
0.0
 10
22.42086621530806
 20
13.78234819501543
 30
0.0
 10
22.43003878203754
 20
13.79151941600452
 30
0.0
 10
22.44132685271343
 20
13.79151941600452
 30
0.0
 10
22.44132685271343
 20
13.79151941600452
 30
0.0
 10
23.03187812294476
 20
13.79151941600452
 30
0.0
 10
23.03187812294476
 20
13.79151941600452
 30
0.0
 10
23.04316619362064
 20
13.79151941600452
 30
0.0
 10
23.05233876035013
 20
13.78234819501543
 30
0.0
 10
23.05233876035013
 20
13.77070619460809
 30
0.0
 10
23.05233876035013
 20
13.7594167781917
 30
0.0
 10
23.04316619362064
 20
13.7502455572027
 30
0.0
 10
23.03187812294476
 20
13.7502455572027
 30
0.0
  0
SPLINE
  5
38A
330
1F
100
AcDbEntity
  8
Livello 1
100
AcDbSpline
210
0.0
220
0.0
230
1.0
 70
     9
 71
     3
 72
    23
 73
    19
 74
     0
 42
0.000000001
 43
0.0000000001
 40
0.0
 40
0.0
 40
0.0
 40
0.0
 40
1.0
 40
1.0
 40
1.0
 40
2.0
 40
2.0
 40
2.0
 40
3.0
 40
3.0
 40
3.0
 40
4.0
 40
4.0
 40
4.0
 40
5.0
 40
5.0
 40
5.0
 40
6.0
 40
6.0
 40
6.0
 40
6.0
 10
21.13245164196074
 20
13.94219120534799
 30
0.0
 10
21.13245164196074
 20
13.94219120534799
 30
0.0
 10
21.03896305471061
 20
13.94219120534799
 30
0.0
 10
21.03896305471061
 20
13.94219120534799
 30
0.0
 10
21.02767498403473
 20
13.94219120534799
 30
0.0
 10
21.01850241730525
 20
13.95136242633708
 30
0.0
 10
21.01850241730525
 20
13.96265184275341
 30
0.0
 10
21.01850241730525
 20
13.97429384316081
 30
0.0
 10
21.02767498403473
 20
13.98346506414992
 30
0.0
 10
21.03896305471061
 20
13.98346506414992
 30
0.0
 10
21.03896305471061
 20
13.98346506414992
 30
0.0
 10
21.13245164196074
 20
13.98346506414992
 30
0.0
 10
21.13245164196074
 20
13.98346506414992
 30
0.0
 10
21.14373971263663
 20
13.98346506414992
 30
0.0
 10
21.1529122793661
 20
13.97429384316081
 30
0.0
 10
21.1529122793661
 20
13.96265184275341
 30
0.0
 10
21.1529122793661
 20
13.95136242633708
 30
0.0
 10
21.14373971263663
 20
13.94219120534799
 30
0.0
 10
21.13245164196074
 20
13.94219120534799
 30
0.0
  0
SPLINE
  5
38B
330
1F
100
AcDbEntity
  8
Livello 1
100
AcDbSpline
210
0.0
220
0.0
230
1.0
 70
     9
 71
     3
 72
    23
 73
    19
 74
     0
 42
0.000000001
 43
0.0000000001
 40
0.0
 40
0.0
 40
0.0
 40
0.0
 40
1.0
 40
1.0
 40
1.0
 40
2.0
 40
2.0
 40
2.0
 40
3.0
 40
3.0
 40
3.0
 40
4.0
 40
4.0
 40
4.0
 40
5.0
 40
5.0
 40
5.0
 40
6.0
 40
6.0
 40
6.0
 40
6.0
 10
22.00342561024886
 20
15.39873989577981
 30
0.0
 10
21.99213484809211
 20
15.39873989577981
 30
0.0
 10
21.98296228136264
 20
15.40791111676893
 30
0.0
 10
21.98296228136264
 20
15.4192005331852
 30
0.0
 10
21.98296228136264
 20
15.4192005331852
 30
0.0
 10
21.98296228136264
 20
15.7737425765705
 30
0.0
 10
21.98296228136264
 20
15.7737425765705
 30
0.0
 10
21.98296228136264
 20
15.7850306472464
 30
0.0
 10
21.99213484809211
 20
15.79420321397592
 30
0.0
 10
22.00342561024886
 20
15.79420321397592
 30
0.0
 10
22.01471368092475
 20
15.79420321397592
 30
0.0
 10
22.02388624765422
 20
15.7850306472464
 30
0.0
 10
22.02388624765422
 20
15.7737425765705
 30
0.0
 10
22.02388624765422
 20
15.7737425765705
 30
0.0
 10
22.02388624765422
 20
15.4192005331852
 30
0.0
 10
22.02388624765422
 20
15.4192005331852
 30
0.0
 10
22.02388624765422
 20
15.40791111676893
 30
0.0
 10
22.01471368092475
 20
15.39873989577981
 30
0.0
 10
22.00342561024886
 20
15.39873989577981
 30
0.0
  0
SPLINE
  5
38C
330
1F
100
AcDbEntity
  8
Livello 1
100
AcDbSpline
210
0.0
220
0.0
230
1.0
 70
     9
 71
     3
 72
    23
 73
    19
 74
     0
 42
0.000000001
 43
0.0000000001
 40
0.0
 40
0.0
 40
0.0
 40
0.0
 40
1.0
 40
1.0
 40
1.0
 40
2.0
 40
2.0
 40
2.0
 40
3.0
 40
3.0
 40
3.0
 40
4.0
 40
4.0
 40
4.0
 40
5.0
 40
5.0
 40
5.0
 40
6.0
 40
6.0
 40
6.0
 40
6.0
 10
22.00342561024886
 20
12.7119852882972
 30
0.0
 10
21.99213484809211
 20
12.7119852882972
 30
0.0
 10
21.98296228136264
 20
12.72115650928629
 30
0.0
 10
21.98296228136264
 20
12.73244592570259
 30
0.0
 10
21.98296228136264
 20
12.73244592570259
 30
0.0
 10
21.98296228136264
 20
12.88484564575052
 30
0.0
 10
21.98296228136264
 20
12.88484564575052
 30
0.0
 10
21.98296228136264
 20
12.89648764615779
 30
0.0
 10
21.99213484809211
 20
12.90566021288731
 30
0.0
 10
22.00342561024886
 20
12.90566021288731
 30
0.0
 10
22.01471368092475
 20
12.90566021288731
 30
0.0
 10
22.02388624765422
 20
12.89648764615779
 30
0.0
 10
22.02388624765422
 20
12.88484564575052
 30
0.0
 10
22.02388624765422
 20
12.88484564575052
 30
0.0
 10
22.02388624765422
 20
12.73244592570259
 30
0.0
 10
22.02388624765422
 20
12.73244592570259
 30
0.0
 10
22.02388624765422
 20
12.72115650928629
 30
0.0
 10
22.01471368092475
 20
12.7119852882972
 30
0.0
 10
22.00342561024886
 20
12.7119852882972
 30
0.0
  0
SPLINE
  5
38D
330
1F
100
AcDbEntity
  8
Livello 1
100
AcDbSpline
210
0.0
220
0.0
230
1.0
 70
     9
 71
     3
 72
    23
 73
    19
 74
     0
 42
0.000000001
 43
0.0000000001
 40
0.0
 40
0.0
 40
0.0
 40
0.0
 40
1.0
 40
1.0
 40
1.0
 40
2.0
 40
2.0
 40
2.0
 40
3.0
 40
3.0
 40
3.0
 40
4.0
 40
4.0
 40
4.0
 40
5.0
 40
5.0
 40
5.0
 40
6.0
 40
6.0
 40
6.0
 40
6.0
 10
21.8115149513545
 20
12.7119852882972
 30
0.0
 10
21.80022418919776
 20
12.7119852882972
 30
0.0
 10
21.79105162246829
 20
12.72115650928629
 30
0.0
 10
21.79105162246829
 20
12.73244592570259
 30
0.0
 10
21.79105162246829
 20
12.73244592570259
 30
0.0
 10
21.79105162246829
 20
12.88484564575052
 30
0.0
 10
21.79105162246829
 20
12.88484564575052
 30
0.0
 10
21.79105162246829
 20
12.89648764615779
 30
0.0
 10
21.80022418919776
 20
12.90566021288731
 30
0.0
 10
21.8115149513545
 20
12.90566021288731
 30
0.0
 10
21.8228030220304
 20
12.90566021288731
 30
0.0
 10
21.83197558875987
 20
12.89648764615779
 30
0.0
 10
21.83197558875987
 20
12.88484564575052
 30
0.0
 10
21.83197558875987
 20
12.88484564575052
 30
0.0
 10
21.83197558875987
 20
12.73244592570259
 30
0.0
 10
21.83197558875987
 20
12.73244592570259
 30
0.0
 10
21.83197558875987
 20
12.72115650928629
 30
0.0
 10
21.8228030220304
 20
12.7119852882972
 30
0.0
 10
21.8115149513545
 20
12.7119852882972
 30
0.0
  0
SPLINE
  5
38E
330
1F
100
AcDbEntity
  8
Livello 1
100
AcDbSpline
210
0.0
220
0.0
230
1.0
 70
     9
 71
     3
 72
    23
 73
    19
 74
     0
 42
0.000000001
 43
0.0000000001
 40
0.0
 40
0.0
 40
0.0
 40
0.0
 40
1.0
 40
1.0
 40
1.0
 40
2.0
 40
2.0
 40
2.0
 40
3.0
 40
3.0
 40
3.0
 40
4.0
 40
4.0
 40
4.0
 40
5.0
 40
5.0
 40
5.0
 40
6.0
 40
6.0
 40
6.0
 40
6.0
 10
21.61473540360638
 20
15.39873989577981
 30
0.0
 10
21.60344464144965
 20
15.39873989577981
 30
0.0
 10
21.59427207472018
 20
15.40791111676893
 30
0.0
 10
21.59427207472018
 20
15.4192005331852
 30
0.0
 10
21.59427207472018
 20
15.4192005331852
 30
0.0
 10
21.59427207472018
 20
15.7737425765705
 30
0.0
 10
21.59427207472018
 20
15.7737425765705
 30
0.0
 10
21.59427207472018
 20
15.7850306472464
 30
0.0
 10
21.60344464144965
 20
15.79420321397592
 30
0.0
 10
21.61473540360638
 20
15.79420321397592
 30
0.0
 10
21.62602347428228
 20
15.79420321397592
 30
0.0
 10
21.63519604101175
 20
15.7850306472464
 30
0.0
 10
21.63519604101175
 20
15.7737425765705
 30
0.0
 10
21.63519604101175
 20
15.7737425765705
 30
0.0
 10
21.63519604101175
 20
15.4192005331852
 30
0.0
 10
21.63519604101175
 20
15.4192005331852
 30
0.0
 10
21.63519604101175
 20
15.40791111676893
 30
0.0
 10
21.62602347428228
 20
15.39873989577981
 30
0.0
 10
21.61473540360638
 20
15.39873989577981
 30
0.0
  0
SPLINE
  5
38F
330
1F
100
AcDbEntity
  8
Livello 1
100
AcDbSpline
210
0.0
220
0.0
230
1.0
 70
     9
 71
     3
 72
    23
 73
    19
 74
     0
 42
0.000000001
 43
0.0000000001
 40
0.0
 40
0.0
 40
0.0
 40
0.0
 40
1.0
 40
1.0
 40
1.0
 40
2.0
 40
2.0
 40
2.0
 40
3.0
 40
3.0
 40
3.0
 40
4.0
 40
4.0
 40
4.0
 40
5.0
 40
5.0
 40
5.0
 40
6.0
 40
6.0
 40
6.0
 40
6.0
 10
21.56545169780138
 20
13.7502455572027
 30
0.0
 10
21.55416093564463
 20
13.7502455572027
 30
0.0
 10
21.54498836891516
 20
13.7594167781917
 30
0.0
 10
21.54498836891516
 20
13.77070619460809
 30
0.0
 10
21.54498836891516
 20
13.77070619460809
 30
0.0
 10
21.54498836891516
 20
15.4192368681766
 30
0.0
 10
21.54498836891516
 20
15.4192368681766
 30
0.0
 10
21.54498836891516
 20
15.4305249388525
 30
0.0
 10
21.55416093564463
 20
15.43969750558202
 30
0.0
 10
21.56545169780138
 20
15.43969750558202
 30
0.0
 10
21.57673976847727
 20
15.43969750558202
 30
0.0
 10
21.58591233520674
 20
15.4305249388525
 30
0.0
 10
21.58591233520674
 20
15.4192368681766
 30
0.0
 10
21.58591233520674
 20
15.4192368681766
 30
0.0
 10
21.58591233520674
 20
13.77070619460809
 30
0.0
 10
21.58591233520674
 20
13.77070619460809
 30
0.0
 10
21.58591233520674
 20
13.7594167781917
 30
0.0
 10
21.57673976847727
 20
13.7502455572027
 30
0.0
 10
21.56545169780138
 20
13.7502455572027
 30
0.0
  0
SPLINE
  5
390
330
1F
100
AcDbEntity
  8
Livello 1
100
AcDbSpline
210
0.0
220
0.0
230
1.0
 70
     9
 71
     3
 72
    23
 73
    19
 74
     0
 42
0.000000001
 43
0.0000000001
 40
0.0
 40
0.0
 40
0.0
 40
0.0
 40
1.0
 40
1.0
 40
1.0
 40
2.0
 40
2.0
 40
2.0
 40
3.0
 40
3.0
 40
3.0
 40
4.0
 40
4.0
 40
4.0
 40
5.0
 40
5.0
 40
5.0
 40
6.0
 40
6.0
 40
6.0
 40
6.0
 10
21.2062897275407
 20
12.69716868622981
 30
0.0
 10
21.19499896538396
 20
12.69716868622981
 30
0.0
 10
21.18582639865448
 20
12.70633990721882
 30
0.0
 10
21.18582639865448
 20
12.71762932363509
 30
0.0
 10
21.18582639865448
 20
12.71762932363509
 30
0.0
 10
21.18582639865448
 20
12.88484564575052
 30
0.0
 10
21.18582639865448
 20
12.88484564575052
 30
0.0
 10
21.18582639865448
 20
12.89648764615779
 30
0.0
 10
21.19499896538396
 20
12.90566021288731
 30
0.0
 10
21.2062897275407
 20
12.90566021288731
 30
0.0
 10
21.21757779821658
 20
12.90566021288731
 30
0.0
 10
21.22675036494606
 20
12.89648764615779
 30
0.0
 10
21.22675036494606
 20
12.88484564575052
 30
0.0
 10
21.22675036494606
 20
12.88484564575052
 30
0.0
 10
21.22675036494606
 20
12.71762932363509
 30
0.0
 10
21.22675036494606
 20
12.71762932363509
 30
0.0
 10
21.22675036494606
 20
12.70633990721882
 30
0.0
 10
21.21757779821658
 20
12.69716868622981
 30
0.0
 10
21.2062897275407
 20
12.69716868622981
 30
0.0
  0
SPLINE
  5
391
330
1F
100
AcDbEntity
  8
Livello 1
100
AcDbSpline
210
0.0
220
0.0
230
1.0
 70
     9
 71
     3
 72
    23
 73
    19
 74
     0
 42
0.000000001
 43
0.0000000001
 40
0.0
 40
0.0
 40
0.0
 40
0.0
 40
1.0
 40
1.0
 40
1.0
 40
2.0
 40
2.0
 40
2.0
 40
3.0
 40
3.0
 40
3.0
 40
4.0
 40
4.0
 40
4.0
 40
5.0
 40
5.0
 40
5.0
 40
6.0
 40
6.0
 40
6.0
 40
6.0
 10
21.13245164196074
 20
13.7502455572027
 30
0.0
 10
21.12116087980401
 20
13.7502455572027
 30
0.0
 10
21.11198831307451
 20
13.7594167781917
 30
0.0
 10
21.11198831307451
 20
13.77070619460809
 30
0.0
 10
21.11198831307451
 20
13.77070619460809
 30
0.0
 10
21.11198831307451
 20
13.96261685350242
 30
0.0
 10
21.11198831307451
 20
13.96261685350242
 30
0.0
 10
21.11198831307451
 20
13.97425885390982
 30
0.0
 10
21.12116087980401
 20
13.9834314206393
 30
0.0
 10
21.13245164196074
 20
13.9834314206393
 30
0.0
 10
21.14373971263663
 20
13.9834314206393
 30
0.0
 10
21.1529122793661
 20
13.97425885390982
 30
0.0
 10
21.1529122793661
 20
13.96261685350242
 30
0.0
 10
21.1529122793661
 20
13.96261685350242
 30
0.0
 10
21.1529122793661
 20
13.77070619460809
 30
0.0
 10
21.1529122793661
 20
13.77070619460809
 30
0.0
 10
21.1529122793661
 20
13.7594167781917
 30
0.0
 10
21.14373971263663
 20
13.7502455572027
 30
0.0
 10
21.13245164196074
 20
13.7502455572027
 30
0.0
  0
SPLINE
  5
392
330
1F
100
AcDbEntity
  8
Livello 1
100
AcDbSpline
210
0.0
220
0.0
230
1.0
 70
     9
 71
     3
 72
    23
 73
    19
 74
     0
 42
0.000000001
 43
0.0000000001
 40
0.0
 40
0.0
 40
0.0
 40
0.0
 40
1.0
 40
1.0
 40
1.0
 40
2.0
 40
2.0
 40
2.0
 40
3.0
 40
3.0
 40
3.0
 40
4.0
 40
4.0
 40
4.0
 40
5.0
 40
5.0
 40
5.0
 40
6.0
 40
6.0
 40
6.0
 40
6.0
 10
21.03893075694045
 20
13.7502455572027
 30
0.0
 10
21.02763999478371
 20
13.7502455572027
 30
0.0
 10
21.01846742805422
 20
13.7594167781917
 30
0.0
 10
21.01846742805422
 20
13.77070619460809
 30
0.0
 10
21.01846742805422
 20
13.77070619460809
 30
0.0
 10
21.01846742805422
 20
13.96261685350242
 30
0.0
 10
21.01846742805422
 20
13.96261685350242
 30
0.0
 10
21.01846742805422
 20
13.97425885390982
 30
0.0
 10
21.02763999478371
 20
13.9834314206393
 30
0.0
 10
21.03893075694045
 20
13.9834314206393
 30
0.0
 10
21.05021882761633
 20
13.9834314206393
 30
0.0
 10
21.0593913943458
 20
13.97425885390982
 30
0.0
 10
21.0593913943458
 20
13.96261685350242
 30
0.0
 10
21.0593913943458
 20
13.96261685350242
 30
0.0
 10
21.0593913943458
 20
13.77070619460809
 30
0.0
 10
21.0593913943458
 20
13.77070619460809
 30
0.0
 10
21.0593913943458
 20
13.7594167781917
 30
0.0
 10
21.05021882761633
 20
13.7502455572027
 30
0.0
 10
21.03893075694045
 20
13.7502455572027
 30
0.0
  0
SPLINE
  5
393
330
1F
100
AcDbEntity
  8
Livello 1
100
AcDbSpline
210
0.0
220
0.0
230
1.0
 70
     9
 71
     3
 72
    23
 73
    19
 74
     0
 42
0.000000001
 43
0.0000000001
 40
0.0
 40
0.0
 40
0.0
 40
0.0
 40
1.0
 40
1.0
 40
1.0
 40
2.0
 40
2.0
 40
2.0
 40
3.0
 40
3.0
 40
3.0
 40
4.0
 40
4.0
 40
4.0
 40
5.0
 40
5.0
 40
5.0
 40
6.0
 40
6.0
 40
6.0
 40
6.0
 10
20.97006921944816
 20
12.86445498684711
 30
0.0
 10
20.95877980303185
 20
12.86445498684711
 30
0.0
 10
20.94960723630236
 20
12.87362620783622
 30
0.0
 10
20.94960723630236
 20
12.8849156242525
 30
0.0
 10
20.94960723630236
 20
12.8849156242525
 30
0.0
 10
20.94960723630236
 20
13.77073983811871
 30
0.0
 10
20.94960723630236
 20
13.77073983811871
 30
0.0
 10
20.94960723630236
 20
13.78202925453502
 30
0.0
 10
20.95877980303185
 20
13.79120182126439
 30
0.0
 10
20.97006921944816
 20
13.79120182126439
 30
0.0
 10
20.98135729012406
 20
13.79120182126439
 30
0.0
 10
20.99052985685353
 20
13.78202925453502
 30
0.0
 10
20.99052985685353
 20
13.77073983811871
 30
0.0
 10
20.99052985685353
 20
13.77073983811871
 30
0.0
 10
20.99052985685353
 20
12.8849156242525
 30
0.0
 10
20.99052985685353
 20
12.8849156242525
 30
0.0
 10
20.99052985685353
 20
12.87362620783622
 30
0.0
 10
20.98135729012406
 20
12.86445498684711
 30
0.0
 10
20.97006921944816
 20
12.86445498684711
 30
0.0
  0
SPLINE
  5
394
330
1F
100
AcDbEntity
  8
Livello 1
100
AcDbSpline
210
0.0
220
0.0
230
1.0
 70
     9
 71
     3
 72
    23
 73
    19
 74
     0
 42
0.000000001
 43
0.0000000001
 40
0.0
 40
0.0
 40
0.0
 40
0.0
 40
1.0
 40
1.0
 40
1.0
 40
2.0
 40
2.0
 40
2.0
 40
3.0
 40
3.0
 40
3.0
 40
4.0
 40
4.0
 40
4.0
 40
5.0
 40
5.0
 40
5.0
 40
6.0
 40
6.0
 40
6.0
 40
6.0
 10
20.89125862300181
 20
13.02193487699543
 30
0.0
 10
20.87996920658549
 20
13.02193487699543
 30
0.0
 10
20.870796639856
 20
13.0311060979844
 30
0.0
 10
20.870796639856
 20
13.04239551440071
 30
0.0
 10
20.870796639856
 20
13.04239551440071
 30
0.0
 10
20.870796639856
 20
13.31332805098802
 30
0.0
 10
20.870796639856
 20
13.31332805098802
 30
0.0
 10
20.870796639856
 20
13.32461746740429
 30
0.0
 10
20.87996920658549
 20
13.33379003413381
 30
0.0
 10
20.89125862300181
 20
13.33379003413381
 30
0.0
 10
20.9025466936777
 20
13.33379003413381
 30
0.0
 10
20.91171926040717
 20
13.32461746740429
 30
0.0
 10
20.91171926040717
 20
13.31332805098802
 30
0.0
 10
20.91171926040717
 20
13.31332805098802
 30
0.0
 10
20.91171926040717
 20
13.04239551440071
 30
0.0
 10
20.91171926040717
 20
13.04239551440071
 30
0.0
 10
20.91171926040717
 20
13.0311060979844
 30
0.0
 10
20.9025466936777
 20
13.02193487699543
 30
0.0
 10
20.89125862300181
 20
13.02193487699543
 30
0.0
  0
SPLINE
  5
395
330
1F
100
AcDbEntity
  8
Livello 1
100
AcDbSpline
210
0.0
220
0.0
230
1.0
 70
     9
 71
     3
 72
    23
 73
    19
 74
     0
 42
0.000000001
 43
0.0000000001
 40
0.0
 40
0.0
 40
0.0
 40
0.0
 40
1.0
 40
1.0
 40
1.0
 40
2.0
 40
2.0
 40
2.0
 40
3.0
 40
3.0
 40
3.0
 40
4.0
 40
4.0
 40
4.0
 40
5.0
 40
5.0
 40
5.0
 40
6.0
 40
6.0
 40
6.0
 40
6.0
 10
22.44143451194734
 20
15.39873989577981
 30
0.0
 10
22.44143451194734
 20
15.39873989577981
 30
0.0
 10
21.56548668705239
 20
15.39873989577981
 30
0.0
 10
21.56548668705239
 20
15.39873989577981
 30
0.0
 10
21.55419592489566
 20
15.39873989577981
 30
0.0
 10
21.54502604964704
 20
15.40791111676893
 30
0.0
 10
21.54502604964704
 20
15.4192005331852
 30
0.0
 10
21.54502604964704
 20
15.43084253359259
 30
0.0
 10
21.55419592489566
 20
15.4400137545816
 30
0.0
 10
21.56548668705239
 20
15.4400137545816
 30
0.0
 10
21.56548668705239
 20
15.4400137545816
 30
0.0
 10
22.44143451194734
 20
15.4400137545816
 30
0.0
 10
22.44143451194734
 20
15.4400137545816
 30
0.0
 10
22.45272258262324
 20
15.4400137545816
 30
0.0
 10
22.46189514935272
 20
15.43084253359259
 30
0.0
 10
22.46189514935272
 20
15.4192005331852
 30
0.0
 10
22.46189514935272
 20
15.40791111676893
 30
0.0
 10
22.45272258262324
 20
15.39873989577981
 30
0.0
 10
22.44143451194734
 20
15.39873989577981
 30
0.0
  0
SPLINE
  5
396
330
1F
100
AcDbEntity
  8
Livello 1
100
AcDbSpline
210
0.0
220
0.0
230
1.0
 70
     9
 71
     3
 72
    23
 73
    19
 74
     0
 42
0.000000001
 43
0.0000000001
 40
0.0
 40
0.0
 40
0.0
 40
0.0
 40
1.0
 40
1.0
 40
1.0
 40
2.0
 40
2.0
 40
2.0
 40
3.0
 40
3.0
 40
3.0
 40
4.0
 40
4.0
 40
4.0
 40
5.0
 40
5.0
 40
5.0
 40
6.0
 40
6.0
 40
6.0
 40
6.0
 10
22.00342561024886
 20
15.7136996760762
 30
0.0
 10
22.00342561024886
 20
15.7136996760762
 30
0.0
 10
21.61466273362349
 20
15.7136996760762
 30
0.0
 10
21.61466273362349
 20
15.7136996760762
 30
0.0
 10
21.6033746629476
 20
15.7136996760762
 30
0.0
 10
21.59420209621813
 20
15.72287089706529
 30
0.0
 10
21.59420209621813
 20
15.73416031348159
 30
0.0
 10
21.59420209621813
 20
15.74580231388901
 30
0.0
 10
21.6033746629476
 20
15.75497353487802
 30
0.0
 10
21.61466273362349
 20
15.75497353487802
 30
0.0
 10
21.61466273362349
 20
15.75497353487802
 30
0.0
 10
22.00342561024886
 20
15.75497353487802
 30
0.0
 10
22.00342561024886
 20
15.75497353487802
 30
0.0
 10
22.01471368092475
 20
15.75497353487802
 30
0.0
 10
22.02388624765422
 20
15.74580231388901
 30
0.0
 10
22.02388624765422
 20
15.73416031348159
 30
0.0
 10
22.02388624765422
 20
15.72287089706529
 30
0.0
 10
22.01471368092475
 20
15.7136996760762
 30
0.0
 10
22.00342561024886
 20
15.7136996760762
 30
0.0
  0
SPLINE
  5
397
330
1F
100
AcDbEntity
  8
Livello 1
100
AcDbSpline
210
0.0
220
0.0
230
1.0
 70
     9
 71
     3
 72
    23
 73
    19
 74
     0
 42
0.000000001
 43
0.0000000001
 40
0.0
 40
0.0
 40
0.0
 40
0.0
 40
1.0
 40
1.0
 40
1.0
 40
2.0
 40
2.0
 40
2.0
 40
3.0
 40
3.0
 40
3.0
 40
4.0
 40
4.0
 40
4.0
 40
5.0
 40
5.0
 40
5.0
 40
6.0
 40
6.0
 40
6.0
 40
6.0
 10
22.00342561024886
 20
15.75307065791858
 30
0.0
 10
22.00342561024886
 20
15.75307065791858
 30
0.0
 10
21.61466273362349
 20
15.75307065791858
 30
0.0
 10
21.61466273362349
 20
15.75307065791858
 30
0.0
 10
21.6033746629476
 20
15.75307065791858
 30
0.0
 10
21.59420209621813
 20
15.7622418789077
 30
0.0
 10
21.59420209621813
 20
15.773531295324
 30
0.0
 10
21.59420209621813
 20
15.78517329573142
 30
0.0
 10
21.6033746629476
 20
15.79434451672043
 30
0.0
 10
21.61466273362349
 20
15.79434451672043
 30
0.0
 10
21.61466273362349
 20
15.79434451672043
 30
0.0
 10
22.00342561024886
 20
15.79434451672043
 30
0.0
 10
22.00342561024886
 20
15.79434451672043
 30
0.0
 10
22.01471368092475
 20
15.79434451672043
 30
0.0
 10
22.02388624765422
 20
15.78517329573142
 30
0.0
 10
22.02388624765422
 20
15.773531295324
 30
0.0
 10
22.02388624765422
 20
15.7622418789077
 30
0.0
 10
22.01471368092475
 20
15.75307065791858
 30
0.0
 10
22.00342561024886
 20
15.75307065791858
 30
0.0
  0
POLYLINE
  5
398
330
1F
100
AcDbEntity
  8
Livello 1
100
AcDb2dPolyline
 66
     1
 10
0.0
 20
0.0
 30
0.0
  0
VERTEX
  5
399
330
398
100
AcDbEntity
  8
Livello 1
100
AcDbVertex
100
AcDb2dVertex
 10
24.40618703970229
 20
12.6991897812353
 30
0.0
  0
VERTEX
  5
39A
330
398
100
AcDbEntity
  8
Livello 1
100
AcDbVertex
100
AcDb2dVertex
 10
24.40618703970229
 20
5.275334006834299
 30
0.0
  0
SEQEND
  5
39B
330
398
100
AcDbEntity
  8
Livello 1
  0
POLYLINE
  5
39C
330
1F
100
AcDbEntity
  8
Livello 1
100
AcDb2dPolyline
 66
     1
 10
0.0
 20
0.0
 30
0.0
  0
VERTEX
  5
39D
330
39C
100
AcDbEntity
  8
Livello 1
100
AcDbVertex
100
AcDb2dVertex
 10
7.723466239658485
 20
4.060155636662301
 30
0.0
  0
VERTEX
  5
39E
330
39C
100
AcDbEntity
  8
Livello 1
100
AcDbVertex
100
AcDb2dVertex
 10
3.657702486360086
 20
4.060155636662301
 30
0.0
  0
SEQEND
  5
39F
330
39C
100
AcDbEntity
  8
Livello 1
  0
POLYLINE
  5
3A0
330
1F
100
AcDbEntity
  8
Livello 1
100
AcDb2dPolyline
 66
     1
 10
0.0
 20
0.0
 30
0.0
  0
VERTEX
  5
3A1
330
3A0
100
AcDbEntity
  8
Livello 1
100
AcDbVertex
100
AcDb2dVertex
 10
23.20645945177252
 20
4.060155636662301
 30
0.0
  0
VERTEX
  5
3A2
330
3A0
100
AcDbEntity
  8
Livello 1
100
AcDbVertex
100
AcDb2dVertex
 10
11.94332265445809
 20
4.060155636662301
 30
0.0
  0
SEQEND
  5
3A3
330
3A0
100
AcDbEntity
  8
Livello 1
  0
MTEXT
  5
3A4
330
1F
100
AcDbEntity
  8
Livello 1
100
AcDbMText
 10
27.50963551583627
 20
4.173199975293414
 30
0.0
 40
2.123016666135912
 41
0.0
 46
0.0
 71
     7
 72
     1
  1
\fSource Sans Pro Light|b0|i0|c0|p34;\W1;122 mm
 11
-0.0000000000000002
 21
1.0
 31
0.0
 73
     1
 44
1.0
  0
MTEXT
  5
3A5
330
1F
100
AcDbEntity
  8
Livello 1
100
AcDbMText
 10
1.509588707523718
 20
0.956621979949233
 30
0.0
 40
2.123016666135912
 41
0.0
 46
0.0
 71
     7
 72
     1
  1
\fSource Sans Pro Light|b0|i0|c0|p34;\W1;66 mm
 73
     1
 44
1.0
  0
MTEXT
  5
3A6
330
1F
100
AcDbEntity
  8
Livello 1
100
AcDbMText
 10
12.7607537980269
 20
0.956621979949233
 30
0.0
 40
2.123016666135912
 41
0.0
 46
0.0
 71
     7
 72
     1
  1
\fSource Sans Pro Light|b0|i0|c0|p34;\W1;180 mm
 73
     1
 44
1.0
  0
POLYLINE
  5
3A7
330
1F
100
AcDbEntity
  8
Livello 1
100
AcDb2dPolyline
 66
     1
 10
0.0
 20
0.0
 30
0.0
  0
VERTEX
  5
3A8
330
3A7
100
AcDbEntity
  8
Livello 1
100
AcDbVertex
100
AcDb2dVertex
 10
2.098001446694006
 20
17.30749080505001
 30
0.0
  0
VERTEX
  5
3A9
330
3A7
100
AcDbEntity
  8
Livello 1
100
AcDbVertex
100
AcDb2dVertex
 10
6.740204363268226
 20
17.30749080505001
 30
0.0
  0
SEQEND
  5
3AA
330
3A7
100
AcDbEntity
  8
Livello 1
  0
MTEXT
  5
3AB
330
1F
100
AcDbEntity
  8
Livello 1
100
AcDbMText
 10
0.3081116570428364
 20
18.16177334283549
 30
0.0
 40
2.123016666135912
 41
0.0
 46
0.0
 71
     7
 72
     1
  1
\fSource Sans Pro Light|b0|i0|c0|p34;\W1;87 mm
 73
     1
 44
1.0
  0
ENDSEC
  0
SECTION
  2
OBJECTS
  0
DICTIONARY
  5
C
330
0
100
AcDbDictionary
281
     1
  3
ACAD_CIP_PREVIOUS_PRODUCT_INFO
350
216
  3
ACAD_COLOR
350
6B
  3
ACAD_DETAILVIEWSTYLE
350
21B
  3
ACAD_GROUP
350
D
  3
ACAD_LAYOUT
350
1A
  3
ACAD_MATERIAL
350
6A
  3
ACAD_MLEADERSTYLE
350
12D
  3
ACAD_MLINESTYLE
350
17
  3
ACAD_PLOTSETTINGS
350
19
  3
ACAD_PLOTSTYLENAME
350
E
  3
ACAD_SCALELIST
350
10C
  3
ACAD_SECTIONVIEWSTYLE
350
219
  3
ACAD_TABLESTYLE
350
7E
  3
ACAD_VISUALSTYLE
350
EF
  3
ACDB_RECOMPOSE_DATA
350
3AD
  3
AcDbVariableDictionary
350
5E
  3
AcDsDecomposeData
350
3B3
  0
DICTIONARY
  5
1FF
330
2
100
AcDbDictionary
280
     1
281
     1
  3
ACAD_LAYERSTATES
360
200
  0
DICTIONARY
  5
13C
330
10
100
AcDbDictionary
280
     1
281
     1
  0
DICTIONARY
  5
1CE
330
1F
100
AcDbDictionary
280
     1
281
     1
  0
XRECORD
  5
216
102
{ACAD_REACTORS
330
C
102
}
330
C
100
AcDbXrecord
280
     1
300
ACD
300
2020
300

  0
DICTIONARY
  5
6B
102
{ACAD_REACTORS
330
C
102
}
330
C
100
AcDbDictionary
281
     1
  0
DICTIONARY
  5
21B
102
{ACAD_REACTORS
330
C
102
}
330
C
100
AcDbDictionary
281
     1
  3
Imperial24
350
28F
  3
Metric50
350
21C
  0
DICTIONARY
  5
D
102
{ACAD_REACTORS
330
C
102
}
330
C
100
AcDbDictionary
281
     1
  0
DICTIONARY
  5
1A
102
{ACAD_REACTORS
330
C
102
}
330
C
100
AcDbDictionary
281
     1
  3
Layout1
350
D3
  3
Layout2
350
D7
  3
Model
350
22
  0
DICTIONARY
  5
6A
102
{ACAD_REACTORS
330
C
102
}
330
C
100
AcDbDictionary
281
     1
  3
ByBlock
350
ED
  3
ByLayer
350
EC
  3
Global
350
EE
  0
DICTIONARY
  5
12D
102
{ACAD_REACTORS
330
C
102
}
330
C
100
AcDbDictionary
281
     1
  3
Annotativa
350
13B
  3
Standard
350
12E
  0
DICTIONARY
  5
17
102
{ACAD_REACTORS
330
C
102
}
330
C
100
AcDbDictionary
281
     1
  3
Standard
350
18
  0
DICTIONARY
  5
19
102
{ACAD_REACTORS
330
C
102
}
330
C
100
AcDbDictionary
281
     1
  0
ACDBDICTIONARYWDFLT
  5
E
102
{ACAD_REACTORS
330
C
102
}
330
C
100
AcDbDictionary
281
     1
  3
Normal
350
F
100
AcDbDictionaryWithDefault
340
F
  0
DICTIONARY
  5
10C
102
{ACAD_REACTORS
330
C
102
}
330
C
100
AcDbDictionary
281
     1
  3
A0
350
10D
  3
A1
350
1BE
  3
A2
350
1BF
  3
A3
350
1C0
  3
A4
350
1C1
  3
A5
350
1C2
  3
A6
350
1C3
  3
A7
350
1C4
  3
A8
350
1C5
  3
A9
350
1C6
  3
B0
350
1C7
  3
B1
350
1C8
  3
B2
350
1C9
  3
B3
350
1CA
  3
B4
350
1CB
  3
B5
350
1CC
  3
B6
350
1CD
  0
DICTIONARY
  5
219
102
{ACAD_REACTORS
330
C
102
}
330
C
100
AcDbDictionary
281
     1
  3
Imperial24
350
28E
  3
Metric50
350
21A
  0
DICTIONARY
  5
7E
102
{ACAD_REACTORS
330
C
102
}
330
C
100
AcDbDictionary
281
     1
  3
Standard
350
7F
  0
DICTIONARY
  5
EF
102
{ACAD_REACTORS
330
C
102
}
330
C
100
AcDbDictionary
281
     1
  3
2dWireframe
350
F5
  3
Basic
350
F4
  3
Brighten
350
FB
  3
ColorChange
350
FF
  3
Conceptual
350
F8
  3
Dim
350
FA
  3
EdgeColorOff
350
1E6
  3
Facepattern
350
FE
  3
Flat
350
F0
  3
FlatWithEdges
350
F1
  3
Gouraud
350
F2
  3
GouraudWithEdges
350
F3
  3
Hidden
350
F7
  3
JitterOff
350
1E4
  3
Linepattern
350
FD
  3
OverhangOff
350
1E5
  3
Realistic
350
F9
  3
Shaded
350
1F3
  3
Shaded with edges
350
1F2
  3
Shades of Gray
350
1EF
  3
Sketchy
350
1F0
  3
Thicken
350
FC
  3
Wireframe
350
F6
  3
X-Ray
350
1F1
  0
XRECORD
  5
3AD
102
{ACAD_REACTORS
330
C
102
}
330
C
100
AcDbXrecord
280
     1
 90
        1
330
7F
  0
DICTIONARY
  5
5E
102
{ACAD_REACTORS
330
C
102
}
330
C
100
AcDbDictionary
281
     1
  3
CANNOSCALE
350
146
  3
CENTEREXE
350
259
  3
CENTERLTYPEFILE
350
25A
  3
CMLEADERSTYLE
350
145
  3
CTABLESTYLE
350
84
  3
CVIEWDETAILSTYLE
350
227
  3
CVIEWSECTIONSTYLE
350
228
  3
DIMASSOC
350
5F
  3
HIDETEXT
350
63
  3
LAYEREVAL
350
1AE
  3
LAYERNOTIFY
350
1AF
  0
DICTIONARY
  5
3B3
102
{ACAD_REACTORS
330
C
102
}
330
C
100
AcDbDictionary
281
     1
  3
AcDsRecords
350
3B5
  3
AcDsSchemas
350
3B4
1001
ACAD
1070
     2
  0
DICTIONARY
  5
200
102
{ACAD_REACTORS
330
1FF
102
}
330
1FF
100
AcDbDictionary
281
     1
  0
ACDBDETAILVIEWSTYLE
  5
28F
102
{ACAD_XDICTIONARY
360
3BC
102
}
102
{ACAD_REACTORS
330
21B
102
}
330
21B
100
AcDbModelDocViewStyle
 70
     0
  3
Imperial24
290
     0
100
AcDbDetailViewStyle
 70
     0
 71
     0
 90
        3
 71
     1
340
11
 62
   256
 40
0.24
340
0
 62
   256
 40
0.24
300

 40
0.36
280
     3
 71
     2
340
16
 90
       25
 62
   256
 71
     3
340
11
 62
   256
 40
0.24
 90
        1
 40
0.75
 90
        1
300
%<\AcVar ViewType \f "%tc1">% %<\AcVar ViewDetailId>%\PSCALA %<\AcVar ViewScale \f "%sn">%
 71
     4
340
16
 90
       25
 62
   256
340
16
 90
       25
 62
   256
280
     0
  0
ACDBDETAILVIEWSTYLE
  5
21C
102
{ACAD_XDICTIONARY
360
3B8
102
}
102
{ACAD_REACTORS
330
21B
102
}
330
21B
100
AcDbModelDocViewStyle
 70
     0
  3
Metric50
290
     0
100
AcDbDetailViewStyle
 70
     0
 71
     0
 90
        3
 71
     1
340
11
 62
   256
 40
5.0
340
0
 62
   256
 40
5.0
300

 40
0.0
280
     1
 71
     2
340
16
 90
       25
 62
   256
 71
     3
340
11
 62
   256
 40
5.0
 90
        0
 40
15.0
 90
        1
300
%<\AcVar ViewDetailId>% (%<\AcVar ViewScale \f "%sn">%)
 71
     4
340
16
 90
       25
 62
   256
340
16
 90
       25
 62
   256
280
     0
  0
LAYOUT
  5
D3
102
{ACAD_REACTORS
330
1A
102
}
330
1A
100
AcDbPlotSettings
  1

  2
C:\Documents and Settings\basas\Application Data\Autodesk\AutoCAD 2005\R16.1\enu\plotters\Default Windows System Printer.pc3
  4

  6

 40
0.0
 41
0.0
 42
0.0
 43
0.0
 44
0.0
 45
0.0
 46
0.0
 47
0.0
 48
0.0
 49
0.0
140
0.0
141
0.0
142
1.0
143
1.0
 70
   688
 72
     0
 73
     0
 74
     5
  7

 75
    16
147
1.0
 76
     0
 77
     2
 78
   300
148
0.0
149
0.0
100
AcDbLayout
  1
Layout1
 70
     1
 71
     1
 10
0.0
 20
0.0
 11
12.0
 21
9.0
 12
0.0
 22
0.0
 32
0.0
 14
0.0
 24
0.0
 34
0.0
 15
0.0
 25
0.0
 35
0.0
146
0.0
 13
0.0
 23
0.0
 33
0.0
 16
1.0
 26
0.0
 36
0.0
 17
0.0
 27
1.0
 37
0.0
 76
     0
330
D2
  0
LAYOUT
  5
D7
102
{ACAD_REACTORS
330
1A
102
}
330
1A
100
AcDbPlotSettings
  1

  2
C:\Documents and Settings\basas\Application Data\Autodesk\AutoCAD 2005\R16.1\enu\plotters\Default Windows System Printer.pc3
  4

  6

 40
0.0
 41
0.0
 42
0.0
 43
0.0
 44
0.0
 45
0.0
 46
0.0
 47
0.0
 48
0.0
 49
0.0
140
0.0
141
0.0
142
1.0
143
1.0
 70
   688
 72
     0
 73
     0
 74
     5
  7

 75
    16
147
1.0
 76
     0
 77
     2
 78
   300
148
0.0
149
0.0
100
AcDbLayout
  1
Layout2
 70
     1
 71
     2
 10
0.0
 20
0.0
 11
12.0
 21
9.0
 12
0.0
 22
0.0
 32
0.0
 14
0.0
 24
0.0
 34
0.0
 15
0.0
 25
0.0
 35
0.0
146
0.0
 13
0.0
 23
0.0
 33
0.0
 16
1.0
 26
0.0
 36
0.0
 17
0.0
 27
1.0
 37
0.0
 76
     0
330
D6
  0
LAYOUT
  5
22
102
{ACAD_XDICTIONARY
360
205
102
}
102
{ACAD_REACTORS
330
1A
102
}
330
1A
100
AcDbPlotSettings
  1

  2
none_device
  4
ISO_A4_(210.00_x_297.00_MM)
  6

 40
7.5
 41
20.0
 42
7.5
 43
20.0
 44
210.0
 45
297.0
 46
11.54999923706054
 47
-13.65000009536743
 48
0.0
 49
0.0
140
0.0
141
0.0
142
1.0
143
8.704084754739808
 70
 11952
 72
     1
 73
     0
 74
     0
  7

 75
     0
147
0.1148885871608098
 76
     0
 77
     2
 78
   300
148
0.0
149
0.0
100
AcDbLayout
  1
Model
 70
     1
 71
     0
 10
0.0
 20
0.0
 11
12.0
 21
9.0
 12
0.0
 22
0.0
 32
0.0
 14
0.0
 24
0.0
 34
0.0
 15
0.0
 25
0.0
 35
0.0
146
0.0
 13
0.0
 23
0.0
 33
0.0
 16
1.0
 26
0.0
 36
0.0
 17
0.0
 27
1.0
 37
0.0
 76
     0
330
1F
331
EA
1001
ACAD_PSEXT
1000
None
1000
None
1000
Not applicable
1000
The layout will not be plotted unless a new plotter configuration name is selected.
1070
     0
  0
MATERIAL
  5
ED
102
{ACAD_XDICTIONARY
360
1F9
102
}
102
{ACAD_REACTORS
330
6A
102
}
330
6A
100
AcDbMaterial
  1
ByBlock
 94
       63
  0
MATERIAL
  5
EC
102
{ACAD_XDICTIONARY
360
1F7
102
}
102
{ACAD_REACTORS
330
6A
102
}
330
6A
100
AcDbMaterial
  1
ByLayer
 94
       63
  0
MATERIAL
  5
EE
102
{ACAD_XDICTIONARY
360
173
102
}
102
{ACAD_REACTORS
330
6A
102
}
330
6A
100
AcDbMaterial
  1
Global
 43
0.0007999999797903
 43
0.0
 43
0.0
 43
0.0
 43
0.0
 43
0.0007999999797903
 43
0.0
 43
0.0
 43
0.0
 43
0.0
 43
1.0
 43
0.0
 43
0.0
 43
0.0
 43
0.0
 43
1.0
 49
0.0007999999797903
 49
0.0
 49
0.0
 49
0.0
 49
0.0
 49
0.0007999999797903
 49
0.0
 49
0.0
 49
0.0
 49
0.0
 49
1.0
 49
0.0
 49
0.0
 49
0.0
 49
0.0
 49
1.0
142
0.0007999999797903
142
0.0
142
0.0
142
0.0
142
0.0
142
0.0007999999797903
142
0.0
142
0.0
142
0.0
142
0.0
142
1.0
142
0.0
142
0.0
142
0.0
142
0.0
142
1.0
144
0.0007999999797903
144
0.0
144
0.0
144
0.0
144
0.0
144
0.0007999999797903
144
0.0
144
0.0
144
0.0
144
0.0
144
1.0
144
0.0
144
0.0
144
0.0
144
0.0
144
1.0
 94
       63
1001
ACAD
1070
    -1
1070
     3
1070
     0
1000

1071
        0
1070
     0
  0
MLEADERSTYLE
  5
13B
102
{ACAD_REACTORS
330
12D
102
}
330
12D
100
AcDbMLeaderStyle
179
     2
170
     2
171
     1
172
     0
 90
        2
 40
0.0
 41
0.0
173
     1
 91
-1056964608
340
14
 92
       -2
290
     1
 42
2.0
291
     1
 43
8.0
  3
Standard
 44
4.0
300

342
11
174
     1
178
     1
175
     1
176
     0
 93
-1056964608
 45
4.0
292
     0
297
     0
 46
4.0
 94
-1056964608
 47
1.0
 49
1.0
140
1.0
293
     1
141
0.0
294
     1
177
     0
142
1.0
295
     0
296
     1
143
3.75
271
     0
272
     9
273
     9
298
     0
  0
MLEADERSTYLE
  5
12E
102
{ACAD_REACTORS
330
12D
102
}
330
12D
100
AcDbMLeaderStyle
179
     2
170
     2
171
     1
172
     0
 90
        2
 40
0.0
 41
0.0
173
     1
 91
-1056964608
340
14
 92
       -2
290
     1
 42
2.0
291
     1
 43
8.0
  3
Standard
 44
4.0
300

342
11
174
     1
178
     1
175
     1
176
     0
 93
-1056964608
 45
4.0
292
     0
297
     0
 46
4.0
 94
-1056964608
 47
1.0
 49
1.0
140
1.0
293
     1
141
0.0
294
     1
177
     0
142
1.0
295
     0
296
     0
143
3.75
271
     0
272
     9
273
     9
298
     0
  0
MLINESTYLE
  5
18
102
{ACAD_REACTORS
330
17
102
}
330
17
100
AcDbMlineStyle
  2
STANDARD
 70
     0
  3

 62
   256
 51
90.0
 52
90.0
 71
     2
 49
0.5
 62
   256
  6
BYLAYER
 49
-0.5
 62
   256
  6
BYLAYER
  0
ACDBPLACEHOLDER
  5
F
102
{ACAD_REACTORS
330
E
102
}
330
E
  0
SCALE
  5
10D
102
{ACAD_REACTORS
330
10C
102
}
330
10C
100
AcDbScale
 70
     0
300
1:1
140
1.0
141
1.0
290
     1
  0
SCALE
  5
1BE
102
{ACAD_REACTORS
330
10C
102
}
330
10C
100
AcDbScale
 70
     0
300
1:2
140
1.0
141
2.0
290
     0
  0
SCALE
  5
1BF
102
{ACAD_REACTORS
330
10C
102
}
330
10C
100
AcDbScale
 70
     0
300
1:4
140
1.0
141
4.0
290
     0
  0
SCALE
  5
1C0
102
{ACAD_REACTORS
330
10C
102
}
330
10C
100
AcDbScale
 70
     0
300
1:5
140
1.0
141
5.0
290
     0
  0
SCALE
  5
1C1
102
{ACAD_REACTORS
330
10C
102
}
330
10C
100
AcDbScale
 70
     0
300
1:8
140
1.0
141
8.0
290
     0
  0
SCALE
  5
1C2
102
{ACAD_REACTORS
330
10C
102
}
330
10C
100
AcDbScale
 70
     0
300
1:10
140
1.0
141
10.0
290
     0
  0
SCALE
  5
1C3
102
{ACAD_REACTORS
330
10C
102
}
330
10C
100
AcDbScale
 70
     0
300
1:16
140
1.0
141
16.0
290
     0
  0
SCALE
  5
1C4
102
{ACAD_REACTORS
330
10C
102
}
330
10C
100
AcDbScale
 70
     0
300
1:20
140
1.0
141
20.0
290
     0
  0
SCALE
  5
1C5
102
{ACAD_REACTORS
330
10C
102
}
330
10C
100
AcDbScale
 70
     0
300
1:30
140
1.0
141
30.0
290
     0
  0
SCALE
  5
1C6
102
{ACAD_REACTORS
330
10C
102
}
330
10C
100
AcDbScale
 70
     0
300
1:40
140
1.0
141
40.0
290
     0
  0
SCALE
  5
1C7
102
{ACAD_REACTORS
330
10C
102
}
330
10C
100
AcDbScale
 70
     0
300
1:50
140
1.0
141
50.0
290
     0
  0
SCALE
  5
1C8
102
{ACAD_REACTORS
330
10C
102
}
330
10C
100
AcDbScale
 70
     0
300
1:100
140
1.0
141
100.0
290
     0
  0
SCALE
  5
1C9
102
{ACAD_REACTORS
330
10C
102
}
330
10C
100
AcDbScale
 70
     0
300
2:1
140
2.0
141
1.0
290
     0
  0
SCALE
  5
1CA
102
{ACAD_REACTORS
330
10C
102
}
330
10C
100
AcDbScale
 70
     0
300
4:1
140
4.0
141
1.0
290
     0
  0
SCALE
  5
1CB
102
{ACAD_REACTORS
330
10C
102
}
330
10C
100
AcDbScale
 70
     0
300
8:1
140
8.0
141
1.0
290
     0
  0
SCALE
  5
1CC
102
{ACAD_REACTORS
330
10C
102
}
330
10C
100
AcDbScale
 70
     0
300
10:1
140
10.0
141
1.0
290
     0
  0
SCALE
  5
1CD
102
{ACAD_REACTORS
330
10C
102
}
330
10C
100
AcDbScale
 70
     0
300
100:1
140
100.0
141
1.0
290
     0
  0
ACDBSECTIONVIEWSTYLE
  5
28E
102
{ACAD_XDICTIONARY
360
3BA
102
}
102
{ACAD_REACTORS
330
219
102
}
330
219
100
AcDbModelDocViewStyle
 70
     0
  3
Imperial24
290
     0
100
AcDbSectionViewStyle
 70
     0
 71
     0
 90
       78
 71
     1
340
11
 62
   256
 40
0.24
340
0
340
0
 62
   256
 40
0.24
300
I, O, Q, S, X, Z
 40
0.48
 90
        3
 40
0.18
 90
        1
 71
     2
340
16
 90
       25
 62
   256
340
16
 90
       50
 62
   256
 40
0.24
 40
0.0
 40
0.24
 71
     3
340
11
 62
   256
 40
0.24
 90
        1
 40
0.75
 90
        1
300
%<\AcVar ViewType \f "%tc1">% %<\AcVar ViewSectionStartId>%-%<\AcVar ViewSectionEndId>%\PSCALA %<\AcVar ViewScale \f "%sn">%
 71
     4
 62
   256
 62
   257
300
ANSI31
 40
1.0
 90
        0
290
     0
290
     0
 90
        6
 40
0.0
 40
1.570796326794896
 40
0.2617993877991494
 40
1.308996938995747
 40
-0.2617993877991494
 40
1.832595714594046
  0
ACDBSECTIONVIEWSTYLE
  5
21A
102
{ACAD_XDICTIONARY
360
3B6
102
}
102
{ACAD_REACTORS
330
219
102
}
330
219
100
AcDbModelDocViewStyle
 70
     0
  3
Metric50
290
     0
100
AcDbSectionViewStyle
 70
     0
 71
     0
 90
      102
 71
     1
340
11
 62
   256
 40
5.0
340
0
340
0
 62
   256
 40
5.0
300
I, O, Q, S, X, Z
 40
10.0
 90
        0
 40
2.5
 90
        0
 71
     2
340
16
 90
       25
 62
   256
340
16
 90
       50
 62
   256
 40
5.0
 40
2.5
 40
5.0
 71
     3
340
11
 62
   256
 40
5.0
 90
        0
 40
15.0
 90
        1
300
%<\AcVar ViewSectionStartId>%-%<\AcVar ViewSectionEndId>% (%<\AcVar ViewScale \f "%sn">%)
 71
     4
 62
   256
 62
   257
300
ANSI31
 40
1.0
 90
        0
290
     0
290
     0
 90
        6
 40
0.0
 40
1.570796326794896
 40
0.2617993877991494
 40
1.308996938995747
 40
-0.2617993877991494
 40
1.832595714594046
  0
TABLESTYLE
  5
7F
102
{ACAD_XDICTIONARY
360
162
102
}
102
{ACAD_REACTORS
330
7E
102
}
330
7E
100
AcDbTableStyle
280
     0
  3
Standard
 70
     0
 71
     0
 40
1.5
 41
1.5
280
     0
281
     0
  7
Standard
140
4.5
170
     2
 62
     0
 63
     7
283
     0
 90
      512
 91
        0
  1

274
    -2
284
     1
 64
     0
275
    -2
285
     1
 65
     0
276
    -2
286
     1
 66
     0
277
    -2
287
     1
 67
     0
278
    -2
288
     1
 68
     0
279
    -2
289
     1
 69
     0
  7
Standard
140
6.0
170
     5
 62
     0
 63
     7
283
     0
 90
      512
 91
        0
  1

274
    -2
284
     1
 64
     0
275
    -2
285
     1
 65
     0
276
    -2
286
     1
 66
     0
277
    -2
287
     1
 67
     0
278
    -2
288
     1
 68
     0
279
    -2
289
     1
 69
     0
  7
Standard
140
4.5
170
     5
 62
     0
 63
     7
283
     0
 90
      512
 91
        0
  1

274
    -2
284
     1
 64
     0
275
    -2
285
     1
 65
     0
276
    -2
286
     1
 66
     0
277
    -2
287
     1
 67
     0
278
    -2
288
     1
 68
     0
279
    -2
289
     1
 69
     0
  0
VISUALSTYLE
  5
F5
102
{ACAD_REACTORS
330
EF
102
}
330
EF
100
AcDbVisualStyle
  2
2dWireframe
 70
     4
177
     3
291
     0
 70
    58
 90
        0
176
     1
 90
        2
176
     1
 90
        1
176
     1
 90
        0
176
     1
 40
0.6
176
     1
 40
30.0
176
     1
 62
     7
420
 16777215
176
     1
 90
        1
176
     1
 90
        4
176
     1
 62
     7
176
     1
 62
   257
176
     1
 90
        1
176
     1
 90
        1
176
     1
 40
1.0
176
     1
 90
        0
176
     1
 62
   257
176
     1
 40
1.0
176
     1
 90
        1
176
     1
 90
        6
176
     1
 90
        2
176
     1
 62
     7
176
     1
 90
        5
176
     1
 90
        0
176
     1
 90
        0
176
     1
290
     0
176
     1
 90
        1
176
     1
 40
0.0
176
     1
 90
        0
176
     1
290
     1
176
     1
290
     1
176
     1
290
     0
176
     1
290
     0
176
     1
290
     0
176
     1
290
     0
176
     1
290
     0
176
     1
290
     0
176
     1
290
     0
176
     1
 90
       50
176
     1
 40
0.0
176
     1
 40
1.0
176
     1
 90
        0
176
     1
 62
    18
420
        0
176
     1
 90
       50
176
     1
 90
        3
176
     1
 62
     5
420
      255
176
     1
290
     0
176
     1
 90
       50
176
     1
 90
       50
176
     1
 90
       50
176
     1
290
     0
176
     1
 90
       50
176
     1
 62
   256
176
     0
 40
1.0
176
     0
 90
        2
176
     1
  1
strokes_ogs.tif
176
     1
290
     0
176
     1
 40
1.0
176
     1
 40
1.0
176
     1
1001
ACAD
1000
AcDbSavedByObjectVersion
1070
     0
  0
VISUALSTYLE
  5
F4
102
{ACAD_REACTORS
330
EF
102
}
330
EF
100
AcDbVisualStyle
  2
Basic
 70
     7
177
     3
291
     1
 70
    58
 90
        1
176
     1
 90
        0
176
     1
 90
        1
176
     1
 90
        0
176
     1
 40
0.6
176
     1
 40
30.0
176
     1
 62
     7
420
 16777215
176
     1
 90
        0
176
     1
 90
        4
176
     1
 62
     7
176
     1
 62
   257
176
     1
 90
        1
176
     1
 90
        1
176
     1
 40
1.0
176
     1
 90
        8
176
     1
 62
     7
176
     1
 40
1.0
176
     1
 90
        1
176
     1
 90
        6
176
     1
 90
        2
176
     1
 62
     7
176
     1
 90
        5
176
     1
 90
        0
176
     1
 90
        0
176
     1
290
     0
176
     1
 90
        1
176
     1
 40
0.0
176
     1
 90
        0
176
     1
290
     0
176
     1
290
     1
176
     1
290
     1
176
     1
290
     0
176
     1
290
     0
176
     1
290
     0
176
     1
290
     0
176
     1
290
     0
176
     1
290
     0
176
     1
 90
       50
176
     1
 40
0.0
176
     1
 40
1.0
176
     1
 90
        0
176
     1
 62
    18
420
        0
176
     1
 90
       50
176
     1
 90
        3
176
     1
 62
     5
420
      255
176
     1
290
     0
176
     1
 90
       50
176
     1
 90
       50
176
     1
 90
       50
176
     1
290
     0
176
     1
 90
       50
176
     1
 62
   256
176
     0
 40
1.0
176
     0
 90
        2
176
     1
  1
strokes_ogs.tif
176
     1
290
     0
176
     1
 40
1.0
176
     1
 40
1.0
176
     1
1001
ACAD
1000
AcDbSavedByObjectVersion
1070
     0
  0
VISUALSTYLE
  5
FB
102
{ACAD_REACTORS
330
EF
102
}
330
EF
100
AcDbVisualStyle
  2
Brighten
 70
    12
177
     3
291
     1
 70
    58
 90
        2
176
     1
 90
        2
176
     1
 90
        1
176
     1
 90
        0
176
     1
 40
0.6
176
     1
 40
30.0
176
     1
 62
     7
420
 16777215
176
     1
 90
        1
176
     1
 90
        4
176
     1
 62
     7
176
     1
 62
   257
176
     1
 90
        1
176
     1
 90
        1
176
     1
 40
1.0
176
     1
 90
        8
176
     1
 62
     7
176
     1
 40
1.0
176
     1
 90
        1
176
     1
 90
        6
176
     1
 90
        2
176
     1
 62
     7
176
     1
 90
        5
176
     1
 90
        0
176
     1
 90
        0
176
     1
290
     0
176
     1
 90
        1
176
     1
 40
50.0
176
     1
 90
        0
176
     1
290
     0
176
     1
290
     1
176
     1
290
     1
176
     1
290
     0
176
     1
290
     0
176
     1
290
     0
176
     1
290
     0
176
     1
290
     0
176
     1
290
     0
176
     1
 90
       50
176
     1
 40
0.0
176
     1
 40
1.0
176
     1
 90
        0
176
     1
 62
    18
420
        0
176
     1
 90
       50
176
     1
 90
        3
176
     1
 62
     5
420
      255
176
     1
290
     0
176
     1
 90
       50
176
     1
 90
       50
176
     1
 90
       50
176
     1
290
     0
176
     1
 90
       50
176
     1
 62
   256
176
     0
 40
1.0
176
     0
 90
        2
176
     1
  1
strokes_ogs.tif
176
     1
290
     0
176
     1
 40
1.0
176
     1
 40
1.0
176
     1
1001
ACAD
1000
AcDbSavedByObjectVersion
1070
     0
  0
VISUALSTYLE
  5
FF
102
{ACAD_REACTORS
330
EF
102
}
330
EF
100
AcDbVisualStyle
  2
ColorChange
 70
    16
177
     3
291
     1
 70
    58
 90
        2
176
     1
 90
        2
176
     1
 90
        3
176
     1
 90
        0
176
     1
 40
0.6
176
     1
 40
30.0
176
     1
 62
     8
420
  8421504
176
     1
 90
        1
176
     1
 90
        4
176
     1
 62
     7
176
     1
 62
   257
176
     1
 90
        1
176
     1
 90
        1
176
     1
 40
1.0
176
     1
 90
        8
176
     1
 62
     8
420
  8421504
176
     1
 40
1.0
176
     1
 90
        1
176
     1
 90
        6
176
     1
 90
        2
176
     1
 62
     7
176
     1
 90
        5
176
     1
 90
        0
176
     1
 90
        0
176
     1
290
     0
176
     1
 90
        1
176
     1
 40
0.0
176
     1
 90
        0
176
     1
290
     0
176
     1
290
     1
176
     1
290
     1
176
     1
290
     0
176
     1
290
     0
176
     1
290
     0
176
     1
290
     0
176
     1
290
     0
176
     1
290
     0
176
     1
 90
       50
176
     1
 40
0.0
176
     1
 40
1.0
176
     1
 90
        0
176
     1
 62
    18
420
        0
176
     1
 90
       50
176
     1
 90
        3
176
     1
 62
     5
420
      255
176
     1
290
     0
176
     1
 90
       50
176
     1
 90
       50
176
     1
 90
       50
176
     1
290
     0
176
     1
 90
       50
176
     1
 62
   256
176
     0
 40
1.0
176
     0
 90
        2
176
     1
  1
strokes_ogs.tif
176
     1
290
     0
176
     1
 40
1.0
176
     1
 40
1.0
176
     1
1001
ACAD
1000
AcDbSavedByObjectVersion
1070
     0
  0
VISUALSTYLE
  5
F8
102
{ACAD_REACTORS
330
EF
102
}
330
EF
100
AcDbVisualStyle
  2
Conceptual
 70
     9
177
     3
291
     0
 70
    58
 90
        3
176
     1
 90
        2
176
     1
 90
        1
176
     1
 90
        0
176
     1
 40
0.6
176
     1
 40
30.0
176
     1
 62
     7
420
 16777215
176
     1
 90
        2
176
     1
 90
        2
176
     1
 62
     7
176
     1
 62
   257
176
     1
 90
        1
176
     1
 90
        1
176
     1
 40
40.0
176
     1
 90
        8
176
     1
 62
     7
176
     1
 40
1.0
176
     1
 90
        1
176
     1
 90
        6
176
     1
 90
        2
176
     1
 62
     7
176
     1
 90
        3
176
     1
 90
        0
176
     1
 90
        0
176
     1
290
     0
176
     1
 90
        1
176
     1
 40
0.0
176
     1
 90
        0
176
     1
290
     0
176
     1
290
     1
176
     1
290
     1
176
     1
290
     0
176
     1
290
     0
176
     1
290
     0
176
     1
290
     0
176
     1
290
     0
176
     1
290
     0
176
     1
 90
       50
176
     1
 40
0.0
176
     1
 40
1.0
176
     1
 90
        0
176
     1
 62
    18
420
        0
176
     1
 90
       50
176
     1
 90
        3
176
     1
 62
     5
420
      255
176
     1
290
     0
176
     1
 90
       50
176
     1
 90
       50
176
     1
 90
       50
176
     1
290
     0
176
     1
 90
       50
176
     1
 62
   256
176
     0
 40
1.0
176
     0
 90
        2
176
     1
  1
strokes_ogs.tif
176
     1
290
     0
176
     1
 40
1.0
176
     1
 40
1.0
176
     1
1001
ACAD
1000
AcDbSavedByObjectVersion
1070
     0
  0
VISUALSTYLE
  5
FA
102
{ACAD_REACTORS
330
EF
102
}
330
EF
100
AcDbVisualStyle
  2
Dim
 70
    11
177
     3
291
     1
 70
    58
 90
        2
176
     1
 90
        2
176
     1
 90
        1
176
     1
 90
        0
176
     1
 40
0.6
176
     1
 40
30.0
176
     1
 62
     7
420
 16777215
176
     1
 90
        1
176
     1
 90
        4
176
     1
 62
     7
176
     1
 62
   257
176
     1
 90
        1
176
     1
 90
        1
176
     1
 40
1.0
176
     1
 90
        8
176
     1
 62
     7
176
     1
 40
1.0
176
     1
 90
        1
176
     1
 90
        6
176
     1
 90
        2
176
     1
 62
     7
176
     1
 90
        5
176
     1
 90
        0
176
     1
 90
        0
176
     1
290
     0
176
     1
 90
        1
176
     1
 40
-50.0
176
     1
 90
        0
176
     1
290
     0
176
     1
290
     1
176
     1
290
     1
176
     1
290
     0
176
     1
290
     0
176
     1
290
     0
176
     1
290
     0
176
     1
290
     0
176
     1
290
     0
176
     1
 90
       50
176
     1
 40
0.0
176
     1
 40
1.0
176
     1
 90
        0
176
     1
 62
    18
420
        0
176
     1
 90
       50
176
     1
 90
        3
176
     1
 62
     5
420
      255
176
     1
290
     0
176
     1
 90
       50
176
     1
 90
       50
176
     1
 90
       50
176
     1
290
     0
176
     1
 90
       50
176
     1
 62
   256
176
     0
 40
1.0
176
     0
 90
        2
176
     1
  1
strokes_ogs.tif
176
     1
290
     0
176
     1
 40
1.0
176
     1
 40
1.0
176
     1
1001
ACAD
1000
AcDbSavedByObjectVersion
1070
     0
  0
VISUALSTYLE
  5
1E6
102
{ACAD_REACTORS
330
EF
102
}
330
EF
100
AcDbVisualStyle
  2
EdgeColorOff
 70
    22
177
     3
291
     1
 70
    58
 90
        2
176
     0
 90
        2
176
     0
 90
        0
176
     0
 90
        0
176
     0
 40
0.6
176
     0
 40
30.0
176
     0
 62
     7
420
 16777215
176
     0
 90
        1
176
     0
 90
        4
176
     0
 62
     7
176
     0
 62
   257
176
     0
 90
        1
176
     0
 90
        1
176
     0
 40
1.0
176
     0
 90
        8
176
     2
 62
     7
176
     0
 40
1.0
176
     0
 90
        1
176
     0
 90
        6
176
     0
 90
        2
176
     0
 62
     7
176
     0
 90
        5
176
     0
 90
        0
176
     0
 90
        0
176
     0
290
     0
176
     0
 90
        1
176
     0
 40
0.0
176
     0
 90
        0
176
     0
290
     0
176
     1
290
     1
176
     1
290
     1
176
     1
290
     0
176
     1
290
     0
176
     1
290
     0
176
     1
290
     0
176
     1
290
     0
176
     1
290
     0
176
     1
 90
       50
176
     1
 40
0.0
176
     1
 40
1.0
176
     1
 90
        0
176
     1
 62
    18
420
        0
176
     1
 90
       50
176
     1
 90
        3
176
     1
 62
     5
420
      255
176
     1
290
     0
176
     1
 90
       50
176
     1
 90
       50
176
     1
 90
       50
176
     1
290
     0
176
     1
 90
       50
176
     1
 62
   256
176
     0
 40
1.0
176
     0
 90
        2
176
     1
  1
strokes_ogs.tif
176
     1
290
     0
176
     1
 40
1.0
176
     1
 40
1.0
176
     1
1001
ACAD
1000
AcDbSavedByObjectVersion
1070
     0
  0
VISUALSTYLE
  5
FE
102
{ACAD_REACTORS
330
EF
102
}
330
EF
100
AcDbVisualStyle
  2
Facepattern
 70
    15
177
     3
291
     1
 70
    58
 90
        2
176
     1
 90
        2
176
     1
 90
        1
176
     1
 90
        0
176
     1
 40
0.6
176
     1
 40
30.0
176
     1
 62
     7
420
 16777215
176
     1
 90
        1
176
     1
 90
        4
176
     1
 62
     7
176
     1
 62
   257
176
     1
 90
        1
176
     1
 90
        1
176
     1
 40
1.0
176
     1
 90
        8
176
     1
 62
     7
176
     1
 40
1.0
176
     1
 90
        1
176
     1
 90
        6
176
     1
 90
        2
176
     1
 62
     7
176
     1
 90
        5
176
     1
 90
        0
176
     1
 90
        0
176
     1
290
     0
176
     1
 90
        1
176
     1
 40
0.0
176
     1
 90
        0
176
     1
290
     0
176
     1
290
     1
176
     1
290
     1
176
     1
290
     0
176
     1
290
     0
176
     1
290
     0
176
     1
290
     0
176
     1
290
     0
176
     1
290
     0
176
     1
 90
       50
176
     1
 40
0.0
176
     1
 40
1.0
176
     1
 90
        0
176
     1
 62
    18
420
        0
176
     1
 90
       50
176
     1
 90
        3
176
     1
 62
     5
420
      255
176
     1
290
     0
176
     1
 90
       50
176
     1
 90
       50
176
     1
 90
       50
176
     1
290
     0
176
     1
 90
       50
176
     1
 62
   256
176
     0
 40
1.0
176
     0
 90
        2
176
     1
  1
strokes_ogs.tif
176
     1
290
     0
176
     1
 40
1.0
176
     1
 40
1.0
176
     1
1001
ACAD
1000
AcDbSavedByObjectVersion
1070
     0
  0
VISUALSTYLE
  5
F0
102
{ACAD_REACTORS
330
EF
102
}
330
EF
100
AcDbVisualStyle
  2
Flat
 70
     0
177
     3
291
     1
 70
    58
 90
        2
176
     1
 90
        1
176
     1
 90
        1
176
     1
 90
        2
176
     1
 40
0.6
176
     1
 40
30.0
176
     1
 62
     7
420
 16777215
176
     1
 90
        0
176
     1
 90
        0
176
     1
 62
     7
176
     1
 62
   257
176
     1
 90
        1
176
     1
 90
        1
176
     1
 40
1.0
176
     1
 90
        8
176
     1
 62
     7
176
     1
 40
1.0
176
     1
 90
        1
176
     1
 90
        6
176
     1
 90
        2
176
     1
 62
     7
176
     1
 90
        5
176
     1
 90
        0
176
     1
 90
        0
176
     1
290
     0
176
     1
 90
       13
176
     1
 40
0.0
176
     1
 90
        0
176
     1
290
     0
176
     1
290
     1
176
     1
290
     1
176
     1
290
     0
176
     1
290
     0
176
     1
290
     0
176
     1
290
     0
176
     1
290
     0
176
     1
290
     0
176
     1
 90
       50
176
     1
 40
0.0
176
     1
 40
1.0
176
     1
 90
        0
176
     1
 62
    18
420
        0
176
     1
 90
       50
176
     1
 90
        3
176
     1
 62
     5
420
      255
176
     1
290
     0
176
     1
 90
       50
176
     1
 90
       50
176
     1
 90
       50
176
     1
290
     0
176
     1
 90
       50
176
     1
 62
   256
176
     0
 40
1.0
176
     0
 90
        2
176
     1
  1
strokes_ogs.tif
176
     1
290
     0
176
     1
 40
1.0
176
     1
 40
1.0
176
     1
1001
ACAD
1000
AcDbSavedByObjectVersion
1070
     0
  0
VISUALSTYLE
  5
F1
102
{ACAD_REACTORS
330
EF
102
}
330
EF
100
AcDbVisualStyle
  2
FlatWithEdges
 70
     1
177
     3
291
     1
 70
    58
 90
        2
176
     1
 90
        1
176
     1
 90
        1
176
     1
 90
        2
176
     1
 40
0.6
176
     1
 40
30.0
176
     1
 62
     7
420
 16777215
176
     1
 90
        1
176
     1
 90
        0
176
     1
 62
     7
176
     1
 62
   257
176
     1
 90
        1
176
     1
 90
        1
176
     1
 40
1.0
176
     1
 90
        0
176
     1
 62
   257
176
     1
 40
1.0
176
     1
 90
        1
176
     1
 90
        6
176
     1
 90
        2
176
     1
 62
     7
176
     1
 90
        5
176
     1
 90
        0
176
     1
 90
        0
176
     1
290
     0
176
     1
 90
       13
176
     1
 40
0.0
176
     1
 90
        0
176
     1
290
     0
176
     1
290
     1
176
     1
290
     1
176
     1
290
     0
176
     1
290
     0
176
     1
290
     0
176
     1
290
     0
176
     1
290
     0
176
     1
290
     0
176
     1
 90
       50
176
     1
 40
0.0
176
     1
 40
1.0
176
     1
 90
        0
176
     1
 62
    18
420
        0
176
     1
 90
       50
176
     1
 90
        3
176
     1
 62
     5
420
      255
176
     1
290
     0
176
     1
 90
       50
176
     1
 90
       50
176
     1
 90
       50
176
     1
290
     0
176
     1
 90
       50
176
     1
 62
   256
176
     0
 40
1.0
176
     0
 90
        2
176
     1
  1
strokes_ogs.tif
176
     1
290
     0
176
     1
 40
1.0
176
     1
 40
1.0
176
     1
1001
ACAD
1000
AcDbSavedByObjectVersion
1070
     0
  0
VISUALSTYLE
  5
F2
102
{ACAD_REACTORS
330
EF
102
}
330
EF
100
AcDbVisualStyle
  2
Gouraud
 70
     2
177
     3
291
     1
 70
    58
 90
        2
176
     1
 90
        2
176
     1
 90
        1
176
     1
 90
        2
176
     1
 40
0.6
176
     1
 40
30.0
176
     1
 62
     7
420
 16777215
176
     1
 90
        0
176
     1
 90
        0
176
     1
 62
     7
176
     1
 62
   257
176
     1
 90
        1
176
     1
 90
        1
176
     1
 40
1.0
176
     1
 90
        0
176
     1
 62
     7
176
     1
 40
1.0
176
     1
 90
        1
176
     1
 90
        6
176
     1
 90
        2
176
     1
 62
     7
176
     1
 90
        5
176
     1
 90
        0
176
     1
 90
        0
176
     1
290
     0
176
     1
 90
       13
176
     1
 40
0.0
176
     1
 90
        0
176
     1
290
     0
176
     1
290
     1
176
     1
290
     1
176
     1
290
     0
176
     1
290
     0
176
     1
290
     0
176
     1
290
     0
176
     1
290
     0
176
     1
290
     0
176
     1
 90
       50
176
     1
 40
0.0
176
     1
 40
1.0
176
     1
 90
        0
176
     1
 62
    18
420
        0
176
     1
 90
       50
176
     1
 90
        3
176
     1
 62
     5
420
      255
176
     1
290
     0
176
     1
 90
       50
176
     1
 90
       50
176
     1
 90
       50
176
     1
290
     0
176
     1
 90
       50
176
     1
 62
   256
176
     0
 40
1.0
176
     0
 90
        2
176
     1
  1
strokes_ogs.tif
176
     1
290
     0
176
     1
 40
1.0
176
     1
 40
1.0
176
     1
1001
ACAD
1000
AcDbSavedByObjectVersion
1070
     0
  0
VISUALSTYLE
  5
F3
102
{ACAD_REACTORS
330
EF
102
}
330
EF
100
AcDbVisualStyle
  2
GouraudWithEdges
 70
     3
177
     3
291
     1
 70
    58
 90
        2
176
     1
 90
        2
176
     1
 90
        1
176
     1
 90
        2
176
     1
 40
0.6
176
     1
 40
30.0
176
     1
 62
     7
420
 16777215
176
     1
 90
        1
176
     1
 90
        0
176
     1
 62
     7
176
     1
 62
   257
176
     1
 90
        1
176
     1
 90
        1
176
     1
 40
1.0
176
     1
 90
        0
176
     1
 62
   257
176
     1
 40
1.0
176
     1
 90
        1
176
     1
 90
        6
176
     1
 90
        2
176
     1
 62
     7
176
     1
 90
        5
176
     1
 90
        0
176
     1
 90
        0
176
     1
290
     0
176
     1
 90
       13
176
     1
 40
0.0
176
     1
 90
        0
176
     1
290
     0
176
     1
290
     1
176
     1
290
     1
176
     1
290
     0
176
     1
290
     0
176
     1
290
     0
176
     1
290
     0
176
     1
290
     0
176
     1
290
     0
176
     1
 90
       50
176
     1
 40
0.0
176
     1
 40
1.0
176
     1
 90
        0
176
     1
 62
    18
420
        0
176
     1
 90
       50
176
     1
 90
        3
176
     1
 62
     5
420
      255
176
     1
290
     0
176
     1
 90
       50
176
     1
 90
       50
176
     1
 90
       50
176
     1
290
     0
176
     1
 90
       50
176
     1
 62
   256
176
     0
 40
1.0
176
     0
 90
        2
176
     1
  1
strokes_ogs.tif
176
     1
290
     0
176
     1
 40
1.0
176
     1
 40
1.0
176
     1
1001
ACAD
1000
AcDbSavedByObjectVersion
1070
     0
  0
VISUALSTYLE
  5
F7
102
{ACAD_REACTORS
330
EF
102
}
330
EF
100
AcDbVisualStyle
  2
Hidden
 70
     6
177
     3
291
     0
 70
    58
 90
        1
176
     1
 90
        2
176
     1
 90
        2
176
     1
 90
        0
176
     1
 40
0.6
176
     1
 40
30.0
176
     1
 62
     7
420
 16777215
176
     1
 90
        2
176
     1
 90
        2
176
     1
 62
     7
176
     1
 62
   257
176
     1
 90
        2
176
     1
 90
        1
176
     1
 40
40.0
176
     1
 90
        0
176
     1
 62
   257
176
     1
 40
1.0
176
     1
 90
        1
176
     1
 90
        6
176
     1
 90
        2
176
     1
 62
     7
176
     1
 90
        3
176
     1
 90
        0
176
     1
 90
        0
176
     1
290
     0
176
     1
 90
        1
176
     1
 40
0.0
176
     1
 90
        0
176
     1
290
     0
176
     1
290
     1
176
     1
290
     1
176
     1
290
     0
176
     1
290
     0
176
     1
290
     0
176
     1
290
     0
176
     1
290
     0
176
     1
290
     0
176
     1
 90
       50
176
     1
 40
0.0
176
     1
 40
1.0
176
     1
 90
        0
176
     1
 62
    18
420
        0
176
     1
 90
       50
176
     1
 90
        3
176
     1
 62
     5
420
      255
176
     1
290
     0
176
     1
 90
       50
176
     1
 90
       50
176
     1
 90
       50
176
     1
290
     0
176
     1
 90
       50
176
     1
 62
   256
176
     0
 40
1.0
176
     0
 90
        2
176
     1
  1
strokes_ogs.tif
176
     1
290
     0
176
     1
 40
1.0
176
     1
 40
1.0
176
     1
1001
ACAD
1000
AcDbSavedByObjectVersion
1070
     0
  0
VISUALSTYLE
  5
1E4
102
{ACAD_REACTORS
330
EF
102
}
330
EF
100
AcDbVisualStyle
  2
JitterOff
 70
    20
177
     3
291
     1
 70
    58
 90
        2
176
     0
 90
        2
176
     0
 90
        0
176
     0
 90
        0
176
     0
 40
0.6
176
     0
 40
30.0
176
     0
 62
     7
420
 16777215
176
     0
 90
        1
176
     0
 90
        4
176
     0
 62
     7
176
     0
 62
   257
176
     0
 90
        1
176
     0
 90
        1
176
     0
 40
1.0
176
     0
 90
       10
176
     2
 62
     7
176
     0
 40
1.0
176
     0
 90
        1
176
     0
 90
        6
176
     0
 90
        2
176
     0
 62
     7
176
     0
 90
        5
176
     0
 90
        0
176
     0
 90
        0
176
     0
290
     0
176
     0
 90
        1
176
     0
 40
0.0
176
     0
 90
        0
176
     0
290
     0
176
     1
290
     1
176
     1
290
     1
176
     1
290
     0
176
     1
290
     0
176
     1
290
     0
176
     1
290
     0
176
     1
290
     0
176
     1
290
     0
176
     1
 90
       50
176
     1
 40
0.0
176
     1
 40
1.0
176
     1
 90
        0
176
     1
 62
    18
420
        0
176
     1
 90
       50
176
     1
 90
        3
176
     1
 62
     5
420
      255
176
     1
290
     0
176
     1
 90
       50
176
     1
 90
       50
176
     1
 90
       50
176
     1
290
     0
176
     1
 90
       50
176
     1
 62
   256
176
     0
 40
1.0
176
     0
 90
        2
176
     1
  1
strokes_ogs.tif
176
     1
290
     0
176
     1
 40
1.0
176
     1
 40
1.0
176
     1
1001
ACAD
1000
AcDbSavedByObjectVersion
1070
     0
  0
VISUALSTYLE
  5
FD
102
{ACAD_REACTORS
330
EF
102
}
330
EF
100
AcDbVisualStyle
  2
Linepattern
 70
    14
177
     3
291
     1
 70
    58
 90
        2
176
     1
 90
        2
176
     1
 90
        1
176
     1
 90
        0
176
     1
 40
0.6
176
     1
 40
30.0
176
     1
 62
     7
420
 16777215
176
     1
 90
        1
176
     1
 90
        4
176
     1
 62
     7
176
     1
 62
   257
176
     1
 90
        7
176
     1
 90
        7
176
     1
 40
1.0
176
     1
 90
        8
176
     1
 62
     7
176
     1
 40
1.0
176
     1
 90
        1
176
     1
 90
        6
176
     1
 90
        2
176
     1
 62
     7
176
     1
 90
        5
176
     1
 90
        0
176
     1
 90
        0
176
     1
290
     0
176
     1
 90
        1
176
     1
 40
0.0
176
     1
 90
        0
176
     1
290
     0
176
     1
290
     1
176
     1
290
     1
176
     1
290
     0
176
     1
290
     0
176
     1
290
     0
176
     1
290
     0
176
     1
290
     0
176
     1
290
     0
176
     1
 90
       50
176
     1
 40
0.0
176
     1
 40
1.0
176
     1
 90
        0
176
     1
 62
    18
420
        0
176
     1
 90
       50
176
     1
 90
        3
176
     1
 62
     5
420
      255
176
     1
290
     0
176
     1
 90
       50
176
     1
 90
       50
176
     1
 90
       50
176
     1
290
     0
176
     1
 90
       50
176
     1
 62
   256
176
     0
 40
1.0
176
     0
 90
        2
176
     1
  1
strokes_ogs.tif
176
     1
290
     0
176
     1
 40
1.0
176
     1
 40
1.0
176
     1
1001
ACAD
1000
AcDbSavedByObjectVersion
1070
     0
  0
VISUALSTYLE
  5
1E5
102
{ACAD_REACTORS
330
EF
102
}
330
EF
100
AcDbVisualStyle
  2
OverhangOff
 70
    21
177
     3
291
     1
 70
    58
 90
        2
176
     0
 90
        2
176
     0
 90
        0
176
     0
 90
        0
176
     0
 40
0.6
176
     0
 40
30.0
176
     0
 62
     7
420
 16777215
176
     0
 90
        1
176
     0
 90
        4
176
     0
 62
     7
176
     0
 62
   257
176
     0
 90
        1
176
     0
 90
        1
176
     0
 40
1.0
176
     0
 90
        9
176
     2
 62
     7
176
     0
 40
1.0
176
     0
 90
        1
176
     0
 90
        6
176
     0
 90
        2
176
     0
 62
     7
176
     0
 90
        5
176
     0
 90
        0
176
     0
 90
        0
176
     0
290
     0
176
     0
 90
        1
176
     0
 40
0.0
176
     0
 90
        0
176
     0
290
     0
176
     1
290
     1
176
     1
290
     1
176
     1
290
     0
176
     1
290
     0
176
     1
290
     0
176
     1
290
     0
176
     1
290
     0
176
     1
290
     0
176
     1
 90
       50
176
     1
 40
0.0
176
     1
 40
1.0
176
     1
 90
        0
176
     1
 62
    18
420
        0
176
     1
 90
       50
176
     1
 90
        3
176
     1
 62
     5
420
      255
176
     1
290
     0
176
     1
 90
       50
176
     1
 90
       50
176
     1
 90
       50
176
     1
290
     0
176
     1
 90
       50
176
     1
 62
   256
176
     0
 40
1.0
176
     0
 90
        2
176
     1
  1
strokes_ogs.tif
176
     1
290
     0
176
     1
 40
1.0
176
     1
 40
1.0
176
     1
1001
ACAD
1000
AcDbSavedByObjectVersion
1070
     0
  0
VISUALSTYLE
  5
F9
102
{ACAD_REACTORS
330
EF
102
}
330
EF
100
AcDbVisualStyle
  2
Realistic
 70
     8
177
     3
291
     0
 70
    58
 90
        2
176
     1
 90
        3
176
     1
 90
        0
176
     1
 90
        2
176
     1
 40
0.6
176
     1
 40
30.0
176
     1
 62
     7
420
 16777215
176
     1
 90
        0
176
     1
 90
        0
176
     1
 62
     7
176
     1
 62
   257
176
     1
 90
        1
176
     1
 90
        1
176
     1
 40
1.0
176
     1
 90
        8
176
     1
 62
   257
176
     1
 40
1.0
176
     1
 90
        1
176
     1
 90
        6
176
     1
 90
        2
176
     1
 62
     7
176
     1
 90
        3
176
     1
 90
        0
176
     1
 90
        0
176
     1
290
     0
176
     1
 90
       13
176
     1
 40
0.0
176
     1
 90
        0
176
     1
290
     0
176
     1
290
     1
176
     1
290
     1
176
     1
290
     0
176
     1
290
     0
176
     1
290
     0
176
     1
290
     0
176
     1
290
     0
176
     1
290
     0
176
     1
 90
       50
176
     1
 40
0.0
176
     1
 40
1.0
176
     1
 90
        0
176
     1
 62
    18
420
        0
176
     1
 90
       50
176
     1
 90
        3
176
     1
 62
     5
420
      255
176
     1
290
     0
176
     1
 90
       50
176
     1
 90
       50
176
     1
 90
       50
176
     1
290
     0
176
     1
 90
       50
176
     1
 62
   256
176
     0
 40
1.0
176
     0
 90
        2
176
     1
  1
strokes_ogs.tif
176
     1
290
     0
176
     1
 40
1.0
176
     1
 40
1.0
176
     1
1001
ACAD
1000
AcDbSavedByObjectVersion
1070
     0
  0
VISUALSTYLE
  5
1F3
102
{ACAD_REACTORS
330
EF
102
}
330
EF
100
AcDbVisualStyle
  2
Shaded
 70
    27
177
     3
291
     0
 70
    58
 90
        2
176
     1
 90
        2
176
     1
 90
        1
176
     1
 90
        2
176
     1
 40
0.6
176
     1
 40
30.0
176
     1
 62
     7
420
 16777215
176
     1
 90
        0
176
     1
 90
        4
176
     1
 62
     7
176
     1
 62
   257
176
     1
 90
        1
176
     1
 90
        1
176
     1
 40
1.0
176
     1
 90
        8
176
     1
 62
   257
176
     1
 40
1.0
176
     1
 90
        1
176
     1
 90
        6
176
     1
 90
        2
176
     1
 62
     8
420
  7895160
176
     1
 90
        3
176
     1
 90
        0
176
     1
 90
        0
176
     1
290
     0
176
     1
 90
        5
176
     1
 40
0.0
176
     1
 90
        0
176
     1
290
     0
176
     1
290
     1
176
     1
290
     1
176
     1
290
     0
176
     1
290
     0
176
     1
290
     0
176
     1
290
     0
176
     1
290
     0
176
     1
290
     0
176
     1
 90
       50
176
     1
 40
0.0
176
     1
 40
1.0
176
     1
 90
        0
176
     1
 62
    18
420
        0
176
     1
 90
       50
176
     1
 90
        3
176
     1
 62
     5
420
      255
176
     1
290
     0
176
     1
 90
       50
176
     1
 90
       50
176
     1
 90
       50
176
     1
290
     0
176
     1
 90
       50
176
     1
 62
   256
176
     0
 40
1.0
176
     0
 90
        2
176
     1
  1
strokes_ogs.tif
176
     1
290
     0
176
     1
 40
1.0
176
     1
 40
1.0
176
     1
1001
ACAD
1000
AcDbSavedByObjectVersion
1070
     0
  0
VISUALSTYLE
  5
1F2
102
{ACAD_REACTORS
330
EF
102
}
330
EF
100
AcDbVisualStyle
  2
Shaded with edges
 70
    26
177
     3
291
     0
 70
    58
 90
        2
176
     1
 90
        2
176
     1
 90
        1
176
     1
 90
        2
176
     1
 40
0.6
176
     1
 40
30.0
176
     1
 62
     7
420
 16777215
176
     1
 90
        1
176
     1
 90
        2
176
     1
 62
     7
176
     1
 62
   257
176
     1
 90
        2
176
     1
 90
        1
176
     1
 40
1.0
176
     1
 90
        8
176
     1
 62
   257
176
     1
 40
1.0
176
     1
 90
        1
176
     1
 90
        6
176
     1
 90
        2
176
     1
 62
     7
176
     1
 90
        3
176
     1
 90
        0
176
     1
 90
        0
176
     1
290
     0
176
     1
 90
        5
176
     1
 40
0.0
176
     1
 90
        0
176
     1
290
     0
176
     1
290
     1
176
     1
290
     1
176
     1
290
     0
176
     1
290
     0
176
     1
290
     0
176
     1
290
     0
176
     1
290
     0
176
     1
290
     0
176
     1
 90
       50
176
     1
 40
0.0
176
     1
 40
1.0
176
     1
 90
        0
176
     1
 62
    18
420
        0
176
     1
 90
       50
176
     1
 90
        3
176
     1
 62
     5
420
      255
176
     1
290
     0
176
     1
 90
       50
176
     1
 90
       50
176
     1
 90
       50
176
     1
290
     0
176
     1
 90
       50
176
     1
 62
   256
176
     0
 40
1.0
176
     0
 90
        2
176
     1
  1
strokes_ogs.tif
176
     1
290
     0
176
     1
 40
1.0
176
     1
 40
1.0
176
     1
1001
ACAD
1000
AcDbSavedByObjectVersion
1070
     0
  0
VISUALSTYLE
  5
1EF
102
{ACAD_REACTORS
330
EF
102
}
330
EF
100
AcDbVisualStyle
  2
Shades of Gray
 70
    23
177
     3
291
     0
 70
    58
 90
        2
176
     1
 90
        2
176
     1
 90
        3
176
     1
 90
        0
176
     1
 40
0.6
176
     1
 40
30.0
176
     1
 62
     7
420
 16777215
176
     1
 90
        2
176
     1
 90
        2
176
     1
 62
     7
176
     1
 62
     7
176
     1
 90
        1
176
     1
 90
        1
176
     1
 40
40.0
176
     1
 90
        8
176
     1
 62
     7
176
     1
 40
1.0
176
     1
 90
        1
176
     1
 90
        6
176
     1
 90
        2
176
     1
 62
     7
176
     1
 90
        3
176
     1
 90
        0
176
     1
 90
        0
176
     1
290
     0
176
     1
 90
        1
176
     1
 40
0.0
176
     1
 90
        0
176
     1
290
     0
176
     1
290
     1
176
     1
290
     1
176
     1
290
     0
176
     1
290
     0
176
     1
290
     0
176
     1
290
     0
176
     1
290
     0
176
     1
290
     0
176
     1
 90
       50
176
     1
 40
0.0
176
     1
 40
1.0
176
     1
 90
        0
176
     1
 62
    18
420
        0
176
     1
 90
       50
176
     1
 90
        3
176
     1
 62
     5
420
      255
176
     1
290
     0
176
     1
 90
       50
176
     1
 90
       50
176
     1
 90
       50
176
     1
290
     0
176
     1
 90
       50
176
     1
 62
   256
176
     0
 40
1.0
176
     0
 90
        2
176
     1
  1
strokes_ogs.tif
176
     1
290
     0
176
     1
 40
1.0
176
     1
 40
1.0
176
     1
1001
ACAD
1000
AcDbSavedByObjectVersion
1070
     0
  0
VISUALSTYLE
  5
1F0
102
{ACAD_REACTORS
330
EF
102
}
330
EF
100
AcDbVisualStyle
  2
Sketchy
 70
    24
177
     3
291
     0
 70
    58
 90
        1
176
     1
 90
        2
176
     1
 90
        2
176
     1
 90
        0
176
     1
 40
0.6
176
     1
 40
30.0
176
     1
 62
     7
420
 16777215
176
     1
 90
        2
176
     1
 90
        2
176
     1
 62
     7
176
     1
 62
     7
176
     1
 90
        1
176
     1
 90
        1
176
     1
 40
40.0
176
     1
 90
       11
176
     1
 62
     7
176
     1
 40
1.0
176
     1
 90
        1
176
     1
 90
        6
176
     1
 90
        2
176
     1
 62
     7
176
     1
 90
        6
176
     1
 90
        0
176
     1
 90
        0
176
     1
290
     0
176
     1
 90
        1
176
     1
 40
0.0
176
     1
 90
        0
176
     1
290
     0
176
     1
290
     1
176
     1
290
     1
176
     1
290
     0
176
     1
290
     0
176
     1
290
     0
176
     1
290
     0
176
     1
290
     0
176
     1
290
     0
176
     1
 90
       50
176
     1
 40
0.0
176
     1
 40
1.0
176
     1
 90
        0
176
     1
 62
    18
420
        0
176
     1
 90
       50
176
     1
 90
        3
176
     1
 62
     5
420
      255
176
     1
290
     0
176
     1
 90
       50
176
     1
 90
       50
176
     1
 90
       50
176
     1
290
     0
176
     1
 90
       50
176
     1
 62
   256
176
     0
 40
1.0
176
     0
 90
        2
176
     1
  1
strokes_ogs.tif
176
     1
290
     0
176
     1
 40
1.0
176
     1
 40
1.0
176
     1
1001
ACAD
1000
AcDbSavedByObjectVersion
1070
     0
  0
VISUALSTYLE
  5
FC
102
{ACAD_REACTORS
330
EF
102
}
330
EF
100
AcDbVisualStyle
  2
Thicken
 70
    13
177
     3
291
     1
 70
    58
 90
        2
176
     1
 90
        2
176
     1
 90
        1
176
     1
 90
        0
176
     1
 40
0.6
176
     1
 40
30.0
176
     1
 62
     7
420
 16777215
176
     1
 90
        1
176
     1
 90
        4
176
     1
 62
     7
176
     1
 62
   257
176
     1
 90
        1
176
     1
 90
        1
176
     1
 40
1.0
176
     1
 90
       12
176
     1
 62
     7
176
     1
 40
1.0
176
     1
 90
        1
176
     1
 90
        6
176
     1
 90
        2
176
     1
 62
     7
176
     1
 90
        5
176
     1
 90
        0
176
     1
 90
        0
176
     1
290
     0
176
     1
 90
        1
176
     1
 40
0.0
176
     1
 90
        0
176
     1
290
     0
176
     1
290
     1
176
     1
290
     1
176
     1
290
     0
176
     1
290
     0
176
     1
290
     0
176
     1
290
     0
176
     1
290
     0
176
     1
290
     0
176
     1
 90
       50
176
     1
 40
0.0
176
     1
 40
1.0
176
     1
 90
        0
176
     1
 62
    18
420
        0
176
     1
 90
       50
176
     1
 90
        3
176
     1
 62
     5
420
      255
176
     1
290
     0
176
     1
 90
       50
176
     1
 90
       50
176
     1
 90
       50
176
     1
290
     0
176
     1
 90
       50
176
     1
 62
   256
176
     0
 40
1.0
176
     0
 90
        2
176
     1
  1
strokes_ogs.tif
176
     1
290
     0
176
     1
 40
1.0
176
     1
 40
1.0
176
     1
1001
ACAD
1000
AcDbSavedByObjectVersion
1070
     0
  0
VISUALSTYLE
  5
F6
102
{ACAD_REACTORS
330
EF
102
}
330
EF
100
AcDbVisualStyle
  2
Wireframe
 70
     5
177
     3
291
     0
 70
    58
 90
        0
176
     1
 90
        2
176
     1
 90
        0
176
     1
 90
        0
176
     1
 40
0.6
176
     1
 40
30.0
176
     1
 62
     7
420
 16777215
176
     1
 90
        1
176
     1
 90
        4
176
     1
 62
     7
176
     1
 62
   257
176
     1
 90
        1
176
     1
 90
        1
176
     1
 40
1.0
176
     1
 90
        0
176
     1
 62
   257
176
     1
 40
1.0
176
     1
 90
        1
176
     1
 90
        6
176
     1
 90
        2
176
     1
 62
     7
176
     1
 90
        3
176
     1
 90
        0
176
     1
 90
        0
176
     1
290
     0
176
     1
 90
        1
176
     1
 40
0.0
176
     1
 90
        0
176
     1
290
     0
176
     1
290
     1
176
     1
290
     1
176
     1
290
     0
176
     1
290
     0
176
     1
290
     0
176
     1
290
     0
176
     1
290
     0
176
     1
290
     0
176
     1
 90
       50
176
     1
 40
0.0
176
     1
 40
1.0
176
     1
 90
        0
176
     1
 62
    18
420
        0
176
     1
 90
       50
176
     1
 90
        3
176
     1
 62
     5
420
      255
176
     1
290
     0
176
     1
 90
       50
176
     1
 90
       50
176
     1
 90
       50
176
     1
290
     0
176
     1
 90
       50
176
     1
 62
   256
176
     0
 40
1.0
176
     0
 90
        2
176
     1
  1
strokes_ogs.tif
176
     1
290
     0
176
     1
 40
1.0
176
     1
 40
1.0
176
     1
1001
ACAD
1000
AcDbSavedByObjectVersion
1070
     0
  0
VISUALSTYLE
  5
1F1
102
{ACAD_REACTORS
330
EF
102
}
330
EF
100
AcDbVisualStyle
  2
X-Ray
 70
    25
177
     3
291
     0
 70
    58
 90
        2
176
     1
 90
        2
176
     1
 90
        1
176
     1
 90
        1
176
     1
 40
0.5
176
     1
 40
30.0
176
     1
 62
     7
420
 16777215
176
     1
 90
        1
176
     1
 90
        0
176
     1
 62
     7
176
     1
 62
   257
176
     1
 90
        1
176
     1
 90
        1
176
     1
 40
1.0
176
     1
 90
        8
176
     1
 62
     7
176
     1
 40
1.0
176
     1
 90
        1
176
     1
 90
        6
176
     1
 90
        2
176
     1
 62
     7
176
     1
 90
        3
176
     1
 90
        0
176
     1
 90
        0
176
     1
290
     0
176
     1
 90
       13
176
     1
 40
0.0
176
     1
 90
        0
176
     1
290
     0
176
     1
290
     1
176
     1
290
     1
176
     1
290
     0
176
     1
290
     0
176
     1
290
     0
176
     1
290
     0
176
     1
290
     0
176
     1
290
     0
176
     1
 90
       50
176
     1
 40
0.0
176
     1
 40
1.0
176
     1
 90
        0
176
     1
 62
    18
420
        0
176
     1
 90
       50
176
     1
 90
        3
176
     1
 62
     5
420
      255
176
     1
290
     0
176
     1
 90
       50
176
     1
 90
       50
176
     1
 90
       50
176
     1
290
     0
176
     1
 90
       50
176
     1
 62
   256
176
     0
 40
1.0
176
     0
 90
        2
176
     1
  1
strokes_ogs.tif
176
     1
290
     0
176
     1
 40
1.0
176
     1
 40
1.0
176
     1
1001
ACAD
1000
AcDbSavedByObjectVersion
1070
     0
  0
DICTIONARYVAR
  5
146
102
{ACAD_REACTORS
330
5E
102
}
330
5E
100
DictionaryVariables
280
     0
  1
1:1
  0
DICTIONARYVAR
  5
259
102
{ACAD_REACTORS
330
5E
102
}
330
5E
100
DictionaryVariables
280
     0
  1
3.500000
  0
DICTIONARYVAR
  5
25A
102
{ACAD_REACTORS
330
5E
102
}
330
5E
100
DictionaryVariables
280
     0
  1
acadiso.lin
  0
DICTIONARYVAR
  5
145
102
{ACAD_REACTORS
330
5E
102
}
330
5E
100
DictionaryVariables
280
     0
  1
STANDARD
  0
DICTIONARYVAR
  5
84
102
{ACAD_REACTORS
330
5E
102
}
330
5E
100
DictionaryVariables
280
     0
  1
STANDARD
  0
DICTIONARYVAR
  5
227
102
{ACAD_REACTORS
330
5E
102
}
330
5E
100
DictionaryVariables
280
     0
  1
Metric50
  0
DICTIONARYVAR
  5
228
102
{ACAD_REACTORS
330
5E
102
}
330
5E
100
DictionaryVariables
280
     0
  1
Metric50
  0
DICTIONARYVAR
  5
5F
102
{ACAD_REACTORS
330
5E
102
}
330
5E
100
DictionaryVariables
280
     0
  1
2
  0
DICTIONARYVAR
  5
63
102
{ACAD_REACTORS
330
5E
102
}
330
5E
100
DictionaryVariables
280
     0
  1
1
  0
DICTIONARYVAR
  5
1AE
102
{ACAD_REACTORS
330
5E
102
}
330
5E
100
DictionaryVariables
280
     0
  1
0
  0
DICTIONARYVAR
  5
1AF
102
{ACAD_REACTORS
330
5E
102
}
330
5E
100
DictionaryVariables
280
     0
  1
0
  0
DICTIONARY
  5
3B5
102
{ACAD_REACTORS
330
3B3
102
}
330
3B3
100
AcDbDictionary
281
     1
  0
DICTIONARY
  5
3B4
102
{ACAD_REACTORS
330
3B3
102
}
330
3B3
100
AcDbDictionary
281
     1
  3
2058815522816
350
3B0
  3
2058815522832
350
3B1
  3
2058815522848
350
3B2
  3
2093179420512
350
3AE
  3
2093179420528
350
3AF
  0
DICTIONARY
  5
3BC
330
28F
100
AcDbDictionary
280
     1
281
     1
  3
ACAD_XREC_ROUNDTRIP
360
3BD
  0
DICTIONARY
  5
3B8
330
21C
100
AcDbDictionary
280
     1
281
     1
  3
ACAD_XREC_ROUNDTRIP
360
3B9
  0
DICTIONARY
  5
205
330
22
100
AcDbDictionary
280
     1
281
     1
  0
DICTIONARY
  5
1F9
330
ED
100
AcDbDictionary
280
     1
281
     1
  3
FBXASSET
360
1FA
  0
DICTIONARY
  5
1F7
330
EC
100
AcDbDictionary
280
     1
281
     1
  3
FBXASSET
360
1F8
  0
DICTIONARY
  5
173
330
EE
100
AcDbDictionary
280
     1
281
     1
  3
BUMPTILE
360
175
  3
DIFFUSETILE
360
174
  3
FBXASSET
360
1FB
  3
OPACITYTILE
360
176
  3
REFLECTIONTILE
360
177
  0
DICTIONARY
  5
3BA
330
28E
100
AcDbDictionary
280
     1
281
     1
  3
ACAD_XREC_ROUNDTRIP
360
3BB
  0
DICTIONARY
  5
3B6
330
21A
100
AcDbDictionary
280
     1
281
     1
  3
ACAD_XREC_ROUNDTRIP
360
3B7
  0
DICTIONARY
  5
162
330
7F
100
AcDbDictionary
280
     1
281
     1
  3
ACAD_ROUNDTRIP_2008_TABLESTYLE_CELLSTYLEMAP
360
3AC
  0
XRECORD
  5
3B0
102
{ACAD_REACTORS
330
3B4
102
}
330
3B4
100
AcDbXrecord
280
     1
  1
AcDbDs::LegacySchema
  2
AcDbDs::Legacy
280
     1
 91
        0
  0
XRECORD
  5
3B1
102
{ACAD_REACTORS
330
3B4
102
}
330
3B4
100
AcDbXrecord
280
     1
  1
AcDbDs::IndexedPropertySchema
  2
AcDs:Indexable
280
     1
 91
        0
  0
XRECORD
  5
3B2
102
{ACAD_REACTORS
330
3B4
102
}
330
3B4
100
AcDbXrecord
280
     1
  1
AcDbDs::HandleAttributeSchema
  2
AcDbDs::HandleAttribute
280
     7
 91
        1
284
     1
  0
XRECORD
  5
3AE
102
{ACAD_REACTORS
330
3B4
102
}
330
3B4
100
AcDbXrecord
280
     1
  1
AcDb_Thumbnail_Schema
102
{ATTRRECORD
341
3AF
  2
AcDbDs::TreatedAsObjectData
280
     1
291
     1
102
ATTRRECORD}
102
{ATTRRECORD
341
3B0
  2
AcDbDs::Legacy
280
     1
291
     1
102
ATTRRECORD}
  2
AcDbDs::ID
280
    10
 91
        8
102
{ATTRRECORD
341
3B1
  2
AcDs:Indexable
280
     1
291
     1
102
ATTRRECORD}
102
{ATTRRECORD
341
3B2
  2
AcDbDs::HandleAttribute
280
     7
282
     1
102
ATTRRECORD}
  2
Thumbnail_Data
280
    15
 91
        0
  0
XRECORD
  5
3AF
102
{ACAD_REACTORS
330
3B4
102
}
330
3B4
100
AcDbXrecord
280
     1
  1
AcDbDs::TreatedAsObjectDataSchema
  2
AcDbDs::TreatedAsObjectData
280
     1
 91
        0
  0
XRECORD
  5
3BD
102
{ACAD_REACTORS
330
3BC
102
}
330
3BC
100
AcDbXrecord
280
     1
102
DISPLAYNAME
  1
Imperial24
102
FLAGS
 90
        0
  0
XRECORD
  5
3B9
102
{ACAD_REACTORS
330
3B8
102
}
330
3B8
100
AcDbXrecord
280
     1
102
DISPLAYNAME
  1
Metric50
102
FLAGS
 90
        0
  0
XRECORD
  5
1FA
102
{ACAD_REACTORS
330
1F9
102
}
330
1F9
100
AcDbXrecord
280
     1
 70
     1
 90
429727718
  1
D62C5603-E3A1-4AEA-B7FB-FE5D8D0755AF
310
504B03040A0000080000CC70623B3DEE336E79000000790000001B0000006175746F6465736B2D64657369676E2D7061636B6167652E786D6C3C3F786D6C2076657273696F6E3D22312E302220656E636F64696E673D227574662D3822203F3E3C666F726D6174733E3C666F726D61743E687474703A2F2F736368656D612E
310
6175746F6465736B2E636F6D2F64657369676E2D7061636B6167652F323030393C2F666F726D61743E3C2F666F726D6174733E504B0304140006080800CC70623BD486FD9CA0000000F4000000130000005B436F6E74656E745F54797065735D2E786D6C7D8EC10E82300C865F65E91D8A1E8C310C0EEA1BF002731658846E
310
D98AC1B77784ABF1D8FE5FBFBF75BBCE937A534CCEB38643598122B6FEE978D0B0485F9C41B54DDD7D022595594E1A469170414C76A4D9A4D207E29CF43ECE46F218070CC6BECC4078ACAA135ACF422C856C0E68EA1BF5669944DDD7BCDE7B1F8E415D77AECB980613C2E4AC91FC167A2B244592486606FC29C8FD7F045B9A
310
EF7053A7E60B504B0304140006080800CC70623B853B8169EB0000007C01000008000000636F72652E786D6C8D90416EC3201045AF62CDB6C206821CC7C244919D9CA01740401C94182C03558F5F9C3852BBEB6A467FFE9B197D7EFC9E1EC5975982F5AE035262288C535E5B377690E21535501C055FBC8FBF6C503839990E
310
5619041F179FE64D52DE45E362569DD7661365082642A11EB9E920A89B99642953CC8E702F67A9EE7234257977194EC9EAE275C4EABCCF5EAD5940D4AC6F0E35A568B8F43562CD7046CD199FD07E60174276A7BE677B5EADB0E0D14EEFFB6A31321A0D82627C4084204C3F096B71DD52F6819B16635EADF63F509AF53FA164
310
5DDCD1EDDD17164090FCC8732078B56691CB33A85CD7DCC40F504B0304140006080800CC70623B55019EA25F0000007C00000007000000636E782E786D6C4DCB3B0E80201045D1AD90E915ED2CF8AC45050C11660C8261F98AB1B07AC9C97D42D718D865D3E909258CFD00CCE24AC6E326A164D74DC0B4128928FF32603847
310
2BA13128B1252AC747C6BAB984FC68F0B87FE8960A5C09FE86CFB69FBA01504B0304140006080800CC70623BDBABAAF470010000D40300000C0000006662782F636F72652E786D6CC553D16E823014FD95A6AF4B694182CC941A83FA05FB810A9511A125A5257EFE2E82712ECEB8A7F100CD39F7F69E734AF9FADC366850B6
310
AF8DCE7018308C942E4C59EB2AC3DE1D498AD15A706B8CFB56869196ADCAF00863C12B6B7C374385D14E6907A836A59A41D9F7CA615434B0C8705F7CAA5606D23BA8E84F41278B93AC54100640439DE0BDB320004D43C63716C7C399D30917DCFBBA9CD9BA8469F5B156168B24CED3F7248AC8769F27244EB73B92EED8862C
310
B7F13E0C179B3C8F979C8ECD82BBBABDAA2BAC924E9558448CBD9330242CFA08E3154B5651FCC6D215639C8EE5774DBE2B5F6CF2B5768B68963BB5F5588420E442FC700B1139D4CB01F450C1E918227C2E09DF070D8140C84E1E9AAB8F1340832A9CB13130A5F1376A908D57309505ECF2A0DF179C4E9D30F5B239B87E3823
310
7A79C6F31DE1A8A5AEC08474B03C7837EAE4938639B44E5932B833D2C6B6B279CDC613877FA26EE21F4A2A4C63EC7F29A2F301D1F9F7A0E37D145F504B0304140006080800CC70623B9C113CC27E0000009D0000000B0000006662782F636E782E786D6C4DCCDF0A83201C86E15B91DFB94BFB330DD428C8FB886521330DA7
310
6397BF1A1DECE883878F57749FCDA1B7892F1BBC047A23808C7F84D9FA55424E0BE6803A256208E9EF06C84F9B91703228B1C690F78B66B34CD9A5439DF5CF0BFBF65E35BCA1B8D6A5C6F540381E886698B5741C695F9503EBA150A2F8958E3DC3EA0B504B0304140006080800CC70623B7DF2F77C2A010000120200003100
310
00006662782F41393633353835312D344632462D344230382D423046372D3739314545314133324237412F636F72652E786D6C8D51DB8EC22014FC15C2939B0D2DB4B45643319AE817EC0F6041255A68B86CFCFC856D4D76DF7CE190393373060EDB3DC707F856CE6B6B7A480A0C81328395DA5C7B18C3057510EC3873D686
310
3F34088C18550F330C39BB3A1BA7051AAC09CA84841A2BD5020AEF55806078A44B0FFD7053A328440C89E1EFC52486BBB8AA8214A99D789CF9E05200300FC927E4FB4D5B375D43103D5527440FB843077C5AA3F5861C8F645F5787F59E95B390B318B55CE45AA638FAA2957BD7248B390B7A7CC51F9C124149C82B8C378810
310
84AB2F42B7B8DD56F413775B8C5999E9FF4471926F8AA236A1AE96B8B3CC434E5839373893369E1FAF30EA395917409EB7F26AF8801C171837A4A6AC9C89E9F9C9B1A58BA30FD6A5EF5DDDCF894B9AD9B6A59C957943A9FCAE2FD5BC4DFE03504B0304140006080800CC70623BAD7543B64E01000033030000300000006662
310
782F41393633353835312D344632462D344230382D423046372D3739314545314133324237412F636E782E786D6CD593CD6EC32010845F0571AD6CE3D48AD20813A9873E410FBD12D82434182C7EAAE6EDBB2424CD25871E7B41D6EC30B3FA84F9E67BB2E40B4234DE8DB46F1925E094D7C6ED479AD3AE5951B2113C789FEE
310
6C943839C1488B4C05DF079FE72A69D8C96C13AAD6B8631503449F83828872B949AC57D26200B826A308D316B4064D6E46FCDA41C05550DC9E483A00797BFD207EFB092A45DE9514C1BBD22178396BD39D891265658C238DEA00936C654E5E433CB65A26D9F6EDB5EBC14EBF49A45CB856E66048291F6939A9A81BB5C89177
310
38143CA680F4AA299D66A042CEB3354A2684DC9D8D178FE0D9B8B41CAAD720F880EE7EF93C0C18769E099ECC04D5A102C8049A8A05632F4DDF376CF1DE0F6BB65C2F8627B65A33C6BB62177CEBBDAD973006829F89F22E814B54F4BC2BE347F8AA8F681390B50FA73F804400B5F542E796F19FF974E7F78DB802FE05E20750
310
4B0304140006080800CC70623BE75B7789680500003C100000340000006662782F41393633353835312D344632462D344230382D423046372D3739314545314133324237412F6F626A656374732E786D6CAD575B8F9B3818FD2B887D06C22499CB8AA1CA655245D5B455A356FB305264C061D8018C6C3393D95FBFC7600890
310
A4CD5EF210B0B1BFEBF98E3F7B1FF6596ABC522E1296DF9BAE3D320D9A872C4AF2F8DE2CE5CEBA358D0FBEC719939D65A691938CDE9B6ADAF4BD98B3B2D05311DD91329583D9D5FC0F438434A7A611A644887B5384CF34233629258BA878B12322891DEFF6B66BD70BFB62634E8AE781D082709A4B588AF91C528CDA28B73F
310
1C998EEF39EABBEFA97FBD6A7C7E9553F9D3D79FE442923C3C523610337627CB87ABE99D359D4CC6D6E4FACAB5E6ABF9D2726FC6A3C5F56271377BB88362213924694B38DD99FE47C48627A1E7D49F5A8BB5E1A74C0A599ED3B0F21F1E56366B89112D681E218F0915D0D6F17AD41FBA2A369DCF6335D62ABBD39779D5DDD1
310
11D4D8DE3CBB96B2E04FB8202E41051754A1AA8E8F76B4C6DFE810B580B1547F4B84911149794252234D024EF8BBE963A95AE27B3D310A9D5C215C7960FAEE415ED75694C6AFB17BCACA5D99A60A9AA65F217B0BFC53292ACB92BF283FAD0D3621576592CB5BED907C2FA8E9DF794E35E97BEA31BED21FEB401ABB94C44839
310
DCACBF0E1C5DA8DA5B2F4DFFD32AD86F543D9E565E7056502E157C00AD2671CD534549AB752FCA9CDA00677A313F04E51B22FF19E57B300579E3C97EB29F682D92935CEC18CF901B7B54FD8C51F362B56FC72FE0B3C1EAE335EDCCBF5AEC39ADB17DC238973F804BA5E6F6BFE7AF1FB32E523BE9F3BD571418E3631DCA4D48
310
5250CF639223210A9446CA30052EDF057BD35F8329C1ECD84552BF0DC8D18BE7BCE23BFE6BD960AB4A7DE79923A103BEBD80F911CBAA2C60DB19B01CF164A5583B772EE6D3FFA56666CBCDA74DC97724A48F9A58967497E489C4D979006FD7A05E227A1EBDD0F737C623387A9C844D3709995625106D157315F8B8392CD4E0
310
A0B9A720C4BE9829CEF37EA1E13111214D53925356365ADA634861B52519DD27A00AEB808EAF0628E6F435519D446F45CF2C9CF5214F0A15B2F6D06B79DA3EE3CBF7F56780D2F4E7EF73A0F5E5B02A38D07DC852C6B7C1FBB6664213E0C39E3EBA7FF4E1AD23EA2829407C85E586727488B751B2DB9502BC7B228A3FD68B6E
310
A65A22397E690AA8D158D7E404EC8CDA235CC3B7D1898680131CEC2CDF2638C65196279577750F15884AEE19F94199155B92B13297978469D4F8D358DF0AEF7631E28DC8F0D9F437D5D39A83B2231A1D52D543813A824EF8D44BCFF2FA6A31BD1E8DAD87F1CCB526B3879935BF59CDADD5C37479BB1CDD4CA7B3556B516589
310
EF352754B706114D9C885EC9131DE6EFEB43D99AFE2391C2F958179413D7CFEF6B1B6DB1E7600F00DE6E5C67454A339A4BA2E0FBA85ED26F045D454F463DBFCE484C2F90F2E5E3666003662ED8F755951A7D1BECD5B30B550B2785C8E7320B7292A4838DDA71BBC863ED7613CAF659337A3354231D4FF4A182A54904C2898C
310
98B28C4AD0CE056CCF332A80986E571EE9DBC305BB5FEB7E509220A58D25CF042D712A806AC0AD0C657FDEF80D2D9CEAA2EE4D1C76F60BFE74219A06527D6F82DF6412526107381E55E353090704D085B52408A8913C4ED159D79BDA71BB4BC506F4831350EB6F975CD22D69BF7AC49B91A2C0A9DDA3D5CA36AD20FC478E37
310
E61844E2352865EBCB61A275A65283CAAA9DD27703B4102F5AF51EF5F573B75CBB5AD38BC845F7A49F82A0966A49C2E3EA5EA0ECD326CD965F1DB402C6FA8B51A4658C5C5E2EC9E214602E55810345408596591009A82E7E7FFACA19EEA299B14A0081A705CB3296EBC14CDF658DCD336EA6D1136881AAEB87B81AB9EE53D5
310
F5EB8BC8362082DA24122F98680A4E7930C01A0079749CEA14382A0783E5EBA5A10F8C098456A03D6A4AEB6BB881E2513747552A5DB22C7EDAF83BD5528081A365F7FF06504B0304140006080000CC70623B000000000000000000000000350000006662782F41393633353835312D344632462D344230382D423046372D37
310
39314545314133324237412F76657274696365732E62696E504B0304140006080800CC70623BF270F1330600000004000000360000006662782F41393633353835312D344632462D344230382D423046372D3739314545314133324237412F747269616E676C65732E62696E636660600000504B0304140006080000CC7062
310
3B000000000000000000000000370000006662782F41393633353835312D344632462D344230382D423046372D3739314545314133324237412F617474726962757465732E62696E504B0304140006080800CC70623B08DA0BD19000000041010000360000006662782F41393633353835312D344632462D344230382D4230
310
46372D3739314545314133324237412F6469726563746F72792E786D6C858F410AC3201045AF22B36F53E9A60B35CBEEBAE80D244E44489C6234F4F835464A48035D0DF398FF9F8AF63D0E6CC63039F212F8F9020C7D47C6792B21C5FE7403D62A1188E2E60C98D7234A5830286103A55745067B9D86B8A3CF9C7F90C11DE6
310
07FB144396D7B6A82D282E9A152AD114D5EF2CB866EEE831B8EEA07A7BB5A8D7D61A2BAAEB7FD5F70921FF497D00504B0304140006080800CC70623BEDD1DC58FD000000A00100003B0000006662782F41393633353835312D344632462D344230382D423046372D3739314545314133324237412F7265736F75726365732F
310
636F72652E786D6C8D504B6E833010BD0A9A6D65B00922041947112427E8052C33A156828DFCA97AFC9A40A576D7CDCCE87D344F8F9FBFE667F689CE6B6B3A6039850C8DB2A336530731DC4903D95970676DF82583CCC8193B5861107C72362E3BA4AC096842428D1D7107A5F7182053CF7474E0D507CE32973124857FE48B
310
540F3961CEF244279DE03EB81420DB9EAC1384436FA353E879B1B182C7A8C75DA3C7F453DF353A1075D537A7BA6464B8F535A99AE14A9A2BBD90E350DD183B5CFABE3AF262350B1EF4FC9351399401471025A527C218A1E53BAB5A5AB765F5469B96525EACF23FA6B88CFF34456DC2A1DCE36E360F82A5202F42F062ED2BAD
310
579969AFDD8A6F504B010214000A0000080000CC70623B3DEE336E79000000790000001B00000000000000000000000000000000006175746F6465736B2D64657369676E2D7061636B6167652E786D6C504B01021400140006080800CC70623BD486FD9CA0000000F40000001300000000000000000000000000B20000005B
310
436F6E74656E745F54797065735D2E786D6C504B01021400140006080800CC70623B853B8169EB0000007C010000080000000000000000000000000083010000636F72652E786D6C504B01021400140006080800CC70623B55019EA25F0000007C000000070000000000000000000000000094020000636E782E786D6C504B
310
01021400140006080800CC70623BDBABAAF470010000D40300000C00000000000000000000000000180300006662782F636F72652E786D6C504B01021400140006080800CC70623B9C113CC27E0000009D0000000B00000000000000000000000000B20400006662782F636E782E786D6C504B01021400140006080800CC70
310
623B7DF2F77C2A010000120200003100000000000000000000000000590500006662782F41393633353835312D344632462D344230382D423046372D3739314545314133324237412F636F72652E786D6C504B01021400140006080800CC70623BAD7543B64E010000330300003000000000000000000000000000D2060000
310
6662782F41393633353835312D344632462D344230382D423046372D3739314545314133324237412F636E782E786D6C504B01021400140006080800CC70623BE75B7789680500003C10000034000000000000000000000000006E0800006662782F41393633353835312D344632462D344230382D423046372D3739314545
310
314133324237412F6F626A656374732E786D6C504B01021400140006080000CC70623B0000000000000000000000003500000000000000000000000000280E00006662782F41393633353835312D344632462D344230382D423046372D3739314545314133324237412F76657274696365732E62696E504B01021400140006
310
080800CC70623BF270F133060000000400000036000000000000000000000000007B0E00006662782F41393633353835312D344632462D344230382D423046372D3739314545314133324237412F747269616E676C65732E62696E504B01021400140006080000CC70623B0000000000000000000000003700000000000000
310
000000000000D50E00006662782F41393633353835312D344632462D344230382D423046372D3739314545314133324237412F617474726962757465732E62696E504B01021400140006080800CC70623B08DA0BD1900000004101000036000000000000000000000000002A0F00006662782F41393633353835312D344632
310
462D344230382D423046372D3739314545314133324237412F6469726563746F72792E786D6C504B01021400140006080800CC70623BEDD1DC58FD000000A00100003B000000000000000000000000000E1000006662782F41393633353835312D344632462D344230382D423046372D3739314545314133324237412F7265
310
736F75726365732F636F72652E786D6C504B0506000000000E000E0080040000641100000000
  0
XRECORD
  5
1F8
102
{ACAD_REACTORS
330
1F7
102
}
330
1F7
100
AcDbXrecord
280
     1
 70
     1
 90
429727718
  1
30362254-06B7-45E0-A893-8CFA70E3D6BC
310
504B03040A0000080000CC70623B3DEE336E79000000790000001B0000006175746F6465736B2D64657369676E2D7061636B6167652E786D6C3C3F786D6C2076657273696F6E3D22312E302220656E636F64696E673D227574662D3822203F3E3C666F726D6174733E3C666F726D61743E687474703A2F2F736368656D612E
310
6175746F6465736B2E636F6D2F64657369676E2D7061636B6167652F323030393C2F666F726D61743E3C2F666F726D6174733E504B0304140006080800CC70623BD486FD9CA0000000F4000000130000005B436F6E74656E745F54797065735D2E786D6C7D8EC10E82300C865F65E91D8A1E8C310C0EEA1BF002731658846E
310
D98AC1B77784ABF1D8FE5FBFBF75BBCE937A534CCEB38643598122B6FEE978D0B0485F9C41B54DDD7D022595594E1A469170414C76A4D9A4D207E29CF43ECE46F218070CC6BECC4078ACAA135ACF422C856C0E68EA1BF5669944DDD7BCDE7B1F8E415D77AECB980613C2E4AC91FC167A2B244592486606FC29C8FD7F045B9A
310
EF7053A7E60B504B0304140006080800CC70623B1EC5D7A3EB0000007C01000008000000636F72652E786D6C8D90416EC3201045AF82665B6103C6756C6122AB4D4ED00B204C5C94182C03558F5F9C3852BBEB6A467FFE9B197D71FC9E6FE8CBACC17AD7032D0820E3B41FAD9B7A48F1820F808E52ACDEC75F36404ECDA687
310
4D0629A6D5A76597B477D1B89855E747B38B2A041301E95B6E7A08FAD3CCAA50296647B8168BD2573599823EBB0CA76447F43862C7BCCF5EAC59410E4DDD9C7973C2755553CCCFA4C603E3040F1565ED3B1FDE4E432BCA0D9622DAF9795FAF464533826484B498524CD807E51D79ED187F21878E10516EF63F505AC67F42C9
310
BA58B1FDDD071640D2FCC87D2045B96591CB3DA85CB7DCE40F504B0304140006080800CC70623B55019EA25F0000007C00000007000000636E782E786D6C4DCB3B0E80201045D1AD90E915ED2CF8AC45050C11660C8261F98AB1B07AC9C97D42D718D865D3E909258CFD00CCE24AC6E326A164D74DC0B4128928FF32603847
310
2BA13128B1252AC747C6BAB984FC68F0B87FE8960A5C09FE86CFB69FBA01504B0304140006080800CC70623B8C9102E971010000D40300000C0000006662782F636F72652E786D6CC5535B6E833010BC8AE5DF0A6C08340F1947A84D4ED00B38C6A128602363A31CBFCB234A53A551FA553EC09AD9F5CE8C31DB9E9B1AF5CA
310
7695D1198E428A91D2D214952E33ECDD315861B4E5CC1AE3BE9561A445A3323CC098B3D21ADFCE9034DA29ED00D5A6503328BA4E398C640D8B0C77F253352214DE4145770A5B214FA2546114020D759C75CE8200340D19DE981F0F6746269C33EFAB6266AB02A655C74A59CCF365BADC27CB5D902ED22848F6340DF238A141
310
BE88E2F57B92BFEDF23523433367AE6A2EEAA455C2A902F398D2751045018D3FA264435F3771F242571B4A1919CA6F9A7C5B3CD9E42BED16F12C776AEB308F40C848FC700B1139D4891EF410CEC810227CC6846F8386402064270EF5C5C709A05E49676C024C61FC95EA45ED154CA5211D1FF4FB8291A913A68E9B83EBBB33
310
E2A7673CDE118E5AE8124C0807CB8377834E366998436B950D7A7746DAD846D4CFD978E0F04FD455FC5D49D2D4C6FE9722321F10997F0F32DC47FE05504B0304140006080800CC70623BFFEA85907E0000009D0000000B0000006662782F636E782E786D6C4DCCD10A83201886E15B91FFDC95D95A811AB6F23E625948A6C3
310
E9D8E5AF46073BFAE0E1E365ED67B3E8ADC3CB78C7815C7240DA3DFC64DCC221C519D7805AC182F7F1EF06C88D9BE6703008B6049F9E274D7A1E938DBB5AE3D6131B2589BA0D3D965551E0B2EA732C9B9A624AAEB41E3A557677029960D9AFB4EF11165F504B0304140006080800CC70623B4FEEA4082C0100001202000031
310
0000006662782F39464131463745442D413632322D343644302D413938332D3331353338454246344243312F636F72652E786D6C8D515B6EC32010BC0AE2AB55850DD871ED0813254D72825EC00192A2C460F1A872FC42ED48ED5F7E00CDCECCCEB26C731F6FE05B39AFADE921293004CA082BB5B9F43086336A21D870E6AC
310
0D7F68109861543DCC30E4ECE26C9C164858139409093556AA051CBC570102714B8F1E7AF1A5C6A11862480C7F2DA6415C878B2A4891CA89C7990F2E050073937C42DE1DB7E4F87ED8A36D4329AA9B3D46DBAEAD504556557BD81DEBDD0761E52CE42C462D17B996298E3E6BE59E35C962CE821E1FF18553435012728A7187
310
0841987E927A8D9B35ADDF70BBC6989599FE4F1427F9A4286A132ABAC49D651EF234CD5CE04CDA78BA3DC2A8FB645D00B9DF8B57E215725C60BCA2A463E54C4CE327C7A65E1C7DB02E7DEFCBF594B864C5CA6CDBD49C957943E9FA5D5FBAF336F90F504B0304140006080800CC70623BAD7543B64E01000033030000300000
310
006662782F39464131463745442D413632322D343644302D413938332D3331353338454246344243312F636E782E786D6CD593CD6EC32010845F0571AD6CE3D48AD20813A9873E410FBD12D82434182C7EAAE6EDBB2424CD25871E7B41D6EC30B3FA84F9E67BB2E40B4234DE8DB46F1925E094D7C6ED479AD3AE5951B2113C
310
789FEE6C943839C1488B4C05DF079FE72A69D8C96C13AAD6B8631503449F83828872B949AC57D26200B826A308D316B4064D6E46FCDA41C05550DC9E483A00797BFD207EFB092A45DE9514C1BBD22178396BD39D891265658C238DEA00936C654E5E433CB65A26D9F6EDB5EBC14EBF49A45CB856E66048291F6939A9A81BB5
310
C8917738143CA680F4AA299D66A042CEB3354A2684DC9D8D178FE0D9B8B41CAAD720F880EE7EF93C0C18769E099ECC04D5A102C8049A8A05632F4DDF376CF1DE0F6BB65C2F8627B65A33C6BB62177CEBBDAD973006829F89F22E814B54F4BC2BE347F8AA8F681390B50FA73F804400B5F542E796F19FF974E7F78DB802FE05
310
E207504B0304140006080800CC70623B16AB87BA640500003C100000340000006662782F39464131463745442D413632322D343644302D413938332D3331353338454246344243312F6F626A656374732E786D6CAD575B6FA33818FD2B887DE6924B3BED8A326A92B68A663B534DD4D13E548A0C38942D60649B369D5FBFC7
310
600890A493BDE42160637FD7F31D7FF63E6FB3D478A55C242CBF3247B66B1A340F5994E4F19559CA8D75611A9F7D8F33263BCB4C232719BD32D5B4E97B316765A1A722BA21652A07B3B7B33F0D11D29C9A46981221AE4C113ED38CD8A4942CA2E2C58E882476BCD9DA23BB5ED8171B73523C0F841684D35CC252CCE79062D4
310
468DFA43D7747CCF51DF7D4FFDEB5593E3AB9CCA9FBEFE241792E4E19EB28198C968BAB8199F5D5A67D3E9C49A9E8F47D6EC76B6B0469F26EEFC7C3EBFBCBEB98462213924694B38DD98FE1D62C393D073EA4FADC5DAF04326852CCF6958F90F0F2B9BB5C48816348F90C7840A68EB78EDF68723159BCEE7891A6B95DDE9D3
310
BCEAEEE8086A6C6F9E5D4B59F0175C10A7A0820BAA5055C7473B5AE3CFDD452D602CD5DF12616444529E90D448938013FE6EFA58AA96F85E4F8C42275708571E98FE6827AF6B2B4AE3D7D83D64E5A64C53054DD3AF90BD06FEA9149565C94FCA0F6B834DC85599E4F2423B24DF0B6AFA979E534DFA9E7A4CC6FA631D486393
310
921829879BF5D781A373557BCB85E97FB90DB62B558F8795179C15944B051F40AB495CF35451D26A4727654E6D8033BD98EF82F21D91FF8AF2DD9982BCF1643BDD4EB516C9492E368C67C88DED563FC36D5EACF66DFF057C3658BDBFA69DF9578B3DA735B64F18C7F20770A9D45CFCF7FCF563D6456A277DBEF78A02637CA2
310
43B90A490AEAB94F72244481D24819A6C0E59B606BFA4B3025981DBB48EAB701D97BF19C577CC77F2D1B6C55A9EF3C732474C0B727303F625995056C3B02963D9EAC146BE78EC5FCEC7FA999EBC5EACBAAE41B12D27B4D2C0BBA49F244E2ECDC81B76B502F113D8F5EE8FB1BE3111CDD4FC2AA9B844CAB1288B68AB90A7CDC
310
1C166AB0D3DC5310625FCC14E779BFD0709F8890A629C9292B1B2DED31A4B0DA928CEE135085754027E3018A397D4D5427D15BD1330B677DC8934285AC3DF45A9EB68FF8F2B8FC0A509AFEECFD0FF2DE25CC6047F7214B195F07EFEB9A094D800F7BFAE8FED187B78EA8A3A400F115961BCAD1215E47C966530AF0EE8128FE
310
58CEBB996A8964FFA529A046635D9353B0336A8F700DDF46271A024E70B0B37C9DE01847591E54DED53D54202AB947E4076556AC49C6CA5C9E1226B7F1A7B1BE15DEED62C41B91E1B3E9AFAAA735036547343A925075041DF0A9979E893B391F8FCFA6967B3EFB644DCF6E5CEBFAE272625DCC6FAF3FB93793C5F90CE1EF57
310
407342756B10D1C489E8953CD1617E5CEECAD6F4EF8914CE5D5D504E5C3F1F9736DA62CFC11E00BCDDB8CC8A9466349744C1F75EBDA4DF09BA8A9E8C7A7E9991989E20E5DBDD6A6003664ED8F7A04A8DBE0DF6EAD9B9AA858342E47399053949D2C146EDB85DE4B176BB0965FBAC19BD19AA918E27FA50C1D22402E144464C
310
59462568E704B6E71915404CB72B8FF4EDE184DDAF753F284990D2C6926782963815403548A70C657FDEF80D2D9CEAA2AE4C1C76F60BFE74219A06527D6582DF6412526107381E55E353090704D085B52408D0933C4ED159D79BDA71BB4BC506F4831350EB6F979CD22D69BF7AC49B91A2C0A9DDA3D5CA36AD20FC478E37E6
310
1844E2352865EBCB6EA275A652E3836BE04EFB400BF1A2556F515F1FBB35B2AB35BD889C744FFA1004B5544B121E57F70215746DD2F5E2C1412B602CBF19455AC6C8E5E9922C4E01E65215385004546899059180EAFCF7A707CE7017CD8CDB0410789AB32C63B91E5CEBBBACB17AC6CD347A022D5075FD106377347AAABA7E
310
7D11590744509B44E205134DC1290F06580320F78E537D3D73540E06CB970B431F185308AD40BBD794D6D77003C5A36E8EAA54BA64597CD8F83BD552A080A365F7FF06504B0304140006080000CC70623B000000000000000000000000350000006662782F39464131463745442D413632322D343644302D413938332D3331
310
353338454246344243312F76657274696365732E62696E504B0304140006080800CC70623BF270F1330600000004000000360000006662782F39464131463745442D413632322D343644302D413938332D3331353338454246344243312F747269616E676C65732E62696E636660600000504B0304140006080000CC70623B
310
000000000000000000000000370000006662782F39464131463745442D413632322D343644302D413938332D3331353338454246344243312F617474726962757465732E62696E504B0304140006080800CC70623B08DA0BD19000000041010000360000006662782F39464131463745442D413632322D343644302D413938
310
332D3331353338454246344243312F6469726563746F72792E786D6C858F410AC3201045AF22B36F53E9A60B35CBEEBAE80D244E44489C6234F4F835464A48035D0DF398FF9F8AF63D0E6CC63039F212F8F9020C7D47C6792B21C5FE7403D62A1188E2E60C98D7234A5830286103A55745067B9D86B8A3CF9C7F90C11DE607
310
FB144396D7B6A82D282E9A152AD114D5EF2CB866EEE831B8EEA07A7BB5A8D7D61A2BAAEB7FD5F70921FF497D00504B0304140006080800CC70623B0D6EF93BFE000000A00100003B0000006662782F39464131463745442D413632322D343644302D413938332D3331353338454246344243312F7265736F75726365732F63
310
6F72652E786D6C8D50596E833010BD0A9ADFCA60B334011947A8694ED00B586642AC041B79A97AFC9A40A5F6AF3F33A3B7689E1E3F7DCD8FEC139DD7D6F4C0720A191A65476DA61E62B892236427C19DB5E1970C322367EC618541F0C9D9B8EC90B226A009093576C41D94DE63804C3DD2D18357379C652E63480A7FCF17A9
310
EE72C29CE5894E3AC17D702940B63D59270887DE46A7D0F36263058F518FBB468FE9A7BE6A7420864373B8D4873369AA8691FA421B3294352543C5CAF65C0F6FEF43CB8BD52C78D0F34F46E550061C419494B6843142CB0F5677F4B52BEB177AEC28E5C52AFF638ACBF84F53D42654E51E77B379102C05791282176B5F693D
310
CB4C7BED567C03504B010214000A0000080000CC70623B3DEE336E79000000790000001B00000000000000000000000000000000006175746F6465736B2D64657369676E2D7061636B6167652E786D6C504B01021400140006080800CC70623BD486FD9CA0000000F40000001300000000000000000000000000B20000005B
310
436F6E74656E745F54797065735D2E786D6C504B01021400140006080800CC70623B1EC5D7A3EB0000007C010000080000000000000000000000000083010000636F72652E786D6C504B01021400140006080800CC70623B55019EA25F0000007C000000070000000000000000000000000094020000636E782E786D6C504B
310
01021400140006080800CC70623B8C9102E971010000D40300000C00000000000000000000000000180300006662782F636F72652E786D6C504B01021400140006080800CC70623BFFEA85907E0000009D0000000B00000000000000000000000000B30400006662782F636E782E786D6C504B01021400140006080800CC70
310
623B4FEEA4082C0100001202000031000000000000000000000000005A0500006662782F39464131463745442D413632322D343644302D413938332D3331353338454246344243312F636F72652E786D6C504B01021400140006080800CC70623BAD7543B64E010000330300003000000000000000000000000000D5060000
310
6662782F39464131463745442D413632322D343644302D413938332D3331353338454246344243312F636E782E786D6C504B01021400140006080800CC70623B16AB87BA640500003C1000003400000000000000000000000000710800006662782F39464131463745442D413632322D343644302D413938332D3331353338
310
454246344243312F6F626A656374732E786D6C504B01021400140006080000CC70623B0000000000000000000000003500000000000000000000000000270E00006662782F39464131463745442D413632322D343644302D413938332D3331353338454246344243312F76657274696365732E62696E504B01021400140006
310
080800CC70623BF270F133060000000400000036000000000000000000000000007A0E00006662782F39464131463745442D413632322D343644302D413938332D3331353338454246344243312F747269616E676C65732E62696E504B01021400140006080000CC70623B0000000000000000000000003700000000000000
310
000000000000D40E00006662782F39464131463745442D413632322D343644302D413938332D3331353338454246344243312F617474726962757465732E62696E504B01021400140006080800CC70623B08DA0BD190000000410100003600000000000000000000000000290F00006662782F39464131463745442D413632
310
322D343644302D413938332D3331353338454246344243312F6469726563746F72792E786D6C504B01021400140006080800CC70623B0D6EF93BFE000000A00100003B000000000000000000000000000D1000006662782F39464131463745442D413632322D343644302D413938332D3331353338454246344243312F7265
310
736F75726365732F636F72652E786D6C504B0506000000000E000E0080040000641100000000
  0
XRECORD
  5
175
102
{ACAD_REACTORS
330
173
102
}
330
173
100
AcDbXrecord
280
     1
270
     1
271
     1
  0
XRECORD
  5
174
102
{ACAD_REACTORS
330
173
102
}
330
173
100
AcDbXrecord
280
     1
270
     1
271
     1
  0
XRECORD
  5
1FB
102
{ACAD_REACTORS
330
173
102
}
330
173
100
AcDbXrecord
280
     1
 70
     0
 90
1673772943
  1
ECE7A1D2-D628-4531-984C-D00F80459256
310
504B03040A0000080000CC70623B3DEE336E79000000790000001B0000006175746F6465736B2D64657369676E2D7061636B6167652E786D6C3C3F786D6C2076657273696F6E3D22312E302220656E636F64696E673D227574662D3822203F3E3C666F726D6174733E3C666F726D61743E687474703A2F2F736368656D612E
310
6175746F6465736B2E636F6D2F64657369676E2D7061636B6167652F323030393C2F666F726D61743E3C2F666F726D6174733E504B0304140006080800CC70623BD486FD9CA0000000F4000000130000005B436F6E74656E745F54797065735D2E786D6C7D8EC10E82300C865F65E91D8A1E8C310C0EEA1BF002731658846E
310
D98AC1B77784ABF1D8FE5FBFBF75BBCE937A534CCEB38643598122B6FEE978D0B0485F9C41B54DDD7D022595594E1A469170414C76A4D9A4D207E29CF43ECE46F218070CC6BECC4078ACAA135ACF422C856C0E68EA1BF5669944DDD7BCDE7B1F8E415D77AECB980613C2E4AC91FC167A2B244592486606FC29C8FD7F045B9A
310
EF7053A7E60B504B0304140006080800CC70623BD9DDAED0EC0000007C01000008000000636F72652E786D6C8D90416EC3201045AF82665B61836D9CD8C2444DD39CA01740405C94182C03558F5F9C3852BBEB6A467FFE9B197D7EF89E6EE8CB2CC17A37002D0820E394D7D68D03A478C17B4007C117EFE32F1B20272733C0
310
2A83E0E3E2D3BC49CABB685CCCAAF3DA6CA20CC14440EA969B0182FA34932C648AD911AEC52CD5558EA6A0CF2EC329598D1E47ACCEFBECC59A050463A7EA5833865FEBDD0E37353BE3EE8DBDE3F6786A48D375FBF6CC78B9C282473B3DEFABC5C86834888A900E538A49F5419B9EB47DD5BC907D4F082F57FB1F28CDFA9F50
310
B22ED6D5F6EE030B20687EE43E10BC5CB3C8E51E54AE6B6EE207504B0304140006080800CC70623B55019EA25F0000007C00000007000000636E782E786D6C4DCB3B0E80201045D1AD90E915ED2CF8AC45050C11660C8261F98AB1B07AC9C97D42D718D865D3E909258CFD00CCE24AC6E326A164D74DC0B4128928FF326038
310
472BA13128B1252AC747C6BAB984FC68F0B87FE8960A5C09FE86CFB69FBA01504B0304140006080800CC70623BA24EB22D72010000D40300000C0000006662782F636F72652E786D6CC5535B6E833010BC8AE5DF0A6C5E49888CA3A6694ED00B38E05014B091B1518EDFE511A5A9D228FD2A1F60CDEC7A67C6986DCE4D8D7A
310
69BA4AAB0C073EC548AA5C17952A33ECECD15B61B4E1CC686DBF9561A44423333CC098B3D268D7CE50AE9595CA02AA74216750749DB418E5352C32DCE59FB211BE70162ABA93DF8AFC244AE9073ED050C759670D0840D390E18DF9F1706664C23973AE2A66B62A605A75ACA4C13C4976E1364A12EF355A2EBD384AF65EFA96
310
BC7B8BED2EA6719AAE16FB8491A199335B351775B991C2CA02F390D2D40B028F861F41BCA68B7518BFD0D59A524686F29B26D7164F36B94AD9289CE54E6D1DE6010819891F6E21228B3AD1831EC219194284CF98F06DD01008846CC5A1BEF83801D4CBDC6A1303536877A57A513B0953A94FC707FDBE6064EA84A9E3E6E0FA
310
EE8CF0E9198F7784A316AA0413C2C2F2E0ECA0934D1AE6D05A69BCDE9E91D2A611F573361E38FC1375157F5752AE6B6DFE4B11990F88CCBF0719EE23FF02504B0304140006080800CC70623B408A7D3B7C0000009D0000000B0000006662782F636E782E786D6C4DCCD10A83201886E15B91FFDC552A92A0064DBC8F581632
310
D3703A76F9ABD1C18E3E78F878E5F0D9027ABBFCF2292AE86E2D20171F69F6715550CB827B40839639A5F2770314A7CD293819B45C73AAFB45B35BA61ACAA1C1C7E7855C58C15BC331339661262CC762340413D68D77DA5B42298546CBE6573AF60CEB2F504B0304140006080800CC70623B449FB9BD290100001202000031
310
0000006662782F36394639363044362D344446342D343946362D394244322D3234314243333846323333332F636F72652E786D6C8D515B6EC32010BC0AE22B55850D98B871848994463E412FE002495162B07854397EA176A4F62F3F2C9A9D991D587EB84F37F0AD7D30CEF6905418026DA553C65E7A98E219ED203808EE9D
310
8B7F6810D871D23D2C3014FCE25D9A57483A1BB58D19B54EE9151C43D0110279CB971E06F9A5A7B11A53CC8C70ADE6515EC78BAE4895DB992778883E0700CB907242D17643D7E2538BD869608875438BBAE38922CAC8F1BDD90DB4691A5E2F42C153326A951B95E398B3D1FE599322163C9AE9115F7A3D46ADA0A018778810
310
84E907617BDCEE297BC5BB3DC6BC2EF47FA234AB2745C9D8D8D035EE220B50105E2F0DC1954B9FB747187D9F9D8FA0CCDB042D5FA0C015C65B42DF78BD10F3F3B363CB56C7109DCFDFBBB97E662ED92EB62D13BC2E1BCAE5777DB9966D8A1F504B0304140006080800CC70623BAD7543B64E01000033030000300000006662
310
782F36394639363044362D344446342D343946362D394244322D3234314243333846323333332F636E782E786D6CD593CD6EC32010845F0571AD6CE3D48AD20813A9873E410FBD12D82434182C7EAAE6EDBB2424CD25871E7B41D6EC30B3FA84F9E67BB2E40B4234DE8DB46F1925E094D7C6ED479AD3AE5951B2113C789FEE
310
6C943839C1488B4C05DF079FE72A69D8C96C13AAD6B8631503449F83828872B949AC57D26200B826A308D316B4064D6E46FCDA41C05550DC9E483A00797BFD207EFB092A45DE9514C1BBD22178396BD39D891265658C238DEA00936C654E5E433CB65A26D9F6EDB5EBC14EBF49A45CB856E66048291F6939A9A81BB5C89177
310
38143CA680F4AA299D66A042CEB3354A2684DC9D8D178FE0D9B8B41CAAD720F880EE7EF93C0C18769E099ECC04D5A102C8049A8A05632F4DDF376CF1DE0F6BB65C2F8627B65A33C6BB62177CEBBDAD973006829F89F22E814B54F4BC2BE347F8AA8F681390B50FA73F804400B5F542E796F19FF974E7F78DB802FE05E20750
310
4B0304140006080800CC70623B8D05915C650500003B100000340000006662782F36394639363044362D344446342D343946362D394244322D3234314243333846323333332F6F626A656374732E786D6CAD575B6FA33814FE2B887D06429276DA1565D4266D158D3A339A6846FB502932E050B66023DB74D2FDF5FB190C01
310
9276B2973C046C8ECFF53B17071F77456EBD502133CEAE6CDF9DD81665314F32965ED995DA3A17B6F5310C04E7AA47665B8C14F4CAD6DB7618A48257A5D94AE89654B91AEDDEDDFC61C998326A5B714EA4BCB265FC440BE2924AF184CA6737218AB8E976E7FA6E4338649B0A523E8D98964450A6A029F619B8588D52FE7039
310
B1BD30F0F4F730D0FF866AF6369557DB33949F31A9088B0F848DD8CCFCF9F2767A76E99CCDE733677E3EF59D9BBB9BA5E37F984D16E78BC5E5F5ED25044B25C0C96822E8D60EEFE11B91C581D77CEA34368A1F5329E68CD1B8B61F16D63A1B8E092D294B10C78C4A48EB593D192E7DED9BDEE7995E1B91FDEDD3ACEA9FE831
310
6A756F9F7D4D79F4274C90A7A04248AA51D5F8C718DAE06FB2F75AC4796EBE65D22A88A22223B995679120E2D50E41AA49C260C046A35368846B0BECD0DFF3EBEB8AD4F835768F69B9ADF25C43D30E6B646F807FAA64AD59F61715C7A54127C4AACA98BA3006A9D792DAE165E0D59B61A01FB3A9F9D838D2DAE62445C86166
310
F37564E842E7DE6A69879FEEA2DD5AE7E371E1A5E025154AC307D06A03D73EB5978C58FFA4C8E9033066E0F3BD53BEC1F39F91BE7B55103791EDE6BBB991A2046172CB4581D8B893FA674DDA17A77B3B7C413D1B511FD2743BFF8A38F03A658705E3ADF8015C3A3417FF3D7E439FF591DA0B5F18BC20C1B8981957AE6392A3
310
F43C640C01D1A0B4728E2DD4F26DB4B3C3152A252A3B4E913CEC1C72F012782FF88EFF8637AA552DBEF76408E8A8DE9E50F9E1CB3A2DA0DB1B6039A893B56063DC5B3E3FFB5F72E67AB9FEB4AEC496C4F4C1149625DD662C53E89D7BF0F6151A046260D1337DFDC94502430F83B0EE07A130A224BCAD7DAE1D9FB6CD422FF6
310
920702629C4BB9AE79C12F243C6432A6794E18E5552BA56B431AAB5D91317302B2B071E86C3A42B1A02F999E24061403B5D0EB639195DA655DD3EBEAB4FB862DDF579F014AD0E73C22F99E28DA57FB98E75C6CA2D74D53086D600F4786E0FE3144B771A8A7B900F03594DB8A633CBC49B2EDB69228BB479CF863B5E807AAAB
310
23872F6DFEB4129B949CA33823F58830E86D65621E10047D9DB34D862E8EAC3C2ABC2F7B2C40D67CDFE01F5545B92105AF983AC54D93D69E56FB8E797F88913F898A9FEC705D3F9D1B54EC8426FB500D40A03BD0119B06E1B95DDC7EB8F6975367793EBD70E66733DFB9BC982F9CE564727731999F5D4ECFCE3B8D6A4DC2A0
310
6D50FD148437D110834A64C6CDDF57FBACB5C307A2A477DFE4939736CFEF2B175371E0E10CF0DD1D5C15654E0BCA14D1E87DD02FF93782A162C0A3D95F1524A52770F972BF1EE9809D13CE7DD599467F8ECE9ADD85CE85A34CD45355448C64F9E8A031DC2D596ACC6E5DD93D9B82DE2EF5CAF81363A8E47996A0DE24564A79
310
4115AACE09C55E14540231FDA13C319787134EBF34E3A022514E5B4D9E0826E25C02D5805B15ABE1BEF51B26383D445DD9E875EE33FE4C22DA16427D65A3BCA92CA6D28DD01DF5DC53330704308475351050232CCD31583787BA75774AFB06E5070DD0C8EF484E19968C5D83BA5B90B244D31E54D55A372320FE4786B7EA58
310
44E135AA5467CB7EA333A61683CC6A8C3257034C10CF46F40EF9F5BE59BE5BD30C3C72D235E95D10345C1D45445A5F0BB47E46A5EBE5570F9380B5FA629579952296A773720405982B9DE04011506178964401AA8BDF1FBF0A8EAB6861DD6580C0E38217056766716DAEB2D6FA0917D3E4116581EADB879C4E7CFFB11EFACD
310
3D641311495D92C8676CB409A72D18610D803CE8A626049E8EC1887CB5B44CC39883690DDA8399B4B9855B481E7D71D4A9D22F96E5BB73BF5793020C02137BF837504B0304140006080000CC70623B000000000000000000000000350000006662782F36394639363044362D344446342D343946362D394244322D32343142
310
43333846323333332F76657274696365732E62696E504B0304140006080800CC70623BF270F1330600000004000000360000006662782F36394639363044362D344446342D343946362D394244322D3234314243333846323333332F747269616E676C65732E62696E636660600000504B0304140006080000CC70623B0000
310
00000000000000000000370000006662782F36394639363044362D344446342D343946362D394244322D3234314243333846323333332F617474726962757465732E62696E504B0304140006080800CC70623B08DA0BD19000000041010000360000006662782F36394639363044362D344446342D343946362D394244322D
310
3234314243333846323333332F6469726563746F72792E786D6C858F410AC3201045AF22B36F53E9A60B35CBEEBAE80D244E44489C6234F4F835464A48035D0DF398FF9F8AF63D0E6CC63039F212F8F9020C7D47C6792B21C5FE7403D62A1188E2E60C98D7234A5830286103A55745067B9D86B8A3CF9C7F90C11DE607FB14
310
4396D7B6A82D282E9A152AD114D5EF2CB866EEE831B8EEA07A7BB5A8D7D61A2BAAEB7FD5F70921FF497D00504B0304140006080800CC70623BCA768048FE000000A00100003B0000006662782F36394639363044362D344446342D343946362D394244322D3234314243333846323333332F7265736F75726365732F636F72
310
652E786D6C8D50596E833010BD0A9ADFCA60D600328E9AA639412F609909B1126CE4A5EAF16B0295DABFFECC8CDEA2797AECF8353F924FB44E193D409E5248504B332A3D0D10FC95B4901C39B3C6F85F3248B49871801506CE266BC2B243D2688FDA47549B11775038871E12F988C7004EDE7016A9083E2ADC3D5D84BC8B09
310
D33C8D74D471E6BC8D0192EDC93A815B742658898E651BCB59086ADC356A8C3FD555A1055ED7E7E254D615792D0F075295F585746FF53B694EE78A565DD736979A65AB9933AFE69F8CD2A2F038022F28ED489E135A7CE4554F9BBEA85E68DB53CAB255FEC71496F19FA6A0B42F8B3DEE6673C0F318E4497096AD7DC5F52C33
310
EEB55BFE0D504B010214000A0000080000CC70623B3DEE336E79000000790000001B00000000000000000000000000000000006175746F6465736B2D64657369676E2D7061636B6167652E786D6C504B01021400140006080800CC70623BD486FD9CA0000000F40000001300000000000000000000000000B20000005B436F
310
6E74656E745F54797065735D2E786D6C504B01021400140006080800CC70623BD9DDAED0EC0000007C010000080000000000000000000000000083010000636F72652E786D6C504B01021400140006080800CC70623B55019EA25F0000007C000000070000000000000000000000000095020000636E782E786D6C504B0102
310
1400140006080800CC70623BA24EB22D72010000D40300000C00000000000000000000000000190300006662782F636F72652E786D6C504B01021400140006080800CC70623B408A7D3B7C0000009D0000000B00000000000000000000000000B50400006662782F636E782E786D6C504B01021400140006080800CC70623B
310
449FB9BD290100001202000031000000000000000000000000005A0500006662782F36394639363044362D344446342D343946362D394244322D3234314243333846323333332F636F72652E786D6C504B01021400140006080800CC70623BAD7543B64E010000330300003000000000000000000000000000D20600006662
310
782F36394639363044362D344446342D343946362D394244322D3234314243333846323333332F636E782E786D6C504B01021400140006080800CC70623B8D05915C650500003B10000034000000000000000000000000006E0800006662782F36394639363044362D344446342D343946362D394244322D32343142433338
310
46323333332F6F626A656374732E786D6C504B01021400140006080000CC70623B0000000000000000000000003500000000000000000000000000250E00006662782F36394639363044362D344446342D343946362D394244322D3234314243333846323333332F76657274696365732E62696E504B010214001400060808
310
00CC70623BF270F13306000000040000003600000000000000000000000000780E00006662782F36394639363044362D344446342D343946362D394244322D3234314243333846323333332F747269616E676C65732E62696E504B01021400140006080000CC70623B00000000000000000000000037000000000000000000
310
00000000D20E00006662782F36394639363044362D344446342D343946362D394244322D3234314243333846323333332F617474726962757465732E62696E504B01021400140006080800CC70623B08DA0BD190000000410100003600000000000000000000000000270F00006662782F36394639363044362D344446342D
310
343946362D394244322D3234314243333846323333332F6469726563746F72792E786D6C504B01021400140006080800CC70623BCA768048FE000000A00100003B000000000000000000000000000B1000006662782F36394639363044362D344446342D343946362D394244322D3234314243333846323333332F7265736F
310
75726365732F636F72652E786D6C504B0506000000000E000E0080040000621100000000
  0
XRECORD
  5
176
102
{ACAD_REACTORS
330
173
102
}
330
173
100
AcDbXrecord
280
     1
270
     1
271
     1
  0
XRECORD
  5
177
102
{ACAD_REACTORS
330
173
102
}
330
173
100
AcDbXrecord
280
     1
270
     1
271
     1
  0
XRECORD
  5
3BB
102
{ACAD_REACTORS
330
3BA
102
}
330
3BA
100
AcDbXrecord
280
     1
102
DISPLAYNAME
  1
Imperial24
102
FLAGS
 90
        0
  0
XRECORD
  5
3B7
102
{ACAD_REACTORS
330
3B6
102
}
330
3B6
100
AcDbXrecord
280
     1
102
DISPLAYNAME
  1
Metric50
102
FLAGS
 90
        0
  0
CELLSTYLEMAP
  5
3AC
102
{ACAD_REACTORS
330
162
102
}
330
162
100
AcDbCellStyleMap
 90
        3
300
CELLSTYLE
  1
TABLEFORMAT_BEGIN
 90
        5
170
     1
 91
        0
 92
    32768
 62
   257
 93
        1
300
CONTENTFORMAT
  1
CONTENTFORMAT_BEGIN
 90
        0
 91
        0
 92
      512
 93
        0
300

 40
0.0
140
1.0
 94
        5
 62
     0
340
11
144
6.0
309
CONTENTFORMAT_END
171
     1
301
MARGIN
  1
CELLMARGIN_BEGIN
 40
1.5
 40
1.5
 40
1.5
 40
1.5
 40
4.5
 40
4.5
309
CELLMARGIN_END
 94
        6
 95
        1
302
GRIDFORMAT
  1
GRIDFORMAT_BEGIN
 90
        0
 91
        1
 62
     0
 92
       -2
340
14
 93
        0
 40
1.125
309
GRIDFORMAT_END
 95
        2
302
GRIDFORMAT
  1
GRIDFORMAT_BEGIN
 90
        0
 91
        1
 62
     0
 92
       -2
340
14
 93
        0
 40
1.125
309
GRIDFORMAT_END
 95
        4
302
GRIDFORMAT
  1
GRIDFORMAT_BEGIN
 90
        0
 91
        1
 62
     0
 92
       -2
340
14
 93
        0
 40
1.125
309
GRIDFORMAT_END
 95
        8
302
GRIDFORMAT
  1
GRIDFORMAT_BEGIN
 90
        0
 91
        1
 62
     0
 92
       -2
340
14
 93
        0
 40
1.125
309
GRIDFORMAT_END
 95
       16
302
GRIDFORMAT
  1
GRIDFORMAT_BEGIN
 90
        0
 91
        1
 62
     0
 92
       -2
340
14
 93
        0
 40
1.125
309
GRIDFORMAT_END
 95
       32
302
GRIDFORMAT
  1
GRIDFORMAT_BEGIN
 90
        0
 91
        1
 62
     0
 92
       -2
340
14
 93
        0
 40
1.125
309
GRIDFORMAT_END
309
TABLEFORMAT_END
  1
CELLSTYLE_BEGIN
 90
        1
 91
        1
300
_TITLE
309
CELLSTYLE_END
300
CELLSTYLE
  1
TABLEFORMAT_BEGIN
 90
        5
170
     1
 91
        0
 92
        0
 62
   257
 93
        1
300
CONTENTFORMAT
  1
CONTENTFORMAT_BEGIN
 90
        0
 91
        0
 92
      512
 93
        0
300

 40
0.0
140
1.0
 94
        5
 62
     0
340
11
144
4.5
309
CONTENTFORMAT_END
171
     1
301
MARGIN
  1
CELLMARGIN_BEGIN
 40
1.5
 40
1.5
 40
1.5
 40
1.5
 40
4.5
 40
4.5
309
CELLMARGIN_END
 94
        6
 95
        1
302
GRIDFORMAT
  1
GRIDFORMAT_BEGIN
 90
        0
 91
        1
 62
     0
 92
       -2
340
14
 93
        0
 40
1.125
309
GRIDFORMAT_END
 95
        2
302
GRIDFORMAT
  1
GRIDFORMAT_BEGIN
 90
        0
 91
        1
 62
     0
 92
       -2
340
14
 93
        0
 40
1.125
309
GRIDFORMAT_END
 95
        4
302
GRIDFORMAT
  1
GRIDFORMAT_BEGIN
 90
        0
 91
        1
 62
     0
 92
       -2
340
14
 93
        0
 40
1.125
309
GRIDFORMAT_END
 95
        8
302
GRIDFORMAT
  1
GRIDFORMAT_BEGIN
 90
        0
 91
        1
 62
     0
 92
       -2
340
14
 93
        0
 40
1.125
309
GRIDFORMAT_END
 95
       16
302
GRIDFORMAT
  1
GRIDFORMAT_BEGIN
 90
        0
 91
        1
 62
     0
 92
       -2
340
14
 93
        0
 40
1.125
309
GRIDFORMAT_END
 95
       32
302
GRIDFORMAT
  1
GRIDFORMAT_BEGIN
 90
        0
 91
        1
 62
     0
 92
       -2
340
14
 93
        0
 40
1.125
309
GRIDFORMAT_END
309
TABLEFORMAT_END
  1
CELLSTYLE_BEGIN
 90
        2
 91
        1
300
_HEADER
309
CELLSTYLE_END
300
CELLSTYLE
  1
TABLEFORMAT_BEGIN
 90
        5
170
     1
 91
        0
 92
        0
 62
   257
 93
        1
300
CONTENTFORMAT
  1
CONTENTFORMAT_BEGIN
 90
        0
 91
        0
 92
      512
 93
        0
300

 40
0.0
140
1.0
 94
        2
 62
     0
340
11
144
4.5
309
CONTENTFORMAT_END
171
     1
301
MARGIN
  1
CELLMARGIN_BEGIN
 40
1.5
 40
1.5
 40
1.5
 40
1.5
 40
4.5
 40
4.5
309
CELLMARGIN_END
 94
        6
 95
        1
302
GRIDFORMAT
  1
GRIDFORMAT_BEGIN
 90
        0
 91
        1
 62
     0
 92
       -2
340
14
 93
        0
 40
1.125
309
GRIDFORMAT_END
 95
        2
302
GRIDFORMAT
  1
GRIDFORMAT_BEGIN
 90
        0
 91
        1
 62
     0
 92
       -2
340
14
 93
        0
 40
1.125
309
GRIDFORMAT_END
 95
        4
302
GRIDFORMAT
  1
GRIDFORMAT_BEGIN
 90
        0
 91
        1
 62
     0
 92
       -2
340
14
 93
        0
 40
1.125
309
GRIDFORMAT_END
 95
        8
302
GRIDFORMAT
  1
GRIDFORMAT_BEGIN
 90
        0
 91
        1
 62
     0
 92
       -2
340
14
 93
        0
 40
1.125
309
GRIDFORMAT_END
 95
       16
302
GRIDFORMAT
  1
GRIDFORMAT_BEGIN
 90
        0
 91
        1
 62
     0
 92
       -2
340
14
 93
        0
 40
1.125
309
GRIDFORMAT_END
 95
       32
302
GRIDFORMAT
  1
GRIDFORMAT_BEGIN
 90
        0
 91
        1
 62
     0
 92
       -2
340
14
 93
        0
 40
1.125
309
GRIDFORMAT_END
309
TABLEFORMAT_END
  1
CELLSTYLE_BEGIN
 90
        3
 91
        2
300
_DATA
309
CELLSTYLE_END
  0
ENDSEC
  0
SECTION
  2
ACDSDATA
 70
     2
 71
     8
  0
ACDSSCHEMA
 90
        0
  1
AcDb_Thumbnail_Schema
  2
AcDbDs::ID
280
    10
 91
        8
  2
Thumbnail_Data
280
    15
 91
        0
101
ACDSRECORD
 95
        0
 90
        1
  2
AcDbDs::TreatedAsObjectData
280
     1
291
     1
101
ACDSRECORD
 95
        0
 90
        2
  2
AcDbDs::Legacy
280
     1
291
     1
101
ACDSRECORD
  1
AcDbDs::ID
 90
        3
  2
AcDs:Indexable
280
     1
291
     1
101
ACDSRECORD
  1
AcDbDs::ID
 90
        4
  2
AcDbDs::HandleAttribute
280
     7
282
     1
  0
ACDSSCHEMA
 90
        1
  1
AcDbDs::TreatedAsObjectDataSchema
  2
AcDbDs::TreatedAsObjectData
280
     1
 91
        0
  0
ACDSSCHEMA
 90
        2
  1
AcDbDs::LegacySchema
  2
AcDbDs::Legacy
280
     1
 91
        0
  0
ACDSSCHEMA
 90
        3
  1
AcDbDs::IndexedPropertySchema
  2
AcDs:Indexable
280
     1
 91
        0
  0
ACDSSCHEMA
 90
        4
  1
AcDbDs::HandleAttributeSchema
  2
AcDbDs::HandleAttribute
280
     7
 91
        1
284
     1
  0
ACDSRECORD
 90
        0
  2
AcDbDs::ID
280
    10
320
22
  2
Thumbnail_Data
280
    15
 94
      896
310
89504E470D0A1A0A0000000D49484452000001000000009108030000001BE1960600000300504C5445212830FFFFFF2128300000000000000000000000000000000000000000000000000000330000660000990000CC0000FF0033000033330033660033990033CC0033FF0066000066330066660066990066CC0066FF0099
310
000099330099660099990099CC0099FF00CC0000CC3300CC6600CC9900CCCC00CCFF00FF0000FF3300FF6600FF9900FFCC00FFFF3300003300333300663300993300CC3300FF3333003333333333663333993333CC3333FF3366003366333366663366993366CC3366FF3399003399333399663399993399CC3399FF33CC00
310
33CC3333CC6633CC9933CCCC33CCFF33FF0033FF3333FF6633FF9933FFCC33FFFF6600006600336600666600996600CC6600FF6633006633336633666633996633CC6633FF6666006666336666666666996666CC6666FF6699006699336699666699996699CC6699FF66CC0066CC3366CC6666CC9966CCCC66CCFF66FF0066
310
FF3366FF6666FF9966FFCC66FFFF9900009900339900669900999900CC9900FF9933009933339933669933999933CC9933FF9966009966339966669966999966CC9966FF9999009999339999669999999999CC9999FF99CC0099CC3399CC6699CC9999CCCC99CCFF99FF0099FF3399FF6699FF9999FFCC99FFFFCC0000CC00
310
33CC0066CC0099CC00CCCC00FFCC3300CC3333CC3366CC3399CC33CCCC33FFCC6600CC6633CC6666CC6699CC66CCCC66FFCC9900CC9933CC9966CC9999CC99CCCC99FFCCCC00CCCC33CCCC66CCCC99CCCCCCCCCCFFCCFF00CCFF33CCFF66CCFF99CCFFCCCCFFFFFF0000FF0033FF0066FF0099FF00CCFF00FFFF3300FF3333
310
FF3366FF3399FF33CCFF33FFFF6600FF6633FF6666FF6699FF66CCFF66FFFF9900FF9933FF9966FF9999FF99CCFF99FFFFCC00FFCC33FFCC66FFCC99FFCCCCFFCCFFFFFF00FFFF33FFFF66FFFF99FFFFCCFFFFFF0000000D0D0D1A1A1A2828283535354343435050505D5D5D6B6B6B787878868686939393A1A1A1AEAEAEBB
310
BBBBC9C9C9D6D6D6E4E4E4F1F1F1FFFFFF0000000000000000000000000000000000000000000000000000000000002E4550F10000003B4944415478DAEDC13101000000C2A0F54F6D0B2FA0000000000000000000000000000000000000000000000000000000000000000000000000CE06919100016C9A5B1B0000000049
310
454E44AE426082
  0
ENDSEC
  0
EOF
