  0
SECTION
  2
HEADER
  9
$ACADVER
  1
AC1027
  9
$ACADMAINTVER
 70
   125
  9
$DWGCODEPAGE
  3
ANSI_1252
  9
$LASTSAVEDBY
  1
andrea.ragusa
  9
$REQUIREDVERSIONS
160
                 0
  9
$INSBASE
 10
0.0
 20
0.0
 30
0.0
  9
$EXTMIN
 10
-0.0128164049386896
 20
0.0815741779300652
 30
-0.0015258207003583
  9
$EXTMAX
 10
23.25073293788682
 20
38.51174965816517
 30
0.0000000349246037
  9
$LIMMIN
 10
0.0
 20
0.0
  9
$LIMMAX
 10
420.0
 20
297.0
  9
$ORTHOMODE
 70
     0
  9
$REGENMODE
 70
     1
  9
$FILLMODE
 70
     1
  9
$QTEXTMODE
 70
     0
  9
$MIRRTEXT
 70
     0
  9
$LTSCALE
 40
1.0
  9
$ATTMODE
 70
     1
  9
$TEXTSIZE
 40
2.5
  9
$TRACEWID
 40
1.0
  9
$TEXTSTYLE
  7
Standard
  9
$CLAYER
  8
0
  9
$CELTYPE
  6
ByLayer
  9
$CECOLOR
 62
   256
  9
$CELTSCALE
 40
1.0
  9
$DISPSILH
 70
     0
  9
$DIMSCALE
 40
1.0
  9
$DIMASZ
 40
2.5
  9
$DIMEXO
 40
0.625
  9
$DIMDLI
 40
3.75
  9
$DIMRND
 40
0.0
  9
$DIMDLE
 40
0.0
  9
$DIMEXE
 40
1.25
  9
$DIMTP
 40
0.0
  9
$DIMTM
 40
0.0
  9
$DIMTXT
 40
2.5
  9
$DIMCEN
 40
2.5
  9
$DIMTSZ
 40
0.0
  9
$DIMTOL
 70
     0
  9
$DIMLIM
 70
     0
  9
$DIMTIH
 70
     0
  9
$DIMTOH
 70
     0
  9
$DIMSE1
 70
     0
  9
$DIMSE2
 70
     0
  9
$DIMTAD
 70
     1
  9
$DIMZIN
 70
     8
  9
$DIMBLK
  1

  9
$DIMASO
 70
     1
  9
$DIMSHO
 70
     1
  9
$DIMPOST
  1

  9
$DIMAPOST
  1

  9
$DIMALT
 70
     0
  9
$DIMALTD
 70
     3
  9
$DIMALTF
 40
0.03937007874016
  9
$DIMLFAC
 40
1.0
  9
$DIMTOFL
 70
     1
  9
$DIMTVP
 40
0.0
  9
$DIMTIX
 70
     0
  9
$DIMSOXD
 70
     0
  9
$DIMSAH
 70
     0
  9
$DIMBLK1
  1

  9
$DIMBLK2
  1

  9
$DIMSTYLE
  2
ISO-25
  9
$DIMCLRD
 70
     0
  9
$DIMCLRE
 70
     0
  9
$DIMCLRT
 70
     0
  9
$DIMTFAC
 40
1.0
  9
$DIMGAP
 40
0.625
  9
$DIMJUST
 70
     0
  9
$DIMSD1
 70
     0
  9
$DIMSD2
 70
     0
  9
$DIMTOLJ
 70
     0
  9
$DIMTZIN
 70
     8
  9
$DIMALTZ
 70
     0
  9
$DIMALTTZ
 70
     0
  9
$DIMUPT
 70
     0
  9
$DIMDEC
 70
     2
  9
$DIMTDEC
 70
     2
  9
$DIMALTU
 70
     2
  9
$DIMALTTD
 70
     3
  9
$DIMTXSTY
  7
Standard
  9
$DIMAUNIT
 70
     0
  9
$DIMADEC
 70
     0
  9
$DIMALTRND
 40
0.0
  9
$DIMAZIN
 70
     0
  9
$DIMDSEP
 70
    44
  9
$DIMATFIT
 70
     3
  9
$DIMFRAC
 70
     0
  9
$DIMLDRBLK
  1

  9
$DIMLUNIT
 70
     2
  9
$DIMLWD
 70
    -2
  9
$DIMLWE
 70
    -2
  9
$DIMTMOVE
 70
     0
  9
$DIMFXL
 40
1.0
  9
$DIMFXLON
 70
     0
  9
$DIMJOGANG
 40
0.7853981633974483
  9
$DIMTFILL
 70
     0
  9
$DIMTFILLCLR
 70
     0
  9
$DIMARCSYM
 70
     0
  9
$DIMLTYPE
  6

  9
$DIMLTEX1
  6

  9
$DIMLTEX2
  6

  9
$DIMTXTDIRECTION
 70
     0
  9
$LUNITS
 70
     2
  9
$LUPREC
 70
     4
  9
$SKETCHINC
 40
1.0
  9
$FILLETRAD
 40
0.0
  9
$AUNITS
 70
     0
  9
$AUPREC
 70
     0
  9
$MENU
  1
.
  9
$ELEVATION
 40
0.0
  9
$PELEVATION
 40
0.0
  9
$THICKNESS
 40
0.0
  9
$LIMCHECK
 70
     0
  9
$CHAMFERA
 40
0.0
  9
$CHAMFERB
 40
0.0
  9
$CHAMFERC
 40
0.0
  9
$CHAMFERD
 40
0.0
  9
$SKPOLY
 70
     0
  9
$TDCREATE
 40
2459020.707731482
  9
$TDUCREATE
 40
2459020.624398148
  9
$TDUPDATE
 40
2459020.707916667
  9
$TDUUPDATE
 40
2459020.624583334
  9
$TDINDWG
 40
0.0001851852
  9
$TDUSRTIMER
 40
0.0001851852
  9
$USRTIMER
 70
     1
  9
$ANGBASE
 50
0.0
  9
$ANGDIR
 70
     0
  9
$PDMODE
 70
     0
  9
$PDSIZE
 40
0.0
  9
$PLINEWID
 40
0.0
  9
$SPLFRAME
 70
     0
  9
$SPLINETYPE
 70
     6
  9
$SPLINESEGS
 70
     8
  9
$HANDSEED
  5
3CD
  9
$SURFTAB1
 70
     6
  9
$SURFTAB2
 70
     6
  9
$SURFTYPE
 70
     6
  9
$SURFU
 70
     6
  9
$SURFV
 70
     6
  9
$UCSBASE
  2

  9
$UCSNAME
  2

  9
$UCSORG
 10
0.0
 20
0.0
 30
0.0
  9
$UCSXDIR
 10
1.0
 20
0.0
 30
0.0
  9
$UCSYDIR
 10
0.0
 20
1.0
 30
0.0
  9
$UCSORTHOREF
  2

  9
$UCSORTHOVIEW
 70
     0
  9
$UCSORGTOP
 10
0.0
 20
0.0
 30
0.0
  9
$UCSORGBOTTOM
 10
0.0
 20
0.0
 30
0.0
  9
$UCSORGLEFT
 10
0.0
 20
0.0
 30
0.0
  9
$UCSORGRIGHT
 10
0.0
 20
0.0
 30
0.0
  9
$UCSORGFRONT
 10
0.0
 20
0.0
 30
0.0
  9
$UCSORGBACK
 10
0.0
 20
0.0
 30
0.0
  9
$PUCSBASE
  2

  9
$PUCSNAME
  2

  9
$PUCSORG
 10
0.0
 20
0.0
 30
0.0
  9
$PUCSXDIR
 10
1.0
 20
0.0
 30
0.0
  9
$PUCSYDIR
 10
0.0
 20
1.0
 30
0.0
  9
$PUCSORTHOREF
  2

  9
$PUCSORTHOVIEW
 70
     0
  9
$PUCSORGTOP
 10
0.0
 20
0.0
 30
0.0
  9
$PUCSORGBOTTOM
 10
0.0
 20
0.0
 30
0.0
  9
$PUCSORGLEFT
 10
0.0
 20
0.0
 30
0.0
  9
$PUCSORGRIGHT
 10
0.0
 20
0.0
 30
0.0
  9
$PUCSORGFRONT
 10
0.0
 20
0.0
 30
0.0
  9
$PUCSORGBACK
 10
0.0
 20
0.0
 30
0.0
  9
$USERI1
 70
     0
  9
$USERI2
 70
     0
  9
$USERI3
 70
     0
  9
$USERI4
 70
     0
  9
$USERI5
 70
     0
  9
$USERR1
 40
0.0
  9
$USERR2
 40
0.0
  9
$USERR3
 40
0.0
  9
$USERR4
 40
0.0
  9
$USERR5
 40
0.0
  9
$WORLDVIEW
 70
     1
  9
$SHADEDGE
 70
     3
  9
$SHADEDIF
 70
    70
  9
$TILEMODE
 70
     1
  9
$MAXACTVP
 70
    64
  9
$PINSBASE
 10
0.0
 20
0.0
 30
0.0
  9
$PLIMCHECK
 70
     0
  9
$PEXTMIN
 10
0.0
 20
0.0
 30
0.0
  9
$PEXTMAX
 10
0.0
 20
0.0
 30
0.0
  9
$PLIMMIN
 10
0.0
 20
0.0
  9
$PLIMMAX
 10
12.0
 20
9.0
  9
$UNITMODE
 70
     0
  9
$VISRETAIN
 70
     1
  9
$PLINEGEN
 70
     0
  9
$PSLTSCALE
 70
     1
  9
$TREEDEPTH
 70
  3020
  9
$CMLSTYLE
  2
Standard
  9
$CMLJUST
 70
     0
  9
$CMLSCALE
 40
20.0
  9
$PROXYGRAPHICS
 70
     1
  9
$MEASUREMENT
 70
     1
  9
$CELWEIGHT
370
    -1
  9
$ENDCAPS
280
     0
  9
$JOINSTYLE
280
     0
  9
$LWDISPLAY
290
     0
  9
$INSUNITS
 70
     4
  9
$HYPERLINKBASE
  1

  9
$STYLESHEET
  1

  9
$XEDIT
290
     1
  9
$CEPSNTYPE
380
     0
  9
$PSTYLEMODE
290
     1
  9
$FINGERPRINTGUID
  2
{36FAAA09-BEDD-7949-A470-8AD6FB10D993}
  9
$VERSIONGUID
  2
{D6157395-40FF-2D42-8524-FB20904E2194}
  9
$EXTNAMES
290
     1
  9
$PSVPSCALE
 40
0.0
  9
$OLESTARTUP
290
     0
  9
$SORTENTS
280
   127
  9
$INDEXCTL
280
     0
  9
$HIDETEXT
280
     1
  9
$XCLIPFRAME
280
     2
  9
$HALOGAP
280
     0
  9
$OBSCOLOR
 70
   257
  9
$OBSLTYPE
280
     0
  9
$INTERSECTIONDISPLAY
280
     0
  9
$INTERSECTIONCOLOR
 70
   257
  9
$DIMASSOC
280
     2
  9
$PROJECTNAME
  1

  9
$CAMERADISPLAY
290
     0
  9
$LENSLENGTH
 40
50.0
  9
$CAMERAHEIGHT
 40
0.0
  9
$STEPSPERSEC
 40
2.0
  9
$STEPSIZE
 40
6.0
  9
$3DDWFPREC
 40
2.0
  9
$PSOLWIDTH
 40
5.0
  9
$PSOLHEIGHT
 40
80.0
  9
$LOFTANG1
 40
1.570796326794896
  9
$LOFTANG2
 40
1.570796326794896
  9
$LOFTMAG1
 40
0.0
  9
$LOFTMAG2
 40
0.0
  9
$LOFTPARAM
 70
     7
  9
$LOFTNORMALS
280
     1
  9
$LATITUDE
 40
37.795
  9
$LONGITUDE
 40
-122.394
  9
$NORTHDIRECTION
 40
0.0
  9
$TIMEZONE
 70
 -8000
  9
$LIGHTGLYPHDISPLAY
280
     1
  9
$TILEMODELIGHTSYNCH
280
     1
  9
$CMATERIAL
347
EC
  9
$SOLIDHIST
280
     0
  9
$SHOWHIST
280
     1
  9
$DWFFRAME
280
     2
  9
$DGNFRAME
280
     0
  9
$REALWORLDSCALE
290
     1
  9
$INTERFERECOLOR
 62
     1
  9
$INTERFEREOBJVS
345
F9
  9
$INTERFEREVPVS
346
F6
  9
$CSHADOW
280
     0
  9
$SHADOWPLANELOCATION
 40
0.0
  0
ENDSEC
  0
SECTION
  2
CLASSES
  0
CLASS
  1
ACDBDICTIONARYWDFLT
  2
AcDbDictionaryWithDefault
  3
ObjectDBX Classes
 90
        0
 91
        1
280
     0
281
     0
  0
CLASS
  1
DICTIONARYVAR
  2
AcDbDictionaryVar
  3
ObjectDBX Classes
 90
        0
 91
       11
280
     0
281
     0
  0
CLASS
  1
TABLESTYLE
  2
AcDbTableStyle
  3
ObjectDBX Classes
 90
     4095
 91
        1
280
     0
281
     0
  0
CLASS
  1
MATERIAL
  2
AcDbMaterial
  3
ObjectDBX Classes
 90
     1153
 91
        3
280
     0
281
     0
  0
CLASS
  1
VISUALSTYLE
  2
AcDbVisualStyle
  3
ObjectDBX Classes
 90
     4095
 91
       24
280
     0
281
     0
  0
CLASS
  1
SCALE
  2
AcDbScale
  3
ObjectDBX Classes
 90
     1153
 91
       17
280
     0
281
     0
  0
CLASS
  1
MLEADERSTYLE
  2
AcDbMLeaderStyle
  3
ACDB_MLEADERSTYLE_CLASS
 90
     4095
 91
        2
280
     0
281
     0
  0
CLASS
  1
CELLSTYLEMAP
  2
AcDbCellStyleMap
  3
ObjectDBX Classes
 90
     1152
 91
        1
280
     0
281
     0
  0
CLASS
  1
EXACXREFPANELOBJECT
  2
ExAcXREFPanelObject
  3
EXAC_ESW
 90
     1025
 91
        0
280
     0
281
     0
  0
CLASS
  1
NPOCOLLECTION
  2
AcDbImpNonPersistentObjectsCollection
  3
ObjectDBX Classes
 90
     1153
 91
        0
280
     0
281
     0
  0
CLASS
  1
LAYER_INDEX
  2
AcDbLayerIndex
  3
ObjectDBX Classes
 90
        0
 91
        0
280
     0
281
     0
  0
CLASS
  1
SPATIAL_INDEX
  2
AcDbSpatialIndex
  3
ObjectDBX Classes
 90
        0
 91
        0
280
     0
281
     0
  0
CLASS
  1
IDBUFFER
  2
AcDbIdBuffer
  3
ObjectDBX Classes
 90
        0
 91
        0
280
     0
281
     0
  0
CLASS
  1
ACDBSECTIONVIEWSTYLE
  2
AcDbSectionViewStyle
  3
ObjectDBX Classes
 90
     1025
 91
        2
280
     0
281
     0
  0
CLASS
  1
ACDBDETAILVIEWSTYLE
  2
AcDbDetailViewStyle
  3
ObjectDBX Classes
 90
     1025
 91
        2
280
     0
281
     0
  0
CLASS
  1
SORTENTSTABLE
  2
AcDbSortentsTable
  3
ObjectDBX Classes
 90
        0
 91
        1
280
     0
281
     0
  0
ENDSEC
  0
SECTION
  2
TABLES
  0
TABLE
  2
VPORT
  5
8
330
0
100
AcDbSymbolTable
 70
     1
1001
ACAD
1000
DbSaveVer
1071
      208
  0
VPORT
  5
EA
330
8
100
AcDbSymbolTableRecord
100
AcDbViewportTableRecord
  2
*Active
 70
     0
 10
0.0
 20
0.0
 11
1.0
 21
1.0
 12
11.61895826647406
 22
19.29666191804762
 13
0.0
 23
0.0
 14
10.0
 24
10.0
 15
10.0
 25
10.0
 16
0.0
 26
0.0
 36
1.0
 17
0.0
 27
0.0
 37
0.0
 40
38.78601043838543
 41
2.452859350850077
 42
50.0
 43
0.0
 44
0.0
 50
0.0
 51
0.0
 71
     0
 72
  1000
 73
     1
 74
     3
 75
     0
 76
     1
 77
     0
 78
     0
281
     0
 65
     1
110
0.0
120
0.0
130
0.0
111
1.0
121
0.0
131
0.0
112
0.0
122
1.0
132
0.0
 79
     0
146
0.0
348
F5
 60
     3
 61
     5
292
     1
282
     1
141
0.0
142
0.0
 63
   250
421
  3355443
1001
ACAD_NAV_VCDISPLAY
1070
     3
  0
ENDTAB
  0
TABLE
  2
LTYPE
  5
5
330
0
100
AcDbSymbolTable
 70
     1
  0
LTYPE
  5
14
330
5
100
AcDbSymbolTableRecord
100
AcDbLinetypeTableRecord
  2
ByBlock
 70
     0
  3

 72
    65
 73
     0
 40
0.0
  0
LTYPE
  5
15
330
5
100
AcDbSymbolTableRecord
100
AcDbLinetypeTableRecord
  2
ByLayer
 70
     0
  3

 72
    65
 73
     0
 40
0.0
  0
LTYPE
  5
16
330
5
100
AcDbSymbolTableRecord
100
AcDbLinetypeTableRecord
  2
Continuous
 70
     0
  3
Solid line
 72
    65
 73
     0
 40
0.0
  0
ENDTAB
  0
TABLE
  2
LAYER
  5
2
102
{ACAD_XDICTIONARY
360
1FF
102
}
330
0
100
AcDbSymbolTable
 70
     2
  0
LAYER
  5
10
102
{ACAD_XDICTIONARY
360
13C
102
}
330
2
100
AcDbSymbolTableRecord
100
AcDbLayerTableRecord
  2
0
 70
     0
 62
     7
  6
Continuous
370
    -3
390
F
347
EE
348
0
  0
LAYER
  5
28C
330
2
100
AcDbSymbolTableRecord
100
AcDbLayerTableRecord
  2
Livello 1
 70
     0
 62
     7
  6
Continuous
370
    -3
390
F
347
EE
348
0
  0
ENDTAB
  0
TABLE
  2
STYLE
  5
3
330
0
100
AcDbSymbolTable
 70
     2
  0
STYLE
  5
11
330
3
100
AcDbSymbolTableRecord
100
AcDbTextStyleTableRecord
  2
Standard
 70
     0
 40
0.0
 41
1.0
 50
0.0
 71
     0
 42
2.5
  3
arial.ttf
  4

1001
ACAD
1000
Arial
1071
       34
  0
STYLE
  5
132
330
3
100
AcDbSymbolTableRecord
100
AcDbTextStyleTableRecord
  2
Annotativa
 70
     0
 40
0.0
 41
1.0
 50
0.0
 71
     0
 42
2.5
  3
arial.ttf
  4

1001
AcadAnnotative
1000
AnnotativeData
1002
{
1070
     1
1070
     1
1002
}
1001
ACAD
1000
Arial
1071
       34
  0
ENDTAB
  0
TABLE
  2
VIEW
  5
6
330
0
100
AcDbSymbolTable
 70
     0
  0
ENDTAB
  0
TABLE
  2
UCS
  5
7
330
0
100
AcDbSymbolTable
 70
     0
  0
ENDTAB
  0
TABLE
  2
APPID
  5
9
330
0
100
AcDbSymbolTable
 70
     8
  0
APPID
  5
12
330
9
100
AcDbSymbolTableRecord
100
AcDbRegAppTableRecord
  2
ACAD
 70
     0
  0
APPID
  5
9E
330
9
100
AcDbSymbolTableRecord
100
AcDbRegAppTableRecord
  2
ACAD_PSEXT
 70
     0
  0
APPID
  5
133
330
9
100
AcDbSymbolTableRecord
100
AcDbRegAppTableRecord
  2
AcadAnnoPO
 70
     0
  0
APPID
  5
134
330
9
100
AcDbSymbolTableRecord
100
AcDbRegAppTableRecord
  2
AcadAnnotative
 70
     0
  0
APPID
  5
135
330
9
100
AcDbSymbolTableRecord
100
AcDbRegAppTableRecord
  2
ACAD_DSTYLE_DIMJAG
 70
     0
  0
APPID
  5
136
330
9
100
AcDbSymbolTableRecord
100
AcDbRegAppTableRecord
  2
ACAD_DSTYLE_DIMTALN
 70
     0
  0
APPID
  5
165
330
9
100
AcDbSymbolTableRecord
100
AcDbRegAppTableRecord
  2
ACAD_MLEADERVER
 70
     0
  0
APPID
  5
217
330
9
100
AcDbSymbolTableRecord
100
AcDbRegAppTableRecord
  2
ACAD_NAV_VCDISPLAY
 70
     0
  0
ENDTAB
  0
TABLE
  2
DIMSTYLE
  5
A
330
0
100
AcDbSymbolTable
 70
     3
100
AcDbDimStyleTable
 71
     2
340
27
340
137
  0
DIMSTYLE
105
1B0
330
A
100
AcDbSymbolTableRecord
100
AcDbDimStyleTableRecord
  2
Standard
 70
     0
340
11
  0
DIMSTYLE
105
137
330
A
100
AcDbSymbolTableRecord
100
AcDbDimStyleTableRecord
  2
Annotativa
 70
     0
 40
0.0
 41
2.5
 42
0.625
 43
3.75
 44
1.25
 73
     0
 74
     0
 77
     1
 78
     8
140
2.5
141
2.5
143
0.03937007874016
147
0.625
171
     3
172
     1
271
     2
272
     2
274
     3
278
    44
283
     0
284
     8
340
11
1001
AcadAnnotative
1000
AnnotativeData
1002
{
1070
     1
1070
     1
1002
}
1001
ACAD_DSTYLE_DIMJAG
1070
   388
1040
1.5
1001
ACAD_DSTYLE_DIMTALN
1070
   392
1070
     0
  0
DIMSTYLE
105
27
330
A
100
AcDbSymbolTableRecord
100
AcDbDimStyleTableRecord
  2
ISO-25
 70
     0
 41
2.5
 42
0.625
 43
3.75
 44
1.25
 73
     0
 74
     0
 77
     1
 78
     8
140
2.5
141
2.5
143
0.03937007874016
147
0.625
171
     3
172
     1
271
     2
272
     2
274
     3
278
    44
283
     0
284
     8
340
11
  0
ENDTAB
  0
TABLE
  2
BLOCK_RECORD
  5
1
330
0
100
AcDbSymbolTable
 70
     2
  0
BLOCK_RECORD
  5
1F
102
{ACAD_XDICTIONARY
360
1CE
102
}
330
1
100
AcDbSymbolTableRecord
100
AcDbBlockTableRecord
  2
*Model_Space
340
22
 70
     0
280
     1
281
     0
  0
BLOCK_RECORD
  5
D2
330
1
100
AcDbSymbolTableRecord
100
AcDbBlockTableRecord
  2
*Paper_Space
340
D3
 70
     0
280
     1
281
     0
  0
BLOCK_RECORD
  5
D6
330
1
100
AcDbSymbolTableRecord
100
AcDbBlockTableRecord
  2
*Paper_Space0
340
D7
 70
     0
280
     1
281
     0
  0
ENDTAB
  0
ENDSEC
  0
SECTION
  2
BLOCKS
  0
BLOCK
  5
20
330
1F
100
AcDbEntity
  8
0
100
AcDbBlockBegin
  2
*Model_Space
 70
     0
 10
0.0
 20
0.0
 30
0.0
  3
*Model_Space
  1

  0
ENDBLK
  5
21
330
1F
100
AcDbEntity
  8
0
100
AcDbBlockEnd
  0
BLOCK
  5
D4
330
D2
100
AcDbEntity
 67
     1
  8
0
100
AcDbBlockBegin
  2
*Paper_Space
 70
     0
 10
0.0
 20
0.0
 30
0.0
  3
*Paper_Space
  1

  0
ENDBLK
  5
D5
330
D2
100
AcDbEntity
 67
     1
  8
0
100
AcDbBlockEnd
  0
BLOCK
  5
D8
330
D6
100
AcDbEntity
 67
     1
  8
0
100
AcDbBlockBegin
  2
*Paper_Space0
 70
     0
 10
0.0
 20
0.0
 30
0.0
  3
*Paper_Space0
  1

  0
ENDBLK
  5
D9
330
D6
100
AcDbEntity
 67
     1
  8
0
100
AcDbBlockEnd
  0
ENDSEC
  0
SECTION
  2
ENTITIES
  0
POLYLINE
  5
329
330
1F
100
AcDbEntity
  8
Livello 1
100
AcDb2dPolyline
 66
     1
 10
0.0
 20
0.0
 30
0.0
  0
VERTEX
  5
32A
330
329
100
AcDbEntity
  8
Livello 1
100
AcDbVertex
100
AcDb2dVertex
 10
18.05340185384209
 20
4.033821279624362
 30
0.0
  0
VERTEX
  5
32B
330
329
100
AcDbEntity
  8
Livello 1
100
AcDbVertex
100
AcDb2dVertex
 10
-0.0000006502742522
 20
4.033821279624362
 30
0.0
  0
SEQEND
  5
32C
330
329
100
AcDbEntity
  8
Livello 1
  0
POLYLINE
  5
32D
330
1F
100
AcDbEntity
  8
Livello 1
100
AcDb2dPolyline
 66
     1
 10
0.0
 20
0.0
 30
0.0
  0
VERTEX
  5
32E
330
32D
100
AcDbEntity
  8
Livello 1
100
AcDbVertex
100
AcDb2dVertex
 10
19.28833670274262
 20
23.43384701338428
 30
0.0
  0
VERTEX
  5
32F
330
32D
100
AcDbEntity
  8
Livello 1
100
AcDbVertex
100
AcDb2dVertex
 10
19.28833670274262
 20
5.257325409364142
 30
0.0
  0
SEQEND
  5
330
330
32D
100
AcDbEntity
  8
Livello 1
  0
MTEXT
  5
331
330
1F
100
AcDbEntity
  8
Livello 1
100
AcDbMText
 10
4.212452951111878
 20
0.9303297351830508
 30
0.0
 40
2.123016666135912
 41
0.0
 46
0.0
 71
     7
 72
     1
  1
\fSource Sans Pro Light|b0|i0|c0|p34;\W1;151 mm
 73
     1
 44
1.0
  0
MTEXT
  5
332
330
1F
100
AcDbEntity
  8
Livello 1
100
AcDbMText
 10
22.39166738172063
 20
9.531667335436168
 30
0.0
 40
2.123016666135912
 41
0.0
 46
0.0
 71
     7
 72
     1
  1
\fSource Sans Pro Light|b0|i0|c0|p34;\W1;151 mm
 11
-0.0000000000000002
 21
1.0
 31
0.0
 73
     1
 44
1.0
  0
POLYLINE
  5
333
330
1F
100
AcDbEntity
  8
Livello 1
100
AcDb2dPolyline
 66
     1
 10
0.0
 20
0.0
 30
0.0
  0
VERTEX
  5
334
330
333
100
AcDbEntity
  8
Livello 1
100
AcDbVertex
100
AcDb2dVertex
 10
18.11055141242495
 20
23.64551314170189
 30
0.0
  0
VERTEX
  5
335
330
333
100
AcDbEntity
  8
Livello 1
100
AcDbVertex
100
AcDb2dVertex
 10
18.11055141242495
 20
23.57319305132006
 30
0.0
  0
VERTEX
  5
336
330
333
100
AcDbEntity
  8
Livello 1
100
AcDbVertex
100
AcDb2dVertex
 10
12.81041734833386
 20
23.57319305132006
 30
0.0
  0
VERTEX
  5
337
330
333
100
AcDbEntity
  8
Livello 1
100
AcDbVertex
100
AcDb2dVertex
 10
12.81041734833386
 20
23.64551314170189
 30
0.0
  0
VERTEX
  5
338
330
333
100
AcDbEntity
  8
Livello 1
100
AcDbVertex
100
AcDb2dVertex
 10
12.75150352405524
 20
23.64551314170189
 30
0.0
  0
VERTEX
  5
339
330
333
100
AcDbEntity
  8
Livello 1
100
AcDbVertex
100
AcDb2dVertex
 10
12.75150352405524
 20
23.57319305132006
 30
0.0
  0
VERTEX
  5
33A
330
333
100
AcDbEntity
  8
Livello 1
100
AcDbVertex
100
AcDb2dVertex
 10
12.73421748830992
 20
23.57319305132006
 30
0.0
  0
VERTEX
  5
33B
330
333
100
AcDbEntity
  8
Livello 1
100
AcDbVertex
100
AcDb2dVertex
 10
12.73421748830992
 20
10.63612742141666
 30
0.0
  0
VERTEX
  5
33C
330
333
100
AcDbEntity
  8
Livello 1
100
AcDbVertex
100
AcDb2dVertex
 10
0.2592898859056376
 20
10.63612742141666
 30
0.0
  0
VERTEX
  5
33D
330
333
100
AcDbEntity
  8
Livello 1
100
AcDbVertex
100
AcDb2dVertex
 10
0.0839600947744828
 20
10.63330540374767
 30
0.0
  0
VERTEX
  5
33E
330
333
100
AcDbEntity
  8
Livello 1
100
AcDbVertex
100
AcDb2dVertex
 10
0.0839600947744828
 20
10.78217659240397
 30
0.0
  0
VERTEX
  5
33F
330
333
100
AcDbEntity
  8
Livello 1
100
AcDbVertex
100
AcDb2dVertex
 10
12.58781438759104
 20
10.78217659240397
 30
0.0
  0
VERTEX
  5
340
330
333
100
AcDbEntity
  8
Livello 1
100
AcDbVertex
100
AcDb2dVertex
 10
12.58781438759104
 20
23.64551314170189
 30
0.0
  0
VERTEX
  5
341
330
333
100
AcDbEntity
  8
Livello 1
100
AcDbVertex
100
AcDb2dVertex
 10
12.52925314730349
 20
23.64551314170189
 30
0.0
  0
VERTEX
  5
342
330
333
100
AcDbEntity
  8
Livello 1
100
AcDbVertex
100
AcDb2dVertex
 10
12.52925314730349
 20
10.84144434641405
 30
0.0
  0
VERTEX
  5
343
330
333
100
AcDbEntity
  8
Livello 1
100
AcDbVertex
100
AcDb2dVertex
 10
0.0246936865048042
 20
10.84144434641405
 30
0.0
  0
VERTEX
  5
344
330
333
100
AcDbEntity
  8
Livello 1
100
AcDbVertex
100
AcDb2dVertex
 10
0.0246936865048042
 20
10.57368506574647
 30
0.0
  0
VERTEX
  5
345
330
333
100
AcDbEntity
  8
Livello 1
100
AcDbVertex
100
AcDb2dVertex
 10
0.2592898859056376
 20
10.57721359713795
 30
0.0
  0
VERTEX
  5
346
330
333
100
AcDbEntity
  8
Livello 1
100
AcDbVertex
100
AcDb2dVertex
 10
12.7934838965796
 20
10.57721359713795
 30
0.0
  0
VERTEX
  5
347
330
333
100
AcDbEntity
  8
Livello 1
100
AcDbVertex
100
AcDb2dVertex
 10
12.7934838965796
 20
23.49452375761814
 30
0.0
  0
VERTEX
  5
348
330
333
100
AcDbEntity
  8
Livello 1
100
AcDbVertex
100
AcDb2dVertex
 10
12.81041734833386
 20
23.49452375761814
 30
0.0
  0
VERTEX
  5
349
330
333
100
AcDbEntity
  8
Livello 1
100
AcDbVertex
100
AcDb2dVertex
 10
12.81041734833386
 20
23.51427922704147
 30
0.0
  0
VERTEX
  5
34A
330
333
100
AcDbEntity
  8
Livello 1
100
AcDbVertex
100
AcDb2dVertex
 10
18.09749773031288
 20
23.51427922704147
 30
0.0
  0
VERTEX
  5
34B
330
333
100
AcDbEntity
  8
Livello 1
100
AcDbVertex
100
AcDb2dVertex
 10
18.08585572990549
 20
5.61010184131328
 30
0.0
  0
VERTEX
  5
34C
330
333
100
AcDbEntity
  8
Livello 1
100
AcDbVertex
100
AcDb2dVertex
 10
0.2592898859056376
 20
5.61010184131328
 30
0.0
  0
VERTEX
  5
34D
330
333
100
AcDbEntity
  8
Livello 1
100
AcDbVertex
100
AcDb2dVertex
 10
0.0246936865048042
 20
5.606927239653288
 30
0.0
  0
VERTEX
  5
34E
330
333
100
AcDbEntity
  8
Livello 1
100
AcDbVertex
100
AcDb2dVertex
 10
0.0246936865048042
 20
5.346223676028273
 30
0.0
  0
VERTEX
  5
34F
330
333
100
AcDbEntity
  8
Livello 1
100
AcDbVertex
100
AcDb2dVertex
 10
18.26506798215968
 20
5.346223676028273
 30
0.0
  0
VERTEX
  5
350
330
333
100
AcDbEntity
  8
Livello 1
100
AcDbVertex
100
AcDb2dVertex
 10
18.26506798215968
 20
5.405137500306864
 30
0.0
  0
VERTEX
  5
351
330
333
100
AcDbEntity
  8
Livello 1
100
AcDbVertex
100
AcDb2dVertex
 10
0.0839600947744828
 20
5.405137500306864
 30
0.0
  0
VERTEX
  5
352
330
333
100
AcDbEntity
  8
Livello 1
100
AcDbVertex
100
AcDb2dVertex
 10
0.0839600947744828
 20
5.549071167347875
 30
0.0
  0
VERTEX
  5
353
330
333
100
AcDbEntity
  8
Livello 1
100
AcDbVertex
100
AcDb2dVertex
 10
18.14441697019305
 20
5.551188017034633
 30
0.0
  0
VERTEX
  5
354
330
333
100
AcDbEntity
  8
Livello 1
100
AcDbVertex
100
AcDb2dVertex
 10
18.15676413858257
 20
23.54355984718515
 30
0.0
  0
VERTEX
  5
355
330
333
100
AcDbEntity
  8
Livello 1
100
AcDbVertex
100
AcDb2dVertex
 10
18.16946523670356
 20
23.54355984718515
 30
0.0
  0
VERTEX
  5
356
330
333
100
AcDbEntity
  8
Livello 1
100
AcDbVertex
100
AcDb2dVertex
 10
18.16946523670356
 20
23.64551314170189
 30
0.0
  0
VERTEX
  5
357
330
333
100
AcDbEntity
  8
Livello 1
100
AcDbVertex
100
AcDb2dVertex
 10
18.11055141242495
 20
23.64551314170189
 30
0.0
  0
SEQEND
  5
358
330
333
100
AcDbEntity
  8
Livello 1
  0
POLYLINE
  5
359
330
1F
100
AcDbEntity
  8
Livello 1
100
AcDb2dPolyline
 66
     1
 10
0.0
 20
0.0
 30
0.0
  0
VERTEX
  5
35A
330
359
100
AcDbEntity
  8
Livello 1
100
AcDbVertex
100
AcDb2dVertex
 10
0.2746720353862244
 20
10.60353156973846
 30
0.0
  0
VERTEX
  5
35B
330
359
100
AcDbEntity
  8
Livello 1
100
AcDbVertex
100
AcDb2dVertex
 10
0.2746720353862244
 20
5.597262131928573
 30
0.0
  0
SEQEND
  5
35C
330
359
100
AcDbEntity
  8
Livello 1
  0
POLYLINE
  5
35D
330
1F
100
AcDbEntity
  8
Livello 1
100
AcDb2dPolyline
 66
     1
 10
0.0
 20
0.0
 30
0.0
  0
VERTEX
  5
35E
330
35D
100
AcDbEntity
  8
Livello 1
100
AcDbVertex
100
AcDb2dVertex
 10
12.5555717927742
 20
10.80009916336988
 30
0.0
  0
VERTEX
  5
35F
330
35D
100
AcDbEntity
  8
Livello 1
100
AcDbVertex
100
AcDb2dVertex
 10
18.26527926340624
 20
5.397659893641275
 30
0.0
  0
VERTEX
  5
360
330
35D
100
AcDbEntity
  8
Livello 1
100
AcDbVertex
100
AcDb2dVertex
 10
18.26527926340624
 20
5.479151877882372
 30
0.0
  0
VERTEX
  5
361
330
35D
100
AcDbEntity
  8
Livello 1
100
AcDbVertex
100
AcDb2dVertex
 10
12.59614048359386
 20
10.84278470387636
 30
0.0
  0
VERTEX
  5
362
330
35D
100
AcDbEntity
  8
Livello 1
100
AcDbVertex
100
AcDb2dVertex
 10
12.5555717927742
 20
10.80009916336988
 30
0.0
  0
SEQEND
  5
363
330
35D
100
AcDbEntity
  8
Livello 1
  0
POLYLINE
  5
364
330
1F
100
AcDbEntity
  8
Livello 1
100
AcDb2dPolyline
 66
     1
 10
0.0
 20
0.0
 30
0.0
  0
VERTEX
  5
365
330
364
100
AcDbEntity
  8
Livello 1
100
AcDbVertex
100
AcDb2dVertex
 10
12.02125497763747
 20
28.72597392195294
 30
0.0
  0
VERTEX
  5
366
330
364
100
AcDbEntity
  8
Livello 1
100
AcDbVertex
100
AcDb2dVertex
 10
6.032146898800604
 20
28.72597392195294
 30
0.0
  0
SEQEND
  5
367
330
364
100
AcDbEntity
  8
Livello 1
  0
POLYLINE
  5
368
330
1F
100
AcDbEntity
  8
Livello 1
100
AcDb2dPolyline
 66
     1
 10
0.0
 20
0.0
 30
0.0
  0
VERTEX
  5
369
330
368
100
AcDbEntity
  8
Livello 1
100
AcDbVertex
100
AcDb2dVertex
 10
13.2445828153816
 20
37.59462940001467
 30
0.0
  0
VERTEX
  5
36A
330
368
100
AcDbEntity
  8
Livello 1
100
AcDbVertex
100
AcDb2dVertex
 10
13.2445828153816
 20
29.94922774397375
 30
0.0
  0
SEQEND
  5
36B
330
368
100
AcDbEntity
  8
Livello 1
  0
MTEXT
  5
36C
330
1F
100
AcDbEntity
  8
Livello 1
100
AcDbMText
 10
4.915596939651379
 20
25.62270711616279
 30
0.0
 40
2.123016666135912
 41
0.0
 46
0.0
 71
     7
 72
     1
  1
\fSource Sans Pro Light|b0|i0|c0|p34;\W1;50 mm
 73
     1
 44
1.0
  0
MTEXT
  5
36D
330
1F
100
AcDbEntity
  8
Livello 1
100
AcDbMText
 10
16.34787177640648
 20
29.66101574620277
 30
0.0
 40
2.123016666135912
 41
0.0
 46
0.0
 71
     7
 72
     1
  1
\fSource Sans Pro Light|b0|i0|c0|p34;\W1;80 mm
 11
-0.0000000000000002
 21
1.0
 31
0.0
 73
     1
 44
1.0
  0
SPLINE
  5
36E
330
1F
100
AcDbEntity
  8
Livello 1
100
AcDbSpline
210
0.0
220
0.0
230
1.0
 70
     9
 71
     3
 72
   842
 73
   838
 74
     0
 42
0.000000001
 43
0.0000000001
 40
0.0
 40
0.0
 40
0.0
 40
0.0
 40
1.0
 40
1.0
 40
1.0
 40
2.0
 40
2.0
 40
2.0
 40
3.0
 40
3.0
 40
3.0
 40
4.0
 40
4.0
 40
4.0
 40
5.0
 40
5.0
 40
5.0
 40
6.0
 40
6.0
 40
6.0
 40
7.0
 40
7.0
 40
7.0
 40
8.0
 40
8.0
 40
8.0
 40
9.0
 40
9.0
 40
9.0
 40
10.0
 40
10.0
 40
10.0
 40
11.0
 40
11.0
 40
11.0
 40
12.0
 40
12.0
 40
12.0
 40
13.0
 40
13.0
 40
13.0
 40
14.0
 40
14.0
 40
14.0
 40
15.0
 40
15.0
 40
15.0
 40
16.0
 40
16.0
 40
16.0
 40
17.0
 40
17.0
 40
17.0
 40
18.0
 40
18.0
 40
18.0
 40
19.0
 40
19.0
 40
19.0
 40
20.0
 40
20.0
 40
20.0
 40
21.0
 40
21.0
 40
21.0
 40
22.0
 40
22.0
 40
22.0
 40
23.0
 40
23.0
 40
23.0
 40
24.0
 40
24.0
 40
24.0
 40
25.0
 40
25.0
 40
25.0
 40
26.0
 40
26.0
 40
26.0
 40
27.0
 40
27.0
 40
27.0
 40
28.0
 40
28.0
 40
28.0
 40
29.0
 40
29.0
 40
29.0
 40
30.0
 40
30.0
 40
30.0
 40
31.0
 40
31.0
 40
31.0
 40
32.0
 40
32.0
 40
32.0
 40
33.0
 40
33.0
 40
33.0
 40
34.0
 40
34.0
 40
34.0
 40
35.0
 40
35.0
 40
35.0
 40
36.0
 40
36.0
 40
36.0
 40
37.0
 40
37.0
 40
37.0
 40
38.0
 40
38.0
 40
38.0
 40
39.0
 40
39.0
 40
39.0
 40
40.0
 40
40.0
 40
40.0
 40
41.0
 40
41.0
 40
41.0
 40
42.0
 40
42.0
 40
42.0
 40
43.0
 40
43.0
 40
43.0
 40
44.0
 40
44.0
 40
44.0
 40
45.0
 40
45.0
 40
45.0
 40
46.0
 40
46.0
 40
46.0
 40
47.0
 40
47.0
 40
47.0
 40
48.0
 40
48.0
 40
48.0
 40
49.0
 40
49.0
 40
49.0
 40
50.0
 40
50.0
 40
50.0
 40
51.0
 40
51.0
 40
51.0
 40
52.0
 40
52.0
 40
52.0
 40
53.0
 40
53.0
 40
53.0
 40
54.0
 40
54.0
 40
54.0
 40
55.0
 40
55.0
 40
55.0
 40
56.0
 40
56.0
 40
56.0
 40
57.0
 40
57.0
 40
57.0
 40
58.0
 40
58.0
 40
58.0
 40
59.0
 40
59.0
 40
59.0
 40
60.0
 40
60.0
 40
60.0
 40
61.0
 40
61.0
 40
61.0
 40
62.0
 40
62.0
 40
62.0
 40
63.0
 40
63.0
 40
63.0
 40
64.0
 40
64.0
 40
64.0
 40
65.0
 40
65.0
 40
65.0
 40
66.0
 40
66.0
 40
66.0
 40
67.0
 40
67.0
 40
67.0
 40
68.0
 40
68.0
 40
68.0
 40
69.0
 40
69.0
 40
69.0
 40
70.0
 40
70.0
 40
70.0
 40
71.0
 40
71.0
 40
71.0
 40
72.0
 40
72.0
 40
72.0
 40
73.0
 40
73.0
 40
73.0
 40
74.0
 40
74.0
 40
74.0
 40
75.0
 40
75.0
 40
75.0
 40
76.0
 40
76.0
 40
76.0
 40
77.0
 40
77.0
 40
77.0
 40
78.0
 40
78.0
 40
78.0
 40
79.0
 40
79.0
 40
79.0
 40
80.0
 40
80.0
 40
80.0
 40
81.0
 40
81.0
 40
81.0
 40
82.0
 40
82.0
 40
82.0
 40
83.0
 40
83.0
 40
83.0
 40
84.0
 40
84.0
 40
84.0
 40
85.0
 40
85.0
 40
85.0
 40
86.0
 40
86.0
 40
86.0
 40
87.0
 40
87.0
 40
87.0
 40
88.0
 40
88.0
 40
88.0
 40
89.0
 40
89.0
 40
89.0
 40
90.0
 40
90.0
 40
90.0
 40
91.0
 40
91.0
 40
91.0
 40
92.0
 40
92.0
 40
92.0
 40
93.0
 40
93.0
 40
93.0
 40
94.0
 40
94.0
 40
94.0
 40
95.0
 40
95.0
 40
95.0
 40
96.0
 40
96.0
 40
96.0
 40
97.0
 40
97.0
 40
97.0
 40
98.0
 40
98.0
 40
98.0
 40
99.0
 40
99.0
 40
99.0
 40
100.0
 40
100.0
 40
100.0
 40
101.0
 40
101.0
 40
101.0
 40
102.0
 40
102.0
 40
102.0
 40
103.0
 40
103.0
 40
103.0
 40
104.0
 40
104.0
 40
104.0
 40
105.0
 40
105.0
 40
105.0
 40
106.0
 40
106.0
 40
106.0
 40
107.0
 40
107.0
 40
107.0
 40
108.0
 40
108.0
 40
108.0
 40
109.0
 40
109.0
 40
109.0
 40
110.0
 40
110.0
 40
110.0
 40
111.0
 40
111.0
 40
111.0
 40
112.0
 40
112.0
 40
112.0
 40
113.0
 40
113.0
 40
113.0
 40
114.0
 40
114.0
 40
114.0
 40
115.0
 40
115.0
 40
115.0
 40
116.0
 40
116.0
 40
116.0
 40
117.0
 40
117.0
 40
117.0
 40
118.0
 40
118.0
 40
118.0
 40
119.0
 40
119.0
 40
119.0
 40
120.0
 40
120.0
 40
120.0
 40
121.0
 40
121.0
 40
121.0
 40
122.0
 40
122.0
 40
122.0
 40
123.0
 40
123.0
 40
123.0
 40
124.0
 40
124.0
 40
124.0
 40
125.0
 40
125.0
 40
125.0
 40
126.0
 40
126.0
 40
126.0
 40
127.0
 40
127.0
 40
127.0
 40
128.0
 40
128.0
 40
128.0
 40
129.0
 40
129.0
 40
129.0
 40
130.0
 40
130.0
 40
130.0
 40
131.0
 40
131.0
 40
131.0
 40
132.0
 40
132.0
 40
132.0
 40
133.0
 40
133.0
 40
133.0
 40
134.0
 40
134.0
 40
134.0
 40
135.0
 40
135.0
 40
135.0
 40
136.0
 40
136.0
 40
136.0
 40
137.0
 40
137.0
 40
137.0
 40
138.0
 40
138.0
 40
138.0
 40
139.0
 40
139.0
 40
139.0
 40
140.0
 40
140.0
 40
140.0
 40
141.0
 40
141.0
 40
141.0
 40
142.0
 40
142.0
 40
142.0
 40
143.0
 40
143.0
 40
143.0
 40
144.0
 40
144.0
 40
144.0
 40
145.0
 40
145.0
 40
145.0
 40
146.0
 40
146.0
 40
146.0
 40
147.0
 40
147.0
 40
147.0
 40
148.0
 40
148.0
 40
148.0
 40
149.0
 40
149.0
 40
149.0
 40
150.0
 40
150.0
 40
150.0
 40
151.0
 40
151.0
 40
151.0
 40
152.0
 40
152.0
 40
152.0
 40
153.0
 40
153.0
 40
153.0
 40
154.0
 40
154.0
 40
154.0
 40
155.0
 40
155.0
 40
155.0
 40
156.0
 40
156.0
 40
156.0
 40
157.0
 40
157.0
 40
157.0
 40
158.0
 40
158.0
 40
158.0
 40
159.0
 40
159.0
 40
159.0
 40
160.0
 40
160.0
 40
160.0
 40
161.0
 40
161.0
 40
161.0
 40
162.0
 40
162.0
 40
162.0
 40
163.0
 40
163.0
 40
163.0
 40
164.0
 40
164.0
 40
164.0
 40
165.0
 40
165.0
 40
165.0
 40
166.0
 40
166.0
 40
166.0
 40
167.0
 40
167.0
 40
167.0
 40
168.0
 40
168.0
 40
168.0
 40
169.0
 40
169.0
 40
169.0
 40
170.0
 40
170.0
 40
170.0
 40
171.0
 40
171.0
 40
171.0
 40
172.0
 40
172.0
 40
172.0
 40
173.0
 40
173.0
 40
173.0
 40
174.0
 40
174.0
 40
174.0
 40
175.0
 40
175.0
 40
175.0
 40
176.0
 40
176.0
 40
176.0
 40
177.0
 40
177.0
 40
177.0
 40
178.0
 40
178.0
 40
178.0
 40
179.0
 40
179.0
 40
179.0
 40
180.0
 40
180.0
 40
180.0
 40
181.0
 40
181.0
 40
181.0
 40
182.0
 40
182.0
 40
182.0
 40
183.0
 40
183.0
 40
183.0
 40
184.0
 40
184.0
 40
184.0
 40
185.0
 40
185.0
 40
185.0
 40
186.0
 40
186.0
 40
186.0
 40
187.0
 40
187.0
 40
187.0
 40
188.0
 40
188.0
 40
188.0
 40
189.0
 40
189.0
 40
189.0
 40
190.0
 40
190.0
 40
190.0
 40
191.0
 40
191.0
 40
191.0
 40
192.0
 40
192.0
 40
192.0
 40
193.0
 40
193.0
 40
193.0
 40
194.0
 40
194.0
 40
194.0
 40
195.0
 40
195.0
 40
195.0
 40
196.0
 40
196.0
 40
196.0
 40
197.0
 40
197.0
 40
197.0
 40
198.0
 40
198.0
 40
198.0
 40
199.0
 40
199.0
 40
199.0
 40
200.0
 40
200.0
 40
200.0
 40
201.0
 40
201.0
 40
201.0
 40
202.0
 40
202.0
 40
202.0
 40
203.0
 40
203.0
 40
203.0
 40
204.0
 40
204.0
 40
204.0
 40
205.0
 40
205.0
 40
205.0
 40
206.0
 40
206.0
 40
206.0
 40
207.0
 40
207.0
 40
207.0
 40
208.0
 40
208.0
 40
208.0
 40
209.0
 40
209.0
 40
209.0
 40
210.0
 40
210.0
 40
210.0
 40
211.0
 40
211.0
 40
211.0
 40
212.0
 40
212.0
 40
212.0
 40
213.0
 40
213.0
 40
213.0
 40
214.0
 40
214.0
 40
214.0
 40
215.0
 40
215.0
 40
215.0
 40
216.0
 40
216.0
 40
216.0
 40
217.0
 40
217.0
 40
217.0
 40
218.0
 40
218.0
 40
218.0
 40
219.0
 40
219.0
 40
219.0
 40
220.0
 40
220.0
 40
220.0
 40
221.0
 40
221.0
 40
221.0
 40
222.0
 40
222.0
 40
222.0
 40
223.0
 40
223.0
 40
223.0
 40
224.0
 40
224.0
 40
224.0
 40
225.0
 40
225.0
 40
225.0
 40
226.0
 40
226.0
 40
226.0
 40
227.0
 40
227.0
 40
227.0
 40
228.0
 40
228.0
 40
228.0
 40
229.0
 40
229.0
 40
229.0
 40
230.0
 40
230.0
 40
230.0
 40
231.0
 40
231.0
 40
231.0
 40
232.0
 40
232.0
 40
232.0
 40
233.0
 40
233.0
 40
233.0
 40
234.0
 40
234.0
 40
234.0
 40
235.0
 40
235.0
 40
235.0
 40
236.0
 40
236.0
 40
236.0
 40
237.0
 40
237.0
 40
237.0
 40
238.0
 40
238.0
 40
238.0
 40
239.0
 40
239.0
 40
239.0
 40
240.0
 40
240.0
 40
240.0
 40
241.0
 40
241.0
 40
241.0
 40
242.0
 40
242.0
 40
242.0
 40
243.0
 40
243.0
 40
243.0
 40
244.0
 40
244.0
 40
244.0
 40
245.0
 40
245.0
 40
245.0
 40
246.0
 40
246.0
 40
246.0
 40
247.0
 40
247.0
 40
247.0
 40
248.0
 40
248.0
 40
248.0
 40
249.0
 40
249.0
 40
249.0
 40
250.0
 40
250.0
 40
250.0
 40
251.0
 40
251.0
 40
251.0
 40
252.0
 40
252.0
 40
252.0
 40
253.0
 40
253.0
 40
253.0
 40
254.0
 40
254.0
 40
254.0
 40
255.0
 40
255.0
 40
255.0
 40
256.0
 40
256.0
 40
256.0
 40
257.0
 40
257.0
 40
257.0
 40
258.0
 40
258.0
 40
258.0
 40
259.0
 40
259.0
 40
259.0
 40
260.0
 40
260.0
 40
260.0
 40
261.0
 40
261.0
 40
261.0
 40
262.0
 40
262.0
 40
262.0
 40
263.0
 40
263.0
 40
263.0
 40
264.0
 40
264.0
 40
264.0
 40
265.0
 40
265.0
 40
265.0
 40
266.0
 40
266.0
 40
266.0
 40
267.0
 40
267.0
 40
267.0
 40
268.0
 40
268.0
 40
268.0
 40
269.0
 40
269.0
 40
269.0
 40
270.0
 40
270.0
 40
270.0
 40
271.0
 40
271.0
 40
271.0
 40
272.0
 40
272.0
 40
272.0
 40
273.0
 40
273.0
 40
273.0
 40
274.0
 40
274.0
 40
274.0
 40
275.0
 40
275.0
 40
275.0
 40
276.0
 40
276.0
 40
276.0
 40
277.0
 40
277.0
 40
277.0
 40
278.0
 40
278.0
 40
278.0
 40
279.0
 40
279.0
 40
279.0
 40
279.0
 10
5.998314984543114
 20
29.75456370017216
 30
0.0
 10
5.935520717752098
 20
29.75456370017216
 30
0.0
 10
5.891070238679631
 20
29.76867513425736
 30
0.0
 10
5.864612309075027
 20
29.79689800242795
 30
0.0
 10
5.844856839651811
 20
29.81806380781547
 30
0.0
 10
5.840270556287066
 20
29.84311342006646
 30
0.0
 10
5.842386733103694
 20
29.85934035809817
 30
0.0
 10
5.842386733103694
 20
29.85934035809817
 30
0.0
 10
5.84203414911262
 20
37.65678645871498
 30
0.0
 10
5.84203414911262
 20
37.65678645871498
 30
0.0
 10
5.841681565121547
 20
37.65890465414228
 30
0.0
 10
5.837801122609164
 20
37.71252702707395
 30
0.0
 10
5.87907565428118
 20
37.75697683327616
 30
0.0
 10
5.912942557789691
 20
37.79331182472225
 30
0.0
 10
5.964448081034603
 20
37.81200954217226
 30
0.0
 10
6.03465064885934
 20
37.80989134674496
 30
0.0
 10
6.03465064885934
 20
37.80989134674496
 30
0.0
 10
6.074162260575988
 20
37.80848101078067
 30
0.0
 10
6.074162260575988
 20
37.80848101078067
 30
0.0
 10
6.14013180189724
 20
37.80812842678967
 30
0.0
 10
6.280889521537758
 20
37.80918617876287
 30
0.0
 10
6.374728674168324
 20
37.80989134674496
 30
0.0
 10
6.370848231655926
 20
37.80989134674496
 30
0.0
 10
6.409654002520269
 20
37.81694840952804
 30
0.0
 10
6.443167649167477
 20
37.79154890476687
 30
0.0
 10
6.45904267607834
 20
37.77920039063696
 30
0.0
 10
6.478798145501556
 20
37.75521122184006
 30
0.0
 10
6.483384428866287
 20
37.71040883164668
 30
0.0
 10
6.48691228738761
 20
37.69347672563285
 30
0.0
 10
6.485853862544189
 20
37.66631160943547
 30
0.0
 10
6.484089596848434
 20
37.62045146726896
 30
0.0
 10
6.484089596848434
 20
37.62045146726896
 30
0.0
 10
6.483384428866287
 20
37.60386925376537
 30
0.0
 10
6.483384428866287
 20
37.60386925376537
 30
0.0
 10
6.483384428866287
 20
37.60386925376537
 30
0.0
 10
6.471389844467836
 20
37.59258118308947
 30
0.0
 10
6.471389844467836
 20
37.59258118308947
 30
0.0
 10
6.467156817964379
 20
37.58870006770687
 30
0.0
 10
6.427645206247717
 20
37.55307024424295
 30
0.0
 10
6.364850939456701
 20
37.55307024424295
 30
0.0
 10
6.364850939456701
 20
37.55307024424295
 30
0.0
 10
6.340156602677666
 20
37.55448058020724
 30
0.0
 10
6.340156602677666
 20
37.55448058020724
 30
0.0
 10
6.297117805309881
 20
37.55518574818947
 30
0.0
 10
6.193400917967721
 20
37.55412799621615
 30
0.0
 10
6.119670491621661
 20
37.55307024424295
 30
0.0
 10
6.1168484739527
 20
37.55307024424295
 30
0.0
 10
6.11367319942245
 20
37.55307024424295
 30
0.0
 10
6.110851181753474
 20
37.55236507626089
 30
0.0
 10
6.11190960659691
 20
37.52661298750866
 30
0.0
 10
6.111203765744548
 20
37.48568902121707
 30
0.0
 10
6.110145340901127
 20
37.41866307366297
 30
0.0
 10
6.110145340901127
 20
37.41866307366297
 30
0.0
 10
7.358625740038675
 20
37.41760263020896
 30
0.0
 10
7.358625740038675
 20
37.41760263020896
 30
0.0
 10
7.364270448246827
 20
37.41654487823576
 30
0.0
 10
7.37908705031424
 20
37.41583971025358
 30
0.0
 10
7.386847935339034
 20
37.42183632958268
 30
0.0
 10
7.393551068390621
 20
37.42712778092946
 30
0.0
 10
7.39566791807745
 20
37.43947629505945
 30
0.0
 10
7.396373086059583
 20
37.44900144577994
 30
0.0
 10
7.396373086059583
 20
37.44900144577994
 30
0.0
 10
7.39707892691193
 20
37.46134726842905
 30
0.0
 10
7.39707892691193
 20
37.46134726842905
 30
0.0
 10
7.39707892691193
 20
37.48004498587906
 30
0.0
 10
7.396373086059583
 20
37.51250155342336
 30
0.0
 10
7.396373086059583
 20
37.51250155342336
 30
0.0
 10
7.39707892691193
 20
37.51849817275238
 30
0.0
 10
7.398842519737485
 20
37.52519996006345
 30
0.0
 10
7.401311953415387
 20
37.53190443885547
 30
0.0
 10
7.401311953415387
 20
37.53190443885547
 30
0.0
 10
7.405545652789058
 20
37.60351666977428
 30
0.0
 10
7.405545652789058
 20
37.60351666977428
 30
0.0
 10
7.405545652789058
 20
37.60351666977428
 30
0.0
 10
7.42177326369098
 20
37.56964976626577
 30
0.0
 10
7.42177326369098
 20
37.56964976626577
 30
0.0
 10
7.443998166792098
 20
37.59752005044524
 30
0.0
 10
7.481392928821918
 20
37.61868585583278
 30
0.0
 10
7.541011921082699
 20
37.61939371529576
 30
0.0
 10
7.541011921082699
 20
37.61939371529576
 30
0.0
 10
7.568881532391984
 20
37.61868585583278
 30
0.0
 10
7.568881532391984
 20
37.61868585583278
 30
0.0
 10
7.582287125624915
 20
37.61868585583278
 30
0.0
 10
7.596045302848921
 20
37.61939371529576
 30
0.0
 10
7.596045302848921
 20
37.61939371529576
 30
0.0
 10
7.596045302848921
 20
37.61939371529576
 30
0.0
 10
7.596398559710209
 20
37.61939371529576
 30
0.0
 10
7.596398559710209
 20
37.61939371529576
 30
0.0
 10
7.629559622366372
 20
37.61939371529576
 30
0.0
 10
7.693059057139521
 20
37.59399151905376
 30
0.0
 10
7.704348473555825
 20
37.49803753534698
 30
0.0
 10
7.704348473555825
 20
37.49803753534698
 30
0.0
 10
7.703995216694551
 20
37.49803753534698
 30
0.0
 10
7.703995216694551
 20
37.49803753534698
 30
0.0
 10
7.708934084050369
 20
37.47686903847867
 30
0.0
 10
7.715637217101928
 20
37.43277181626746
 30
0.0
 10
7.730806403160414
 20
37.33293671717806
 30
0.0
 10
7.730806403160414
 20
37.33293671717806
 30
0.0
 10
7.7523261382794
 20
37.33364188516015
 30
0.0
 10
7.7523261382794
 20
37.33364188516015
 30
0.0
 10
7.7523261382794
 20
37.33364188516015
 30
0.0
 10
7.7523261382794
 20
37.35798363794817
 30
0.0
 10
7.7523261382794
 20
37.35798363794817
 30
0.0
 10
7.754442987966257
 20
37.40278602814155
 30
0.0
 10
7.788309218604553
 20
37.46699130376695
 30
0.0
 10
7.872270636523495
 20
37.46875691520327
 30
0.0
 10
7.872270636523495
 20
37.46875691520327
 30
0.0
 10
7.882500955226177
 20
37.46910949919428
 30
0.0
 10
7.882500955226177
 20
37.46910949919428
 30
0.0
 10
7.882500955226177
 20
37.46910949919428
 30
0.0
 10
7.883559380069598
 20
37.46840433121216
 30
0.0
 10
7.883559380069598
 20
37.46840433121216
 30
0.0
 10
7.948822407668288
 20
37.46452321582956
 30
0.0
 10
7.99433131158419
 20
37.41654487823576
 30
0.0
 10
8.010205665624823
 20
37.33576008058748
 30
0.0
 10
8.010205665624823
 20
37.33576008058748
 30
0.0
 10
8.009500497642662
 20
37.33540749659648
 30
0.0
 10
8.009500497642662
 20
37.33540749659648
 30
0.0
 10
8.019025648363239
 20
37.30965271636327
 30
0.0
 10
8.030667648770602
 20
37.26343999020568
 30
0.0
 10
8.051833454158114
 20
37.17983182914807
 30
0.0
 10
8.057831419227554
 20
37.15619524434226
 30
0.0
 10
8.0497179502117
 20
37.12726720818958
 30
0.0
 10
8.045836834829103
 20
37.11597913751365
 30
0.0
 10
8.045836834829103
 20
37.11597913751365
 30
0.0
 10
8.041250551464358
 20
37.10610140280195
 30
0.0
 10
8.041250551464358
 20
37.10610140280195
 30
0.0
 10
8.041250551464358
 20
37.10610140280195
 30
0.0
 10
7.966462373145105
 20
36.99356520559167
 30
0.0
 10
7.966462373145105
 20
36.99356520559167
 30
0.0
 10
7.966462373145105
 20
36.99356520559167
 30
0.0
 10
8.034194834421711
 20
36.84998277680126
 30
0.0
 10
8.034194834421711
 20
36.84998277680126
 30
0.0
 10
8.034194834421711
 20
36.84998277680126
 30
0.0
 10
10.03691496738456
 20
36.84998277680126
 30
0.0
 10
10.03691496738456
 20
36.84998277680126
 30
0.0
 10
10.03691496738456
 20
36.84998277680126
 30
0.0
 10
10.10500135839267
 20
36.99356520559167
 30
0.0
 10
10.10500135839267
 20
36.99356520559167
 30
0.0
 10
10.10500135839267
 20
36.99356520559167
 30
0.0
 10
10.0252729669772
 20
37.11597913751365
 30
0.0
 10
10.0252729669772
 20
37.11597913751365
 30
0.0
 10
10.02174578132609
 20
37.12726720818958
 30
0.0
 10
10.0136309665698
 20
37.15619524434226
 30
0.0
 10
10.01927634764818
 20
37.17983182914807
 30
0.0
 10
10.04079473702677
 20
37.26343999020568
 30
0.0
 10
10.05243673743412
 20
37.30965271636327
 30
0.0
 10
10.06160930416361
 20
37.33540749659648
 30
0.0
 10
10.06160930416361
 20
37.33540749659648
 30
0.0
 10
10.06125672017255
 20
37.33576008058748
 30
0.0
 10
10.06125672017255
 20
37.33576008058748
 30
0.0
 10
10.07713107421317
 20
37.41689746222687
 30
0.0
 10
10.12299256212014
 20
37.46522838381168
 30
0.0
 10
10.18790300572776
 20
37.46840433121216
 30
0.0
 10
10.18790300572776
 20
37.46840433121216
 30
0.0
 10
10.1889621034414
 20
37.46910949919428
 30
0.0
 10
10.1889621034414
 20
37.46910949919428
 30
0.0
 10
10.1889621034414
 20
37.46910949919428
 30
0.0
 10
10.19919242214408
 20
37.46875691520327
 30
0.0
 10
10.19919242214408
 20
37.46875691520327
 30
0.0
 10
10.28315316719281
 20
37.46699130376695
 30
0.0
 10
10.31666748671026
 20
37.40278602814155
 30
0.0
 10
10.31878433639708
 20
37.36010183337547
 30
0.0
 10
10.31878433639708
 20
37.36010183337547
 30
0.0
 10
10.31878433639708
 20
37.33364188516015
 30
0.0
 10
10.31878433639708
 20
37.33364188516015
 30
0.0
 10
10.31878433639708
 20
37.33364188516015
 30
0.0
 10
10.34065665550716
 20
37.33293671717806
 30
0.0
 10
10.34065665550716
 20
37.33293671717806
 30
0.0
 10
10.35582584156566
 20
37.43277181626746
 30
0.0
 10
10.36252897461722
 20
37.47686903847867
 30
0.0
 10
10.36746784197301
 20
37.49803753534698
 30
0.0
 10
10.36746784197301
 20
37.49803753534698
 30
0.0
 10
10.36676132825045
 20
37.49803753534698
 30
0.0
 10
10.36676132825045
 20
37.49803753534698
 30
0.0
 10
10.37805074466678
 20
37.59399151905376
 30
0.0
 10
10.4419034363012
 20
37.61939371529576
 30
0.0
 10
10.47400607411396
 20
37.61939371529576
 30
0.0
 10
10.47435865810503
 20
37.61939371529576
 30
0.0
 10
10.4874123402171
 20
37.61868585583278
 30
0.0
 10
10.50258152627559
 20
37.61868585583278
 30
0.0
 10
10.50258152627559
 20
37.61868585583278
 30
0.0
 10
10.5300978807236
 20
37.61939371529576
 30
0.0
 10
10.5300978807236
 20
37.61939371529576
 30
0.0
 10
10.58901170500222
 20
37.61868585583278
 30
0.0
 10
10.62817005985761
 20
37.59716746645415
 30
0.0
 10
10.65004237896767
 20
37.57071020971975
 30
0.0
 10
10.65004237896767
 20
37.57071020971975
 30
0.0
 10
10.66591807874873
 20
37.60351666977428
 30
0.0
 10
10.66591807874873
 20
37.60351666977428
 30
0.0
 10
10.66591807874873
 20
37.60351666977428
 30
0.0
 10
10.66979784839091
 20
37.53684330621127
 30
0.0
 10
10.66979784839091
 20
37.53684330621127
 30
0.0
 10
10.67226728206881
 20
37.53084399540146
 30
0.0
 10
10.67367896377351
 20
37.52555254405454
 30
0.0
 10
10.67438413175563
 20
37.52061367669876
 30
0.0
 10
10.67508929973779
 20
37.51391188938754
 30
0.0
 10
10.67438413175563
 20
37.48039756987018
 30
0.0
 10
10.67438413175563
 20
37.46169985242017
 30
0.0
 10
10.67438413175563
 20
37.46169985242017
 30
0.0
 10
10.67508929973779
 20
37.44900144577994
 30
0.0
 10
10.67508929973779
 20
37.44900144577994
 30
0.0
 10
10.67544188372885
 20
37.43947629505945
 30
0.0
 10
10.67755873341569
 20
37.42712778092946
 30
0.0
 10
10.68461445045834
 20
37.42183632958268
 30
0.0
 10
10.6923753354831
 20
37.41619229424467
 30
0.0
 10
10.70719193755052
 20
37.41654487823576
 30
0.0
 10
10.71318990261997
 20
37.41760263020896
 30
0.0
 10
10.71318990261997
 20
37.41760263020896
 30
0.0
 10
10.72165595562688
 20
37.41866307366297
 30
0.0
 10
10.72165595562688
 20
37.41866307366297
 30
0.0
 10
10.72165595562688
 20
37.41866307366297
 30
0.0
 10
11.96096446090517
 20
37.41866307366297
 30
0.0
 10
11.96096446090517
 20
37.41866307366297
 30
0.0
 10
11.95990670893198
 20
37.48568902121707
 30
0.0
 10
11.95955412494089
 20
37.52661298750866
 30
0.0
 10
11.9606118769141
 20
37.55236507626089
 30
0.0
 10
11.95778985924511
 20
37.55307024424295
 30
0.0
 10
11.95461525758509
 20
37.55307024424295
 30
0.0
 10
11.95214582390718
 20
37.55307024424295
 30
0.0
 10
11.87806146782965
 20
37.55412799621615
 30
0.0
 10
11.77469783734877
 20
37.55483316419836
 30
0.0
 10
11.73130578311969
 20
37.55448058020724
 30
0.0
 10
11.73130578311969
 20
37.55448058020724
 30
0.0
 10
11.73060061513756
 20
37.55307024424295
 30
0.0
 10
11.73060061513756
 20
37.55307024424295
 30
0.0
 10
11.73060061513756
 20
37.55307024424295
 30
0.0
 10
11.70661144634066
 20
37.55307024424295
 30
0.0
 10
11.70661144634066
 20
37.55307024424295
 30
0.0
 10
11.64381785241987
 20
37.55307024424295
 30
0.0
 10
11.60430691357341
 20
37.58870006770687
 30
0.0
 10
11.60007321419974
 20
37.59258118308947
 30
0.0
 10
11.60007321419974
 20
37.59258118308947
 30
0.0
 10
11.58807862980129
 20
37.60386925376537
 30
0.0
 10
11.58807862980129
 20
37.60386925376537
 30
0.0
 10
11.58807862980129
 20
37.60386925376537
 30
0.0
 10
11.58737346181915
 20
37.62045146726896
 30
0.0
 10
11.58737346181915
 20
37.62045146726896
 30
0.0
 10
11.58560919612338
 20
37.66631160943547
 30
0.0
 10
11.58455144415018
 20
37.69347672563285
 30
0.0
 10
11.58807862980129
 20
37.71040883164668
 30
0.0
 10
11.59231232917496
 20
37.75521122184006
 30
0.0
 10
11.61206779859819
 20
37.77920039063696
 30
0.0
 10
11.62829473662987
 20
37.79154890476687
 30
0.0
 10
11.66180905614733
 20
37.81730099351918
 30
0.0
 10
11.70061482701165
 20
37.80989134674496
 30
0.0
 10
11.70484852638532
 20
37.80883359477176
 30
0.0
 10
11.79198387309408
 20
37.80883359477176
 30
0.0
 10
11.93168384076138
 20
37.80777584279855
 30
0.0
 10
11.99694821410051
 20
37.80848101078067
 30
0.0
 10
11.99694821410051
 20
37.80848101078067
 30
0.0
 10
11.99694821410051
 20
37.80918617876287
 30
0.0
 10
11.99694821410051
 20
37.80918617876287
 30
0.0
 10
11.99694821410051
 20
37.80918617876287
 30
0.0
 10
12.03681173693805
 20
37.80989134674496
 30
0.0
 10
12.03681173693805
 20
37.80989134674496
 30
0.0
 10
12.10701497763297
 20
37.81200954217226
 30
0.0
 10
12.15852050087788
 20
37.79331182472225
 30
0.0
 10
12.19238740438639
 20
37.75697683327616
 30
0.0
 10
12.23366260892862
 20
37.71252702707395
 30
0.0
 10
12.22978149354604
 20
37.65890465414228
 30
0.0
 10
12.22942890955495
 20
37.65290534333238
 30
0.0
 10
12.22942890955495
 20
37.65290534333238
 30
0.0
 10
12.22942890955495
 20
29.85404890675125
 30
0.0
 10
12.22942890955495
 20
29.85404890675125
 30
0.0
 10
12.23119317525072
 20
29.84311342006646
 30
0.0
 10
12.22660689188598
 20
29.81806380781547
 30
0.0
 10
12.20685142246276
 20
29.79689800242795
 30
0.0
 10
12.17686428859643
 20
29.76479671035566
 30
0.0
 10
12.12394842938724
 20
29.75103786026145
 30
0.0
 10
12.04386745398067
 20
29.75562414362617
 30
0.0
 10
12.04386745398067
 20
29.75562414362617
 30
0.0
 10
11.92886182309242
 20
29.75562414362617
 30
0.0
 10
11.92886182309242
 20
29.75562414362617
 30
0.0
 10
11.91580948672076
 20
29.75562414362617
 30
0.0
 10
11.87171226450957
 20
29.76091559497305
 30
0.0
 10
11.86112936181581
 20
29.82935456997228
 30
0.0
 10
11.85865992813791
 20
29.84593409199496
 30
0.0
 10
11.85936509612004
 20
29.86286888948967
 30
0.0
 10
11.86042284809325
 20
29.88227177492189
 30
0.0
 10
11.86112936181581
 20
29.89426501357986
 30
0.0
 10
11.86183452979794
 20
29.90767127968297
 30
0.0
 10
11.86218711378902
 20
29.92354563372365
 30
0.0
 10
11.86183452979794
 20
29.92742674910625
 30
0.0
 10
11.85865992813791
 20
29.93977257175539
 30
0.0
 10
11.85619049446001
 20
29.94365368713798
 30
0.0
 10
11.85266196306847
 20
29.94576919108437
 30
0.0
 10
11.84419591006156
 20
29.94788738651156
 30
0.0
 10
11.83078964395841
 20
29.94788738651156
 30
0.0
 10
11.81597304189098
 20
29.94471143911116
 30
0.0
 10
11.79057353712981
 20
29.94435885512004
 30
0.0
 10
11.73589206648444
 20
29.94753480252055
 30
0.0
 10
11.72707342948645
 20
29.94823997050267
 30
0.0
 10
11.68615080893529
 20
29.95282625386736
 30
0.0
 10
11.66145647215626
 20
29.98245945800227
 30
0.0
 10
11.64805020605311
 20
29.99868639603395
 30
0.0
 10
11.6420535867241
 20
30.01914703343925
 30
0.0
 10
11.64417043641093
 20
30.04102069828977
 30
0.0
 10
11.64417043641093
 20
30.04102069828977
 30
0.0
 10
11.64381785241987
 20
30.10416822194208
 30
0.0
 10
11.64381785241987
 20
30.10416822194208
 30
0.0
 10
11.64417043641093
 20
30.11192776122647
 30
0.0
 10
11.6484041357846
 20
30.17119416949618
 30
0.0
 10
11.73236488083333
 20
30.19518333829305
 30
0.0
 10
11.74294778352708
 20
30.19835928569347
 30
0.0
 10
11.76870121801974
 20
30.20224040107604
 30
0.0
 10
11.78845668744297
 20
30.20506107300466
 30
0.0
 10
11.78845668744297
 20
30.20506107300466
 30
0.0
 10
11.80221419179676
 20
30.20717926843187
 30
0.0
 10
11.80221419179676
 20
30.20717926843187
 30
0.0
 10
11.81632562588206
 20
30.20964735636937
 30
0.0
 10
11.83396424561844
 20
30.21317588776089
 30
0.0
 10
11.84913477741736
 20
30.21670441915248
 30
0.0
 10
11.84913477741736
 20
30.21670441915248
 30
0.0
 10
11.84913477741736
 20
30.29431596088105
 30
0.0
 10
11.84913477741736
 20
30.29431596088105
 30
0.0
 10
11.84913477741736
 20
30.29431596088105
 30
0.0
 10
11.70308426068955
 20
30.32465433299805
 30
0.0
 10
11.70308426068955
 20
30.32465433299805
 30
0.0
 10
11.66392590583416
 20
30.33629498766507
 30
0.0
 10
11.63993673703726
 20
30.34687789035877
 30
0.0
 10
11.62864866636137
 20
30.35710820906146
 30
0.0
 10
11.58102291275864
 20
30.40120543127267
 30
0.0
 10
11.58208066473185
 20
30.44107164559105
 30
0.0
 10
11.58702087782808
 20
30.46082711501427
 30
0.0
 10
11.59830894850397
 20
30.50527692121657
 30
0.0
 10
11.64417043641093
 20
30.53702562929775
 30
0.0
 10
11.7277785974686
 20
30.55854671015718
 30
0.0
 10
11.76517268662822
 20
30.57053994881525
 30
0.0
 10
11.82338134292469
 20
30.58817991429206
 30
0.0
 10
11.85830599840642
 20
30.59841023299478
 30
0.0
 10
11.85830599840642
 20
30.59841023299478
 30
0.0
 10
11.85830599840642
 20
30.74163738631319
 30
0.0
 10
11.85830599840642
 20
30.74163738631319
 30
0.0
 10
11.85830599840642
 20
30.74163738631319
 30
0.0
 10
11.79339555479879
 20
30.74128480232207
 30
0.0
 10
11.79339555479879
 20
30.74128480232207
 30
0.0
 10
11.78210613838247
 20
30.70494711939526
 30
0.0
 10
11.74894574859651
 20
30.66473101256668
 30
0.0
 10
11.68579822494422
 20
30.66825954395816
 30
0.0
 10
11.68579822494422
 20
30.66825954395816
 30
0.0
 10
11.65051963973103
 20
30.67037504790454
 30
0.0
 10
11.65051963973103
 20
30.67037504790454
 30
0.0
 10
11.65051963973103
 20
30.67037504790454
 30
0.0
 10
11.64981447174888
 20
30.68096064207916
 30
0.0
 10
11.64981447174888
 20
30.68096064207916
 30
0.0
 10
11.62370845326514
 20
30.69436421670147
 30
0.0
 10
11.60677634725131
 20
30.71376710213366
 30
0.0
 10
11.59583951482606
 20
30.73352257155688
 30
0.0
 10
11.59583951482606
 20
30.73352257155688
 30
0.0
 10
11.58772604581021
 20
30.73211223559255
 30
0.0
 10
11.58772604581021
 20
30.73211223559255
 30
0.0
 10
11.58772604581021
 20
30.73211223559255
 30
0.0
 10
11.58102291275864
 20
30.77162317443904
 30
0.0
 10
11.58102291275864
 20
30.77162317443904
 30
0.0
 10
11.57890606307181
 20
30.77973798919535
 30
0.0
 10
11.57079259405596
 20
30.79984604260969
 30
0.0
 10
11.53763085852958
 20
30.80372715799226
 30
0.0
 10
11.53763085852958
 20
30.80372715799226
 30
0.0
 10
11.5108196720637
 20
30.80372715799226
 30
0.0
 10
11.5108196720637
 20
30.80372715799226
 30
0.0
 10
11.5108196720637
 20
30.80372715799226
 30
0.0
 10
11.50940933609944
 20
30.83723878602888
 30
0.0
 10
11.50940933609944
 20
30.83723878602888
 30
0.0
 10
11.50940933609944
 20
30.83723878602888
 30
0.0
 10
11.50164845107465
 20
30.80478490996546
 30
0.0
 10
11.50164845107465
 20
30.80478490996546
 30
0.0
 10
11.46390043218353
 20
30.81289703324089
 30
0.0
 10
11.42156747566811
 20
30.84464843280296
 30
0.0
 10
11.4152169266076
 20
30.90885370842847
 30
0.0
 10
11.41415917463439
 20
30.91908402713116
 30
0.0
 10
11.41592344033016
 20
30.94695431131067
 30
0.0
 10
11.42791802472861
 20
30.96635719674285
 30
0.0
 10
11.43885351141344
 20
30.98364188674768
 30
0.0
 10
11.467076379584
 20
31.01892181770137
 30
0.0
 10
11.52210908848002
 20
31.02985730438616
 30
0.0
 10
11.52210908848002
 20
31.05137569376476
 30
0.0
 10
11.52246167247109
 20
31.08100889789955
 30
0.0
 10
11.52352077018473
 20
31.12263803217337
 30
0.0
 10
11.52599020386262
 20
31.15932560761036
 30
0.0
 10
11.54997802691912
 20
31.22741199861847
 30
0.0
 10
11.6219455333098
 20
31.23693714933904
 30
0.0
 10
11.6219455333098
 20
31.23693714933904
 30
0.0
 10
11.7037894286717
 20
31.23728973333007
 30
0.0
 10
11.7037894286717
 20
31.23728973333007
 30
0.0
 10
11.7037894286717
 20
31.23728973333007
 30
0.0
 10
11.70802312804534
 20
31.23623198135687
 30
0.0
 10
11.70802312804534
 20
31.23623198135687
 30
0.0
 10
11.74012576585811
 20
31.22952750256488
 30
0.0
 10
11.77505042133982
 20
31.20130732587518
 30
0.0
 10
11.77681468703559
 20
31.15615235169077
 30
0.0
 10
11.77681468703559
 20
31.15615235169077
 30
0.0
 10
11.77681468703559
 20
31.15544449222776
 30
0.0
 10
11.77681468703559
 20
31.15544449222776
 30
0.0
 10
11.77893153672242
 20
31.14274608558768
 30
0.0
 10
11.79022095313874
 20
31.09759111140318
 30
0.0
 10
11.8018616078057
 20
31.05102310977367
 30
0.0
 10
11.8018616078057
 20
31.05102310977367
 30
0.0
 10
11.85936509612004
 20
31.05102310977367
 30
0.0
 10
11.85936509612004
 20
31.05102310977367
 30
0.0
 10
11.85936509612004
 20
31.05102310977367
 30
0.0
 10
11.85936509612004
 20
33.17545200667638
 30
0.0
 10
11.85936509612004
 20
33.17545200667638
 30
0.0
 10
11.83925704270574
 20
33.17615717465856
 30
0.0
 10
11.8008038558325
 20
33.17509942268538
 30
0.0
 10
11.78528208578294
 20
33.17474414721337
 30
0.0
 10
11.7817535543914
 20
33.17262864326696
 30
0.0
 10
11.7817535543914
 20
33.16945269586649
 30
0.0
 10
11.7817535543914
 20
33.16733719192004
 30
0.0
 10
11.7817535543914
 20
33.16733719192004
 30
0.0
 10
11.78140097040034
 20
33.13170736845626
 30
0.0
 10
11.78140097040034
 20
33.13170736845626
 30
0.0
 10
11.78140097040034
 20
33.09678271297455
 30
0.0
 10
11.7817535543914
 20
33.04703876394456
 30
0.0
 10
11.7817535543914
 20
33.04703876394456
 30
0.0
 10
11.77646210304452
 20
33.00929343653425
 30
0.0
 10
11.75070866855186
 20
32.97507394903468
 30
0.0
 10
11.7062588623496
 20
32.97330833759847
 30
0.0
 10
11.7062588623496
 20
32.97330833759847
 30
0.0
 10
11.62617788694305
 20
32.97330833759847
 30
0.0
 10
11.62617788694305
 20
32.97330833759847
 30
0.0
 10
11.61242038258925
 20
32.97507394903468
 30
0.0
 10
11.56162002732648
 20
32.98777235567485
 30
0.0
 10
11.5577402576843
 20
33.06644164937677
 30
0.0
 10
11.5577402576843
 20
33.06644164937677
 30
0.0
 10
11.55809284167537
 20
33.06644164937677
 30
0.0
 10
11.55809284167537
 20
33.06644164937677
 30
0.0
 10
11.55668115997068
 20
33.08161083543516
 30
0.0
 10
11.55668115997068
 20
33.10842336764148
 30
0.0
 10
11.55738632795281
 20
33.15957496115487
 30
0.0
 10
11.55174229261486
 20
33.16134057259106
 30
0.0
 10
11.54186455790325
 20
33.16239832456427
 30
0.0
 10
11.524931106149
 20
33.16204574057326
 30
0.0
 10
11.50447046874363
 20
33.16169315658218
 30
0.0
 10
11.44590922845606
 20
33.15640170523526
 30
0.0
 10
11.4155708563391
 20
33.13805657177636
 30
0.0
 10
11.38911225386431
 20
33.12253480172677
 30
0.0
 10
11.35207074869573
 20
33.11830110235317
 30
0.0
 10
11.32772899590776
 20
33.14334802312317
 30
0.0
 10
11.29421467639032
 20
33.17721492663177
 30
0.0
 10
11.28468952566977
 20
33.23436583095495
 30
0.0
 10
11.29985871172826
 20
33.31303512465686
 30
0.0
 10
11.29950612773719
 20
33.31303512465686
 30
0.0
 10
11.29844837576399
 20
33.32079466394117
 30
0.0
 10
11.2970366940593
 20
33.32326544335956
 30
0.0
 10
11.2578783392039
 20
33.39805362167874
 30
0.0
 10
11.12100038920556
 20
33.66969132624817
 30
0.0
 10
11.12100038920556
 20
33.66969132624817
 30
0.0
 10
11.12100038920556
 20
33.66969132624817
 30
0.0
 10
11.11641410584083
 20
33.67851130898654
 30
0.0
 10
11.11641410584083
 20
33.67851130898654
 30
0.0
 10
11.11641410584083
 20
33.67851130898654
 30
0.0
 10
11.11641410584083
 20
33.80198299288176
 30
0.0
 10
11.11641410584083
 20
33.80198299288176
 30
0.0
 10
11.11641410584083
 20
33.80515894028224
 30
0.0
 10
11.1157089378587
 20
33.83479214441706
 30
0.0
 10
11.14146237235137
 20
33.86160467662336
 30
0.0
 10
11.16650929312146
 20
33.88841451734888
 30
0.0
 10
11.20743191367262
 20
33.90146819946088
 30
0.0
 10
11.26281720655971
 20
33.90111561546988
 30
0.0
 10
11.26281720655971
 20
33.90111561546988
 30
0.0
 10
11.56408946100438
 20
33.90111561546988
 30
0.0
 10
11.56408946100438
 20
33.90111561546988
 30
0.0
 10
11.6205338516051
 20
33.89864483605157
 30
0.0
 10
11.70096741100272
 20
33.86301501258766
 30
0.0
 10
11.69814539333374
 20
33.77305764820994
 30
0.0
 10
11.69814539333374
 20
33.77305764820994
 30
0.0
 10
11.69426427795115
 20
33.77305764820994
 30
0.0
 10
11.69426427795115
 20
33.77305764820994
 30
0.0
 10
11.69955572929803
 20
33.72966559398085
 30
0.0
 10
11.69920314530695
 20
33.63194599883798
 30
0.0
 10
11.69814539333374
 20
33.39875878966097
 30
0.0
 10
11.69814539333374
 20
33.39875878966097
 30
0.0
 10
11.89217290191493
 20
33.39911137365198
 30
0.0
 10
11.89217290191493
 20
33.39911137365198
 30
0.0
 10
11.89217290191493
 20
33.39911137365198
 30
0.0
 10
11.89217290191493
 20
37.07293966727565
 30
0.0
 10
11.89217290191493
 20
37.07293966727565
 30
0.0
 10
11.89111514994172
 20
37.08916660530738
 30
0.0
 10
11.88617628258592
 20
37.11104027015788
 30
0.0
 10
11.88123741523011
 20
37.11986025289625
 30
0.0
 10
11.88123741523011
 20
37.11986025289625
 30
0.0
 10
11.87206484850062
 20
37.12021283688728
 30
0.0
 10
11.87206484850062
 20
37.12021283688728
 30
0.0
 10
11.83890311297425
 20
37.12056542087836
 30
0.0
 10
11.75035608456079
 20
37.12021283688728
 30
0.0
 10
11.69355910996898
 20
37.11986025289625
 30
0.0
 10
11.68438654323952
 20
37.11986025289625
 30
0.0
 10
11.66886477318996
 20
37.11738947347786
 30
0.0
 10
11.66427848982523
 20
37.11280319011317
 30
0.0
 10
11.66216164013838
 20
37.11068768616676
 30
0.0
 10
11.66251422412948
 20
37.10574881881095
 30
0.0
 10
11.66251422412948
 20
37.10257287141047
 30
0.0
 10
11.66251422412948
 20
37.10257287141047
 30
0.0
 10
11.66286680812054
 20
36.76002541242354
 30
0.0
 10
11.66286680812054
 20
36.76002541242354
 30
0.0
 10
11.66286680812054
 20
36.70675562348288
 30
0.0
 10
11.63993673703726
 20
36.61432747968687
 30
0.0
 10
11.55491689427491
 20
36.60656794040247
 30
0.0
 10
11.55491689427491
 20
36.60656794040247
 30
0.0
 10
11.51858190282891
 20
36.60339199300205
 30
0.0
 10
11.51858190282891
 20
36.60339199300205
 30
0.0
 10
11.51858190282891
 20
36.60339199300205
 30
0.0
 10
11.51787538910635
 20
36.60692052439356
 30
0.0
 10
11.51787538910635
 20
36.60692052439356
 30
0.0
 10
11.4822455656425
 20
36.60727310838467
 30
0.0
 10
11.42086230768598
 20
36.60692052439356
 30
0.0
 10
11.36335881937162
 20
36.60656794040247
 30
0.0
 10
11.35242333268681
 20
36.60551018842927
 30
0.0
 10
11.33125618155888
 20
36.60480232896626
 30
0.0
 10
11.31185329612671
 20
36.61891376305155
 30
0.0
 10
11.30091780944191
 20
36.62702857780786
 30
0.0
 10
11.28786412732981
 20
36.64219776386636
 30
0.0
 10
11.28468952566977
 20
36.66865502060066
 30
0.0
 10
11.28116234001867
 20
36.68417948213116
 30
0.0
 10
11.2818675080008
 20
36.70710820747397
 30
0.0
 10
11.28292525997401
 20
36.74168027896468
 30
0.0
 10
11.28222009199187
 20
36.74238813842757
 30
0.0
 10
11.27975065831397
 20
36.77589976646416
 30
0.0
 10
11.30515016307514
 20
36.80377005064367
 30
0.0
 10
11.31820384518722
 20
36.81823406872005
 30
0.0
 10
11.34113391627049
 20
36.83446100675178
 30
0.0
 10
11.38840574014173
 20
36.83481359074276
 30
0.0
 10
11.38840574014173
 20
36.83481359074276
 30
0.0
 10
11.4152169266076
 20
36.83410842276066
 30
0.0
 10
11.4152169266076
 20
36.83410842276066
 30
0.0
 10
11.41909804199021
 20
36.83410842276066
 30
0.0
 10
11.42262522764132
 20
36.83410842276066
 30
0.0
 10
11.42615375903284
 20
36.83446100675178
 30
0.0
 10
11.42650634302391
 20
36.83657920217906
 30
0.0
 10
11.42685892701499
 20
36.84010504208968
 30
0.0
 10
11.42721151100605
 20
36.84469132545448
 30
0.0
 10
11.42721151100605
 20
36.84469132545448
 30
0.0
 10
11.42862319271074
 20
36.84469132545448
 30
0.0
 10
11.42862319271074
 20
36.84469132545448
 30
0.0
 10
11.42509466131922
 20
36.87855822896296
 30
0.0
 10
11.42544859105071
 20
36.95158348732687
 30
0.0
 10
11.42685892701499
 20
37.11950497742427
 30
0.0
 10
11.42509466131922
 20
37.11986025289625
 30
0.0
 10
11.42262522764132
 20
37.11986025289625
 30
0.0
 10
11.41909804199021
 20
37.11986025289625
 30
0.0
 10
11.41909804199021
 20
37.11986025289625
 30
0.0
 10
10.49870041089299
 20
37.11986025289625
 30
0.0
 10
10.49870041089299
 20
37.11986025289625
 30
0.0
 10
10.48600065851241
 20
37.11174543813996
 30
0.0
 10
10.46554002110704
 20
37.09551850010825
 30
0.0
 10
10.45636745437757
 20
37.07576303068507
 30
0.0
 10
10.45636745437757
 20
37.07576303068507
 30
0.0
 10
10.22459192690526
 20
36.59139875434397
 30
0.0
 10
10.22459192690526
 20
36.59139875434397
 30
0.0
 10
10.22459192690526
 20
36.59139875434397
 30
0.0
 10
7.846517874901039
 20
36.59139875434397
 30
0.0
 10
7.846517874901039
 20
36.59139875434397
 30
0.0
 10
7.846517874901039
 20
36.59139875434397
 30
0.0
 10
7.615095604290019
 20
37.07576303068507
 30
0.0
 10
7.615095604290019
 20
37.07576303068507
 30
0.0
 10
7.605923037560543
 20
37.09551850010825
 30
0.0
 10
7.585462400155165
 20
37.11174543813996
 30
0.0
 10
7.572409390913307
 20
37.11986025289625
 30
0.0
 10
7.572409390913307
 20
37.11986025289625
 30
0.0
 10
6.653070184659512
 20
37.11986025289625
 30
0.0
 10
6.653070184659512
 20
37.11986025289625
 30
0.0
 10
6.649189742147115
 20
37.11986025289625
 30
0.0
 10
6.646367724478153
 20
37.11986025289625
 30
0.0
 10
6.64425087479131
 20
37.11950497742427
 30
0.0
 10
6.645661883625791
 20
36.95158348732687
 30
0.0
 10
6.646367724478153
 20
36.87855822896296
 30
0.0
 10
6.64283986595683
 20
36.84469132545448
 30
0.0
 10
6.64283986595683
 20
36.84469132545448
 30
0.0
 10
6.64425087479131
 20
36.84469132545448
 30
0.0
 10
6.64425087479131
 20
36.84469132545448
 30
0.0
 10
6.64425087479131
 20
36.84010504208968
 30
0.0
 10
6.644956715643658
 20
36.83657920217906
 30
0.0
 10
6.645309299634732
 20
36.83446100675178
 30
0.0
 10
6.649189742147115
 20
36.83410842276066
 30
0.0
 10
6.653776025511859
 20
36.83410842276066
 30
0.0
 10
6.65836230887659
 20
36.83410842276066
 30
0.0
 10
6.65836230887659
 20
36.83410842276066
 30
0.0
 10
6.682704061664566
 20
36.83481359074276
 30
0.0
 10
6.682704061664566
 20
36.83481359074276
 30
0.0
 10
6.730681726388155
 20
36.83481359074276
 30
0.0
 10
6.753259213480347
 20
36.81823406872005
 30
0.0
 10
6.76631222272222
 20
36.80377005064367
 30
0.0
 10
6.791712400353603
 20
36.77589976646416
 30
0.0
 10
6.789242966675701
 20
36.74238813842757
 30
0.0
 10
6.788184541832293
 20
36.73603624362667
 30
0.0
 10
6.789242966675701
 20
36.70358236756326
 30
0.0
 10
6.789948134657848
 20
36.68206128670389
 30
0.0
 10
6.786772860127584
 20
36.66724468463647
 30
0.0
 10
6.782892417615201
 20
36.64149259588416
 30
0.0
 10
6.770192665234617
 20
36.62702857780786
 30
0.0
 10
6.759609089670661
 20
36.61891376305155
 30
0.0
 10
6.740206204238489
 20
36.60480232896626
 30
0.0
 10
6.719039725980778
 20
36.60551018842927
 30
0.0
 10
6.708103566425734
 20
36.60656794040247
 30
0.0
 10
6.65024816699055
 20
36.60692052439356
 30
0.0
 10
6.589217493025088
 20
36.60727310838467
 30
0.0
 10
6.553586996691009
 20
36.60692052439356
 30
0.0
 10
6.553586996691009
 20
36.60692052439356
 30
0.0
 10
6.552881828708876
 20
36.60339199300205
 30
0.0
 10
6.552881828708876
 20
36.60339199300205
 30
0.0
 10
6.552881828708876
 20
36.60339199300205
 30
0.0
 10
6.51654549152245
 20
36.60656794040247
 30
0.0
 10
6.51654549152245
 20
36.60656794040247
 30
0.0
 10
6.431173064769026
 20
36.61432747968687
 30
0.0
 10
6.408595577676834
 20
36.70675562348288
 30
0.0
 10
6.408595577676834
 20
36.76002541242354
 30
0.0
 10
6.408595577676834
 20
36.76002541242354
 30
0.0
 10
6.408595577676834
 20
37.09939692400997
 30
0.0
 10
6.408595577676834
 20
37.09939692400997
 30
0.0
 10
6.408948161667893
 20
37.10574881881095
 30
0.0
 10
6.408948161667893
 20
37.11068768616676
 30
0.0
 10
6.407184568842339
 20
37.11280319011317
 30
0.0
 10
6.402598285477623
 20
37.11738947347786
 30
0.0
 10
6.388134267401269
 20
37.12162317285157
 30
0.0
 10
6.379667541524128
 20
37.11986025289625
 30
0.0
 10
6.320753717245509
 20
37.12021283688728
 30
0.0
 10
6.231148263988629
 20
37.12056542087836
 30
0.0
 10
6.198339785323526
 20
37.12021283688728
 30
0.0
 10
6.198339785323526
 20
37.12021283688728
 30
0.0
 10
6.190225643437472
 20
37.11986025289625
 30
0.0
 10
6.190225643437472
 20
37.11986025289625
 30
0.0
 10
6.185286776081653
 20
37.11104027015788
 30
0.0
 10
6.179995324734775
 20
37.08916660530738
 30
0.0
 10
6.178936899891368
 20
37.07082416332918
 30
0.0
 10
6.178936899891368
 20
37.07082416332918
 30
0.0
 10
6.179290156752642
 20
33.39911137365198
 30
0.0
 10
6.179290156752642
 20
33.39911137365198
 30
0.0
 10
6.179290156752642
 20
33.39911137365198
 30
0.0
 10
6.375787099011731
 20
33.39911137365198
 30
0.0
 10
6.375787099011731
 20
33.39911137365198
 30
0.0
 10
6.373317665333829
 20
33.63194599883798
 30
0.0
 10
6.372611824481481
 20
33.72966559398085
 30
0.0
 10
6.377198107846226
 20
33.77305764820994
 30
0.0
 10
6.377198107846226
 20
33.77305764820994
 30
0.0
 10
6.372965081342755
 20
33.77305764820994
 30
0.0
 10
6.372965081342755
 20
33.77305764820994
 30
0.0
 10
6.370495647664853
 20
33.86301501258766
 30
0.0
 10
6.450928534192257
 20
33.89864483605157
 30
0.0
 10
6.505961915958494
 20
33.90111561546988
 30
0.0
 10
6.505961915958494
 20
33.90111561546988
 30
0.0
 10
6.808998436098931
 20
33.90111561546988
 30
0.0
 10
6.808998436098931
 20
33.90111561546988
 30
0.0
 10
6.864031817865168
 20
33.89970258802475
 30
0.0
 10
6.90495376554611
 20
33.88841451734888
 30
0.0
 10
6.930000686316219
 20
33.86160467662336
 30
0.0
 10
6.955753447938676
 20
33.83479214441706
 30
0.0
 10
6.955048279956528
 20
33.80515894028224
 30
0.0
 10
6.954695695965469
 20
33.79951490494426
 30
0.0
 10
6.954695695965469
 20
33.79951490494426
 30
0.0
 10
6.954695695965469
 20
33.67851130898654
 30
0.0
 10
6.954695695965469
 20
33.67851130898654
 30
0.0
 10
6.954695695965469
 20
33.67851130898654
 30
0.0
 10
6.950461996591798
 20
33.66969132624817
 30
0.0
 10
6.950461996591798
 20
33.66969132624817
 30
0.0
 10
6.950461996591798
 20
33.66969132624817
 30
0.0
 10
6.813584046593447
 20
33.39805362167874
 30
0.0
 10
6.774425691738073
 20
33.32326544335956
 30
0.0
 10
6.773014682903578
 20
33.32079466394117
 30
0.0
 10
6.771956258060171
 20
33.31303512465686
 30
0.0
 10
6.771956258060171
 20
33.30985917725639
 30
0.0
 10
6.786772860127584
 20
33.23436583095495
 30
0.0
 10
6.77724838227725
 20
33.17721492663177
 30
0.0
 10
6.743381478768739
 20
33.14334802312317
 30
0.0
 10
6.719392309971837
 20
33.11830110235317
 30
0.0
 10
6.682350804803292
 20
33.12253480172677
 30
0.0
 10
6.656245459189761
 20
33.13770398778527
 30
0.0
 10
6.625201246220427
 20
33.15640170523526
 30
0.0
 10
6.56558158108946
 20
33.16169315658218
 30
0.0
 10
6.547237120500724
 20
33.16204574057326
 30
0.0
 10
6.529951084755396
 20
33.16275090855538
 30
0.0
 10
6.519367509191425
 20
33.16134057259106
 30
0.0
 10
6.513723473853488
 20
33.15957496115487
 30
0.0
 10
6.514428641835621
 20
33.10807078365045
 30
0.0
 10
6.514781225826695
 20
33.08161083543516
 30
0.0
 10
6.5133702169922
 20
33.06644164937677
 30
0.0
 10
6.5133702169922
 20
33.06644164937677
 30
0.0
 10
6.513723473853488
 20
33.06644164937677
 30
0.0
 10
6.513723473853488
 20
33.06644164937677
 30
0.0
 10
6.509842358470862
 20
32.98777235567485
 30
0.0
 10
6.45904267607834
 20
32.97507394903468
 30
0.0
 10
6.453397967870159
 20
32.97401350558067
 30
0.0
 10
6.453397967870159
 20
32.97401350558067
 30
0.0
 10
6.36661453228227
 20
32.97330833759847
 30
0.0
 10
6.36661453228227
 20
32.97330833759847
 30
0.0
 10
6.320753717245509
 20
32.97507394903468
 30
0.0
 10
6.295000955623052
 20
33.00929343653425
 30
0.0
 10
6.290062088267248
 20
33.04033697663337
 30
0.0
 10
6.289709504276174
 20
33.04527584398917
 30
0.0
 10
6.290062088267248
 20
33.09642743750269
 30
0.0
 10
6.290062088267248
 20
33.13170736845626
 30
0.0
 10
6.290062088267248
 20
33.13170736845626
 30
0.0
 10
6.289709504276174
 20
33.13170736845626
 30
0.0
 10
6.289709504276174
 20
33.13170736845626
 30
0.0
 10
6.289709504276174
 20
33.13170736845626
 30
0.0
 10
6.289356247414886
 20
33.16733719192004
 30
0.0
 10
6.289356247414886
 20
33.16733719192004
 30
0.0
 10
6.289356247414886
 20
33.16945269586649
 30
0.0
 10
6.289356247414886
 20
33.17262864326696
 30
0.0
 10
6.285829061763777
 20
33.17474414721337
 30
0.0
 10
6.269954034852943
 20
33.17509942268538
 30
0.0
 10
6.231853431970762
 20
33.17545200667638
 30
0.0
 10
6.212097962547531
 20
33.17545200667638
 30
0.0
 10
6.212097962547531
 20
33.17545200667638
 30
0.0
 10
6.212097962547531
 20
31.05102310977367
 30
0.0
 10
6.212097962547531
 20
31.05102310977367
 30
0.0
 10
6.212097962547531
 20
31.05102310977367
 30
0.0
 10
6.269600777991669
 20
31.05102310977367
 30
0.0
 10
6.269600777991669
 20
31.05102310977367
 30
0.0
 10
6.281242778399061
 20
31.09759111140318
 30
0.0
 10
6.292178937954076
 20
31.14274608558768
 30
0.0
 10
6.294648371631978
 20
31.15544449222776
 30
0.0
 10
6.294648371631978
 20
31.15544449222776
 30
0.0
 10
6.294648371631978
 20
31.15615235169077
 30
0.0
 10
6.294648371631978
 20
31.15615235169077
 30
0.0
 10
6.296059380466473
 20
31.20130732587518
 30
0.0
 10
6.331337292809479
 20
31.22952750256488
 30
0.0
 10
6.36343993062222
 20
31.23623198135687
 30
0.0
 10
6.36343993062222
 20
31.23623198135687
 30
0.0
 10
6.371906656499348
 20
31.23728973333007
 30
0.0
 10
6.371906656499348
 20
31.23728973333007
 30
0.0
 10
6.371906656499348
 20
31.23728973333007
 30
0.0
 10
6.444226074010899
 20
31.23728973333007
 30
0.0
 10
6.444226074010899
 20
31.23728973333007
 30
0.0
 10
6.521131774887194
 20
31.22741199861847
 30
0.0
 10
6.545120270813882
 20
31.15932560761036
 30
0.0
 10
6.547942961353072
 20
31.12475353611976
 30
0.0
 10
6.548648129335205
 20
31.08206664987276
 30
0.0
 10
6.549353970187553
 20
31.05172827775587
 30
0.0
 10
6.549353970187553
 20
31.02985730438616
 30
0.0
 10
6.604387351953789
 20
31.01892181770137
 30
0.0
 10
6.632609547254148
 20
30.98399447073877
 30
0.0
 10
6.643192449947889
 20
30.96670978073388
 30
0.0
 10
6.65518703434634
 20
30.94695431131067
 30
0.0
 10
6.657303884033169
 20
30.91908402713116
 30
0.0
 10
6.656245459189761
 20
30.90885370842847
 30
0.0
 10
6.649895582999462
 20
30.84464843280296
 30
0.0
 10
6.60756195361381
 20
30.81289703324089
 30
0.0
 10
6.569814607592917
 20
30.80478490996546
 30
0.0
 10
6.569814607592917
 20
30.80478490996546
 30
0.0
 10
6.562053722568137
 20
30.83900439746506
 30
0.0
 10
6.562053722568137
 20
30.83900439746506
 30
0.0
 10
6.562053722568137
 20
30.83900439746506
 30
0.0
 10
6.560642713733656
 20
30.80372715799226
 30
0.0
 10
6.560642713733656
 20
30.80372715799226
 30
0.0
 10
6.560642713733656
 20
30.80372715799226
 30
0.0
 10
6.533831527267778
 20
30.80372715799226
 30
0.0
 10
6.533831527267778
 20
30.80372715799226
 30
0.0
 10
6.50067046461163
 20
30.79984604260969
 30
0.0
 10
6.492556322725562
 20
30.77973798919535
 30
0.0
 10
6.49044014590892
 20
30.77162317443904
 30
0.0
 10
6.49044014590892
 20
30.77162317443904
 30
0.0
 10
6.483737012857375
 20
30.73281740357476
 30
0.0
 10
6.483737012857375
 20
30.73281740357476
 30
0.0
 10
6.483737012857375
 20
30.73281740357476
 30
0.0
 10
6.475976127832581
 20
30.73387515554796
 30
0.0
 10
6.475976127832581
 20
30.73387515554796
 30
0.0
 10
6.464687384286477
 20
30.71376710213366
 30
0.0
 10
6.447753932532222
 20
30.69436421670147
 30
0.0
 10
6.421647914048492
 20
30.68060536660727
 30
0.0
 10
6.421647914048492
 20
30.68060536660727
 30
0.0
 10
6.420942746066344
 20
30.67037504790454
 30
0.0
 10
6.420942746066344
 20
30.67037504790454
 30
0.0
 10
6.420942746066344
 20
30.67037504790454
 30
0.0
 10
6.385664833723353
 20
30.66825954395816
 30
0.0
 10
6.385664833723353
 20
30.66825954395816
 30
0.0
 10
6.321812142088916
 20
30.66473101256668
 30
0.0
 10
6.289003663423827
 20
30.70494711939526
 30
0.0
 10
6.277714919877723
 20
30.74128480232207
 30
0.0
 10
6.277714919877723
 20
30.74128480232207
 30
0.0
 10
6.213156387390938
 20
30.74163738631319
 30
0.0
 10
6.213156387390938
 20
30.74163738631319
 30
0.0
 10
6.213156387390938
 20
30.74163738631319
 30
0.0
 10
6.213156387390938
 20
30.59841023299478
 30
0.0
 10
6.213156387390938
 20
30.59841023299478
 30
0.0
 10
6.248081715742884
 20
30.58782733030097
 30
0.0
 10
6.306995540021489
 20
30.57018736482417
 30
0.0
 10
6.345448054024544
 20
30.55783885069426
 30
0.0
 10
6.42694003826557
 20
30.53702562929775
 30
0.0
 10
6.47315343729339
 20
30.50527692121657
 30
0.0
 10
6.484089596848434
 20
30.46082711501427
 30
0.0
 10
6.489381721065512
 20
30.44107164559105
 30
0.0
 10
6.49044014590892
 20
30.40120543127267
 30
0.0
 10
6.442815065176418
 20
30.35746348453336
 30
0.0
 10
6.431173064769026
 20
30.34687789035877
 30
0.0
 10
6.407184568842339
 20
30.33629498766507
 30
0.0
 10
6.37155339963806
 20
30.32571208497126
 30
0.0
 10
6.37155339963806
 20
30.32571208497126
 30
0.0
 10
6.222328954120428
 20
30.29431596088105
 30
0.0
 10
6.222328954120428
 20
30.29431596088105
 30
0.0
 10
6.222328954120428
 20
30.29431596088105
 30
0.0
 10
6.222328954120428
 20
30.21670441915248
 30
0.0
 10
6.222328954120428
 20
30.21670441915248
 30
0.0
 10
6.237498140178914
 20
30.21317588776089
 30
0.0
 10
6.25549001677659
 20
30.20964735636937
 30
0.0
 10
6.269954034852943
 20
30.20717926843187
 30
0.0
 10
6.269954034852943
 20
30.20717926843187
 30
0.0
 10
6.283006371224601
 20
30.20506107300466
 30
0.0
 10
6.283006371224601
 20
30.20506107300466
 30
0.0
 10
6.302409256656758
 20
30.20224040107604
 30
0.0
 10
6.328162018279229
 20
30.19835928569347
 30
0.0
 10
6.339450761825318
 20
30.19483075430196
 30
0.0
 10
6.423059595753187
 20
30.17119416949618
 30
0.0
 10
6.427292622256643
 20
30.11192776122647
 30
0.0
 10
6.427292622256643
 20
30.10522597391525
 30
0.0
 10
6.427292622256643
 20
30.10522597391525
 30
0.0
 10
6.427292622256643
 20
30.03713958290717
 30
0.0
 10
6.427292622256643
 20
30.03713958290717
 30
0.0
 10
6.429409471943472
 20
30.01914703343925
 30
0.0
 10
6.423412179744246
 20
29.99868639603395
 30
0.0
 10
6.4100065865113
 20
29.98245945800227
 30
0.0
 10
6.38495899287102
 20
29.95282625386736
 30
0.0
 10
6.344389629181122
 20
29.94823997050267
 30
0.0
 10
6.336628744156342
 20
29.94753480252055
 30
0.0
 10
6.28159536239012
 20
29.94435885512004
 30
0.0
 10
6.25549001677659
 20
29.94471143911116
 30
0.0
 10
6.240673414709164
 20
29.94788738651156
 30
0.0
 10
6.228678830310698
 20
29.94753480252055
 30
0.0
 10
6.21844783873783
 20
29.94541660709325
 30
0.0
 10
6.212097962547531
 20
29.94012515574636
 30
0.0
 10
6.212803803399879
 20
29.93977257175539
 30
0.0
 10
6.209628528869629
 20
29.92742674910625
 30
0.0
 10
6.209275944878555
 20
29.92213529775936
 30
0.0
 10
6.209275944878555
 20
29.90767127968297
 30
0.0
 10
6.210334369721977
 20
29.89426501357986
 30
0.0
 10
6.21103953770411
 20
29.88227177492189
 30
0.0
 10
6.212097962547531
 20
29.86286888948967
 30
0.0
 10
6.212803803399879
 20
29.84593409199496
 30
0.0
 10
6.210334369721977
 20
29.82935456997228
 30
0.0
 10
6.199750794158006
 20
29.76091559497305
 30
0.0
 10
6.155653571946814
 20
29.75562414362617
 30
0.0
 10
6.142601235575156
 20
29.75562414362617
 30
0.0
 10
6.142601235575156
 20
29.75562414362617
 30
0.0
 10
6.025478755000051
 20
29.75562414362617
 30
0.0
 10
6.025478755000051
 20
29.75562414362617
 30
0.0
 10
6.015953604279502
 20
29.75491897564405
 30
0.0
 10
6.006781710420227
 20
29.75456370017216
 30
0.0
 10
5.998314984543114
 20
29.75456370017216
 30
0.0
  0
SPLINE
  5
36F
330
1F
100
AcDbEntity
  8
Livello 1
100
AcDbSpline
210
0.0
220
0.0
230
1.0
 70
     9
 71
     3
 72
   803
 73
   799
 74
     0
 42
0.000000001
 43
0.0000000001
 40
0.0
 40
0.0
 40
0.0
 40
0.0
 40
1.0
 40
1.0
 40
1.0
 40
2.0
 40
2.0
 40
2.0
 40
3.0
 40
3.0
 40
3.0
 40
4.0
 40
4.0
 40
4.0
 40
5.0
 40
5.0
 40
5.0
 40
6.0
 40
6.0
 40
6.0
 40
7.0
 40
7.0
 40
7.0
 40
8.0
 40
8.0
 40
8.0
 40
9.0
 40
9.0
 40
9.0
 40
10.0
 40
10.0
 40
10.0
 40
11.0
 40
11.0
 40
11.0
 40
12.0
 40
12.0
 40
12.0
 40
13.0
 40
13.0
 40
13.0
 40
14.0
 40
14.0
 40
14.0
 40
15.0
 40
15.0
 40
15.0
 40
16.0
 40
16.0
 40
16.0
 40
17.0
 40
17.0
 40
17.0
 40
18.0
 40
18.0
 40
18.0
 40
19.0
 40
19.0
 40
19.0
 40
20.0
 40
20.0
 40
20.0
 40
21.0
 40
21.0
 40
21.0
 40
22.0
 40
22.0
 40
22.0
 40
23.0
 40
23.0
 40
23.0
 40
24.0
 40
24.0
 40
24.0
 40
25.0
 40
25.0
 40
25.0
 40
26.0
 40
26.0
 40
26.0
 40
27.0
 40
27.0
 40
27.0
 40
28.0
 40
28.0
 40
28.0
 40
29.0
 40
29.0
 40
29.0
 40
30.0
 40
30.0
 40
30.0
 40
31.0
 40
31.0
 40
31.0
 40
32.0
 40
32.0
 40
32.0
 40
33.0
 40
33.0
 40
33.0
 40
34.0
 40
34.0
 40
34.0
 40
35.0
 40
35.0
 40
35.0
 40
36.0
 40
36.0
 40
36.0
 40
37.0
 40
37.0
 40
37.0
 40
38.0
 40
38.0
 40
38.0
 40
39.0
 40
39.0
 40
39.0
 40
40.0
 40
40.0
 40
40.0
 40
41.0
 40
41.0
 40
41.0
 40
42.0
 40
42.0
 40
42.0
 40
43.0
 40
43.0
 40
43.0
 40
44.0
 40
44.0
 40
44.0
 40
45.0
 40
45.0
 40
45.0
 40
46.0
 40
46.0
 40
46.0
 40
47.0
 40
47.0
 40
47.0
 40
48.0
 40
48.0
 40
48.0
 40
49.0
 40
49.0
 40
49.0
 40
50.0
 40
50.0
 40
50.0
 40
51.0
 40
51.0
 40
51.0
 40
52.0
 40
52.0
 40
52.0
 40
53.0
 40
53.0
 40
53.0
 40
54.0
 40
54.0
 40
54.0
 40
55.0
 40
55.0
 40
55.0
 40
56.0
 40
56.0
 40
56.0
 40
57.0
 40
57.0
 40
57.0
 40
58.0
 40
58.0
 40
58.0
 40
59.0
 40
59.0
 40
59.0
 40
60.0
 40
60.0
 40
60.0
 40
61.0
 40
61.0
 40
61.0
 40
62.0
 40
62.0
 40
62.0
 40
63.0
 40
63.0
 40
63.0
 40
64.0
 40
64.0
 40
64.0
 40
65.0
 40
65.0
 40
65.0
 40
66.0
 40
66.0
 40
66.0
 40
67.0
 40
67.0
 40
67.0
 40
68.0
 40
68.0
 40
68.0
 40
69.0
 40
69.0
 40
69.0
 40
70.0
 40
70.0
 40
70.0
 40
71.0
 40
71.0
 40
71.0
 40
72.0
 40
72.0
 40
72.0
 40
73.0
 40
73.0
 40
73.0
 40
74.0
 40
74.0
 40
74.0
 40
75.0
 40
75.0
 40
75.0
 40
76.0
 40
76.0
 40
76.0
 40
77.0
 40
77.0
 40
77.0
 40
78.0
 40
78.0
 40
78.0
 40
79.0
 40
79.0
 40
79.0
 40
80.0
 40
80.0
 40
80.0
 40
81.0
 40
81.0
 40
81.0
 40
82.0
 40
82.0
 40
82.0
 40
83.0
 40
83.0
 40
83.0
 40
84.0
 40
84.0
 40
84.0
 40
85.0
 40
85.0
 40
85.0
 40
86.0
 40
86.0
 40
86.0
 40
87.0
 40
87.0
 40
87.0
 40
88.0
 40
88.0
 40
88.0
 40
89.0
 40
89.0
 40
89.0
 40
90.0
 40
90.0
 40
90.0
 40
91.0
 40
91.0
 40
91.0
 40
92.0
 40
92.0
 40
92.0
 40
93.0
 40
93.0
 40
93.0
 40
94.0
 40
94.0
 40
94.0
 40
95.0
 40
95.0
 40
95.0
 40
96.0
 40
96.0
 40
96.0
 40
97.0
 40
97.0
 40
97.0
 40
98.0
 40
98.0
 40
98.0
 40
99.0
 40
99.0
 40
99.0
 40
100.0
 40
100.0
 40
100.0
 40
101.0
 40
101.0
 40
101.0
 40
102.0
 40
102.0
 40
102.0
 40
103.0
 40
103.0
 40
103.0
 40
104.0
 40
104.0
 40
104.0
 40
105.0
 40
105.0
 40
105.0
 40
106.0
 40
106.0
 40
106.0
 40
107.0
 40
107.0
 40
107.0
 40
108.0
 40
108.0
 40
108.0
 40
109.0
 40
109.0
 40
109.0
 40
110.0
 40
110.0
 40
110.0
 40
111.0
 40
111.0
 40
111.0
 40
112.0
 40
112.0
 40
112.0
 40
113.0
 40
113.0
 40
113.0
 40
114.0
 40
114.0
 40
114.0
 40
115.0
 40
115.0
 40
115.0
 40
116.0
 40
116.0
 40
116.0
 40
117.0
 40
117.0
 40
117.0
 40
118.0
 40
118.0
 40
118.0
 40
119.0
 40
119.0
 40
119.0
 40
120.0
 40
120.0
 40
120.0
 40
121.0
 40
121.0
 40
121.0
 40
122.0
 40
122.0
 40
122.0
 40
123.0
 40
123.0
 40
123.0
 40
124.0
 40
124.0
 40
124.0
 40
125.0
 40
125.0
 40
125.0
 40
126.0
 40
126.0
 40
126.0
 40
127.0
 40
127.0
 40
127.0
 40
128.0
 40
128.0
 40
128.0
 40
129.0
 40
129.0
 40
129.0
 40
130.0
 40
130.0
 40
130.0
 40
131.0
 40
131.0
 40
131.0
 40
132.0
 40
132.0
 40
132.0
 40
133.0
 40
133.0
 40
133.0
 40
134.0
 40
134.0
 40
134.0
 40
135.0
 40
135.0
 40
135.0
 40
136.0
 40
136.0
 40
136.0
 40
137.0
 40
137.0
 40
137.0
 40
138.0
 40
138.0
 40
138.0
 40
139.0
 40
139.0
 40
139.0
 40
140.0
 40
140.0
 40
140.0
 40
141.0
 40
141.0
 40
141.0
 40
142.0
 40
142.0
 40
142.0
 40
143.0
 40
143.0
 40
143.0
 40
144.0
 40
144.0
 40
144.0
 40
145.0
 40
145.0
 40
145.0
 40
146.0
 40
146.0
 40
146.0
 40
147.0
 40
147.0
 40
147.0
 40
148.0
 40
148.0
 40
148.0
 40
149.0
 40
149.0
 40
149.0
 40
150.0
 40
150.0
 40
150.0
 40
151.0
 40
151.0
 40
151.0
 40
152.0
 40
152.0
 40
152.0
 40
153.0
 40
153.0
 40
153.0
 40
154.0
 40
154.0
 40
154.0
 40
155.0
 40
155.0
 40
155.0
 40
156.0
 40
156.0
 40
156.0
 40
157.0
 40
157.0
 40
157.0
 40
158.0
 40
158.0
 40
158.0
 40
159.0
 40
159.0
 40
159.0
 40
160.0
 40
160.0
 40
160.0
 40
161.0
 40
161.0
 40
161.0
 40
162.0
 40
162.0
 40
162.0
 40
163.0
 40
163.0
 40
163.0
 40
164.0
 40
164.0
 40
164.0
 40
165.0
 40
165.0
 40
165.0
 40
166.0
 40
166.0
 40
166.0
 40
167.0
 40
167.0
 40
167.0
 40
168.0
 40
168.0
 40
168.0
 40
169.0
 40
169.0
 40
169.0
 40
170.0
 40
170.0
 40
170.0
 40
171.0
 40
171.0
 40
171.0
 40
172.0
 40
172.0
 40
172.0
 40
173.0
 40
173.0
 40
173.0
 40
174.0
 40
174.0
 40
174.0
 40
175.0
 40
175.0
 40
175.0
 40
176.0
 40
176.0
 40
176.0
 40
177.0
 40
177.0
 40
177.0
 40
178.0
 40
178.0
 40
178.0
 40
179.0
 40
179.0
 40
179.0
 40
180.0
 40
180.0
 40
180.0
 40
181.0
 40
181.0
 40
181.0
 40
182.0
 40
182.0
 40
182.0
 40
183.0
 40
183.0
 40
183.0
 40
184.0
 40
184.0
 40
184.0
 40
185.0
 40
185.0
 40
185.0
 40
186.0
 40
186.0
 40
186.0
 40
187.0
 40
187.0
 40
187.0
 40
188.0
 40
188.0
 40
188.0
 40
189.0
 40
189.0
 40
189.0
 40
190.0
 40
190.0
 40
190.0
 40
191.0
 40
191.0
 40
191.0
 40
192.0
 40
192.0
 40
192.0
 40
193.0
 40
193.0
 40
193.0
 40
194.0
 40
194.0
 40
194.0
 40
195.0
 40
195.0
 40
195.0
 40
196.0
 40
196.0
 40
196.0
 40
197.0
 40
197.0
 40
197.0
 40
198.0
 40
198.0
 40
198.0
 40
199.0
 40
199.0
 40
199.0
 40
200.0
 40
200.0
 40
200.0
 40
201.0
 40
201.0
 40
201.0
 40
202.0
 40
202.0
 40
202.0
 40
203.0
 40
203.0
 40
203.0
 40
204.0
 40
204.0
 40
204.0
 40
205.0
 40
205.0
 40
205.0
 40
206.0
 40
206.0
 40
206.0
 40
207.0
 40
207.0
 40
207.0
 40
208.0
 40
208.0
 40
208.0
 40
209.0
 40
209.0
 40
209.0
 40
210.0
 40
210.0
 40
210.0
 40
211.0
 40
211.0
 40
211.0
 40
212.0
 40
212.0
 40
212.0
 40
213.0
 40
213.0
 40
213.0
 40
214.0
 40
214.0
 40
214.0
 40
215.0
 40
215.0
 40
215.0
 40
216.0
 40
216.0
 40
216.0
 40
217.0
 40
217.0
 40
217.0
 40
218.0
 40
218.0
 40
218.0
 40
219.0
 40
219.0
 40
219.0
 40
220.0
 40
220.0
 40
220.0
 40
221.0
 40
221.0
 40
221.0
 40
222.0
 40
222.0
 40
222.0
 40
223.0
 40
223.0
 40
223.0
 40
224.0
 40
224.0
 40
224.0
 40
225.0
 40
225.0
 40
225.0
 40
226.0
 40
226.0
 40
226.0
 40
227.0
 40
227.0
 40
227.0
 40
228.0
 40
228.0
 40
228.0
 40
229.0
 40
229.0
 40
229.0
 40
230.0
 40
230.0
 40
230.0
 40
231.0
 40
231.0
 40
231.0
 40
232.0
 40
232.0
 40
232.0
 40
233.0
 40
233.0
 40
233.0
 40
234.0
 40
234.0
 40
234.0
 40
235.0
 40
235.0
 40
235.0
 40
236.0
 40
236.0
 40
236.0
 40
237.0
 40
237.0
 40
237.0
 40
238.0
 40
238.0
 40
238.0
 40
239.0
 40
239.0
 40
239.0
 40
240.0
 40
240.0
 40
240.0
 40
241.0
 40
241.0
 40
241.0
 40
242.0
 40
242.0
 40
242.0
 40
243.0
 40
243.0
 40
243.0
 40
244.0
 40
244.0
 40
244.0
 40
245.0
 40
245.0
 40
245.0
 40
246.0
 40
246.0
 40
246.0
 40
247.0
 40
247.0
 40
247.0
 40
248.0
 40
248.0
 40
248.0
 40
249.0
 40
249.0
 40
249.0
 40
250.0
 40
250.0
 40
250.0
 40
251.0
 40
251.0
 40
251.0
 40
252.0
 40
252.0
 40
252.0
 40
253.0
 40
253.0
 40
253.0
 40
254.0
 40
254.0
 40
254.0
 40
255.0
 40
255.0
 40
255.0
 40
256.0
 40
256.0
 40
256.0
 40
257.0
 40
257.0
 40
257.0
 40
258.0
 40
258.0
 40
258.0
 40
259.0
 40
259.0
 40
259.0
 40
260.0
 40
260.0
 40
260.0
 40
261.0
 40
261.0
 40
261.0
 40
262.0
 40
262.0
 40
262.0
 40
263.0
 40
263.0
 40
263.0
 40
264.0
 40
264.0
 40
264.0
 40
265.0
 40
265.0
 40
265.0
 40
266.0
 40
266.0
 40
266.0
 40
266.0
 10
6.026889763834546
 20
37.72875396510568
 30
0.0
 10
5.985614559292315
 20
37.72875396510568
 30
0.0
 10
5.954922930314054
 20
37.71958139837617
 30
0.0
 10
5.938695319412147
 20
37.70158884890824
 30
0.0
 10
5.921761867657892
 20
37.68395157491239
 30
0.0
 10
5.922820292501299
 20
37.66102015808866
 30
0.0
 10
5.922820292501299
 20
37.66066757409755
 30
0.0
 10
5.922820292501299
 20
37.66066757409755
 30
0.0
 10
5.923172876492373
 20
29.85404890675125
 30
0.0
 10
5.923172876492373
 20
29.85404890675125
 30
0.0
 10
5.924584558197068
 20
29.84911003939547
 30
0.0
 10
5.946809461298201
 20
29.83217524190076
 30
0.0
 10
6.023009321322149
 20
29.83640894127444
 30
0.0
 10
6.023009321322149
 20
29.83640894127444
 30
0.0
 10
6.129195642342224
 20
29.83676152526547
 30
0.0
 10
6.129195642342224
 20
29.83676152526547
 30
0.0
 10
6.129548226333284
 20
29.83817455271065
 30
0.0
 10
6.129900810324357
 20
29.83993747266595
 30
0.0
 10
6.130253394315417
 20
29.84170039262125
 30
0.0
 10
6.131311819158838
 20
29.84981520737756
 30
0.0
 10
6.130606651176705
 20
29.86216103002667
 30
0.0
 10
6.129900810324357
 20
29.87768549155706
 30
0.0
 10
6.129195642342224
 20
29.89073648218838
 30
0.0
 10
6.128489801489877
 20
29.90520050026467
 30
0.0
 10
6.128137217498803
 20
29.92248788175047
 30
0.0
 10
6.128137217498803
 20
29.93448112040847
 30
0.0
 10
6.133781252836755
 20
29.98140170602906
 30
0.0
 10
6.160945696163906
 20
30.00327267939866
 30
0.0
 10
6.184934192090594
 20
30.02267556483088
 30
0.0
 10
6.215273237077781
 20
30.03043779559604
 30
0.0
 10
6.251256317402919
 20
30.02831960016877
 30
0.0
 10
6.251256317402919
 20
30.02831960016877
 30
0.0
 10
6.267131344313739
 20
30.02655668021347
 30
0.0
 10
6.267131344313739
 20
30.02655668021347
 30
0.0
 10
6.280889521537758
 20
30.02655668021347
 30
0.0
 10
6.308759132847058
 20
30.02726184819556
 30
0.0
 10
6.330984035948191
 20
30.02831960016877
 30
0.0
 10
6.336276160165269
 20
30.02902476815095
 30
0.0
 10
6.345448054024544
 20
30.03220071555137
 30
0.0
 10
6.347564903711372
 20
30.03467149496967
 30
0.0
 10
6.347564903711372
 20
30.03467149496967
 30
0.0
 10
6.346506478867979
 20
30.10311046996887
 30
0.0
 10
6.346506478867979
 20
30.10311046996887
 30
0.0
 10
6.346506478867979
 20
30.10028710655948
 30
0.0
 10
6.341215027521087
 20
30.11016484127106
 30
0.0
 10
6.317225858724185
 20
30.11686662858224
 30
0.0
 10
6.307700708003636
 20
30.11968999199166
 30
0.0
 10
6.286886813736984
 20
30.12251335540105
 30
0.0
 10
6.271365043687424
 20
30.12498144333856
 30
0.0
 10
6.271365043687424
 20
30.12498144333856
 30
0.0
 10
6.256548441620012
 20
30.12709694728497
 30
0.0
 10
6.256548441620012
 20
30.12709694728497
 30
0.0
 10
6.223387378963849
 20
30.13274367410375
 30
0.0
 10
6.172234439709995
 20
30.14508949675275
 30
0.0
 10
6.172234439709995
 20
30.14508949675275
 30
0.0
 10
6.172234439709995
 20
30.14508949675275
 30
0.0
 10
6.141189553870461
 20
30.15249914352697
 30
0.0
 10
6.141189553870461
 20
30.15249914352697
 30
0.0
 10
6.141189553870461
 20
30.15249914352697
 30
0.0
 10
6.141189553870461
 20
30.36028415646197
 30
0.0
 10
6.141189553870461
 20
30.36028415646197
 30
0.0
 10
6.141189553870461
 20
30.36028415646197
 30
0.0
 10
6.351797930214829
 20
30.40402879468206
 30
0.0
 10
6.351797930214829
 20
30.40402879468206
 30
0.0
 10
6.365556780309049
 20
30.40826249405578
 30
0.0
 10
6.38531224973228
 20
30.41566944934905
 30
0.0
 10
6.390603701079157
 20
30.41919798074057
 30
0.0
 10
6.402950869468668
 20
30.43083863540747
 30
0.0
 10
6.405772887137644
 20
30.43965861814596
 30
0.0
 10
6.405420303146584
 20
30.44107164559105
 30
0.0
 10
6.405420303146584
 20
30.44142422958206
 30
0.0
 10
6.398012002112878
 20
30.46082711501427
 30
0.0
 10
6.323223150923411
 20
30.47987472497445
 30
0.0
 10
6.263603485792444
 20
30.49892502641555
 30
0.0
 10
6.160945696163906
 20
30.52926609001346
 30
0.0
 10
6.160945696163906
 20
30.52926609001346
 30
0.0
 10
6.160945696163906
 20
30.52926609001346
 30
0.0
 10
6.1320176600112
 20
30.53808338127095
 30
0.0
 10
6.1320176600112
 20
30.53808338127095
 30
0.0
 10
6.1320176600112
 20
30.53808338127095
 30
0.0
 10
6.1320176600112
 20
30.82348262741547
 30
0.0
 10
6.1320176600112
 20
30.82348262741547
 30
0.0
 10
6.1320176600112
 20
30.82348262741547
 30
0.0
 10
6.313345416211788
 20
30.82206959997035
 30
0.0
 10
6.313345416211788
 20
30.82206959997035
 30
0.0
 10
6.313345416211788
 20
30.82206959997035
 30
0.0
 10
6.35285635505825
 20
30.78255866112386
 30
0.0
 10
6.35285635505825
 20
30.78255866112386
 30
0.0
 10
6.35285635505825
 20
30.78255866112386
 30
0.0
 10
6.354620620754019
 20
30.76844722703857
 30
0.0
 10
6.354620620754019
 20
30.76844722703857
 30
0.0
 10
6.357090054431921
 20
30.75222028900697
 30
0.0
 10
6.368026213986951
 20
30.74939961707836
 30
0.0
 10
6.375434515020657
 20
30.74904434160647
 30
0.0
 10
6.383901240897799
 20
30.75186770501588
 30
0.0
 10
6.401892444625261
 20
30.75892207631805
 30
0.0
 10
6.410711754493448
 20
30.78714494448866
 30
0.0
 10
6.416709046692659
 20
30.81924892804176
 30
0.0
 10
6.4530453838791
 20
30.88945082299626
 30
0.0
 10
6.556409014359985
 20
30.88521712362268
 30
0.0
 10
6.567345173915015
 20
30.88945082299626
 30
0.0
 10
6.573695722975529
 20
30.89968114169895
 30
0.0
 10
6.575459315801083
 20
30.91661593919366
 30
0.0
 10
6.575459315801083
 20
30.91767369116687
 30
0.0
 10
6.574400890957662
 20
30.92331772650485
 30
0.0
 10
6.573695722975529
 20
30.92508064646017
 30
0.0
 10
6.56558158108946
 20
30.93742916059017
 30
0.0
 10
6.547237120500724
 20
30.95400868261288
 30
0.0
 10
6.509137190488743
 20
30.95189317866647
 30
0.0
 10
6.509137190488743
 20
30.95189317866647
 30
0.0
 10
6.507372924792974
 20
30.99246186948616
 30
0.0
 10
6.507372924792974
 20
30.99246186948616
 30
0.0
 10
6.507372924792974
 20
30.99246186948616
 30
0.0
 10
6.467509401955453
 20
30.99881107280618
 30
0.0
 10
6.467509401955453
 20
30.99881107280618
 30
0.0
 10
6.468567826798874
 20
31.00868880751787
 30
0.0
 10
6.467861985946527
 20
31.06866307525047
 30
0.0
 10
6.46680356110312
 20
31.12087242073719
 30
0.0
 10
6.466450977112017
 20
31.12193286419117
 30
0.0
 10
6.462923118590708
 20
31.15332898828138
 30
0.0
 10
6.438934622664021
 20
31.15650493568185
 30
0.0
 10
6.438934622664021
 20
31.15650493568185
 30
0.0
 10
6.375787099011731
 20
31.15615235169077
 30
0.0
 10
6.375787099011731
 20
31.15615235169077
 30
0.0
 10
6.375081258159383
 20
31.13568902280454
 30
0.0
 10
6.364850939456701
 20
31.09547291597596
 30
0.0
 10
6.340156602677666
 20
31.00022410025136
 30
0.0
 10
6.340156602677666
 20
31.00022410025136
 30
0.0
 10
6.332395717652886
 20
30.96988572813436
 30
0.0
 10
6.332395717652886
 20
30.96988572813436
 30
0.0
 10
6.332395717652886
 20
30.96988572813436
 30
0.0
 10
6.130959235167779
 20
30.96988572813436
 30
0.0
 10
6.130959235167779
 20
30.96988572813436
 30
0.0
 10
6.130959235167779
 20
30.96988572813436
 30
0.0
 10
6.13237024400226
 20
33.19979375946437
 30
0.0
 10
6.13237024400226
 20
33.19979375946437
 30
0.0
 10
6.139073377053833
 20
33.22695618418086
 30
0.0
 10
6.160592439302618
 20
33.25412130037828
 30
0.0
 10
6.194106758820069
 20
33.25588422033357
 30
0.0
 10
6.20645392720958
 20
33.25694197230678
 30
0.0
 10
6.231500847979702
 20
33.25658938831575
 30
0.0
 10
6.293942530779631
 20
33.25588422033357
 30
0.0
 10
6.293942530779631
 20
33.25588422033357
 30
0.0
 10
6.302761840647832
 20
33.25482646836036
 30
0.0
 10
6.302761840647832
 20
33.25482646836036
 30
0.0
 10
6.32639842545366
 20
33.24918243302235
 30
0.0
 10
6.370495647664853
 20
33.22342765278936
 30
0.0
 10
6.370495647664853
 20
33.16733719192004
 30
0.0
 10
6.370495647664853
 20
33.16733719192004
 30
0.0
 10
6.369789806812519
 20
33.16733719192004
 30
0.0
 10
6.369789806812519
 20
33.16733719192004
 30
0.0
 10
6.37155339963806
 20
33.14546352706955
 30
0.0
 10
6.371200815647
 20
33.11089145557895
 30
0.0
 10
6.370848231655926
 20
33.05444841071866
 30
0.0
 10
6.370848231655926
 20
33.05444841071866
 30
0.0
 10
6.430114639925619
 20
33.05444841071866
 30
0.0
 10
6.430114639925619
 20
33.05444841071866
 30
0.0
 10
6.431173064769026
 20
33.05762435811917
 30
0.0
 10
6.432231489612448
 20
33.06291580946598
 30
0.0
 10
6.432584073603521
 20
33.07032276475926
 30
0.0
 10
6.432584073603521
 20
33.07032276475926
 30
0.0
 10
6.433289914455869
 20
33.07984791547986
 30
0.0
 10
6.433289914455869
 20
33.07984791547986
 30
0.0
 10
6.433642498446943
 20
33.10489483624997
 30
0.0
 10
6.432584073603521
 20
33.17545200667638
 30
0.0
 10
6.432584073603521
 20
33.17545200667638
 30
0.0
 10
6.43434833929929
 20
33.19238411269018
 30
0.0
 10
6.447048091679874
 20
33.24635906961305
 30
0.0
 10
6.549353970187553
 20
33.24318312221257
 30
0.0
 10
6.558173280055754
 20
33.24318312221257
 30
0.0
 10
6.637548414609938
 20
33.24036245028398
 30
0.0
 10
6.691875955523826
 20
33.21072924614916
 30
0.0
 10
6.69681482287963
 20
33.22342765278936
 30
0.0
 10
6.701048522253302
 20
33.24918243302235
 30
0.0
 10
6.691875955523826
 20
33.29786593859836
 30
0.0
 10
6.689053937854865
 20
33.31374029263898
 30
0.0
 10
6.6922285395149
 20
33.34125530134656
 30
0.0
 10
6.702459531087797
 20
33.36101077076975
 30
0.0
 10
6.737384186569514
 20
33.42768682581365
 30
0.0
 10
6.850272967770948
 20
33.65099630027908
 30
0.0
 10
6.873556295715488
 20
33.69756161042767
 30
0.0
 10
6.873556295715488
 20
33.69756161042767
 30
0.0
 10
6.873556295715488
 20
33.80198299288176
 30
0.0
 10
6.873556295715488
 20
33.80198299288176
 30
0.0
 10
6.872851127733355
 20
33.80798230369169
 30
0.0
 10
6.854154083153545
 20
33.82103329432289
 30
0.0
 10
6.809703604081065
 20
33.81997554234966
 30
0.0
 10
6.809703604081065
 20
33.81997554234966
 30
0.0
 10
6.507372924792974
 20
33.81997554234966
 30
0.0
 10
6.507372924792974
 20
33.81997554234966
 30
0.0
 10
6.496084181246871
 20
33.81927037436756
 30
0.0
 10
6.4530453838791
 20
33.81397892302067
 30
0.0
 10
6.454103808722521
 20
33.77552573614736
 30
0.0
 10
6.454103808722521
 20
33.77552573614736
 30
0.0
 10
6.455162233565928
 20
33.74659769999465
 30
0.0
 10
6.455162233565928
 20
33.74659769999465
 30
0.0
 10
6.455162233565928
 20
33.74659769999465
 30
0.0
 10
6.453751224731448
 20
33.74624511600368
 30
0.0
 10
6.453751224731448
 20
33.74624511600368
 30
0.0
 10
6.453397967870159
 20
33.68274500836026
 30
0.0
 10
6.453751224731448
 20
33.51552868624498
 30
0.0
 10
6.454103808722521
 20
33.39911137365198
 30
0.0
 10
6.455514817557002
 20
33.36171863023276
 30
0.0
 10
6.428703631091124
 20
33.31973691196797
 30
0.0
 10
6.376845523855152
 20
33.31797399201267
 30
0.0
 10
6.376845523855152
 20
33.31797399201267
 30
0.0
 10
6.098150756502661
 20
33.31797399201267
 30
0.0
 10
6.098150756502661
 20
33.31797399201267
 30
0.0
 10
6.098150756502661
 20
33.31797399201267
 30
0.0
 10
6.098150756502661
 20
37.07293966727565
 30
0.0
 10
6.098150756502661
 20
37.07293966727565
 30
0.0
 10
6.100973447041866
 20
37.13432427097257
 30
0.0
 10
6.12425677498642
 20
37.19923471458017
 30
0.0
 10
6.181759590430544
 20
37.20099763453556
 30
0.0
 10
6.181759590430544
 20
37.20099763453556
 30
0.0
 10
6.181759590430544
 20
37.19817696260697
 30
0.0
 10
6.181759590430544
 20
37.19817696260697
 30
0.0
 10
6.213156387390938
 20
37.20205538650876
 30
0.0
 10
6.270659202835076
 20
37.20135021852667
 30
0.0
 10
6.378256532689633
 20
37.20099763453556
 30
0.0
 10
6.381784391210956
 20
37.20099763453556
 30
0.0
 10
6.432584073603521
 20
37.20276055449088
 30
0.0
 10
6.46539255226861
 20
37.16924892645426
 30
0.0
 10
6.477739720658135
 20
37.15619524434226
 30
0.0
 10
6.492556322725562
 20
37.13291124352747
 30
0.0
 10
6.489734305056586
 20
37.09622366809038
 30
0.0
 10
6.489734305056586
 20
37.09622366809038
 30
0.0
 10
6.489734305056586
 20
36.76002541242354
 30
0.0
 10
6.489734305056586
 20
36.76002541242354
 30
0.0
 10
6.489734305056586
 20
36.75932024444146
 30
0.0
 10
6.492203738734488
 20
36.69017610146017
 30
0.0
 10
6.523601208565096
 20
36.68735273805078
 30
0.0
 10
6.523601208565096
 20
36.68735273805078
 30
0.0
 10
6.523601208565096
 20
36.68558981809537
 30
0.0
 10
6.523601208565096
 20
36.68558981809537
 30
0.0
 10
6.553939580682083
 20
36.68841318150476
 30
0.0
 10
6.608267794466172
 20
36.68841318150476
 30
0.0
 10
6.706692557591239
 20
36.68770532204175
 30
0.0
 10
6.706692557591239
 20
36.68770532204175
 30
0.0
 10
6.708103566425734
 20
36.70534528751856
 30
0.0
 10
6.708103566425734
 20
36.70534528751856
 30
0.0
 10
6.708103566425734
 20
36.71592819021237
 30
0.0
 10
6.707750982434674
 20
36.72862928833337
 30
0.0
 10
6.707398398443601
 20
36.73956477501815
 30
0.0
 10
6.707398398443601
 20
36.73956477501815
 30
0.0
 10
6.706339973600179
 20
36.74944250972988
 30
0.0
 10
6.706339973600179
 20
36.74944250972988
 30
0.0
 10
6.704575707904425
 20
36.75085284569405
 30
0.0
 10
6.69681482287963
 20
36.75367620910348
 30
0.0
 10
6.68446765449012
 20
36.75367620910348
 30
0.0
 10
6.671414645248248
 20
36.75261845713027
 30
0.0
 10
6.653776025511859
 20
36.75297104112138
 30
0.0
 10
6.630845281558379
 20
36.75367620910348
 30
0.0
 10
6.60756195361381
 20
36.75473396107665
 30
0.0
 10
6.564875740237113
 20
36.77448943049995
 30
0.0
 10
6.563112147411558
 20
36.84257582150806
 30
0.0
 10
6.563112147411558
 20
36.84257582150806
 30
0.0
 10
6.562406306559211
 20
36.86691757429597
 30
0.0
 10
6.562406306559211
 20
36.86691757429597
 30
0.0
 10
6.562406306559211
 20
36.86691757429597
 30
0.0
 10
6.56417057225498
 20
36.86762274227817
 30
0.0
 10
6.56417057225498
 20
36.86762274227817
 30
0.0
 10
6.564523156246039
 20
36.91736399982725
 30
0.0
 10
6.563817315393691
 20
37.04506938309618
 30
0.0
 10
6.563112147411558
 20
37.12832496016276
 30
0.0
 10
6.562406306559211
 20
37.13926313832838
 30
0.0
 10
6.566640005932882
 20
37.15972377573377
 30
0.0
 10
6.581809191991368
 20
37.17595071376547
 30
0.0
 10
6.598390059754564
 20
37.19323809525116
 30
0.0
 10
6.62414282137702
 20
37.19993988256238
 30
0.0
 10
6.654128609502919
 20
37.20099763453556
 30
0.0
 10
6.654128609502919
 20
37.20099763453556
 30
0.0
 10
7.592870701188886
 20
37.20099763453556
 30
0.0
 10
7.592870701188886
 20
37.20099763453556
 30
0.0
 10
7.592870701188886
 20
37.20099763453556
 30
0.0
 10
7.601337427066013
 20
37.19676393516187
 30
0.0
 10
7.601337427066013
 20
37.19676393516187
 30
0.0
 10
7.607687303256298
 20
37.19359067924228
 30
0.0
 10
7.663073269013608
 20
37.16466264308957
 30
0.0
 10
7.688473446644991
 20
37.11033510217567
 30
0.0
 10
7.688473446644991
 20
37.11033510217567
 30
0.0
 10
7.898023398145952
 20
36.67253613598325
 30
0.0
 10
7.898023398145952
 20
36.67253613598325
 30
0.0
 10
7.898023398145952
 20
36.67253613598325
 30
0.0
 10
10.17344033339184
 20
36.67253613598325
 30
0.0
 10
10.17344033339184
 20
36.67253613598325
 30
0.0
 10
10.17344033339184
 20
36.67253613598325
 30
0.0
 10
10.38298961202258
 20
37.11068768616676
 30
0.0
 10
10.38298961202258
 20
37.11068768616676
 30
0.0
 10
10.40838911678376
 20
37.16466264308957
 30
0.0
 10
10.46377575541127
 20
37.19359067924228
 30
0.0
 10
10.46977237474028
 20
37.19676393516187
 30
0.0
 10
10.46977237474028
 20
37.19676393516187
 30
0.0
 10
10.47859235747869
 20
37.20099763453556
 30
0.0
 10
10.47859235747869
 20
37.20099763453556
 30
0.0
 10
10.47859235747869
 20
37.20099763453556
 30
0.0
 10
11.41804029001699
 20
37.20099763453556
 30
0.0
 10
11.41804029001699
 20
37.20099763453556
 30
0.0
 10
11.44873124612505
 20
37.20099763453556
 30
0.0
 10
11.47307299891302
 20
37.19323809525116
 30
0.0
 10
11.48930128268512
 20
37.17595071376547
 30
0.0
 10
11.50482305273469
 20
37.15972377573377
 30
0.0
 10
11.50905675210838
 20
37.13926313832838
 30
0.0
 10
11.50799765439474
 20
37.12550428823417
 30
0.0
 10
11.50729248641259
 20
37.04471679910506
 30
0.0
 10
11.50658731843046
 20
36.91701141583627
 30
0.0
 10
11.50729248641259
 20
36.86762274227817
 30
0.0
 10
11.50729248641259
 20
36.86762274227817
 30
0.0
 10
11.5087041681173
 20
36.86691757429597
 30
0.0
 10
11.5087041681173
 20
36.86691757429597
 30
0.0
 10
11.5087041681173
 20
36.86691757429597
 30
0.0
 10
11.50799765439474
 20
36.84257582150806
 30
0.0
 10
11.50799765439474
 20
36.84257582150806
 30
0.0
 10
11.5062347344394
 20
36.77448943049995
 30
0.0
 10
11.46390043218353
 20
36.75473396107665
 30
0.0
 10
11.4416755290824
 20
36.75367620910348
 30
0.0
 10
11.41804029001699
 20
36.75332362511247
 30
0.0
 10
11.4004003245402
 20
36.75261845713027
 30
0.0
 10
11.38699540417745
 20
36.75402879309456
 30
0.0
 10
11.38699540417745
 20
36.75402879309456
 30
0.0
 10
11.38699540417745
 20
36.75367620910348
 30
0.0
 10
11.38699540417745
 20
36.75367620910348
 30
0.0
 10
11.3739430678058
 20
36.75367620910348
 30
0.0
 10
11.36688735076316
 20
36.75085284569405
 30
0.0
 10
11.36512308506741
 20
36.74944250972988
 30
0.0
 10
11.36512308506741
 20
36.74944250972988
 30
0.0
 10
11.36547566905845
 20
36.74626656232937
 30
0.0
 10
11.36547566905845
 20
36.74626656232937
 30
0.0
 10
11.36547566905845
 20
36.74626656232937
 30
0.0
 10
11.3637114033627
 20
36.73956477501815
 30
0.0
 10
11.3637114033627
 20
36.73956477501815
 30
0.0
 10
11.3637114033627
 20
36.72898187232448
 30
0.0
 10
11.36335881937162
 20
36.71663335819457
 30
0.0
 10
11.36300623538055
 20
36.70605045550076
 30
0.0
 10
11.36300623538055
 20
36.70605045550076
 30
0.0
 10
11.36441791708526
 20
36.68770532204175
 30
0.0
 10
11.36441791708526
 20
36.68770532204175
 30
0.0
 10
11.4631952642014
 20
36.68841318150476
 30
0.0
 10
11.51752280511529
 20
36.68841318150476
 30
0.0
 10
11.54786252297269
 20
36.68558981809537
 30
0.0
 10
11.54786252297269
 20
36.68558981809537
 30
0.0
 10
11.5475085932412
 20
36.68735273805078
 30
0.0
 10
11.5475085932412
 20
36.68735273805078
 30
0.0
 10
11.57925864706287
 20
36.69017610146017
 30
0.0
 10
11.58172808074077
 20
36.75932024444146
 30
0.0
 10
11.58172808074077
 20
36.76002541242354
 30
0.0
 10
11.58172808074077
 20
36.76002541242354
 30
0.0
 10
11.58172808074077
 20
37.09939692400997
 30
0.0
 10
11.58172808074077
 20
37.09939692400997
 30
0.0
 10
11.57890606307181
 20
37.13291124352747
 30
0.0
 10
11.59337008114816
 20
37.15619524434226
 30
0.0
 10
11.60606983352875
 20
37.16924892645426
 30
0.0
 10
11.63852640107298
 20
37.20276055449088
 30
0.0
 10
11.68897282660427
 20
37.20135021852667
 30
0.0
 10
11.69532337566477
 20
37.20064505054447
 30
0.0
 10
11.80115643982356
 20
37.20170280251767
 30
0.0
 10
11.85830599840642
 20
37.20205538650876
 30
0.0
 10
11.88970346823703
 20
37.19817696260697
 30
0.0
 10
11.88970346823703
 20
37.19817696260697
 30
0.0
 10
11.88970346823703
 20
37.20099763453556
 30
0.0
 10
11.88970346823703
 20
37.20099763453556
 30
0.0
 10
11.94720695655137
 20
37.19923471458017
 30
0.0
 10
11.97048961162571
 20
37.13432427097257
 30
0.0
 10
11.97331162929468
 20
37.07470258723097
 30
0.0
 10
11.97331162929468
 20
37.07470258723097
 30
0.0
 10
11.97331162929468
 20
33.31797399201267
 30
0.0
 10
11.97331162929468
 20
33.31797399201267
 30
0.0
 10
11.97331162929468
 20
33.31797399201267
 30
0.0
 10
11.69567595965583
 20
33.31797399201267
 30
0.0
 10
11.69567595965583
 20
33.31797399201267
 30
0.0
 10
11.64275875470623
 20
33.31973691196797
 30
0.0
 10
11.61594756824036
 20
33.36171863023276
 30
0.0
 10
11.61700666595399
 20
33.40052440109705
 30
0.0
 10
11.61771183393613
 20
33.51588127023595
 30
0.0
 10
11.6180644179272
 20
33.68274500836026
 30
0.0
 10
11.61771183393613
 20
33.74624511600368
 30
0.0
 10
11.61771183393613
 20
33.74624511600368
 30
0.0
 10
11.61630015223142
 20
33.74659769999465
 30
0.0
 10
11.61630015223142
 20
33.74659769999465
 30
0.0
 10
11.61630015223142
 20
33.74659769999465
 30
0.0
 10
11.61700666595399
 20
33.77552573614736
 30
0.0
 10
11.61700666595399
 20
33.77552573614736
 30
0.0
 10
11.61841700191826
 20
33.81644701095817
 30
0.0
 10
11.56797057638698
 20
33.81962295835857
 30
0.0
 10
11.56232519530863
 20
33.81997554234966
 30
0.0
 10
11.56232519530863
 20
33.81997554234966
 30
0.0
 10
11.26246462256863
 20
33.81997554234966
 30
0.0
 10
11.26246462256863
 20
33.81997554234966
 30
0.0
 10
11.21589796667955
 20
33.81927037436756
 30
0.0
 10
11.19861193093422
 20
33.80798230369169
 30
0.0
 10
11.19755417896101
 20
33.80163040889068
 30
0.0
 10
11.19755417896101
 20
33.80163040889068
 30
0.0
 10
11.19755417896101
 20
33.69756161042767
 30
0.0
 10
11.19755417896101
 20
33.69756161042767
 30
0.0
 10
11.22118941802641
 20
33.65099630027908
 30
0.0
 10
11.33407819922784
 20
33.42768682581365
 30
0.0
 10
11.36900420044999
 20
33.36101077076975
 30
0.0
 10
11.37923451915267
 20
33.34125530134656
 30
0.0
 10
11.38240912081272
 20
33.31374029263898
 30
0.0
 10
11.37958710314375
 20
33.29821852258948
 30
0.0
 10
11.37041453641427
 20
33.24988760100456
 30
0.0
 10
11.37429565179687
 20
33.22413551225225
 30
0.0
 10
11.37923451915267
 20
33.21108183014028
 30
0.0
 10
11.43603149374448
 20
33.24036245028398
 30
0.0
 10
11.51328910574162
 20
33.24318312221257
 30
0.0
 10
11.52246167247109
 20
33.24318312221257
 30
0.0
 10
11.62617788694305
 20
33.24600648562196
 30
0.0
 10
11.63676213537722
 20
33.19238411269018
 30
0.0
 10
11.63852640107298
 20
33.18144862600536
 30
0.0
 10
11.63852640107298
 20
33.17615717465856
 30
0.0
 10
11.63781988735042
 20
33.10489483624997
 30
0.0
 10
11.63817247134149
 20
33.07984791547986
 30
0.0
 10
11.63817247134149
 20
33.07984791547986
 30
0.0
 10
11.63852640107298
 20
33.07032276475926
 30
0.0
 10
11.63852640107298
 20
33.07032276475926
 30
0.0
 10
11.63923156905513
 20
33.06220795000306
 30
0.0
 10
11.64028932102833
 20
33.05691649865617
 30
0.0
 10
11.64134841874195
 20
33.05374324273655
 30
0.0
 10
11.64134841874195
 20
33.05374324273655
 30
0.0
 10
11.70061482701165
 20
33.05444841071866
 30
0.0
 10
11.70061482701165
 20
33.05444841071866
 30
0.0
 10
11.70026224302059
 20
33.11053887158787
 30
0.0
 10
11.69990965902951
 20
33.14546352706955
 30
0.0
 10
11.70167257898485
 20
33.16733719192004
 30
0.0
 10
11.70167257898485
 20
33.16733719192004
 30
0.0
 10
11.70061482701165
 20
33.16733719192004
 30
0.0
 10
11.70061482701165
 20
33.16733719192004
 30
0.0
 10
11.70061482701165
 20
33.22342765278936
 30
0.0
 10
11.74506463321391
 20
33.24918243302235
 30
0.0
 10
11.76870121801974
 20
33.25482646836036
 30
0.0
 10
11.76870121801974
 20
33.25482646836036
 30
0.0
 10
11.77751985501773
 20
33.25588422033357
 30
0.0
 10
11.77751985501773
 20
33.25588422033357
 30
0.0
 10
11.83996221068788
 20
33.25658938831575
 30
0.0
 10
11.86500913145799
 20
33.25694197230678
 30
0.0
 10
11.87735629984752
 20
33.25588422033357
 30
0.0
 10
11.91051803537388
 20
33.25412130037828
 30
0.0
 10
11.93239035448395
 20
33.22695618418086
 30
0.0
 10
11.9390921417951
 20
33.19979375946437
 30
0.0
 10
11.9390921417951
 20
33.19979375946437
 30
0.0
 10
11.94050382349979
 20
33.18991602475276
 30
0.0
 10
11.94050382349979
 20
33.18991602475276
 30
0.0
 10
11.94050382349979
 20
33.18991602475276
 30
0.0
 10
11.94050382349979
 20
30.96988572813436
 30
0.0
 10
11.94050382349979
 20
30.96988572813436
 30
0.0
 10
11.94050382349979
 20
30.96988572813436
 30
0.0
 10
11.7390680138849
 20
30.96988572813436
 30
0.0
 10
11.7390680138849
 20
30.96988572813436
 30
0.0
 10
11.7390680138849
 20
30.96988572813436
 30
0.0
 10
11.73130578311969
 20
31.00022410025136
 30
0.0
 10
11.73130578311969
 20
31.00022410025136
 30
0.0
 10
11.70767054405429
 20
31.09123921660225
 30
0.0
 10
11.69708629562011
 20
31.13181059890278
 30
0.0
 10
11.69567595965583
 20
31.15332898828138
 30
0.0
 10
11.69567595965583
 20
31.15332898828138
 30
0.0
 10
11.62723698465666
 20
31.15615235169077
 30
0.0
 10
11.62723698465666
 20
31.15615235169077
 30
0.0
 10
11.60712893124238
 20
31.15297640429026
 30
0.0
 10
11.60430691357341
 20
31.11910950078178
 30
0.0
 10
11.60430691357341
 20
31.11875691679074
 30
0.0
 10
11.60360039985085
 20
31.06866307525047
 30
0.0
 10
11.6028952318687
 20
31.00868880751787
 30
0.0
 10
11.60360039985085
 20
30.99881107280618
 30
0.0
 10
11.60360039985085
 20
30.99881107280618
 30
0.0
 10
11.56408946100438
 20
30.99246186948616
 30
0.0
 10
11.56408946100438
 20
30.99246186948616
 30
0.0
 10
11.56408946100438
 20
30.99246186948616
 30
0.0
 10
11.56232519530863
 20
30.95189317866647
 30
0.0
 10
11.56232519530863
 20
30.95189317866647
 30
0.0
 10
11.52422593816688
 20
30.95400868261288
 30
0.0
 10
11.50552822071684
 20
30.93742916059017
 30
0.0
 10
11.49706216770991
 20
30.92367031049588
 30
0.0
 10
11.49706216770991
 20
30.92331772650485
 30
0.0
 10
11.49600306999629
 20
30.91767369116687
 30
0.0
 10
11.49600306999629
 20
30.91485032775745
 30
0.0
 10
11.49776733569206
 20
30.89968114169895
 30
0.0
 10
11.50411788475256
 20
30.88945082299626
 30
0.0
 10
11.51505337143737
 20
30.88521712362268
 30
0.0
 10
11.61841700191826
 20
30.88945082299626
 30
0.0
 10
11.65440075511361
 20
30.81924892804176
 30
0.0
 10
11.66075130417413
 20
30.78714494448866
 30
0.0
 10
11.66921735718104
 20
30.75892207631805
 30
0.0
 10
11.6872085609085
 20
30.75186770501588
 30
0.0
 10
11.69602854364692
 20
30.74904434160647
 30
0.0
 10
11.70343684468062
 20
30.74939961707836
 30
0.0
 10
11.71437233136544
 20
30.75257287299797
 30
0.0
 10
11.71719569477484
 20
30.76950767049266
 30
0.0
 10
11.71719569477484
 20
30.76950767049266
 30
0.0
 10
11.71895861473017
 20
30.78220607713288
 30
0.0
 10
11.71895861473017
 20
30.78220607713288
 30
0.0
 10
11.71895861473017
 20
30.78220607713288
 30
0.0
 10
11.75811696958557
 20
30.82206959997035
 30
0.0
 10
11.75811696958557
 20
30.82206959997035
 30
0.0
 10
11.75811696958557
 20
30.82206959997035
 30
0.0
 10
11.93944472578617
 20
30.82348262741547
 30
0.0
 10
11.93944472578617
 20
30.82348262741547
 30
0.0
 10
11.93944472578617
 20
30.82348262741547
 30
0.0
 10
11.93944472578617
 20
30.53808338127095
 30
0.0
 10
11.93944472578617
 20
30.53808338127095
 30
0.0
 10
11.93944472578617
 20
30.53808338127095
 30
0.0
 10
11.91051803537388
 20
30.52926609001346
 30
0.0
 10
11.91051803537388
 20
30.52926609001346
 30
0.0
 10
11.91016545138281
 20
30.52926609001346
 30
0.0
 10
11.80785957287513
 20
30.49892502641555
 30
0.0
 10
11.75035608456079
 20
30.48058258443746
 30
0.0
 10
11.67345105655471
 20
30.46082711501427
 30
0.0
 10
11.666042755521
 20
30.44142422958206
 30
0.0
 10
11.66569017152993
 20
30.44107164559105
 30
0.0
 10
11.66569017152993
 20
30.43965861814596
 30
0.0
 10
11.6685121891989
 20
30.43083863540747
 30
0.0
 10
11.68332879126632
 20
30.41708247679418
 30
0.0
 10
11.68615080893529
 20
30.41566944934905
 30
0.0
 10
11.70590627835852
 20
30.40826249405578
 30
0.0
 10
11.72283973011278
 20
30.40332362669997
 30
0.0
 10
11.72283973011278
 20
30.40332362669997
 30
0.0
 10
11.93027350479711
 20
30.36028415646197
 30
0.0
 10
11.93027350479711
 20
30.36028415646197
 30
0.0
 10
11.93027350479711
 20
30.36028415646197
 30
0.0
 10
11.93027350479711
 20
30.15249914352697
 30
0.0
 10
11.93027350479711
 20
30.15249914352697
 30
0.0
 10
11.93027350479711
 20
30.15249914352697
 30
0.0
 10
11.89922861895758
 20
30.14508949675275
 30
0.0
 10
11.89922861895758
 20
30.14508949675275
 30
0.0
 10
11.89922861895758
 20
30.14508949675275
 30
0.0
 10
11.84807567970374
 20
30.13274367410375
 30
0.0
 10
11.81526787390885
 20
30.12709694728497
 30
0.0
 10
11.81526787390885
 20
30.12709694728497
 30
0.0
 10
11.80009868785036
 20
30.12498144333856
 30
0.0
 10
11.80009868785036
 20
30.12498144333856
 30
0.0
 10
11.78457557206037
 20
30.12251335540105
 30
0.0
 10
11.76340976667288
 20
30.11968999199166
 30
0.0
 10
11.75458978393447
 20
30.11721921257328
 30
0.0
 10
11.72813118145966
 20
30.10981225728006
 30
0.0
 10
11.72460399580855
 20
30.09922935458627
 30
0.0
 10
11.72460399580855
 20
30.09887677059519
 30
0.0
 10
11.72460399580855
 20
30.09887677059519
 30
0.0
 10
11.72495657979962
 20
30.03713958290717
 30
0.0
 10
11.72495657979962
 20
30.03713958290717
 30
0.0
 10
11.72636691576389
 20
30.03184813156025
 30
0.0
 10
11.73695116419806
 20
30.02867218415986
 30
0.0
 10
11.74118351783131
 20
30.02831960016877
 30
0.0
 10
11.76305583694137
 20
30.02726184819556
 30
0.0
 10
11.78986702340725
 20
30.02620409622236
 30
0.0
 10
11.8043310414836
 20
30.02655668021347
 30
0.0
 10
11.8043310414836
 20
30.02655668021347
 30
0.0
 10
11.80503755520617
 20
30.02726184819556
 30
0.0
 10
11.80503755520617
 20
30.02726184819556
 30
0.0
 10
11.80503755520617
 20
30.02726184819556
 30
0.0
 10
11.81985415727358
 20
30.02831960016877
 30
0.0
 10
11.81985415727358
 20
30.02831960016877
 30
0.0
 10
11.85619049446001
 20
30.03043779559604
 30
0.0
 10
11.88652886657698
 20
30.02267556483088
 30
0.0
 10
11.91016545138281
 20
30.00327267939866
 30
0.0
 10
11.93768180583083
 20
29.98140170602906
 30
0.0
 10
11.94332584116877
 20
29.93448112040847
 30
0.0
 10
11.94332584116877
 20
29.92319304973256
 30
0.0
 10
11.9429732571777
 20
29.90520050026467
 30
0.0
 10
11.94226808919556
 20
29.89073648218838
 30
0.0
 10
11.941561575473
 20
29.87768549155706
 30
0.0
 10
11.94050382349979
 20
29.86216103002667
 30
0.0
 10
11.93979865551766
 20
29.84981520737756
 30
0.0
 10
11.94120899148194
 20
29.84170039262125
 30
0.0
 10
11.941561575473
 20
29.83993747266595
 30
0.0
 10
11.941561575473
 20
29.83817455271065
 30
0.0
 10
11.94191550520452
 20
29.83676152526547
 30
0.0
 10
11.94191550520452
 20
29.83676152526547
 30
0.0
 10
12.04633688765859
 20
29.83640894127444
 30
0.0
 10
12.04633688765859
 20
29.83640894127444
 30
0.0
 10
12.12465359736936
 20
29.83217524190076
 30
0.0
 10
12.14687850047051
 20
29.84911003939547
 30
0.0
 10
12.14864276616627
 20
29.85369632276016
 30
0.0
 10
12.14864276616627
 20
29.85369632276016
 30
0.0
 10
12.1482901821752
 20
37.65678645871498
 30
0.0
 10
12.1482901821752
 20
37.65678645871498
 30
0.0
 10
12.14864276616627
 20
37.66102015808866
 30
0.0
 10
12.14970051813947
 20
37.68430415890336
 30
0.0
 10
12.13241448239415
 20
37.70264929236237
 30
0.0
 10
12.11477586265775
 20
37.72063915034937
 30
0.0
 10
12.08302580883608
 20
37.73051688506095
 30
0.0
 10
12.03857600263382
 20
37.72875396510568
 30
0.0
 10
12.03857600263382
 20
37.72875396510568
 30
0.0
 10
12.03857600263382
 20
37.72945913308774
 30
0.0
 10
12.03857600263382
 20
37.72945913308774
 30
0.0
 10
12.00506168311636
 20
37.72557801770517
 30
0.0
 10
11.92321778775448
 20
37.72663576967835
 30
0.0
 10
11.69602854364692
 20
37.72875396510568
 30
0.0
 10
11.68897282660427
 20
37.72945913308774
 30
0.0
 10
11.68121194157949
 20
37.73051688506095
 30
0.0
 10
11.67733082619689
 20
37.72698835366947
 30
0.0
 10
11.67239195884106
 20
37.72310992976767
 30
0.0
 10
11.66921735718104
 20
37.71252702707395
 30
0.0
 10
11.66815960520783
 20
37.69841559298865
 30
0.0
 10
11.66815960520783
 20
37.69841559298865
 30
0.0
 10
11.66674792350314
 20
37.67407384020066
 30
0.0
 10
11.66674792350314
 20
37.67407384020066
 30
0.0
 10
11.66710050749419
 20
37.66454868948017
 30
0.0
 10
11.66745309148527
 20
37.65325792732336
 30
0.0
 10
11.66745309148527
 20
37.64373277660286
 30
0.0
 10
11.67662565821474
 20
37.63914918471895
 30
0.0
 10
11.69003192431789
 20
37.63421031736317
 30
0.0
 10
11.70661144634066
 20
37.63421031736317
 30
0.0
 10
11.70661144634066
 20
37.63421031736317
 30
0.0
 10
11.70661144634066
 20
37.63350245790017
 30
0.0
 10
11.70661144634066
 20
37.63350245790017
 30
0.0
 10
11.73800891617126
 20
37.63703098929176
 30
0.0
 10
11.80362587350147
 20
37.63632582130956
 30
0.0
 10
11.9528509918893
 20
37.63421031736317
 30
0.0
 10
12.00753111679427
 20
37.63421031736317
 30
0.0
 10
12.04280970200749
 20
37.60916070511226
 30
0.0
 10
12.04280970200749
 20
37.57035762572878
 30
0.0
 10
12.04280970200749
 20
37.57035762572878
 30
0.0
 10
12.04175060429385
 20
37.54566059746887
 30
0.0
 10
12.04175060429385
 20
37.54566059746887
 30
0.0
 10
12.04139802030278
 20
37.51250155342336
 30
0.0
 10
12.04175060429385
 20
37.44229696698795
 30
0.0
 10
12.04280970200749
 20
37.37879685934468
 30
0.0
 10
12.04280970200749
 20
37.37879685934468
 30
0.0
 10
12.04351486998962
 20
37.33752300054275
 30
0.0
 10
12.04351486998962
 20
37.33752300054275
 30
0.0
 10
12.04351486998962
 20
37.33752300054275
 30
0.0
 10
10.72518448701842
 20
37.33752300054275
 30
0.0
 10
10.72518448701842
 20
37.33752300054275
 30
0.0
 10
10.71036788495099
 20
37.33540749659648
 30
0.0
 10
10.66944526439984
 20
37.33187896520488
 30
0.0
 10
10.63593094488239
 20
37.35692588597496
 30
0.0
 10
10.618292325146
 20
37.37033215207816
 30
0.0
 10
10.596772590027
 20
37.39608424083036
 30
0.0
 10
10.59395057235802
 20
37.44441516241526
 30
0.0
 10
10.59395057235802
 20
37.44441516241526
 30
0.0
 10
10.5943031563491
 20
37.44441516241526
 30
0.0
 10
10.5943031563491
 20
37.44441516241526
 30
0.0
 10
10.59289282038483
 20
37.45887918049155
 30
0.0
 10
10.59324540437588
 20
37.47933981789697
 30
0.0
 10
10.59395057235802
 20
37.50862043804076
 30
0.0
 10
10.59042338670691
 20
37.51744042077917
 30
0.0
 10
10.57525420064843
 20
37.53931139414874
 30
0.0
 10
10.53291989839258
 20
37.53825364217556
 30
0.0
 10
10.51951497802984
 20
37.53684330621127
 30
0.0
 10
10.50081726057981
 20
37.53754847419347
 30
0.0
 10
10.47294832214075
 20
37.53825364217556
 30
0.0
 10
10.46518743711597
 20
37.53719589020239
 30
0.0
 10
10.45142858702175
 20
37.52343704010818
 30
0.0
 10
10.44754747163915
 20
37.48851238462646
 30
0.0
 10
10.44754747163915
 20
37.48851238462646
 30
0.0
 10
10.44472545397018
 20
37.47369578255905
 30
0.0
 10
10.44472545397018
 20
37.47369578255905
 30
0.0
 10
10.4394340026233
 20
37.44159179900587
 30
0.0
 10
10.42461740055589
 20
37.34599039929018
 30
0.0
 10
10.41544483382641
 20
37.28495837958425
 30
0.0
 10
10.41544483382641
 20
37.28495837958425
 30
0.0
 10
10.41015338247953
 20
37.24932855612045
 30
0.0
 10
10.41015338247953
 20
37.24932855612045
 30
0.0
 10
10.41015338247953
 20
37.24932855612045
 30
0.0
 10
10.23764560901733
 20
37.25532517544946
 30
0.0
 10
10.23764560901733
 20
37.25532517544946
 30
0.0
 10
10.23764560901733
 20
37.25532517544946
 30
0.0
 10
10.23764560901733
 20
37.35798363794817
 30
0.0
 10
10.23764560901733
 20
37.35798363794817
 30
0.0
 10
10.23658651130371
 20
37.36927170862407
 30
0.0
 10
10.22917821026999
 20
37.38585392212767
 30
0.0
 10
10.2002501741173
 20
37.38761684208305
 30
0.0
 10
10.2002501741173
 20
37.38761684208305
 30
0.0
 10
10.19495872277042
 20
37.38761684208305
 30
0.0
 10
10.19495872277042
 20
37.38761684208305
 30
0.0
 10
10.18367065209452
 20
37.38726425809196
 30
0.0
 10
10.15403744795968
 20
37.38726425809196
 30
0.0
 10
10.14098376584761
 20
37.32023561905706
 30
0.0
 10
10.14098376584761
 20
37.32023561905706
 30
0.0
 10
10.13463456252752
 20
37.28672399102047
 30
0.0
 10
10.13463456252752
 20
37.28672399102047
 30
0.0
 10
10.13463456252752
 20
37.28672399102047
 30
0.0
 10
10.13075344714492
 20
37.28707657501156
 30
0.0
 10
10.13075344714492
 20
37.28707657501156
 30
0.0
 10
10.12510941180697
 20
37.26555549415215
 30
0.0
 10
10.11523167709536
 20
37.22781016674188
 30
0.0
 10
10.09794564135005
 20
37.16007635972486
 30
0.0
 10
10.0982982253411
 20
37.15866333227967
 30
0.0
 10
10.0993559773143
 20
37.15231412895958
 30
0.0
 10
10.10112024301007
 20
37.14596492563956
 30
0.0
 10
10.10112024301007
 20
37.14596492563956
 30
0.0
 10
10.19778074043938
 20
37.00026699290277
 30
0.0
 10
10.19778074043938
 20
37.00026699290277
 30
0.0
 10
10.19778074043938
 20
37.00026699290277
 30
0.0
 10
10.08842049062949
 20
36.76884539516195
 30
0.0
 10
10.08842049062949
 20
36.76884539516195
 30
0.0
 10
10.08842049062949
 20
36.76884539516195
 30
0.0
 10
7.983041895167872
 20
36.76884539516195
 30
0.0
 10
7.983041895167872
 20
36.76884539516195
 30
0.0
 10
7.983041895167872
 20
36.76884539516195
 30
0.0
 10
7.873681645357976
 20
37.00026699290277
 30
0.0
 10
7.873681645357976
 20
37.00026699290277
 30
0.0
 10
7.873681645357976
 20
37.00026699290277
 30
0.0
 10
7.970342142787288
 20
37.14596492563956
 30
0.0
 10
7.970342142787288
 20
37.14596492563956
 30
0.0
 10
7.971753824491983
 20
37.15231412895958
 30
0.0
 10
7.973164160456278
 20
37.15901860775165
 30
0.0
 10
7.97281157646519
 20
37.16183927968015
 30
0.0
 10
7.955878124710935
 20
37.22851533472397
 30
0.0
 10
7.946000389999326
 20
37.26590807814316
 30
0.0
 10
7.940356354661361
 20
37.28707657501156
 30
0.0
 10
7.940356354661361
 20
37.28707657501156
 30
0.0
 10
7.936827823269837
 20
37.28707657501156
 30
0.0
 10
7.936827823269837
 20
37.28707657501156
 30
0.0
 10
7.936827823269837
 20
37.28707657501156
 30
0.0
 10
7.930478619949766
 20
37.32023561905706
 30
0.0
 10
7.930478619949766
 20
37.32023561905706
 30
0.0
 10
7.917426283578123
 20
37.38726425809196
 30
0.0
 10
7.887792406573055
 20
37.38726425809196
 30
0.0
 10
7.876503663026952
 20
37.38761684208305
 30
0.0
 10
7.876503663026952
 20
37.38761684208305
 30
0.0
 10
7.870153786836652
 20
37.38761684208305
 30
0.0
 10
7.870153786836652
 20
37.38761684208305
 30
0.0
 10
7.837698565032837
 20
37.38514875414555
 30
0.0
 10
7.83381744965024
 20
37.36292250530397
 30
0.0
 10
7.833464865659166
 20
37.35586813400175
 30
0.0
 10
7.833464865659166
 20
37.35586813400175
 30
0.0
 10
7.833464865659166
 20
37.25532517544946
 30
0.0
 10
7.833464865659166
 20
37.25532517544946
 30
0.0
 10
7.833464865659166
 20
37.25532517544946
 30
0.0
 10
7.661309676188054
 20
37.24932855612045
 30
0.0
 10
7.661309676188054
 20
37.24932855612045
 30
0.0
 10
7.661309676188054
 20
37.24932855612045
 30
0.0
 10
7.656017551970961
 20
37.28495837958425
 30
0.0
 10
7.656017551970961
 20
37.28495837958425
 30
0.0
 10
7.646845658111701
 20
37.34599039929018
 30
0.0
 10
7.632029056044274
 20
37.44159179900587
 30
0.0
 10
7.626736931827181
 20
37.47369578255905
 30
0.0
 10
7.626736931827181
 20
37.47369578255905
 30
0.0
 10
7.62567850698376
 20
37.47475353453225
 30
0.0
 10
7.62567850698376
 20
37.47475353453225
 30
0.0
 10
7.62567850698376
 20
37.47475353453225
 30
0.0
 10
7.623914914158206
 20
37.48851238462646
 30
0.0
 10
7.623914914158206
 20
37.48851238462646
 30
0.0
 10
7.619681887654749
 20
37.52343704010818
 30
0.0
 10
7.605923037560543
 20
37.53719589020239
 30
0.0
 10
7.595340134866802
 20
37.53825364217556
 30
0.0
 10
7.569234116383057
 20
37.53719589020239
 30
0.0
 10
7.551242912655581
 20
37.53684330621127
 30
0.0
 10
7.537837319422649
 20
37.53825364217556
 30
0.0
 10
7.485625955325389
 20
37.53543027876617
 30
0.0
 10
7.476806645457202
 20
37.50685751808536
 30
0.0
 10
7.476806645457202
 20
37.50650224261347
 30
0.0
 10
7.477511813439335
 20
37.47828206592377
 30
0.0
 10
7.47857023828277
 20
37.45852659650055
 30
0.0
 10
7.477159229448261
 20
37.44441516241526
 30
0.0
 10
7.4743372117793
 20
37.39608424083036
 30
0.0
 10
7.4528174766603
 20
37.37033215207816
 30
0.0
 10
7.435531440914971
 20
37.35692588597496
 30
0.0
 10
7.402017794267734
 20
37.33187896520488
 30
0.0
 10
7.361095173716577
 20
37.33540749659648
 30
0.0
 10
7.34627857164915
 20
37.33752300054275
 30
0.0
 10
7.34627857164915
 20
37.33752300054275
 30
0.0
 10
6.027595604686894
 20
37.33752300054275
 30
0.0
 10
6.027595604686894
 20
37.33752300054275
 30
0.0
 10
6.027595604686894
 20
37.33752300054275
 30
0.0
 10
6.028300772669027
 20
37.37879685934468
 30
0.0
 10
6.028300772669027
 20
37.37879685934468
 30
0.0
 10
6.029711781503507
 20
37.44229696698795
 30
0.0
 10
6.030065038364796
 20
37.51250155342336
 30
0.0
 10
6.029711781503507
 20
37.54566059746887
 30
0.0
 10
6.029711781503507
 20
37.54566059746887
 30
0.0
 10
6.028654029530301
 20
37.54636845693188
 30
0.0
 10
6.028654029530301
 20
37.54636845693188
 30
0.0
 10
6.028654029530301
 20
37.54636845693188
 30
0.0
 10
6.028300772669027
 20
37.57035762572878
 30
0.0
 10
6.028300772669027
 20
37.57035762572878
 30
0.0
 10
6.028300772669027
 20
37.60916070511226
 30
0.0
 10
6.063931269003091
 20
37.63421031736317
 30
0.0
 10
6.118964650769342
 20
37.63421031736317
 30
0.0
 10
6.267837185166115
 20
37.63632582130956
 30
0.0
 10
6.333453469626093
 20
37.63703098929176
 30
0.0
 10
6.364850939456701
 20
37.63350245790017
 30
0.0
 10
6.364850939456701
 20
37.63350245790017
 30
0.0
 10
6.364850939456701
 20
37.63421031736317
 30
0.0
 10
6.364850939456701
 20
37.63421031736317
 30
0.0
 10
6.381431807219897
 20
37.63421031736317
 30
0.0
 10
6.394837400452829
 20
37.63950176871006
 30
0.0
 10
6.40365671032103
 20
37.64408805207475
 30
0.0
 10
6.404009294312089
 20
37.65325792732336
 30
0.0
 10
6.404361878303177
 20
37.66454868948017
 30
0.0
 10
6.404715135164437
 20
37.67407384020066
 30
0.0
 10
6.404715135164437
 20
37.67407384020066
 30
0.0
 10
6.402950869468668
 20
37.69841559298865
 30
0.0
 10
6.402950869468668
 20
37.69841559298865
 30
0.0
 10
6.402245701486535
 20
37.71252702707395
 30
0.0
 10
6.398717842965211
 20
37.72310992976767
 30
0.0
 10
6.394131559600481
 20
37.72698835366947
 30
0.0
 10
6.38989786022681
 20
37.73016430106998
 30
0.0
 10
6.382489559193089
 20
37.72945913308774
 30
0.0
 10
6.382489559193089
 20
37.72945913308774
 30
0.0
 10
6.149656279747588
 20
37.72663576967835
 30
0.0
 10
6.066753959542282
 20
37.72557801770517
 30
0.0
 10
6.032887056033771
 20
37.72945913308774
 30
0.0
 10
6.032887056033771
 20
37.72945913308774
 30
0.0
 10
6.032887056033771
 20
37.72875396510568
 30
0.0
 10
6.032887056033771
 20
37.72875396510568
 30
0.0
 10
6.030770206346929
 20
37.72875396510568
 30
0.0
 10
6.029006613521374
 20
37.72875396510568
 30
0.0
 10
6.026889763834546
 20
37.72875396510568
 30
0.0
  0
POLYLINE
  5
370
330
1F
100
AcDbEntity
  8
Livello 1
100
AcDb2dPolyline
 66
     1
 10
0.0
 20
0.0
 30
0.0
  0
VERTEX
  5
371
330
370
100
AcDbEntity
  8
Livello 1
100
AcDbVertex
100
AcDb2dVertex
 10
11.92886182309242
 20
29.83676152526547
 30
0.0
  0
VERTEX
  5
372
330
370
100
AcDbEntity
  8
Livello 1
100
AcDbVertex
100
AcDb2dVertex
 10
11.92886182309242
 20
29.83676152526547
 30
0.0
  0
SEQEND
  5
373
330
370
100
AcDbEntity
  8
Livello 1
  0
SPLINE
  5
374
330
1F
100
AcDbEntity
  8
Livello 1
100
AcDbSpline
210
0.0
220
0.0
230
1.0
 70
    27
 71
     3
 72
    11
 73
     7
 74
     0
 42
0.000000001
 43
0.0000000001
 40
0.0
 40
0.0
 40
0.0
 40
0.0
 40
1.0
 40
1.0
 40
1.0
 40
2.0
 40
2.0
 40
2.0
 40
2.0
 10
6.142601235575156
 20
29.83676152526547
 30
0.0
 10
6.142601235575156
 20
29.83676152526547
 30
0.0
 10
6.142247978713882
 20
29.83676152526547
 30
0.0
 10
6.142247978713882
 20
29.83676152526547
 30
0.0
 10
6.142247978713882
 20
29.83676152526547
 30
0.0
 10
6.142601235575156
 20
29.83676152526547
 30
0.0
 10
6.142601235575156
 20
29.83676152526547
 30
0.0
  0
SPLINE
  5
375
330
1F
100
AcDbEntity
  8
Livello 1
100
AcDbSpline
210
0.0
220
0.0
230
1.0
 70
    27
 71
     3
 72
    11
 73
     7
 74
     0
 42
0.000000001
 43
0.0000000001
 40
0.0
 40
0.0
 40
0.0
 40
0.0
 40
1.0
 40
1.0
 40
1.0
 40
2.0
 40
2.0
 40
2.0
 40
2.0
 10
11.5944291788618
 20
30.80831344135698
 30
0.0
 10
11.5944291788618
 20
30.80831344135698
 30
0.0
 10
11.61912351564082
 20
30.78009057318647
 30
0.0
 10
11.61912351564082
 20
30.78009057318647
 30
0.0
 10
11.61912351564082
 20
30.78009057318647
 30
0.0
 10
11.5944291788618
 20
30.80831344135698
 30
0.0
 10
11.5944291788618
 20
30.80831344135698
 30
0.0
  0
SPLINE
  5
376
330
1F
100
AcDbEntity
  8
Livello 1
100
AcDbSpline
210
0.0
220
0.0
230
1.0
 70
    27
 71
     3
 72
    11
 73
     7
 74
     0
 42
0.000000001
 43
0.0000000001
 40
0.0
 40
0.0
 40
0.0
 40
0.0
 40
1.0
 40
1.0
 40
1.0
 40
2.0
 40
2.0
 40
2.0
 40
2.0
 10
6.449164941366703
 20
30.78079574116856
 30
0.0
 10
6.449164941366703
 20
30.78079574116856
 30
0.0
 10
6.436817772977192
 20
30.81607298064137
 30
0.0
 10
6.436817772977192
 20
30.81607298064137
 30
0.0
 10
6.436817772977192
 20
30.81607298064137
 30
0.0
 10
6.449164941366703
 20
30.78079574116856
 30
0.0
 10
6.449164941366703
 20
30.78079574116856
 30
0.0
  0
POLYLINE
  5
377
330
1F
100
AcDbEntity
  8
Livello 1
100
AcDb2dPolyline
 66
     1
 10
0.0
 20
0.0
 30
0.0
  0
VERTEX
  5
378
330
377
100
AcDbEntity
  8
Livello 1
100
AcDbVertex
100
AcDb2dVertex
 10
11.38558372247276
 20
33.20014634345537
 30
0.0
  0
VERTEX
  5
379
330
377
100
AcDbEntity
  8
Livello 1
100
AcDbVertex
100
AcDb2dVertex
 10
11.38558372247276
 20
33.20014634345537
 30
0.0
  0
SEQEND
  5
37A
330
377
100
AcDbEntity
  8
Livello 1
  0
SPLINE
  5
37B
330
1F
100
AcDbEntity
  8
Livello 1
100
AcDbSpline
210
0.0
220
0.0
230
1.0
 70
     9
 71
     3
 72
    11
 73
     7
 74
     0
 42
0.000000001
 43
0.0000000001
 40
0.0
 40
0.0
 40
0.0
 40
0.0
 40
1.0
 40
1.0
 40
1.0
 40
2.0
 40
2.0
 40
2.0
 40
2.0
 10
11.42721151100605
 20
37.12903012814488
 30
0.0
 10
11.42685892701499
 20
37.12832496016276
 30
0.0
 10
11.42685892701499
 20
37.12761979218055
 30
0.0
 10
11.42721151100605
 20
37.12691462419846
 30
0.0
 10
11.42721151100605
 20
37.12691462419846
 30
0.0
 10
11.42721151100605
 20
37.12903012814488
 30
0.0
 10
11.42721151100605
 20
37.12903012814488
 30
0.0
  0
SPLINE
  5
37C
330
1F
100
AcDbEntity
  8
Livello 1
100
AcDbSpline
210
0.0
220
0.0
230
1.0
 70
    25
 71
     3
 72
    11
 73
     7
 74
     0
 42
0.000000001
 43
0.0000000001
 40
0.0
 40
0.0
 40
0.0
 40
0.0
 40
1.0
 40
1.0
 40
1.0
 40
2.0
 40
2.0
 40
2.0
 40
2.0
 10
6.64425087479131
 20
37.13185349155427
 30
0.0
 10
6.64425087479131
 20
37.13044315558998
 30
0.0
 10
6.64425087479131
 20
37.12938540361677
 30
0.0
 10
6.64425087479131
 20
37.12832496016276
 30
0.0
 10
6.64425087479131
 20
37.12938540361677
 30
0.0
 10
6.64425087479131
 20
37.13044315558998
 30
0.0
 10
6.64425087479131
 20
37.13185349155427
 30
0.0
  0
SPLINE
  5
37D
330
1F
100
AcDbEntity
  8
Livello 1
100
AcDbSpline
210
0.0
220
0.0
230
1.0
 70
    27
 71
     3
 72
    11
 73
     7
 74
     0
 42
0.000000001
 43
0.0000000001
 40
0.0
 40
0.0
 40
0.0
 40
0.0
 40
1.0
 40
1.0
 40
1.0
 40
2.0
 40
2.0
 40
2.0
 40
2.0
 10
11.96202355861879
 20
37.57035762572878
 30
0.0
 10
11.96202355861879
 20
37.57035762572878
 30
0.0
 10
11.96202355861879
 20
37.56964976626577
 30
0.0
 10
11.96202355861879
 20
37.56964976626577
 30
0.0
 10
11.96202355861879
 20
37.57000235025686
 30
0.0
 10
11.96202355861879
 20
37.57035762572878
 30
0.0
 10
11.96202355861879
 20
37.57035762572878
 30
0.0
  0
SPLINE
  5
37E
330
1F
100
AcDbEntity
  8
Livello 1
100
AcDbSpline
210
0.0
220
0.0
230
1.0
 70
    27
 71
     3
 72
    11
 73
     7
 74
     0
 42
0.000000001
 43
0.0000000001
 40
0.0
 40
0.0
 40
0.0
 40
0.0
 40
1.0
 40
1.0
 40
1.0
 40
2.0
 40
2.0
 40
2.0
 40
2.0
 10
6.109440172918979
 20
37.57035762572878
 30
0.0
 10
6.109440172918979
 20
37.57035762572878
 30
0.0
 10
6.109440172918979
 20
37.57000235025686
 30
0.0
 10
6.109440172918979
 20
37.56964976626577
 30
0.0
 10
6.109440172918979
 20
37.56964976626577
 30
0.0
 10
6.109440172918979
 20
37.57035762572878
 30
0.0
 10
6.109440172918979
 20
37.57035762572878
 30
0.0
  0
SPLINE
  5
37F
330
1F
100
AcDbEntity
  8
Livello 1
100
AcDbSpline
210
0.0
220
0.0
230
1.0
 70
    11
 71
     3
 72
   335
 73
   331
 74
     0
 42
0.000000001
 43
0.0000000001
 40
0.0
 40
0.0
 40
0.0
 40
0.0
 40
1.0
 40
1.0
 40
1.0
 40
2.0
 40
2.0
 40
2.0
 40
3.0
 40
3.0
 40
3.0
 40
4.0
 40
4.0
 40
4.0
 40
5.0
 40
5.0
 40
5.0
 40
6.0
 40
6.0
 40
6.0
 40
7.0
 40
7.0
 40
7.0
 40
8.0
 40
8.0
 40
8.0
 40
9.0
 40
9.0
 40
9.0
 40
10.0
 40
10.0
 40
10.0
 40
11.0
 40
11.0
 40
11.0
 40
12.0
 40
12.0
 40
12.0
 40
13.0
 40
13.0
 40
13.0
 40
14.0
 40
14.0
 40
14.0
 40
15.0
 40
15.0
 40
15.0
 40
16.0
 40
16.0
 40
16.0
 40
17.0
 40
17.0
 40
17.0
 40
18.0
 40
18.0
 40
18.0
 40
19.0
 40
19.0
 40
19.0
 40
20.0
 40
20.0
 40
20.0
 40
21.0
 40
21.0
 40
21.0
 40
22.0
 40
22.0
 40
22.0
 40
23.0
 40
23.0
 40
23.0
 40
24.0
 40
24.0
 40
24.0
 40
25.0
 40
25.0
 40
25.0
 40
26.0
 40
26.0
 40
26.0
 40
27.0
 40
27.0
 40
27.0
 40
28.0
 40
28.0
 40
28.0
 40
29.0
 40
29.0
 40
29.0
 40
30.0
 40
30.0
 40
30.0
 40
31.0
 40
31.0
 40
31.0
 40
32.0
 40
32.0
 40
32.0
 40
33.0
 40
33.0
 40
33.0
 40
34.0
 40
34.0
 40
34.0
 40
35.0
 40
35.0
 40
35.0
 40
36.0
 40
36.0
 40
36.0
 40
37.0
 40
37.0
 40
37.0
 40
38.0
 40
38.0
 40
38.0
 40
39.0
 40
39.0
 40
39.0
 40
40.0
 40
40.0
 40
40.0
 40
41.0
 40
41.0
 40
41.0
 40
42.0
 40
42.0
 40
42.0
 40
43.0
 40
43.0
 40
43.0
 40
44.0
 40
44.0
 40
44.0
 40
45.0
 40
45.0
 40
45.0
 40
46.0
 40
46.0
 40
46.0
 40
47.0
 40
47.0
 40
47.0
 40
48.0
 40
48.0
 40
48.0
 40
49.0
 40
49.0
 40
49.0
 40
50.0
 40
50.0
 40
50.0
 40
51.0
 40
51.0
 40
51.0
 40
52.0
 40
52.0
 40
52.0
 40
53.0
 40
53.0
 40
53.0
 40
54.0
 40
54.0
 40
54.0
 40
55.0
 40
55.0
 40
55.0
 40
56.0
 40
56.0
 40
56.0
 40
57.0
 40
57.0
 40
57.0
 40
58.0
 40
58.0
 40
58.0
 40
59.0
 40
59.0
 40
59.0
 40
60.0
 40
60.0
 40
60.0
 40
61.0
 40
61.0
 40
61.0
 40
62.0
 40
62.0
 40
62.0
 40
63.0
 40
63.0
 40
63.0
 40
64.0
 40
64.0
 40
64.0
 40
65.0
 40
65.0
 40
65.0
 40
66.0
 40
66.0
 40
66.0
 40
67.0
 40
67.0
 40
67.0
 40
68.0
 40
68.0
 40
68.0
 40
69.0
 40
69.0
 40
69.0
 40
70.0
 40
70.0
 40
70.0
 40
71.0
 40
71.0
 40
71.0
 40
72.0
 40
72.0
 40
72.0
 40
73.0
 40
73.0
 40
73.0
 40
74.0
 40
74.0
 40
74.0
 40
75.0
 40
75.0
 40
75.0
 40
76.0
 40
76.0
 40
76.0
 40
77.0
 40
77.0
 40
77.0
 40
78.0
 40
78.0
 40
78.0
 40
79.0
 40
79.0
 40
79.0
 40
80.0
 40
80.0
 40
80.0
 40
81.0
 40
81.0
 40
81.0
 40
82.0
 40
82.0
 40
82.0
 40
83.0
 40
83.0
 40
83.0
 40
84.0
 40
84.0
 40
84.0
 40
85.0
 40
85.0
 40
85.0
 40
86.0
 40
86.0
 40
86.0
 40
87.0
 40
87.0
 40
87.0
 40
88.0
 40
88.0
 40
88.0
 40
89.0
 40
89.0
 40
89.0
 40
90.0
 40
90.0
 40
90.0
 40
91.0
 40
91.0
 40
91.0
 40
92.0
 40
92.0
 40
92.0
 40
93.0
 40
93.0
 40
93.0
 40
94.0
 40
94.0
 40
94.0
 40
95.0
 40
95.0
 40
95.0
 40
96.0
 40
96.0
 40
96.0
 40
97.0
 40
97.0
 40
97.0
 40
98.0
 40
98.0
 40
98.0
 40
99.0
 40
99.0
 40
99.0
 40
100.0
 40
100.0
 40
100.0
 40
101.0
 40
101.0
 40
101.0
 40
102.0
 40
102.0
 40
102.0
 40
103.0
 40
103.0
 40
103.0
 40
104.0
 40
104.0
 40
104.0
 40
105.0
 40
105.0
 40
105.0
 40
106.0
 40
106.0
 40
106.0
 40
107.0
 40
107.0
 40
107.0
 40
108.0
 40
108.0
 40
108.0
 40
109.0
 40
109.0
 40
109.0
 40
110.0
 40
110.0
 40
110.0
 40
110.0
 10
11.42477706657917
 20
30.88624257782567
 30
0.0
 10
11.42477706657917
 20
30.88624257782567
 30
0.0
 10
11.38138501235012
 20
30.93280788797438
 30
0.0
 10
11.38138501235012
 20
30.93280788797438
 30
0.0
 10
11.38138501235012
 20
30.93280788797438
 30
0.0
 10
11.34963495852842
 20
30.93316047196538
 30
0.0
 10
11.34963495852842
 20
30.93316047196538
 30
0.0
 10
11.34963495852842
 20
30.93316047196538
 30
0.0
 10
11.34222665749472
 20
30.96420670354536
 30
0.0
 10
11.34222665749472
 20
30.96420670354536
 30
0.0
 10
11.34222665749472
 20
30.96420670354536
 30
0.0
 10
10.77743016749649
 20
33.36662250833757
 30
0.0
 10
10.77743016749649
 20
33.36662250833757
 30
0.0
 10
10.76543558309805
 20
33.38990650915238
 30
0.0
 10
10.7294518299027
 20
33.44176327064787
 30
0.0
 10
10.69099864302943
 20
33.44000035069257
 30
0.0
 10
10.69099864302943
 20
33.44000035069257
 30
0.0
 10
10.47474623134711
 20
33.42095004925147
 30
0.0
 10
10.47474623134711
 20
33.42095004925147
 30
0.0
 10
10.47474623134711
 20
33.42095004925147
 30
0.0
 10
10.60633272999857
 20
33.48586049285905
 30
0.0
 10
10.60633272999857
 20
33.48586049285905
 30
0.0
 10
10.59363297761798
 20
33.50455821030917
 30
0.0
 10
10.59080961420859
 20
33.52466626372347
 30
0.0
 10
10.59080961420859
 20
33.53877769780865
 30
0.0
 10
10.59080961420859
 20
33.53877769780865
 30
0.0
 10
10.59080961420859
 20
33.77196490698566
 30
0.0
 10
10.59080961420859
 20
33.77196490698566
 30
0.0
 10
10.59186871192221
 20
33.79524890780047
 30
0.0
 10
10.58093187949697
 20
33.79665924376477
 30
0.0
 10
10.57740469384586
 20
33.79701182775577
 30
0.0
 10
10.57740469384586
 20
33.79701182775577
 30
0.0
 10
10.57740469384586
 20
33.79806957972898
 30
0.0
 10
10.57740469384586
 20
33.79806957972898
 30
0.0
 10
10.53366005562573
 20
33.79489632380938
 30
0.0
 10
10.42429846007542
 20
33.79524890780047
 30
0.0
 10
10.12514305531758
 20
33.79665924376477
 30
0.0
 10
10.11702958630174
 20
33.79595407578256
 30
0.0
 10
10.10397724993007
 20
33.78819184501737
 30
0.0
 10
10.10291815221644
 20
33.75891122487357
 30
0.0
 10
10.10291815221644
 20
33.75891122487357
 30
0.0
 10
10.10186040024324
 20
33.75891122487357
 30
0.0
 10
10.10186040024324
 20
33.75891122487357
 30
0.0
 10
10.10186040024324
 20
33.75115168558926
 30
0.0
 10
10.10291815221644
 20
33.73210138414817
 30
0.0
 10
10.10291815221644
 20
33.73210138414817
 30
0.0
 10
10.10291815221644
 20
33.73210138414817
 30
0.0
 10
10.1032707362075
 20
33.72574948934726
 30
0.0
 10
10.1032707362075
 20
33.72574948934726
 30
0.0
 10
10.1032707362075
 20
33.72574948934726
 30
0.0
 10
10.10150781625216
 20
33.71975287001826
 30
0.0
 10
10.10150781625216
 20
33.71975287001826
 30
0.0
 10
10.09480468320059
 20
33.69364819727489
 30
0.0
 10
10.06658181503002
 20
33.64531727569008
 30
0.0
 10
10.00096620344026
 20
33.64743277963646
 30
0.0
 10
10.00096620344026
 20
33.64743277963646
 30
0.0
 10
9.939582945483721
 20
33.64743277963646
 30
0.0
 10
9.939582945483721
 20
33.64743277963646
 30
0.0
 10
9.939582945483721
 20
33.64743277963646
 30
0.0
 10
9.939582945483721
 20
33.64602244367217
 30
0.0
 10
9.939582945483721
 20
33.64602244367217
 30
0.0
 10
9.939582945483721
 20
33.64602244367217
 30
0.0
 10
9.939582945483721
 20
33.64320177174366
 30
0.0
 10
9.939582945483721
 20
33.64320177174366
 30
0.0
 10
9.95651639723799
 20
33.64531727569008
 30
0.0
 10
9.986502185363903
 20
33.64496469169896
 30
0.0
 10
10.04541600964252
 20
33.64214132828954
 30
0.0
 10
10.06587664704788
 20
33.63932065636104
 30
0.0
 10
10.09550985118274
 20
33.62485663828465
 30
0.0
 10
10.10820960356331
 20
33.58816637136675
 30
0.0
 10
10.10820960356331
 20
33.58816637136675
 30
0.0
 10
10.10856353329481
 20
33.58816637136675
 30
0.0
 10
10.10856353329481
 20
33.58816637136675
 30
0.0
 10
10.10856353329481
 20
33.58816637136675
 30
0.0
 10
10.10891611728587
 20
33.58569828342925
 30
0.0
 10
10.10891611728587
 20
33.58569828342925
 30
0.0
 10
10.11314847091913
 20
33.57299718530828
 30
0.0
 10
10.11526532060595
 20
33.55782799924976
 30
0.0
 10
10.11456015262381
 20
33.53948286579086
 30
0.0
 10
10.11456015262381
 20
33.53948286579086
 30
0.0
 10
10.11350240065062
 20
33.53948286579086
 30
0.0
 10
10.11350240065062
 20
33.53948286579086
 30
0.0
 10
10.11314847091913
 20
33.52889996309705
 30
0.0
 10
10.11456015262381
 20
33.49609350304258
 30
0.0
 10
10.11456015262381
 20
33.49609350304258
 30
0.0
 10
10.11456015262381
 20
33.49609350304258
 30
0.0
 10
10.11632441831959
 20
33.45375920078678
 30
0.0
 10
10.11632441831959
 20
33.45375920078678
 30
0.0
 10
10.11632441831959
 20
33.45375920078678
 30
0.0
 10
7.966143432664637
 20
33.45375920078678
 30
0.0
 10
7.966143432664637
 20
33.45375920078678
 30
0.0
 10
7.966143432664637
 20
33.45375920078678
 30
0.0
 10
7.967555114369346
 20
33.49573822757065
 30
0.0
 10
7.967555114369346
 20
33.49573822757065
 30
0.0
 10
7.967555114369346
 20
33.49609350304258
 30
0.0
 10
7.968965450333612
 20
33.52889996309705
 30
0.0
 10
7.968612866342539
 20
33.53948286579086
 30
0.0
 10
7.968612866342539
 20
33.53948286579086
 30
0.0
 10
7.967555114369346
 20
33.53948286579086
 30
0.0
 10
7.967555114369346
 20
33.53948286579086
 30
0.0
 10
7.966848600646784
 20
33.55677024727655
 30
0.0
 10
7.968965450333612
 20
33.57158684934396
 30
0.0
 10
7.972493981725151
 20
33.58393267199304
 30
0.0
 10
7.972493981725151
 20
33.58393267199304
 30
0.0
 10
7.97284656571621
 20
33.58464053145605
 30
0.0
 10
7.97284656571621
 20
33.58464053145605
 30
0.0
 10
7.984841150114661
 20
33.62379888631145
 30
0.0
 10
8.014474354249514
 20
33.63932065636104
 30
0.0
 10
8.032465557976962
 20
33.64178874429845
 30
0.0
 10
8.094201399924557
 20
33.64461210770787
 30
0.0
 10
8.125246285764106
 20
33.64531727569008
 30
0.0
 10
8.142179737518361
 20
33.64320177174366
 30
0.0
 10
8.142179737518361
 20
33.64320177174366
 30
0.0
 10
8.142179737518361
 20
33.64602244367217
 30
0.0
 10
8.142179737518361
 20
33.64602244367217
 30
0.0
 10
8.142179737518361
 20
33.64602244367217
 30
0.0
 10
8.142179737518361
 20
33.64778805510838
 30
0.0
 10
8.142179737518361
 20
33.64778805510838
 30
0.0
 10
8.142179737518361
 20
33.64778805510838
 30
0.0
 10
8.081149063552913
 20
33.64743277963646
 30
0.0
 10
8.081149063552913
 20
33.64743277963646
 30
0.0
 10
8.016237274204854
 20
33.64461210770787
 30
0.0
 10
7.987310583792563
 20
33.69364819727489
 30
0.0
 10
7.98060745074099
 20
33.71975287001826
 30
0.0
 10
7.98060745074099
 20
33.71975287001826
 30
0.0
 10
7.978843185045235
 20
33.72574948934726
 30
0.0
 10
7.978843185045235
 20
33.72574948934726
 30
0.0
 10
7.978843185045235
 20
33.72574948934726
 30
0.0
 10
7.979195769036294
 20
33.73210138414817
 30
0.0
 10
7.979195769036294
 20
33.73210138414817
 30
0.0
 10
7.979195769036294
 20
33.73210138414817
 30
0.0
 10
7.980254866749916
 20
33.75115168558926
 30
0.0
 10
7.980254866749916
 20
33.75891122487357
 30
0.0
 10
7.980254866749916
 20
33.75891122487357
 30
0.0
 10
7.979195769036294
 20
33.75891122487357
 30
0.0
 10
7.979195769036294
 20
33.75891122487357
 30
0.0
 10
7.978138017063088
 20
33.79418846434638
 30
0.0
 10
7.95908771562199
 20
33.79665924376477
 30
0.0
 10
7.955207945979807
 20
33.79665924376477
 30
0.0
 10
7.656757709204114
 20
33.79524890780047
 30
0.0
 10
7.547749370515091
 20
33.79489632380938
 30
0.0
 10
7.504710573147292
 20
33.79806957972898
 30
0.0
 10
7.504710573147292
 20
33.79806957972898
 30
0.0
 10
7.504710573147292
 20
33.79701182775577
 30
0.0
 10
7.504710573147292
 20
33.79701182775577
 30
0.0
 10
7.501182714625983
 20
33.79665924376477
 30
0.0
 10
7.489893971079879
 20
33.79524890780047
 30
0.0
 10
7.490952395923301
 20
33.77478557891428
 30
0.0
 10
7.490952395923301
 20
33.77478557891428
 30
0.0
 10
7.49130497991436
 20
33.53877769780865
 30
0.0
 10
7.49130497991436
 20
33.53877769780865
 30
0.0
 10
7.49130497991436
 20
33.52466626372347
 30
0.0
 10
7.48848296224537
 20
33.50455821030917
 30
0.0
 10
7.475782536994586
 20
33.48586049285905
 30
0.0
 10
7.475782536994586
 20
33.48586049285905
 30
0.0
 10
7.607369035646044
 20
33.42095004925147
 30
0.0
 10
7.607369035646044
 20
33.42095004925147
 30
0.0
 10
7.607369035646044
 20
33.42095004925147
 30
0.0
 10
7.39111595109351
 20
33.44000035069257
 30
0.0
 10
7.39111595109351
 20
33.44000035069257
 30
0.0
 10
7.348429737716799
 20
33.44317629809305
 30
0.0
 10
7.311035648557179
 20
33.38038135843175
 30
0.0
 10
7.303274090662185
 20
33.36344656093706
 30
0.0
 10
7.303274090662185
 20
33.36344656093706
 30
0.0
 10
6.733185476446863
 20
30.93633641936586
 30
0.0
 10
6.733185476446863
 20
30.93633641936586
 30
0.0
 10
6.733185476446863
 20
30.93633641936586
 30
0.0
 10
6.685207811723273
 20
30.93069238402796
 30
0.0
 10
6.685207811723273
 20
30.93069238402796
 30
0.0
 10
6.685207811723273
 20
30.93069238402796
 30
0.0
 10
6.679563103515121
 20
30.97831813763068
 30
0.0
 10
6.679563103515121
 20
30.97831813763068
 30
0.0
 10
6.679563103515121
 20
30.97831813763068
 30
0.0
 10
6.660866058935312
 20
30.98290442099537
 30
0.0
 10
6.660866058935312
 20
30.98290442099537
 30
0.0
 10
6.660866058935312
 20
30.98290442099537
 30
0.0
 10
7.226721646647177
 20
33.38955392516127
 30
0.0
 10
7.226721646647177
 20
33.38955392516127
 30
0.0
 10
7.231660514002982
 20
33.40225233180146
 30
0.0
 10
7.287399736621566
 20
33.52149300780377
 30
0.0
 10
7.386882924590054
 20
33.52149300780377
 30
0.0
 10
7.386882924590054
 20
33.52149300780377
 30
0.0
 10
7.387941349433475
 20
33.52149300780377
 30
0.0
 10
7.387941349433475
 20
33.52149300780377
 30
0.0
 10
7.387941349433475
 20
33.52149300780377
 30
0.0
 10
7.388293933424549
 20
33.52149300780377
 30
0.0
 10
7.388293933424549
 20
33.52149300780377
 30
0.0
 10
7.410166252534622
 20
33.52748962713275
 30
0.0
 10
7.410166252534622
 20
33.53278107847967
 30
0.0
 10
7.410166252534622
 20
33.53877769780865
 30
0.0
 10
7.410166252534622
 20
33.53877769780865
 30
0.0
 10
7.410166252534622
 20
33.77196490698566
 30
0.0
 10
7.410166252534622
 20
33.77196490698566
 30
0.0
 10
7.406990978004373
 20
33.80759473044955
 30
0.0
 10
7.427099704288878
 20
33.86862675015547
 30
0.0
 10
7.49448025444461
 20
33.87744404141296
 30
0.0
 10
7.49448025444461
 20
33.87744404141296
 30
0.0
 10
7.513882467006567
 20
33.87991482083137
 30
0.0
 10
7.513882467006567
 20
33.87991482083137
 30
0.0
 10
7.513882467006567
 20
33.87991482083137
 30
0.0
 10
7.516705157545729
 20
33.87709145742198
 30
0.0
 10
7.516705157545729
 20
33.87709145742198
 30
0.0
 10
7.575265724963088
 20
33.87638628943975
 30
0.0
 10
7.802454969070652
 20
33.87709145742198
 30
0.0
 10
7.956618281944102
 20
33.87779662540405
 30
0.0
 10
7.996481804781623
 20
33.87638628943975
 30
0.0
 10
8.053985293095962
 20
33.84604791732275
 30
0.0
 10
8.059981912424987
 20
33.76914154357627
 30
0.0
 10
8.061393594129668
 20
33.75926380886466
 30
0.0
 10
8.061041010138609
 20
33.74832832217987
 30
0.0
 10
8.060688426147549
 20
33.73668766751289
 30
0.0
 10
8.065627293503354
 20
33.72786768477445
 30
0.0
 10
8.075152444223903
 20
33.72857285275669
 30
0.0
 10
8.078327045883938
 20
33.72857285275669
 30
0.0
 10
8.078327045883938
 20
33.72857285275669
 30
0.0
 10
8.080091311579707
 20
33.69223786131068
 30
0.0
 10
8.080091311579707
 20
33.69223786131068
 30
0.0
 10
8.080091311579707
 20
33.69223786131068
 30
0.0
 10
8.080091311579707
 20
33.72857285275669
 30
0.0
 10
8.080091311579707
 20
33.72857285275669
 30
0.0
 10
8.080091311579707
 20
33.72857285275669
 30
0.0
 10
8.152410056221043
 20
33.72857285275669
 30
0.0
 10
8.152410056221043
 20
33.72857285275669
 30
0.0
 10
8.160170941245823
 20
33.73033577271196
 30
0.0
 10
8.180632924391616
 20
33.72716251679236
 30
0.0
 10
8.197212446414383
 20
33.71305108270707
 30
0.0
 10
8.208501862830701
 20
33.70352593198658
 30
0.0
 10
8.221906783193418
 20
33.68518079852754
 30
0.0
 10
8.223318464898113
 20
33.65272692246416
 30
0.0
 10
8.227199580280725
 20
33.63473437299627
 30
0.0
 10
8.222965880907054
 20
33.61427373559096
 30
0.0
 10
8.216967915837614
 20
33.60227780545208
 30
0.0
 10
8.203562995474882
 20
33.57334976929937
 30
0.0
 10
8.173929791340043
 20
33.55818058324087
 30
0.0
 10
8.137240870162557
 20
33.56135653064138
 30
0.0
 10
8.137240870162557
 20
33.56135653064138
 30
0.0
 10
8.117132816748238
 20
33.56311945059665
 30
0.0
 10
8.117132816748238
 20
33.56311945059665
 30
0.0
 10
8.099846781002938
 20
33.56311945059665
 30
0.0
 10
8.07444593050134
 20
33.56276686660556
 30
0.0
 10
8.050456761704438
 20
33.56170911463235
 30
0.0
 10
8.049399009731232
 20
33.55888575122296
 30
0.0
 10
8.048341257758025
 20
33.55429946785827
 30
0.0
 10
8.048341257758025
 20
33.54618734458288
 30
0.0
 10
8.048693841749098
 20
33.54265881319125
 30
0.0
 10
8.049046425740158
 20
33.53913028179974
 30
0.0
 10
8.049399009731232
 20
33.53489658242606
 30
0.0
 10
8.049399009731232
 20
33.53489658242606
 30
0.0
 10
10.03271625726192
 20
33.53489658242606
 30
0.0
 10
10.03271625726192
 20
33.53489658242606
 30
0.0
 10
10.033068841253
 20
33.53913028179974
 30
0.0
 10
10.033068841253
 20
33.54301139718237
 30
0.0
 10
10.03377400923513
 20
33.54689251256497
 30
0.0
 10
10.03377400923513
 20
33.55429946785827
 30
0.0
 10
10.03271625726192
 20
33.55888575122296
 30
0.0
 10
10.0316571595483
 20
33.56170911463235
 30
0.0
 10
10.00731540676032
 20
33.56276686660556
 30
0.0
 10
9.981563318008085
 20
33.56276686660556
 30
0.0
 10
9.964982450244903
 20
33.56311945059665
 30
0.0
 10
9.964982450244903
 20
33.56311945059665
 30
0.0
 10
9.944874396830599
 20
33.56135653064138
 30
0.0
 10
9.944874396830599
 20
33.56135653064138
 30
0.0
 10
9.893016289594626
 20
33.55677024727655
 30
0.0
 10
9.8718491384667
 20
33.58816637136675
 30
0.0
 10
9.865146005415127
 20
33.60192522146096
 30
0.0
 10
9.859149386086116
 20
33.61427373559096
 30
0.0
 10
9.85526827070349
 20
33.63438178900526
 30
0.0
 10
9.858444218103969
 20
33.65166647901018
 30
0.0
 10
9.859854554068249
 20
33.68482821453645
 30
0.0
 10
9.873260820171395
 20
33.70317334799546
 30
0.0
 10
9.884901474838358
 20
33.71305108270707
 30
0.0
 10
9.901482342601539
 20
33.72751510078348
 30
0.0
 10
9.921942980006903
 20
33.73033577271196
 30
0.0
 10
9.935701830101123
 20
33.72822026876557
 30
0.0
 10
9.935701830101123
 20
33.72822026876557
 30
0.0
 10
10.00202395541347
 20
33.72857285275669
 30
0.0
 10
10.00202395541347
 20
33.72857285275669
 30
0.0
 10
10.00202395541347
 20
33.72857285275669
 30
0.0
 10
10.00202395541347
 20
33.69223786131068
 30
0.0
 10
10.00202395541347
 20
33.69223786131068
 30
0.0
 10
10.00202395541347
 20
33.69223786131068
 30
0.0
 10
10.00378822110923
 20
33.72857285275669
 30
0.0
 10
10.00378822110923
 20
33.72857285275669
 30
0.0
 10
10.01366595582084
 20
33.72892543674766
 30
0.0
 10
10.01930999115878
 20
33.73280655213037
 30
0.0
 10
10.02142684084562
 20
33.73668766751289
 30
0.0
 10
10.02072167286349
 20
33.74832832217987
 30
0.0
 10
10.02072167286349
 20
33.75926380886466
 30
0.0
 10
10.02213200882775
 20
33.76914154357627
 30
0.0
 10
10.02812997389719
 20
33.84604791732275
 30
0.0
 10
10.08527953248004
 20
33.87638628943975
 30
0.0
 10
10.1237327193533
 20
33.87779662540405
 30
0.0
 10
10.27895445707015
 20
33.87709145742198
 30
0.0
 10
10.50614370117772
 20
33.87603370544878
 30
0.0
 10
10.56505752545635
 20
33.87709145742198
 30
0.0
 10
10.56505752545635
 20
33.87709145742198
 30
0.0
 10
10.56787954312531
 20
33.87991482083137
 30
0.0
 10
10.56787954312531
 20
33.87991482083137
 30
0.0
 10
10.56787954312531
 20
33.87991482083137
 30
0.0
 10
10.58763501254854
 20
33.87744404141296
 30
0.0
 10
10.58763501254854
 20
33.87744404141296
 30
0.0
 10
10.65501623557451
 20
33.86862675015547
 30
0.0
 10
10.67512428898881
 20
33.80759473044955
 30
0.0
 10
10.67194968732876
 20
33.76878895958526
 30
0.0
 10
10.67194968732876
 20
33.76878895958526
 30
0.0
 10
10.67194968732876
 20
33.53877769780865
 30
0.0
 10
10.67194968732876
 20
33.53877769780865
 30
0.0
 10
10.67194968732876
 20
33.53278107847967
 30
0.0
 10
10.67194968732876
 20
33.52748962713275
 30
0.0
 10
10.69346807670733
 20
33.52149300780377
 30
0.0
 10
10.69346807670733
 20
33.52149300780377
 30
0.0
 10
10.69417459042991
 20
33.52149300780377
 30
0.0
 10
10.69417459042991
 20
33.52149300780377
 30
0.0
 10
10.69417459042991
 20
33.52149300780377
 30
0.0
 10
10.69487975841204
 20
33.52149300780377
 30
0.0
 10
10.69487975841204
 20
33.52149300780377
 30
0.0
 10
10.79471620324182
 20
33.52149300780377
 30
0.0
 10
10.8501014961289
 20
33.40225233180146
 30
0.0
 10
10.8525709298068
 20
33.39696088045457
 30
0.0
 10
10.8525709298068
 20
33.39696088045457
 30
0.0
 10
11.41384023415392
 20
31.01359537710346
 30
0.0
 10
11.41384023415392
 20
31.01359537710346
 30
0.0
 10
11.41384023415392
 20
31.01359537710346
 30
0.0
 10
11.42230763290126
 20
31.01359537710346
 30
0.0
 10
11.42230763290126
 20
31.01359537710346
 30
0.0
 10
11.42230763290126
 20
31.01359537710346
 30
0.0
 10
11.48651290852676
 20
30.93915978277525
 30
0.0
 10
11.48651290852676
 20
30.93915978277525
 30
0.0
 10
11.48651290852676
 20
30.93915978277525
 30
0.0
 10
11.42477706657917
 20
30.88624257782567
 30
0.0
 10
11.42477706657917
 20
30.88624257782567
 30
0.0
  0
SPLINE
  5
380
330
1F
100
AcDbEntity
  8
Livello 1
100
AcDbSpline
210
0.0
220
0.0
230
1.0
 70
    25
 71
     3
 72
    11
 73
     7
 74
     0
 42
0.000000001
 43
0.0000000001
 40
0.0
 40
0.0
 40
0.0
 40
0.0
 40
1.0
 40
1.0
 40
1.0
 40
2.0
 40
2.0
 40
2.0
 40
2.0
 10
9.929351281040624
 20
33.64743277963646
 30
0.0
 10
9.930762962745319
 20
33.64743277963646
 30
0.0
 10
9.931468130727452
 20
33.64743277963646
 30
0.0
 10
9.932527228441088
 20
33.64743277963646
 30
0.0
 10
9.932527228441088
 20
33.64743277963646
 30
0.0
 10
9.929351281040624
 20
33.64743277963646
 30
0.0
 10
9.929351281040624
 20
33.64743277963646
 30
0.0
  0
SPLINE
  5
381
330
1F
100
AcDbEntity
  8
Livello 1
100
AcDbSpline
210
0.0
220
0.0
230
1.0
 70
    25
 71
     3
 72
    11
 73
     7
 74
     0
 42
0.000000001
 43
0.0000000001
 40
0.0
 40
0.0
 40
0.0
 40
0.0
 40
1.0
 40
1.0
 40
1.0
 40
2.0
 40
2.0
 40
2.0
 40
2.0
 10
8.153469153934679
 20
33.64778805510838
 30
0.0
 10
8.154526905907886
 20
33.64778805510838
 30
0.0
 10
8.155232073890019
 20
33.64778805510838
 30
0.0
 10
8.156643755594714
 20
33.64778805510838
 30
0.0
 10
8.156643755594714
 20
33.64778805510838
 30
0.0
 10
8.153469153934679
 20
33.64778805510838
 30
0.0
 10
8.153469153934679
 20
33.64778805510838
 30
0.0
  0
SPLINE
  5
382
330
1F
100
AcDbEntity
  8
Livello 1
100
AcDbSpline
210
0.0
220
0.0
230
1.0
 70
    11
 71
     3
 72
   200
 73
   196
 74
     0
 42
0.000000001
 43
0.0000000001
 40
0.0
 40
0.0
 40
0.0
 40
0.0
 40
1.0
 40
1.0
 40
1.0
 40
2.0
 40
2.0
 40
2.0
 40
3.0
 40
3.0
 40
3.0
 40
4.0
 40
4.0
 40
4.0
 40
5.0
 40
5.0
 40
5.0
 40
6.0
 40
6.0
 40
6.0
 40
7.0
 40
7.0
 40
7.0
 40
8.0
 40
8.0
 40
8.0
 40
9.0
 40
9.0
 40
9.0
 40
10.0
 40
10.0
 40
10.0
 40
11.0
 40
11.0
 40
11.0
 40
12.0
 40
12.0
 40
12.0
 40
13.0
 40
13.0
 40
13.0
 40
14.0
 40
14.0
 40
14.0
 40
15.0
 40
15.0
 40
15.0
 40
16.0
 40
16.0
 40
16.0
 40
17.0
 40
17.0
 40
17.0
 40
18.0
 40
18.0
 40
18.0
 40
19.0
 40
19.0
 40
19.0
 40
20.0
 40
20.0
 40
20.0
 40
21.0
 40
21.0
 40
21.0
 40
22.0
 40
22.0
 40
22.0
 40
23.0
 40
23.0
 40
23.0
 40
24.0
 40
24.0
 40
24.0
 40
25.0
 40
25.0
 40
25.0
 40
26.0
 40
26.0
 40
26.0
 40
27.0
 40
27.0
 40
27.0
 40
28.0
 40
28.0
 40
28.0
 40
29.0
 40
29.0
 40
29.0
 40
30.0
 40
30.0
 40
30.0
 40
31.0
 40
31.0
 40
31.0
 40
32.0
 40
32.0
 40
32.0
 40
33.0
 40
33.0
 40
33.0
 40
34.0
 40
34.0
 40
34.0
 40
35.0
 40
35.0
 40
35.0
 40
36.0
 40
36.0
 40
36.0
 40
37.0
 40
37.0
 40
37.0
 40
38.0
 40
38.0
 40
38.0
 40
39.0
 40
39.0
 40
39.0
 40
40.0
 40
40.0
 40
40.0
 40
41.0
 40
41.0
 40
41.0
 40
42.0
 40
42.0
 40
42.0
 40
43.0
 40
43.0
 40
43.0
 40
44.0
 40
44.0
 40
44.0
 40
45.0
 40
45.0
 40
45.0
 40
46.0
 40
46.0
 40
46.0
 40
47.0
 40
47.0
 40
47.0
 40
48.0
 40
48.0
 40
48.0
 40
49.0
 40
49.0
 40
49.0
 40
50.0
 40
50.0
 40
50.0
 40
51.0
 40
51.0
 40
51.0
 40
52.0
 40
52.0
 40
52.0
 40
53.0
 40
53.0
 40
53.0
 40
54.0
 40
54.0
 40
54.0
 40
55.0
 40
55.0
 40
55.0
 40
56.0
 40
56.0
 40
56.0
 40
57.0
 40
57.0
 40
57.0
 40
58.0
 40
58.0
 40
58.0
 40
59.0
 40
59.0
 40
59.0
 40
60.0
 40
60.0
 40
60.0
 40
61.0
 40
61.0
 40
61.0
 40
62.0
 40
62.0
 40
62.0
 40
63.0
 40
63.0
 40
63.0
 40
64.0
 40
64.0
 40
64.0
 40
65.0
 40
65.0
 40
65.0
 40
65.0
 10
6.561630487204823
 20
30.80206920578997
 30
0.0
 10
6.561630487204823
 20
30.80206920578997
 30
0.0
 10
6.561630487204823
 20
30.88320658742927
 30
0.0
 10
6.561630487204823
 20
30.88320658742927
 30
0.0
 10
6.561630487204823
 20
30.88320658742927
 30
0.0
 10
6.699566189176351
 20
30.88355917142036
 30
0.0
 10
6.699566189176351
 20
30.88355917142036
 30
0.0
 10
6.711913357565862
 20
30.89414207411417
 30
0.0
 10
6.73872454403174
 20
30.92165977430255
 30
0.0
 10
6.756010579777068
 20
30.97528214723425
 30
0.0
 10
6.756010579777068
 20
30.97528214723425
 30
0.0
 10
6.760244279150739
 20
30.99362728069326
 30
0.0
 10
6.760244279150739
 20
30.99362728069326
 30
0.0
 10
6.881246529368027
 20
31.49774433497669
 30
0.0
 10
7.281296803799051
 20
33.15650667298837
 30
0.0
 10
7.346560504267969
 20
33.33677667721577
 30
0.0
 10
7.35855508866642
 20
33.37029099673316
 30
0.0
 10
7.385718859123358
 20
33.39498533351224
 30
0.0
 10
7.420996771466363
 20
33.40380531625067
 30
0.0
 10
7.433696523846947
 20
33.40697857217026
 30
0.0
 10
7.449218966766721
 20
33.41050710356177
 30
0.0
 10
7.467916011346531
 20
33.41438821894437
 30
0.0
 10
7.473913303545757
 20
33.41685630688187
 30
0.0
 10
7.479910595744982
 20
33.41791405885505
 30
0.0
 10
7.485555303953134
 20
33.41897450230917
 30
0.0
 10
7.521890968269346
 20
33.42673404159345
 30
0.0
 10
7.554346862943376
 20
33.43837738774127
 30
0.0
 10
7.554346862943376
 20
33.49270492865517
 30
0.0
 10
7.554346862943376
 20
33.49270492865517
 30
0.0
 10
7.554346862943376
 20
33.54879538952437
 30
0.0
 10
7.554346862943376
 20
33.54879538952437
 30
0.0
 10
7.554346862943376
 20
33.54879538952437
 30
0.0
 10
7.560344155142601
 20
33.54667988557796
 30
0.0
 10
7.560344155142601
 20
33.54667988557796
 30
0.0
 10
7.561402579986022
 20
33.59359777971775
 30
0.0
 10
7.560696739133661
 20
33.67085673745527
 30
0.0
 10
7.55928573029918
 20
33.73823796048126
 30
0.0
 10
7.55928573029918
 20
33.73823796048126
 30
0.0
 10
7.558227305455758
 20
33.78021698726517
 30
0.0
 10
7.558227305455758
 20
33.78021698726517
 30
0.0
 10
7.558227305455758
 20
33.78021698726517
 30
0.0
 10
7.894777472243433
 20
33.77810148331878
 30
0.0
 10
7.894777472243433
 20
33.77810148331878
 30
0.0
 10
7.894777472243433
 20
33.77810148331878
 30
0.0
 10
7.894777472243433
 20
33.46624498043997
 30
0.0
 10
7.894777472243433
 20
33.46624498043997
 30
0.0
 10
7.897599489912408
 20
33.45566207774615
 30
0.0
 10
7.905712958928262
 20
33.43414368836756
 30
0.0
 10
7.911004410275126
 20
33.42885223702075
 30
0.0
 10
7.930054711716223
 20
33.42073742226447
 30
0.0
 10
7.95616073019994
 20
33.41474080293546
 30
0.0
 10
7.985441350343734
 20
33.41262260750816
 30
0.0
 10
7.985441350343734
 20
33.41262260750816
 30
0.0
 10
10.09963858280333
 20
33.41262260750816
 30
0.0
 10
10.09963858280333
 20
33.41262260750816
 30
0.0
 10
10.12609718527814
 20
33.41474080293546
 30
0.0
 10
10.15220185802144
 20
33.42073742226447
 30
0.0
 10
10.17407417713151
 20
33.43096774096717
 30
0.0
 10
10.17619102681834
 20
33.43414368836756
 30
0.0
 10
10.18430449583419
 20
33.45566207774615
 30
0.0
 10
10.18783302722573
 20
33.47365462721405
 30
0.0
 10
10.18783302722573
 20
33.47365462721405
 30
0.0
 10
10.18712785924359
 20
33.77810148331878
 30
0.0
 10
10.18712785924359
 20
33.77810148331878
 30
0.0
 10
10.18712785924359
 20
33.77810148331878
 30
0.0
 10
10.52367735316105
 20
33.78021698726517
 30
0.0
 10
10.52367735316105
 20
33.78021698726517
 30
0.0
 10
10.52367735316105
 20
33.78021698726517
 30
0.0
 10
10.52261825544742
 20
33.73823796048126
 30
0.0
 10
10.52261825544742
 20
33.73823796048126
 30
0.0
 10
10.52120791948316
 20
33.67050415346426
 30
0.0
 10
10.52050275150101
 20
33.59359777971775
 30
0.0
 10
10.52191308746529
 20
33.54667988557796
 30
0.0
 10
10.52191308746529
 20
33.54667988557796
 30
0.0
 10
10.52755712280323
 20
33.54844280553326
 30
0.0
 10
10.52755712280323
 20
33.54844280553326
 30
0.0
 10
10.52755712280323
 20
33.54844280553326
 30
0.0
 10
10.52755712280323
 20
33.49270492865517
 30
0.0
 10
10.52755712280323
 20
33.49270492865517
 30
0.0
 10
10.52755712280323
 20
33.43837738774127
 30
0.0
 10
10.56036627433855
 20
33.42673404159345
 30
0.0
 10
10.59670261152496
 20
33.41897450230917
 30
0.0
 10
10.60199406287184
 20
33.41791405885505
 30
0.0
 10
10.60799068220085
 20
33.41685630688187
 30
0.0
 10
10.61398864727029
 20
33.41438821894437
 30
0.0
 10
10.63303894871137
 20
33.41050710356177
 30
0.0
 10
10.64856071876093
 20
33.40697857217026
 30
0.0
 10
10.66090788715046
 20
33.40380531625067
 30
0.0
 10
10.69618512662325
 20
33.39498533351224
 30
0.0
 10
10.72334889708018
 20
33.37029099673316
 30
0.0
 10
10.73534348147863
 20
33.33677667721577
 30
0.0
 10
10.80096043880883
 20
33.15650667298837
 30
0.0
 10
11.20065745637858
 20
31.49774433497669
 30
0.0
 10
11.32166105233628
 20
30.99362728069326
 30
0.0
 10
11.32166105233628
 20
30.99362728069326
 30
0.0
 10
11.32695250368316
 20
30.97245878382486
 30
0.0
 10
11.32695250368316
 20
30.97245878382486
 30
0.0
 10
11.34353337144635
 20
30.92130719031147
 30
0.0
 10
11.36963804418967
 20
30.89449465810517
 30
0.0
 10
11.38269172630173
 20
30.88355917142036
 30
0.0
 10
11.38269172630173
 20
30.88355917142036
 30
0.0
 10
11.5202748442822
 20
30.88355917142036
 30
0.0
 10
11.5202748442822
 20
30.88355917142036
 30
0.0
 10
11.5202748442822
 20
30.88355917142036
 30
0.0
 10
11.5202748442822
 20
30.80242178978105
 30
0.0
 10
11.5202748442822
 20
30.80242178978105
 30
0.0
 10
11.5202748442822
 20
30.80242178978105
 30
0.0
 10
11.35834997351377
 20
30.80242178978105
 30
0.0
 10
11.35834997351377
 20
30.80242178978105
 30
0.0
 10
11.35834997351377
 20
30.80242178978105
 30
0.0
 10
11.34882482279323
 20
30.80771324112797
 30
0.0
 10
11.34882482279323
 20
30.80771324112797
 30
0.0
 10
11.34212168974166
 20
30.81194694050157
 30
0.0
 10
11.28144359976727
 20
30.84933968392076
 30
0.0
 10
11.24898837796346
 20
30.95023522646418
 30
0.0
 10
11.24898837796346
 20
30.95023522646418
 30
0.0
 10
11.24299175863441
 20
30.97457697925217
 30
0.0
 10
11.24299175863441
 20
30.97457697925217
 30
0.0
 10
11.12198816267673
 20
31.47798886555347
 30
0.0
 10
10.72334889708018
 20
33.13287008818256
 30
0.0
 10
10.65914362145469
 20
33.30925897702736
 30
0.0
 10
10.65596901979465
 20
33.31772637577467
 30
0.0
 10
10.6503249844567
 20
33.32301782712156
 30
0.0
 10
10.64079983373615
 20
33.32513333106798
 30
0.0
 10
10.62845266534664
 20
33.32830927846837
 30
0.0
 10
10.61292954955665
 20
33.33219039385097
 30
0.0
 10
10.59317408013342
 20
33.33571892524256
 30
0.0
 10
10.59317408013342
 20
33.33571892524256
 30
0.0
 10
10.57200827474592
 20
33.34171554457154
 30
0.0
 10
10.57200827474592
 20
33.34171554457154
 30
0.0
 10
10.49051561763467
 20
33.36288134995906
 30
0.0
 10
10.44994692681501
 20
33.40980193557965
 30
0.0
 10
10.44677097941455
 20
33.48282719394357
 30
0.0
 10
10.44006919210338
 20
33.50646108726858
 30
0.0
 10
10.43795234241656
 20
33.55973087620927
 30
0.0
 10
10.44077436008554
 20
33.69837443764377
 30
0.0
 10
10.44077436008554
 20
33.69837443764377
 30
0.0
 10
10.26826658662334
 20
33.69766926966156
 30
0.0
 10
10.26826658662334
 20
33.69766926966156
 30
0.0
 10
10.26826658662334
 20
33.69766926966156
 30
0.0
 10
10.26826658662334
 20
33.46624498043997
 30
0.0
 10
10.26826658662334
 20
33.46624498043997
 30
0.0
 10
10.26297378953604
 20
33.43484885634976
 30
0.0
 10
10.24851111720011
 20
33.37593503207117
 30
0.0
 10
10.20794108064002
 20
33.35723731462105
 30
0.0
 10
10.17689619480049
 20
33.34312588053587
 30
0.0
 10
10.1416189553277
 20
33.33465848178847
 30
0.0
 10
10.10281318446337
 20
33.33148522586887
 30
0.0
 10
10.10281318446337
 20
33.33148522586887
 30
0.0
 10
7.982265402943269
 20
33.33148522586887
 30
0.0
 10
7.982265402943269
 20
33.33148522586887
 30
0.0
 10
7.940637614409979
 20
33.33465848178847
 30
0.0
 10
7.905360374937188
 20
33.34312588053587
 30
0.0
 10
7.874316161967854
 20
33.35688473063004
 30
0.0
 10
7.833746798277985
 20
33.37593503207117
 30
0.0
 10
7.818930196210558
 20
33.43449627235867
 30
0.0
 10
7.814343912845814
 20
33.45883802514666
 30
0.0
 10
7.814343912845814
 20
33.45883802514666
 30
0.0
 10
7.813991328854754
 20
33.69766926966156
 30
0.0
 10
7.813991328854754
 20
33.69766926966156
 30
0.0
 10
7.813991328854754
 20
33.69766926966156
 30
0.0
 10
7.64113029853128
 20
33.69837443764377
 30
0.0
 10
7.64113029853128
 20
33.69837443764377
 30
0.0
 10
7.64395231620027
 20
33.56043604419137
 30
0.0
 10
7.641835466513413
 20
33.50681636274047
 30
0.0
 10
7.635485590323128
 20
33.48282719394357
 30
0.0
 10
7.631957731801804
 20
33.40838890813456
 30
0.0
 10
7.58997735927744
 20
33.36076584601267
 30
0.0
 10
7.50989705674111
 20
33.34171554457154
 30
0.0
 10
7.50989705674111
 20
33.34171554457154
 30
0.0
 10
7.508838631897688
 20
33.33924476515327
 30
0.0
 10
7.508838631897688
 20
33.33924476515327
 30
0.0
 10
7.508838631897688
 20
33.33924476515327
 30
0.0
 10
7.488729905613169
 20
33.33571892524256
 30
0.0
 10
7.488729905613169
 20
33.33571892524256
 30
0.0
 10
7.469327693051226
 20
33.33219039385097
 30
0.0
 10
7.453452666140378
 20
33.32830927846837
 30
0.0
 10
7.441105497750868
 20
33.32513333106798
 30
0.0
 10
7.431932931021378
 20
33.32301782712156
 30
0.0
 10
7.425935638822167
 20
33.31772637577467
 30
0.0
 10
7.422761037162132
 20
33.30925897702736
 30
0.0
 10
7.358907672657494
 20
33.13287008818256
 30
0.0
 10
6.959916495940078
 20
31.47763628156236
 30
0.0
 10
6.83891357285259
 20
30.97457697925217
 30
0.0
 10
6.83891357285259
 20
30.97457697925217
 30
0.0
 10
6.8339747054968
 20
30.95305589839276
 30
0.0
 10
6.8339747054968
 20
30.95305589839276
 30
0.0
 10
6.800813642840623
 20
30.84933968392076
 30
0.0
 10
6.739782968875161
 20
30.81194694050157
 30
0.0
 10
6.733079835823588
 20
30.80771324112797
 30
0.0
 10
6.733079835823588
 20
30.80771324112797
 30
0.0
 10
6.723555357973253
 20
30.80242178978105
 30
0.0
 10
6.723555357973253
 20
30.80242178978105
 30
0.0
 10
6.723555357973253
 20
30.80242178978105
 30
0.0
 10
6.561630487204823
 20
30.80206920578997
 30
0.0
 10
6.561630487204823
 20
30.80206920578997
 30
0.0
  0
POLYLINE
  5
383
330
1F
100
AcDbEntity
  8
Livello 1
100
AcDb2dPolyline
 66
     1
 10
0.0
 20
0.0
 30
0.0
  0
VERTEX
  5
384
330
383
100
AcDbEntity
  8
Livello 1
100
AcDbVertex
100
AcDb2dVertex
 10
10.53105066494375
 20
33.36062588900856
 30
0.0
  0
VERTEX
  5
385
330
383
100
AcDbEntity
  8
Livello 1
100
AcDbVertex
100
AcDb2dVertex
 10
10.20473148972897
 20
33.36062588900856
 30
0.0
  0
VERTEX
  5
386
330
383
100
AcDbEntity
  8
Livello 1
100
AcDbVertex
100
AcDb2dVertex
 10
10.20473148972897
 20
33.44176596212875
 30
0.0
  0
VERTEX
  5
387
330
383
100
AcDbEntity
  8
Livello 1
100
AcDbVertex
100
AcDb2dVertex
 10
10.53105066494375
 20
33.44176596212875
 30
0.0
  0
VERTEX
  5
388
330
383
100
AcDbEntity
  8
Livello 1
100
AcDbVertex
100
AcDb2dVertex
 10
10.53105066494375
 20
33.36062588900856
 30
0.0
  0
SEQEND
  5
389
330
383
100
AcDbEntity
  8
Livello 1
  0
POLYLINE
  5
38A
330
1F
100
AcDbEntity
  8
Livello 1
100
AcDb2dPolyline
 66
     1
 10
0.0
 20
0.0
 30
0.0
  0
VERTEX
  5
38B
330
38A
100
AcDbEntity
  8
Livello 1
100
AcDbVertex
100
AcDb2dVertex
 10
10.69191778373897
 20
33.29077657804516
 30
0.0
  0
VERTEX
  5
38C
330
38A
100
AcDbEntity
  8
Livello 1
100
AcDbVertex
100
AcDb2dVertex
 10
7.389917569246009
 20
33.29077657804516
 30
0.0
  0
VERTEX
  5
38D
330
38A
100
AcDbEntity
  8
Livello 1
100
AcDbVertex
100
AcDb2dVertex
 10
7.389917569246009
 20
33.37191665116526
 30
0.0
  0
VERTEX
  5
38E
330
38A
100
AcDbEntity
  8
Livello 1
100
AcDbVertex
100
AcDb2dVertex
 10
10.69191778373897
 20
33.37191665116526
 30
0.0
  0
VERTEX
  5
38F
330
38A
100
AcDbEntity
  8
Livello 1
100
AcDbVertex
100
AcDb2dVertex
 10
10.69191778373897
 20
33.29077657804516
 30
0.0
  0
SEQEND
  5
390
330
38A
100
AcDbEntity
  8
Livello 1
  0
POLYLINE
  5
391
330
1F
100
AcDbEntity
  8
Livello 1
100
AcDb2dPolyline
 66
     1
 10
0.0
 20
0.0
 30
0.0
  0
VERTEX
  5
392
330
391
100
AcDbEntity
  8
Livello 1
100
AcDbVertex
100
AcDb2dVertex
 10
10.70144293445952
 20
33.25549933857238
 30
0.0
  0
VERTEX
  5
393
330
391
100
AcDbEntity
  8
Livello 1
100
AcDbVertex
100
AcDb2dVertex
 10
7.380745675386748
 20
33.25549933857238
 30
0.0
  0
VERTEX
  5
394
330
391
100
AcDbEntity
  8
Livello 1
100
AcDbVertex
100
AcDb2dVertex
 10
7.380745675386748
 20
33.33663941169258
 30
0.0
  0
VERTEX
  5
395
330
391
100
AcDbEntity
  8
Livello 1
100
AcDbVertex
100
AcDb2dVertex
 10
10.70144293445952
 20
33.33663941169258
 30
0.0
  0
VERTEX
  5
396
330
391
100
AcDbEntity
  8
Livello 1
100
AcDbVertex
100
AcDb2dVertex
 10
10.70144293445952
 20
33.25549933857238
 30
0.0
  0
SEQEND
  5
397
330
391
100
AcDbEntity
  8
Livello 1
  0
SPLINE
  5
398
330
1F
100
AcDbEntity
  8
Livello 1
100
AcDbSpline
210
0.0
220
0.0
230
1.0
 70
     9
 71
     3
 72
    29
 73
    25
 74
     0
 42
0.000000001
 43
0.0000000001
 40
0.0
 40
0.0
 40
0.0
 40
0.0
 40
1.0
 40
1.0
 40
1.0
 40
2.0
 40
2.0
 40
2.0
 40
3.0
 40
3.0
 40
3.0
 40
4.0
 40
4.0
 40
4.0
 40
5.0
 40
5.0
 40
5.0
 40
6.0
 40
6.0
 40
6.0
 40
7.0
 40
7.0
 40
7.0
 40
8.0
 40
8.0
 40
8.0
 40
8.0
 10
10.40320263318995
 20
33.19083112824098
 30
0.0
 10
10.3912080487915
 20
33.19083112824098
 30
0.0
 10
10.37886088040198
 20
33.19400707564145
 30
0.0
 10
10.36827797770823
 20
33.20141403093476
 30
0.0
 10
10.35416654362295
 20
33.21129176564637
 30
0.0
 10
10.33864477357339
 20
33.23140251054147
 30
0.0
 10
10.34358364092919
 20
33.27161861737006
 30
0.0
 10
10.34287847294708
 20
33.29313700674865
 30
0.0
 10
10.35628339330978
 20
33.31218730818975
 30
0.0
 10
10.36510337604819
 20
33.32241762689245
 30
0.0
 10
10.36510337604819
 20
33.32241762689245
 30
0.0
 10
10.40990576624152
 20
33.28431702401025
 30
0.0
 10
10.40990576624152
 20
33.28431702401025
 30
0.0
 10
10.40990576624152
 20
33.28431702401025
 30
0.0
 10
10.43071898763796
 20
33.31324506016296
 30
0.0
 10
10.43071898763796
 20
33.31324506016296
 30
0.0
 10
10.43071898763796
 20
33.31324506016296
 30
0.0
 10
10.49633594496815
 20
33.26526672256915
 30
0.0
 10
10.49633594496815
 20
33.26526672256915
 30
0.0
 10
10.49633594496815
 20
33.26526672256915
 30
0.0
 10
10.44553558970538
 20
33.20212189039776
 30
0.0
 10
10.44553558970538
 20
33.20212189039776
 30
0.0
 10
10.43354235104736
 20
33.19576999559675
 30
0.0
 10
10.41872440323951
 20
33.19083112824098
 30
0.0
 10
10.40320263318995
 20
33.19083112824098
 30
0.0
  0
SPLINE
  5
399
330
1F
100
AcDbEntity
  8
Livello 1
100
AcDbSpline
210
0.0
220
0.0
230
1.0
 70
     9
 71
     3
 72
    44
 73
    40
 74
     0
 42
0.000000001
 43
0.0000000001
 40
0.0
 40
0.0
 40
0.0
 40
0.0
 40
1.0
 40
1.0
 40
1.0
 40
2.0
 40
2.0
 40
2.0
 40
3.0
 40
3.0
 40
3.0
 40
4.0
 40
4.0
 40
4.0
 40
5.0
 40
5.0
 40
5.0
 40
6.0
 40
6.0
 40
6.0
 40
7.0
 40
7.0
 40
7.0
 40
8.0
 40
8.0
 40
8.0
 40
9.0
 40
9.0
 40
9.0
 40
10.0
 40
10.0
 40
10.0
 40
11.0
 40
11.0
 40
11.0
 40
12.0
 40
12.0
 40
12.0
 40
13.0
 40
13.0
 40
13.0
 40
13.0
 10
10.09963858280333
 20
33.15537894251304
 30
0.0
 10
10.07071054665063
 20
33.15714186246845
 30
0.0
 10
10.01849850968315
 20
33.17971800382025
 30
0.0
 10
10.01250189035413
 20
33.25591920958456
 30
0.0
 10
10.01250189035413
 20
33.25591920958456
 30
0.0
 10
10.00438842133829
 20
33.36492687540346
 30
0.0
 10
10.00438842133829
 20
33.36492687540346
 30
0.0
 10
10.00438842133829
 20
33.36492687540346
 30
0.0
 10
10.07635458198857
 20
33.29296206049355
 30
0.0
 10
10.07635458198857
 20
33.29296206049355
 30
0.0
 10
10.07635458198857
 20
33.29296206049355
 30
0.0
 10
10.09364061773391
 20
33.29437239645788
 30
0.0
 10
10.09364061773391
 20
33.29437239645788
 30
0.0
 10
10.09469836970709
 20
33.27990837838147
 30
0.0
 10
10.09540488342966
 20
33.26755986425155
 30
0.0
 10
10.09399320172497
 20
33.25662437756677
 30
0.0
 10
10.0961100514118
 20
33.24145519150827
 30
0.0
 10
10.10175408674973
 20
33.23651632415246
 30
0.0
 10
10.10175408674973
 20
33.23651632415246
 30
0.0
 10
10.10175408674973
 20
33.23651632415246
 30
0.0
 10
10.31130471112091
 20
33.23651632415246
 30
0.0
 10
10.31130471112091
 20
33.23651632415246
 30
0.0
 10
10.30813010946087
 20
33.23686890814347
 30
0.0
 10
10.30883527744301
 20
33.24216035949039
 30
0.0
 10
10.30883527744301
 20
33.24286552747245
 30
0.0
 10
10.30883527744301
 20
33.24286552747245
 30
0.0
 10
10.30848269345195
 20
33.29154903304845
 30
0.0
 10
10.30848269345195
 20
33.29154903304845
 30
0.0
 10
10.30848269345195
 20
33.29154903304845
 30
0.0
 10
10.38962142083168
 20
33.29154903304845
 30
0.0
 10
10.38962142083168
 20
33.29154903304845
 30
0.0
 10
10.38962142083168
 20
33.29154903304845
 30
0.0
 10
10.38962142083168
 20
33.24498372289978
 30
0.0
 10
10.38962142083168
 20
33.24498372289978
 30
0.0
 10
10.3920908545096
 20
33.20370717261716
 30
0.0
 10
10.36669134974842
 20
33.15855219843275
 30
0.0
 10
10.31447931278096
 20
33.15537894251304
 30
0.0
 10
10.31447931278096
 20
33.15537894251304
 30
0.0
 10
10.09963858280333
 20
33.15537894251304
 30
0.0
 10
10.09963858280333
 20
33.15537894251304
 30
0.0
  0
SPLINE
  5
39A
330
1F
100
AcDbEntity
  8
Livello 1
100
AcDbSpline
210
0.0
220
0.0
230
1.0
 70
     9
 71
     3
 72
    32
 73
    28
 74
     0
 42
0.000000001
 43
0.0000000001
 40
0.0
 40
0.0
 40
0.0
 40
0.0
 40
1.0
 40
1.0
 40
1.0
 40
2.0
 40
2.0
 40
2.0
 40
3.0
 40
3.0
 40
3.0
 40
4.0
 40
4.0
 40
4.0
 40
5.0
 40
5.0
 40
5.0
 40
6.0
 40
6.0
 40
6.0
 40
7.0
 40
7.0
 40
7.0
 40
8.0
 40
8.0
 40
8.0
 40
9.0
 40
9.0
 40
9.0
 40
9.0
 10
9.977048358885824
 20
33.18737795831325
 30
0.0
 10
9.968228376147408
 20
33.18737795831325
 30
0.0
 10
9.959055809417918
 20
33.18914087826855
 30
0.0
 10
9.950237172419946
 20
33.19337457764226
 30
0.0
 10
9.941064605690471
 20
33.19760827701589
 30
0.0
 10
9.925541489900481
 20
33.20854376370065
 30
0.0
 10
9.917780604875702
 20
33.23253293249755
 30
0.0
 10
9.911431401555631
 20
33.24452617115566
 30
0.0
 10
9.908255454155167
 20
33.26498680856096
 30
0.0
 10
9.91495858720674
 20
33.30732111081687
 30
0.0
 10
9.91495858720674
 20
33.30732111081687
 30
0.0
 10
9.981280712519065
 20
33.29673820812317
 30
0.0
 10
9.981280712519065
 20
33.29673820812317
 30
0.0
 10
9.981280712519065
 20
33.29673820812317
 30
0.0
 10
9.990100695257481
 20
33.31190739418156
 30
0.0
 10
9.990100695257481
 20
33.31190739418156
 30
0.0
 10
9.990100695257481
 20
33.31190739418156
 30
0.0
 10
10.05995000622091
 20
33.27133870336198
 30
0.0
 10
10.05995000622091
 20
33.27133870336198
 30
0.0
 10
10.05995000622091
 20
33.27133870336198
 30
0.0
 10
10.0190287314102
 20
33.20007636495336
 30
0.0
 10
10.0190287314102
 20
33.20007636495336
 30
0.0
 10
10.0190287314102
 20
33.20007636495336
 30
0.0
 10
10.00809189898494
 20
33.19478491360647
 30
0.0
 10
10.00809189898494
 20
33.19478491360647
 30
0.0
 10
9.99997842996909
 20
33.19055121423275
 30
0.0
 10
9.989041597543845
 20
33.18737795831325
 30
0.0
 10
9.977048358885824
 20
33.18737795831325
 30
0.0
  0
SPLINE
  5
39B
330
1F
100
AcDbEntity
  8
Livello 1
100
AcDbSpline
210
0.0
220
0.0
230
1.0
 70
    11
 71
     3
 72
   101
 73
    97
 74
     0
 42
0.000000001
 43
0.0000000001
 40
0.0
 40
0.0
 40
0.0
 40
0.0
 40
1.0
 40
1.0
 40
1.0
 40
2.0
 40
2.0
 40
2.0
 40
3.0
 40
3.0
 40
3.0
 40
4.0
 40
4.0
 40
4.0
 40
5.0
 40
5.0
 40
5.0
 40
6.0
 40
6.0
 40
6.0
 40
7.0
 40
7.0
 40
7.0
 40
8.0
 40
8.0
 40
8.0
 40
9.0
 40
9.0
 40
9.0
 40
10.0
 40
10.0
 40
10.0
 40
11.0
 40
11.0
 40
11.0
 40
12.0
 40
12.0
 40
12.0
 40
13.0
 40
13.0
 40
13.0
 40
14.0
 40
14.0
 40
14.0
 40
15.0
 40
15.0
 40
15.0
 40
16.0
 40
16.0
 40
16.0
 40
17.0
 40
17.0
 40
17.0
 40
18.0
 40
18.0
 40
18.0
 40
19.0
 40
19.0
 40
19.0
 40
20.0
 40
20.0
 40
20.0
 40
21.0
 40
21.0
 40
21.0
 40
22.0
 40
22.0
 40
22.0
 40
23.0
 40
23.0
 40
23.0
 40
24.0
 40
24.0
 40
24.0
 40
25.0
 40
25.0
 40
25.0
 40
26.0
 40
26.0
 40
26.0
 40
27.0
 40
27.0
 40
27.0
 40
28.0
 40
28.0
 40
28.0
 40
29.0
 40
29.0
 40
29.0
 40
30.0
 40
30.0
 40
30.0
 40
31.0
 40
31.0
 40
31.0
 40
32.0
 40
32.0
 40
32.0
 40
32.0
 10
8.142849916249474
 20
33.55225394241387
 30
0.0
 10
8.142849916249474
 20
33.55225394241387
 30
0.0
 10
8.142849916249474
 20
33.59811408458046
 30
0.0
 10
8.142849916249474
 20
33.59811408458046
 30
0.0
 10
8.142497332258415
 20
33.59987969601665
 30
0.0
 10
8.140733066562646
 20
33.61363585462996
 30
0.0
 10
8.140733066562646
 20
33.61363585462996
 30
0.0
 10
8.140733066562646
 20
33.61363585462996
 30
0.0
 10
8.133677349519999
 20
33.66867125500687
 30
0.0
 10
8.133677349519999
 20
33.66867125500687
 30
0.0
 10
8.133677349519999
 20
33.66867125500687
 30
0.0
 10
8.170013686706425
 20
33.66231936020597
 30
0.0
 10
8.170013686706425
 20
33.66231936020597
 30
0.0
 10
8.170366270697485
 20
33.66408497164207
 30
0.0
 10
8.170718854688558
 20
33.66655305957957
 30
0.0
 10
8.170718854688558
 20
33.66937642298896
 30
0.0
 10
8.170718854688558
 20
33.66937642298896
 30
0.0
 10
8.171072784420047
 20
33.67396270635377
 30
0.0
 10
8.171072784420047
 20
33.67396270635377
 30
0.0
 10
8.17177795240218
 20
33.68666111299388
 30
0.0
 10
8.17177795240218
 20
33.72934799924087
 30
0.0
 10
8.170718854688558
 20
33.85423001910027
 30
0.0
 10
8.170718854688558
 20
33.87045964861278
 30
0.0
 10
8.171425368411121
 20
33.89515398539186
 30
0.0
 10
8.179186253435901
 20
33.91596720678825
 30
0.0
 10
8.194355439494387
 20
33.95724106559007
 30
0.0
 10
8.239511759419215
 20
34.02638790005227
 30
0.0
 10
8.368627478652342
 20
34.03026632395395
 30
0.0
 10
8.368627478652342
 20
34.03026632395395
 30
0.0
 10
9.712358712125137
 20
34.03026632395395
 30
0.0
 10
9.712358712125137
 20
34.03026632395395
 30
0.0
 10
9.8425335290719
 20
34.02638790005227
 30
0.0
 10
9.887688503256299
 20
33.95724106559007
 30
0.0
 10
9.9028590350552
 20
33.91596720678825
 30
0.0
 10
9.910619920079994
 20
33.89550656938295
 30
0.0
 10
9.911325088062142
 20
33.87222256856816
 30
0.0
 10
9.911325088062142
 20
33.85387743510916
 30
0.0
 10
9.911325088062142
 20
33.85387743510916
 30
0.0
 10
9.910972504071068
 20
33.83694532909536
 30
0.0
 10
9.910972504071068
 20
33.83694532909536
 30
0.0
 10
9.910619920079994
 20
33.79355327486627
 30
0.0
 10
9.909913406357432
 20
33.69583367972337
 30
0.0
 10
9.910972504071068
 20
33.67396270635377
 30
0.0
 10
9.910972504071068
 20
33.67396270635377
 30
0.0
 10
9.911325088062142
 20
33.66937642298896
 30
0.0
 10
9.911325088062142
 20
33.66937642298896
 30
0.0
 10
9.911325088062142
 20
33.66655305957957
 30
0.0
 10
9.911677672053201
 20
33.66408497164207
 30
0.0
 10
9.912030256044275
 20
33.66231936020597
 30
0.0
 10
9.912030256044275
 20
33.66231936020597
 30
0.0
 10
9.948366593230687
 20
33.66867125500687
 30
0.0
 10
9.948366593230687
 20
33.66867125500687
 30
0.0
 10
9.948366593230687
 20
33.66867125500687
 30
0.0
 10
9.94131087618804
 20
33.61363585462996
 30
0.0
 10
9.94131087618804
 20
33.61363585462996
 30
0.0
 10
9.94131087618804
 20
33.61363585462996
 30
0.0
 10
9.939547956232701
 20
33.59987969601665
 30
0.0
 10
9.939194026501212
 20
33.59599858063408
 30
0.0
 10
9.939194026501212
 20
33.59599858063408
 30
0.0
 10
9.936019424841177
 20
33.55366427837817
 30
0.0
 10
9.936019424841177
 20
33.55366427837817
 30
0.0
 10
9.936019424841177
 20
33.55366427837817
 30
0.0
 10
9.894039052316813
 20
33.55789797775188
 30
0.0
 10
9.894039052316813
 20
33.55789797775188
 30
0.0
 10
9.776916571741708
 20
33.57200941183717
 30
0.0
 10
9.755396836622708
 20
33.63162840409785
 30
0.0
 10
9.752222234962673
 20
33.64362164275588
 30
0.0
 10
9.752222234962673
 20
33.64362164275588
 30
0.0
 10
9.751164482989466
 20
33.65385465293949
 30
0.0
 10
9.751164482989466
 20
33.65385465293949
 30
0.0
 10
9.751164482989466
 20
33.65385465293949
 30
0.0
 10
9.751164482989466
 20
33.82600984241057
 30
0.0
 10
9.751164482989466
 20
33.82600984241057
 30
0.0
 10
9.75010538527583
 20
33.85423001910027
 30
0.0
 10
9.740932818546355
 20
33.87434076399538
 30
0.0
 10
9.724000712532529
 20
33.88527625068025
 30
0.0
 10
9.721531278854627
 20
33.88562883467125
 30
0.0
 10
9.702128393422455
 20
33.88809692260875
 30
0.0
 10
9.689427295301442
 20
33.88880478207176
 30
0.0
 10
9.689427295301442
 20
33.88880478207176
 30
0.0
 10
8.390852381753475
 20
33.88880478207176
 30
0.0
 10
8.390852381753475
 20
33.88880478207176
 30
0.0
 10
8.378152629372891
 20
33.88774433861778
 30
0.0
 10
8.35980884165437
 20
33.88562883467125
 30
0.0
 10
8.354869974298551
 20
33.88351063924407
 30
0.0
 10
8.341111124204331
 20
33.87434076399538
 30
0.0
 10
8.33193855747487
 20
33.85423001910027
 30
0.0
 10
8.330880805501649
 20
33.82600984241057
 30
0.0
 10
8.330880805501649
 20
33.82600984241057
 30
0.0
 10
8.329821707788028
 20
33.64362164275588
 30
0.0
 10
8.329821707788028
 20
33.64362164275588
 30
0.0
 10
8.326647106127978
 20
33.63162840409785
 30
0.0
 10
8.305127371008978
 20
33.57200941183717
 30
0.0
 10
8.188358820165376
 20
33.55789797775188
 30
0.0
 10
8.188358820165376
 20
33.55789797775188
 30
0.0
 10
8.142849916249474
 20
33.55225394241387
 30
0.0
 10
8.142849916249474
 20
33.55225394241387
 30
0.0
  0
POLYLINE
  5
39C
330
1F
100
AcDbEntity
  8
Livello 1
100
AcDb2dPolyline
 66
     1
 10
0.0
 20
0.0
 30
0.0
  0
VERTEX
  5
39D
330
39C
100
AcDbEntity
  8
Livello 1
100
AcDbVertex
100
AcDb2dVertex
 10
9.798788890851767
 20
33.82671501039266
 30
0.0
  0
VERTEX
  5
39E
330
39C
100
AcDbEntity
  8
Livello 1
100
AcDbVertex
100
AcDb2dVertex
 10
9.829833776691316
 20
33.82671501039266
 30
0.0
  0
VERTEX
  5
39F
330
39C
100
AcDbEntity
  8
Livello 1
100
AcDbVertex
100
AcDb2dVertex
 10
9.829833776691316
 20
33.82777276236587
 30
0.0
  0
VERTEX
  5
3A0
330
39C
100
AcDbEntity
  8
Livello 1
100
AcDbVertex
100
AcDb2dVertex
 10
9.798788890851767
 20
33.82671501039266
 30
0.0
  0
SEQEND
  5
3A1
330
39C
100
AcDbEntity
  8
Livello 1
  0
POLYLINE
  5
3A2
330
1F
100
AcDbEntity
  8
Livello 1
100
AcDb2dPolyline
 66
     1
 10
0.0
 20
0.0
 30
0.0
  0
VERTEX
  5
3A3
330
3A2
100
AcDbEntity
  8
Livello 1
100
AcDbVertex
100
AcDb2dVertex
 10
8.252211511799799
 20
33.82671501039266
 30
0.0
  0
VERTEX
  5
3A4
330
3A2
100
AcDbEntity
  8
Livello 1
100
AcDbVertex
100
AcDb2dVertex
 10
8.283255051898919
 20
33.82671501039266
 30
0.0
  0
VERTEX
  5
3A5
330
3A2
100
AcDbEntity
  8
Livello 1
100
AcDbVertex
100
AcDb2dVertex
 10
8.252211511799799
 20
33.82777276236587
 30
0.0
  0
VERTEX
  5
3A6
330
3A2
100
AcDbEntity
  8
Livello 1
100
AcDbVertex
100
AcDb2dVertex
 10
8.252211511799799
 20
33.82671501039266
 30
0.0
  0
SEQEND
  5
3A7
330
3A2
100
AcDbEntity
  8
Livello 1
  0
SPLINE
  5
3A8
330
1F
100
AcDbEntity
  8
Livello 1
100
AcDbSpline
210
0.0
220
0.0
230
1.0
 70
     9
 71
     3
 72
    17
 73
    13
 74
     0
 42
0.000000001
 43
0.0000000001
 40
0.0
 40
0.0
 40
0.0
 40
0.0
 40
1.0
 40
1.0
 40
1.0
 40
2.0
 40
2.0
 40
2.0
 40
3.0
 40
3.0
 40
3.0
 40
4.0
 40
4.0
 40
4.0
 40
4.0
 10
9.80090574053861
 20
33.92302426957136
 30
0.0
 10
9.813958076910267
 20
33.90608947207667
 30
0.0
 10
9.825600077317659
 20
33.88280547126198
 30
0.0
 10
9.830186360682375
 20
33.85105676318065
 30
0.0
 10
9.830186360682375
 20
33.85105676318065
 30
0.0
 10
9.830186360682375
 20
33.85493787856325
 30
0.0
 10
9.830186360682375
 20
33.85493787856325
 30
0.0
 10
9.830538944673449
 20
33.87469334798647
 30
0.0
 10
9.828422094986621
 20
33.88351063924407
 30
0.0
 10
9.82701175902234
 20
33.88739175462666
 30
0.0
 10
9.821718961935047
 20
33.90150318871196
 30
0.0
 10
9.812900324937061
 20
33.91349911885078
 30
0.0
 10
9.80090574053861
 20
33.92302426957136
 30
0.0
  0
SPLINE
  5
3A9
330
1F
100
AcDbEntity
  8
Livello 1
100
AcDbSpline
210
0.0
220
0.0
230
1.0
 70
     9
 71
     3
 72
    17
 73
    13
 74
     0
 42
0.000000001
 43
0.0000000001
 40
0.0
 40
0.0
 40
0.0
 40
0.0
 40
1.0
 40
1.0
 40
1.0
 40
2.0
 40
2.0
 40
2.0
 40
3.0
 40
3.0
 40
3.0
 40
4.0
 40
4.0
 40
4.0
 40
4.0
 10
8.28113954795252
 20
33.92302426957136
 30
0.0
 10
8.269144963554055
 20
33.91349911885078
 30
0.0
 10
8.260324980815653
 20
33.90185577270305
 30
0.0
 10
8.255033529468775
 20
33.88774433861778
 30
0.0
 10
8.253974431755139
 20
33.88421849870705
 30
0.0
 10
8.25185892780874
 20
33.87539851596855
 30
0.0
 10
8.25185892780874
 20
33.85493787856325
 30
0.0
 10
8.25185892780874
 20
33.85493787856325
 30
0.0
 10
8.25185892780874
 20
33.85105676318065
 30
0.0
 10
8.25185892780874
 20
33.85105676318065
 30
0.0
 10
8.256443865433055
 20
33.88280547126198
 30
0.0
 10
8.268085865840419
 20
33.90608947207667
 30
0.0
 10
8.28113954795252
 20
33.92302426957136
 30
0.0
  0
POLYLINE
  5
3AA
330
1F
100
AcDbEntity
  8
Livello 1
100
AcDb2dPolyline
 66
     1
 10
0.0
 20
0.0
 30
0.0
  0
VERTEX
  5
3AB
330
3AA
100
AcDbEntity
  8
Livello 1
100
AcDbVertex
100
AcDb2dVertex
 10
7.877456447247084
 20
33.36062588900856
 30
0.0
  0
VERTEX
  5
3AC
330
3AA
100
AcDbEntity
  8
Livello 1
100
AcDbVertex
100
AcDb2dVertex
 10
7.550784015171032
 20
33.36062588900856
 30
0.0
  0
VERTEX
  5
3AD
330
3AA
100
AcDbEntity
  8
Livello 1
100
AcDbVertex
100
AcDb2dVertex
 10
7.550784015171032
 20
33.44176596212875
 30
0.0
  0
VERTEX
  5
3AE
330
3AA
100
AcDbEntity
  8
Livello 1
100
AcDbVertex
100
AcDb2dVertex
 10
7.877456447247084
 20
33.44176596212875
 30
0.0
  0
VERTEX
  5
3AF
330
3AA
100
AcDbEntity
  8
Livello 1
100
AcDbVertex
100
AcDb2dVertex
 10
7.877456447247084
 20
33.36062588900856
 30
0.0
  0
SEQEND
  5
3B0
330
3AA
100
AcDbEntity
  8
Livello 1
  0
SPLINE
  5
3B1
330
1F
100
AcDbEntity
  8
Livello 1
100
AcDbSpline
210
0.0
220
0.0
230
1.0
 70
     9
 71
     3
 72
    32
 73
    28
 74
     0
 42
0.000000001
 43
0.0000000001
 40
0.0
 40
0.0
 40
0.0
 40
0.0
 40
1.0
 40
1.0
 40
1.0
 40
2.0
 40
2.0
 40
2.0
 40
3.0
 40
3.0
 40
3.0
 40
4.0
 40
4.0
 40
4.0
 40
5.0
 40
5.0
 40
5.0
 40
6.0
 40
6.0
 40
6.0
 40
7.0
 40
7.0
 40
7.0
 40
8.0
 40
8.0
 40
8.0
 40
9.0
 40
9.0
 40
9.0
 40
9.0
 10
7.678806993179932
 20
33.19083112824098
 30
0.0
 10
7.663285223130372
 20
33.19083112824098
 30
0.0
 10
7.648467948192731
 20
33.19576999559675
 30
0.0
 10
7.636474036664495
 20
33.20212189039776
 30
0.0
 10
7.636474036664495
 20
33.20212189039776
 30
0.0
 10
7.623068443431563
 20
33.21411512905576
 30
0.0
 10
7.623068443431563
 20
33.21411512905576
 30
0.0
 10
7.623068443431563
 20
33.21411512905576
 30
0.0
 10
7.585673681401729
 20
33.26526672256915
 30
0.0
 10
7.585673681401729
 20
33.26526672256915
 30
0.0
 10
7.585673681401729
 20
33.26526672256915
 30
0.0
 10
7.651290638731921
 20
33.31324506016296
 30
0.0
 10
7.651290638731921
 20
33.31324506016296
 30
0.0
 10
7.651290638731921
 20
33.31324506016296
 30
0.0
 10
7.674926550667535
 20
33.28079118409957
 30
0.0
 10
7.674926550667535
 20
33.28079118409957
 30
0.0
 10
7.674926550667535
 20
33.28079118409957
 30
0.0
 10
7.716906923191913
 20
33.32277021088356
 30
0.0
 10
7.716906923191913
 20
33.32277021088356
 30
0.0
 10
7.725726905930315
 20
33.31218730818975
 30
0.0
 10
7.739131826293032
 20
33.29313700674865
 30
0.0
 10
7.738426658310913
 20
33.27126603337905
 30
0.0
 10
7.743365525666703
 20
33.23140251054147
 30
0.0
 10
7.727843082746929
 20
33.21129176564637
 30
0.0
 10
7.713732321531878
 20
33.20141403093476
 30
0.0
 10
7.703148745967894
 20
33.19400707564145
 30
0.0
 10
7.690801577578383
 20
33.19083112824098
 30
0.0
 10
7.678806993179932
 20
33.19083112824098
 30
0.0
  0
SPLINE
  5
3B2
330
1F
100
AcDbEntity
  8
Livello 1
100
AcDbSpline
210
0.0
220
0.0
230
1.0
 70
     9
 71
     3
 72
    44
 73
    40
 74
     0
 42
0.000000001
 43
0.0000000001
 40
0.0
 40
0.0
 40
0.0
 40
0.0
 40
1.0
 40
1.0
 40
1.0
 40
2.0
 40
2.0
 40
2.0
 40
3.0
 40
3.0
 40
3.0
 40
4.0
 40
4.0
 40
4.0
 40
5.0
 40
5.0
 40
5.0
 40
6.0
 40
6.0
 40
6.0
 40
7.0
 40
7.0
 40
7.0
 40
8.0
 40
8.0
 40
8.0
 40
9.0
 40
9.0
 40
9.0
 40
10.0
 40
10.0
 40
10.0
 40
11.0
 40
11.0
 40
11.0
 40
12.0
 40
12.0
 40
12.0
 40
13.0
 40
13.0
 40
13.0
 40
13.0
 10
7.77010606076034
 20
33.15537894251304
 30
0.0
 10
7.715425262985164
 20
33.15855219843275
 30
0.0
 10
7.690025085353781
 20
33.20370717261716
 30
0.0
 10
7.692494519031669
 20
33.24709922684616
 30
0.0
 10
7.692494519031669
 20
33.24709922684616
 30
0.0
 10
7.692141935040609
 20
33.29154903304845
 30
0.0
 10
7.692141935040609
 20
33.29154903304845
 30
0.0
 10
7.692141935040609
 20
33.29154903304845
 30
0.0
 10
7.773280662420361
 20
33.29154903304845
 30
0.0
 10
7.773280662420361
 20
33.29154903304845
 30
0.0
 10
7.773280662420361
 20
33.29154903304845
 30
0.0
 10
7.773280662420361
 20
33.24498372289978
 30
0.0
 10
7.773280662420361
 20
33.24498372289978
 30
0.0
 10
7.773280662420361
 20
33.24039743953506
 30
0.0
 10
7.774339087263783
 20
33.23545857217926
 30
0.0
 10
7.77504492811613
 20
33.23404823621496
 30
0.0
 10
7.77504492811613
 20
33.23404823621496
 30
0.0
 10
7.982478029930248
 20
33.23651632415246
 30
0.0
 10
7.982478029930248
 20
33.23651632415246
 30
0.0
 10
7.981771516207686
 20
33.23722149213455
 30
0.0
 10
7.986005215581371
 20
33.24286552747245
 30
0.0
 10
7.9881220652682
 20
33.25627179357568
 30
0.0
 10
7.98671038356349
 20
33.26720728026046
 30
0.0
 10
7.987769481277126
 20
33.27990837838147
 30
0.0
 10
7.988474649259259
 20
33.29437239645788
 30
0.0
 10
7.988474649259259
 20
33.29437239645788
 30
0.0
 10
8.006113268995662
 20
33.29331464448467
 30
0.0
 10
8.006113268995662
 20
33.29331464448467
 30
0.0
 10
8.006113268995662
 20
33.29331464448467
 30
0.0
 10
8.077728191395294
 20
33.36245878746595
 30
0.0
 10
8.077728191395294
 20
33.36245878746595
 30
0.0
 10
8.077728191395294
 20
33.36245878746595
 30
0.0
 10
8.069260792647952
 20
33.25591920958456
 30
0.0
 10
8.069260792647952
 20
33.25591920958456
 30
0.0
 10
8.063616757310001
 20
33.17971800382025
 30
0.0
 10
8.011406066082955
 20
33.15714186246845
 30
0.0
 10
7.984594879617091
 20
33.15537894251304
 30
0.0
 10
7.984594879617091
 20
33.15537894251304
 30
0.0
 10
7.77010606076034
 20
33.15537894251304
 30
0.0
 10
7.77010606076034
 20
33.15537894251304
 30
0.0
  0
SPLINE
  5
3B3
330
1F
100
AcDbEntity
  8
Livello 1
100
AcDbSpline
210
0.0
220
0.0
230
1.0
 70
     9
 71
     3
 72
    32
 73
    28
 74
     0
 42
0.000000001
 43
0.0000000001
 40
0.0
 40
0.0
 40
0.0
 40
0.0
 40
1.0
 40
1.0
 40
1.0
 40
2.0
 40
2.0
 40
2.0
 40
3.0
 40
3.0
 40
3.0
 40
4.0
 40
4.0
 40
4.0
 40
5.0
 40
5.0
 40
5.0
 40
6.0
 40
6.0
 40
6.0
 40
7.0
 40
7.0
 40
7.0
 40
8.0
 40
8.0
 40
8.0
 40
9.0
 40
9.0
 40
9.0
 40
9.0
 10
8.104998275345721
 20
33.18737795831325
 30
0.0
 10
8.09300369094727
 20
33.18737795831325
 30
0.0
 10
8.082066858522026
 20
33.19055121423275
 30
0.0
 10
8.073953389506172
 20
33.19478491360647
 30
0.0
 10
8.073953389506172
 20
33.19478491360647
 30
0.0
 10
8.063016557080928
 20
33.20007636495336
 30
0.0
 10
8.063016557080928
 20
33.20007636495336
 30
0.0
 10
8.063016557080928
 20
33.20007636495336
 30
0.0
 10
8.0220952822702
 20
33.27133870336198
 30
0.0
 10
8.0220952822702
 20
33.27133870336198
 30
0.0
 10
8.0220952822702
 20
33.27133870336198
 30
0.0
 10
8.091944593233648
 20
33.31190739418156
 30
0.0
 10
8.091944593233648
 20
33.31190739418156
 30
0.0
 10
8.091944593233648
 20
33.31190739418156
 30
0.0
 10
8.10076457597205
 20
33.29673820812317
 30
0.0
 10
8.10076457597205
 20
33.29673820812317
 30
0.0
 10
8.10076457597205
 20
33.29673820812317
 30
0.0
 10
8.167086701284361
 20
33.30732111081687
 30
0.0
 10
8.167086701284361
 20
33.30732111081687
 30
0.0
 10
8.173789834335977
 20
33.26498680856096
 30
0.0
 10
8.170613886935498
 20
33.24452617115566
 30
0.0
 10
8.164264683615414
 20
33.23253293249755
 30
0.0
 10
8.156503798590634
 20
33.20854376370065
 30
0.0
 10
8.140980682800631
 20
33.19760827701589
 30
0.0
 10
8.131455532080096
 20
33.19337457764226
 30
0.0
 10
8.122989479073183
 20
33.18914087826855
 30
0.0
 10
8.113816912343708
 20
33.18737795831325
 30
0.0
 10
8.104998275345721
 20
33.18737795831325
 30
0.0
  0
POLYLINE
  5
3B4
330
1F
100
AcDbEntity
  8
Livello 1
100
AcDb2dPolyline
 66
     1
 10
0.0
 20
0.0
 30
0.0
  0
VERTEX
  5
3B5
330
3B4
100
AcDbEntity
  8
Livello 1
100
AcDbVertex
100
AcDb2dVertex
 10
6.620791254851241
 20
30.90645559899306
 30
0.0
  0
VERTEX
  5
3B6
330
3B4
100
AcDbEntity
  8
Livello 1
100
AcDbVertex
100
AcDb2dVertex
 10
6.59680208605431
 20
30.98406444924089
 30
0.0
  0
VERTEX
  5
3B7
330
3B4
100
AcDbEntity
  8
Livello 1
100
AcDbVertex
100
AcDb2dVertex
 10
6.688171805006973
 20
31.01228731741136
 30
0.0
  0
VERTEX
  5
3B8
330
3B4
100
AcDbEntity
  8
Livello 1
100
AcDbVertex
100
AcDb2dVertex
 10
6.712160300933661
 20
30.93467577568276
 30
0.0
  0
VERTEX
  5
3B9
330
3B4
100
AcDbEntity
  8
Livello 1
100
AcDbVertex
100
AcDb2dVertex
 10
6.620791254851241
 20
30.90645559899306
 30
0.0
  0
SEQEND
  5
3BA
330
3B4
100
AcDbEntity
  8
Livello 1
  0
ENDSEC
  0
SECTION
  2
OBJECTS
  0
DICTIONARY
  5
C
330
0
100
AcDbDictionary
281
     1
  3
ACAD_CIP_PREVIOUS_PRODUCT_INFO
350
216
  3
ACAD_COLOR
350
6B
  3
ACAD_DETAILVIEWSTYLE
350
21B
  3
ACAD_GROUP
350
D
  3
ACAD_LAYOUT
350
1A
  3
ACAD_MATERIAL
350
6A
  3
ACAD_MLEADERSTYLE
350
12D
  3
ACAD_MLINESTYLE
350
17
  3
ACAD_PLOTSETTINGS
350
19
  3
ACAD_PLOTSTYLENAME
350
E
  3
ACAD_SCALELIST
350
10C
  3
ACAD_SECTIONVIEWSTYLE
350
219
  3
ACAD_TABLESTYLE
350
7E
  3
ACAD_VISUALSTYLE
350
EF
  3
ACDB_RECOMPOSE_DATA
350
3BC
  3
AcDbVariableDictionary
350
5E
  3
AcDsDecomposeData
350
3C2
  0
DICTIONARY
  5
1FF
330
2
100
AcDbDictionary
280
     1
281
     1
  3
ACAD_LAYERSTATES
360
200
  0
DICTIONARY
  5
13C
330
10
100
AcDbDictionary
280
     1
281
     1
  0
DICTIONARY
  5
1CE
330
1F
100
AcDbDictionary
280
     1
281
     1
  0
XRECORD
  5
216
102
{ACAD_REACTORS
330
C
102
}
330
C
100
AcDbXrecord
280
     1
300
ACD
300
2020
300

  0
DICTIONARY
  5
6B
102
{ACAD_REACTORS
330
C
102
}
330
C
100
AcDbDictionary
281
     1
  0
DICTIONARY
  5
21B
102
{ACAD_REACTORS
330
C
102
}
330
C
100
AcDbDictionary
281
     1
  3
Imperial24
350
28E
  3
Metric50
350
21C
  0
DICTIONARY
  5
D
102
{ACAD_REACTORS
330
C
102
}
330
C
100
AcDbDictionary
281
     1
  0
DICTIONARY
  5
1A
102
{ACAD_REACTORS
330
C
102
}
330
C
100
AcDbDictionary
281
     1
  3
Layout1
350
D3
  3
Layout2
350
D7
  3
Model
350
22
  0
DICTIONARY
  5
6A
102
{ACAD_REACTORS
330
C
102
}
330
C
100
AcDbDictionary
281
     1
  3
ByBlock
350
ED
  3
ByLayer
350
EC
  3
Global
350
EE
  0
DICTIONARY
  5
12D
102
{ACAD_REACTORS
330
C
102
}
330
C
100
AcDbDictionary
281
     1
  3
Annotativa
350
13B
  3
Standard
350
12E
  0
DICTIONARY
  5
17
102
{ACAD_REACTORS
330
C
102
}
330
C
100
AcDbDictionary
281
     1
  3
Standard
350
18
  0
DICTIONARY
  5
19
102
{ACAD_REACTORS
330
C
102
}
330
C
100
AcDbDictionary
281
     1
  0
ACDBDICTIONARYWDFLT
  5
E
102
{ACAD_REACTORS
330
C
102
}
330
C
100
AcDbDictionary
281
     1
  3
Normal
350
F
100
AcDbDictionaryWithDefault
340
F
  0
DICTIONARY
  5
10C
102
{ACAD_REACTORS
330
C
102
}
330
C
100
AcDbDictionary
281
     1
  3
A0
350
10D
  3
A1
350
1BE
  3
A2
350
1BF
  3
A3
350
1C0
  3
A4
350
1C1
  3
A5
350
1C2
  3
A6
350
1C3
  3
A7
350
1C4
  3
A8
350
1C5
  3
A9
350
1C6
  3
B0
350
1C7
  3
B1
350
1C8
  3
B2
350
1C9
  3
B3
350
1CA
  3
B4
350
1CB
  3
B5
350
1CC
  3
B6
350
1CD
  0
DICTIONARY
  5
219
102
{ACAD_REACTORS
330
C
102
}
330
C
100
AcDbDictionary
281
     1
  3
Imperial24
350
28D
  3
Metric50
350
21A
  0
DICTIONARY
  5
7E
102
{ACAD_REACTORS
330
C
102
}
330
C
100
AcDbDictionary
281
     1
  3
Standard
350
7F
  0
DICTIONARY
  5
EF
102
{ACAD_REACTORS
330
C
102
}
330
C
100
AcDbDictionary
281
     1
  3
2dWireframe
350
F5
  3
Basic
350
F4
  3
Brighten
350
FB
  3
ColorChange
350
FF
  3
Conceptual
350
F8
  3
Dim
350
FA
  3
EdgeColorOff
350
1E6
  3
Facepattern
350
FE
  3
Flat
350
F0
  3
FlatWithEdges
350
F1
  3
Gouraud
350
F2
  3
GouraudWithEdges
350
F3
  3
Hidden
350
F7
  3
JitterOff
350
1E4
  3
Linepattern
350
FD
  3
OverhangOff
350
1E5
  3
Realistic
350
F9
  3
Shaded
350
1F3
  3
Shaded with edges
350
1F2
  3
Shades of Gray
350
1EF
  3
Sketchy
350
1F0
  3
Thicken
350
FC
  3
Wireframe
350
F6
  3
X-Ray
350
1F1
  0
XRECORD
  5
3BC
102
{ACAD_REACTORS
330
C
102
}
330
C
100
AcDbXrecord
280
     1
 90
        1
330
7F
  0
DICTIONARY
  5
5E
102
{ACAD_REACTORS
330
C
102
}
330
C
100
AcDbDictionary
281
     1
  3
CANNOSCALE
350
146
  3
CENTEREXE
350
259
  3
CENTERLTYPEFILE
350
25A
  3
CMLEADERSTYLE
350
145
  3
CTABLESTYLE
350
84
  3
CVIEWDETAILSTYLE
350
227
  3
CVIEWSECTIONSTYLE
350
228
  3
DIMASSOC
350
5F
  3
HIDETEXT
350
63
  3
LAYEREVAL
350
1AE
  3
LAYERNOTIFY
350
1AF
  0
DICTIONARY
  5
3C2
102
{ACAD_REACTORS
330
C
102
}
330
C
100
AcDbDictionary
281
     1
  3
AcDsRecords
350
3C4
  3
AcDsSchemas
350
3C3
1001
ACAD
1070
     2
  0
DICTIONARY
  5
200
102
{ACAD_REACTORS
330
1FF
102
}
330
1FF
100
AcDbDictionary
281
     1
  0
ACDBDETAILVIEWSTYLE
  5
28E
102
{ACAD_XDICTIONARY
360
3CB
102
}
102
{ACAD_REACTORS
330
21B
102
}
330
21B
100
AcDbModelDocViewStyle
 70
     0
  3
Imperial24
290
     0
100
AcDbDetailViewStyle
 70
     0
 71
     0
 90
        3
 71
     1
340
11
 62
   256
 40
0.24
340
0
 62
   256
 40
0.24
300

 40
0.36
280
     3
 71
     2
340
16
 90
       25
 62
   256
 71
     3
340
11
 62
   256
 40
0.24
 90
        1
 40
0.75
 90
        1
300
%<\AcVar ViewType \f "%tc1">% %<\AcVar ViewDetailId>%\PSCALA %<\AcVar ViewScale \f "%sn">%
 71
     4
340
16
 90
       25
 62
   256
340
16
 90
       25
 62
   256
280
     0
  0
ACDBDETAILVIEWSTYLE
  5
21C
102
{ACAD_XDICTIONARY
360
3C7
102
}
102
{ACAD_REACTORS
330
21B
102
}
330
21B
100
AcDbModelDocViewStyle
 70
     0
  3
Metric50
290
     0
100
AcDbDetailViewStyle
 70
     0
 71
     0
 90
        3
 71
     1
340
11
 62
   256
 40
5.0
340
0
 62
   256
 40
5.0
300

 40
0.0
280
     1
 71
     2
340
16
 90
       25
 62
   256
 71
     3
340
11
 62
   256
 40
5.0
 90
        0
 40
15.0
 90
        1
300
%<\AcVar ViewDetailId>% (%<\AcVar ViewScale \f "%sn">%)
 71
     4
340
16
 90
       25
 62
   256
340
16
 90
       25
 62
   256
280
     0
  0
LAYOUT
  5
D3
102
{ACAD_REACTORS
330
1A
102
}
330
1A
100
AcDbPlotSettings
  1

  2
C:\Documents and Settings\basas\Application Data\Autodesk\AutoCAD 2005\R16.1\enu\plotters\Default Windows System Printer.pc3
  4

  6

 40
0.0
 41
0.0
 42
0.0
 43
0.0
 44
0.0
 45
0.0
 46
0.0
 47
0.0
 48
0.0
 49
0.0
140
0.0
141
0.0
142
1.0
143
1.0
 70
   688
 72
     0
 73
     0
 74
     5
  7

 75
    16
147
1.0
 76
     0
 77
     2
 78
   300
148
0.0
149
0.0
100
AcDbLayout
  1
Layout1
 70
     1
 71
     1
 10
0.0
 20
0.0
 11
12.0
 21
9.0
 12
0.0
 22
0.0
 32
0.0
 14
0.0
 24
0.0
 34
0.0
 15
0.0
 25
0.0
 35
0.0
146
0.0
 13
0.0
 23
0.0
 33
0.0
 16
1.0
 26
0.0
 36
0.0
 17
0.0
 27
1.0
 37
0.0
 76
     0
330
D2
  0
LAYOUT
  5
D7
102
{ACAD_REACTORS
330
1A
102
}
330
1A
100
AcDbPlotSettings
  1

  2
C:\Documents and Settings\basas\Application Data\Autodesk\AutoCAD 2005\R16.1\enu\plotters\Default Windows System Printer.pc3
  4

  6

 40
0.0
 41
0.0
 42
0.0
 43
0.0
 44
0.0
 45
0.0
 46
0.0
 47
0.0
 48
0.0
 49
0.0
140
0.0
141
0.0
142
1.0
143
1.0
 70
   688
 72
     0
 73
     0
 74
     5
  7

 75
    16
147
1.0
 76
     0
 77
     2
 78
   300
148
0.0
149
0.0
100
AcDbLayout
  1
Layout2
 70
     1
 71
     2
 10
0.0
 20
0.0
 11
12.0
 21
9.0
 12
0.0
 22
0.0
 32
0.0
 14
0.0
 24
0.0
 34
0.0
 15
0.0
 25
0.0
 35
0.0
146
0.0
 13
0.0
 23
0.0
 33
0.0
 16
1.0
 26
0.0
 36
0.0
 17
0.0
 27
1.0
 37
0.0
 76
     0
330
D6
  0
LAYOUT
  5
22
102
{ACAD_XDICTIONARY
360
205
102
}
102
{ACAD_REACTORS
330
1A
102
}
330
1A
100
AcDbPlotSettings
  1

  2
none_device
  4
ISO_A4_(210.00_x_297.00_MM)
  6

 40
7.5
 41
20.0
 42
7.5
 43
20.0
 44
210.0
 45
297.0
 46
11.54999923706054
 47
-13.65000009536743
 48
0.0
 49
0.0
140
0.0
141
0.0
142
1.0
143
8.704084754739808
 70
 11952
 72
     1
 73
     0
 74
     0
  7

 75
     0
147
0.1148885871608098
 76
     0
 77
     2
 78
   300
148
0.0
149
0.0
100
AcDbLayout
  1
Model
 70
     1
 71
     0
 10
0.0
 20
0.0
 11
12.0
 21
9.0
 12
0.0
 22
0.0
 32
0.0
 14
0.0
 24
0.0
 34
0.0
 15
0.0
 25
0.0
 35
0.0
146
0.0
 13
0.0
 23
0.0
 33
0.0
 16
1.0
 26
0.0
 36
0.0
 17
0.0
 27
1.0
 37
0.0
 76
     0
330
1F
331
EA
1001
ACAD_PSEXT
1000
None
1000
None
1000
Not applicable
1000
The layout will not be plotted unless a new plotter configuration name is selected.
1070
     0
  0
MATERIAL
  5
ED
102
{ACAD_XDICTIONARY
360
1F9
102
}
102
{ACAD_REACTORS
330
6A
102
}
330
6A
100
AcDbMaterial
  1
ByBlock
 94
       63
  0
MATERIAL
  5
EC
102
{ACAD_XDICTIONARY
360
1F7
102
}
102
{ACAD_REACTORS
330
6A
102
}
330
6A
100
AcDbMaterial
  1
ByLayer
 94
       63
  0
MATERIAL
  5
EE
102
{ACAD_XDICTIONARY
360
173
102
}
102
{ACAD_REACTORS
330
6A
102
}
330
6A
100
AcDbMaterial
  1
Global
 43
0.0007999999797903
 43
0.0
 43
0.0
 43
0.0
 43
0.0
 43
0.0007999999797903
 43
0.0
 43
0.0
 43
0.0
 43
0.0
 43
1.0
 43
0.0
 43
0.0
 43
0.0
 43
0.0
 43
1.0
 49
0.0007999999797903
 49
0.0
 49
0.0
 49
0.0
 49
0.0
 49
0.0007999999797903
 49
0.0
 49
0.0
 49
0.0
 49
0.0
 49
1.0
 49
0.0
 49
0.0
 49
0.0
 49
0.0
 49
1.0
142
0.0007999999797903
142
0.0
142
0.0
142
0.0
142
0.0
142
0.0007999999797903
142
0.0
142
0.0
142
0.0
142
0.0
142
1.0
142
0.0
142
0.0
142
0.0
142
0.0
142
1.0
144
0.0007999999797903
144
0.0
144
0.0
144
0.0
144
0.0
144
0.0007999999797903
144
0.0
144
0.0
144
0.0
144
0.0
144
1.0
144
0.0
144
0.0
144
0.0
144
0.0
144
1.0
 94
       63
1001
ACAD
1070
    -1
1070
     3
1070
     0
1000

1071
        0
1070
     0
  0
MLEADERSTYLE
  5
13B
102
{ACAD_REACTORS
330
12D
102
}
330
12D
100
AcDbMLeaderStyle
179
     2
170
     2
171
     1
172
     0
 90
        2
 40
0.0
 41
0.0
173
     1
 91
-1056964608
340
14
 92
       -2
290
     1
 42
2.0
291
     1
 43
8.0
  3
Standard
 44
4.0
300

342
11
174
     1
178
     1
175
     1
176
     0
 93
-1056964608
 45
4.0
292
     0
297
     0
 46
4.0
 94
-1056964608
 47
1.0
 49
1.0
140
1.0
293
     1
141
0.0
294
     1
177
     0
142
1.0
295
     0
296
     1
143
3.75
271
     0
272
     9
273
     9
298
     0
  0
MLEADERSTYLE
  5
12E
102
{ACAD_REACTORS
330
12D
102
}
330
12D
100
AcDbMLeaderStyle
179
     2
170
     2
171
     1
172
     0
 90
        2
 40
0.0
 41
0.0
173
     1
 91
-1056964608
340
14
 92
       -2
290
     1
 42
2.0
291
     1
 43
8.0
  3
Standard
 44
4.0
300

342
11
174
     1
178
     1
175
     1
176
     0
 93
-1056964608
 45
4.0
292
     0
297
     0
 46
4.0
 94
-1056964608
 47
1.0
 49
1.0
140
1.0
293
     1
141
0.0
294
     1
177
     0
142
1.0
295
     0
296
     0
143
3.75
271
     0
272
     9
273
     9
298
     0
  0
MLINESTYLE
  5
18
102
{ACAD_REACTORS
330
17
102
}
330
17
100
AcDbMlineStyle
  2
STANDARD
 70
     0
  3

 62
   256
 51
90.0
 52
90.0
 71
     2
 49
0.5
 62
   256
  6
BYLAYER
 49
-0.5
 62
   256
  6
BYLAYER
  0
ACDBPLACEHOLDER
  5
F
102
{ACAD_REACTORS
330
E
102
}
330
E
  0
SCALE
  5
10D
102
{ACAD_REACTORS
330
10C
102
}
330
10C
100
AcDbScale
 70
     0
300
1:1
140
1.0
141
1.0
290
     1
  0
SCALE
  5
1BE
102
{ACAD_REACTORS
330
10C
102
}
330
10C
100
AcDbScale
 70
     0
300
1:2
140
1.0
141
2.0
290
     0
  0
SCALE
  5
1BF
102
{ACAD_REACTORS
330
10C
102
}
330
10C
100
AcDbScale
 70
     0
300
1:4
140
1.0
141
4.0
290
     0
  0
SCALE
  5
1C0
102
{ACAD_REACTORS
330
10C
102
}
330
10C
100
AcDbScale
 70
     0
300
1:5
140
1.0
141
5.0
290
     0
  0
SCALE
  5
1C1
102
{ACAD_REACTORS
330
10C
102
}
330
10C
100
AcDbScale
 70
     0
300
1:8
140
1.0
141
8.0
290
     0
  0
SCALE
  5
1C2
102
{ACAD_REACTORS
330
10C
102
}
330
10C
100
AcDbScale
 70
     0
300
1:10
140
1.0
141
10.0
290
     0
  0
SCALE
  5
1C3
102
{ACAD_REACTORS
330
10C
102
}
330
10C
100
AcDbScale
 70
     0
300
1:16
140
1.0
141
16.0
290
     0
  0
SCALE
  5
1C4
102
{ACAD_REACTORS
330
10C
102
}
330
10C
100
AcDbScale
 70
     0
300
1:20
140
1.0
141
20.0
290
     0
  0
SCALE
  5
1C5
102
{ACAD_REACTORS
330
10C
102
}
330
10C
100
AcDbScale
 70
     0
300
1:30
140
1.0
141
30.0
290
     0
  0
SCALE
  5
1C6
102
{ACAD_REACTORS
330
10C
102
}
330
10C
100
AcDbScale
 70
     0
300
1:40
140
1.0
141
40.0
290
     0
  0
SCALE
  5
1C7
102
{ACAD_REACTORS
330
10C
102
}
330
10C
100
AcDbScale
 70
     0
300
1:50
140
1.0
141
50.0
290
     0
  0
SCALE
  5
1C8
102
{ACAD_REACTORS
330
10C
102
}
330
10C
100
AcDbScale
 70
     0
300
1:100
140
1.0
141
100.0
290
     0
  0
SCALE
  5
1C9
102
{ACAD_REACTORS
330
10C
102
}
330
10C
100
AcDbScale
 70
     0
300
2:1
140
2.0
141
1.0
290
     0
  0
SCALE
  5
1CA
102
{ACAD_REACTORS
330
10C
102
}
330
10C
100
AcDbScale
 70
     0
300
4:1
140
4.0
141
1.0
290
     0
  0
SCALE
  5
1CB
102
{ACAD_REACTORS
330
10C
102
}
330
10C
100
AcDbScale
 70
     0
300
8:1
140
8.0
141
1.0
290
     0
  0
SCALE
  5
1CC
102
{ACAD_REACTORS
330
10C
102
}
330
10C
100
AcDbScale
 70
     0
300
10:1
140
10.0
141
1.0
290
     0
  0
SCALE
  5
1CD
102
{ACAD_REACTORS
330
10C
102
}
330
10C
100
AcDbScale
 70
     0
300
100:1
140
100.0
141
1.0
290
     0
  0
ACDBSECTIONVIEWSTYLE
  5
28D
102
{ACAD_XDICTIONARY
360
3C9
102
}
102
{ACAD_REACTORS
330
219
102
}
330
219
100
AcDbModelDocViewStyle
 70
     0
  3
Imperial24
290
     0
100
AcDbSectionViewStyle
 70
     0
 71
     0
 90
       78
 71
     1
340
11
 62
   256
 40
0.24
340
0
340
0
 62
   256
 40
0.24
300
I, O, Q, S, X, Z
 40
0.48
 90
        3
 40
0.18
 90
        1
 71
     2
340
16
 90
       25
 62
   256
340
16
 90
       50
 62
   256
 40
0.24
 40
0.0
 40
0.24
 71
     3
340
11
 62
   256
 40
0.24
 90
        1
 40
0.75
 90
        1
300
%<\AcVar ViewType \f "%tc1">% %<\AcVar ViewSectionStartId>%-%<\AcVar ViewSectionEndId>%\PSCALA %<\AcVar ViewScale \f "%sn">%
 71
     4
 62
   256
 62
   257
300
ANSI31
 40
1.0
 90
        0
290
     0
290
     0
 90
        6
 40
0.0
 40
1.570796326794896
 40
0.2617993877991494
 40
1.308996938995747
 40
-0.2617993877991494
 40
1.832595714594046
  0
ACDBSECTIONVIEWSTYLE
  5
21A
102
{ACAD_XDICTIONARY
360
3C5
102
}
102
{ACAD_REACTORS
330
219
102
}
330
219
100
AcDbModelDocViewStyle
 70
     0
  3
Metric50
290
     0
100
AcDbSectionViewStyle
 70
     0
 71
     0
 90
      102
 71
     1
340
11
 62
   256
 40
5.0
340
0
340
0
 62
   256
 40
5.0
300
I, O, Q, S, X, Z
 40
10.0
 90
        0
 40
2.5
 90
        0
 71
     2
340
16
 90
       25
 62
   256
340
16
 90
       50
 62
   256
 40
5.0
 40
2.5
 40
5.0
 71
     3
340
11
 62
   256
 40
5.0
 90
        0
 40
15.0
 90
        1
300
%<\AcVar ViewSectionStartId>%-%<\AcVar ViewSectionEndId>% (%<\AcVar ViewScale \f "%sn">%)
 71
     4
 62
   256
 62
   257
300
ANSI31
 40
1.0
 90
        0
290
     0
290
     0
 90
        6
 40
0.0
 40
1.570796326794896
 40
0.2617993877991494
 40
1.308996938995747
 40
-0.2617993877991494
 40
1.832595714594046
  0
TABLESTYLE
  5
7F
102
{ACAD_XDICTIONARY
360
162
102
}
102
{ACAD_REACTORS
330
7E
102
}
330
7E
100
AcDbTableStyle
280
     0
  3
Standard
 70
     0
 71
     0
 40
1.5
 41
1.5
280
     0
281
     0
  7
Standard
140
4.5
170
     2
 62
     0
 63
     7
283
     0
 90
      512
 91
        0
  1

274
    -2
284
     1
 64
     0
275
    -2
285
     1
 65
     0
276
    -2
286
     1
 66
     0
277
    -2
287
     1
 67
     0
278
    -2
288
     1
 68
     0
279
    -2
289
     1
 69
     0
  7
Standard
140
6.0
170
     5
 62
     0
 63
     7
283
     0
 90
      512
 91
        0
  1

274
    -2
284
     1
 64
     0
275
    -2
285
     1
 65
     0
276
    -2
286
     1
 66
     0
277
    -2
287
     1
 67
     0
278
    -2
288
     1
 68
     0
279
    -2
289
     1
 69
     0
  7
Standard
140
4.5
170
     5
 62
     0
 63
     7
283
     0
 90
      512
 91
        0
  1

274
    -2
284
     1
 64
     0
275
    -2
285
     1
 65
     0
276
    -2
286
     1
 66
     0
277
    -2
287
     1
 67
     0
278
    -2
288
     1
 68
     0
279
    -2
289
     1
 69
     0
  0
VISUALSTYLE
  5
F5
102
{ACAD_REACTORS
330
EF
102
}
330
EF
100
AcDbVisualStyle
  2
2dWireframe
 70
     4
177
     3
291
     0
 70
    58
 90
        0
176
     1
 90
        2
176
     1
 90
        1
176
     1
 90
        0
176
     1
 40
0.6
176
     1
 40
30.0
176
     1
 62
     7
420
 16777215
176
     1
 90
        1
176
     1
 90
        4
176
     1
 62
     7
176
     1
 62
   257
176
     1
 90
        1
176
     1
 90
        1
176
     1
 40
1.0
176
     1
 90
        0
176
     1
 62
   257
176
     1
 40
1.0
176
     1
 90
        1
176
     1
 90
        6
176
     1
 90
        2
176
     1
 62
     7
176
     1
 90
        5
176
     1
 90
        0
176
     1
 90
        0
176
     1
290
     0
176
     1
 90
        1
176
     1
 40
0.0
176
     1
 90
        0
176
     1
290
     1
176
     1
290
     1
176
     1
290
     0
176
     1
290
     0
176
     1
290
     0
176
     1
290
     0
176
     1
290
     0
176
     1
290
     0
176
     1
290
     0
176
     1
 90
       50
176
     1
 40
0.0
176
     1
 40
1.0
176
     1
 90
        0
176
     1
 62
    18
420
        0
176
     1
 90
       50
176
     1
 90
        3
176
     1
 62
     5
420
      255
176
     1
290
     0
176
     1
 90
       50
176
     1
 90
       50
176
     1
 90
       50
176
     1
290
     0
176
     1
 90
       50
176
     1
 62
   256
176
     0
 40
1.0
176
     0
 90
        2
176
     1
  1
strokes_ogs.tif
176
     1
290
     0
176
     1
 40
1.0
176
     1
 40
1.0
176
     1
1001
ACAD
1000
AcDbSavedByObjectVersion
1070
     0
  0
VISUALSTYLE
  5
F4
102
{ACAD_REACTORS
330
EF
102
}
330
EF
100
AcDbVisualStyle
  2
Basic
 70
     7
177
     3
291
     1
 70
    58
 90
        1
176
     1
 90
        0
176
     1
 90
        1
176
     1
 90
        0
176
     1
 40
0.6
176
     1
 40
30.0
176
     1
 62
     7
420
 16777215
176
     1
 90
        0
176
     1
 90
        4
176
     1
 62
     7
176
     1
 62
   257
176
     1
 90
        1
176
     1
 90
        1
176
     1
 40
1.0
176
     1
 90
        8
176
     1
 62
     7
176
     1
 40
1.0
176
     1
 90
        1
176
     1
 90
        6
176
     1
 90
        2
176
     1
 62
     7
176
     1
 90
        5
176
     1
 90
        0
176
     1
 90
        0
176
     1
290
     0
176
     1
 90
        1
176
     1
 40
0.0
176
     1
 90
        0
176
     1
290
     0
176
     1
290
     1
176
     1
290
     1
176
     1
290
     0
176
     1
290
     0
176
     1
290
     0
176
     1
290
     0
176
     1
290
     0
176
     1
290
     0
176
     1
 90
       50
176
     1
 40
0.0
176
     1
 40
1.0
176
     1
 90
        0
176
     1
 62
    18
420
        0
176
     1
 90
       50
176
     1
 90
        3
176
     1
 62
     5
420
      255
176
     1
290
     0
176
     1
 90
       50
176
     1
 90
       50
176
     1
 90
       50
176
     1
290
     0
176
     1
 90
       50
176
     1
 62
   256
176
     0
 40
1.0
176
     0
 90
        2
176
     1
  1
strokes_ogs.tif
176
     1
290
     0
176
     1
 40
1.0
176
     1
 40
1.0
176
     1
1001
ACAD
1000
AcDbSavedByObjectVersion
1070
     0
  0
VISUALSTYLE
  5
FB
102
{ACAD_REACTORS
330
EF
102
}
330
EF
100
AcDbVisualStyle
  2
Brighten
 70
    12
177
     3
291
     1
 70
    58
 90
        2
176
     1
 90
        2
176
     1
 90
        1
176
     1
 90
        0
176
     1
 40
0.6
176
     1
 40
30.0
176
     1
 62
     7
420
 16777215
176
     1
 90
        1
176
     1
 90
        4
176
     1
 62
     7
176
     1
 62
   257
176
     1
 90
        1
176
     1
 90
        1
176
     1
 40
1.0
176
     1
 90
        8
176
     1
 62
     7
176
     1
 40
1.0
176
     1
 90
        1
176
     1
 90
        6
176
     1
 90
        2
176
     1
 62
     7
176
     1
 90
        5
176
     1
 90
        0
176
     1
 90
        0
176
     1
290
     0
176
     1
 90
        1
176
     1
 40
50.0
176
     1
 90
        0
176
     1
290
     0
176
     1
290
     1
176
     1
290
     1
176
     1
290
     0
176
     1
290
     0
176
     1
290
     0
176
     1
290
     0
176
     1
290
     0
176
     1
290
     0
176
     1
 90
       50
176
     1
 40
0.0
176
     1
 40
1.0
176
     1
 90
        0
176
     1
 62
    18
420
        0
176
     1
 90
       50
176
     1
 90
        3
176
     1
 62
     5
420
      255
176
     1
290
     0
176
     1
 90
       50
176
     1
 90
       50
176
     1
 90
       50
176
     1
290
     0
176
     1
 90
       50
176
     1
 62
   256
176
     0
 40
1.0
176
     0
 90
        2
176
     1
  1
strokes_ogs.tif
176
     1
290
     0
176
     1
 40
1.0
176
     1
 40
1.0
176
     1
1001
ACAD
1000
AcDbSavedByObjectVersion
1070
     0
  0
VISUALSTYLE
  5
FF
102
{ACAD_REACTORS
330
EF
102
}
330
EF
100
AcDbVisualStyle
  2
ColorChange
 70
    16
177
     3
291
     1
 70
    58
 90
        2
176
     1
 90
        2
176
     1
 90
        3
176
     1
 90
        0
176
     1
 40
0.6
176
     1
 40
30.0
176
     1
 62
     8
420
  8421504
176
     1
 90
        1
176
     1
 90
        4
176
     1
 62
     7
176
     1
 62
   257
176
     1
 90
        1
176
     1
 90
        1
176
     1
 40
1.0
176
     1
 90
        8
176
     1
 62
     8
420
  8421504
176
     1
 40
1.0
176
     1
 90
        1
176
     1
 90
        6
176
     1
 90
        2
176
     1
 62
     7
176
     1
 90
        5
176
     1
 90
        0
176
     1
 90
        0
176
     1
290
     0
176
     1
 90
        1
176
     1
 40
0.0
176
     1
 90
        0
176
     1
290
     0
176
     1
290
     1
176
     1
290
     1
176
     1
290
     0
176
     1
290
     0
176
     1
290
     0
176
     1
290
     0
176
     1
290
     0
176
     1
290
     0
176
     1
 90
       50
176
     1
 40
0.0
176
     1
 40
1.0
176
     1
 90
        0
176
     1
 62
    18
420
        0
176
     1
 90
       50
176
     1
 90
        3
176
     1
 62
     5
420
      255
176
     1
290
     0
176
     1
 90
       50
176
     1
 90
       50
176
     1
 90
       50
176
     1
290
     0
176
     1
 90
       50
176
     1
 62
   256
176
     0
 40
1.0
176
     0
 90
        2
176
     1
  1
strokes_ogs.tif
176
     1
290
     0
176
     1
 40
1.0
176
     1
 40
1.0
176
     1
1001
ACAD
1000
AcDbSavedByObjectVersion
1070
     0
  0
VISUALSTYLE
  5
F8
102
{ACAD_REACTORS
330
EF
102
}
330
EF
100
AcDbVisualStyle
  2
Conceptual
 70
     9
177
     3
291
     0
 70
    58
 90
        3
176
     1
 90
        2
176
     1
 90
        1
176
     1
 90
        0
176
     1
 40
0.6
176
     1
 40
30.0
176
     1
 62
     7
420
 16777215
176
     1
 90
        2
176
     1
 90
        2
176
     1
 62
     7
176
     1
 62
   257
176
     1
 90
        1
176
     1
 90
        1
176
     1
 40
40.0
176
     1
 90
        8
176
     1
 62
     7
176
     1
 40
1.0
176
     1
 90
        1
176
     1
 90
        6
176
     1
 90
        2
176
     1
 62
     7
176
     1
 90
        3
176
     1
 90
        0
176
     1
 90
        0
176
     1
290
     0
176
     1
 90
        1
176
     1
 40
0.0
176
     1
 90
        0
176
     1
290
     0
176
     1
290
     1
176
     1
290
     1
176
     1
290
     0
176
     1
290
     0
176
     1
290
     0
176
     1
290
     0
176
     1
290
     0
176
     1
290
     0
176
     1
 90
       50
176
     1
 40
0.0
176
     1
 40
1.0
176
     1
 90
        0
176
     1
 62
    18
420
        0
176
     1
 90
       50
176
     1
 90
        3
176
     1
 62
     5
420
      255
176
     1
290
     0
176
     1
 90
       50
176
     1
 90
       50
176
     1
 90
       50
176
     1
290
     0
176
     1
 90
       50
176
     1
 62
   256
176
     0
 40
1.0
176
     0
 90
        2
176
     1
  1
strokes_ogs.tif
176
     1
290
     0
176
     1
 40
1.0
176
     1
 40
1.0
176
     1
1001
ACAD
1000
AcDbSavedByObjectVersion
1070
     0
  0
VISUALSTYLE
  5
FA
102
{ACAD_REACTORS
330
EF
102
}
330
EF
100
AcDbVisualStyle
  2
Dim
 70
    11
177
     3
291
     1
 70
    58
 90
        2
176
     1
 90
        2
176
     1
 90
        1
176
     1
 90
        0
176
     1
 40
0.6
176
     1
 40
30.0
176
     1
 62
     7
420
 16777215
176
     1
 90
        1
176
     1
 90
        4
176
     1
 62
     7
176
     1
 62
   257
176
     1
 90
        1
176
     1
 90
        1
176
     1
 40
1.0
176
     1
 90
        8
176
     1
 62
     7
176
     1
 40
1.0
176
     1
 90
        1
176
     1
 90
        6
176
     1
 90
        2
176
     1
 62
     7
176
     1
 90
        5
176
     1
 90
        0
176
     1
 90
        0
176
     1
290
     0
176
     1
 90
        1
176
     1
 40
-50.0
176
     1
 90
        0
176
     1
290
     0
176
     1
290
     1
176
     1
290
     1
176
     1
290
     0
176
     1
290
     0
176
     1
290
     0
176
     1
290
     0
176
     1
290
     0
176
     1
290
     0
176
     1
 90
       50
176
     1
 40
0.0
176
     1
 40
1.0
176
     1
 90
        0
176
     1
 62
    18
420
        0
176
     1
 90
       50
176
     1
 90
        3
176
     1
 62
     5
420
      255
176
     1
290
     0
176
     1
 90
       50
176
     1
 90
       50
176
     1
 90
       50
176
     1
290
     0
176
     1
 90
       50
176
     1
 62
   256
176
     0
 40
1.0
176
     0
 90
        2
176
     1
  1
strokes_ogs.tif
176
     1
290
     0
176
     1
 40
1.0
176
     1
 40
1.0
176
     1
1001
ACAD
1000
AcDbSavedByObjectVersion
1070
     0
  0
VISUALSTYLE
  5
1E6
102
{ACAD_REACTORS
330
EF
102
}
330
EF
100
AcDbVisualStyle
  2
EdgeColorOff
 70
    22
177
     3
291
     1
 70
    58
 90
        2
176
     0
 90
        2
176
     0
 90
        0
176
     0
 90
        0
176
     0
 40
0.6
176
     0
 40
30.0
176
     0
 62
     7
420
 16777215
176
     0
 90
        1
176
     0
 90
        4
176
     0
 62
     7
176
     0
 62
   257
176
     0
 90
        1
176
     0
 90
        1
176
     0
 40
1.0
176
     0
 90
        8
176
     2
 62
     7
176
     0
 40
1.0
176
     0
 90
        1
176
     0
 90
        6
176
     0
 90
        2
176
     0
 62
     7
176
     0
 90
        5
176
     0
 90
        0
176
     0
 90
        0
176
     0
290
     0
176
     0
 90
        1
176
     0
 40
0.0
176
     0
 90
        0
176
     0
290
     0
176
     1
290
     1
176
     1
290
     1
176
     1
290
     0
176
     1
290
     0
176
     1
290
     0
176
     1
290
     0
176
     1
290
     0
176
     1
290
     0
176
     1
 90
       50
176
     1
 40
0.0
176
     1
 40
1.0
176
     1
 90
        0
176
     1
 62
    18
420
        0
176
     1
 90
       50
176
     1
 90
        3
176
     1
 62
     5
420
      255
176
     1
290
     0
176
     1
 90
       50
176
     1
 90
       50
176
     1
 90
       50
176
     1
290
     0
176
     1
 90
       50
176
     1
 62
   256
176
     0
 40
1.0
176
     0
 90
        2
176
     1
  1
strokes_ogs.tif
176
     1
290
     0
176
     1
 40
1.0
176
     1
 40
1.0
176
     1
1001
ACAD
1000
AcDbSavedByObjectVersion
1070
     0
  0
VISUALSTYLE
  5
FE
102
{ACAD_REACTORS
330
EF
102
}
330
EF
100
AcDbVisualStyle
  2
Facepattern
 70
    15
177
     3
291
     1
 70
    58
 90
        2
176
     1
 90
        2
176
     1
 90
        1
176
     1
 90
        0
176
     1
 40
0.6
176
     1
 40
30.0
176
     1
 62
     7
420
 16777215
176
     1
 90
        1
176
     1
 90
        4
176
     1
 62
     7
176
     1
 62
   257
176
     1
 90
        1
176
     1
 90
        1
176
     1
 40
1.0
176
     1
 90
        8
176
     1
 62
     7
176
     1
 40
1.0
176
     1
 90
        1
176
     1
 90
        6
176
     1
 90
        2
176
     1
 62
     7
176
     1
 90
        5
176
     1
 90
        0
176
     1
 90
        0
176
     1
290
     0
176
     1
 90
        1
176
     1
 40
0.0
176
     1
 90
        0
176
     1
290
     0
176
     1
290
     1
176
     1
290
     1
176
     1
290
     0
176
     1
290
     0
176
     1
290
     0
176
     1
290
     0
176
     1
290
     0
176
     1
290
     0
176
     1
 90
       50
176
     1
 40
0.0
176
     1
 40
1.0
176
     1
 90
        0
176
     1
 62
    18
420
        0
176
     1
 90
       50
176
     1
 90
        3
176
     1
 62
     5
420
      255
176
     1
290
     0
176
     1
 90
       50
176
     1
 90
       50
176
     1
 90
       50
176
     1
290
     0
176
     1
 90
       50
176
     1
 62
   256
176
     0
 40
1.0
176
     0
 90
        2
176
     1
  1
strokes_ogs.tif
176
     1
290
     0
176
     1
 40
1.0
176
     1
 40
1.0
176
     1
1001
ACAD
1000
AcDbSavedByObjectVersion
1070
     0
  0
VISUALSTYLE
  5
F0
102
{ACAD_REACTORS
330
EF
102
}
330
EF
100
AcDbVisualStyle
  2
Flat
 70
     0
177
     3
291
     1
 70
    58
 90
        2
176
     1
 90
        1
176
     1
 90
        1
176
     1
 90
        2
176
     1
 40
0.6
176
     1
 40
30.0
176
     1
 62
     7
420
 16777215
176
     1
 90
        0
176
     1
 90
        0
176
     1
 62
     7
176
     1
 62
   257
176
     1
 90
        1
176
     1
 90
        1
176
     1
 40
1.0
176
     1
 90
        8
176
     1
 62
     7
176
     1
 40
1.0
176
     1
 90
        1
176
     1
 90
        6
176
     1
 90
        2
176
     1
 62
     7
176
     1
 90
        5
176
     1
 90
        0
176
     1
 90
        0
176
     1
290
     0
176
     1
 90
       13
176
     1
 40
0.0
176
     1
 90
        0
176
     1
290
     0
176
     1
290
     1
176
     1
290
     1
176
     1
290
     0
176
     1
290
     0
176
     1
290
     0
176
     1
290
     0
176
     1
290
     0
176
     1
290
     0
176
     1
 90
       50
176
     1
 40
0.0
176
     1
 40
1.0
176
     1
 90
        0
176
     1
 62
    18
420
        0
176
     1
 90
       50
176
     1
 90
        3
176
     1
 62
     5
420
      255
176
     1
290
     0
176
     1
 90
       50
176
     1
 90
       50
176
     1
 90
       50
176
     1
290
     0
176
     1
 90
       50
176
     1
 62
   256
176
     0
 40
1.0
176
     0
 90
        2
176
     1
  1
strokes_ogs.tif
176
     1
290
     0
176
     1
 40
1.0
176
     1
 40
1.0
176
     1
1001
ACAD
1000
AcDbSavedByObjectVersion
1070
     0
  0
VISUALSTYLE
  5
F1
102
{ACAD_REACTORS
330
EF
102
}
330
EF
100
AcDbVisualStyle
  2
FlatWithEdges
 70
     1
177
     3
291
     1
 70
    58
 90
        2
176
     1
 90
        1
176
     1
 90
        1
176
     1
 90
        2
176
     1
 40
0.6
176
     1
 40
30.0
176
     1
 62
     7
420
 16777215
176
     1
 90
        1
176
     1
 90
        0
176
     1
 62
     7
176
     1
 62
   257
176
     1
 90
        1
176
     1
 90
        1
176
     1
 40
1.0
176
     1
 90
        0
176
     1
 62
   257
176
     1
 40
1.0
176
     1
 90
        1
176
     1
 90
        6
176
     1
 90
        2
176
     1
 62
     7
176
     1
 90
        5
176
     1
 90
        0
176
     1
 90
        0
176
     1
290
     0
176
     1
 90
       13
176
     1
 40
0.0
176
     1
 90
        0
176
     1
290
     0
176
     1
290
     1
176
     1
290
     1
176
     1
290
     0
176
     1
290
     0
176
     1
290
     0
176
     1
290
     0
176
     1
290
     0
176
     1
290
     0
176
     1
 90
       50
176
     1
 40
0.0
176
     1
 40
1.0
176
     1
 90
        0
176
     1
 62
    18
420
        0
176
     1
 90
       50
176
     1
 90
        3
176
     1
 62
     5
420
      255
176
     1
290
     0
176
     1
 90
       50
176
     1
 90
       50
176
     1
 90
       50
176
     1
290
     0
176
     1
 90
       50
176
     1
 62
   256
176
     0
 40
1.0
176
     0
 90
        2
176
     1
  1
strokes_ogs.tif
176
     1
290
     0
176
     1
 40
1.0
176
     1
 40
1.0
176
     1
1001
ACAD
1000
AcDbSavedByObjectVersion
1070
     0
  0
VISUALSTYLE
  5
F2
102
{ACAD_REACTORS
330
EF
102
}
330
EF
100
AcDbVisualStyle
  2
Gouraud
 70
     2
177
     3
291
     1
 70
    58
 90
        2
176
     1
 90
        2
176
     1
 90
        1
176
     1
 90
        2
176
     1
 40
0.6
176
     1
 40
30.0
176
     1
 62
     7
420
 16777215
176
     1
 90
        0
176
     1
 90
        0
176
     1
 62
     7
176
     1
 62
   257
176
     1
 90
        1
176
     1
 90
        1
176
     1
 40
1.0
176
     1
 90
        0
176
     1
 62
     7
176
     1
 40
1.0
176
     1
 90
        1
176
     1
 90
        6
176
     1
 90
        2
176
     1
 62
     7
176
     1
 90
        5
176
     1
 90
        0
176
     1
 90
        0
176
     1
290
     0
176
     1
 90
       13
176
     1
 40
0.0
176
     1
 90
        0
176
     1
290
     0
176
     1
290
     1
176
     1
290
     1
176
     1
290
     0
176
     1
290
     0
176
     1
290
     0
176
     1
290
     0
176
     1
290
     0
176
     1
290
     0
176
     1
 90
       50
176
     1
 40
0.0
176
     1
 40
1.0
176
     1
 90
        0
176
     1
 62
    18
420
        0
176
     1
 90
       50
176
     1
 90
        3
176
     1
 62
     5
420
      255
176
     1
290
     0
176
     1
 90
       50
176
     1
 90
       50
176
     1
 90
       50
176
     1
290
     0
176
     1
 90
       50
176
     1
 62
   256
176
     0
 40
1.0
176
     0
 90
        2
176
     1
  1
strokes_ogs.tif
176
     1
290
     0
176
     1
 40
1.0
176
     1
 40
1.0
176
     1
1001
ACAD
1000
AcDbSavedByObjectVersion
1070
     0
  0
VISUALSTYLE
  5
F3
102
{ACAD_REACTORS
330
EF
102
}
330
EF
100
AcDbVisualStyle
  2
GouraudWithEdges
 70
     3
177
     3
291
     1
 70
    58
 90
        2
176
     1
 90
        2
176
     1
 90
        1
176
     1
 90
        2
176
     1
 40
0.6
176
     1
 40
30.0
176
     1
 62
     7
420
 16777215
176
     1
 90
        1
176
     1
 90
        0
176
     1
 62
     7
176
     1
 62
   257
176
     1
 90
        1
176
     1
 90
        1
176
     1
 40
1.0
176
     1
 90
        0
176
     1
 62
   257
176
     1
 40
1.0
176
     1
 90
        1
176
     1
 90
        6
176
     1
 90
        2
176
     1
 62
     7
176
     1
 90
        5
176
     1
 90
        0
176
     1
 90
        0
176
     1
290
     0
176
     1
 90
       13
176
     1
 40
0.0
176
     1
 90
        0
176
     1
290
     0
176
     1
290
     1
176
     1
290
     1
176
     1
290
     0
176
     1
290
     0
176
     1
290
     0
176
     1
290
     0
176
     1
290
     0
176
     1
290
     0
176
     1
 90
       50
176
     1
 40
0.0
176
     1
 40
1.0
176
     1
 90
        0
176
     1
 62
    18
420
        0
176
     1
 90
       50
176
     1
 90
        3
176
     1
 62
     5
420
      255
176
     1
290
     0
176
     1
 90
       50
176
     1
 90
       50
176
     1
 90
       50
176
     1
290
     0
176
     1
 90
       50
176
     1
 62
   256
176
     0
 40
1.0
176
     0
 90
        2
176
     1
  1
strokes_ogs.tif
176
     1
290
     0
176
     1
 40
1.0
176
     1
 40
1.0
176
     1
1001
ACAD
1000
AcDbSavedByObjectVersion
1070
     0
  0
VISUALSTYLE
  5
F7
102
{ACAD_REACTORS
330
EF
102
}
330
EF
100
AcDbVisualStyle
  2
Hidden
 70
     6
177
     3
291
     0
 70
    58
 90
        1
176
     1
 90
        2
176
     1
 90
        2
176
     1
 90
        0
176
     1
 40
0.6
176
     1
 40
30.0
176
     1
 62
     7
420
 16777215
176
     1
 90
        2
176
     1
 90
        2
176
     1
 62
     7
176
     1
 62
   257
176
     1
 90
        2
176
     1
 90
        1
176
     1
 40
40.0
176
     1
 90
        0
176
     1
 62
   257
176
     1
 40
1.0
176
     1
 90
        1
176
     1
 90
        6
176
     1
 90
        2
176
     1
 62
     7
176
     1
 90
        3
176
     1
 90
        0
176
     1
 90
        0
176
     1
290
     0
176
     1
 90
        1
176
     1
 40
0.0
176
     1
 90
        0
176
     1
290
     0
176
     1
290
     1
176
     1
290
     1
176
     1
290
     0
176
     1
290
     0
176
     1
290
     0
176
     1
290
     0
176
     1
290
     0
176
     1
290
     0
176
     1
 90
       50
176
     1
 40
0.0
176
     1
 40
1.0
176
     1
 90
        0
176
     1
 62
    18
420
        0
176
     1
 90
       50
176
     1
 90
        3
176
     1
 62
     5
420
      255
176
     1
290
     0
176
     1
 90
       50
176
     1
 90
       50
176
     1
 90
       50
176
     1
290
     0
176
     1
 90
       50
176
     1
 62
   256
176
     0
 40
1.0
176
     0
 90
        2
176
     1
  1
strokes_ogs.tif
176
     1
290
     0
176
     1
 40
1.0
176
     1
 40
1.0
176
     1
1001
ACAD
1000
AcDbSavedByObjectVersion
1070
     0
  0
VISUALSTYLE
  5
1E4
102
{ACAD_REACTORS
330
EF
102
}
330
EF
100
AcDbVisualStyle
  2
JitterOff
 70
    20
177
     3
291
     1
 70
    58
 90
        2
176
     0
 90
        2
176
     0
 90
        0
176
     0
 90
        0
176
     0
 40
0.6
176
     0
 40
30.0
176
     0
 62
     7
420
 16777215
176
     0
 90
        1
176
     0
 90
        4
176
     0
 62
     7
176
     0
 62
   257
176
     0
 90
        1
176
     0
 90
        1
176
     0
 40
1.0
176
     0
 90
       10
176
     2
 62
     7
176
     0
 40
1.0
176
     0
 90
        1
176
     0
 90
        6
176
     0
 90
        2
176
     0
 62
     7
176
     0
 90
        5
176
     0
 90
        0
176
     0
 90
        0
176
     0
290
     0
176
     0
 90
        1
176
     0
 40
0.0
176
     0
 90
        0
176
     0
290
     0
176
     1
290
     1
176
     1
290
     1
176
     1
290
     0
176
     1
290
     0
176
     1
290
     0
176
     1
290
     0
176
     1
290
     0
176
     1
290
     0
176
     1
 90
       50
176
     1
 40
0.0
176
     1
 40
1.0
176
     1
 90
        0
176
     1
 62
    18
420
        0
176
     1
 90
       50
176
     1
 90
        3
176
     1
 62
     5
420
      255
176
     1
290
     0
176
     1
 90
       50
176
     1
 90
       50
176
     1
 90
       50
176
     1
290
     0
176
     1
 90
       50
176
     1
 62
   256
176
     0
 40
1.0
176
     0
 90
        2
176
     1
  1
strokes_ogs.tif
176
     1
290
     0
176
     1
 40
1.0
176
     1
 40
1.0
176
     1
1001
ACAD
1000
AcDbSavedByObjectVersion
1070
     0
  0
VISUALSTYLE
  5
FD
102
{ACAD_REACTORS
330
EF
102
}
330
EF
100
AcDbVisualStyle
  2
Linepattern
 70
    14
177
     3
291
     1
 70
    58
 90
        2
176
     1
 90
        2
176
     1
 90
        1
176
     1
 90
        0
176
     1
 40
0.6
176
     1
 40
30.0
176
     1
 62
     7
420
 16777215
176
     1
 90
        1
176
     1
 90
        4
176
     1
 62
     7
176
     1
 62
   257
176
     1
 90
        7
176
     1
 90
        7
176
     1
 40
1.0
176
     1
 90
        8
176
     1
 62
     7
176
     1
 40
1.0
176
     1
 90
        1
176
     1
 90
        6
176
     1
 90
        2
176
     1
 62
     7
176
     1
 90
        5
176
     1
 90
        0
176
     1
 90
        0
176
     1
290
     0
176
     1
 90
        1
176
     1
 40
0.0
176
     1
 90
        0
176
     1
290
     0
176
     1
290
     1
176
     1
290
     1
176
     1
290
     0
176
     1
290
     0
176
     1
290
     0
176
     1
290
     0
176
     1
290
     0
176
     1
290
     0
176
     1
 90
       50
176
     1
 40
0.0
176
     1
 40
1.0
176
     1
 90
        0
176
     1
 62
    18
420
        0
176
     1
 90
       50
176
     1
 90
        3
176
     1
 62
     5
420
      255
176
     1
290
     0
176
     1
 90
       50
176
     1
 90
       50
176
     1
 90
       50
176
     1
290
     0
176
     1
 90
       50
176
     1
 62
   256
176
     0
 40
1.0
176
     0
 90
        2
176
     1
  1
strokes_ogs.tif
176
     1
290
     0
176
     1
 40
1.0
176
     1
 40
1.0
176
     1
1001
ACAD
1000
AcDbSavedByObjectVersion
1070
     0
  0
VISUALSTYLE
  5
1E5
102
{ACAD_REACTORS
330
EF
102
}
330
EF
100
AcDbVisualStyle
  2
OverhangOff
 70
    21
177
     3
291
     1
 70
    58
 90
        2
176
     0
 90
        2
176
     0
 90
        0
176
     0
 90
        0
176
     0
 40
0.6
176
     0
 40
30.0
176
     0
 62
     7
420
 16777215
176
     0
 90
        1
176
     0
 90
        4
176
     0
 62
     7
176
     0
 62
   257
176
     0
 90
        1
176
     0
 90
        1
176
     0
 40
1.0
176
     0
 90
        9
176
     2
 62
     7
176
     0
 40
1.0
176
     0
 90
        1
176
     0
 90
        6
176
     0
 90
        2
176
     0
 62
     7
176
     0
 90
        5
176
     0
 90
        0
176
     0
 90
        0
176
     0
290
     0
176
     0
 90
        1
176
     0
 40
0.0
176
     0
 90
        0
176
     0
290
     0
176
     1
290
     1
176
     1
290
     1
176
     1
290
     0
176
     1
290
     0
176
     1
290
     0
176
     1
290
     0
176
     1
290
     0
176
     1
290
     0
176
     1
 90
       50
176
     1
 40
0.0
176
     1
 40
1.0
176
     1
 90
        0
176
     1
 62
    18
420
        0
176
     1
 90
       50
176
     1
 90
        3
176
     1
 62
     5
420
      255
176
     1
290
     0
176
     1
 90
       50
176
     1
 90
       50
176
     1
 90
       50
176
     1
290
     0
176
     1
 90
       50
176
     1
 62
   256
176
     0
 40
1.0
176
     0
 90
        2
176
     1
  1
strokes_ogs.tif
176
     1
290
     0
176
     1
 40
1.0
176
     1
 40
1.0
176
     1
1001
ACAD
1000
AcDbSavedByObjectVersion
1070
     0
  0
VISUALSTYLE
  5
F9
102
{ACAD_REACTORS
330
EF
102
}
330
EF
100
AcDbVisualStyle
  2
Realistic
 70
     8
177
     3
291
     0
 70
    58
 90
        2
176
     1
 90
        3
176
     1
 90
        0
176
     1
 90
        2
176
     1
 40
0.6
176
     1
 40
30.0
176
     1
 62
     7
420
 16777215
176
     1
 90
        0
176
     1
 90
        0
176
     1
 62
     7
176
     1
 62
   257
176
     1
 90
        1
176
     1
 90
        1
176
     1
 40
1.0
176
     1
 90
        8
176
     1
 62
   257
176
     1
 40
1.0
176
     1
 90
        1
176
     1
 90
        6
176
     1
 90
        2
176
     1
 62
     7
176
     1
 90
        3
176
     1
 90
        0
176
     1
 90
        0
176
     1
290
     0
176
     1
 90
       13
176
     1
 40
0.0
176
     1
 90
        0
176
     1
290
     0
176
     1
290
     1
176
     1
290
     1
176
     1
290
     0
176
     1
290
     0
176
     1
290
     0
176
     1
290
     0
176
     1
290
     0
176
     1
290
     0
176
     1
 90
       50
176
     1
 40
0.0
176
     1
 40
1.0
176
     1
 90
        0
176
     1
 62
    18
420
        0
176
     1
 90
       50
176
     1
 90
        3
176
     1
 62
     5
420
      255
176
     1
290
     0
176
     1
 90
       50
176
     1
 90
       50
176
     1
 90
       50
176
     1
290
     0
176
     1
 90
       50
176
     1
 62
   256
176
     0
 40
1.0
176
     0
 90
        2
176
     1
  1
strokes_ogs.tif
176
     1
290
     0
176
     1
 40
1.0
176
     1
 40
1.0
176
     1
1001
ACAD
1000
AcDbSavedByObjectVersion
1070
     0
  0
VISUALSTYLE
  5
1F3
102
{ACAD_REACTORS
330
EF
102
}
330
EF
100
AcDbVisualStyle
  2
Shaded
 70
    27
177
     3
291
     0
 70
    58
 90
        2
176
     1
 90
        2
176
     1
 90
        1
176
     1
 90
        2
176
     1
 40
0.6
176
     1
 40
30.0
176
     1
 62
     7
420
 16777215
176
     1
 90
        0
176
     1
 90
        4
176
     1
 62
     7
176
     1
 62
   257
176
     1
 90
        1
176
     1
 90
        1
176
     1
 40
1.0
176
     1
 90
        8
176
     1
 62
   257
176
     1
 40
1.0
176
     1
 90
        1
176
     1
 90
        6
176
     1
 90
        2
176
     1
 62
     8
420
  7895160
176
     1
 90
        3
176
     1
 90
        0
176
     1
 90
        0
176
     1
290
     0
176
     1
 90
        5
176
     1
 40
0.0
176
     1
 90
        0
176
     1
290
     0
176
     1
290
     1
176
     1
290
     1
176
     1
290
     0
176
     1
290
     0
176
     1
290
     0
176
     1
290
     0
176
     1
290
     0
176
     1
290
     0
176
     1
 90
       50
176
     1
 40
0.0
176
     1
 40
1.0
176
     1
 90
        0
176
     1
 62
    18
420
        0
176
     1
 90
       50
176
     1
 90
        3
176
     1
 62
     5
420
      255
176
     1
290
     0
176
     1
 90
       50
176
     1
 90
       50
176
     1
 90
       50
176
     1
290
     0
176
     1
 90
       50
176
     1
 62
   256
176
     0
 40
1.0
176
     0
 90
        2
176
     1
  1
strokes_ogs.tif
176
     1
290
     0
176
     1
 40
1.0
176
     1
 40
1.0
176
     1
1001
ACAD
1000
AcDbSavedByObjectVersion
1070
     0
  0
VISUALSTYLE
  5
1F2
102
{ACAD_REACTORS
330
EF
102
}
330
EF
100
AcDbVisualStyle
  2
Shaded with edges
 70
    26
177
     3
291
     0
 70
    58
 90
        2
176
     1
 90
        2
176
     1
 90
        1
176
     1
 90
        2
176
     1
 40
0.6
176
     1
 40
30.0
176
     1
 62
     7
420
 16777215
176
     1
 90
        1
176
     1
 90
        2
176
     1
 62
     7
176
     1
 62
   257
176
     1
 90
        2
176
     1
 90
        1
176
     1
 40
1.0
176
     1
 90
        8
176
     1
 62
   257
176
     1
 40
1.0
176
     1
 90
        1
176
     1
 90
        6
176
     1
 90
        2
176
     1
 62
     7
176
     1
 90
        3
176
     1
 90
        0
176
     1
 90
        0
176
     1
290
     0
176
     1
 90
        5
176
     1
 40
0.0
176
     1
 90
        0
176
     1
290
     0
176
     1
290
     1
176
     1
290
     1
176
     1
290
     0
176
     1
290
     0
176
     1
290
     0
176
     1
290
     0
176
     1
290
     0
176
     1
290
     0
176
     1
 90
       50
176
     1
 40
0.0
176
     1
 40
1.0
176
     1
 90
        0
176
     1
 62
    18
420
        0
176
     1
 90
       50
176
     1
 90
        3
176
     1
 62
     5
420
      255
176
     1
290
     0
176
     1
 90
       50
176
     1
 90
       50
176
     1
 90
       50
176
     1
290
     0
176
     1
 90
       50
176
     1
 62
   256
176
     0
 40
1.0
176
     0
 90
        2
176
     1
  1
strokes_ogs.tif
176
     1
290
     0
176
     1
 40
1.0
176
     1
 40
1.0
176
     1
1001
ACAD
1000
AcDbSavedByObjectVersion
1070
     0
  0
VISUALSTYLE
  5
1EF
102
{ACAD_REACTORS
330
EF
102
}
330
EF
100
AcDbVisualStyle
  2
Shades of Gray
 70
    23
177
     3
291
     0
 70
    58
 90
        2
176
     1
 90
        2
176
     1
 90
        3
176
     1
 90
        0
176
     1
 40
0.6
176
     1
 40
30.0
176
     1
 62
     7
420
 16777215
176
     1
 90
        2
176
     1
 90
        2
176
     1
 62
     7
176
     1
 62
     7
176
     1
 90
        1
176
     1
 90
        1
176
     1
 40
40.0
176
     1
 90
        8
176
     1
 62
     7
176
     1
 40
1.0
176
     1
 90
        1
176
     1
 90
        6
176
     1
 90
        2
176
     1
 62
     7
176
     1
 90
        3
176
     1
 90
        0
176
     1
 90
        0
176
     1
290
     0
176
     1
 90
        1
176
     1
 40
0.0
176
     1
 90
        0
176
     1
290
     0
176
     1
290
     1
176
     1
290
     1
176
     1
290
     0
176
     1
290
     0
176
     1
290
     0
176
     1
290
     0
176
     1
290
     0
176
     1
290
     0
176
     1
 90
       50
176
     1
 40
0.0
176
     1
 40
1.0
176
     1
 90
        0
176
     1
 62
    18
420
        0
176
     1
 90
       50
176
     1
 90
        3
176
     1
 62
     5
420
      255
176
     1
290
     0
176
     1
 90
       50
176
     1
 90
       50
176
     1
 90
       50
176
     1
290
     0
176
     1
 90
       50
176
     1
 62
   256
176
     0
 40
1.0
176
     0
 90
        2
176
     1
  1
strokes_ogs.tif
176
     1
290
     0
176
     1
 40
1.0
176
     1
 40
1.0
176
     1
1001
ACAD
1000
AcDbSavedByObjectVersion
1070
     0
  0
VISUALSTYLE
  5
1F0
102
{ACAD_REACTORS
330
EF
102
}
330
EF
100
AcDbVisualStyle
  2
Sketchy
 70
    24
177
     3
291
     0
 70
    58
 90
        1
176
     1
 90
        2
176
     1
 90
        2
176
     1
 90
        0
176
     1
 40
0.6
176
     1
 40
30.0
176
     1
 62
     7
420
 16777215
176
     1
 90
        2
176
     1
 90
        2
176
     1
 62
     7
176
     1
 62
     7
176
     1
 90
        1
176
     1
 90
        1
176
     1
 40
40.0
176
     1
 90
       11
176
     1
 62
     7
176
     1
 40
1.0
176
     1
 90
        1
176
     1
 90
        6
176
     1
 90
        2
176
     1
 62
     7
176
     1
 90
        6
176
     1
 90
        0
176
     1
 90
        0
176
     1
290
     0
176
     1
 90
        1
176
     1
 40
0.0
176
     1
 90
        0
176
     1
290
     0
176
     1
290
     1
176
     1
290
     1
176
     1
290
     0
176
     1
290
     0
176
     1
290
     0
176
     1
290
     0
176
     1
290
     0
176
     1
290
     0
176
     1
 90
       50
176
     1
 40
0.0
176
     1
 40
1.0
176
     1
 90
        0
176
     1
 62
    18
420
        0
176
     1
 90
       50
176
     1
 90
        3
176
     1
 62
     5
420
      255
176
     1
290
     0
176
     1
 90
       50
176
     1
 90
       50
176
     1
 90
       50
176
     1
290
     0
176
     1
 90
       50
176
     1
 62
   256
176
     0
 40
1.0
176
     0
 90
        2
176
     1
  1
strokes_ogs.tif
176
     1
290
     0
176
     1
 40
1.0
176
     1
 40
1.0
176
     1
1001
ACAD
1000
AcDbSavedByObjectVersion
1070
     0
  0
VISUALSTYLE
  5
FC
102
{ACAD_REACTORS
330
EF
102
}
330
EF
100
AcDbVisualStyle
  2
Thicken
 70
    13
177
     3
291
     1
 70
    58
 90
        2
176
     1
 90
        2
176
     1
 90
        1
176
     1
 90
        0
176
     1
 40
0.6
176
     1
 40
30.0
176
     1
 62
     7
420
 16777215
176
     1
 90
        1
176
     1
 90
        4
176
     1
 62
     7
176
     1
 62
   257
176
     1
 90
        1
176
     1
 90
        1
176
     1
 40
1.0
176
     1
 90
       12
176
     1
 62
     7
176
     1
 40
1.0
176
     1
 90
        1
176
     1
 90
        6
176
     1
 90
        2
176
     1
 62
     7
176
     1
 90
        5
176
     1
 90
        0
176
     1
 90
        0
176
     1
290
     0
176
     1
 90
        1
176
     1
 40
0.0
176
     1
 90
        0
176
     1
290
     0
176
     1
290
     1
176
     1
290
     1
176
     1
290
     0
176
     1
290
     0
176
     1
290
     0
176
     1
290
     0
176
     1
290
     0
176
     1
290
     0
176
     1
 90
       50
176
     1
 40
0.0
176
     1
 40
1.0
176
     1
 90
        0
176
     1
 62
    18
420
        0
176
     1
 90
       50
176
     1
 90
        3
176
     1
 62
     5
420
      255
176
     1
290
     0
176
     1
 90
       50
176
     1
 90
       50
176
     1
 90
       50
176
     1
290
     0
176
     1
 90
       50
176
     1
 62
   256
176
     0
 40
1.0
176
     0
 90
        2
176
     1
  1
strokes_ogs.tif
176
     1
290
     0
176
     1
 40
1.0
176
     1
 40
1.0
176
     1
1001
ACAD
1000
AcDbSavedByObjectVersion
1070
     0
  0
VISUALSTYLE
  5
F6
102
{ACAD_REACTORS
330
EF
102
}
330
EF
100
AcDbVisualStyle
  2
Wireframe
 70
     5
177
     3
291
     0
 70
    58
 90
        0
176
     1
 90
        2
176
     1
 90
        0
176
     1
 90
        0
176
     1
 40
0.6
176
     1
 40
30.0
176
     1
 62
     7
420
 16777215
176
     1
 90
        1
176
     1
 90
        4
176
     1
 62
     7
176
     1
 62
   257
176
     1
 90
        1
176
     1
 90
        1
176
     1
 40
1.0
176
     1
 90
        0
176
     1
 62
   257
176
     1
 40
1.0
176
     1
 90
        1
176
     1
 90
        6
176
     1
 90
        2
176
     1
 62
     7
176
     1
 90
        3
176
     1
 90
        0
176
     1
 90
        0
176
     1
290
     0
176
     1
 90
        1
176
     1
 40
0.0
176
     1
 90
        0
176
     1
290
     0
176
     1
290
     1
176
     1
290
     1
176
     1
290
     0
176
     1
290
     0
176
     1
290
     0
176
     1
290
     0
176
     1
290
     0
176
     1
290
     0
176
     1
 90
       50
176
     1
 40
0.0
176
     1
 40
1.0
176
     1
 90
        0
176
     1
 62
    18
420
        0
176
     1
 90
       50
176
     1
 90
        3
176
     1
 62
     5
420
      255
176
     1
290
     0
176
     1
 90
       50
176
     1
 90
       50
176
     1
 90
       50
176
     1
290
     0
176
     1
 90
       50
176
     1
 62
   256
176
     0
 40
1.0
176
     0
 90
        2
176
     1
  1
strokes_ogs.tif
176
     1
290
     0
176
     1
 40
1.0
176
     1
 40
1.0
176
     1
1001
ACAD
1000
AcDbSavedByObjectVersion
1070
     0
  0
VISUALSTYLE
  5
1F1
102
{ACAD_REACTORS
330
EF
102
}
330
EF
100
AcDbVisualStyle
  2
X-Ray
 70
    25
177
     3
291
     0
 70
    58
 90
        2
176
     1
 90
        2
176
     1
 90
        1
176
     1
 90
        1
176
     1
 40
0.5
176
     1
 40
30.0
176
     1
 62
     7
420
 16777215
176
     1
 90
        1
176
     1
 90
        0
176
     1
 62
     7
176
     1
 62
   257
176
     1
 90
        1
176
     1
 90
        1
176
     1
 40
1.0
176
     1
 90
        8
176
     1
 62
     7
176
     1
 40
1.0
176
     1
 90
        1
176
     1
 90
        6
176
     1
 90
        2
176
     1
 62
     7
176
     1
 90
        3
176
     1
 90
        0
176
     1
 90
        0
176
     1
290
     0
176
     1
 90
       13
176
     1
 40
0.0
176
     1
 90
        0
176
     1
290
     0
176
     1
290
     1
176
     1
290
     1
176
     1
290
     0
176
     1
290
     0
176
     1
290
     0
176
     1
290
     0
176
     1
290
     0
176
     1
290
     0
176
     1
 90
       50
176
     1
 40
0.0
176
     1
 40
1.0
176
     1
 90
        0
176
     1
 62
    18
420
        0
176
     1
 90
       50
176
     1
 90
        3
176
     1
 62
     5
420
      255
176
     1
290
     0
176
     1
 90
       50
176
     1
 90
       50
176
     1
 90
       50
176
     1
290
     0
176
     1
 90
       50
176
     1
 62
   256
176
     0
 40
1.0
176
     0
 90
        2
176
     1
  1
strokes_ogs.tif
176
     1
290
     0
176
     1
 40
1.0
176
     1
 40
1.0
176
     1
1001
ACAD
1000
AcDbSavedByObjectVersion
1070
     0
  0
DICTIONARYVAR
  5
146
102
{ACAD_REACTORS
330
5E
102
}
330
5E
100
DictionaryVariables
280
     0
  1
1:1
  0
DICTIONARYVAR
  5
259
102
{ACAD_REACTORS
330
5E
102
}
330
5E
100
DictionaryVariables
280
     0
  1
3.500000
  0
DICTIONARYVAR
  5
25A
102
{ACAD_REACTORS
330
5E
102
}
330
5E
100
DictionaryVariables
280
     0
  1
acadiso.lin
  0
DICTIONARYVAR
  5
145
102
{ACAD_REACTORS
330
5E
102
}
330
5E
100
DictionaryVariables
280
     0
  1
STANDARD
  0
DICTIONARYVAR
  5
84
102
{ACAD_REACTORS
330
5E
102
}
330
5E
100
DictionaryVariables
280
     0
  1
STANDARD
  0
DICTIONARYVAR
  5
227
102
{ACAD_REACTORS
330
5E
102
}
330
5E
100
DictionaryVariables
280
     0
  1
Metric50
  0
DICTIONARYVAR
  5
228
102
{ACAD_REACTORS
330
5E
102
}
330
5E
100
DictionaryVariables
280
     0
  1
Metric50
  0
DICTIONARYVAR
  5
5F
102
{ACAD_REACTORS
330
5E
102
}
330
5E
100
DictionaryVariables
280
     0
  1
2
  0
DICTIONARYVAR
  5
63
102
{ACAD_REACTORS
330
5E
102
}
330
5E
100
DictionaryVariables
280
     0
  1
1
  0
DICTIONARYVAR
  5
1AE
102
{ACAD_REACTORS
330
5E
102
}
330
5E
100
DictionaryVariables
280
     0
  1
0
  0
DICTIONARYVAR
  5
1AF
102
{ACAD_REACTORS
330
5E
102
}
330
5E
100
DictionaryVariables
280
     0
  1
0
  0
DICTIONARY
  5
3C4
102
{ACAD_REACTORS
330
3C2
102
}
330
3C2
100
AcDbDictionary
281
     1
  0
DICTIONARY
  5
3C3
102
{ACAD_REACTORS
330
3C2
102
}
330
3C2
100
AcDbDictionary
281
     1
  3
2330105448656
350
3BD
  3
2330105448672
350
3BE
  3
2330105448688
350
3BF
  3
2330105448704
350
3C0
  3
2330105448720
350
3C1
  0
DICTIONARY
  5
3CB
330
28E
100
AcDbDictionary
280
     1
281
     1
  3
ACAD_XREC_ROUNDTRIP
360
3CC
  0
DICTIONARY
  5
3C7
330
21C
100
AcDbDictionary
280
     1
281
     1
  3
ACAD_XREC_ROUNDTRIP
360
3C8
  0
DICTIONARY
  5
205
330
22
100
AcDbDictionary
280
     1
281
     1
  0
DICTIONARY
  5
1F9
330
ED
100
AcDbDictionary
280
     1
281
     1
  3
FBXASSET
360
1FA
  0
DICTIONARY
  5
1F7
330
EC
100
AcDbDictionary
280
     1
281
     1
  3
FBXASSET
360
1F8
  0
DICTIONARY
  5
173
330
EE
100
AcDbDictionary
280
     1
281
     1
  3
BUMPTILE
360
175
  3
DIFFUSETILE
360
174
  3
FBXASSET
360
1FB
  3
OPACITYTILE
360
176
  3
REFLECTIONTILE
360
177
  0
DICTIONARY
  5
3C9
330
28D
100
AcDbDictionary
280
     1
281
     1
  3
ACAD_XREC_ROUNDTRIP
360
3CA
  0
DICTIONARY
  5
3C5
330
21A
100
AcDbDictionary
280
     1
281
     1
  3
ACAD_XREC_ROUNDTRIP
360
3C6
  0
DICTIONARY
  5
162
330
7F
100
AcDbDictionary
280
     1
281
     1
  3
ACAD_ROUNDTRIP_2008_TABLESTYLE_CELLSTYLEMAP
360
3BB
  0
XRECORD
  5
3BD
102
{ACAD_REACTORS
330
3C3
102
}
330
3C3
100
AcDbXrecord
280
     1
  1
AcDb_Thumbnail_Schema
102
{ATTRRECORD
341
3BE
  2
AcDbDs::TreatedAsObjectData
280
     1
291
     1
102
ATTRRECORD}
102
{ATTRRECORD
341
3BF
  2
AcDbDs::Legacy
280
     1
291
     1
102
ATTRRECORD}
  2
AcDbDs::ID
280
    10
 91
        8
102
{ATTRRECORD
341
3C0
  2
AcDs:Indexable
280
     1
291
     1
102
ATTRRECORD}
102
{ATTRRECORD
341
3C1
  2
AcDbDs::HandleAttribute
280
     7
282
     1
102
ATTRRECORD}
  2
Thumbnail_Data
280
    15
 91
        0
  0
XRECORD
  5
3BE
102
{ACAD_REACTORS
330
3C3
102
}
330
3C3
100
AcDbXrecord
280
     1
  1
AcDbDs::TreatedAsObjectDataSchema
  2
AcDbDs::TreatedAsObjectData
280
     1
 91
        0
  0
XRECORD
  5
3BF
102
{ACAD_REACTORS
330
3C3
102
}
330
3C3
100
AcDbXrecord
280
     1
  1
AcDbDs::LegacySchema
  2
AcDbDs::Legacy
280
     1
 91
        0
  0
XRECORD
  5
3C0
102
{ACAD_REACTORS
330
3C3
102
}
330
3C3
100
AcDbXrecord
280
     1
  1
AcDbDs::IndexedPropertySchema
  2
AcDs:Indexable
280
     1
 91
        0
  0
XRECORD
  5
3C1
102
{ACAD_REACTORS
330
3C3
102
}
330
3C3
100
AcDbXrecord
280
     1
  1
AcDbDs::HandleAttributeSchema
  2
AcDbDs::HandleAttribute
280
     7
 91
        1
284
     1
  0
XRECORD
  5
3CC
102
{ACAD_REACTORS
330
3CB
102
}
330
3CB
100
AcDbXrecord
280
     1
102
DISPLAYNAME
  1
Imperial24
102
FLAGS
 90
        0
  0
XRECORD
  5
3C8
102
{ACAD_REACTORS
330
3C7
102
}
330
3C7
100
AcDbXrecord
280
     1
102
DISPLAYNAME
  1
Metric50
102
FLAGS
 90
        0
  0
XRECORD
  5
1FA
102
{ACAD_REACTORS
330
1F9
102
}
330
1F9
100
AcDbXrecord
280
     1
 70
     1
 90
429727718
  1
D62C5603-E3A1-4AEA-B7FB-FE5D8D0755AF
310
504B03040A0000080000CC70623B3DEE336E79000000790000001B0000006175746F6465736B2D64657369676E2D7061636B6167652E786D6C3C3F786D6C2076657273696F6E3D22312E302220656E636F64696E673D227574662D3822203F3E3C666F726D6174733E3C666F726D61743E687474703A2F2F736368656D612E
310
6175746F6465736B2E636F6D2F64657369676E2D7061636B6167652F323030393C2F666F726D61743E3C2F666F726D6174733E504B0304140006080800CC70623BD486FD9CA0000000F4000000130000005B436F6E74656E745F54797065735D2E786D6C7D8EC10E82300C865F65E91D8A1E8C310C0EEA1BF002731658846E
310
D98AC1B77784ABF1D8FE5FBFBF75BBCE937A534CCEB38643598122B6FEE978D0B0485F9C41B54DDD7D022595594E1A469170414C76A4D9A4D207E29CF43ECE46F218070CC6BECC4078ACAA135ACF422C856C0E68EA1BF5669944DDD7BCDE7B1F8E415D77AECB980613C2E4AC91FC167A2B244592486606FC29C8FD7F045B9A
310
EF7053A7E60B504B0304140006080800CC70623B853B8169EB0000007C01000008000000636F72652E786D6C8D90416EC3201045AF62CDB6C206821CC7C244919D9CA01740401C94182C03558F5F9C3852BBEB6A467FFE9B197D7EFC9E1EC5975982F5AE035262288C535E5B377690E21535501C055FBC8FBF6C503839990E
310
5619041F179FE64D52DE45E362569DD7661365082642A11EB9E920A89B99642953CC8E702F67A9EE7234257977194EC9EAE275C4EABCCF5EAD5940D4AC6F0E35A568B8F43562CD7046CD199FD07E60174276A7BE677B5EADB0E0D14EEFFB6A31321A0D82627C4084204C3F096B71DD52F6819B16635EADF63F509AF53FA164
310
5DDCD1EDDD17164090FCC8732078B56691CB33A85CD7DCC40F504B0304140006080800CC70623B55019EA25F0000007C00000007000000636E782E786D6C4DCB3B0E80201045D1AD90E915ED2CF8AC45050C11660C8261F98AB1B07AC9C97D42D718D865D3E909258CFD00CCE24AC6E326A164D74DC0B4128928FF32603847
310
2BA13128B1252AC747C6BAB984FC68F0B87FE8960A5C09FE86CFB69FBA01504B0304140006080800CC70623BDBABAAF470010000D40300000C0000006662782F636F72652E786D6CC553D16E823014FD95A6AF4B694182CC941A83FA05FB810A9511A125A5257EFE2E82712ECEB8A7F100CD39F7F69E734AF9FADC366850B6
310
AF8DCE7018308C942E4C59EB2AC3DE1D498AD15A706B8CFB56869196ADCAF00863C12B6B7C374385D14E6907A836A59A41D9F7CA615434B0C8705F7CAA5606D23BA8E84F41278B93AC54100640439DE0BDB320004D43C63716C7C399D30917DCFBBA9CD9BA8469F5B156168B24CED3F7248AC8769F27244EB73B92EED8862C
310
B7F13E0C179B3C8F979C8ECD82BBBABDAA2BAC924E9558448CBD9330242CFA08E3154B5651FCC6D215639C8EE5774DBE2B5F6CF2B5768B68963BB5F5588420E442FC700B1139D4CB01F450C1E918227C2E09DF070D8140C84E1E9AAB8F1340832A9CB13130A5F1376A908D57309505ECF2A0DF179C4E9D30F5B239B87E3823
310
7A79C6F31DE1A8A5AEC08474B03C7837EAE4938639B44E5932B833D2C6B6B279CDC613877FA26EE21F4A2A4C63EC7F29A2F301D1F9F7A0E37D145F504B0304140006080800CC70623B9C113CC27E0000009D0000000B0000006662782F636E782E786D6C4DCCDF0A83201C86E15B91DFB94BFB330DD428C8FB886521330DA7
310
6397BF1A1DECE883878F57749FCDA1B7892F1BBC047A23808C7F84D9FA55424E0BE6803A256208E9EF06C84F9B91703228B1C690F78B66B34CD9A5439DF5CF0BFBF65E35BCA1B8D6A5C6F540381E886698B5741C695F9503EBA150A2F8958E3DC3EA0B504B0304140006080800CC70623B7DF2F77C2A010000120200003100
310
00006662782F41393633353835312D344632462D344230382D423046372D3739314545314133324237412F636F72652E786D6C8D51DB8EC22014FC15C2939B0D2DB4B45643319AE817EC0F6041255A68B86CFCFC856D4D76DF7CE190393373060EDB3DC707F856CE6B6B7A480A0C81328395DA5C7B18C3057510EC3873D686
310
3F34088C18550F330C39BB3A1BA7051AAC09CA84841A2BD5020AEF55806078A44B0FFD7053A328440C89E1EFC52486BBB8AA8214A99D789CF9E05200300FC927E4FB4D5B375D43103D5527440FB843077C5AA3F5861C8F645F5787F59E95B390B318B55CE45AA638FAA2957BD7248B390B7A7CC51F9C124149C82B8C378810
310
84AB2F42B7B8DD56F413775B8C5999E9FF4471926F8AA236A1AE96B8B3CC434E5839373893369E1FAF30EA395917409EB7F26AF8801C171837A4A6AC9C89E9F9C9B1A58BA30FD6A5EF5DDDCF894B9AD9B6A59C957943A9FCAE2FD5BC4DFE03504B0304140006080800CC70623BAD7543B64E01000033030000300000006662
310
782F41393633353835312D344632462D344230382D423046372D3739314545314133324237412F636E782E786D6CD593CD6EC32010845F0571AD6CE3D48AD20813A9873E410FBD12D82434182C7EAAE6EDBB2424CD25871E7B41D6EC30B3FA84F9E67BB2E40B4234DE8DB46F1925E094D7C6ED479AD3AE5951B2113C789FEE
310
6C943839C1488B4C05DF079FE72A69D8C96C13AAD6B8631503449F83828872B949AC57D26200B826A308D316B4064D6E46FCDA41C05550DC9E483A00797BFD207EFB092A45DE9514C1BBD22178396BD39D891265658C238DEA00936C654E5E433CB65A26D9F6EDB5EBC14EBF49A45CB856E66048291F6939A9A81BB5C89177
310
38143CA680F4AA299D66A042CEB3354A2684DC9D8D178FE0D9B8B41CAAD720F880EE7EF93C0C18769E099ECC04D5A102C8049A8A05632F4DDF376CF1DE0F6BB65C2F8627B65A33C6BB62177CEBBDAD973006829F89F22E814B54F4BC2BE347F8AA8F681390B50FA73F804400B5F542E796F19FF974E7F78DB802FE05E20750
310
4B0304140006080800CC70623BE75B7789680500003C100000340000006662782F41393633353835312D344632462D344230382D423046372D3739314545314133324237412F6F626A656374732E786D6CAD575B8F9B3818FD2B887D06C22499CB8AA1CA655245D5B455A356FB305264C061D8018C6C3393D95FBFC7600890
310
A4CD5EF210B0B1BFEBF98E3F7B1FF6596ABC522E1296DF9BAE3D320D9A872C4AF2F8DE2CE5CEBA358D0FBEC719939D65A691938CDE9B6ADAF4BD98B3B2D05311DD91329583D9D5FC0F438434A7A611A644887B5384CF34233629258BA878B12322891DEFF6B66BD70BFB62634E8AE781D082709A4B588AF91C528CDA28B73F
310
1C998EEF39EABBEFA97FBD6A7C7E9553F9D3D79FE442923C3C523610337627CB87ABE99D359D4CC6D6E4FACAB5E6ABF9D2726FC6A3C5F56271377BB88362213924694B38DD99FE47C48627A1E7D49F5A8BB5E1A74C0A599ED3B0F21F1E56366B89112D681E218F0915D0D6F17AD41FBA2A369DCF6335D62ABBD39779D5DDD1
310
11D4D8DE3CBB96B2E04FB8202E41051754A1AA8E8F76B4C6DFE810B580B1547F4B84911149794252234D024EF8BBE963A95AE27B3D310A9D5C215C7960FAEE415ED75694C6AFB17BCACA5D99A60A9AA65F217B0BFC53292ACB92BF283FAD0D3621576592CB5BED907C2FA8E9DF794E35E97BEA31BED21FEB401ABB94C44839
310
DCACBF0E1C5DA8DA5B2F4DFFD32AD86F543D9E565E7056502E157C00AD2671CD534549AB752FCA9CDA00677A313F04E51B22FF19E57B300579E3C97EB29F682D92935CEC18CF901B7B54FD8C51F362B56FC72FE0B3C1EAE335EDCCBF5AEC39ADB17DC238973F804BA5E6F6BFE7AF1FB32E523BE9F3BD571418E3631DCA4D48
310
5250CF639223210A9446CA30052EDF057BD35F8329C1ECD84552BF0DC8D18BE7BCE23BFE6BD960AB4A7DE79923A103BEBD80F911CBAA2C60DB19B01CF164A5583B772EE6D3FFA56666CBCDA74DC97724A48F9A58967497E489C4D979006FD7A05E227A1EBDD0F737C623387A9C844D3709995625106D157315F8B8392CD4E0
310
A0B9A720C4BE9829CEF37EA1E13111214D53925356365ADA634861B52519DD27A00AEB808EAF0628E6F435519D446F45CF2C9CF5214F0A15B2F6D06B79DA3EE3CBF7F56780D2F4E7EF73A0F5E5B02A38D07DC852C6B7C1FBB6664213E0C39E3EBA7FF4E1AD23EA2829407C85E586727488B751B2DB9502BC7B228A3FD68B6E
310
A65A22397E690AA8D158D7E404EC8CDA235CC3B7D1898680131CEC2CDF2638C65196279577750F15884AEE19F94199155B92B13297978469D4F8D358DF0AEF7631E28DC8F0D9F437D5D39A83B2231A1D52D543813A824EF8D44BCFF2FA6A31BD1E8DAD87F1CCB526B3879935BF59CDADD5C37479BB1CDD4CA7B3556B516589
310
EF352754B706114D9C885EC9131DE6EFEB43D99AFE2391C2F958179413D7CFEF6B1B6DB1E7600F00DE6E5C67454A339A4BA2E0FBA85ED26F045D454F463DBFCE484C2F90F2E5E3666003662ED8F755951A7D1BECD5B30B550B2785C8E7320B7292A4838DDA71BBC863ED7613CAF659337A3354231D4FF4A182A54904C2898C
310
98B28C4AD0CE056CCF332A80986E571EE9DBC305BB5FEB7E509220A58D25CF042D712A806AC0AD0C657FDEF80D2D9CEAA2EE4D1C76F60BFE74219A06527D6F82DF6412526107381E55E353090704D085B52408A8913C4ED159D79BDA71BB4BC506F4831350EB6F975CD22D69BF7AC49B91A2C0A9DDA3D5CA36AD20FC478E37
310
E61844E2352865EBCB61A275A65283CAAA9DD27703B4102F5AF51EF5F573B75CBB5AD38BC845F7A49F82A0966A49C2E3EA5EA0ECD326CD965F1DB402C6FA8B51A4658C5C5E2EC9E214602E55810345408596591009A82E7E7FFACA19EEA299B14A0081A705CB3296EBC14CDF658DCD336EA6D1136881AAEB87B81AB9EE53D5
310
F5EB8BC8362082DA24122F98680A4E7930C01A0079749CEA14382A0783E5EBA5A10F8C098456A03D6A4AEB6BB881E2513747552A5DB22C7EDAF83BD5528081A365F7FF06504B0304140006080000CC70623B000000000000000000000000350000006662782F41393633353835312D344632462D344230382D423046372D37
310
39314545314133324237412F76657274696365732E62696E504B0304140006080800CC70623BF270F1330600000004000000360000006662782F41393633353835312D344632462D344230382D423046372D3739314545314133324237412F747269616E676C65732E62696E636660600000504B0304140006080000CC7062
310
3B000000000000000000000000370000006662782F41393633353835312D344632462D344230382D423046372D3739314545314133324237412F617474726962757465732E62696E504B0304140006080800CC70623B08DA0BD19000000041010000360000006662782F41393633353835312D344632462D344230382D4230
310
46372D3739314545314133324237412F6469726563746F72792E786D6C858F410AC3201045AF22B36F53E9A60B35CBEEBAE80D244E44489C6234F4F835464A48035D0DF398FF9F8AF63D0E6CC63039F212F8F9020C7D47C6792B21C5FE7403D62A1188E2E60C98D7234A5830286103A55745067B9D86B8A3CF9C7F90C11DE6
310
07FB144396D7B6A82D282E9A152AD114D5EF2CB866EEE831B8EEA07A7BB5A8D7D61A2BAAEB7FD5F70921FF497D00504B0304140006080800CC70623BEDD1DC58FD000000A00100003B0000006662782F41393633353835312D344632462D344230382D423046372D3739314545314133324237412F7265736F75726365732F
310
636F72652E786D6C8D504B6E833010BD0A9A6D65B00922041947112427E8052C33A156828DFCA97AFC9A40A576D7CDCCE87D344F8F9FBFE667F689CE6B6B3A6039850C8DB2A336530731DC4903D95970676DF82583CCC8193B5861107C72362E3BA4AC096842428D1D7107A5F7182053CF7474E0D507CE32973124857FE48B
310
540F3961CEF244279DE03EB81420DB9EAC1384436FA353E879B1B182C7A8C75DA3C7F453DF353A1075D537A7BA6464B8F535A99AE14A9A2BBD90E350DD183B5CFABE3AF262350B1EF4FC9351399401471025A527C218A1E53BAB5A5AB765F5469B96525EACF23FA6B88CFF34456DC2A1DCE36E360F82A5202F42F062ED2BAD
310
579969AFDD8A6F504B010214000A0000080000CC70623B3DEE336E79000000790000001B00000000000000000000000000000000006175746F6465736B2D64657369676E2D7061636B6167652E786D6C504B01021400140006080800CC70623BD486FD9CA0000000F40000001300000000000000000000000000B20000005B
310
436F6E74656E745F54797065735D2E786D6C504B01021400140006080800CC70623B853B8169EB0000007C010000080000000000000000000000000083010000636F72652E786D6C504B01021400140006080800CC70623B55019EA25F0000007C000000070000000000000000000000000094020000636E782E786D6C504B
310
01021400140006080800CC70623BDBABAAF470010000D40300000C00000000000000000000000000180300006662782F636F72652E786D6C504B01021400140006080800CC70623B9C113CC27E0000009D0000000B00000000000000000000000000B20400006662782F636E782E786D6C504B01021400140006080800CC70
310
623B7DF2F77C2A010000120200003100000000000000000000000000590500006662782F41393633353835312D344632462D344230382D423046372D3739314545314133324237412F636F72652E786D6C504B01021400140006080800CC70623BAD7543B64E010000330300003000000000000000000000000000D2060000
310
6662782F41393633353835312D344632462D344230382D423046372D3739314545314133324237412F636E782E786D6C504B01021400140006080800CC70623BE75B7789680500003C10000034000000000000000000000000006E0800006662782F41393633353835312D344632462D344230382D423046372D3739314545
310
314133324237412F6F626A656374732E786D6C504B01021400140006080000CC70623B0000000000000000000000003500000000000000000000000000280E00006662782F41393633353835312D344632462D344230382D423046372D3739314545314133324237412F76657274696365732E62696E504B01021400140006
310
080800CC70623BF270F133060000000400000036000000000000000000000000007B0E00006662782F41393633353835312D344632462D344230382D423046372D3739314545314133324237412F747269616E676C65732E62696E504B01021400140006080000CC70623B0000000000000000000000003700000000000000
310
000000000000D50E00006662782F41393633353835312D344632462D344230382D423046372D3739314545314133324237412F617474726962757465732E62696E504B01021400140006080800CC70623B08DA0BD1900000004101000036000000000000000000000000002A0F00006662782F41393633353835312D344632
310
462D344230382D423046372D3739314545314133324237412F6469726563746F72792E786D6C504B01021400140006080800CC70623BEDD1DC58FD000000A00100003B000000000000000000000000000E1000006662782F41393633353835312D344632462D344230382D423046372D3739314545314133324237412F7265
310
736F75726365732F636F72652E786D6C504B0506000000000E000E0080040000641100000000
  0
XRECORD
  5
1F8
102
{ACAD_REACTORS
330
1F7
102
}
330
1F7
100
AcDbXrecord
280
     1
 70
     1
 90
429727718
  1
30362254-06B7-45E0-A893-8CFA70E3D6BC
310
504B03040A0000080000CC70623B3DEE336E79000000790000001B0000006175746F6465736B2D64657369676E2D7061636B6167652E786D6C3C3F786D6C2076657273696F6E3D22312E302220656E636F64696E673D227574662D3822203F3E3C666F726D6174733E3C666F726D61743E687474703A2F2F736368656D612E
310
6175746F6465736B2E636F6D2F64657369676E2D7061636B6167652F323030393C2F666F726D61743E3C2F666F726D6174733E504B0304140006080800CC70623BD486FD9CA0000000F4000000130000005B436F6E74656E745F54797065735D2E786D6C7D8EC10E82300C865F65E91D8A1E8C310C0EEA1BF002731658846E
310
D98AC1B77784ABF1D8FE5FBFBF75BBCE937A534CCEB38643598122B6FEE978D0B0485F9C41B54DDD7D022595594E1A469170414C76A4D9A4D207E29CF43ECE46F218070CC6BECC4078ACAA135ACF422C856C0E68EA1BF5669944DDD7BCDE7B1F8E415D77AECB980613C2E4AC91FC167A2B244592486606FC29C8FD7F045B9A
310
EF7053A7E60B504B0304140006080800CC70623B1EC5D7A3EB0000007C01000008000000636F72652E786D6C8D90416EC3201045AF82665B6103C6756C6122AB4D4ED00B204C5C94182C03558F5F9C3852BBEB6A467FFE9B197D71FC9E6FE8CBACC17AD7032D0820E3B41FAD9B7A48F1820F808E52ACDEC75F36404ECDA687
310
4D0629A6D5A76597B477D1B89855E747B38B2A041301E95B6E7A08FAD3CCAA50296647B8168BD2573599823EBB0CA76447F43862C7BCCF5EAC59410E4DDD9C7973C2755553CCCFA4C603E3040F1565ED3B1FDE4E432BCA0D9622DAF9795FAF464533826484B498524CD807E51D79ED187F21878E10516EF63F505AC67F42C9
310
BA58B1FDDD071640D2FCC87D2045B96591CB3DA85CB7DCE40F504B0304140006080800CC70623B55019EA25F0000007C00000007000000636E782E786D6C4DCB3B0E80201045D1AD90E915ED2CF8AC45050C11660C8261F98AB1B07AC9C97D42D718D865D3E909258CFD00CCE24AC6E326A164D74DC0B4128928FF32603847
310
2BA13128B1252AC747C6BAB984FC68F0B87FE8960A5C09FE86CFB69FBA01504B0304140006080800CC70623B8C9102E971010000D40300000C0000006662782F636F72652E786D6CC5535B6E833010BC8AE5DF0A6C08340F1947A84D4ED00B38C6A128602363A31CBFCB234A53A551FA553EC09AD9F5CE8C31DB9E9B1AF5CA
310
7695D1198E428A91D2D214952E33ECDD315861B4E5CC1AE3BE9561A445A3323CC098B3D21ADFCE9034DA29ED00D5A6503328BA4E398C640D8B0C77F253352214DE4145770A5B214FA2546114020D759C75CE8200340D19DE981F0F6746269C33EFAB6266AB02A655C74A59CCF365BADC27CB5D902ED22848F6340DF238A141
310
BE88E2F57B92BFEDF23523433367AE6A2EEAA455C2A902F398D2751045018D3FA264435F3771F242571B4A1919CA6F9A7C5B3CD9E42BED16F12C776AEB308F40C848FC700B1139D4891EF410CEC810227CC6846F8386402064270EF5C5C709A05E49676C024C61FC95EA45ED154CA5211D1FF4FB8291A913A68E9B83EBBB33
310
E2A7673CDE118E5AE8124C0807CB8377834E366998436B950D7A7746DAD846D4CFD978E0F04FD455FC5D49D2D4C6FE9722321F10997F0F32DC47FE05504B0304140006080800CC70623BFFEA85907E0000009D0000000B0000006662782F636E782E786D6C4DCCD10A83201886E15B91FFDC95D95A811AB6F23E625948A6C3
310
E9D8E5AF46073BFAE0E1E365ED67B3E8ADC3CB78C7815C7240DA3DFC64DCC221C519D7805AC182F7F1EF06C88D9BE6703008B6049F9E274D7A1E938DBB5AE3D6131B2589BA0D3D965551E0B2EA732C9B9A624AAEB41E3A557677029960D9AFB4EF11165F504B0304140006080800CC70623B4FEEA4082C0100001202000031
310
0000006662782F39464131463745442D413632322D343644302D413938332D3331353338454246344243312F636F72652E786D6C8D515B6EC32010BC0AE2AB55850DD871ED0813254D72825EC00192A2C460F1A872FC42ED48ED5F7E00CDCECCCEB26C731F6FE05B39AFADE921293004CA082BB5B9F43086336A21D870E6AC
310
0D7F68109861543DCC30E4ECE26C9C164858139409093556AA051CBC570102714B8F1E7AF1A5C6A11862480C7F2DA6415C878B2A4891CA89C7990F2E050073937C42DE1DB7E4F87ED8A36D4329AA9B3D46DBAEAD504556557BD81DEBDD0761E52CE42C462D17B996298E3E6BE59E35C962CE821E1FF18553435012728A7187
310
0841987E927A8D9B35ADDF70BBC6989599FE4F1427F9A4286A132ABAC49D651EF234CD5CE04CDA78BA3DC2A8FB645D00B9DF8B57E215725C60BCA2A463E54C4CE327C7A65E1C7DB02E7DEFCBF594B864C5CA6CDBD49C957943E9FA5D5FBAF336F90F504B0304140006080800CC70623BAD7543B64E01000033030000300000
310
006662782F39464131463745442D413632322D343644302D413938332D3331353338454246344243312F636E782E786D6CD593CD6EC32010845F0571AD6CE3D48AD20813A9873E410FBD12D82434182C7EAAE6EDBB2424CD25871E7B41D6EC30B3FA84F9E67BB2E40B4234DE8DB46F1925E094D7C6ED479AD3AE5951B2113C
310
789FEE6C943839C1488B4C05DF079FE72A69D8C96C13AAD6B8631503449F83828872B949AC57D26200B826A308D316B4064D6E46FCDA41C05550DC9E483A00797BFD207EFB092A45DE9514C1BBD22178396BD39D891265658C238DEA00936C654E5E433CB65A26D9F6EDB5EBC14EBF49A45CB856E66048291F6939A9A81BB5
310
C8917738143CA680F4AA299D66A042CEB3354A2684DC9D8D178FE0D9B8B41CAAD720F880EE7EF93C0C18769E099ECC04D5A102C8049A8A05632F4DDF376CF1DE0F6BB65C2F8627B65A33C6BB62177CEBBDAD973006829F89F22E814B54F4BC2BE347F8AA8F681390B50FA73F804400B5F542E796F19FF974E7F78DB802FE05
310
E207504B0304140006080800CC70623B16AB87BA640500003C100000340000006662782F39464131463745442D413632322D343644302D413938332D3331353338454246344243312F6F626A656374732E786D6CAD575B6FA33818FD2B887DE6924B3BED8A326A92B68A663B534DD4D13E548A0C38942D60649B369D5FBFC7
310
600890A493BDE42160637FD7F31D7FF63E6FB3D478A55C242CBF3247B66B1A340F5994E4F19559CA8D75611A9F7D8F33263BCB4C232719BD32D5B4E97B316765A1A722BA21652A07B3B7B33F0D11D29C9A46981221AE4C113ED38CD8A4942CA2E2C58E882476BCD9DA23BB5ED8171B73523C0F841684D35CC252CCE79062D4
310
468DFA43D7747CCF51DF7D4FFDEB5593E3AB9CCA9FBEFE241792E4E19EB28198C968BAB8199F5D5A67D3E9C49A9E8F47D6EC76B6B0469F26EEFC7C3EBFBCBEB98462213924694B38DD98FE1D62C393D073EA4FADC5DAF04326852CCF6958F90F0F2B9BB5C48816348F90C7840A68EB78EDF68723159BCEE7891A6B95DDE9D3
310
BCEAEEE8086A6C6F9E5D4B59F0175C10A7A0820BAA5055C7473B5AE3CFDD452D602CD5DF12616444529E90D448938013FE6EFA58AA96F85E4F8C42275708571E98FE6827AF6B2B4AE3D7D83D64E5A64C53054DD3AF90BD06FEA9149565C94FCA0F6B834DC85599E4F2423B24DF0B6AFA979E534DFA9E7A4CC6FA631D486393
310
921829879BF5D781A373557BCB85E97FB90DB62B558F8795179C15944B051F40AB495CF35451D26A4727654E6D8033BD98EF82F21D91FF8AF2DD9982BCF1643BDD4EB516C9492E368C67C88DED563FC36D5EACF66DFF057C3658BDBFA69DF9578B3DA735B64F18C7F20770A9D45CFCF7FCF563D6456A277DBEF78A02637CA2
310
43B90A490AEAB94F72244481D24819A6C0E59B606BFA4B3025981DBB48EAB701D97BF19C577CC77F2D1B6C55A9EF3C732474C0B727303F625995056C3B02963D9EAC146BE78EC5FCEC7FA999EBC5EACBAAE41B12D27B4D2C0BBA49F244E2ECDC81B76B502F113D8F5EE8FB1BE3111CDD4FC2AA9B844CAB1288B68AB90A7CDC
310
1C166AB0D3DC5310625FCC14E779BFD0709F8890A629C9292B1B2DED31A4B0DA928CEE135085754027E3018A397D4D5427D15BD1330B677DC8934285AC3DF45A9EB68FF8F2B8FC0A509AFEECFD0FF2DE25CC6047F7214B195F07EFEB9A094D800F7BFAE8FED187B78EA8A3A400F115961BCAD1215E47C966530AF0EE8128FE
310
58CEBB996A8964FFA529A046635D9353B0336A8F700DDF46271A024E70B0B37C9DE01847591E54DED53D54202AB947E4076556AC49C6CA5C9E1226B7F1A7B1BE15DEED62C41B91E1B3E9AFAAA735036547343A925075041DF0A9979E893B391F8FCFA6967B3EFB644DCF6E5CEBFAE272625DCC6FAF3FB93793C5F90CE1EF57
310
407342756B10D1C489E8953CD1617E5CEECAD6F4EF8914CE5D5D504E5C3F1F9736DA62CFC11E00BCDDB8CC8A9466349744C1F75EBDA4DF09BA8A9E8C7A7E9991989E20E5DBDD6A6003664ED8F7A04A8DBE0DF6EAD9B9AA858342E47399053949D2C146EDB85DE4B176BB0965FBAC19BD19AA918E27FA50C1D22402E144464C
310
59462568E704B6E71915404CB72B8FF4EDE184DDAF753F284990D2C6926782963815403548A70C657FDEF80D2D9CEAA2AE4C1C76F60BFE74219A06527D6582DF6412526107381E55E353090704D085B52408D0933C4ED159D79BDA71BB4BC506F4831350EB6F979CD22D69BF7AC49B91A2C0A9DDA3D5CA36AD20FC478E37E6
310
1844E2352865EBCB6EA275A652E3836BE04EFB400BF1A2556F515F1FBB35B2AB35BD889C744FFA1004B5544B121E57F70215746DD2F5E2C1412B602CBF19455AC6C8E5E9922C4E01E65215385004546899059180EAFCF7A707CE7017CD8CDB0410789AB32C63B91E5CEBBBACB17AC6CD347A022D5075FD106377347AAABA7E
310
7D11590744509B44E205134DC1290F06580320F78E537D3D73540E06CB970B431F185308AD40BBD794D6D77003C5A36E8EAA54BA64597CD8F83BD552A080A365F7FF06504B0304140006080000CC70623B000000000000000000000000350000006662782F39464131463745442D413632322D343644302D413938332D3331
310
353338454246344243312F76657274696365732E62696E504B0304140006080800CC70623BF270F1330600000004000000360000006662782F39464131463745442D413632322D343644302D413938332D3331353338454246344243312F747269616E676C65732E62696E636660600000504B0304140006080000CC70623B
310
000000000000000000000000370000006662782F39464131463745442D413632322D343644302D413938332D3331353338454246344243312F617474726962757465732E62696E504B0304140006080800CC70623B08DA0BD19000000041010000360000006662782F39464131463745442D413632322D343644302D413938
310
332D3331353338454246344243312F6469726563746F72792E786D6C858F410AC3201045AF22B36F53E9A60B35CBEEBAE80D244E44489C6234F4F835464A48035D0DF398FF9F8AF63D0E6CC63039F212F8F9020C7D47C6792B21C5FE7403D62A1188E2E60C98D7234A5830286103A55745067B9D86B8A3CF9C7F90C11DE607
310
FB144396D7B6A82D282E9A152AD114D5EF2CB866EEE831B8EEA07A7BB5A8D7D61A2BAAEB7FD5F70921FF497D00504B0304140006080800CC70623B0D6EF93BFE000000A00100003B0000006662782F39464131463745442D413632322D343644302D413938332D3331353338454246344243312F7265736F75726365732F63
310
6F72652E786D6C8D50596E833010BD0A9ADFCA60B334011947A8694ED00B586642AC041B79A97AFC9A40A5F6AF3F33A3B7689E1E3F7DCD8FEC139DD7D6F4C0720A191A65476DA61E62B892236427C19DB5E1970C322367EC618541F0C9D9B8EC90B226A009093576C41D94DE63804C3DD2D18357379C652E63480A7FCF17A9
310
EE72C29CE5894E3AC17D702940B63D59270887DE46A7D0F36263058F518FBB468FE9A7BE6A7420864373B8D4873369AA8691FA421B3294352543C5CAF65C0F6FEF43CB8BD52C78D0F34F46E550061C419494B6843142CB0F5677F4B52BEB177AEC28E5C52AFF638ACBF84F53D42654E51E77B379102C05791282176B5F693D
310
CB4C7BED567C03504B010214000A0000080000CC70623B3DEE336E79000000790000001B00000000000000000000000000000000006175746F6465736B2D64657369676E2D7061636B6167652E786D6C504B01021400140006080800CC70623BD486FD9CA0000000F40000001300000000000000000000000000B20000005B
310
436F6E74656E745F54797065735D2E786D6C504B01021400140006080800CC70623B1EC5D7A3EB0000007C010000080000000000000000000000000083010000636F72652E786D6C504B01021400140006080800CC70623B55019EA25F0000007C000000070000000000000000000000000094020000636E782E786D6C504B
310
01021400140006080800CC70623B8C9102E971010000D40300000C00000000000000000000000000180300006662782F636F72652E786D6C504B01021400140006080800CC70623BFFEA85907E0000009D0000000B00000000000000000000000000B30400006662782F636E782E786D6C504B01021400140006080800CC70
310
623B4FEEA4082C0100001202000031000000000000000000000000005A0500006662782F39464131463745442D413632322D343644302D413938332D3331353338454246344243312F636F72652E786D6C504B01021400140006080800CC70623BAD7543B64E010000330300003000000000000000000000000000D5060000
310
6662782F39464131463745442D413632322D343644302D413938332D3331353338454246344243312F636E782E786D6C504B01021400140006080800CC70623B16AB87BA640500003C1000003400000000000000000000000000710800006662782F39464131463745442D413632322D343644302D413938332D3331353338
310
454246344243312F6F626A656374732E786D6C504B01021400140006080000CC70623B0000000000000000000000003500000000000000000000000000270E00006662782F39464131463745442D413632322D343644302D413938332D3331353338454246344243312F76657274696365732E62696E504B01021400140006
310
080800CC70623BF270F133060000000400000036000000000000000000000000007A0E00006662782F39464131463745442D413632322D343644302D413938332D3331353338454246344243312F747269616E676C65732E62696E504B01021400140006080000CC70623B0000000000000000000000003700000000000000
310
000000000000D40E00006662782F39464131463745442D413632322D343644302D413938332D3331353338454246344243312F617474726962757465732E62696E504B01021400140006080800CC70623B08DA0BD190000000410100003600000000000000000000000000290F00006662782F39464131463745442D413632
310
322D343644302D413938332D3331353338454246344243312F6469726563746F72792E786D6C504B01021400140006080800CC70623B0D6EF93BFE000000A00100003B000000000000000000000000000D1000006662782F39464131463745442D413632322D343644302D413938332D3331353338454246344243312F7265
310
736F75726365732F636F72652E786D6C504B0506000000000E000E0080040000641100000000
  0
XRECORD
  5
175
102
{ACAD_REACTORS
330
173
102
}
330
173
100
AcDbXrecord
280
     1
270
     1
271
     1
  0
XRECORD
  5
174
102
{ACAD_REACTORS
330
173
102
}
330
173
100
AcDbXrecord
280
     1
270
     1
271
     1
  0
XRECORD
  5
1FB
102
{ACAD_REACTORS
330
173
102
}
330
173
100
AcDbXrecord
280
     1
 70
     0
 90
1673772943
  1
ECE7A1D2-D628-4531-984C-D00F80459256
310
504B03040A0000080000CC70623B3DEE336E79000000790000001B0000006175746F6465736B2D64657369676E2D7061636B6167652E786D6C3C3F786D6C2076657273696F6E3D22312E302220656E636F64696E673D227574662D3822203F3E3C666F726D6174733E3C666F726D61743E687474703A2F2F736368656D612E
310
6175746F6465736B2E636F6D2F64657369676E2D7061636B6167652F323030393C2F666F726D61743E3C2F666F726D6174733E504B0304140006080800CC70623BD486FD9CA0000000F4000000130000005B436F6E74656E745F54797065735D2E786D6C7D8EC10E82300C865F65E91D8A1E8C310C0EEA1BF002731658846E
310
D98AC1B77784ABF1D8FE5FBFBF75BBCE937A534CCEB38643598122B6FEE978D0B0485F9C41B54DDD7D022595594E1A469170414C76A4D9A4D207E29CF43ECE46F218070CC6BECC4078ACAA135ACF422C856C0E68EA1BF5669944DDD7BCDE7B1F8E415D77AECB980613C2E4AC91FC167A2B244592486606FC29C8FD7F045B9A
310
EF7053A7E60B504B0304140006080800CC70623BD9DDAED0EC0000007C01000008000000636F72652E786D6C8D90416EC3201045AF82665B61836D9CD8C2444DD39CA01740405C94182C03558F5F9C3852BBEB6A467FFE9B197D7EF89E6EE8CB2CC17A37002D0820E394D7D68D03A478C17B4007C117EFE32F1B20272733C0
310
2A83E0E3E2D3BC49CABB685CCCAAF3DA6CA20CC14440EA969B0182FA34932C648AD911AEC52CD5558EA6A0CF2EC329598D1E47ACCEFBECC59A050463A7EA5833865FEBDD0E37353BE3EE8DBDE3F6786A48D375FBF6CC78B9C282473B3DEFABC5C86834888A900E538A49F5419B9EB47DD5BC907D4F082F57FB1F28CDFA9F50
310
B22ED6D5F6EE030B20687EE43E10BC5CB3C8E51E54AE6B6EE207504B0304140006080800CC70623B55019EA25F0000007C00000007000000636E782E786D6C4DCB3B0E80201045D1AD90E915ED2CF8AC45050C11660C8261F98AB1B07AC9C97D42D718D865D3E909258CFD00CCE24AC6E326A164D74DC0B4128928FF326038
310
472BA13128B1252AC747C6BAB984FC68F0B87FE8960A5C09FE86CFB69FBA01504B0304140006080800CC70623BA24EB22D72010000D40300000C0000006662782F636F72652E786D6CC5535B6E833010BC8AE5DF0A6C5E49888CA3A6694ED00B38E05014B091B1518EDFE511A5A9D228FD2A1F60CDEC7A67C6986DCE4D8D7A
310
69BA4AAB0C073EC548AA5C17952A33ECECD15B61B4E1CC686DBF9561A44423333CC098B3D268D7CE50AE9595CA02AA74216750749DB418E5352C32DCE59FB211BE70162ABA93DF8AFC244AE9073ED050C759670D0840D390E18DF9F1706664C23973AE2A66B62A605A75ACA4C13C4976E1364A12EF355A2EBD384AF65EFA96
310
BC7B8BED2EA6719AAE16FB8491A199335B351775B991C2CA02F390D2D40B028F861F41BCA68B7518BFD0D59A524686F29B26D7164F36B94AD9289CE54E6D1DE6010819891F6E21228B3AD1831EC219194284CF98F06DD01008846CC5A1BEF83801D4CBDC6A1303536877A57A513B0953A94FC707FDBE6064EA84A9E3E6E0FA
310
EE8CF0E9198F7784A316AA0413C2C2F2E0ECA0934D1AE6D05A69BCDE9E91D2A611F573361E38FC1375157F5752AE6B6DFE4B11990F88CCBF0719EE23FF02504B0304140006080800CC70623B408A7D3B7C0000009D0000000B0000006662782F636E782E786D6C4DCCD10A83201886E15B91FFDC552A92A0064DBC8F581632
310
D3703A76F9ABD1C18E3E78F878E5F0D9027ABBFCF2292AE86E2D20171F69F6715550CB827B40839639A5F2770314A7CD293819B45C73AAFB45B35BA61ACAA1C1C7E7855C58C15BC331339661262CC762340413D68D77DA5B42298546CBE6573AF60CEB2F504B0304140006080800CC70623B449FB9BD290100001202000031
310
0000006662782F36394639363044362D344446342D343946362D394244322D3234314243333846323333332F636F72652E786D6C8D515B6EC32010BC0AE22B55850D98B871848994463E412FE002495162B07854397EA176A4F62F3F2C9A9D991D587EB84F37F0AD7D30CEF6905418026DA553C65E7A98E219ED203808EE9D
310
8B7F6810D871D23D2C3014FCE25D9A57483A1BB58D19B54EE9151C43D0110279CB971E06F9A5A7B11A53CC8C70ADE6515EC78BAE4895DB992778883E0700CB907242D17643D7E2538BD869608875438BBAE38922CAC8F1BDD90DB4691A5E2F42C153326A951B95E398B3D1FE599322163C9AE9115F7A3D46ADA0A018778810
310
84E907617BDCEE297BC5BB3DC6BC2EF47FA234AB2745C9D8D8D035EE220B50105E2F0DC1954B9FB747187D9F9D8FA0CCDB042D5FA0C015C65B42DF78BD10F3F3B363CB56C7109DCFDFBBB97E662ED92EB62D13BC2E1BCAE5777DB9966D8A1F504B0304140006080800CC70623BAD7543B64E01000033030000300000006662
310
782F36394639363044362D344446342D343946362D394244322D3234314243333846323333332F636E782E786D6CD593CD6EC32010845F0571AD6CE3D48AD20813A9873E410FBD12D82434182C7EAAE6EDBB2424CD25871E7B41D6EC30B3FA84F9E67BB2E40B4234DE8DB46F1925E094D7C6ED479AD3AE5951B2113C789FEE
310
6C943839C1488B4C05DF079FE72A69D8C96C13AAD6B8631503449F83828872B949AC57D26200B826A308D316B4064D6E46FCDA41C05550DC9E483A00797BFD207EFB092A45DE9514C1BBD22178396BD39D891265658C238DEA00936C654E5E433CB65A26D9F6EDB5EBC14EBF49A45CB856E66048291F6939A9A81BB5C89177
310
38143CA680F4AA299D66A042CEB3354A2684DC9D8D178FE0D9B8B41CAAD720F880EE7EF93C0C18769E099ECC04D5A102C8049A8A05632F4DDF376CF1DE0F6BB65C2F8627B65A33C6BB62177CEBBDAD973006829F89F22E814B54F4BC2BE347F8AA8F681390B50FA73F804400B5F542E796F19FF974E7F78DB802FE05E20750
310
4B0304140006080800CC70623B8D05915C650500003B100000340000006662782F36394639363044362D344446342D343946362D394244322D3234314243333846323333332F6F626A656374732E786D6CAD575B6FA33814FE2B887D06429276DA1565D4266D158D3A339A6846FB502932E050B66023DB74D2FDF5FB190C01
310
9276B2973C046C8ECFF53B17071F77456EBD502133CEAE6CDF9DD81665314F32965ED995DA3A17B6F5310C04E7AA47665B8C14F4CAD6DB7618A48257A5D94AE89654B91AEDDEDDFC61C998326A5B714EA4BCB265FC440BE2924AF184CA6737218AB8E976E7FA6E4338649B0A523E8D98964450A6A029F619B8588D52FE7039
310
B1BD30F0F4F730D0FF866AF6369557DB33949F31A9088B0F848DD8CCFCF9F2767A76E99CCDE733677E3EF59D9BBB9BA5E37F984D16E78BC5E5F5ED25044B25C0C96822E8D60EEFE11B91C581D77CEA34368A1F5329E68CD1B8B61F16D63A1B8E092D294B10C78C4A48EB593D192E7DED9BDEE7995E1B91FDEDD3ACEA9FE831
310
6A756F9F7D4D79F4274C90A7A04248AA51D5F8C718DAE06FB2F75AC4796EBE65D22A88A22223B995679120E2D50E41AA49C260C046A35368846B0BECD0DFF3EBEB8AD4F835768F69B9ADF25C43D30E6B646F807FAA64AD59F61715C7A54127C4AACA98BA3006A9D792DAE165E0D59B61A01FB3A9F9D838D2DAE62445C86166
310
F37564E842E7DE6A69879FEEA2DD5AE7E371E1A5E025154AC307D06A03D73EB5978C58FFA4C8E9033066E0F3BD53BEC1F39F91BE7B55103791EDE6BBB991A2046172CB4581D8B893FA674DDA17A77B3B7C413D1B511FD2743BFF8A38F03A658705E3ADF8015C3A3417FF3D7E439FF591DA0B5F18BC20C1B8981957AE6392A3
310
F43C640C01D1A0B4728E2DD4F26DB4B3C3152A252A3B4E913CEC1C72F012782FF88EFF8637AA552DBEF76408E8A8DE9E50F9E1CB3A2DA0DB1B6039A893B56063DC5B3E3FFB5F72E67AB9FEB4AEC496C4F4C1149625DD662C53E89D7BF0F6151A046260D1337DFDC94502430F83B0EE07A130A224BCAD7DAE1D9FB6CD422FF6
310
920702629C4BB9AE79C12F243C6432A6794E18E5552BA56B431AAB5D91317302B2B071E86C3A42B1A02F999E24061403B5D0EB639195DA655DD3EBEAB4FB862DDF579F014AD0E73C22F99E28DA57FB98E75C6CA2D74D53086D600F4786E0FE3144B771A8A7B900F03594DB8A633CBC49B2EDB69228BB479CF863B5E807AAAB
310
23872F6DFEB4129B949CA33823F58830E86D65621E10047D9DB34D862E8EAC3C2ABC2F7B2C40D67CDFE01F5545B92105AF983AC54D93D69E56FB8E797F88913F898A9FEC705D3F9D1B54EC8426FB500D40A03BD0119B06E1B95DDC7EB8F6975367793EBD70E66733DFB9BC982F9CE564727731999F5D4ECFCE3B8D6A4DC2A0
310
6D50FD148437D110834A64C6CDDF57FBACB5C307A2A477DFE4939736CFEF2B175371E0E10CF0DD1D5C15654E0BCA14D1E87DD02FF93782A162C0A3D95F1524A52770F972BF1EE9809D13CE7DD599467F8ECE9ADD85CE85A34CD45355448C64F9E8A031DC2D596ACC6E5DD93D9B82DE2EF5CAF81363A8E47996A0DE24564A79
310
4115AACE09C55E14540231FDA13C319787134EBF34E3A022514E5B4D9E0826E25C02D5805B15ABE1BEF51B26383D445DD9E875EE33FE4C22DA16427D65A3BCA92CA6D28DD01DF5DC53330704308475351050232CCD31583787BA75774AFB06E5070DD0C8EF484E19968C5D83BA5B90B244D31E54D55A372320FE4786B7EA58
310
44E135AA5467CB7EA333A61683CC6A8C3257034C10CF46F40EF9F5BE59BE5BD30C3C72D235E95D10345C1D45445A5F0BB47E46A5EBE5570F9380B5FA629579952296A773720405982B9DE04011506178964401AA8BDF1FBF0A8EAB6861DD6580C0E38217056766716DAEB2D6FA0917D3E4116581EADB879C4E7CFFB11EFACD
310
3D641311495D92C8676CB409A72D18610D803CE8A626049E8EC1887CB5B44CC39883690DDA8399B4B9855B481E7D71D4A9D22F96E5BB73BF5793020C02137BF837504B0304140006080000CC70623B000000000000000000000000350000006662782F36394639363044362D344446342D343946362D394244322D32343142
310
43333846323333332F76657274696365732E62696E504B0304140006080800CC70623BF270F1330600000004000000360000006662782F36394639363044362D344446342D343946362D394244322D3234314243333846323333332F747269616E676C65732E62696E636660600000504B0304140006080000CC70623B0000
310
00000000000000000000370000006662782F36394639363044362D344446342D343946362D394244322D3234314243333846323333332F617474726962757465732E62696E504B0304140006080800CC70623B08DA0BD19000000041010000360000006662782F36394639363044362D344446342D343946362D394244322D
310
3234314243333846323333332F6469726563746F72792E786D6C858F410AC3201045AF22B36F53E9A60B35CBEEBAE80D244E44489C6234F4F835464A48035D0DF398FF9F8AF63D0E6CC63039F212F8F9020C7D47C6792B21C5FE7403D62A1188E2E60C98D7234A5830286103A55745067B9D86B8A3CF9C7F90C11DE607FB14
310
4396D7B6A82D282E9A152AD114D5EF2CB866EEE831B8EEA07A7BB5A8D7D61A2BAAEB7FD5F70921FF497D00504B0304140006080800CC70623BCA768048FE000000A00100003B0000006662782F36394639363044362D344446342D343946362D394244322D3234314243333846323333332F7265736F75726365732F636F72
310
652E786D6C8D50596E833010BD0A9ADFCA60D600328E9AA639412F609909B1126CE4A5EAF16B0295DABFFECC8CDEA2797AECF8353F924FB44E193D409E5248504B332A3D0D10FC95B4901C39B3C6F85F3248B49871801506CE266BC2B243D2688FDA47549B11775038871E12F988C7004EDE7016A9083E2ADC3D5D84BC8B09
310
D33C8D74D471E6BC8D0192EDC93A815B742658898E651BCB59086ADC356A8C3FD555A1055ED7E7E254D615792D0F075295F585746FF53B694EE78A565DD736979A65AB9933AFE69F8CD2A2F038022F28ED489E135A7CE4554F9BBEA85E68DB53CAB255FEC71496F19FA6A0B42F8B3DEE6673C0F318E4497096AD7DC5F52C33
310
EEB55BFE0D504B010214000A0000080000CC70623B3DEE336E79000000790000001B00000000000000000000000000000000006175746F6465736B2D64657369676E2D7061636B6167652E786D6C504B01021400140006080800CC70623BD486FD9CA0000000F40000001300000000000000000000000000B20000005B436F
310
6E74656E745F54797065735D2E786D6C504B01021400140006080800CC70623BD9DDAED0EC0000007C010000080000000000000000000000000083010000636F72652E786D6C504B01021400140006080800CC70623B55019EA25F0000007C000000070000000000000000000000000095020000636E782E786D6C504B0102
310
1400140006080800CC70623BA24EB22D72010000D40300000C00000000000000000000000000190300006662782F636F72652E786D6C504B01021400140006080800CC70623B408A7D3B7C0000009D0000000B00000000000000000000000000B50400006662782F636E782E786D6C504B01021400140006080800CC70623B
310
449FB9BD290100001202000031000000000000000000000000005A0500006662782F36394639363044362D344446342D343946362D394244322D3234314243333846323333332F636F72652E786D6C504B01021400140006080800CC70623BAD7543B64E010000330300003000000000000000000000000000D20600006662
310
782F36394639363044362D344446342D343946362D394244322D3234314243333846323333332F636E782E786D6C504B01021400140006080800CC70623B8D05915C650500003B10000034000000000000000000000000006E0800006662782F36394639363044362D344446342D343946362D394244322D32343142433338
310
46323333332F6F626A656374732E786D6C504B01021400140006080000CC70623B0000000000000000000000003500000000000000000000000000250E00006662782F36394639363044362D344446342D343946362D394244322D3234314243333846323333332F76657274696365732E62696E504B010214001400060808
310
00CC70623BF270F13306000000040000003600000000000000000000000000780E00006662782F36394639363044362D344446342D343946362D394244322D3234314243333846323333332F747269616E676C65732E62696E504B01021400140006080000CC70623B00000000000000000000000037000000000000000000
310
00000000D20E00006662782F36394639363044362D344446342D343946362D394244322D3234314243333846323333332F617474726962757465732E62696E504B01021400140006080800CC70623B08DA0BD190000000410100003600000000000000000000000000270F00006662782F36394639363044362D344446342D
310
343946362D394244322D3234314243333846323333332F6469726563746F72792E786D6C504B01021400140006080800CC70623BCA768048FE000000A00100003B000000000000000000000000000B1000006662782F36394639363044362D344446342D343946362D394244322D3234314243333846323333332F7265736F
310
75726365732F636F72652E786D6C504B0506000000000E000E0080040000621100000000
  0
XRECORD
  5
176
102
{ACAD_REACTORS
330
173
102
}
330
173
100
AcDbXrecord
280
     1
270
     1
271
     1
  0
XRECORD
  5
177
102
{ACAD_REACTORS
330
173
102
}
330
173
100
AcDbXrecord
280
     1
270
     1
271
     1
  0
XRECORD
  5
3CA
102
{ACAD_REACTORS
330
3C9
102
}
330
3C9
100
AcDbXrecord
280
     1
102
DISPLAYNAME
  1
Imperial24
102
FLAGS
 90
        0
  0
XRECORD
  5
3C6
102
{ACAD_REACTORS
330
3C5
102
}
330
3C5
100
AcDbXrecord
280
     1
102
DISPLAYNAME
  1
Metric50
102
FLAGS
 90
        0
  0
CELLSTYLEMAP
  5
3BB
102
{ACAD_REACTORS
330
162
102
}
330
162
100
AcDbCellStyleMap
 90
        3
300
CELLSTYLE
  1
TABLEFORMAT_BEGIN
 90
        5
170
     1
 91
        0
 92
    32768
 62
   257
 93
        1
300
CONTENTFORMAT
  1
CONTENTFORMAT_BEGIN
 90
        0
 91
        0
 92
      512
 93
        0
300

 40
0.0
140
1.0
 94
        5
 62
     0
340
11
144
6.0
309
CONTENTFORMAT_END
171
     1
301
MARGIN
  1
CELLMARGIN_BEGIN
 40
1.5
 40
1.5
 40
1.5
 40
1.5
 40
4.5
 40
4.5
309
CELLMARGIN_END
 94
        6
 95
        1
302
GRIDFORMAT
  1
GRIDFORMAT_BEGIN
 90
        0
 91
        1
 62
     0
 92
       -2
340
14
 93
        0
 40
1.125
309
GRIDFORMAT_END
 95
        2
302
GRIDFORMAT
  1
GRIDFORMAT_BEGIN
 90
        0
 91
        1
 62
     0
 92
       -2
340
14
 93
        0
 40
1.125
309
GRIDFORMAT_END
 95
        4
302
GRIDFORMAT
  1
GRIDFORMAT_BEGIN
 90
        0
 91
        1
 62
     0
 92
       -2
340
14
 93
        0
 40
1.125
309
GRIDFORMAT_END
 95
        8
302
GRIDFORMAT
  1
GRIDFORMAT_BEGIN
 90
        0
 91
        1
 62
     0
 92
       -2
340
14
 93
        0
 40
1.125
309
GRIDFORMAT_END
 95
       16
302
GRIDFORMAT
  1
GRIDFORMAT_BEGIN
 90
        0
 91
        1
 62
     0
 92
       -2
340
14
 93
        0
 40
1.125
309
GRIDFORMAT_END
 95
       32
302
GRIDFORMAT
  1
GRIDFORMAT_BEGIN
 90
        0
 91
        1
 62
     0
 92
       -2
340
14
 93
        0
 40
1.125
309
GRIDFORMAT_END
309
TABLEFORMAT_END
  1
CELLSTYLE_BEGIN
 90
        1
 91
        1
300
_TITLE
309
CELLSTYLE_END
300
CELLSTYLE
  1
TABLEFORMAT_BEGIN
 90
        5
170
     1
 91
        0
 92
        0
 62
   257
 93
        1
300
CONTENTFORMAT
  1
CONTENTFORMAT_BEGIN
 90
        0
 91
        0
 92
      512
 93
        0
300

 40
0.0
140
1.0
 94
        5
 62
     0
340
11
144
4.5
309
CONTENTFORMAT_END
171
     1
301
MARGIN
  1
CELLMARGIN_BEGIN
 40
1.5
 40
1.5
 40
1.5
 40
1.5
 40
4.5
 40
4.5
309
CELLMARGIN_END
 94
        6
 95
        1
302
GRIDFORMAT
  1
GRIDFORMAT_BEGIN
 90
        0
 91
        1
 62
     0
 92
       -2
340
14
 93
        0
 40
1.125
309
GRIDFORMAT_END
 95
        2
302
GRIDFORMAT
  1
GRIDFORMAT_BEGIN
 90
        0
 91
        1
 62
     0
 92
       -2
340
14
 93
        0
 40
1.125
309
GRIDFORMAT_END
 95
        4
302
GRIDFORMAT
  1
GRIDFORMAT_BEGIN
 90
        0
 91
        1
 62
     0
 92
       -2
340
14
 93
        0
 40
1.125
309
GRIDFORMAT_END
 95
        8
302
GRIDFORMAT
  1
GRIDFORMAT_BEGIN
 90
        0
 91
        1
 62
     0
 92
       -2
340
14
 93
        0
 40
1.125
309
GRIDFORMAT_END
 95
       16
302
GRIDFORMAT
  1
GRIDFORMAT_BEGIN
 90
        0
 91
        1
 62
     0
 92
       -2
340
14
 93
        0
 40
1.125
309
GRIDFORMAT_END
 95
       32
302
GRIDFORMAT
  1
GRIDFORMAT_BEGIN
 90
        0
 91
        1
 62
     0
 92
       -2
340
14
 93
        0
 40
1.125
309
GRIDFORMAT_END
309
TABLEFORMAT_END
  1
CELLSTYLE_BEGIN
 90
        2
 91
        1
300
_HEADER
309
CELLSTYLE_END
300
CELLSTYLE
  1
TABLEFORMAT_BEGIN
 90
        5
170
     1
 91
        0
 92
        0
 62
   257
 93
        1
300
CONTENTFORMAT
  1
CONTENTFORMAT_BEGIN
 90
        0
 91
        0
 92
      512
 93
        0
300

 40
0.0
140
1.0
 94
        2
 62
     0
340
11
144
4.5
309
CONTENTFORMAT_END
171
     1
301
MARGIN
  1
CELLMARGIN_BEGIN
 40
1.5
 40
1.5
 40
1.5
 40
1.5
 40
4.5
 40
4.5
309
CELLMARGIN_END
 94
        6
 95
        1
302
GRIDFORMAT
  1
GRIDFORMAT_BEGIN
 90
        0
 91
        1
 62
     0
 92
       -2
340
14
 93
        0
 40
1.125
309
GRIDFORMAT_END
 95
        2
302
GRIDFORMAT
  1
GRIDFORMAT_BEGIN
 90
        0
 91
        1
 62
     0
 92
       -2
340
14
 93
        0
 40
1.125
309
GRIDFORMAT_END
 95
        4
302
GRIDFORMAT
  1
GRIDFORMAT_BEGIN
 90
        0
 91
        1
 62
     0
 92
       -2
340
14
 93
        0
 40
1.125
309
GRIDFORMAT_END
 95
        8
302
GRIDFORMAT
  1
GRIDFORMAT_BEGIN
 90
        0
 91
        1
 62
     0
 92
       -2
340
14
 93
        0
 40
1.125
309
GRIDFORMAT_END
 95
       16
302
GRIDFORMAT
  1
GRIDFORMAT_BEGIN
 90
        0
 91
        1
 62
     0
 92
       -2
340
14
 93
        0
 40
1.125
309
GRIDFORMAT_END
 95
       32
302
GRIDFORMAT
  1
GRIDFORMAT_BEGIN
 90
        0
 91
        1
 62
     0
 92
       -2
340
14
 93
        0
 40
1.125
309
GRIDFORMAT_END
309
TABLEFORMAT_END
  1
CELLSTYLE_BEGIN
 90
        3
 91
        2
300
_DATA
309
CELLSTYLE_END
  0
ENDSEC
  0
SECTION
  2
ACDSDATA
 70
     2
 71
     8
  0
ACDSSCHEMA
 90
        0
  1
AcDb_Thumbnail_Schema
  2
AcDbDs::ID
280
    10
 91
        8
  2
Thumbnail_Data
280
    15
 91
        0
101
ACDSRECORD
 95
        0
 90
        1
  2
AcDbDs::TreatedAsObjectData
280
     1
291
     1
101
ACDSRECORD
 95
        0
 90
        2
  2
AcDbDs::Legacy
280
     1
291
     1
101
ACDSRECORD
  1
AcDbDs::ID
 90
        3
  2
AcDs:Indexable
280
     1
291
     1
101
ACDSRECORD
  1
AcDbDs::ID
 90
        4
  2
AcDbDs::HandleAttribute
280
     7
282
     1
  0
ACDSSCHEMA
 90
        1
  1
AcDbDs::TreatedAsObjectDataSchema
  2
AcDbDs::TreatedAsObjectData
280
     1
 91
        0
  0
ACDSSCHEMA
 90
        2
  1
AcDbDs::LegacySchema
  2
AcDbDs::Legacy
280
     1
 91
        0
  0
ACDSSCHEMA
 90
        3
  1
AcDbDs::IndexedPropertySchema
  2
AcDs:Indexable
280
     1
 91
        0
  0
ACDSSCHEMA
 90
        4
  1
AcDbDs::HandleAttributeSchema
  2
AcDbDs::HandleAttribute
280
     7
 91
        1
284
     1
  0
ACDSRECORD
 90
        0
  2
AcDbDs::ID
280
    10
320
22
  2
Thumbnail_Data
280
    15
 94
      896
310
89504E470D0A1A0A0000000D49484452000001000000009108030000001BE1960600000300504C5445212830FFFFFF2128300000000000000000000000000000000000000000000000000000330000660000990000CC0000FF0033000033330033660033990033CC0033FF0066000066330066660066990066CC0066FF0099
310
000099330099660099990099CC0099FF00CC0000CC3300CC6600CC9900CCCC00CCFF00FF0000FF3300FF6600FF9900FFCC00FFFF3300003300333300663300993300CC3300FF3333003333333333663333993333CC3333FF3366003366333366663366993366CC3366FF3399003399333399663399993399CC3399FF33CC00
310
33CC3333CC6633CC9933CCCC33CCFF33FF0033FF3333FF6633FF9933FFCC33FFFF6600006600336600666600996600CC6600FF6633006633336633666633996633CC6633FF6666006666336666666666996666CC6666FF6699006699336699666699996699CC6699FF66CC0066CC3366CC6666CC9966CCCC66CCFF66FF0066
310
FF3366FF6666FF9966FFCC66FFFF9900009900339900669900999900CC9900FF9933009933339933669933999933CC9933FF9966009966339966669966999966CC9966FF9999009999339999669999999999CC9999FF99CC0099CC3399CC6699CC9999CCCC99CCFF99FF0099FF3399FF6699FF9999FFCC99FFFFCC0000CC00
310
33CC0066CC0099CC00CCCC00FFCC3300CC3333CC3366CC3399CC33CCCC33FFCC6600CC6633CC6666CC6699CC66CCCC66FFCC9900CC9933CC9966CC9999CC99CCCC99FFCCCC00CCCC33CCCC66CCCC99CCCCCCCCCCFFCCFF00CCFF33CCFF66CCFF99CCFFCCCCFFFFFF0000FF0033FF0066FF0099FF00CCFF00FFFF3300FF3333
310
FF3366FF3399FF33CCFF33FFFF6600FF6633FF6666FF6699FF66CCFF66FFFF9900FF9933FF9966FF9999FF99CCFF99FFFFCC00FFCC33FFCC66FFCC99FFCCCCFFCCFFFFFF00FFFF33FFFF66FFFF99FFFFCCFFFFFF0000000D0D0D1A1A1A2828283535354343435050505D5D5D6B6B6B787878868686939393A1A1A1AEAEAEBB
310
BBBBC9C9C9D6D6D6E4E4E4F1F1F1FFFFFF0000000000000000000000000000000000000000000000000000000000002E4550F10000003B4944415478DAEDC13101000000C2A0F54F6D0B2FA0000000000000000000000000000000000000000000000000000000000000000000000000CE06919100016C9A5B1B0000000049
310
454E44AE426082
  0
ENDSEC
  0
EOF
