  0
SECTION
  2
HEADER
  9
$ACADVER
  1
AC1027
  9
$ACADMAINTVER
 70
   125
  9
$DWGCODEPAGE
  3
ANSI_1252
  9
$LASTSAVEDBY
  1
andrea.ragusa
  9
$REQUIREDVERSIONS
160
                 0
  9
$INSBASE
 10
0.0
 20
0.0
 30
0.0
  9
$EXTMIN
 10
0.1689103010239705
 20
0.0135962725775016
 30
-0.0015258207003583
  9
$EXTMAX
 10
14.52555137581839
 20
21.15472449147455
 30
0.0000000349246037
  9
$LIMMIN
 10
0.0
 20
0.0
  9
$LIMMAX
 10
420.0
 20
297.0
  9
$ORTHOMODE
 70
     0
  9
$REGENMODE
 70
     1
  9
$FILLMODE
 70
     1
  9
$QTEXTMODE
 70
     0
  9
$MIRRTEXT
 70
     0
  9
$LTSCALE
 40
1.0
  9
$ATTMODE
 70
     1
  9
$TEXTSIZE
 40
2.5
  9
$TRACEWID
 40
1.0
  9
$TEXTSTYLE
  7
Standard
  9
$CLAYER
  8
0
  9
$CELTYPE
  6
ByLayer
  9
$CECOLOR
 62
   256
  9
$CELTSCALE
 40
1.0
  9
$DISPSILH
 70
     0
  9
$DIMSCALE
 40
1.0
  9
$DIMASZ
 40
2.5
  9
$DIMEXO
 40
0.625
  9
$DIMDLI
 40
3.75
  9
$DIMRND
 40
0.0
  9
$DIMDLE
 40
0.0
  9
$DIMEXE
 40
1.25
  9
$DIMTP
 40
0.0
  9
$DIMTM
 40
0.0
  9
$DIMTXT
 40
2.5
  9
$DIMCEN
 40
2.5
  9
$DIMTSZ
 40
0.0
  9
$DIMTOL
 70
     0
  9
$DIMLIM
 70
     0
  9
$DIMTIH
 70
     0
  9
$DIMTOH
 70
     0
  9
$DIMSE1
 70
     0
  9
$DIMSE2
 70
     0
  9
$DIMTAD
 70
     1
  9
$DIMZIN
 70
     8
  9
$DIMBLK
  1

  9
$DIMASO
 70
     1
  9
$DIMSHO
 70
     1
  9
$DIMPOST
  1

  9
$DIMAPOST
  1

  9
$DIMALT
 70
     0
  9
$DIMALTD
 70
     3
  9
$DIMALTF
 40
0.03937007874016
  9
$DIMLFAC
 40
1.0
  9
$DIMTOFL
 70
     1
  9
$DIMTVP
 40
0.0
  9
$DIMTIX
 70
     0
  9
$DIMSOXD
 70
     0
  9
$DIMSAH
 70
     0
  9
$DIMBLK1
  1

  9
$DIMBLK2
  1

  9
$DIMSTYLE
  2
ISO-25
  9
$DIMCLRD
 70
     0
  9
$DIMCLRE
 70
     0
  9
$DIMCLRT
 70
     0
  9
$DIMTFAC
 40
1.0
  9
$DIMGAP
 40
0.625
  9
$DIMJUST
 70
     0
  9
$DIMSD1
 70
     0
  9
$DIMSD2
 70
     0
  9
$DIMTOLJ
 70
     0
  9
$DIMTZIN
 70
     8
  9
$DIMALTZ
 70
     0
  9
$DIMALTTZ
 70
     0
  9
$DIMUPT
 70
     0
  9
$DIMDEC
 70
     2
  9
$DIMTDEC
 70
     2
  9
$DIMALTU
 70
     2
  9
$DIMALTTD
 70
     3
  9
$DIMTXSTY
  7
Standard
  9
$DIMAUNIT
 70
     0
  9
$DIMADEC
 70
     0
  9
$DIMALTRND
 40
0.0
  9
$DIMAZIN
 70
     0
  9
$DIMDSEP
 70
    44
  9
$DIMATFIT
 70
     3
  9
$DIMFRAC
 70
     0
  9
$DIMLDRBLK
  1

  9
$DIMLUNIT
 70
     2
  9
$DIMLWD
 70
    -2
  9
$DIMLWE
 70
    -2
  9
$DIMTMOVE
 70
     0
  9
$DIMFXL
 40
1.0
  9
$DIMFXLON
 70
     0
  9
$DIMJOGANG
 40
0.7853981633974483
  9
$DIMTFILL
 70
     0
  9
$DIMTFILLCLR
 70
     0
  9
$DIMARCSYM
 70
     0
  9
$DIMLTYPE
  6

  9
$DIMLTEX1
  6

  9
$DIMLTEX2
  6

  9
$DIMTXTDIRECTION
 70
     0
  9
$LUNITS
 70
     2
  9
$LUPREC
 70
     4
  9
$SKETCHINC
 40
1.0
  9
$FILLETRAD
 40
0.0
  9
$AUNITS
 70
     0
  9
$AUPREC
 70
     0
  9
$MENU
  1
.
  9
$ELEVATION
 40
0.0
  9
$PELEVATION
 40
0.0
  9
$THICKNESS
 40
0.0
  9
$LIMCHECK
 70
     0
  9
$CHAMFERA
 40
0.0
  9
$CHAMFERB
 40
0.0
  9
$CHAMFERC
 40
0.0
  9
$CHAMFERD
 40
0.0
  9
$SKPOLY
 70
     0
  9
$TDCREATE
 40
2459020.487523148
  9
$TDUCREATE
 40
2459020.404189815
  9
$TDUPDATE
 40
2459020.488310185
  9
$TDUUPDATE
 40
2459020.404976852
  9
$TDINDWG
 40
0.0007870370
  9
$TDUSRTIMER
 40
0.0007870370
  9
$USRTIMER
 70
     1
  9
$ANGBASE
 50
0.0
  9
$ANGDIR
 70
     0
  9
$PDMODE
 70
     0
  9
$PDSIZE
 40
0.0
  9
$PLINEWID
 40
0.0
  9
$SPLFRAME
 70
     0
  9
$SPLINETYPE
 70
     6
  9
$SPLINESEGS
 70
     8
  9
$HANDSEED
  5
66B
  9
$SURFTAB1
 70
     6
  9
$SURFTAB2
 70
     6
  9
$SURFTYPE
 70
     6
  9
$SURFU
 70
     6
  9
$SURFV
 70
     6
  9
$UCSBASE
  2

  9
$UCSNAME
  2

  9
$UCSORG
 10
0.0
 20
0.0
 30
0.0
  9
$UCSXDIR
 10
1.0
 20
0.0
 30
0.0
  9
$UCSYDIR
 10
0.0
 20
1.0
 30
0.0
  9
$UCSORTHOREF
  2

  9
$UCSORTHOVIEW
 70
     0
  9
$UCSORGTOP
 10
0.0
 20
0.0
 30
0.0
  9
$UCSORGBOTTOM
 10
0.0
 20
0.0
 30
0.0
  9
$UCSORGLEFT
 10
0.0
 20
0.0
 30
0.0
  9
$UCSORGRIGHT
 10
0.0
 20
0.0
 30
0.0
  9
$UCSORGFRONT
 10
0.0
 20
0.0
 30
0.0
  9
$UCSORGBACK
 10
0.0
 20
0.0
 30
0.0
  9
$PUCSBASE
  2

  9
$PUCSNAME
  2

  9
$PUCSORG
 10
0.0
 20
0.0
 30
0.0
  9
$PUCSXDIR
 10
1.0
 20
0.0
 30
0.0
  9
$PUCSYDIR
 10
0.0
 20
1.0
 30
0.0
  9
$PUCSORTHOREF
  2

  9
$PUCSORTHOVIEW
 70
     0
  9
$PUCSORGTOP
 10
0.0
 20
0.0
 30
0.0
  9
$PUCSORGBOTTOM
 10
0.0
 20
0.0
 30
0.0
  9
$PUCSORGLEFT
 10
0.0
 20
0.0
 30
0.0
  9
$PUCSORGRIGHT
 10
0.0
 20
0.0
 30
0.0
  9
$PUCSORGFRONT
 10
0.0
 20
0.0
 30
0.0
  9
$PUCSORGBACK
 10
0.0
 20
0.0
 30
0.0
  9
$USERI1
 70
     0
  9
$USERI2
 70
     0
  9
$USERI3
 70
     0
  9
$USERI4
 70
     0
  9
$USERI5
 70
     0
  9
$USERR1
 40
0.0
  9
$USERR2
 40
0.0
  9
$USERR3
 40
0.0
  9
$USERR4
 40
0.0
  9
$USERR5
 40
0.0
  9
$WORLDVIEW
 70
     1
  9
$SHADEDGE
 70
     3
  9
$SHADEDIF
 70
    70
  9
$TILEMODE
 70
     1
  9
$MAXACTVP
 70
    64
  9
$PINSBASE
 10
0.0
 20
0.0
 30
0.0
  9
$PLIMCHECK
 70
     0
  9
$PEXTMIN
 10
0.0
 20
0.0
 30
0.0
  9
$PEXTMAX
 10
0.0
 20
0.0
 30
0.0
  9
$PLIMMIN
 10
0.0
 20
0.0
  9
$PLIMMAX
 10
12.0
 20
9.0
  9
$UNITMODE
 70
     0
  9
$VISRETAIN
 70
     1
  9
$PLINEGEN
 70
     0
  9
$PSLTSCALE
 70
     1
  9
$TREEDEPTH
 70
  3020
  9
$CMLSTYLE
  2
Standard
  9
$CMLJUST
 70
     0
  9
$CMLSCALE
 40
20.0
  9
$PROXYGRAPHICS
 70
     1
  9
$MEASUREMENT
 70
     1
  9
$CELWEIGHT
370
    -1
  9
$ENDCAPS
280
     0
  9
$JOINSTYLE
280
     0
  9
$LWDISPLAY
290
     0
  9
$INSUNITS
 70
     4
  9
$HYPERLINKBASE
  1

  9
$STYLESHEET
  1

  9
$XEDIT
290
     1
  9
$CEPSNTYPE
380
     0
  9
$PSTYLEMODE
290
     1
  9
$FINGERPRINTGUID
  2
{1EFC2A5D-6AE1-9942-8001-8F67CDE0AEC4}
  9
$VERSIONGUID
  2
{19BAF8C2-C0D7-F049-B2B2-EFC8228495B9}
  9
$EXTNAMES
290
     1
  9
$PSVPSCALE
 40
0.0
  9
$OLESTARTUP
290
     0
  9
$SORTENTS
280
   127
  9
$INDEXCTL
280
     0
  9
$HIDETEXT
280
     1
  9
$XCLIPFRAME
280
     2
  9
$HALOGAP
280
     0
  9
$OBSCOLOR
 70
   257
  9
$OBSLTYPE
280
     0
  9
$INTERSECTIONDISPLAY
280
     0
  9
$INTERSECTIONCOLOR
 70
   257
  9
$DIMASSOC
280
     2
  9
$PROJECTNAME
  1

  9
$CAMERADISPLAY
290
     0
  9
$LENSLENGTH
 40
50.0
  9
$CAMERAHEIGHT
 40
0.0
  9
$STEPSPERSEC
 40
2.0
  9
$STEPSIZE
 40
6.0
  9
$3DDWFPREC
 40
2.0
  9
$PSOLWIDTH
 40
5.0
  9
$PSOLHEIGHT
 40
80.0
  9
$LOFTANG1
 40
1.570796326794896
  9
$LOFTANG2
 40
1.570796326794896
  9
$LOFTMAG1
 40
0.0
  9
$LOFTMAG2
 40
0.0
  9
$LOFTPARAM
 70
     7
  9
$LOFTNORMALS
280
     1
  9
$LATITUDE
 40
37.795
  9
$LONGITUDE
 40
-122.394
  9
$NORTHDIRECTION
 40
0.0
  9
$TIMEZONE
 70
 -8000
  9
$LIGHTGLYPHDISPLAY
280
     1
  9
$TILEMODELIGHTSYNCH
280
     1
  9
$CMATERIAL
347
EC
  9
$SOLIDHIST
280
     0
  9
$SHOWHIST
280
     1
  9
$DWFFRAME
280
     2
  9
$DGNFRAME
280
     0
  9
$REALWORLDSCALE
290
     1
  9
$INTERFERECOLOR
 62
     1
  9
$INTERFEREOBJVS
345
F9
  9
$INTERFEREVPVS
346
F6
  9
$CSHADOW
280
     0
  9
$SHADOWPLANELOCATION
 40
0.0
  0
ENDSEC
  0
SECTION
  2
CLASSES
  0
CLASS
  1
ACDBDICTIONARYWDFLT
  2
AcDbDictionaryWithDefault
  3
ObjectDBX Classes
 90
        0
 91
        1
280
     0
281
     0
  0
CLASS
  1
DICTIONARYVAR
  2
AcDbDictionaryVar
  3
ObjectDBX Classes
 90
        0
 91
       11
280
     0
281
     0
  0
CLASS
  1
TABLESTYLE
  2
AcDbTableStyle
  3
ObjectDBX Classes
 90
     4095
 91
        1
280
     0
281
     0
  0
CLASS
  1
MATERIAL
  2
AcDbMaterial
  3
ObjectDBX Classes
 90
     1153
 91
        3
280
     0
281
     0
  0
CLASS
  1
VISUALSTYLE
  2
AcDbVisualStyle
  3
ObjectDBX Classes
 90
     4095
 91
       24
280
     0
281
     0
  0
CLASS
  1
SCALE
  2
AcDbScale
  3
ObjectDBX Classes
 90
     1153
 91
       17
280
     0
281
     0
  0
CLASS
  1
MLEADERSTYLE
  2
AcDbMLeaderStyle
  3
ACDB_MLEADERSTYLE_CLASS
 90
     4095
 91
        2
280
     0
281
     0
  0
CLASS
  1
CELLSTYLEMAP
  2
AcDbCellStyleMap
  3
ObjectDBX Classes
 90
     1152
 91
        1
280
     0
281
     0
  0
CLASS
  1
EXACXREFPANELOBJECT
  2
ExAcXREFPanelObject
  3
EXAC_ESW
 90
     1025
 91
        0
280
     0
281
     0
  0
CLASS
  1
NPOCOLLECTION
  2
AcDbImpNonPersistentObjectsCollection
  3
ObjectDBX Classes
 90
     1153
 91
        0
280
     0
281
     0
  0
CLASS
  1
LAYER_INDEX
  2
AcDbLayerIndex
  3
ObjectDBX Classes
 90
        0
 91
        0
280
     0
281
     0
  0
CLASS
  1
SPATIAL_INDEX
  2
AcDbSpatialIndex
  3
ObjectDBX Classes
 90
        0
 91
        0
280
     0
281
     0
  0
CLASS
  1
IDBUFFER
  2
AcDbIdBuffer
  3
ObjectDBX Classes
 90
        0
 91
        0
280
     0
281
     0
  0
CLASS
  1
ACDBSECTIONVIEWSTYLE
  2
AcDbSectionViewStyle
  3
ObjectDBX Classes
 90
     1025
 91
        2
280
     0
281
     0
  0
CLASS
  1
ACDBDETAILVIEWSTYLE
  2
AcDbDetailViewStyle
  3
ObjectDBX Classes
 90
     1025
 91
        2
280
     0
281
     0
  0
CLASS
  1
SORTENTSTABLE
  2
AcDbSortentsTable
  3
ObjectDBX Classes
 90
        0
 91
        2
280
     0
281
     0
  0
ENDSEC
  0
SECTION
  2
TABLES
  0
TABLE
  2
VPORT
  5
8
330
0
100
AcDbSymbolTable
 70
     1
1001
ACAD
1000
DbSaveVer
1071
      208
  0
VPORT
  5
EA
330
8
100
AcDbSymbolTableRecord
100
AcDbViewportTableRecord
  2
*Active
 70
     0
 10
0.0
 20
0.0
 11
1.0
 21
1.0
 12
7.38097659277264
 22
11.83975655872799
 13
0.0
 23
0.0
 14
10.0
 24
10.0
 15
10.0
 25
10.0
 16
0.0
 26
0.0
 36
1.0
 17
0.0
 27
0.0
 37
0.0
 40
34.13629552958916
 41
2.452859350850077
 42
50.0
 43
0.0
 44
0.0
 50
0.0
 51
0.0
 71
     0
 72
  1000
 73
     1
 74
     3
 75
     0
 76
     1
 77
     0
 78
     0
281
     0
 65
     1
110
0.0
120
0.0
130
0.0
111
1.0
121
0.0
131
0.0
112
0.0
122
1.0
132
0.0
 79
     0
146
0.0
348
F5
 60
     3
 61
     5
292
     1
282
     1
141
0.0
142
0.0
 63
   250
421
  3355443
1001
ACAD_NAV_VCDISPLAY
1070
     3
  0
ENDTAB
  0
TABLE
  2
LTYPE
  5
5
330
0
100
AcDbSymbolTable
 70
     1
  0
LTYPE
  5
14
330
5
100
AcDbSymbolTableRecord
100
AcDbLinetypeTableRecord
  2
ByBlock
 70
     0
  3

 72
    65
 73
     0
 40
0.0
  0
LTYPE
  5
15
330
5
100
AcDbSymbolTableRecord
100
AcDbLinetypeTableRecord
  2
ByLayer
 70
     0
  3

 72
    65
 73
     0
 40
0.0
  0
LTYPE
  5
16
330
5
100
AcDbSymbolTableRecord
100
AcDbLinetypeTableRecord
  2
Continuous
 70
     0
  3
Solid line
 72
    65
 73
     0
 40
0.0
  0
ENDTAB
  0
TABLE
  2
LAYER
  5
2
102
{ACAD_XDICTIONARY
360
1FF
102
}
330
0
100
AcDbSymbolTable
 70
     2
  0
LAYER
  5
10
102
{ACAD_XDICTIONARY
360
13C
102
}
330
2
100
AcDbSymbolTableRecord
100
AcDbLayerTableRecord
  2
0
 70
     0
 62
     7
  6
Continuous
370
    -3
390
F
347
EE
348
0
  0
LAYER
  5
28C
330
2
100
AcDbSymbolTableRecord
100
AcDbLayerTableRecord
  2
Livello 1
 70
     0
 62
     7
  6
Continuous
370
    -3
390
F
347
EE
348
0
  0
ENDTAB
  0
TABLE
  2
STYLE
  5
3
330
0
100
AcDbSymbolTable
 70
     2
  0
STYLE
  5
11
330
3
100
AcDbSymbolTableRecord
100
AcDbTextStyleTableRecord
  2
Standard
 70
     0
 40
0.0
 41
1.0
 50
0.0
 71
     0
 42
2.5
  3
arial.ttf
  4

1001
ACAD
1000
Arial
1071
       34
  0
STYLE
  5
132
330
3
100
AcDbSymbolTableRecord
100
AcDbTextStyleTableRecord
  2
Annotativa
 70
     0
 40
0.0
 41
1.0
 50
0.0
 71
     0
 42
2.5
  3
arial.ttf
  4

1001
AcadAnnotative
1000
AnnotativeData
1002
{
1070
     1
1070
     1
1002
}
1001
ACAD
1000
Arial
1071
       34
  0
ENDTAB
  0
TABLE
  2
VIEW
  5
6
330
0
100
AcDbSymbolTable
 70
     0
  0
ENDTAB
  0
TABLE
  2
UCS
  5
7
330
0
100
AcDbSymbolTable
 70
     0
  0
ENDTAB
  0
TABLE
  2
APPID
  5
9
330
0
100
AcDbSymbolTable
 70
     8
  0
APPID
  5
12
330
9
100
AcDbSymbolTableRecord
100
AcDbRegAppTableRecord
  2
ACAD
 70
     0
  0
APPID
  5
9E
330
9
100
AcDbSymbolTableRecord
100
AcDbRegAppTableRecord
  2
ACAD_PSEXT
 70
     0
  0
APPID
  5
133
330
9
100
AcDbSymbolTableRecord
100
AcDbRegAppTableRecord
  2
AcadAnnoPO
 70
     0
  0
APPID
  5
134
330
9
100
AcDbSymbolTableRecord
100
AcDbRegAppTableRecord
  2
AcadAnnotative
 70
     0
  0
APPID
  5
135
330
9
100
AcDbSymbolTableRecord
100
AcDbRegAppTableRecord
  2
ACAD_DSTYLE_DIMJAG
 70
     0
  0
APPID
  5
136
330
9
100
AcDbSymbolTableRecord
100
AcDbRegAppTableRecord
  2
ACAD_DSTYLE_DIMTALN
 70
     0
  0
APPID
  5
165
330
9
100
AcDbSymbolTableRecord
100
AcDbRegAppTableRecord
  2
ACAD_MLEADERVER
 70
     0
  0
APPID
  5
217
330
9
100
AcDbSymbolTableRecord
100
AcDbRegAppTableRecord
  2
ACAD_NAV_VCDISPLAY
 70
     0
  0
ENDTAB
  0
TABLE
  2
DIMSTYLE
  5
A
330
0
100
AcDbSymbolTable
 70
     3
100
AcDbDimStyleTable
 71
     2
340
27
340
137
  0
DIMSTYLE
105
1B0
330
A
100
AcDbSymbolTableRecord
100
AcDbDimStyleTableRecord
  2
Standard
 70
     0
340
11
  0
DIMSTYLE
105
137
330
A
100
AcDbSymbolTableRecord
100
AcDbDimStyleTableRecord
  2
Annotativa
 70
     0
 40
0.0
 41
2.5
 42
0.625
 43
3.75
 44
1.25
 73
     0
 74
     0
 77
     1
 78
     8
140
2.5
141
2.5
143
0.03937007874016
147
0.625
171
     3
172
     1
271
     2
272
     2
274
     3
278
    44
283
     0
284
     8
340
11
1001
AcadAnnotative
1000
AnnotativeData
1002
{
1070
     1
1070
     1
1002
}
1001
ACAD_DSTYLE_DIMJAG
1070
   388
1040
1.5
1001
ACAD_DSTYLE_DIMTALN
1070
   392
1070
     0
  0
DIMSTYLE
105
27
330
A
100
AcDbSymbolTableRecord
100
AcDbDimStyleTableRecord
  2
ISO-25
 70
     0
 41
2.5
 42
0.625
 43
3.75
 44
1.25
 73
     0
 74
     0
 77
     1
 78
     8
140
2.5
141
2.5
143
0.03937007874016
147
0.625
171
     3
172
     1
271
     2
272
     2
274
     3
278
    44
283
     0
284
     8
340
11
  0
ENDTAB
  0
TABLE
  2
BLOCK_RECORD
  5
1
330
0
100
AcDbSymbolTable
 70
     3
  0
BLOCK_RECORD
  5
1F
102
{ACAD_XDICTIONARY
360
1CE
102
}
330
1
100
AcDbSymbolTableRecord
100
AcDbBlockTableRecord
  2
*Model_Space
340
22
 70
     0
280
     1
281
     0
  0
BLOCK_RECORD
  5
D2
330
1
100
AcDbSymbolTableRecord
100
AcDbBlockTableRecord
  2
*Paper_Space
340
D3
 70
     0
280
     1
281
     0
  0
BLOCK_RECORD
  5
D6
330
1
100
AcDbSymbolTableRecord
100
AcDbBlockTableRecord
  2
*Paper_Space0
340
D7
 70
     0
280
     1
281
     0
  0
BLOCK_RECORD
  5
28F
102
{ACAD_XDICTIONARY
360
34F
102
}
330
1
100
AcDbSymbolTableRecord
100
AcDbBlockTableRecord
  2
A$Cf201bbc5
340
0
 70
     4
280
     1
281
     0
  0
ENDTAB
  0
ENDSEC
  0
SECTION
  2
BLOCKS
  0
BLOCK
  5
20
330
1F
100
AcDbEntity
  8
0
100
AcDbBlockBegin
  2
*Model_Space
 70
     0
 10
0.0
 20
0.0
 30
0.0
  3
*Model_Space
  1

  0
ENDBLK
  5
21
330
1F
100
AcDbEntity
  8
0
100
AcDbBlockEnd
  0
BLOCK
  5
D4
330
D2
100
AcDbEntity
 67
     1
  8
0
100
AcDbBlockBegin
  2
*Paper_Space
 70
     0
 10
0.0
 20
0.0
 30
0.0
  3
*Paper_Space
  1

  0
ENDBLK
  5
D5
330
D2
100
AcDbEntity
 67
     1
  8
0
100
AcDbBlockEnd
  0
BLOCK
  5
D8
330
D6
100
AcDbEntity
 67
     1
  8
0
100
AcDbBlockBegin
  2
*Paper_Space0
 70
     0
 10
0.0
 20
0.0
 30
0.0
  3
*Paper_Space0
  1

  0
ENDBLK
  5
D9
330
D6
100
AcDbEntity
 67
     1
  8
0
100
AcDbBlockEnd
  0
BLOCK
  5
351
330
28F
100
AcDbEntity
  8
0
100
AcDbBlockBegin
  2
A$Cf201bbc5
 70
     0
 10
0.0
 20
0.0
 30
0.0
  3
A$Cf201bbc5
  1

  0
POLYLINE
  5
290
330
28F
100
AcDbEntity
  8
Livello 1
100
AcDb2dPolyline
 66
     1
 10
0.0
 20
0.0
 30
0.0
  0
VERTEX
  5
291
330
290
100
AcDbEntity
  8
Livello 1
100
AcDbVertex
100
AcDb2dVertex
 10
10.44150535203584
 20
6.264703207857706
 30
0.0
  0
VERTEX
  5
292
330
290
100
AcDbEntity
  8
Livello 1
100
AcDbVertex
100
AcDb2dVertex
 10
10.44150535203584
 20
2.193644638861357
 30
0.0
  0
SEQEND
  5
293
330
290
100
AcDbEntity
  8
Livello 1
  0
POLYLINE
  5
294
330
28F
100
AcDbEntity
  8
Livello 1
100
AcDb2dPolyline
 66
     1
 10
0.0
 20
0.0
 30
0.0
  0
VERTEX
  5
295
330
294
100
AcDbEntity
  8
Livello 1
100
AcDbVertex
100
AcDb2dVertex
 10
9.154431136150734
 20
11.58109919923152
 30
0.0
  0
VERTEX
  5
296
330
294
100
AcDbEntity
  8
Livello 1
100
AcDbVertex
100
AcDb2dVertex
 10
1.177772783279735
 20
11.58109919923152
 30
0.0
  0
SEQEND
  5
297
330
294
100
AcDbEntity
  8
Livello 1
  0
MTEXT
  5
298
330
28F
100
AcDbEntity
  8
Livello 1
100
AcDbMText
 10
13.54501961992317
 20
0.1182599059685288
 30
0.0
 40
2.123016666135912
 41
0.0
 46
0.0
 71
     7
 72
     1
  1
\fSource Sans Pro Light|b0|i0|c0|p34;\W1;58 mm
 11
-0.0000000000000002
 21
1.0
 31
0.0
 73
     1
 44
1.0
  0
MTEXT
  5
299
330
28F
100
AcDbEntity
  8
Livello 1
100
AcDbMText
 10
0.4807223073797787
 20
8.477568782459108
 30
0.0
 40
2.123016666135912
 41
0.0
 46
0.0
 71
     7
 72
     1
  1
\fSource Sans Pro Light|b0|i0|c0|p34;\W1;103 mm
 73
     1
 44
1.0
  0
SPLINE
  5
29A
330
28F
100
AcDbEntity
  8
Livello 1
100
AcDbSpline
210
0.0
220
0.0
230
1.0
 70
     9
 71
     3
 72
    23
 73
    19
 74
     0
 42
0.000000001
 43
0.0000000001
 40
0.0
 40
0.0
 40
0.0
 40
0.0
 40
1.0
 40
1.0
 40
1.0
 40
2.0
 40
2.0
 40
2.0
 40
3.0
 40
3.0
 40
3.0
 40
4.0
 40
4.0
 40
4.0
 40
5.0
 40
5.0
 40
5.0
 40
6.0
 40
6.0
 40
6.0
 40
6.0
 10
1.040613573532823
 20
1.985119468693227
 30
0.0
 10
1.011332953389029
 20
1.985119468693227
 30
0.0
 10
0.9880489525742461
 20
2.008761436460758
 30
0.0
 10
0.9880489525742461
 20
2.037689472613465
 30
0.0
 10
0.9880489525742461
 20
2.037689472613465
 30
0.0
 10
0.9880489525742461
 20
2.149159843408085
 30
0.0
 10
0.9880489525742461
 20
2.149159843408085
 30
0.0
 10
0.9880489525742461
 20
2.178087879560791
 30
0.0
 10
1.011332953389029
 20
2.201374571856391
 30
0.0
 10
1.040613573532823
 20
2.201374571856391
 30
0.0
 10
1.0695402639451
 20
2.201374571856391
 30
0.0
 10
1.093176848750914
 20
2.178087879560791
 30
0.0
 10
1.093176848750914
 20
2.149159843408085
 30
0.0
 10
1.093176848750914
 20
2.149159843408085
 30
0.0
 10
1.093176848750914
 20
2.037689472613465
 30
0.0
 10
1.093176848750914
 20
2.037689472613465
 30
0.0
 10
1.093176848750914
 20
2.008761436460758
 30
0.0
 10
1.0695402639451
 20
1.985119468693227
 30
0.0
 10
1.040613573532823
 20
1.985119468693227
 30
0.0
  0
SPLINE
  5
29B
330
28F
100
AcDbEntity
  8
Livello 1
100
AcDbSpline
210
0.0
220
0.0
230
1.0
 70
     9
 71
     3
 72
    23
 73
    19
 74
     0
 42
0.000000001
 43
0.0000000001
 40
0.0
 40
0.0
 40
0.0
 40
0.0
 40
1.0
 40
1.0
 40
1.0
 40
2.0
 40
2.0
 40
2.0
 40
3.0
 40
3.0
 40
3.0
 40
4.0
 40
4.0
 40
4.0
 40
5.0
 40
5.0
 40
5.0
 40
6.0
 40
6.0
 40
6.0
 40
6.0
 10
1.620933179321013
 20
3.894714364320435
 30
0.0
 10
1.592005143168307
 20
3.894714364320435
 30
0.0
 10
1.568368558362479
 20
3.918345566164575
 30
0.0
 10
1.568368558362479
 20
3.947273602317281
 30
0.0
 10
1.568368558362479
 20
3.947273602317281
 30
0.0
 10
1.568368558362479
 20
5.789829092986181
 30
0.0
 10
1.568368558362479
 20
5.789829092986181
 30
0.0
 10
1.568368558362479
 20
5.818757129138901
 30
0.0
 10
1.592005143168307
 20
5.842399096906433
 30
0.0
 10
1.620933179321013
 20
5.842399096906433
 30
0.0
 10
1.649859869733319
 20
5.842399096906433
 30
0.0
 10
1.673496454539119
 20
5.818757129138901
 30
0.0
 10
1.673496454539119
 20
5.789829092986181
 30
0.0
 10
1.673496454539119
 20
5.789829092986181
 30
0.0
 10
1.673496454539119
 20
3.947273602317281
 30
0.0
 10
1.673496454539119
 20
3.947273602317281
 30
0.0
 10
1.673496454539119
 20
3.918345566164575
 30
0.0
 10
1.649859869733319
 20
3.894714364320435
 30
0.0
 10
1.620933179321013
 20
3.894714364320435
 30
0.0
  0
SPLINE
  5
29C
330
28F
100
AcDbEntity
  8
Livello 1
100
AcDbSpline
210
0.0
220
0.0
230
1.0
 70
     9
 71
     3
 72
    23
 73
    19
 74
     0
 42
0.000000001
 43
0.0000000001
 40
0.0
 40
0.0
 40
0.0
 40
0.0
 40
1.0
 40
1.0
 40
1.0
 40
2.0
 40
2.0
 40
2.0
 40
3.0
 40
3.0
 40
3.0
 40
4.0
 40
4.0
 40
4.0
 40
5.0
 40
5.0
 40
5.0
 40
6.0
 40
6.0
 40
6.0
 40
6.0
 10
1.856234546703987
 20
5.737377514223254
 30
0.0
 10
1.856234546703987
 20
5.737377514223254
 30
0.0
 10
1.840712776654456
 20
5.737377514223254
 30
0.0
 10
1.840712776654456
 20
5.737377514223254
 30
0.0
 10
1.811432156510676
 20
5.737377514223254
 30
0.0
 10
1.788148155695893
 20
5.761008716067408
 30
0.0
 10
1.788148155695893
 20
5.789936752220114
 30
0.0
 10
1.788148155695893
 20
5.81886478837282
 30
0.0
 10
1.811432156510676
 20
5.842495990216932
 30
0.0
 10
1.840712776654456
 20
5.842495990216932
 30
0.0
 10
1.840712776654456
 20
5.842495990216932
 30
0.0
 10
1.856234546703987
 20
5.842495990216932
 30
0.0
 10
1.856234546703987
 20
5.842495990216932
 30
0.0
 10
1.885162582856693
 20
5.842495990216932
 30
0.0
 10
1.908799167662536
 20
5.81886478837282
 30
0.0
 10
1.908799167662536
 20
5.789936752220114
 30
0.0
 10
1.908799167662536
 20
5.761008716067408
 30
0.0
 10
1.885162582856693
 20
5.737377514223254
 30
0.0
 10
1.856234546703987
 20
5.737377514223254
 30
0.0
  0
SPLINE
  5
29D
330
28F
100
AcDbEntity
  8
Livello 1
100
AcDbSpline
210
0.0
220
0.0
230
1.0
 70
     9
 71
     3
 72
    23
 73
    19
 74
     0
 42
0.000000001
 43
0.0000000001
 40
0.0
 40
0.0
 40
0.0
 40
0.0
 40
1.0
 40
1.0
 40
1.0
 40
2.0
 40
2.0
 40
2.0
 40
3.0
 40
3.0
 40
3.0
 40
4.0
 40
4.0
 40
4.0
 40
5.0
 40
5.0
 40
5.0
 40
6.0
 40
6.0
 40
6.0
 40
6.0
 10
1.715124243072409
 20
5.737377514223254
 30
0.0
 10
1.686196206919703
 20
5.737377514223254
 30
0.0
 10
1.662559622113889
 20
5.761008716067408
 30
0.0
 10
1.662559622113889
 20
5.789936752220114
 30
0.0
 10
1.662559622113889
 20
5.789936752220114
 30
0.0
 10
1.662559622113889
 20
5.899652277501928
 30
0.0
 10
1.662559622113889
 20
5.899652277501928
 30
0.0
 10
1.662559622113889
 20
5.928580313654634
 30
0.0
 10
1.686196206919703
 20
5.952211515498774
 30
0.0
 10
1.715124243072409
 20
5.952211515498774
 30
0.0
 10
1.7440509334847
 20
5.952211515498774
 30
0.0
 10
1.767687518290543
 20
5.928580313654634
 30
0.0
 10
1.767687518290543
 20
5.899652277501928
 30
0.0
 10
1.767687518290543
 20
5.899652277501928
 30
0.0
 10
1.767687518290543
 20
5.789936752220114
 30
0.0
 10
1.767687518290543
 20
5.789936752220114
 30
0.0
 10
1.767687518290543
 20
5.761008716067408
 30
0.0
 10
1.7440509334847
 20
5.737377514223254
 30
0.0
 10
1.715124243072409
 20
5.737377514223254
 30
0.0
  0
SPLINE
  5
29E
330
28F
100
AcDbEntity
  8
Livello 1
100
AcDbSpline
210
0.0
220
0.0
230
1.0
 70
     9
 71
     3
 72
    23
 73
    19
 74
     0
 42
0.000000001
 43
0.0000000001
 40
0.0
 40
0.0
 40
0.0
 40
0.0
 40
1.0
 40
1.0
 40
1.0
 40
2.0
 40
2.0
 40
2.0
 40
3.0
 40
3.0
 40
3.0
 40
4.0
 40
4.0
 40
4.0
 40
5.0
 40
5.0
 40
5.0
 40
6.0
 40
6.0
 40
6.0
 40
6.0
 10
1.620933179321013
 20
3.564545025752806
 30
0.0
 10
1.592005143168307
 20
3.564545025752806
 30
0.0
 10
1.568368558362479
 20
3.588176227596932
 30
0.0
 10
1.568368558362479
 20
3.617104263749638
 30
0.0
 10
1.568368558362479
 20
3.617104263749638
 30
0.0
 10
1.568368558362479
 20
3.951536907980269
 30
0.0
 10
1.568368558362479
 20
3.951536907980269
 30
0.0
 10
1.568368558362479
 20
3.980464944132975
 30
0.0
 10
1.592005143168307
 20
4.004096145977115
 30
0.0
 10
1.620933179321013
 20
4.004096145977115
 30
0.0
 10
1.649859869733319
 20
4.004096145977115
 30
0.0
 10
1.673496454539119
 20
3.980464944132975
 30
0.0
 10
1.673496454539119
 20
3.951536907980269
 30
0.0
 10
1.673496454539119
 20
3.951536907980269
 30
0.0
 10
1.673496454539119
 20
3.617104263749638
 30
0.0
 10
1.673496454539119
 20
3.617104263749638
 30
0.0
 10
1.673496454539119
 20
3.588176227596932
 30
0.0
 10
1.649859869733319
 20
3.564545025752806
 30
0.0
 10
1.620933179321013
 20
3.564545025752806
 30
0.0
  0
SPLINE
  5
29F
330
28F
100
AcDbEntity
  8
Livello 1
100
AcDbSpline
210
0.0
220
0.0
230
1.0
 70
     9
 71
     3
 72
    71
 73
    67
 74
     0
 42
0.000000001
 43
0.0000000001
 40
0.0
 40
0.0
 40
0.0
 40
0.0
 40
1.0
 40
1.0
 40
1.0
 40
2.0
 40
2.0
 40
2.0
 40
3.0
 40
3.0
 40
3.0
 40
4.0
 40
4.0
 40
4.0
 40
5.0
 40
5.0
 40
5.0
 40
6.0
 40
6.0
 40
6.0
 40
7.0
 40
7.0
 40
7.0
 40
8.0
 40
8.0
 40
8.0
 40
9.0
 40
9.0
 40
9.0
 40
10.0
 40
10.0
 40
10.0
 40
11.0
 40
11.0
 40
11.0
 40
12.0
 40
12.0
 40
12.0
 40
13.0
 40
13.0
 40
13.0
 40
14.0
 40
14.0
 40
14.0
 40
15.0
 40
15.0
 40
15.0
 40
16.0
 40
16.0
 40
16.0
 40
17.0
 40
17.0
 40
17.0
 40
18.0
 40
18.0
 40
18.0
 40
19.0
 40
19.0
 40
19.0
 40
20.0
 40
20.0
 40
20.0
 40
21.0
 40
21.0
 40
21.0
 40
22.0
 40
22.0
 40
22.0
 40
22.0
 10
9.276950035825763
 20
1.985227127927146
 30
0.0
 10
9.276950035825763
 20
1.985227127927146
 30
0.0
 10
1.040648562783815
 20
1.985227127927146
 30
0.0
 10
1.040648562783815
 20
1.985227127927146
 30
0.0
 10
1.011367942640049
 20
1.985227127927146
 30
0.0
 10
0.9880839418252662
 20
2.008869095694677
 30
0.0
 10
0.9880839418252662
 20
2.037786365923992
 30
0.0
 10
0.9880839418252662
 20
2.066714402076712
 30
0.0
 10
1.011367942640049
 20
2.090001094372311
 30
0.0
 10
1.040648562783815
 20
2.090001094372311
 30
0.0
 10
1.040648562783815
 20
2.090001094372311
 30
0.0
 10
8.700157615688709
 20
2.090001094372311
 30
0.0
 10
8.700157615688709
 20
2.090001094372311
 30
0.0
 10
8.694513580350744
 20
2.091411430336577
 30
0.0
 10
8.689574712994954
 20
2.09353231724468
 30
0.0
 10
8.684635845639135
 20
2.09635298917324
 30
0.0
 10
8.684635845639135
 20
2.09635298917324
 30
0.0
 10
1.040648562783815
 20
2.09635298917324
 30
0.0
 10
1.040648562783815
 20
2.09635298917324
 30
0.0
 10
1.011367942640049
 20
2.09635298917324
 30
0.0
 10
0.9880839418252662
 20
2.119984191017366
 30
0.0
 10
0.9880839418252662
 20
2.148912227170072
 30
0.0
 10
0.9880839418252662
 20
2.178195538794696
 30
0.0
 10
1.011367942640049
 20
2.201482231090309
 30
0.0
 10
1.040648562783815
 20
2.201482231090309
 30
0.0
 10
1.040648562783815
 20
2.201482231090309
 30
0.0
 10
1.560642662588705
 20
2.201482231090309
 30
0.0
 10
1.560642662588705
 20
2.201482231090309
 30
0.0
 10
1.560642662588705
 20
2.201482231090309
 30
0.0
 10
1.560642662588705
 20
3.603420775119161
 30
0.0
 10
1.560642662588705
 20
3.603420775119161
 30
0.0
 10
1.560642662588705
 20
3.632348811271882
 30
0.0
 10
1.583925317663059
 20
3.655980013116007
 30
0.0
 10
1.613205937806839
 20
3.655980013116007
 30
0.0
 10
1.613205937806839
 20
3.655980013116007
 30
0.0
 10
8.712153545827561
 20
3.655980013116007
 30
0.0
 10
8.712153545827561
 20
3.655980013116007
 30
0.0
 10
8.741434165971327
 20
3.655980013116007
 30
0.0
 10
8.764718166786096
 20
3.632348811271882
 30
0.0
 10
8.764718166786096
 20
3.603420775119161
 30
0.0
 10
8.764718166786096
 20
3.603420775119161
 30
0.0
 10
8.764718166786096
 20
2.201482231090309
 30
0.0
 10
8.764718166786096
 20
2.201482231090309
 30
0.0
 10
8.764718166786096
 20
2.201482231090309
 30
0.0
 10
9.276950035825763
 20
2.201482231090309
 30
0.0
 10
9.276950035825763
 20
2.201482231090309
 30
0.0
 10
9.305878071978483
 20
2.201482231090309
 30
0.0
 10
9.32951465678434
 20
2.178195538794696
 30
0.0
 10
9.32951465678434
 20
2.148912227170072
 30
0.0
 10
9.32951465678434
 20
2.119984191017366
 30
0.0
 10
9.305878071978483
 20
2.09635298917324
 30
0.0
 10
9.276950035825763
 20
2.09635298917324
 30
0.0
 10
9.276950035825763
 20
2.09635298917324
 30
0.0
 10
8.740023830007061
 20
2.09635298917324
 30
0.0
 10
8.740023830007061
 20
2.09635298917324
 30
0.0
 10
8.735084962651257
 20
2.09353231724468
 30
0.0
 10
8.730146095295467
 20
2.091411430336577
 30
0.0
 10
8.724499368476656
 20
2.090001094372311
 30
0.0
 10
8.724499368476656
 20
2.090001094372311
 30
0.0
 10
9.276950035825763
 20
2.090001094372311
 30
0.0
 10
9.276950035825763
 20
2.090001094372311
 30
0.0
 10
9.305878071978483
 20
2.090001094372311
 30
0.0
 10
9.32951465678434
 20
2.066714402076712
 30
0.0
 10
9.32951465678434
 20
2.037786365923992
 30
0.0
 10
9.32951465678434
 20
2.008869095694677
 30
0.0
 10
9.305878071978483
 20
1.985227127927146
 30
0.0
 10
9.276950035825763
 20
1.985227127927146
 30
0.0
  0
POLYLINE
  5
2A0
330
28F
100
AcDbEntity
  8
Livello 1
100
AcDb2dPolyline
 66
     1
 10
0.0
 20
0.0
 30
0.0
  0
VERTEX
  5
2A1
330
2A0
100
AcDbEntity
  8
Livello 1
100
AcDbVertex
100
AcDb2dVertex
 10
1.665770558765387
 20
2.201482231090309
 30
0.0
  0
VERTEX
  5
2A2
330
2A0
100
AcDbEntity
  8
Livello 1
100
AcDbVertex
100
AcDb2dVertex
 10
8.659941508860114
 20
2.201482231090309
 30
0.0
  0
VERTEX
  5
2A3
330
2A0
100
AcDbEntity
  8
Livello 1
100
AcDbVertex
100
AcDb2dVertex
 10
8.659941508860114
 20
3.550850771198938
 30
0.0
  0
VERTEX
  5
2A4
330
2A0
100
AcDbEntity
  8
Livello 1
100
AcDbVertex
100
AcDb2dVertex
 10
1.665770558765387
 20
3.550850771198938
 30
0.0
  0
VERTEX
  5
2A5
330
2A0
100
AcDbEntity
  8
Livello 1
100
AcDbVertex
100
AcDb2dVertex
 10
1.665770558765387
 20
2.201482231090309
 30
0.0
  0
SEQEND
  5
2A6
330
2A0
100
AcDbEntity
  8
Livello 1
  0
SPLINE
  5
2A7
330
28F
100
AcDbEntity
  8
Livello 1
100
AcDbSpline
210
0.0
220
0.0
230
1.0
 70
     9
 71
     3
 72
    98
 73
    94
 74
     0
 42
0.000000001
 43
0.0000000001
 40
0.0
 40
0.0
 40
0.0
 40
0.0
 40
1.0
 40
1.0
 40
1.0
 40
2.0
 40
2.0
 40
2.0
 40
3.0
 40
3.0
 40
3.0
 40
4.0
 40
4.0
 40
4.0
 40
5.0
 40
5.0
 40
5.0
 40
6.0
 40
6.0
 40
6.0
 40
7.0
 40
7.0
 40
7.0
 40
8.0
 40
8.0
 40
8.0
 40
9.0
 40
9.0
 40
9.0
 40
10.0
 40
10.0
 40
10.0
 40
11.0
 40
11.0
 40
11.0
 40
12.0
 40
12.0
 40
12.0
 40
13.0
 40
13.0
 40
13.0
 40
14.0
 40
14.0
 40
14.0
 40
15.0
 40
15.0
 40
15.0
 40
16.0
 40
16.0
 40
16.0
 40
17.0
 40
17.0
 40
17.0
 40
18.0
 40
18.0
 40
18.0
 40
19.0
 40
19.0
 40
19.0
 40
20.0
 40
20.0
 40
20.0
 40
21.0
 40
21.0
 40
21.0
 40
22.0
 40
22.0
 40
22.0
 40
23.0
 40
23.0
 40
23.0
 40
24.0
 40
24.0
 40
24.0
 40
25.0
 40
25.0
 40
25.0
 40
26.0
 40
26.0
 40
26.0
 40
27.0
 40
27.0
 40
27.0
 40
28.0
 40
28.0
 40
28.0
 40
29.0
 40
29.0
 40
29.0
 40
30.0
 40
30.0
 40
30.0
 40
31.0
 40
31.0
 40
31.0
 40
31.0
 10
2.750562494308908
 20
3.899042265523775
 30
0.0
 10
2.750562494308908
 20
3.899042265523775
 30
0.0
 10
2.750208564577448
 20
3.899042265523775
 30
0.0
 10
2.750208564577448
 20
3.899042265523775
 30
0.0
 10
2.750208564577448
 20
3.899042265523775
 30
0.0
 10
2.327228891933344
 20
3.899042265523775
 30
0.0
 10
2.327228891933344
 20
3.899042265523775
 30
0.0
 10
2.327228891933344
 20
3.899042265523775
 30
0.0
 10
2.326876307942256
 20
3.899042265523775
 30
0.0
 10
2.326876307942256
 20
3.899042265523775
 30
0.0
 10
2.326876307942256
 20
3.899042265523775
 30
0.0
 10
2.045006938929759
 20
3.899042265523775
 30
0.0
 10
2.045006938929759
 20
3.899042265523775
 30
0.0
 10
2.045006938929759
 20
3.899042265523775
 30
0.0
 10
2.044300425207197
 20
3.899042265523775
 30
0.0
 10
2.044300425207197
 20
3.899042265523775
 30
0.0
 10
2.044300425207197
 20
3.899042265523775
 30
0.0
 10
1.620966822831604
 20
3.899042265523775
 30
0.0
 10
1.620966822831604
 20
3.899042265523775
 30
0.0
 10
1.591687548428268
 20
3.899042265523775
 30
0.0
 10
1.568403547613485
 20
3.922684233291306
 30
0.0
 10
1.568403547613485
 20
3.951612269444012
 30
0.0
 10
1.568403547613485
 20
3.980540305596719
 30
0.0
 10
1.591687548428268
 20
4.004171507440858
 30
0.0
 10
1.620966822831604
 20
4.004171507440858
 30
0.0
 10
1.620966822831604
 20
4.004171507440858
 30
0.0
 10
1.993147485953343
 20
4.004171507440858
 30
0.0
 10
1.993147485953343
 20
4.004171507440858
 30
0.0
 10
1.993147485953343
 20
4.004171507440858
 30
0.0
 10
2.023487203810759
 20
5.994543126273754
 30
0.0
 10
2.023487203810759
 20
5.994543126273754
 30
0.0
 10
2.023839787801833
 20
6.023826437898392
 30
0.0
 10
2.04606469090298
 20
6.04640257925017
 30
0.0
 10
2.076756992751441
 20
6.04640257925017
 30
0.0
 10
2.106036267154763
 20
6.04570279422974
 30
0.0
 10
2.128967683978501
 20
6.022060826462208
 30
0.0
 10
2.128615099987413
 20
5.993132790309502
 30
0.0
 10
2.128615099987413
 20
5.993132790309502
 30
0.0
 10
2.097922798138938
 20
4.004171507440858
 30
0.0
 10
2.097922798138938
 20
4.004171507440858
 30
0.0
 10
2.097922798138938
 20
4.004171507440858
 30
0.0
 10
2.275723368688403
 20
4.004171507440858
 30
0.0
 10
2.275723368688403
 20
4.004171507440858
 30
0.0
 10
2.275723368688403
 20
4.004171507440858
 30
0.0
 10
2.321583510854992
 20
6.057696032887761
 30
0.0
 10
2.321583510854992
 20
6.057696032887761
 30
0.0
 10
2.321937440586467
 20
6.086268793568564
 30
0.0
 10
2.345572679651894
 20
6.109200210392245
 30
0.0
 10
2.373795547822453
 20
6.109200210392245
 30
0.0
 10
2.373795547822453
 20
6.109200210392245
 30
0.0
 10
2.37485329979566
 20
6.109200210392245
 30
0.0
 10
2.37485329979566
 20
6.109200210392245
 30
0.0
 10
2.404133919939425
 20
6.108489659448423
 30
0.0
 10
2.427065336763106
 20
6.084503182132365
 30
0.0
 10
2.426358823040558
 20
6.055575145979659
 30
0.0
 10
2.426358823040558
 20
6.055575145979659
 30
0.0
 10
2.380851264865114
 20
4.004171507440858
 30
0.0
 10
2.380851264865114
 20
4.004171507440858
 30
0.0
 10
2.380851264865114
 20
4.004171507440858
 30
0.0
 10
2.699056971064024
 20
4.004171507440858
 30
0.0
 10
2.699056971064024
 20
4.004171507440858
 30
0.0
 10
2.699056971064024
 20
4.004171507440858
 30
0.0
 10
2.745269697221615
 20
6.136362635108767
 30
0.0
 10
2.745269697221615
 20
6.136362635108767
 30
0.0
 10
2.745976210944178
 20
6.165290671261473
 30
0.0
 10
2.769964034000665
 20
6.186101201177052
 30
0.0
 10
2.798892070153385
 20
6.187511537141332
 30
0.0
 10
2.827820106306077
 20
6.186811752120888
 30
0.0
 10
2.850750177389357
 20
6.163169784353371
 30
0.0
 10
2.85004500940721
 20
6.133897238652124
 30
0.0
 10
2.85004500940721
 20
6.133897238652124
 30
0.0
 10
2.803125769527028
 20
3.95055720895165
 30
0.0
 10
2.803125769527028
 20
3.95055720895165
 30
0.0
 10
2.803125769527028
 20
3.943850038678803
 30
0.0
 10
2.801361503831273
 20
3.93714286840597
 30
0.0
 10
2.798892070153385
 20
3.931146249076945
 30
0.0
 10
2.798892070153385
 20
3.931146249076945
 30
0.0
 10
2.798892070153385
 20
3.930801739528419
 30
0.0
 10
2.798892070153385
 20
3.930801739528419
 30
0.0
 10
2.798892070153385
 20
3.930801739528419
 30
0.0
 10
2.798539486162297
 20
3.930446464056501
 30
0.0
 10
2.798539486162297
 20
3.930446464056501
 30
0.0
 10
2.796070052484395
 20
3.924805120199422
 30
0.0
 10
2.792542866833301
 20
3.919508285890856
 30
0.0
 10
2.787956583468556
 20
3.914922002526097
 30
0.0
 10
2.782665132121678
 20
3.909280658669004
 30
0.0
 10
2.775961999070105
 20
3.905049650776177
 30
0.0
 10
2.768553698036384
 20
3.902218212924239
 30
0.0
 10
2.768553698036384
 20
3.902218212924239
 30
0.0
 10
2.768201114045325
 20
3.902218212924239
 30
0.0
 10
2.768201114045325
 20
3.902218212924239
 30
0.0
 10
2.762909662698461
 20
3.900108091939529
 30
0.0
 10
2.756911697629035
 20
3.899042265523775
 30
0.0
 10
2.750562494308908
 20
3.899042265523775
 30
0.0
  0
SPLINE
  5
2A8
330
28F
100
AcDbEntity
  8
Livello 1
100
AcDbSpline
210
0.0
220
0.0
230
1.0
 70
     9
 71
     3
 72
    23
 73
    19
 74
     0
 42
0.000000001
 43
0.0000000001
 40
0.0
 40
0.0
 40
0.0
 40
0.0
 40
1.0
 40
1.0
 40
1.0
 40
2.0
 40
2.0
 40
2.0
 40
3.0
 40
3.0
 40
3.0
 40
4.0
 40
4.0
 40
4.0
 40
5.0
 40
5.0
 40
5.0
 40
6.0
 40
6.0
 40
6.0
 40
6.0
 10
8.696631775777987
 20
3.899042265523775
 30
0.0
 10
8.696631775777987
 20
3.899042265523775
 30
0.0
 10
7.567037450041098
 20
3.899042265523775
 30
0.0
 10
7.567037450041098
 20
3.899042265523775
 30
0.0
 10
7.53810941388842
 20
3.899042265523775
 30
0.0
 10
7.514472829082563
 20
3.922684233291306
 30
0.0
 10
7.514472829082563
 20
3.951612269444012
 30
0.0
 10
7.514472829082563
 20
3.980540305596719
 30
0.0
 10
7.53810941388842
 20
4.004171507440858
 30
0.0
 10
7.567037450041098
 20
4.004171507440858
 30
0.0
 10
7.567037450041098
 20
4.004171507440858
 30
0.0
 10
8.696631775777987
 20
4.004171507440858
 30
0.0
 10
8.696631775777987
 20
4.004171507440858
 30
0.0
 10
8.725559811930693
 20
4.004171507440858
 30
0.0
 10
8.749193705255692
 20
3.980540305596719
 30
0.0
 10
8.749193705255692
 20
3.951612269444012
 30
0.0
 10
8.749193705255692
 20
3.922684233291306
 30
0.0
 10
8.725559811930693
 20
3.899042265523775
 30
0.0
 10
8.696631775777987
 20
3.899042265523775
 30
0.0
  0
SPLINE
  5
2A9
330
28F
100
AcDbEntity
  8
Livello 1
100
AcDbSpline
210
0.0
220
0.0
230
1.0
 70
     9
 71
     3
 72
    41
 73
    37
 74
     0
 42
0.000000001
 43
0.0000000001
 40
0.0
 40
0.0
 40
0.0
 40
0.0
 40
1.0
 40
1.0
 40
1.0
 40
2.0
 40
2.0
 40
2.0
 40
3.0
 40
3.0
 40
3.0
 40
4.0
 40
4.0
 40
4.0
 40
5.0
 40
5.0
 40
5.0
 40
6.0
 40
6.0
 40
6.0
 40
7.0
 40
7.0
 40
7.0
 40
8.0
 40
8.0
 40
8.0
 40
9.0
 40
9.0
 40
9.0
 40
10.0
 40
10.0
 40
10.0
 40
11.0
 40
11.0
 40
11.0
 40
12.0
 40
12.0
 40
12.0
 40
12.0
 10
1.856270881695465
 20
5.737377514223254
 30
0.0
 10
1.856270881695465
 20
5.737377514223254
 30
0.0
 10
1.840747765905447
 20
5.737377514223254
 30
0.0
 10
1.840747765905447
 20
5.737377514223254
 30
0.0
 10
1.8379257482365
 20
5.737377514223254
 30
0.0
 10
1.835103730567553
 20
5.737722023771794
 30
0.0
 10
1.832634296889608
 20
5.738077299243713
 30
0.0
 10
1.830164863211706
 20
5.737722023771794
 30
0.0
 10
1.827695429533818
 20
5.737377514223254
 30
0.0
 10
1.824873411864828
 20
5.737377514223254
 30
0.0
 10
1.824873411864828
 20
5.737377514223254
 30
0.0
 10
1.809350296074839
 20
5.737377514223254
 30
0.0
 10
1.809350296074839
 20
5.737377514223254
 30
0.0
 10
1.780423605662576
 20
5.737377514223254
 30
0.0
 10
1.756787020856734
 20
5.761008716067408
 30
0.0
 10
1.756787020856734
 20
5.789936752220114
 30
0.0
 10
1.756787020856734
 20
5.81886478837282
 30
0.0
 10
1.780423605662576
 20
5.842495990216932
 30
0.0
 10
1.809350296074839
 20
5.842495990216932
 30
0.0
 10
1.809350296074839
 20
5.842495990216932
 30
0.0
 10
1.824873411864828
 20
5.842495990216932
 30
0.0
 10
1.824873411864828
 20
5.842495990216932
 30
0.0
 10
1.827695429533818
 20
5.842495990216932
 30
0.0
 10
1.830164863211706
 20
5.84215148066842
 30
0.0
 10
1.832634296889608
 20
5.841796205196502
 30
0.0
 10
1.835103730567553
 20
5.84215148066842
 30
0.0
 10
1.8379257482365
 20
5.842495990216932
 30
0.0
 10
1.840747765905447
 20
5.842495990216932
 30
0.0
 10
1.840747765905447
 20
5.842495990216932
 30
0.0
 10
1.856270881695465
 20
5.842495990216932
 30
0.0
 10
1.856270881695465
 20
5.842495990216932
 30
0.0
 10
1.885197572107756
 20
5.842495990216932
 30
0.0
 10
1.90883415691357
 20
5.81886478837282
 30
0.0
 10
1.90883415691357
 20
5.789936752220114
 30
0.0
 10
1.90883415691357
 20
5.761008716067408
 30
0.0
 10
1.885197572107756
 20
5.737377514223254
 30
0.0
 10
1.856270881695465
 20
5.737377514223254
 30
0.0
  0
POLYLINE
  5
2AA
330
28F
100
AcDbEntity
  8
Livello 1
100
AcDb2dPolyline
 66
     1
 10
0.0
 20
0.0
 30
0.0
  0
VERTEX
  5
2AB
330
2AA
100
AcDbEntity
  8
Livello 1
100
AcDbVertex
100
AcDb2dVertex
 10
8.571114566438467
 20
3.96749200644632
 30
0.0
  0
VERTEX
  5
2AC
330
2AA
100
AcDbEntity
  8
Livello 1
100
AcDbVertex
100
AcDb2dVertex
 10
8.476920811206198
 20
3.96749200644632
 30
0.0
  0
VERTEX
  5
2AD
330
2AA
100
AcDbEntity
  8
Livello 1
100
AcDbVertex
100
AcDb2dVertex
 10
8.696701754280056
 20
3.96749200644632
 30
0.0
  0
SEQEND
  5
2AE
330
2AA
100
AcDbEntity
  8
Livello 1
  0
SPLINE
  5
2AF
330
28F
100
AcDbEntity
  8
Livello 1
100
AcDbSpline
210
0.0
220
0.0
230
1.0
 70
     9
 71
     3
 72
    23
 73
    19
 74
     0
 42
0.000000001
 43
0.0000000001
 40
0.0
 40
0.0
 40
0.0
 40
0.0
 40
1.0
 40
1.0
 40
1.0
 40
2.0
 40
2.0
 40
2.0
 40
3.0
 40
3.0
 40
3.0
 40
4.0
 40
4.0
 40
4.0
 40
5.0
 40
5.0
 40
5.0
 40
6.0
 40
6.0
 40
6.0
 40
6.0
 10
8.571184544940493
 20
3.993157967811441
 30
0.0
 10
8.571184544940493
 20
3.993157967811441
 30
0.0
 10
8.476990789708253
 20
3.993157967811441
 30
0.0
 10
8.476990789708253
 20
3.993157967811441
 30
0.0
 10
8.448062753555547
 20
3.993157967811441
 30
0.0
 10
8.424428860230534
 20
4.016799935578973
 30
0.0
 10
8.424428860230534
 20
4.045727971731679
 30
0.0
 10
8.424428860230534
 20
4.074656007884385
 30
0.0
 10
8.448062753555547
 20
4.098287209728525
 30
0.0
 10
8.476990789708253
 20
4.098287209728525
 30
0.0
 10
8.476990789708253
 20
4.098287209728525
 30
0.0
 10
8.571184544940493
 20
4.098287209728525
 30
0.0
 10
8.571184544940493
 20
4.098287209728525
 30
0.0
 10
8.600109889612355
 20
4.098287209728525
 30
0.0
 10
8.623746474418183
 20
4.074656007884385
 30
0.0
 10
8.623746474418183
 20
4.045727971731679
 30
0.0
 10
8.623746474418183
 20
4.016799935578973
 30
0.0
 10
8.600109889612355
 20
3.993157967811441
 30
0.0
 10
8.571184544940493
 20
3.993157967811441
 30
0.0
  0
SPLINE
  5
2B0
330
28F
100
AcDbEntity
  8
Livello 1
100
AcDbSpline
210
0.0
220
0.0
230
1.0
 70
     9
 71
     3
 72
    23
 73
    19
 74
     0
 42
0.000000001
 43
0.0000000001
 40
0.0
 40
0.0
 40
0.0
 40
0.0
 40
1.0
 40
1.0
 40
1.0
 40
2.0
 40
2.0
 40
2.0
 40
3.0
 40
3.0
 40
3.0
 40
4.0
 40
4.0
 40
4.0
 40
5.0
 40
5.0
 40
5.0
 40
6.0
 40
6.0
 40
6.0
 40
6.0
 10
8.571184544940493
 20
4.44824431548956
 30
0.0
 10
8.571184544940493
 20
4.44824431548956
 30
0.0
 10
8.461116435667605
 20
4.44824431548956
 30
0.0
 10
8.461116435667605
 20
4.44824431548956
 30
0.0
 10
8.432188399514899
 20
4.44824431548956
 30
0.0
 10
8.408904398700144
 20
4.471531007785173
 30
0.0
 10
8.408904398700144
 20
4.500803553486392
 30
0.0
 10
8.408904398700144
 20
4.529731589639112
 30
0.0
 10
8.432188399514899
 20
4.553018281934726
 30
0.0
 10
8.461116435667605
 20
4.553018281934726
 30
0.0
 10
8.461116435667605
 20
4.553018281934726
 30
0.0
 10
8.571184544940493
 20
4.553018281934726
 30
0.0
 10
8.571184544940493
 20
4.553018281934726
 30
0.0
 10
8.600109889612355
 20
4.553018281934726
 30
0.0
 10
8.623746474418183
 20
4.529731589639112
 30
0.0
 10
8.623746474418183
 20
4.500803553486392
 30
0.0
 10
8.623746474418183
 20
4.471531007785173
 30
0.0
 10
8.600109889612355
 20
4.44824431548956
 30
0.0
 10
8.571184544940493
 20
4.44824431548956
 30
0.0
  0
SPLINE
  5
2B1
330
28F
100
AcDbEntity
  8
Livello 1
100
AcDbSpline
210
0.0
220
0.0
230
1.0
 70
     9
 71
     3
 72
    23
 73
    19
 74
     0
 42
0.000000001
 43
0.0000000001
 40
0.0
 40
0.0
 40
0.0
 40
0.0
 40
1.0
 40
1.0
 40
1.0
 40
2.0
 40
2.0
 40
2.0
 40
3.0
 40
3.0
 40
3.0
 40
4.0
 40
4.0
 40
4.0
 40
5.0
 40
5.0
 40
5.0
 40
6.0
 40
6.0
 40
6.0
 40
6.0
 10
7.519906928914394
 20
4.620757471913449
 30
0.0
 10
7.519906928914394
 20
4.620757471913449
 30
0.0
 10
2.797623036933615
 20
4.620757471913449
 30
0.0
 10
2.797623036933615
 20
4.620757471913449
 30
0.0
 10
2.768695000780908
 20
4.620757471913449
 30
0.0
 10
2.745412345706569
 20
4.644388673757575
 30
0.0
 10
2.745412345706569
 20
4.673316709910281
 30
0.0
 10
2.745412345706569
 20
4.702244746063001
 30
0.0
 10
2.768695000780908
 20
4.725875947907113
 30
0.0
 10
2.797623036933615
 20
4.725875947907113
 30
0.0
 10
2.797623036933615
 20
4.725875947907113
 30
0.0
 10
7.519906928914394
 20
4.725875947907113
 30
0.0
 10
7.519906928914394
 20
4.725875947907113
 30
0.0
 10
7.548833619326671
 20
4.725875947907113
 30
0.0
 10
7.5724702041325
 20
4.702244746063001
 30
0.0
 10
7.5724702041325
 20
4.673316709910281
 30
0.0
 10
7.5724702041325
 20
4.644388673757575
 30
0.0
 10
7.548833619326671
 20
4.620757471913449
 30
0.0
 10
7.519906928914394
 20
4.620757471913449
 30
0.0
  0
SPLINE
  5
2B2
330
28F
100
AcDbEntity
  8
Livello 1
100
AcDbSpline
210
0.0
220
0.0
230
1.0
 70
     9
 71
     3
 72
    23
 73
    19
 74
     0
 42
0.000000001
 43
0.0000000001
 40
0.0
 40
0.0
 40
0.0
 40
0.0
 40
1.0
 40
1.0
 40
1.0
 40
2.0
 40
2.0
 40
2.0
 40
3.0
 40
3.0
 40
3.0
 40
4.0
 40
4.0
 40
4.0
 40
5.0
 40
5.0
 40
5.0
 40
6.0
 40
6.0
 40
6.0
 40
6.0
 10
1.872075257234016
 20
5.737377514223254
 30
0.0
 10
1.872075257234016
 20
5.737377514223254
 30
0.0
 10
1.620896844329564
 20
5.737377514223254
 30
0.0
 10
1.620896844329564
 20
5.737377514223254
 30
0.0
 10
1.591968808176858
 20
5.737377514223254
 30
0.0
 10
1.568333569111459
 20
5.761008716067408
 30
0.0
 10
1.568333569111459
 20
5.789936752220114
 30
0.0
 10
1.568333569111459
 20
5.81886478837282
 30
0.0
 10
1.591968808176858
 20
5.842495990216932
 30
0.0
 10
1.620896844329564
 20
5.842495990216932
 30
0.0
 10
1.620896844329564
 20
5.842495990216932
 30
0.0
 10
1.872075257234016
 20
5.842495990216932
 30
0.0
 10
1.872075257234016
 20
5.842495990216932
 30
0.0
 10
1.901001947646335
 20
5.842495990216932
 30
0.0
 10
1.924638532452135
 20
5.81886478837282
 30
0.0
 10
1.924638532452135
 20
5.789936752220114
 30
0.0
 10
1.924638532452135
 20
5.761008716067408
 30
0.0
 10
1.901001947646335
 20
5.737377514223254
 30
0.0
 10
1.872075257234016
 20
5.737377514223254
 30
0.0
  0
POLYLINE
  5
2B3
330
28F
100
AcDbEntity
  8
Livello 1
100
AcDb2dPolyline
 66
     1
 10
0.0
 20
0.0
 30
0.0
  0
VERTEX
  5
2B4
330
2B3
100
AcDbEntity
  8
Livello 1
100
AcDbVertex
100
AcDb2dVertex
 10
8.696561797275961
 20
5.789872156679763
 30
0.0
  0
VERTEX
  5
2B5
330
2B3
100
AcDbEntity
  8
Livello 1
100
AcDbVertex
100
AcDb2dVertex
 10
8.445734622622126
 20
5.789872156679763
 30
0.0
  0
VERTEX
  5
2B6
330
2B3
100
AcDbEntity
  8
Livello 1
100
AcDbVertex
100
AcDb2dVertex
 10
8.602368042043707
 20
5.789872156679763
 30
0.0
  0
SEQEND
  5
2B7
330
2B3
100
AcDbEntity
  8
Livello 1
  0
SPLINE
  5
2B8
330
28F
100
AcDbEntity
  8
Livello 1
100
AcDbSpline
210
0.0
220
0.0
230
1.0
 70
     9
 71
     3
 72
    59
 73
    55
 74
     0
 42
0.000000001
 43
0.0000000001
 40
0.0
 40
0.0
 40
0.0
 40
0.0
 40
1.0
 40
1.0
 40
1.0
 40
2.0
 40
2.0
 40
2.0
 40
3.0
 40
3.0
 40
3.0
 40
4.0
 40
4.0
 40
4.0
 40
5.0
 40
5.0
 40
5.0
 40
6.0
 40
6.0
 40
6.0
 40
7.0
 40
7.0
 40
7.0
 40
8.0
 40
8.0
 40
8.0
 40
9.0
 40
9.0
 40
9.0
 40
10.0
 40
10.0
 40
10.0
 40
11.0
 40
11.0
 40
11.0
 40
12.0
 40
12.0
 40
12.0
 40
13.0
 40
13.0
 40
13.0
 40
14.0
 40
14.0
 40
14.0
 40
15.0
 40
15.0
 40
15.0
 40
16.0
 40
16.0
 40
16.0
 40
17.0
 40
17.0
 40
17.0
 40
18.0
 40
18.0
 40
18.0
 40
18.0
 10
7.566967471539058
 20
3.899149924757679
 30
0.0
 10
7.538744603368485
 20
3.899149924757679
 30
0.0
 10
7.515461948294159
 20
3.921726066109471
 30
0.0
 10
7.514756780312026
 20
3.950298826790259
 30
0.0
 10
7.514756780312026
 20
3.950298826790259
 30
0.0
 10
7.451609256659736
 20
6.337545445523957
 30
0.0
 10
7.451609256659736
 20
6.337545445523957
 30
0.0
 10
7.451609256659736
 20
6.341421177944866
 30
0.0
 10
7.451961840650824
 20
6.345307676289166
 30
0.0
 10
7.452667008632943
 20
6.349183408710075
 30
0.0
 10
7.452667008632943
 20
6.349183408710075
 30
0.0
 10
3.807061583179887
 20
6.349183408710075
 30
0.0
 10
3.807061583179887
 20
6.349183408710075
 30
0.0
 10
3.807061583179887
 20
6.349183408710075
 30
0.0
 10
1.788467096176376
 20
5.942436057059353
 30
0.0
 10
1.788467096176376
 20
5.942436057059353
 30
0.0
 10
1.760598157737305
 20
5.936794713202274
 30
0.0
 10
1.732375289566746
 20
5.955129080737833
 30
0.0
 10
1.726378670237707
 20
5.983357331870109
 30
0.0
 10
1.72073463489977
 20
6.011930092550898
 30
0.0
 10
1.739078422618305
 20
6.039803068211242
 30
0.0
 10
1.767653874779952
 20
6.045444412068334
 30
0.0
 10
1.767653874779952
 20
6.045444412068334
 30
0.0
 10
3.790480715416677
 20
6.452902314662878
 30
0.0
 10
3.790480715416677
 20
6.452902314662878
 30
0.0
 10
3.79224498111246
 20
6.453257590134782
 30
0.0
 10
3.794361830799275
 20
6.4536128656067
 30
0.0
 10
3.796478680486117
 20
6.453957375155226
 30
0.0
 10
3.798595530172931
 20
6.453957375155226
 30
0.0
 10
3.800005866137212
 20
6.454312650627144
 30
0.0
 10
3.802827883806187
 20
6.453957375155226
 30
0.0
 10
3.802827883806187
 20
6.453957375155226
 30
0.0
 10
8.367065328920304
 20
6.453957375155226
 30
0.0
 10
8.367065328920304
 20
6.453957375155226
 30
0.0
 10
8.395993365072996
 20
6.453957375155226
 30
0.0
 10
8.419629949878824
 20
6.430681448783033
 30
0.0
 10
8.419629949878824
 20
6.401753412630299
 30
0.0
 10
8.419629949878824
 20
6.372470101005689
 30
0.0
 10
8.395993365072996
 20
6.349183408710075
 30
0.0
 10
8.367065328920304
 20
6.349183408710075
 30
0.0
 10
8.367065328920304
 20
6.349183408710075
 30
0.0
 10
7.555678055122754
 20
6.349183408710075
 30
0.0
 10
7.555678055122754
 20
6.349183408710075
 30
0.0
 10
7.556384568845331
 20
6.346362736781529
 30
0.0
 10
7.556737152836376
 20
6.343186789381064
 30
0.0
 10
7.556737152836376
 20
6.340366117452504
 30
0.0
 10
7.556737152836376
 20
6.340366117452504
 30
0.0
 10
7.619530746757178
 20
3.953119498718805
 30
0.0
 10
7.619530746757178
 20
3.953119498718805
 30
0.0
 10
7.620237260479754
 20
3.923836187094181
 30
0.0
 10
7.597305843656059
 20
3.899849709778138
 30
0.0
 10
7.568377807503352
 20
3.899149924757679
 30
0.0
 10
7.568377807503352
 20
3.899149924757679
 30
0.0
 10
7.566967471539058
 20
3.899149924757679
 30
0.0
 10
7.566967471539058
 20
3.899149924757679
 30
0.0
  0
SPLINE
  5
2B9
330
28F
100
AcDbEntity
  8
Livello 1
100
AcDbSpline
210
0.0
220
0.0
230
1.0
 70
     9
 71
     3
 72
    23
 73
    19
 74
     0
 42
0.000000001
 43
0.0000000001
 40
0.0
 40
0.0
 40
0.0
 40
0.0
 40
1.0
 40
1.0
 40
1.0
 40
2.0
 40
2.0
 40
2.0
 40
3.0
 40
3.0
 40
3.0
 40
4.0
 40
4.0
 40
4.0
 40
5.0
 40
5.0
 40
5.0
 40
6.0
 40
6.0
 40
6.0
 40
6.0
 10
1.872075257234016
 20
5.737474407533795
 30
0.0
 10
1.872075257234016
 20
5.737474407533795
 30
0.0
 10
1.715089253821403
 20
5.737474407533795
 30
0.0
 10
1.715089253821403
 20
5.737474407533795
 30
0.0
 10
1.686162563409141
 20
5.737474407533795
 30
0.0
 10
1.662525978603298
 20
5.760750333906003
 30
0.0
 10
1.662525978603298
 20
5.790033645530641
 30
0.0
 10
1.662525978603298
 20
5.818961681683333
 30
0.0
 10
1.686162563409141
 20
5.842248373978947
 30
0.0
 10
1.715089253821403
 20
5.842248373978947
 30
0.0
 10
1.715089253821403
 20
5.842248373978947
 30
0.0
 10
1.872075257234016
 20
5.842248373978947
 30
0.0
 10
1.872075257234016
 20
5.842248373978947
 30
0.0
 10
1.901003293386736
 20
5.842248373978947
 30
0.0
 10
1.924639878192579
 20
5.818961681683333
 30
0.0
 10
1.924639878192579
 20
5.790033645530641
 30
0.0
 10
1.924639878192579
 20
5.760750333906003
 30
0.0
 10
1.901003293386736
 20
5.737474407533795
 30
0.0
 10
1.872075257234016
 20
5.737474407533795
 30
0.0
  0
SPLINE
  5
2BA
330
28F
100
AcDbEntity
  8
Livello 1
100
AcDbSpline
210
0.0
220
0.0
230
1.0
 70
     9
 71
     3
 72
    26
 73
    22
 74
     0
 42
0.000000001
 43
0.0000000001
 40
0.0
 40
0.0
 40
0.0
 40
0.0
 40
1.0
 40
1.0
 40
1.0
 40
2.0
 40
2.0
 40
2.0
 40
3.0
 40
3.0
 40
3.0
 40
4.0
 40
4.0
 40
4.0
 40
5.0
 40
5.0
 40
5.0
 40
6.0
 40
6.0
 40
6.0
 40
7.0
 40
7.0
 40
7.0
 40
7.0
 10
8.524054023813775
 20
5.941380996567019
 30
0.0
 10
8.52123066040437
 20
5.941380996567019
 30
0.0
 10
8.518054713003905
 20
5.941725506115531
 30
0.0
 10
8.515234041075359
 20
5.942080781587449
 30
0.0
 10
8.515234041075359
 20
5.942080781587449
 30
0.0
 10
8.421395561315023
 20
5.957605243117853
 30
0.0
 10
8.421395561315023
 20
5.957605243117853
 30
0.0
 10
8.392467525162317
 20
5.962546801954516
 30
0.0
 10
8.373064639730159
 20
5.989709226671038
 30
0.0
 10
8.378003507085963
 20
6.017926711879908
 30
0.0
 10
8.382942374441768
 20
6.046854748032615
 30
0.0
 10
8.410457383149335
 20
6.066610217455846
 30
0.0
 10
8.438327667328849
 20
6.061324149070671
 30
0.0
 10
8.438327667328849
 20
6.061324149070671
 30
0.0
 10
8.532518731080259
 20
6.045444412068334
 30
0.0
 10
8.532518731080259
 20
6.045444412068334
 30
0.0
 10
8.561094183241905
 20
6.040858128703604
 30
0.0
 10
8.580497068674048
 20
6.013695703987082
 30
0.0
 10
8.575558201318258
 20
5.985122943306294
 30
0.0
 10
8.571324501944573
 20
5.959370854554052
 30
0.0
 10
8.549100944583855
 20
5.941380996567019
 30
0.0
 10
8.524054023813775
 20
5.941380996567019
 30
0.0
  0
POLYLINE
  5
2BB
330
28F
100
AcDbEntity
  8
Livello 1
100
AcDb2dPolyline
 66
     1
 10
0.0
 20
0.0
 30
0.0
  0
VERTEX
  5
2BC
330
2BB
100
AcDbEntity
  8
Livello 1
100
AcDbVertex
100
AcDb2dVertex
 10
8.476993481189097
 20
3.951536907980269
 30
0.0
  0
VERTEX
  5
2BD
330
2BB
100
AcDbEntity
  8
Livello 1
100
AcDbVertex
100
AcDb2dVertex
 10
8.429720311577412
 20
6.338794292637359
 30
0.0
  0
SEQEND
  5
2BE
330
2BB
100
AcDbEntity
  8
Livello 1
  0
POLYLINE
  5
2BF
330
28F
100
AcDbEntity
  8
Livello 1
100
AcDb2dPolyline
 66
     1
 10
0.0
 20
0.0
 30
0.0
  0
VERTEX
  5
2C0
330
2BF
100
AcDbEntity
  8
Livello 1
100
AcDbVertex
100
AcDb2dVertex
 10
8.273086892155859
 20
3.951536907980269
 30
0.0
  0
VERTEX
  5
2C1
330
2BF
100
AcDbEntity
  8
Livello 1
100
AcDbVertex
100
AcDb2dVertex
 10
8.225813722544188
 20
6.338794292637359
 30
0.0
  0
SEQEND
  5
2C2
330
2BF
100
AcDbEntity
  8
Livello 1
  0
POLYLINE
  5
2C3
330
28F
100
AcDbEntity
  8
Livello 1
100
AcDb2dPolyline
 66
     1
 10
0.0
 20
0.0
 30
0.0
  0
VERTEX
  5
2C4
330
2C3
100
AcDbEntity
  8
Livello 1
100
AcDbVertex
100
AcDb2dVertex
 10
7.9905123551612
 20
3.951536907980269
 30
0.0
  0
VERTEX
  5
2C5
330
2C3
100
AcDbEntity
  8
Livello 1
100
AcDbVertex
100
AcDb2dVertex
 10
7.927717415499984
 20
6.338794292637359
 30
0.0
  0
SEQEND
  5
2C6
330
2C3
100
AcDbEntity
  8
Livello 1
  0
POLYLINE
  5
2C7
330
28F
100
AcDbEntity
  8
Livello 1
100
AcDb2dPolyline
 66
     1
 10
0.0
 20
0.0
 30
0.0
  0
VERTEX
  5
2C8
330
2C7
100
AcDbEntity
  8
Livello 1
100
AcDbVertex
100
AcDb2dVertex
 10
8.476993481189097
 20
5.789872156679763
 30
0.0
  0
VERTEX
  5
2C9
330
2C7
100
AcDbEntity
  8
Livello 1
100
AcDbVertex
100
AcDb2dVertex
 10
8.492515251238671
 20
5.789872156679763
 30
0.0
  0
SEQEND
  5
2CA
330
2C7
100
AcDbEntity
  8
Livello 1
  0
POLYLINE
  5
2CB
330
28F
100
AcDbEntity
  8
Livello 1
100
AcDb2dPolyline
 66
     1
 10
0.0
 20
0.0
 30
0.0
  0
VERTEX
  5
2CC
330
2CB
100
AcDbEntity
  8
Livello 1
100
AcDbVertex
100
AcDb2dVertex
 10
8.476993481189097
 20
5.789872156679763
 30
0.0
  0
VERTEX
  5
2CD
330
2CB
100
AcDbEntity
  8
Livello 1
100
AcDbVertex
100
AcDb2dVertex
 10
8.492515251238671
 20
5.789872156679763
 30
0.0
  0
SEQEND
  5
2CE
330
2CB
100
AcDbEntity
  8
Livello 1
  0
POLYLINE
  5
2CF
330
28F
100
AcDbEntity
  8
Livello 1
100
AcDb2dPolyline
 66
     1
 10
0.0
 20
0.0
 30
0.0
  0
VERTEX
  5
2D0
330
2CF
100
AcDbEntity
  8
Livello 1
100
AcDbVertex
100
AcDb2dVertex
 10
8.696561797275961
 20
5.789936752220114
 30
0.0
  0
VERTEX
  5
2D1
330
2CF
100
AcDbEntity
  8
Livello 1
100
AcDbVertex
100
AcDb2dVertex
 10
8.696561797275961
 20
3.967481240522943
 30
0.0
  0
SEQEND
  5
2D2
330
2CF
100
AcDbEntity
  8
Livello 1
  0
POLYLINE
  5
2D3
330
28F
100
AcDbEntity
  8
Livello 1
100
AcDb2dPolyline
 66
     1
 10
0.0
 20
0.0
 30
0.0
  0
VERTEX
  5
2D4
330
2D3
100
AcDbEntity
  8
Livello 1
100
AcDbVertex
100
AcDb2dVertex
 10
8.570971917953528
 20
4.500534405401609
 30
0.0
  0
VERTEX
  5
2D5
330
2D3
100
AcDbEntity
  8
Livello 1
100
AcDbVertex
100
AcDb2dVertex
 10
8.570971917953528
 20
4.045803333195422
 30
0.0
  0
SEQEND
  5
2D6
330
2D3
100
AcDbEntity
  8
Livello 1
  0
POLYLINE
  5
2D7
330
28F
100
AcDbEntity
  8
Livello 1
100
AcDb2dPolyline
 66
     1
 10
0.0
 20
0.0
 30
0.0
  0
VERTEX
  5
2D8
330
2D7
100
AcDbEntity
  8
Livello 1
100
AcDbVertex
100
AcDb2dVertex
 10
8.570971917953528
 20
3.967481240522943
 30
0.0
  0
VERTEX
  5
2D9
330
2D7
100
AcDbEntity
  8
Livello 1
100
AcDbVertex
100
AcDb2dVertex
 10
8.570971917953528
 20
3.951612269444012
 30
0.0
  0
SEQEND
  5
2DA
330
2D7
100
AcDbEntity
  8
Livello 1
  0
POLYLINE
  5
2DB
330
28F
100
AcDbEntity
  8
Livello 1
100
AcDb2dPolyline
 66
     1
 10
0.0
 20
0.0
 30
0.0
  0
VERTEX
  5
2DC
330
2DB
100
AcDbEntity
  8
Livello 1
100
AcDbVertex
100
AcDb2dVertex
 10
8.602368042043707
 20
5.899641511578536
 30
0.0
  0
VERTEX
  5
2DD
330
2DB
100
AcDbEntity
  8
Livello 1
100
AcDbVertex
100
AcDb2dVertex
 10
8.602368042043707
 20
5.789936752220114
 30
0.0
  0
SEQEND
  5
2DE
330
2DB
100
AcDbEntity
  8
Livello 1
  0
POLYLINE
  5
2DF
330
28F
100
AcDbEntity
  8
Livello 1
100
AcDb2dPolyline
 66
     1
 10
0.0
 20
0.0
 30
0.0
  0
VERTEX
  5
2E0
330
2DF
100
AcDbEntity
  8
Livello 1
100
AcDbVertex
100
AcDb2dVertex
 10
8.696561797275961
 20
3.951612269444012
 30
0.0
  0
VERTEX
  5
2E1
330
2DF
100
AcDbEntity
  8
Livello 1
100
AcDbVertex
100
AcDb2dVertex
 10
8.696561797275961
 20
3.697611838870571
 30
0.0
  0
SEQEND
  5
2E2
330
2DF
100
AcDbEntity
  8
Livello 1
  0
POLYLINE
  5
2E3
330
28F
100
AcDbEntity
  8
Livello 1
100
AcDb2dPolyline
 66
     1
 10
0.0
 20
0.0
 30
0.0
  0
VERTEX
  5
2E4
330
2E3
100
AcDbEntity
  8
Livello 1
100
AcDbVertex
100
AcDb2dVertex
 10
8.696561797275961
 20
3.594463526857524
 30
0.0
  0
VERTEX
  5
2E5
330
2E3
100
AcDbEntity
  8
Livello 1
100
AcDbVertex
100
AcDb2dVertex
 10
8.696561797275961
 20
3.650553987726738
 30
0.0
  0
VERTEX
  5
2E6
330
2E3
100
AcDbEntity
  8
Livello 1
100
AcDbVertex
100
AcDb2dVertex
 10
8.696561797275961
 20
3.666067683333764
 30
0.0
  0
VERTEX
  5
2E7
330
2E3
100
AcDbEntity
  8
Livello 1
100
AcDbVertex
100
AcDb2dVertex
 10
8.696561797275961
 20
3.681947420336072
 30
0.0
  0
VERTEX
  5
2E8
330
2E3
100
AcDbEntity
  8
Livello 1
100
AcDbVertex
100
AcDb2dVertex
 10
8.696561797275961
 20
3.697827157338409
 30
0.0
  0
SEQEND
  5
2E9
330
2E3
100
AcDbEntity
  8
Livello 1
  0
POLYLINE
  5
2EA
330
28F
100
AcDbEntity
  8
Livello 1
100
AcDb2dPolyline
 66
     1
 10
0.0
 20
0.0
 30
0.0
  0
VERTEX
  5
2EB
330
2EA
100
AcDbEntity
  8
Livello 1
100
AcDbVertex
100
AcDb2dVertex
 10
9.276950035825763
 20
2.037689472613465
 30
0.0
  0
VERTEX
  5
2EC
330
2EA
100
AcDbEntity
  8
Livello 1
100
AcDbVertex
100
AcDb2dVertex
 10
9.276950035825763
 20
2.149159843408085
 30
0.0
  0
SEQEND
  5
2ED
330
2EA
100
AcDbEntity
  8
Livello 1
  0
SPLINE
  5
2EE
330
28F
100
AcDbEntity
  8
Livello 1
100
AcDbSpline
210
0.0
220
0.0
230
1.0
 70
     9
 71
     3
 72
    23
 73
    19
 74
     0
 42
0.000000001
 43
0.0000000001
 40
0.0
 40
0.0
 40
0.0
 40
0.0
 40
1.0
 40
1.0
 40
1.0
 40
2.0
 40
2.0
 40
2.0
 40
3.0
 40
3.0
 40
3.0
 40
4.0
 40
4.0
 40
4.0
 40
5.0
 40
5.0
 40
5.0
 40
6.0
 40
6.0
 40
6.0
 40
6.0
 10
1.872075257234016
 20
5.737377514223254
 30
0.0
 10
1.872075257234016
 20
5.737377514223254
 30
0.0
 10
1.856199557452981
 20
5.737377514223254
 30
0.0
 10
1.856199557452981
 20
5.737377514223254
 30
0.0
 10
1.827271521300275
 20
5.737377514223254
 30
0.0
 10
1.80398886622595
 20
5.761008716067408
 30
0.0
 10
1.80398886622595
 20
5.789936752220114
 30
0.0
 10
1.80398886622595
 20
5.81886478837282
 30
0.0
 10
1.827271521300275
 20
5.842495990216932
 30
0.0
 10
1.856199557452981
 20
5.842495990216932
 30
0.0
 10
1.856199557452981
 20
5.842495990216932
 30
0.0
 10
1.872075257234016
 20
5.842495990216932
 30
0.0
 10
1.872075257234016
 20
5.842495990216932
 30
0.0
 10
1.901001947646335
 20
5.842495990216932
 30
0.0
 10
1.924638532452135
 20
5.81886478837282
 30
0.0
 10
1.924638532452135
 20
5.789936752220114
 30
0.0
 10
1.924638532452135
 20
5.761008716067408
 30
0.0
 10
1.901001947646335
 20
5.737377514223254
 30
0.0
 10
1.872075257234016
 20
5.737377514223254
 30
0.0
  0
POLYLINE
  5
2EF
330
28F
100
AcDbEntity
  8
Livello 1
100
AcDb2dPolyline
 66
     1
 10
0.0
 20
0.0
 30
0.0
  0
VERTEX
  5
2F0
330
2EF
100
AcDbEntity
  8
Livello 1
100
AcDbVertex
100
AcDb2dVertex
 10
8.461224094901538
 20
5.789872156679763
 30
0.0
  0
VERTEX
  5
2F1
330
2EF
100
AcDbEntity
  8
Livello 1
100
AcDbVertex
100
AcDb2dVertex
 10
8.477098448942157
 20
5.789872156679763
 30
0.0
  0
SEQEND
  5
2F2
330
2EF
100
AcDbEntity
  8
Livello 1
  0
POLYLINE
  5
2F3
330
28F
100
AcDbEntity
  8
Livello 1
100
AcDb2dPolyline
 66
     1
 10
0.0
 20
0.0
 30
0.0
  0
VERTEX
  5
2F4
330
2F3
100
AcDbEntity
  8
Livello 1
100
AcDbVertex
100
AcDb2dVertex
 10
8.602475701277612
 20
5.899652277501928
 30
0.0
  0
VERTEX
  5
2F5
330
2F3
100
AcDbEntity
  8
Livello 1
100
AcDbVertex
100
AcDb2dVertex
 10
8.586598655756134
 20
5.962794418192501
 30
0.0
  0
VERTEX
  5
2F6
330
2F3
100
AcDbEntity
  8
Livello 1
100
AcDbVertex
100
AcDb2dVertex
 10
8.523803716094917
 20
5.993843341253338
 30
0.0
  0
SEQEND
  5
2F7
330
2F3
100
AcDbEntity
  8
Livello 1
  0
SPLINE
  5
2F8
330
28F
100
AcDbEntity
  8
Livello 1
100
AcDbSpline
210
0.0
220
0.0
230
1.0
 70
     9
 71
     3
 72
    35
 73
    31
 74
     0
 42
0.000000001
 43
0.0000000001
 40
0.0
 40
0.0
 40
0.0
 40
0.0
 40
1.0
 40
1.0
 40
1.0
 40
2.0
 40
2.0
 40
2.0
 40
3.0
 40
3.0
 40
3.0
 40
4.0
 40
4.0
 40
4.0
 40
5.0
 40
5.0
 40
5.0
 40
6.0
 40
6.0
 40
6.0
 40
7.0
 40
7.0
 40
7.0
 40
8.0
 40
8.0
 40
8.0
 40
9.0
 40
9.0
 40
9.0
 40
10.0
 40
10.0
 40
10.0
 40
10.0
 10
1.715124243072409
 20
5.847157635045419
 30
0.0
 10
1.710890543698766
 20
5.847157635045419
 30
0.0
 10
1.706656844325067
 20
5.84750214459396
 30
0.0
 10
1.702423144951424
 20
5.8485679710097
 30
0.0
 10
1.674201622521266
 20
5.855619650831073
 30
0.0
 10
1.657268170767025
 20
5.884192411511861
 30
0.0
 10
1.664323887809658
 20
5.912420662644137
 30
0.0
 10
1.664323887809658
 20
5.912420662644137
 30
0.0
 10
1.679845657859203
 20
5.975207527862806
 30
0.0
 10
1.679845657859203
 20
5.975207527862806
 30
0.0
 10
1.683020259519253
 20
5.987911317464664
 30
0.0
 10
1.690782490284462
 20
5.999204771102256
 30
0.0
 10
1.701717976969277
 20
6.006256450923643
 30
0.0
 10
1.701717976969277
 20
6.006256450923643
 30
0.0
 10
1.748989800840533
 20
6.037649883532964
 30
0.0
 10
1.748989800840533
 20
6.037649883532964
 30
0.0
 10
1.772626385646347
 20
6.053529620535286
 30
0.0
 10
1.80543419144125
 20
6.047177725734357
 30
0.0
 10
1.821662475213358
 20
6.022835972946396
 30
0.0
 10
1.83789075898548
 20
5.998494220158434
 30
0.0
 10
1.831187625933893
 20
5.966034961133331
 30
0.0
 10
1.806845873145945
 20
5.950165990054401
 30
0.0
 10
1.806845873145945
 20
5.950165990054401
 30
0.0
 10
1.776860085020018
 20
5.930055245159252
 30
0.0
 10
1.776860085020018
 20
5.930055245159252
 30
0.0
 10
1.776860085020018
 20
5.930055245159252
 30
0.0
 10
1.765923252594774
 20
5.887013083440407
 30
0.0
 10
1.765923252594774
 20
5.887013083440407
 30
0.0
 10
1.760279217256822
 20
5.86302660612435
 30
0.0
 10
1.738759482137837
 20
5.847157635045419
 30
0.0
 10
1.715124243072409
 20
5.847157635045419
 30
0.0
  0
SPLINE
  5
2F9
330
28F
100
AcDbEntity
  8
Livello 1
100
AcDbSpline
210
0.0
220
0.0
230
1.0
 70
     9
 71
     3
 72
    35
 73
    31
 74
     0
 42
0.000000001
 43
0.0000000001
 40
0.0
 40
0.0
 40
0.0
 40
0.0
 40
1.0
 40
1.0
 40
1.0
 40
2.0
 40
2.0
 40
2.0
 40
3.0
 40
3.0
 40
3.0
 40
4.0
 40
4.0
 40
4.0
 40
5.0
 40
5.0
 40
5.0
 40
6.0
 40
6.0
 40
6.0
 40
7.0
 40
7.0
 40
7.0
 40
8.0
 40
8.0
 40
8.0
 40
9.0
 40
9.0
 40
9.0
 40
10.0
 40
10.0
 40
10.0
 40
10.0
 10
2.373936850566963
 20
6.004114032168729
 30
0.0
 10
2.368291469488596
 20
6.004114032168729
 30
0.0
 10
2.362647434150659
 20
6.004813817189173
 30
0.0
 10
2.357355982803781
 20
6.00693470409729
 30
0.0
 10
2.329839628355742
 20
6.016107270826765
 30
0.0
 10
2.315021680547928
 20
6.045735091999915
 30
0.0
 10
2.324194247277389
 20
6.073252792188341
 30
0.0
 10
2.324194247277389
 20
6.073252792188341
 30
0.0
 10
2.340069947058452
 20
6.120170686328094
 30
0.0
 10
2.340069947058452
 20
6.120170686328094
 30
0.0
 10
2.344302300691694
 20
6.133574260950382
 30
0.0
 10
2.353827451412215
 20
6.144512439116056
 30
0.0
 10
2.366527203792813
 20
6.150509058445067
 30
0.0
 10
2.366527203792813
 20
6.150509058445067
 30
0.0
 10
2.39792467362345
 20
6.166388795447389
 30
0.0
 10
2.39792467362345
 20
6.166388795447389
 30
0.0
 10
2.423325524125033
 20
6.178737309577343
 30
0.0
 10
2.455075577946715
 20
6.168498916432113
 30
0.0
 10
2.468127914318387
 20
6.142402318131345
 30
0.0
 10
2.480827666698971
 20
6.116639463455712
 30
0.0
 10
2.470244764005201
 20
6.084890755374431
 30
0.0
 10
2.44449132951253
 20
6.072197731695993
 30
0.0
 10
2.44449132951253
 20
6.072197731695993
 30
0.0
 10
2.432496745114079
 20
6.066201112366968
 30
0.0
 10
2.432496745114079
 20
6.066201112366968
 30
0.0
 10
2.432496745114079
 20
6.066201112366968
 30
0.0
 10
2.423678108116106
 20
6.03973847267089
 30
0.0
 10
2.423678108116106
 20
6.03973847267089
 30
0.0
 10
2.416269807082386
 20
6.017862116339557
 30
0.0
 10
2.395807823936593
 20
6.004114032168729
 30
0.0
 10
2.373936850566963
 20
6.004114032168729
 30
0.0
  0
SPLINE
  5
2FA
330
28F
100
AcDbEntity
  8
Livello 1
100
AcDbSpline
210
0.0
220
0.0
230
1.0
 70
     9
 71
     3
 72
    35
 73
    31
 74
     0
 42
0.000000001
 43
0.0000000001
 40
0.0
 40
0.0
 40
0.0
 40
0.0
 40
1.0
 40
1.0
 40
1.0
 40
2.0
 40
2.0
 40
2.0
 40
3.0
 40
3.0
 40
3.0
 40
4.0
 40
4.0
 40
4.0
 40
5.0
 40
5.0
 40
5.0
 40
6.0
 40
6.0
 40
6.0
 40
7.0
 40
7.0
 40
7.0
 40
8.0
 40
8.0
 40
8.0
 40
9.0
 40
9.0
 40
9.0
 40
10.0
 40
10.0
 40
10.0
 40
10.0
 10
2.076051824769308
 20
5.941380996567019
 30
0.0
 10
2.070759027682001
 20
5.941380996567019
 30
0.0
 10
2.065114992344049
 20
5.942080781587449
 30
0.0
 10
2.059470957006112
 20
5.943846393023648
 30
0.0
 10
2.031954602558101
 20
5.953018959753123
 30
0.0
 10
2.017136654750245
 20
5.983002056398191
 30
0.0
 10
2.026309221479735
 20
6.010164481114699
 30
0.0
 10
2.026309221479735
 20
6.010164481114699
 30
0.0
 10
2.041832337269738
 20
6.05743765072637
 30
0.0
 10
2.041832337269738
 20
6.05743765072637
 30
0.0
 10
2.047123788616602
 20
6.072962112256774
 30
0.0
 10
2.059470957006112
 20
6.085665901858632
 30
0.0
 10
2.074992727055658
 20
6.090596694771903
 30
0.0
 10
2.074992727055658
 20
6.090596694771903
 30
0.0
 10
2.122264550926914
 20
6.106476431774225
 30
0.0
 10
2.122264550926914
 20
6.106476431774225
 30
0.0
 10
2.150134835106413
 20
6.116004273975619
 30
0.0
 10
2.179415455250207
 20
6.1004798124452
 30
0.0
 10
2.188586676239239
 20
6.073317387728678
 30
0.0
 10
2.197759242968743
 20
6.045444412068334
 30
0.0
 10
2.182942640901302
 20
6.015816590895212
 30
0.0
 10
2.155426286453305
 20
6.006644024165709
 30
0.0
 10
2.155426286453305
 20
6.006644024165709
 30
0.0
 10
2.133201383352158
 20
5.999581578420972
 30
0.0
 10
2.133201383352158
 20
5.999581578420972
 30
0.0
 10
2.133201383352158
 20
5.999581578420972
 30
0.0
 10
2.125793082318452
 20
5.977360712541084
 30
0.0
 10
2.125793082318452
 20
5.977360712541084
 30
0.0
 10
2.118384781284746
 20
5.955484356209751
 30
0.0
 10
2.097922798138938
 20
5.941380996567019
 30
0.0
 10
2.076051824769308
 20
5.941380996567019
 30
0.0
  0
POLYLINE
  5
2FB
330
28F
100
AcDbEntity
  8
Livello 1
100
AcDb2dPolyline
 66
     1
 10
0.0
 20
0.0
 30
0.0
  0
VERTEX
  5
2FC
330
2FB
100
AcDbEntity
  8
Livello 1
100
AcDbVertex
100
AcDb2dVertex
 10
8.225956371029127
 20
6.338891185947872
 30
0.0
  0
VERTEX
  5
2FD
330
2FB
100
AcDbEntity
  8
Livello 1
100
AcDbVertex
100
AcDb2dVertex
 10
8.210431909498751
 20
6.386153589636165
 30
0.0
  0
VERTEX
  5
2FE
330
2FB
100
AcDbEntity
  8
Livello 1
100
AcDbVertex
100
AcDb2dVertex
 10
8.163161431367896
 20
6.40167805116657
 30
0.0
  0
SEQEND
  5
2FF
330
2FB
100
AcDbEntity
  8
Livello 1
  0
POLYLINE
  5
300
330
28F
100
AcDbEntity
  8
Livello 1
100
AcDb2dPolyline
 66
     1
 10
0.0
 20
0.0
 30
0.0
  0
VERTEX
  5
301
330
300
100
AcDbEntity
  8
Livello 1
100
AcDbVertex
100
AcDb2dVertex
 10
7.927787394002038
 20
6.338891185947872
 30
0.0
  0
VERTEX
  5
302
330
300
100
AcDbEntity
  8
Livello 1
100
AcDbVertex
100
AcDb2dVertex
 10
7.912264278212049
 20
6.386153589636165
 30
0.0
  0
VERTEX
  5
303
330
300
100
AcDbEntity
  8
Livello 1
100
AcDbVertex
100
AcDb2dVertex
 10
7.864992454340821
 20
6.40167805116657
 30
0.0
  0
SEQEND
  5
304
330
300
100
AcDbEntity
  8
Livello 1
  0
SPLINE
  5
305
330
28F
100
AcDbEntity
  8
Livello 1
100
AcDbSpline
210
0.0
220
0.0
230
1.0
 70
     9
 71
     3
 72
    35
 73
    31
 74
     0
 42
0.000000001
 43
0.0000000001
 40
0.0
 40
0.0
 40
0.0
 40
0.0
 40
1.0
 40
1.0
 40
1.0
 40
2.0
 40
2.0
 40
2.0
 40
3.0
 40
3.0
 40
3.0
 40
4.0
 40
4.0
 40
4.0
 40
5.0
 40
5.0
 40
5.0
 40
6.0
 40
6.0
 40
6.0
 40
7.0
 40
7.0
 40
7.0
 40
8.0
 40
8.0
 40
8.0
 40
9.0
 40
9.0
 40
9.0
 40
10.0
 40
10.0
 40
10.0
 40
10.0
 10
2.797693015435655
 20
6.082608379615479
 30
0.0
 10
2.792047634357302
 20
6.082608379615479
 30
0.0
 10
2.786756183010425
 20
6.083308164635923
 30
0.0
 10
2.781112147672473
 20
6.085073776072121
 30
0.0
 10
2.753595793224462
 20
6.0946016182735
 30
0.0
 10
2.73877784541662
 20
6.124229439446651
 30
0.0
 10
2.74795041214611
 20
6.151747139635077
 30
0.0
 10
2.74795041214611
 20
6.151747139635077
 30
0.0
 10
2.763473527936056
 20
6.19866503377483
 30
0.0
 10
2.763473527936056
 20
6.19866503377483
 30
0.0
 10
2.767353297578253
 20
6.209958487412421
 30
0.0
 10
2.774761598611959
 20
6.219475563690423
 30
0.0
 10
2.78428674933248
 20
6.225827458491352
 30
0.0
 10
2.78428674933248
 20
6.225827458491352
 30
0.0
 10
2.831558573203736
 20
6.257231657024078
 30
0.0
 10
2.831558573203736
 20
6.257231657024078
 30
0.0
 10
2.855195158009564
 20
6.273100628103009
 30
0.0
 10
2.888002963804453
 20
6.26674873330208
 30
0.0
 10
2.904231247576575
 20
6.242406980514104
 30
0.0
 10
2.920105601617223
 20
6.218420503198061
 30
0.0
 10
2.91340381430605
 20
6.185616734624431
 30
0.0
 10
2.889414645509162
 20
6.169736997622123
 30
0.0
 10
2.889414645509162
 20
6.169736997622123
 30
0.0
 10
2.857312007696421
 20
6.148571192234612
 30
0.0
 10
2.857312007696421
 20
6.148571192234612
 30
0.0
 10
2.857312007696421
 20
6.148571192234612
 30
0.0
 10
2.847434272984813
 20
6.118588095589558
 30
0.0
 10
2.847434272984813
 20
6.118588095589558
 30
0.0
 10
2.840025971951106
 20
6.096711739258211
 30
0.0
 10
2.819563988805313
 20
6.082608379615479
 30
0.0
 10
2.797693015435655
 20
6.082608379615479
 30
0.0
  0
POLYLINE
  5
306
330
28F
100
AcDbEntity
  8
Livello 1
100
AcDb2dPolyline
 66
     1
 10
0.0
 20
0.0
 30
0.0
  0
VERTEX
  5
307
330
306
100
AcDbEntity
  8
Livello 1
100
AcDbVertex
100
AcDb2dVertex
 10
7.504207521128876
 20
6.338891185947872
 30
0.0
  0
VERTEX
  5
308
330
306
100
AcDbEntity
  8
Livello 1
100
AcDbVertex
100
AcDb2dVertex
 10
7.488684405338901
 20
6.386153589636165
 30
0.0
  0
VERTEX
  5
309
330
306
100
AcDbEntity
  8
Livello 1
100
AcDbVertex
100
AcDb2dVertex
 10
7.441412581467659
 20
6.40167805116657
 30
0.0
  0
SEQEND
  5
30A
330
306
100
AcDbEntity
  8
Livello 1
  0
POLYLINE
  5
30B
330
28F
100
AcDbEntity
  8
Livello 1
100
AcDb2dPolyline
 66
     1
 10
0.0
 20
0.0
 30
0.0
  0
VERTEX
  5
30C
330
30B
100
AcDbEntity
  8
Livello 1
100
AcDbVertex
100
AcDb2dVertex
 10
8.429860268581521
 20
6.338891185947872
 30
0.0
  0
VERTEX
  5
30D
330
30B
100
AcDbEntity
  8
Livello 1
100
AcDbVertex
100
AcDb2dVertex
 10
8.414335807051102
 20
6.386153589636165
 30
0.0
  0
VERTEX
  5
30E
330
30B
100
AcDbEntity
  8
Livello 1
100
AcDbVertex
100
AcDb2dVertex
 10
8.367065328920304
 20
6.40167805116657
 30
0.0
  0
SEQEND
  5
30F
330
30B
100
AcDbEntity
  8
Livello 1
  0
POLYLINE
  5
310
330
28F
100
AcDbEntity
  8
Livello 1
100
AcDb2dPolyline
 66
     1
 10
0.0
 20
0.0
 30
0.0
  0
VERTEX
  5
311
330
310
100
AcDbEntity
  8
Livello 1
100
AcDbVertex
100
AcDb2dVertex
 10
8.44562965486908
 20
5.789872156679763
 30
0.0
  0
VERTEX
  5
312
330
310
100
AcDbEntity
  8
Livello 1
100
AcDbVertex
100
AcDb2dVertex
 10
8.461151424918625
 20
5.789872156679763
 30
0.0
  0
VERTEX
  5
313
330
310
100
AcDbEntity
  8
Livello 1
100
AcDbVertex
100
AcDb2dVertex
 10
8.477025778959259
 20
5.789872156679763
 30
0.0
  0
SEQEND
  5
314
330
310
100
AcDbEntity
  8
Livello 1
  0
SPLINE
  5
315
330
28F
100
AcDbEntity
  8
Livello 1
100
AcDbSpline
210
0.0
220
0.0
230
1.0
 70
     9
 71
     3
 72
    23
 73
    19
 74
     0
 42
0.000000001
 43
0.0000000001
 40
0.0
 40
0.0
 40
0.0
 40
0.0
 40
1.0
 40
1.0
 40
1.0
 40
2.0
 40
2.0
 40
2.0
 40
3.0
 40
3.0
 40
3.0
 40
4.0
 40
4.0
 40
4.0
 40
5.0
 40
5.0
 40
5.0
 40
6.0
 40
6.0
 40
6.0
 40
6.0
 10
1.88763201653461
 20
5.737377514223254
 30
0.0
 10
1.88763201653461
 20
5.737377514223254
 30
0.0
 10
1.87210890074462
 20
5.737377514223254
 30
0.0
 10
1.87210890074462
 20
5.737377514223254
 30
0.0
 10
1.843180864591943
 20
5.737377514223254
 30
0.0
 10
1.819545625526515
 20
5.761008716067408
 30
0.0
 10
1.819545625526515
 20
5.789936752220114
 30
0.0
 10
1.819545625526515
 20
5.81886478837282
 30
0.0
 10
1.843180864591943
 20
5.842495990216932
 30
0.0
 10
1.87210890074462
 20
5.842495990216932
 30
0.0
 10
1.87210890074462
 20
5.842495990216932
 30
0.0
 10
1.88763201653461
 20
5.842495990216932
 30
0.0
 10
1.88763201653461
 20
5.842495990216932
 30
0.0
 10
1.916558706946901
 20
5.842495990216932
 30
0.0
 10
1.940195291752743
 20
5.81886478837282
 30
0.0
 10
1.940195291752743
 20
5.789936752220114
 30
0.0
 10
1.940195291752743
 20
5.761008716067408
 30
0.0
 10
1.916558706946901
 20
5.737377514223254
 30
0.0
 10
1.88763201653461
 20
5.737377514223254
 30
0.0
  0
SPLINE
  5
316
330
28F
100
AcDbEntity
  8
Livello 1
100
AcDbSpline
210
0.0
220
0.0
230
1.0
 70
     9
 71
     3
 72
    23
 73
    19
 74
     0
 42
0.000000001
 43
0.0000000001
 40
0.0
 40
0.0
 40
0.0
 40
0.0
 40
1.0
 40
1.0
 40
1.0
 40
2.0
 40
2.0
 40
2.0
 40
3.0
 40
3.0
 40
3.0
 40
4.0
 40
4.0
 40
4.0
 40
5.0
 40
5.0
 40
5.0
 40
6.0
 40
6.0
 40
6.0
 40
6.0
 10
1.856270881695465
 20
5.737377514223254
 30
0.0
 10
1.856270881695465
 20
5.737377514223254
 30
0.0
 10
1.840747765905447
 20
5.737377514223254
 30
0.0
 10
1.840747765905447
 20
5.737377514223254
 30
0.0
 10
1.811467145761696
 20
5.737377514223254
 30
0.0
 10
1.788184490687342
 20
5.761008716067408
 30
0.0
 10
1.788184490687342
 20
5.789936752220114
 30
0.0
 10
1.788184490687342
 20
5.81886478837282
 30
0.0
 10
1.811467145761696
 20
5.842495990216932
 30
0.0
 10
1.840747765905447
 20
5.842495990216932
 30
0.0
 10
1.840747765905447
 20
5.842495990216932
 30
0.0
 10
1.856270881695465
 20
5.842495990216932
 30
0.0
 10
1.856270881695465
 20
5.842495990216932
 30
0.0
 10
1.885197572107756
 20
5.842495990216932
 30
0.0
 10
1.90883415691357
 20
5.81886478837282
 30
0.0
 10
1.90883415691357
 20
5.789936752220114
 30
0.0
 10
1.90883415691357
 20
5.761008716067408
 30
0.0
 10
1.885197572107756
 20
5.737377514223254
 30
0.0
 10
1.856270881695465
 20
5.737377514223254
 30
0.0
  0
POLYLINE
  5
317
330
28F
100
AcDbEntity
  8
Livello 1
100
AcDb2dPolyline
 66
     1
 10
0.0
 20
0.0
 30
0.0
  0
VERTEX
  5
318
330
317
100
AcDbEntity
  8
Livello 1
100
AcDbVertex
100
AcDb2dVertex
 10
8.586671325739018
 20
3.96749200644632
 30
0.0
  0
VERTEX
  5
319
330
317
100
AcDbEntity
  8
Livello 1
100
AcDbVertex
100
AcDb2dVertex
 10
8.571146864208614
 20
3.983005702053347
 30
0.0
  0
VERTEX
  5
31A
330
317
100
AcDbEntity
  8
Livello 1
100
AcDbVertex
100
AcDb2dVertex
 10
8.571146864208614
 20
3.998885439055669
 30
0.0
  0
VERTEX
  5
31B
330
317
100
AcDbEntity
  8
Livello 1
100
AcDbVertex
100
AcDb2dVertex
 10
8.571146864208614
 20
4.030278871665018
 30
0.0
  0
VERTEX
  5
31C
330
317
100
AcDbEntity
  8
Livello 1
100
AcDbVertex
100
AcDb2dVertex
 10
8.571146864208614
 20
4.045803333195422
 30
0.0
  0
SEQEND
  5
31D
330
317
100
AcDbEntity
  8
Livello 1
  0
SPLINE
  5
31E
330
28F
100
AcDbEntity
  8
Livello 1
100
AcDbSpline
210
0.0
220
0.0
230
1.0
 70
     9
 71
     3
 72
    23
 73
    19
 74
     0
 42
0.000000001
 43
0.0000000001
 40
0.0
 40
0.0
 40
0.0
 40
0.0
 40
1.0
 40
1.0
 40
1.0
 40
2.0
 40
2.0
 40
2.0
 40
3.0
 40
3.0
 40
3.0
 40
4.0
 40
4.0
 40
4.0
 40
5.0
 40
5.0
 40
5.0
 40
6.0
 40
6.0
 40
6.0
 40
6.0
 10
1.898109951475319
 20
3.904339099832355
 30
0.0
 10
1.869181915322613
 20
3.904339099832355
 30
0.0
 10
1.84554533051677
 20
3.927970301676481
 30
0.0
 10
1.84554533051677
 20
3.956898337829187
 30
0.0
 10
1.84554533051677
 20
3.956898337829187
 30
0.0
 10
1.84554533051677
 20
5.793101933697172
 30
0.0
 10
1.84554533051677
 20
5.793101933697172
 30
0.0
 10
1.84554533051677
 20
5.822029969849893
 30
0.0
 10
1.869181915322613
 20
5.845671937617424
 30
0.0
 10
1.898109951475319
 20
5.845671937617424
 30
0.0
 10
1.927036641887568
 20
5.845671937617424
 30
0.0
 10
1.950673226693425
 20
5.822029969849893
 30
0.0
 10
1.950673226693425
 20
5.793101933697172
 30
0.0
 10
1.950673226693425
 20
5.793101933697172
 30
0.0
 10
1.950673226693425
 20
3.956898337829187
 30
0.0
 10
1.950673226693425
 20
3.956898337829187
 30
0.0
 10
1.950673226693425
 20
3.927970301676481
 30
0.0
 10
1.927036641887568
 20
3.904339099832355
 30
0.0
 10
1.898109951475319
 20
3.904339099832355
 30
0.0
  0
POLYLINE
  5
31F
330
28F
100
AcDbEntity
  8
Livello 1
100
AcDb2dPolyline
 66
     1
 10
0.0
 20
0.0
 30
0.0
  0
VERTEX
  5
320
330
31F
100
AcDbEntity
  8
Livello 1
100
AcDbVertex
100
AcDb2dVertex
 10
8.697797186985127
 20
4.62475162949164
 30
0.0
  0
VERTEX
  5
321
330
31F
100
AcDbEntity
  8
Livello 1
100
AcDbVertex
100
AcDb2dVertex
 10
8.702028194877968
 20
4.63426870576967
 30
0.0
  0
VERTEX
  5
322
330
31F
100
AcDbEntity
  8
Livello 1
100
AcDbVertex
100
AcDb2dVertex
 10
8.706967062233744
 20
4.647327770843432
 30
0.0
  0
VERTEX
  5
323
330
31F
100
AcDbEntity
  8
Livello 1
100
AcDbVertex
100
AcDb2dVertex
 10
8.708027505687823
 20
4.656844847121433
 30
0.0
  0
VERTEX
  5
324
330
31F
100
AcDbEntity
  8
Livello 1
100
AcDbVertex
100
AcDb2dVertex
 10
8.708732673669942
 20
4.666727964794745
 30
0.0
  0
VERTEX
  5
325
330
31F
100
AcDbEntity
  8
Livello 1
100
AcDbVertex
100
AcDb2dVertex
 10
8.710143009634208
 20
4.679776263945129
 30
0.0
  0
VERTEX
  5
326
330
31F
100
AcDbEntity
  8
Livello 1
100
AcDbVertex
100
AcDb2dVertex
 10
8.708027505687823
 20
4.690014657090358
 30
0.0
  0
VERTEX
  5
327
330
31F
100
AcDbEntity
  8
Livello 1
100
AcDbVertex
100
AcDb2dVertex
 10
8.705556726269477
 20
4.700242284312182
 30
0.0
  0
VERTEX
  5
328
330
31F
100
AcDbEntity
  8
Livello 1
100
AcDbVertex
100
AcDb2dVertex
 10
8.69991269093154
 20
4.710469911534033
 30
0.0
  0
VERTEX
  5
329
330
31F
100
AcDbEntity
  8
Livello 1
100
AcDbVertex
100
AcDb2dVertex
 10
8.697797186985127
 20
4.721052814227775
 30
0.0
  0
VERTEX
  5
32A
330
31F
100
AcDbEntity
  8
Livello 1
100
AcDbVertex
100
AcDb2dVertex
 10
8.692150460166331
 20
4.73163571692153
 30
0.0
  0
SEQEND
  5
32B
330
31F
100
AcDbEntity
  8
Livello 1
  0
POLYLINE
  5
32C
330
28F
100
AcDbEntity
  8
Livello 1
100
AcDb2dPolyline
 66
     1
 10
0.0
 20
0.0
 30
0.0
  0
VERTEX
  5
32D
330
32C
100
AcDbEntity
  8
Livello 1
100
AcDbVertex
100
AcDb2dVertex
 10
8.714834260752027
 20
4.563687312015602
 30
0.0
  0
VERTEX
  5
32E
330
32C
100
AcDbEntity
  8
Livello 1
100
AcDbVertex
100
AcDb2dVertex
 10
8.722593800036392
 20
4.57602506022215
 30
0.0
  0
VERTEX
  5
32F
330
32C
100
AcDbEntity
  8
Livello 1
100
AcDbVertex
100
AcDb2dVertex
 10
8.733881870712252
 20
4.588018298880186
 30
0.0
  0
VERTEX
  5
330
330
32C
100
AcDbEntity
  8
Livello 1
100
AcDbVertex
100
AcDb2dVertex
 10
8.741996685468535
 20
4.603898035882508
 30
0.0
  0
VERTEX
  5
331
330
32C
100
AcDbEntity
  8
Livello 1
100
AcDbVertex
100
AcDb2dVertex
 10
8.746935552824339
 20
4.616601825484366
 30
0.0
  0
VERTEX
  5
332
330
32C
100
AcDbEntity
  8
Livello 1
100
AcDbVertex
100
AcDb2dVertex
 10
8.751521836189098
 20
4.629294849162832
 30
0.0
  0
VERTEX
  5
333
330
32C
100
AcDbEntity
  8
Livello 1
100
AcDbVertex
100
AcDb2dVertex
 10
8.75293217215335
 20
4.645529861637072
 30
0.0
  0
VERTEX
  5
334
330
32C
100
AcDbEntity
  8
Livello 1
100
AcDbVertex
100
AcDb2dVertex
 10
8.757518455518109
 20
4.658578160787456
 30
0.0
  0
VERTEX
  5
335
330
32C
100
AcDbEntity
  8
Livello 1
100
AcDbVertex
100
AcDb2dVertex
 10
8.756108119553815
 20
4.675157682810223
 30
0.0
  0
VERTEX
  5
336
330
32C
100
AcDbEntity
  8
Livello 1
100
AcDbVertex
100
AcDb2dVertex
 10
8.753989924126571
 20
4.688561257432525
 30
0.0
  0
VERTEX
  5
337
330
32C
100
AcDbEntity
  8
Livello 1
100
AcDbVertex
100
AcDb2dVertex
 10
8.752579588162305
 20
4.705496054927195
 30
0.0
  0
VERTEX
  5
338
330
32C
100
AcDbEntity
  8
Livello 1
100
AcDbVertex
100
AcDb2dVertex
 10
8.750464084215892
 20
4.718899629549497
 30
0.0
  0
VERTEX
  5
339
330
32C
100
AcDbEntity
  8
Livello 1
100
AcDbVertex
100
AcDb2dVertex
 10
8.745525216860059
 20
4.732313970095191
 30
0.0
  0
VERTEX
  5
33A
330
32C
100
AcDbEntity
  8
Livello 1
100
AcDbVertex
100
AcDb2dVertex
 10
8.736705234121657
 20
4.746772605209855
 30
0.0
  0
VERTEX
  5
33B
330
32C
100
AcDbEntity
  8
Livello 1
100
AcDbVertex
100
AcDb2dVertex
 10
8.73106119878372
 20
4.757355507903596
 30
0.0
  0
VERTEX
  5
33C
330
32C
100
AcDbEntity
  8
Livello 1
100
AcDbVertex
100
AcDb2dVertex
 10
8.722946384027466
 20
4.771469633469735
 30
0.0
  0
VERTEX
  5
33D
330
32C
100
AcDbEntity
  8
Livello 1
100
AcDbVertex
100
AcDb2dVertex
 10
8.710600561378342
 20
4.782407811635408
 30
0.0
  0
VERTEX
  5
33E
330
32C
100
AcDbEntity
  8
Livello 1
100
AcDbVertex
100
AcDb2dVertex
 10
8.698604631239476
 20
4.793690499349594
 30
0.0
  0
SEQEND
  5
33F
330
32C
100
AcDbEntity
  8
Livello 1
  0
POLYLINE
  5
340
330
28F
100
AcDbEntity
  8
Livello 1
100
AcDb2dPolyline
 66
     1
 10
0.0
 20
0.0
 30
0.0
  0
VERTEX
  5
341
330
340
100
AcDbEntity
  8
Livello 1
100
AcDbVertex
100
AcDb2dVertex
 10
8.700687837415713
 20
4.410617413236593
 30
0.0
  0
VERTEX
  5
342
330
340
100
AcDbEntity
  8
Livello 1
100
AcDbVertex
100
AcDb2dVertex
 10
8.952570072561897
 20
3.451761212304433
 30
0.0
  0
VERTEX
  5
343
330
340
100
AcDbEntity
  8
Livello 1
100
AcDbVertex
100
AcDb2dVertex
 10
9.304995266260405
 20
2.056874348096954
 30
0.0
  0
VERTEX
  5
344
330
340
100
AcDbEntity
  8
Livello 1
100
AcDbVertex
100
AcDb2dVertex
 10
9.357204611747036
 20
2.065347129805985
 30
0.0
  0
VERTEX
  5
345
330
340
100
AcDbEntity
  8
Livello 1
100
AcDbVertex
100
AcDb2dVertex
 10
8.711975908091602
 20
4.546784812291093
 30
0.0
  0
SEQEND
  5
346
330
340
100
AcDbEntity
  8
Livello 1
  0
SPLINE
  5
347
330
28F
100
AcDbEntity
  8
Livello 1
100
AcDbSpline
210
0.0
220
0.0
230
1.0
 70
     9
 71
     3
 72
    71
 73
    67
 74
     0
 42
0.000000001
 43
0.0000000001
 40
0.0
 40
0.0
 40
0.0
 40
0.0
 40
1.0
 40
1.0
 40
1.0
 40
2.0
 40
2.0
 40
2.0
 40
3.0
 40
3.0
 40
3.0
 40
4.0
 40
4.0
 40
4.0
 40
5.0
 40
5.0
 40
5.0
 40
6.0
 40
6.0
 40
6.0
 40
7.0
 40
7.0
 40
7.0
 40
8.0
 40
8.0
 40
8.0
 40
9.0
 40
9.0
 40
9.0
 40
10.0
 40
10.0
 40
10.0
 40
11.0
 40
11.0
 40
11.0
 40
12.0
 40
12.0
 40
12.0
 40
13.0
 40
13.0
 40
13.0
 40
14.0
 40
14.0
 40
14.0
 40
15.0
 40
15.0
 40
15.0
 40
16.0
 40
16.0
 40
16.0
 40
17.0
 40
17.0
 40
17.0
 40
18.0
 40
18.0
 40
18.0
 40
19.0
 40
19.0
 40
19.0
 40
20.0
 40
20.0
 40
20.0
 40
21.0
 40
21.0
 40
21.0
 40
22.0
 40
22.0
 40
22.0
 40
22.0
 10
1.596308821044019
 20
4.485472878577041
 30
0.0
 10
1.579021439558275
 20
4.485472878577041
 30
0.0
 10
1.562441917535494
 20
4.493934894362681
 30
0.0
 10
1.552211598832812
 20
4.509459355893099
 30
0.0
 10
1.552211598832812
 20
4.509459355893099
 30
0.0
 10
1.538452748738606
 20
4.527093938408214
 30
0.0
 10
1.538452748738606
 20
4.527093938408214
 30
0.0
 10
1.535278147078571
 20
4.530269885808678
 30
0.0
 10
1.532808713400669
 20
4.533801108681061
 30
0.0
 10
1.530691863713812
 20
4.538032116573887
 30
0.0
 10
1.530691863713812
 20
4.538032116573887
 30
0.0
 10
1.51058381029955
 20
4.585305286185544
 30
0.0
 10
1.51058381029955
 20
4.585305286185544
 30
0.0
 10
1.50917212859484
 20
4.589536294078371
 30
0.0
 10
1.50811437662162
 20
4.593767301971197
 30
0.0
 10
1.507407862899057
 20
4.598353585335928
 30
0.0
 10
1.507407862899057
 20
4.598353585335928
 30
0.0
 10
1.504233261239036
 20
4.614588597810168
 30
0.0
 10
1.504233261239036
 20
4.614588597810168
 30
0.0
 10
1.501411243570061
 20
4.621995553103459
 30
0.0
 10
1.50035214585641
 20
4.630102293417181
 30
0.0
 10
1.501058659578973
 20
4.63786452418239
 30
0.0
 10
1.501058659578973
 20
4.63786452418239
 30
0.0
 10
1.508819544603767
 20
4.701017430796355
 30
0.0
 10
1.508819544603767
 20
4.701017430796355
 30
0.0
 10
1.50917212859484
 20
4.70453788774536
 30
0.0
 10
1.510229880568061
 20
4.708069110617742
 30
0.0
 10
1.511288978281669
 20
4.711245058018207
 30
0.0
 10
1.511288978281669
 20
4.711245058018207
 30
0.0
 10
1.54339161609441
 20
4.772632353196001
 30
0.0
 10
1.54339161609441
 20
4.772632353196001
 30
0.0
 10
1.545861049772341
 20
4.776863361088828
 30
0.0
 10
1.549035651432362
 20
4.780739093509737
 30
0.0
 10
1.5525641828239
 20
4.784270316382119
 30
0.0
 10
1.5525641828239
 20
4.784270316382119
 30
0.0
 10
1.576905935611861
 20
4.806491182261979
 30
0.0
 10
1.576905935611861
 20
4.806491182261979
 30
0.0
 10
1.598424324990418
 20
4.82624665168521
 30
0.0
 10
1.631586060516809
 20
4.824836315720929
 30
0.0
 10
1.651341529940026
 20
4.803315234861514
 30
0.0
 10
1.670744415372197
 20
4.781804919925477
 30
0.0
 10
1.669332733667488
 20
4.748635109956566
 30
0.0
 10
1.647814344288931
 20
4.729234916005253
 30
0.0
 10
1.647814344288931
 20
4.729234916005253
 30
0.0
 10
1.611830591093578
 20
4.681961746393582
 30
0.0
 10
1.611830591093578
 20
4.681961746393582
 30
0.0
 10
1.611830591093578
 20
4.681961746393582
 30
0.0
 10
1.606891723737774
 20
4.639630135618574
 30
0.0
 10
1.606891723737774
 20
4.639630135618574
 30
0.0
 10
1.606891723737774
 20
4.639630135618574
 30
0.0
 10
1.607244307728862
 20
4.638219799654322
 30
0.0
 10
1.607244307728862
 20
4.638219799654322
 30
0.0
 10
1.609008573424617
 20
4.633988791761481
 30
0.0
 10
1.610066325397809
 20
4.629757783868654
 30
0.0
 10
1.610418909388897
 20
4.625171500503924
 30
0.0
 10
1.610418909388897
 20
4.625171500503924
 30
0.0
 10
1.619591476118358
 20
4.593767301971197
 30
0.0
 10
1.619591476118358
 20
4.593767301971197
 30
0.0
 10
1.619591476118358
 20
4.593767301971197
 30
0.0
 10
1.640406043255211
 20
4.566249601782757
 30
0.0
 10
1.640406043255211
 20
4.566249601782757
 30
0.0
 10
1.655927813304771
 20
4.542263124466714
 30
0.0
 10
1.649224680253212
 20
4.509459355893099
 30
0.0
 10
1.62488292746525
 20
4.493934894362681
 30
0.0
 10
1.616064290467264
 20
4.488293550505588
 30
0.0
 10
1.606186555755627
 20
4.485472878577041
 30
0.0
 10
1.596308821044019
 20
4.485472878577041
 30
0.0
  0
SPLINE
  5
348
330
28F
100
AcDbEntity
  8
Livello 1
100
AcDbSpline
210
0.0
220
0.0
230
1.0
 70
     9
 71
     3
 72
    41
 73
    37
 74
     0
 42
0.000000001
 43
0.0000000001
 40
0.0
 40
0.0
 40
0.0
 40
0.0
 40
1.0
 40
1.0
 40
1.0
 40
2.0
 40
2.0
 40
2.0
 40
3.0
 40
3.0
 40
3.0
 40
4.0
 40
4.0
 40
4.0
 40
5.0
 40
5.0
 40
5.0
 40
6.0
 40
6.0
 40
6.0
 40
7.0
 40
7.0
 40
7.0
 40
8.0
 40
8.0
 40
8.0
 40
9.0
 40
9.0
 40
9.0
 40
10.0
 40
10.0
 40
10.0
 40
11.0
 40
11.0
 40
11.0
 40
12.0
 40
12.0
 40
12.0
 40
12.0
 10
1.006287772539749
 20
1.978735276122122
 30
0.0
 10
1.003464409130344
 20
1.978735276122122
 30
0.0
 10
1.000642391461354
 20
1.979079785670649
 30
0.0
 10
0.9978203737923934
 20
1.979435061142567
 30
0.0
 10
0.9978203737923934
 20
1.979435061142567
 30
0.0
 10
0.9456096825653474
 20
1.98789707692822
 30
0.0
 10
0.9456096825653474
 20
1.98789707692822
 30
0.0
 10
0.9311456644889943
 20
1.990017963836322
 30
0.0
 10
0.9180933281173366
 20
1.998490745545353
 30
0.0
 10
0.9099785133610538
 20
2.010828493751901
 30
0.0
 10
0.9018650443452003
 20
2.023177007881869
 30
0.0
 10
0.8993956106672982
 20
2.038346193940341
 30
0.0
 10
0.9032753803094806
 20
2.052815594978397
 30
0.0
 10
0.9032753803094806
 20
2.052815594978397
 30
0.0
 10
1.548154191454699
 20
4.534253277463491
 30
0.0
 10
1.548154191454699
 20
4.534253277463491
 30
0.0
 10
1.555209908497332
 20
4.56212625312385
 30
0.0
 10
1.583784014918535
 20
4.579050284695142
 30
0.0
 10
1.612006883089122
 20
4.571998604873769
 30
0.0
 10
1.640228405519252
 20
4.564591649580478
 30
0.0
 10
1.657161857273521
 20
4.53601888889969
 30
0.0
 10
1.649753556239815
 20
4.507790637767428
 30
0.0
 10
1.649753556239815
 20
4.507790637767428
 30
0.0
 10
1.630350670807658
 20
4.433355043439249
 30
0.0
 10
1.630350670807658
 20
4.433355043439249
 30
0.0
 10
1.654339839604546
 20
4.423482691689329
 30
0.0
 10
1.668098689698766
 20
4.397375327465169
 30
0.0
 10
1.661042972656119
 20
4.371623238712928
 30
0.0
 10
1.661042972656119
 20
4.371623238712928
 30
0.0
 10
1.40915939176952
 20
3.412422528232241
 30
0.0
 10
1.40915939176952
 20
3.412422528232241
 30
0.0
 10
1.40915939176952
 20
3.412422528232241
 30
0.0
 10
1.057086782062057
 20
2.018246214968584
 30
0.0
 10
1.057086782062057
 20
2.018246214968584
 30
0.0
 10
1.051090162733061
 20
1.994604247201053
 30
0.0
 10
1.02992301160512
 20
1.978735276122122
 30
0.0
 10
1.006287772539749
 20
1.978735276122122
 30
0.0
  0
SPLINE
  5
349
330
28F
100
AcDbEntity
  8
Livello 1
100
AcDbSpline
210
0.0
220
0.0
230
1.0
 70
     9
 71
     3
 72
    17
 73
    13
 74
     0
 42
0.000000001
 43
0.0000000001
 40
0.0
 40
0.0
 40
0.0
 40
0.0
 40
1.0
 40
1.0
 40
1.0
 40
2.0
 40
2.0
 40
2.0
 40
3.0
 40
3.0
 40
3.0
 40
4.0
 40
4.0
 40
4.0
 40
4.0
 10
5.183881882196132
 20
12.78974026325937
 30
0.0
 10
2.88235892846653
 20
12.78974026325937
 30
0.0
 10
1.009814958190858
 20
14.66228961649675
 30
0.0
 10
1.009814958190858
 20
16.96380718726468
 30
0.0
 10
1.009814958190858
 20
19.265335523956
 30
0.0
 10
2.88235892846653
 20
21.13787411126999
 30
0.0
 10
5.183881882196132
 20
21.13787411126999
 30
0.0
 10
7.485403490185348
 20
21.13787411126999
 30
0.0
 10
9.357947460461048
 20
19.265335523956
 30
0.0
 10
9.357947460461048
 20
16.96380718726468
 30
0.0
 10
9.357947460461048
 20
14.66228961649675
 30
0.0
 10
7.485403490185348
 20
12.78974026325937
 30
0.0
 10
5.183881882196132
 20
12.78974026325937
 30
0.0
  0
SPLINE
  5
34A
330
28F
100
AcDbEntity
  8
Livello 1
100
AcDbSpline
210
0.0
220
0.0
230
1.0
 70
     9
 71
     3
 72
    17
 73
    13
 74
     0
 42
0.000000001
 43
0.0000000001
 40
0.0
 40
0.0
 40
0.0
 40
0.0
 40
1.0
 40
1.0
 40
1.0
 40
2.0
 40
2.0
 40
2.0
 40
3.0
 40
3.0
 40
3.0
 40
4.0
 40
4.0
 40
4.0
 40
4.0
 10
5.183881882196132
 20
21.0327556352763
 30
0.0
 10
2.940215000771942
 20
21.0327556352763
 30
0.0
 10
1.11459027037641
 20
19.20747945165058
 30
0.0
 10
1.11459027037641
 20
16.96380718726468
 30
0.0
 10
1.11459027037641
 20
14.72014568880216
 30
0.0
 10
2.940215000771942
 20
12.89486950517644
 30
0.0
 10
5.183881882196132
 20
12.89486950517644
 30
0.0
 10
7.427547417879935
 20
12.89486950517644
 30
0.0
 10
9.252820910024809
 20
14.72014568880216
 30
0.0
 10
9.252820910024809
 20
16.96380718726468
 30
0.0
 10
9.252820910024809
 20
19.20747945165058
 30
0.0
 10
7.427547417879935
 20
21.0327556352763
 30
0.0
 10
5.183881882196132
 20
21.0327556352763
 30
0.0
  0
SPLINE
  5
34B
330
28F
100
AcDbEntity
  8
Livello 1
100
AcDbSpline
210
0.0
220
0.0
230
1.0
 70
     9
 71
     3
 72
    17
 73
    13
 74
     0
 42
0.000000001
 43
0.0000000001
 40
0.0
 40
0.0
 40
0.0
 40
0.0
 40
1.0
 40
1.0
 40
1.0
 40
2.0
 40
2.0
 40
2.0
 40
3.0
 40
3.0
 40
3.0
 40
4.0
 40
4.0
 40
4.0
 40
4.0
 10
5.183881882196132
 20
13.71034513838185
 30
0.0
 10
3.389653275890822
 20
13.71034513838185
 30
0.0
 10
1.930212589288061
 20
15.16978447924421
 30
0.0
 10
1.930212589288061
 20
16.96365646433719
 30
0.0
 10
1.930212589288061
 20
18.75788372490209
 30
0.0
 10
3.389653275890822
 20
20.21767834123636
 30
0.0
 10
5.183881882196132
 20
20.21767834123636
 30
0.0
 10
6.977756558769968
 20
20.21767834123636
 30
0.0
 10
8.437549829363817
 20
18.75788372490209
 30
0.0
 10
8.437549829363817
 20
16.96365646433719
 30
0.0
 10
8.437549829363817
 20
15.16978447924421
 30
0.0
 10
6.977756558769968
 20
13.71034513838185
 30
0.0
 10
5.183881882196132
 20
13.71034513838185
 30
0.0
  0
SPLINE
  5
34C
330
28F
100
AcDbEntity
  8
Livello 1
100
AcDbSpline
210
0.0
220
0.0
230
1.0
 70
     9
 71
     3
 72
    17
 73
    13
 74
     0
 42
0.000000001
 43
0.0000000001
 40
0.0
 40
0.0
 40
0.0
 40
0.0
 40
1.0
 40
1.0
 40
1.0
 40
2.0
 40
2.0
 40
2.0
 40
3.0
 40
3.0
 40
3.0
 40
4.0
 40
4.0
 40
4.0
 40
4.0
 10
5.183881882196132
 20
20.11255986524267
 30
0.0
 10
3.447509348196263
 20
20.11255986524267
 30
0.0
 10
2.034986555733198
 20
18.70002765259668
 30
0.0
 10
2.034986555733198
 20
16.96365646433719
 30
0.0
 10
2.034986555733198
 20
15.22764055154964
 30
0.0
 10
3.447509348196263
 20
13.81511910482702
 30
0.0
 10
5.183881882196132
 20
13.81511910482702
 30
0.0
 10
6.91990048646457
 20
13.81511910482702
 30
0.0
 10
8.332423278927578
 20
15.22764055154964
 30
0.0
 10
8.332423278927578
 20
16.96365646433719
 30
0.0
 10
8.332423278927578
 20
18.70002765259668
 30
0.0
 10
6.91990048646457
 20
20.11255986524267
 30
0.0
 10
5.183881882196132
 20
20.11255986524267
 30
0.0
  0
SPLINE
  5
34D
330
28F
100
AcDbEntity
  8
Livello 1
100
AcDbSpline
210
0.0
220
0.0
230
1.0
 70
     9
 71
     3
 72
    17
 73
    13
 74
     0
 42
0.000000001
 43
0.0000000001
 40
0.0
 40
0.0
 40
0.0
 40
0.0
 40
1.0
 40
1.0
 40
1.0
 40
2.0
 40
2.0
 40
2.0
 40
3.0
 40
3.0
 40
3.0
 40
4.0
 40
4.0
 40
4.0
 40
4.0
 10
5.183881882196132
 20
13.91030063353044
 30
0.0
 10
3.50007262341434
 20
13.91030063353044
 30
0.0
 10
2.130236717198258
 20
15.28013519400612
 30
0.0
 10
2.130236717198258
 20
16.96359186879684
 30
0.0
 10
2.130236717198258
 20
18.64774832860801
 30
0.0
 10
3.50007262341434
 20
20.0175828890837
 30
0.0
 10
5.183881882196132
 20
20.0175828890837
 30
0.0
 10
6.867689795237538
 20
20.0175828890837
 30
0.0
 10
8.237524355713219
 20
18.64774832860801
 30
0.0
 10
8.237524355713219
 20
16.96359186879684
 30
0.0
 10
8.237524355713219
 20
15.28013519400612
 30
0.0
 10
6.867689795237538
 20
13.91030063353044
 30
0.0
 10
5.183881882196132
 20
13.91030063353044
 30
0.0
  0
SPLINE
  5
34E
330
28F
100
AcDbEntity
  8
Livello 1
100
AcDbSpline
210
0.0
220
0.0
230
1.0
 70
     9
 71
     3
 72
    17
 73
    13
 74
     0
 42
0.000000001
 43
0.0000000001
 40
0.0
 40
0.0
 40
0.0
 40
0.0
 40
1.0
 40
1.0
 40
1.0
 40
2.0
 40
2.0
 40
2.0
 40
3.0
 40
3.0
 40
3.0
 40
4.0
 40
4.0
 40
4.0
 40
4.0
 10
5.183881882196132
 20
19.91246441309001
 30
0.0
 10
3.55792869571978
 20
19.91246441309001
 30
0.0
 10
2.235012029383824
 20
18.58954774675408
 30
0.0
 10
2.235012029383824
 20
16.96359186879684
 30
0.0
 10
2.235012029383824
 20
15.33799126631153
 30
0.0
 10
3.55792869571978
 20
14.01542987544751
 30
0.0
 10
5.183881882196132
 20
14.01542987544751
 30
0.0
 10
6.809833722932111
 20
14.01542987544751
 30
0.0
 10
8.13239780527698
 20
15.33799126631153
 30
0.0
 10
8.13239780527698
 20
16.96359186879684
 30
0.0
 10
8.13239780527698
 20
18.58954774675408
 30
0.0
 10
6.809833722932111
 20
19.91246441309001
 30
0.0
 10
5.183881882196132
 20
19.91246441309001
 30
0.0
  0
ENDBLK
  5
352
330
28F
100
AcDbEntity
  8
0
100
AcDbBlockEnd
  0
ENDSEC
  0
SECTION
  2
ENTITIES
  0
POLYLINE
  5
416
330
1F
100
AcDbEntity
  8
Livello 1
100
AcDb2dPolyline
 66
     1
 10
0.0
 20
0.0
 30
0.0
  0
VERTEX
  5
417
330
416
100
AcDbEntity
  8
Livello 1
100
AcDbVertex
100
AcDb2dVertex
 10
10.44150535203584
 20
6.264703207857706
 30
0.0
  0
VERTEX
  5
418
330
416
100
AcDbEntity
  8
Livello 1
100
AcDbVertex
100
AcDb2dVertex
 10
10.44150535203584
 20
2.193644638861357
 30
0.0
  0
SEQEND
  5
419
330
416
100
AcDbEntity
  8
Livello 1
  0
POLYLINE
  5
41A
330
1F
100
AcDbEntity
  8
Livello 1
100
AcDb2dPolyline
 66
     1
 10
0.0
 20
0.0
 30
0.0
  0
VERTEX
  5
41B
330
41A
100
AcDbEntity
  8
Livello 1
100
AcDbVertex
100
AcDb2dVertex
 10
9.154431136150734
 20
11.58109919923152
 30
0.0
  0
VERTEX
  5
41C
330
41A
100
AcDbEntity
  8
Livello 1
100
AcDbVertex
100
AcDb2dVertex
 10
1.177772783279735
 20
11.58109919923152
 30
0.0
  0
SEQEND
  5
41D
330
41A
100
AcDbEntity
  8
Livello 1
  0
MTEXT
  5
41E
330
1F
100
AcDbEntity
  8
Livello 1
100
AcDbMText
 10
13.54501961992317
 20
0.1182599059685288
 30
0.0
 40
2.123016666135912
 41
0.0
 46
0.0
 71
     7
 72
     1
  1
\fSource Sans Pro Light|b0|i0|c0|p34;\W1;58 mm
 11
-0.0000000000000002
 21
1.0
 31
0.0
 73
     1
 44
1.0
  0
MTEXT
  5
41F
330
1F
100
AcDbEntity
  8
Livello 1
100
AcDbMText
 10
0.4807223073797787
 20
8.477568782459108
 30
0.0
 40
2.123016666135912
 41
0.0
 46
0.0
 71
     7
 72
     1
  1
\fSource Sans Pro Light|b0|i0|c0|p34;\W1;103 mm
 73
     1
 44
1.0
  0
SPLINE
  5
420
330
1F
100
AcDbEntity
  8
Livello 1
100
AcDbSpline
210
0.0
220
0.0
230
1.0
 70
     9
 71
     3
 72
    23
 73
    19
 74
     0
 42
0.000000001
 43
0.0000000001
 40
0.0
 40
0.0
 40
0.0
 40
0.0
 40
1.0
 40
1.0
 40
1.0
 40
2.0
 40
2.0
 40
2.0
 40
3.0
 40
3.0
 40
3.0
 40
4.0
 40
4.0
 40
4.0
 40
5.0
 40
5.0
 40
5.0
 40
6.0
 40
6.0
 40
6.0
 40
6.0
 10
1.040613573532823
 20
1.985119468693227
 30
0.0
 10
1.011332953389029
 20
1.985119468693227
 30
0.0
 10
0.9880489525742461
 20
2.008761436460758
 30
0.0
 10
0.9880489525742461
 20
2.037689472613465
 30
0.0
 10
0.9880489525742461
 20
2.037689472613465
 30
0.0
 10
0.9880489525742461
 20
2.149159843408085
 30
0.0
 10
0.9880489525742461
 20
2.149159843408085
 30
0.0
 10
0.9880489525742461
 20
2.178087879560791
 30
0.0
 10
1.011332953389029
 20
2.201374571856391
 30
0.0
 10
1.040613573532823
 20
2.201374571856391
 30
0.0
 10
1.0695402639451
 20
2.201374571856391
 30
0.0
 10
1.093176848750914
 20
2.178087879560791
 30
0.0
 10
1.093176848750914
 20
2.149159843408085
 30
0.0
 10
1.093176848750914
 20
2.149159843408085
 30
0.0
 10
1.093176848750914
 20
2.037689472613465
 30
0.0
 10
1.093176848750914
 20
2.037689472613465
 30
0.0
 10
1.093176848750914
 20
2.008761436460758
 30
0.0
 10
1.0695402639451
 20
1.985119468693227
 30
0.0
 10
1.040613573532823
 20
1.985119468693227
 30
0.0
  0
SPLINE
  5
421
330
1F
100
AcDbEntity
  8
Livello 1
100
AcDbSpline
210
0.0
220
0.0
230
1.0
 70
     9
 71
     3
 72
    23
 73
    19
 74
     0
 42
0.000000001
 43
0.0000000001
 40
0.0
 40
0.0
 40
0.0
 40
0.0
 40
1.0
 40
1.0
 40
1.0
 40
2.0
 40
2.0
 40
2.0
 40
3.0
 40
3.0
 40
3.0
 40
4.0
 40
4.0
 40
4.0
 40
5.0
 40
5.0
 40
5.0
 40
6.0
 40
6.0
 40
6.0
 40
6.0
 10
1.620933179321013
 20
3.894714364320435
 30
0.0
 10
1.592005143168307
 20
3.894714364320435
 30
0.0
 10
1.568368558362479
 20
3.918345566164575
 30
0.0
 10
1.568368558362479
 20
3.947273602317281
 30
0.0
 10
1.568368558362479
 20
3.947273602317281
 30
0.0
 10
1.568368558362479
 20
5.789829092986181
 30
0.0
 10
1.568368558362479
 20
5.789829092986181
 30
0.0
 10
1.568368558362479
 20
5.818757129138901
 30
0.0
 10
1.592005143168307
 20
5.842399096906433
 30
0.0
 10
1.620933179321013
 20
5.842399096906433
 30
0.0
 10
1.649859869733319
 20
5.842399096906433
 30
0.0
 10
1.673496454539119
 20
5.818757129138901
 30
0.0
 10
1.673496454539119
 20
5.789829092986181
 30
0.0
 10
1.673496454539119
 20
5.789829092986181
 30
0.0
 10
1.673496454539119
 20
3.947273602317281
 30
0.0
 10
1.673496454539119
 20
3.947273602317281
 30
0.0
 10
1.673496454539119
 20
3.918345566164575
 30
0.0
 10
1.649859869733319
 20
3.894714364320435
 30
0.0
 10
1.620933179321013
 20
3.894714364320435
 30
0.0
  0
SPLINE
  5
422
330
1F
100
AcDbEntity
  8
Livello 1
100
AcDbSpline
210
0.0
220
0.0
230
1.0
 70
     9
 71
     3
 72
    23
 73
    19
 74
     0
 42
0.000000001
 43
0.0000000001
 40
0.0
 40
0.0
 40
0.0
 40
0.0
 40
1.0
 40
1.0
 40
1.0
 40
2.0
 40
2.0
 40
2.0
 40
3.0
 40
3.0
 40
3.0
 40
4.0
 40
4.0
 40
4.0
 40
5.0
 40
5.0
 40
5.0
 40
6.0
 40
6.0
 40
6.0
 40
6.0
 10
1.856234546703987
 20
5.737377514223254
 30
0.0
 10
1.856234546703987
 20
5.737377514223254
 30
0.0
 10
1.840712776654456
 20
5.737377514223254
 30
0.0
 10
1.840712776654456
 20
5.737377514223254
 30
0.0
 10
1.811432156510676
 20
5.737377514223254
 30
0.0
 10
1.788148155695893
 20
5.761008716067408
 30
0.0
 10
1.788148155695893
 20
5.789936752220114
 30
0.0
 10
1.788148155695893
 20
5.81886478837282
 30
0.0
 10
1.811432156510676
 20
5.842495990216932
 30
0.0
 10
1.840712776654456
 20
5.842495990216932
 30
0.0
 10
1.840712776654456
 20
5.842495990216932
 30
0.0
 10
1.856234546703987
 20
5.842495990216932
 30
0.0
 10
1.856234546703987
 20
5.842495990216932
 30
0.0
 10
1.885162582856693
 20
5.842495990216932
 30
0.0
 10
1.908799167662536
 20
5.81886478837282
 30
0.0
 10
1.908799167662536
 20
5.789936752220114
 30
0.0
 10
1.908799167662536
 20
5.761008716067408
 30
0.0
 10
1.885162582856693
 20
5.737377514223254
 30
0.0
 10
1.856234546703987
 20
5.737377514223254
 30
0.0
  0
SPLINE
  5
423
330
1F
100
AcDbEntity
  8
Livello 1
100
AcDbSpline
210
0.0
220
0.0
230
1.0
 70
     9
 71
     3
 72
    23
 73
    19
 74
     0
 42
0.000000001
 43
0.0000000001
 40
0.0
 40
0.0
 40
0.0
 40
0.0
 40
1.0
 40
1.0
 40
1.0
 40
2.0
 40
2.0
 40
2.0
 40
3.0
 40
3.0
 40
3.0
 40
4.0
 40
4.0
 40
4.0
 40
5.0
 40
5.0
 40
5.0
 40
6.0
 40
6.0
 40
6.0
 40
6.0
 10
1.715124243072409
 20
5.737377514223254
 30
0.0
 10
1.686196206919703
 20
5.737377514223254
 30
0.0
 10
1.662559622113889
 20
5.761008716067408
 30
0.0
 10
1.662559622113889
 20
5.789936752220114
 30
0.0
 10
1.662559622113889
 20
5.789936752220114
 30
0.0
 10
1.662559622113889
 20
5.899652277501928
 30
0.0
 10
1.662559622113889
 20
5.899652277501928
 30
0.0
 10
1.662559622113889
 20
5.928580313654634
 30
0.0
 10
1.686196206919703
 20
5.952211515498774
 30
0.0
 10
1.715124243072409
 20
5.952211515498774
 30
0.0
 10
1.7440509334847
 20
5.952211515498774
 30
0.0
 10
1.767687518290543
 20
5.928580313654634
 30
0.0
 10
1.767687518290543
 20
5.899652277501928
 30
0.0
 10
1.767687518290543
 20
5.899652277501928
 30
0.0
 10
1.767687518290543
 20
5.789936752220114
 30
0.0
 10
1.767687518290543
 20
5.789936752220114
 30
0.0
 10
1.767687518290543
 20
5.761008716067408
 30
0.0
 10
1.7440509334847
 20
5.737377514223254
 30
0.0
 10
1.715124243072409
 20
5.737377514223254
 30
0.0
  0
SPLINE
  5
424
330
1F
100
AcDbEntity
  8
Livello 1
100
AcDbSpline
210
0.0
220
0.0
230
1.0
 70
     9
 71
     3
 72
    23
 73
    19
 74
     0
 42
0.000000001
 43
0.0000000001
 40
0.0
 40
0.0
 40
0.0
 40
0.0
 40
1.0
 40
1.0
 40
1.0
 40
2.0
 40
2.0
 40
2.0
 40
3.0
 40
3.0
 40
3.0
 40
4.0
 40
4.0
 40
4.0
 40
5.0
 40
5.0
 40
5.0
 40
6.0
 40
6.0
 40
6.0
 40
6.0
 10
1.620933179321013
 20
3.564545025752806
 30
0.0
 10
1.592005143168307
 20
3.564545025752806
 30
0.0
 10
1.568368558362479
 20
3.588176227596932
 30
0.0
 10
1.568368558362479
 20
3.617104263749638
 30
0.0
 10
1.568368558362479
 20
3.617104263749638
 30
0.0
 10
1.568368558362479
 20
3.951536907980269
 30
0.0
 10
1.568368558362479
 20
3.951536907980269
 30
0.0
 10
1.568368558362479
 20
3.980464944132975
 30
0.0
 10
1.592005143168307
 20
4.004096145977115
 30
0.0
 10
1.620933179321013
 20
4.004096145977115
 30
0.0
 10
1.649859869733319
 20
4.004096145977115
 30
0.0
 10
1.673496454539119
 20
3.980464944132975
 30
0.0
 10
1.673496454539119
 20
3.951536907980269
 30
0.0
 10
1.673496454539119
 20
3.951536907980269
 30
0.0
 10
1.673496454539119
 20
3.617104263749638
 30
0.0
 10
1.673496454539119
 20
3.617104263749638
 30
0.0
 10
1.673496454539119
 20
3.588176227596932
 30
0.0
 10
1.649859869733319
 20
3.564545025752806
 30
0.0
 10
1.620933179321013
 20
3.564545025752806
 30
0.0
  0
SPLINE
  5
425
330
1F
100
AcDbEntity
  8
Livello 1
100
AcDbSpline
210
0.0
220
0.0
230
1.0
 70
     9
 71
     3
 72
    71
 73
    67
 74
     0
 42
0.000000001
 43
0.0000000001
 40
0.0
 40
0.0
 40
0.0
 40
0.0
 40
1.0
 40
1.0
 40
1.0
 40
2.0
 40
2.0
 40
2.0
 40
3.0
 40
3.0
 40
3.0
 40
4.0
 40
4.0
 40
4.0
 40
5.0
 40
5.0
 40
5.0
 40
6.0
 40
6.0
 40
6.0
 40
7.0
 40
7.0
 40
7.0
 40
8.0
 40
8.0
 40
8.0
 40
9.0
 40
9.0
 40
9.0
 40
10.0
 40
10.0
 40
10.0
 40
11.0
 40
11.0
 40
11.0
 40
12.0
 40
12.0
 40
12.0
 40
13.0
 40
13.0
 40
13.0
 40
14.0
 40
14.0
 40
14.0
 40
15.0
 40
15.0
 40
15.0
 40
16.0
 40
16.0
 40
16.0
 40
17.0
 40
17.0
 40
17.0
 40
18.0
 40
18.0
 40
18.0
 40
19.0
 40
19.0
 40
19.0
 40
20.0
 40
20.0
 40
20.0
 40
21.0
 40
21.0
 40
21.0
 40
22.0
 40
22.0
 40
22.0
 40
22.0
 10
9.276950035825763
 20
1.985227127927146
 30
0.0
 10
9.276950035825763
 20
1.985227127927146
 30
0.0
 10
1.040648562783815
 20
1.985227127927146
 30
0.0
 10
1.040648562783815
 20
1.985227127927146
 30
0.0
 10
1.011367942640049
 20
1.985227127927146
 30
0.0
 10
0.9880839418252662
 20
2.008869095694677
 30
0.0
 10
0.9880839418252662
 20
2.037786365923992
 30
0.0
 10
0.9880839418252662
 20
2.066714402076712
 30
0.0
 10
1.011367942640049
 20
2.090001094372311
 30
0.0
 10
1.040648562783815
 20
2.090001094372311
 30
0.0
 10
1.040648562783815
 20
2.090001094372311
 30
0.0
 10
8.700157615688709
 20
2.090001094372311
 30
0.0
 10
8.700157615688709
 20
2.090001094372311
 30
0.0
 10
8.694513580350744
 20
2.091411430336577
 30
0.0
 10
8.689574712994954
 20
2.09353231724468
 30
0.0
 10
8.684635845639135
 20
2.09635298917324
 30
0.0
 10
8.684635845639135
 20
2.09635298917324
 30
0.0
 10
1.040648562783815
 20
2.09635298917324
 30
0.0
 10
1.040648562783815
 20
2.09635298917324
 30
0.0
 10
1.011367942640049
 20
2.09635298917324
 30
0.0
 10
0.9880839418252662
 20
2.119984191017366
 30
0.0
 10
0.9880839418252662
 20
2.148912227170072
 30
0.0
 10
0.9880839418252662
 20
2.178195538794696
 30
0.0
 10
1.011367942640049
 20
2.201482231090309
 30
0.0
 10
1.040648562783815
 20
2.201482231090309
 30
0.0
 10
1.040648562783815
 20
2.201482231090309
 30
0.0
 10
1.560642662588705
 20
2.201482231090309
 30
0.0
 10
1.560642662588705
 20
2.201482231090309
 30
0.0
 10
1.560642662588705
 20
2.201482231090309
 30
0.0
 10
1.560642662588705
 20
3.603420775119161
 30
0.0
 10
1.560642662588705
 20
3.603420775119161
 30
0.0
 10
1.560642662588705
 20
3.632348811271882
 30
0.0
 10
1.583925317663059
 20
3.655980013116007
 30
0.0
 10
1.613205937806839
 20
3.655980013116007
 30
0.0
 10
1.613205937806839
 20
3.655980013116007
 30
0.0
 10
8.712153545827561
 20
3.655980013116007
 30
0.0
 10
8.712153545827561
 20
3.655980013116007
 30
0.0
 10
8.741434165971327
 20
3.655980013116007
 30
0.0
 10
8.764718166786096
 20
3.632348811271882
 30
0.0
 10
8.764718166786096
 20
3.603420775119161
 30
0.0
 10
8.764718166786096
 20
3.603420775119161
 30
0.0
 10
8.764718166786096
 20
2.201482231090309
 30
0.0
 10
8.764718166786096
 20
2.201482231090309
 30
0.0
 10
8.764718166786096
 20
2.201482231090309
 30
0.0
 10
9.276950035825763
 20
2.201482231090309
 30
0.0
 10
9.276950035825763
 20
2.201482231090309
 30
0.0
 10
9.305878071978483
 20
2.201482231090309
 30
0.0
 10
9.32951465678434
 20
2.178195538794696
 30
0.0
 10
9.32951465678434
 20
2.148912227170072
 30
0.0
 10
9.32951465678434
 20
2.119984191017366
 30
0.0
 10
9.305878071978483
 20
2.09635298917324
 30
0.0
 10
9.276950035825763
 20
2.09635298917324
 30
0.0
 10
9.276950035825763
 20
2.09635298917324
 30
0.0
 10
8.740023830007061
 20
2.09635298917324
 30
0.0
 10
8.740023830007061
 20
2.09635298917324
 30
0.0
 10
8.735084962651257
 20
2.09353231724468
 30
0.0
 10
8.730146095295467
 20
2.091411430336577
 30
0.0
 10
8.724499368476656
 20
2.090001094372311
 30
0.0
 10
8.724499368476656
 20
2.090001094372311
 30
0.0
 10
9.276950035825763
 20
2.090001094372311
 30
0.0
 10
9.276950035825763
 20
2.090001094372311
 30
0.0
 10
9.305878071978483
 20
2.090001094372311
 30
0.0
 10
9.32951465678434
 20
2.066714402076712
 30
0.0
 10
9.32951465678434
 20
2.037786365923992
 30
0.0
 10
9.32951465678434
 20
2.008869095694677
 30
0.0
 10
9.305878071978483
 20
1.985227127927146
 30
0.0
 10
9.276950035825763
 20
1.985227127927146
 30
0.0
  0
POLYLINE
  5
426
330
1F
100
AcDbEntity
  8
Livello 1
100
AcDb2dPolyline
 66
     1
 10
0.0
 20
0.0
 30
0.0
  0
VERTEX
  5
427
330
426
100
AcDbEntity
  8
Livello 1
100
AcDbVertex
100
AcDb2dVertex
 10
1.665770558765387
 20
2.201482231090309
 30
0.0
  0
VERTEX
  5
428
330
426
100
AcDbEntity
  8
Livello 1
100
AcDbVertex
100
AcDb2dVertex
 10
8.659941508860114
 20
2.201482231090309
 30
0.0
  0
VERTEX
  5
429
330
426
100
AcDbEntity
  8
Livello 1
100
AcDbVertex
100
AcDb2dVertex
 10
8.659941508860114
 20
3.550850771198938
 30
0.0
  0
VERTEX
  5
42A
330
426
100
AcDbEntity
  8
Livello 1
100
AcDbVertex
100
AcDb2dVertex
 10
1.665770558765387
 20
3.550850771198938
 30
0.0
  0
VERTEX
  5
42B
330
426
100
AcDbEntity
  8
Livello 1
100
AcDbVertex
100
AcDb2dVertex
 10
1.665770558765387
 20
2.201482231090309
 30
0.0
  0
SEQEND
  5
42C
330
426
100
AcDbEntity
  8
Livello 1
  0
SPLINE
  5
42D
330
1F
100
AcDbEntity
  8
Livello 1
100
AcDbSpline
210
0.0
220
0.0
230
1.0
 70
     9
 71
     3
 72
    98
 73
    94
 74
     0
 42
0.000000001
 43
0.0000000001
 40
0.0
 40
0.0
 40
0.0
 40
0.0
 40
1.0
 40
1.0
 40
1.0
 40
2.0
 40
2.0
 40
2.0
 40
3.0
 40
3.0
 40
3.0
 40
4.0
 40
4.0
 40
4.0
 40
5.0
 40
5.0
 40
5.0
 40
6.0
 40
6.0
 40
6.0
 40
7.0
 40
7.0
 40
7.0
 40
8.0
 40
8.0
 40
8.0
 40
9.0
 40
9.0
 40
9.0
 40
10.0
 40
10.0
 40
10.0
 40
11.0
 40
11.0
 40
11.0
 40
12.0
 40
12.0
 40
12.0
 40
13.0
 40
13.0
 40
13.0
 40
14.0
 40
14.0
 40
14.0
 40
15.0
 40
15.0
 40
15.0
 40
16.0
 40
16.0
 40
16.0
 40
17.0
 40
17.0
 40
17.0
 40
18.0
 40
18.0
 40
18.0
 40
19.0
 40
19.0
 40
19.0
 40
20.0
 40
20.0
 40
20.0
 40
21.0
 40
21.0
 40
21.0
 40
22.0
 40
22.0
 40
22.0
 40
23.0
 40
23.0
 40
23.0
 40
24.0
 40
24.0
 40
24.0
 40
25.0
 40
25.0
 40
25.0
 40
26.0
 40
26.0
 40
26.0
 40
27.0
 40
27.0
 40
27.0
 40
28.0
 40
28.0
 40
28.0
 40
29.0
 40
29.0
 40
29.0
 40
30.0
 40
30.0
 40
30.0
 40
31.0
 40
31.0
 40
31.0
 40
31.0
 10
2.750562494308908
 20
3.899042265523775
 30
0.0
 10
2.750562494308908
 20
3.899042265523775
 30
0.0
 10
2.750208564577448
 20
3.899042265523775
 30
0.0
 10
2.750208564577448
 20
3.899042265523775
 30
0.0
 10
2.750208564577448
 20
3.899042265523775
 30
0.0
 10
2.327228891933344
 20
3.899042265523775
 30
0.0
 10
2.327228891933344
 20
3.899042265523775
 30
0.0
 10
2.327228891933344
 20
3.899042265523775
 30
0.0
 10
2.326876307942256
 20
3.899042265523775
 30
0.0
 10
2.326876307942256
 20
3.899042265523775
 30
0.0
 10
2.326876307942256
 20
3.899042265523775
 30
0.0
 10
2.045006938929759
 20
3.899042265523775
 30
0.0
 10
2.045006938929759
 20
3.899042265523775
 30
0.0
 10
2.045006938929759
 20
3.899042265523775
 30
0.0
 10
2.044300425207197
 20
3.899042265523775
 30
0.0
 10
2.044300425207197
 20
3.899042265523775
 30
0.0
 10
2.044300425207197
 20
3.899042265523775
 30
0.0
 10
1.620966822831604
 20
3.899042265523775
 30
0.0
 10
1.620966822831604
 20
3.899042265523775
 30
0.0
 10
1.591687548428268
 20
3.899042265523775
 30
0.0
 10
1.568403547613485
 20
3.922684233291306
 30
0.0
 10
1.568403547613485
 20
3.951612269444012
 30
0.0
 10
1.568403547613485
 20
3.980540305596719
 30
0.0
 10
1.591687548428268
 20
4.004171507440858
 30
0.0
 10
1.620966822831604
 20
4.004171507440858
 30
0.0
 10
1.620966822831604
 20
4.004171507440858
 30
0.0
 10
1.993147485953343
 20
4.004171507440858
 30
0.0
 10
1.993147485953343
 20
4.004171507440858
 30
0.0
 10
1.993147485953343
 20
4.004171507440858
 30
0.0
 10
2.023487203810759
 20
5.994543126273754
 30
0.0
 10
2.023487203810759
 20
5.994543126273754
 30
0.0
 10
2.023839787801833
 20
6.023826437898392
 30
0.0
 10
2.04606469090298
 20
6.04640257925017
 30
0.0
 10
2.076756992751441
 20
6.04640257925017
 30
0.0
 10
2.106036267154763
 20
6.04570279422974
 30
0.0
 10
2.128967683978501
 20
6.022060826462208
 30
0.0
 10
2.128615099987413
 20
5.993132790309502
 30
0.0
 10
2.128615099987413
 20
5.993132790309502
 30
0.0
 10
2.097922798138938
 20
4.004171507440858
 30
0.0
 10
2.097922798138938
 20
4.004171507440858
 30
0.0
 10
2.097922798138938
 20
4.004171507440858
 30
0.0
 10
2.275723368688403
 20
4.004171507440858
 30
0.0
 10
2.275723368688403
 20
4.004171507440858
 30
0.0
 10
2.275723368688403
 20
4.004171507440858
 30
0.0
 10
2.321583510854992
 20
6.057696032887761
 30
0.0
 10
2.321583510854992
 20
6.057696032887761
 30
0.0
 10
2.321937440586467
 20
6.086268793568564
 30
0.0
 10
2.345572679651894
 20
6.109200210392245
 30
0.0
 10
2.373795547822453
 20
6.109200210392245
 30
0.0
 10
2.373795547822453
 20
6.109200210392245
 30
0.0
 10
2.37485329979566
 20
6.109200210392245
 30
0.0
 10
2.37485329979566
 20
6.109200210392245
 30
0.0
 10
2.404133919939425
 20
6.108489659448423
 30
0.0
 10
2.427065336763106
 20
6.084503182132365
 30
0.0
 10
2.426358823040558
 20
6.055575145979659
 30
0.0
 10
2.426358823040558
 20
6.055575145979659
 30
0.0
 10
2.380851264865114
 20
4.004171507440858
 30
0.0
 10
2.380851264865114
 20
4.004171507440858
 30
0.0
 10
2.380851264865114
 20
4.004171507440858
 30
0.0
 10
2.699056971064024
 20
4.004171507440858
 30
0.0
 10
2.699056971064024
 20
4.004171507440858
 30
0.0
 10
2.699056971064024
 20
4.004171507440858
 30
0.0
 10
2.745269697221615
 20
6.136362635108767
 30
0.0
 10
2.745269697221615
 20
6.136362635108767
 30
0.0
 10
2.745976210944178
 20
6.165290671261473
 30
0.0
 10
2.769964034000665
 20
6.186101201177052
 30
0.0
 10
2.798892070153385
 20
6.187511537141332
 30
0.0
 10
2.827820106306077
 20
6.186811752120888
 30
0.0
 10
2.850750177389357
 20
6.163169784353371
 30
0.0
 10
2.85004500940721
 20
6.133897238652124
 30
0.0
 10
2.85004500940721
 20
6.133897238652124
 30
0.0
 10
2.803125769527028
 20
3.95055720895165
 30
0.0
 10
2.803125769527028
 20
3.95055720895165
 30
0.0
 10
2.803125769527028
 20
3.943850038678803
 30
0.0
 10
2.801361503831273
 20
3.93714286840597
 30
0.0
 10
2.798892070153385
 20
3.931146249076945
 30
0.0
 10
2.798892070153385
 20
3.931146249076945
 30
0.0
 10
2.798892070153385
 20
3.930801739528419
 30
0.0
 10
2.798892070153385
 20
3.930801739528419
 30
0.0
 10
2.798892070153385
 20
3.930801739528419
 30
0.0
 10
2.798539486162297
 20
3.930446464056501
 30
0.0
 10
2.798539486162297
 20
3.930446464056501
 30
0.0
 10
2.796070052484395
 20
3.924805120199422
 30
0.0
 10
2.792542866833301
 20
3.919508285890856
 30
0.0
 10
2.787956583468556
 20
3.914922002526097
 30
0.0
 10
2.782665132121678
 20
3.909280658669004
 30
0.0
 10
2.775961999070105
 20
3.905049650776177
 30
0.0
 10
2.768553698036384
 20
3.902218212924239
 30
0.0
 10
2.768553698036384
 20
3.902218212924239
 30
0.0
 10
2.768201114045325
 20
3.902218212924239
 30
0.0
 10
2.768201114045325
 20
3.902218212924239
 30
0.0
 10
2.762909662698461
 20
3.900108091939529
 30
0.0
 10
2.756911697629035
 20
3.899042265523775
 30
0.0
 10
2.750562494308908
 20
3.899042265523775
 30
0.0
  0
SPLINE
  5
42E
330
1F
100
AcDbEntity
  8
Livello 1
100
AcDbSpline
210
0.0
220
0.0
230
1.0
 70
     9
 71
     3
 72
    23
 73
    19
 74
     0
 42
0.000000001
 43
0.0000000001
 40
0.0
 40
0.0
 40
0.0
 40
0.0
 40
1.0
 40
1.0
 40
1.0
 40
2.0
 40
2.0
 40
2.0
 40
3.0
 40
3.0
 40
3.0
 40
4.0
 40
4.0
 40
4.0
 40
5.0
 40
5.0
 40
5.0
 40
6.0
 40
6.0
 40
6.0
 40
6.0
 10
8.696631775777987
 20
3.899042265523775
 30
0.0
 10
8.696631775777987
 20
3.899042265523775
 30
0.0
 10
7.567037450041098
 20
3.899042265523775
 30
0.0
 10
7.567037450041098
 20
3.899042265523775
 30
0.0
 10
7.53810941388842
 20
3.899042265523775
 30
0.0
 10
7.514472829082563
 20
3.922684233291306
 30
0.0
 10
7.514472829082563
 20
3.951612269444012
 30
0.0
 10
7.514472829082563
 20
3.980540305596719
 30
0.0
 10
7.53810941388842
 20
4.004171507440858
 30
0.0
 10
7.567037450041098
 20
4.004171507440858
 30
0.0
 10
7.567037450041098
 20
4.004171507440858
 30
0.0
 10
8.696631775777987
 20
4.004171507440858
 30
0.0
 10
8.696631775777987
 20
4.004171507440858
 30
0.0
 10
8.725559811930693
 20
4.004171507440858
 30
0.0
 10
8.749193705255692
 20
3.980540305596719
 30
0.0
 10
8.749193705255692
 20
3.951612269444012
 30
0.0
 10
8.749193705255692
 20
3.922684233291306
 30
0.0
 10
8.725559811930693
 20
3.899042265523775
 30
0.0
 10
8.696631775777987
 20
3.899042265523775
 30
0.0
  0
SPLINE
  5
42F
330
1F
100
AcDbEntity
  8
Livello 1
100
AcDbSpline
210
0.0
220
0.0
230
1.0
 70
     9
 71
     3
 72
    41
 73
    37
 74
     0
 42
0.000000001
 43
0.0000000001
 40
0.0
 40
0.0
 40
0.0
 40
0.0
 40
1.0
 40
1.0
 40
1.0
 40
2.0
 40
2.0
 40
2.0
 40
3.0
 40
3.0
 40
3.0
 40
4.0
 40
4.0
 40
4.0
 40
5.0
 40
5.0
 40
5.0
 40
6.0
 40
6.0
 40
6.0
 40
7.0
 40
7.0
 40
7.0
 40
8.0
 40
8.0
 40
8.0
 40
9.0
 40
9.0
 40
9.0
 40
10.0
 40
10.0
 40
10.0
 40
11.0
 40
11.0
 40
11.0
 40
12.0
 40
12.0
 40
12.0
 40
12.0
 10
1.856270881695465
 20
5.737377514223254
 30
0.0
 10
1.856270881695465
 20
5.737377514223254
 30
0.0
 10
1.840747765905447
 20
5.737377514223254
 30
0.0
 10
1.840747765905447
 20
5.737377514223254
 30
0.0
 10
1.8379257482365
 20
5.737377514223254
 30
0.0
 10
1.835103730567553
 20
5.737722023771794
 30
0.0
 10
1.832634296889608
 20
5.738077299243713
 30
0.0
 10
1.830164863211706
 20
5.737722023771794
 30
0.0
 10
1.827695429533818
 20
5.737377514223254
 30
0.0
 10
1.824873411864828
 20
5.737377514223254
 30
0.0
 10
1.824873411864828
 20
5.737377514223254
 30
0.0
 10
1.809350296074839
 20
5.737377514223254
 30
0.0
 10
1.809350296074839
 20
5.737377514223254
 30
0.0
 10
1.780423605662576
 20
5.737377514223254
 30
0.0
 10
1.756787020856734
 20
5.761008716067408
 30
0.0
 10
1.756787020856734
 20
5.789936752220114
 30
0.0
 10
1.756787020856734
 20
5.81886478837282
 30
0.0
 10
1.780423605662576
 20
5.842495990216932
 30
0.0
 10
1.809350296074839
 20
5.842495990216932
 30
0.0
 10
1.809350296074839
 20
5.842495990216932
 30
0.0
 10
1.824873411864828
 20
5.842495990216932
 30
0.0
 10
1.824873411864828
 20
5.842495990216932
 30
0.0
 10
1.827695429533818
 20
5.842495990216932
 30
0.0
 10
1.830164863211706
 20
5.84215148066842
 30
0.0
 10
1.832634296889608
 20
5.841796205196502
 30
0.0
 10
1.835103730567553
 20
5.84215148066842
 30
0.0
 10
1.8379257482365
 20
5.842495990216932
 30
0.0
 10
1.840747765905447
 20
5.842495990216932
 30
0.0
 10
1.840747765905447
 20
5.842495990216932
 30
0.0
 10
1.856270881695465
 20
5.842495990216932
 30
0.0
 10
1.856270881695465
 20
5.842495990216932
 30
0.0
 10
1.885197572107756
 20
5.842495990216932
 30
0.0
 10
1.90883415691357
 20
5.81886478837282
 30
0.0
 10
1.90883415691357
 20
5.789936752220114
 30
0.0
 10
1.90883415691357
 20
5.761008716067408
 30
0.0
 10
1.885197572107756
 20
5.737377514223254
 30
0.0
 10
1.856270881695465
 20
5.737377514223254
 30
0.0
  0
POLYLINE
  5
430
330
1F
100
AcDbEntity
  8
Livello 1
100
AcDb2dPolyline
 66
     1
 10
0.0
 20
0.0
 30
0.0
  0
VERTEX
  5
431
330
430
100
AcDbEntity
  8
Livello 1
100
AcDbVertex
100
AcDb2dVertex
 10
8.571114566438467
 20
3.96749200644632
 30
0.0
  0
VERTEX
  5
432
330
430
100
AcDbEntity
  8
Livello 1
100
AcDbVertex
100
AcDb2dVertex
 10
8.476920811206198
 20
3.96749200644632
 30
0.0
  0
VERTEX
  5
433
330
430
100
AcDbEntity
  8
Livello 1
100
AcDbVertex
100
AcDb2dVertex
 10
8.696701754280056
 20
3.96749200644632
 30
0.0
  0
SEQEND
  5
434
330
430
100
AcDbEntity
  8
Livello 1
  0
SPLINE
  5
435
330
1F
100
AcDbEntity
  8
Livello 1
100
AcDbSpline
210
0.0
220
0.0
230
1.0
 70
     9
 71
     3
 72
    23
 73
    19
 74
     0
 42
0.000000001
 43
0.0000000001
 40
0.0
 40
0.0
 40
0.0
 40
0.0
 40
1.0
 40
1.0
 40
1.0
 40
2.0
 40
2.0
 40
2.0
 40
3.0
 40
3.0
 40
3.0
 40
4.0
 40
4.0
 40
4.0
 40
5.0
 40
5.0
 40
5.0
 40
6.0
 40
6.0
 40
6.0
 40
6.0
 10
8.571184544940493
 20
3.993157967811441
 30
0.0
 10
8.571184544940493
 20
3.993157967811441
 30
0.0
 10
8.476990789708253
 20
3.993157967811441
 30
0.0
 10
8.476990789708253
 20
3.993157967811441
 30
0.0
 10
8.448062753555547
 20
3.993157967811441
 30
0.0
 10
8.424428860230534
 20
4.016799935578973
 30
0.0
 10
8.424428860230534
 20
4.045727971731679
 30
0.0
 10
8.424428860230534
 20
4.074656007884385
 30
0.0
 10
8.448062753555547
 20
4.098287209728525
 30
0.0
 10
8.476990789708253
 20
4.098287209728525
 30
0.0
 10
8.476990789708253
 20
4.098287209728525
 30
0.0
 10
8.571184544940493
 20
4.098287209728525
 30
0.0
 10
8.571184544940493
 20
4.098287209728525
 30
0.0
 10
8.600109889612355
 20
4.098287209728525
 30
0.0
 10
8.623746474418183
 20
4.074656007884385
 30
0.0
 10
8.623746474418183
 20
4.045727971731679
 30
0.0
 10
8.623746474418183
 20
4.016799935578973
 30
0.0
 10
8.600109889612355
 20
3.993157967811441
 30
0.0
 10
8.571184544940493
 20
3.993157967811441
 30
0.0
  0
SPLINE
  5
436
330
1F
100
AcDbEntity
  8
Livello 1
100
AcDbSpline
210
0.0
220
0.0
230
1.0
 70
     9
 71
     3
 72
    23
 73
    19
 74
     0
 42
0.000000001
 43
0.0000000001
 40
0.0
 40
0.0
 40
0.0
 40
0.0
 40
1.0
 40
1.0
 40
1.0
 40
2.0
 40
2.0
 40
2.0
 40
3.0
 40
3.0
 40
3.0
 40
4.0
 40
4.0
 40
4.0
 40
5.0
 40
5.0
 40
5.0
 40
6.0
 40
6.0
 40
6.0
 40
6.0
 10
8.571184544940493
 20
4.44824431548956
 30
0.0
 10
8.571184544940493
 20
4.44824431548956
 30
0.0
 10
8.461116435667605
 20
4.44824431548956
 30
0.0
 10
8.461116435667605
 20
4.44824431548956
 30
0.0
 10
8.432188399514899
 20
4.44824431548956
 30
0.0
 10
8.408904398700144
 20
4.471531007785173
 30
0.0
 10
8.408904398700144
 20
4.500803553486392
 30
0.0
 10
8.408904398700144
 20
4.529731589639112
 30
0.0
 10
8.432188399514899
 20
4.553018281934726
 30
0.0
 10
8.461116435667605
 20
4.553018281934726
 30
0.0
 10
8.461116435667605
 20
4.553018281934726
 30
0.0
 10
8.571184544940493
 20
4.553018281934726
 30
0.0
 10
8.571184544940493
 20
4.553018281934726
 30
0.0
 10
8.600109889612355
 20
4.553018281934726
 30
0.0
 10
8.623746474418183
 20
4.529731589639112
 30
0.0
 10
8.623746474418183
 20
4.500803553486392
 30
0.0
 10
8.623746474418183
 20
4.471531007785173
 30
0.0
 10
8.600109889612355
 20
4.44824431548956
 30
0.0
 10
8.571184544940493
 20
4.44824431548956
 30
0.0
  0
SPLINE
  5
437
330
1F
100
AcDbEntity
  8
Livello 1
100
AcDbSpline
210
0.0
220
0.0
230
1.0
 70
     9
 71
     3
 72
    23
 73
    19
 74
     0
 42
0.000000001
 43
0.0000000001
 40
0.0
 40
0.0
 40
0.0
 40
0.0
 40
1.0
 40
1.0
 40
1.0
 40
2.0
 40
2.0
 40
2.0
 40
3.0
 40
3.0
 40
3.0
 40
4.0
 40
4.0
 40
4.0
 40
5.0
 40
5.0
 40
5.0
 40
6.0
 40
6.0
 40
6.0
 40
6.0
 10
7.519906928914394
 20
4.620757471913449
 30
0.0
 10
7.519906928914394
 20
4.620757471913449
 30
0.0
 10
2.797623036933615
 20
4.620757471913449
 30
0.0
 10
2.797623036933615
 20
4.620757471913449
 30
0.0
 10
2.768695000780908
 20
4.620757471913449
 30
0.0
 10
2.745412345706569
 20
4.644388673757575
 30
0.0
 10
2.745412345706569
 20
4.673316709910281
 30
0.0
 10
2.745412345706569
 20
4.702244746063001
 30
0.0
 10
2.768695000780908
 20
4.725875947907113
 30
0.0
 10
2.797623036933615
 20
4.725875947907113
 30
0.0
 10
2.797623036933615
 20
4.725875947907113
 30
0.0
 10
7.519906928914394
 20
4.725875947907113
 30
0.0
 10
7.519906928914394
 20
4.725875947907113
 30
0.0
 10
7.548833619326671
 20
4.725875947907113
 30
0.0
 10
7.5724702041325
 20
4.702244746063001
 30
0.0
 10
7.5724702041325
 20
4.673316709910281
 30
0.0
 10
7.5724702041325
 20
4.644388673757575
 30
0.0
 10
7.548833619326671
 20
4.620757471913449
 30
0.0
 10
7.519906928914394
 20
4.620757471913449
 30
0.0
  0
SPLINE
  5
438
330
1F
100
AcDbEntity
  8
Livello 1
100
AcDbSpline
210
0.0
220
0.0
230
1.0
 70
     9
 71
     3
 72
    23
 73
    19
 74
     0
 42
0.000000001
 43
0.0000000001
 40
0.0
 40
0.0
 40
0.0
 40
0.0
 40
1.0
 40
1.0
 40
1.0
 40
2.0
 40
2.0
 40
2.0
 40
3.0
 40
3.0
 40
3.0
 40
4.0
 40
4.0
 40
4.0
 40
5.0
 40
5.0
 40
5.0
 40
6.0
 40
6.0
 40
6.0
 40
6.0
 10
1.872075257234016
 20
5.737377514223254
 30
0.0
 10
1.872075257234016
 20
5.737377514223254
 30
0.0
 10
1.620896844329564
 20
5.737377514223254
 30
0.0
 10
1.620896844329564
 20
5.737377514223254
 30
0.0
 10
1.591968808176858
 20
5.737377514223254
 30
0.0
 10
1.568333569111459
 20
5.761008716067408
 30
0.0
 10
1.568333569111459
 20
5.789936752220114
 30
0.0
 10
1.568333569111459
 20
5.81886478837282
 30
0.0
 10
1.591968808176858
 20
5.842495990216932
 30
0.0
 10
1.620896844329564
 20
5.842495990216932
 30
0.0
 10
1.620896844329564
 20
5.842495990216932
 30
0.0
 10
1.872075257234016
 20
5.842495990216932
 30
0.0
 10
1.872075257234016
 20
5.842495990216932
 30
0.0
 10
1.901001947646335
 20
5.842495990216932
 30
0.0
 10
1.924638532452135
 20
5.81886478837282
 30
0.0
 10
1.924638532452135
 20
5.789936752220114
 30
0.0
 10
1.924638532452135
 20
5.761008716067408
 30
0.0
 10
1.901001947646335
 20
5.737377514223254
 30
0.0
 10
1.872075257234016
 20
5.737377514223254
 30
0.0
  0
POLYLINE
  5
439
330
1F
100
AcDbEntity
  8
Livello 1
100
AcDb2dPolyline
 66
     1
 10
0.0
 20
0.0
 30
0.0
  0
VERTEX
  5
43A
330
439
100
AcDbEntity
  8
Livello 1
100
AcDbVertex
100
AcDb2dVertex
 10
8.696561797275961
 20
5.789872156679763
 30
0.0
  0
VERTEX
  5
43B
330
439
100
AcDbEntity
  8
Livello 1
100
AcDbVertex
100
AcDb2dVertex
 10
8.445734622622126
 20
5.789872156679763
 30
0.0
  0
VERTEX
  5
43C
330
439
100
AcDbEntity
  8
Livello 1
100
AcDbVertex
100
AcDb2dVertex
 10
8.602368042043707
 20
5.789872156679763
 30
0.0
  0
SEQEND
  5
43D
330
439
100
AcDbEntity
  8
Livello 1
  0
SPLINE
  5
43E
330
1F
100
AcDbEntity
  8
Livello 1
100
AcDbSpline
210
0.0
220
0.0
230
1.0
 70
     9
 71
     3
 72
    59
 73
    55
 74
     0
 42
0.000000001
 43
0.0000000001
 40
0.0
 40
0.0
 40
0.0
 40
0.0
 40
1.0
 40
1.0
 40
1.0
 40
2.0
 40
2.0
 40
2.0
 40
3.0
 40
3.0
 40
3.0
 40
4.0
 40
4.0
 40
4.0
 40
5.0
 40
5.0
 40
5.0
 40
6.0
 40
6.0
 40
6.0
 40
7.0
 40
7.0
 40
7.0
 40
8.0
 40
8.0
 40
8.0
 40
9.0
 40
9.0
 40
9.0
 40
10.0
 40
10.0
 40
10.0
 40
11.0
 40
11.0
 40
11.0
 40
12.0
 40
12.0
 40
12.0
 40
13.0
 40
13.0
 40
13.0
 40
14.0
 40
14.0
 40
14.0
 40
15.0
 40
15.0
 40
15.0
 40
16.0
 40
16.0
 40
16.0
 40
17.0
 40
17.0
 40
17.0
 40
18.0
 40
18.0
 40
18.0
 40
18.0
 10
7.566967471539058
 20
3.899149924757679
 30
0.0
 10
7.538744603368485
 20
3.899149924757679
 30
0.0
 10
7.515461948294159
 20
3.921726066109471
 30
0.0
 10
7.514756780312026
 20
3.950298826790259
 30
0.0
 10
7.514756780312026
 20
3.950298826790259
 30
0.0
 10
7.451609256659736
 20
6.337545445523957
 30
0.0
 10
7.451609256659736
 20
6.337545445523957
 30
0.0
 10
7.451609256659736
 20
6.341421177944866
 30
0.0
 10
7.451961840650824
 20
6.345307676289166
 30
0.0
 10
7.452667008632943
 20
6.349183408710075
 30
0.0
 10
7.452667008632943
 20
6.349183408710075
 30
0.0
 10
3.807061583179887
 20
6.349183408710075
 30
0.0
 10
3.807061583179887
 20
6.349183408710075
 30
0.0
 10
3.807061583179887
 20
6.349183408710075
 30
0.0
 10
1.788467096176376
 20
5.942436057059353
 30
0.0
 10
1.788467096176376
 20
5.942436057059353
 30
0.0
 10
1.760598157737305
 20
5.936794713202274
 30
0.0
 10
1.732375289566746
 20
5.955129080737833
 30
0.0
 10
1.726378670237707
 20
5.983357331870109
 30
0.0
 10
1.72073463489977
 20
6.011930092550898
 30
0.0
 10
1.739078422618305
 20
6.039803068211242
 30
0.0
 10
1.767653874779952
 20
6.045444412068334
 30
0.0
 10
1.767653874779952
 20
6.045444412068334
 30
0.0
 10
3.790480715416677
 20
6.452902314662878
 30
0.0
 10
3.790480715416677
 20
6.452902314662878
 30
0.0
 10
3.79224498111246
 20
6.453257590134782
 30
0.0
 10
3.794361830799275
 20
6.4536128656067
 30
0.0
 10
3.796478680486117
 20
6.453957375155226
 30
0.0
 10
3.798595530172931
 20
6.453957375155226
 30
0.0
 10
3.800005866137212
 20
6.454312650627144
 30
0.0
 10
3.802827883806187
 20
6.453957375155226
 30
0.0
 10
3.802827883806187
 20
6.453957375155226
 30
0.0
 10
8.367065328920304
 20
6.453957375155226
 30
0.0
 10
8.367065328920304
 20
6.453957375155226
 30
0.0
 10
8.395993365072996
 20
6.453957375155226
 30
0.0
 10
8.419629949878824
 20
6.430681448783033
 30
0.0
 10
8.419629949878824
 20
6.401753412630299
 30
0.0
 10
8.419629949878824
 20
6.372470101005689
 30
0.0
 10
8.395993365072996
 20
6.349183408710075
 30
0.0
 10
8.367065328920304
 20
6.349183408710075
 30
0.0
 10
8.367065328920304
 20
6.349183408710075
 30
0.0
 10
7.555678055122754
 20
6.349183408710075
 30
0.0
 10
7.555678055122754
 20
6.349183408710075
 30
0.0
 10
7.556384568845331
 20
6.346362736781529
 30
0.0
 10
7.556737152836376
 20
6.343186789381064
 30
0.0
 10
7.556737152836376
 20
6.340366117452504
 30
0.0
 10
7.556737152836376
 20
6.340366117452504
 30
0.0
 10
7.619530746757178
 20
3.953119498718805
 30
0.0
 10
7.619530746757178
 20
3.953119498718805
 30
0.0
 10
7.620237260479754
 20
3.923836187094181
 30
0.0
 10
7.597305843656059
 20
3.899849709778138
 30
0.0
 10
7.568377807503352
 20
3.899149924757679
 30
0.0
 10
7.568377807503352
 20
3.899149924757679
 30
0.0
 10
7.566967471539058
 20
3.899149924757679
 30
0.0
 10
7.566967471539058
 20
3.899149924757679
 30
0.0
  0
SPLINE
  5
43F
330
1F
100
AcDbEntity
  8
Livello 1
100
AcDbSpline
210
0.0
220
0.0
230
1.0
 70
     9
 71
     3
 72
    23
 73
    19
 74
     0
 42
0.000000001
 43
0.0000000001
 40
0.0
 40
0.0
 40
0.0
 40
0.0
 40
1.0
 40
1.0
 40
1.0
 40
2.0
 40
2.0
 40
2.0
 40
3.0
 40
3.0
 40
3.0
 40
4.0
 40
4.0
 40
4.0
 40
5.0
 40
5.0
 40
5.0
 40
6.0
 40
6.0
 40
6.0
 40
6.0
 10
1.872075257234016
 20
5.737474407533795
 30
0.0
 10
1.872075257234016
 20
5.737474407533795
 30
0.0
 10
1.715089253821403
 20
5.737474407533795
 30
0.0
 10
1.715089253821403
 20
5.737474407533795
 30
0.0
 10
1.686162563409141
 20
5.737474407533795
 30
0.0
 10
1.662525978603298
 20
5.760750333906003
 30
0.0
 10
1.662525978603298
 20
5.790033645530641
 30
0.0
 10
1.662525978603298
 20
5.818961681683333
 30
0.0
 10
1.686162563409141
 20
5.842248373978947
 30
0.0
 10
1.715089253821403
 20
5.842248373978947
 30
0.0
 10
1.715089253821403
 20
5.842248373978947
 30
0.0
 10
1.872075257234016
 20
5.842248373978947
 30
0.0
 10
1.872075257234016
 20
5.842248373978947
 30
0.0
 10
1.901003293386736
 20
5.842248373978947
 30
0.0
 10
1.924639878192579
 20
5.818961681683333
 30
0.0
 10
1.924639878192579
 20
5.790033645530641
 30
0.0
 10
1.924639878192579
 20
5.760750333906003
 30
0.0
 10
1.901003293386736
 20
5.737474407533795
 30
0.0
 10
1.872075257234016
 20
5.737474407533795
 30
0.0
  0
SPLINE
  5
440
330
1F
100
AcDbEntity
  8
Livello 1
100
AcDbSpline
210
0.0
220
0.0
230
1.0
 70
     9
 71
     3
 72
    26
 73
    22
 74
     0
 42
0.000000001
 43
0.0000000001
 40
0.0
 40
0.0
 40
0.0
 40
0.0
 40
1.0
 40
1.0
 40
1.0
 40
2.0
 40
2.0
 40
2.0
 40
3.0
 40
3.0
 40
3.0
 40
4.0
 40
4.0
 40
4.0
 40
5.0
 40
5.0
 40
5.0
 40
6.0
 40
6.0
 40
6.0
 40
7.0
 40
7.0
 40
7.0
 40
7.0
 10
8.524054023813775
 20
5.941380996567019
 30
0.0
 10
8.52123066040437
 20
5.941380996567019
 30
0.0
 10
8.518054713003905
 20
5.941725506115531
 30
0.0
 10
8.515234041075359
 20
5.942080781587449
 30
0.0
 10
8.515234041075359
 20
5.942080781587449
 30
0.0
 10
8.421395561315023
 20
5.957605243117853
 30
0.0
 10
8.421395561315023
 20
5.957605243117853
 30
0.0
 10
8.392467525162317
 20
5.962546801954516
 30
0.0
 10
8.373064639730159
 20
5.989709226671038
 30
0.0
 10
8.378003507085963
 20
6.017926711879908
 30
0.0
 10
8.382942374441768
 20
6.046854748032615
 30
0.0
 10
8.410457383149335
 20
6.066610217455846
 30
0.0
 10
8.438327667328849
 20
6.061324149070671
 30
0.0
 10
8.438327667328849
 20
6.061324149070671
 30
0.0
 10
8.532518731080259
 20
6.045444412068334
 30
0.0
 10
8.532518731080259
 20
6.045444412068334
 30
0.0
 10
8.561094183241905
 20
6.040858128703604
 30
0.0
 10
8.580497068674048
 20
6.013695703987082
 30
0.0
 10
8.575558201318258
 20
5.985122943306294
 30
0.0
 10
8.571324501944573
 20
5.959370854554052
 30
0.0
 10
8.549100944583855
 20
5.941380996567019
 30
0.0
 10
8.524054023813775
 20
5.941380996567019
 30
0.0
  0
POLYLINE
  5
441
330
1F
100
AcDbEntity
  8
Livello 1
100
AcDb2dPolyline
 66
     1
 10
0.0
 20
0.0
 30
0.0
  0
VERTEX
  5
442
330
441
100
AcDbEntity
  8
Livello 1
100
AcDbVertex
100
AcDb2dVertex
 10
8.476993481189097
 20
3.951536907980269
 30
0.0
  0
VERTEX
  5
443
330
441
100
AcDbEntity
  8
Livello 1
100
AcDbVertex
100
AcDb2dVertex
 10
8.429720311577412
 20
6.338794292637359
 30
0.0
  0
SEQEND
  5
444
330
441
100
AcDbEntity
  8
Livello 1
  0
POLYLINE
  5
445
330
1F
100
AcDbEntity
  8
Livello 1
100
AcDb2dPolyline
 66
     1
 10
0.0
 20
0.0
 30
0.0
  0
VERTEX
  5
446
330
445
100
AcDbEntity
  8
Livello 1
100
AcDbVertex
100
AcDb2dVertex
 10
8.273086892155859
 20
3.951536907980269
 30
0.0
  0
VERTEX
  5
447
330
445
100
AcDbEntity
  8
Livello 1
100
AcDbVertex
100
AcDb2dVertex
 10
8.225813722544188
 20
6.338794292637359
 30
0.0
  0
SEQEND
  5
448
330
445
100
AcDbEntity
  8
Livello 1
  0
POLYLINE
  5
449
330
1F
100
AcDbEntity
  8
Livello 1
100
AcDb2dPolyline
 66
     1
 10
0.0
 20
0.0
 30
0.0
  0
VERTEX
  5
44A
330
449
100
AcDbEntity
  8
Livello 1
100
AcDbVertex
100
AcDb2dVertex
 10
7.9905123551612
 20
3.951536907980269
 30
0.0
  0
VERTEX
  5
44B
330
449
100
AcDbEntity
  8
Livello 1
100
AcDbVertex
100
AcDb2dVertex
 10
7.927717415499984
 20
6.338794292637359
 30
0.0
  0
SEQEND
  5
44C
330
449
100
AcDbEntity
  8
Livello 1
  0
POLYLINE
  5
44D
330
1F
100
AcDbEntity
  8
Livello 1
100
AcDb2dPolyline
 66
     1
 10
0.0
 20
0.0
 30
0.0
  0
VERTEX
  5
44E
330
44D
100
AcDbEntity
  8
Livello 1
100
AcDbVertex
100
AcDb2dVertex
 10
8.476993481189097
 20
5.789872156679763
 30
0.0
  0
VERTEX
  5
44F
330
44D
100
AcDbEntity
  8
Livello 1
100
AcDbVertex
100
AcDb2dVertex
 10
8.492515251238671
 20
5.789872156679763
 30
0.0
  0
SEQEND
  5
450
330
44D
100
AcDbEntity
  8
Livello 1
  0
POLYLINE
  5
451
330
1F
100
AcDbEntity
  8
Livello 1
100
AcDb2dPolyline
 66
     1
 10
0.0
 20
0.0
 30
0.0
  0
VERTEX
  5
452
330
451
100
AcDbEntity
  8
Livello 1
100
AcDbVertex
100
AcDb2dVertex
 10
8.476993481189097
 20
5.789872156679763
 30
0.0
  0
VERTEX
  5
453
330
451
100
AcDbEntity
  8
Livello 1
100
AcDbVertex
100
AcDb2dVertex
 10
8.492515251238671
 20
5.789872156679763
 30
0.0
  0
SEQEND
  5
454
330
451
100
AcDbEntity
  8
Livello 1
  0
POLYLINE
  5
455
330
1F
100
AcDbEntity
  8
Livello 1
100
AcDb2dPolyline
 66
     1
 10
0.0
 20
0.0
 30
0.0
  0
VERTEX
  5
456
330
455
100
AcDbEntity
  8
Livello 1
100
AcDbVertex
100
AcDb2dVertex
 10
8.696561797275961
 20
5.789936752220114
 30
0.0
  0
VERTEX
  5
457
330
455
100
AcDbEntity
  8
Livello 1
100
AcDbVertex
100
AcDb2dVertex
 10
8.696561797275961
 20
3.967481240522943
 30
0.0
  0
SEQEND
  5
458
330
455
100
AcDbEntity
  8
Livello 1
  0
POLYLINE
  5
459
330
1F
100
AcDbEntity
  8
Livello 1
100
AcDb2dPolyline
 66
     1
 10
0.0
 20
0.0
 30
0.0
  0
VERTEX
  5
45A
330
459
100
AcDbEntity
  8
Livello 1
100
AcDbVertex
100
AcDb2dVertex
 10
8.570971917953528
 20
4.500534405401609
 30
0.0
  0
VERTEX
  5
45B
330
459
100
AcDbEntity
  8
Livello 1
100
AcDbVertex
100
AcDb2dVertex
 10
8.570971917953528
 20
4.045803333195422
 30
0.0
  0
SEQEND
  5
45C
330
459
100
AcDbEntity
  8
Livello 1
  0
POLYLINE
  5
45D
330
1F
100
AcDbEntity
  8
Livello 1
100
AcDb2dPolyline
 66
     1
 10
0.0
 20
0.0
 30
0.0
  0
VERTEX
  5
45E
330
45D
100
AcDbEntity
  8
Livello 1
100
AcDbVertex
100
AcDb2dVertex
 10
8.570971917953528
 20
3.967481240522943
 30
0.0
  0
VERTEX
  5
45F
330
45D
100
AcDbEntity
  8
Livello 1
100
AcDbVertex
100
AcDb2dVertex
 10
8.570971917953528
 20
3.951612269444012
 30
0.0
  0
SEQEND
  5
460
330
45D
100
AcDbEntity
  8
Livello 1
  0
POLYLINE
  5
461
330
1F
100
AcDbEntity
  8
Livello 1
100
AcDb2dPolyline
 66
     1
 10
0.0
 20
0.0
 30
0.0
  0
VERTEX
  5
462
330
461
100
AcDbEntity
  8
Livello 1
100
AcDbVertex
100
AcDb2dVertex
 10
8.602368042043707
 20
5.899641511578536
 30
0.0
  0
VERTEX
  5
463
330
461
100
AcDbEntity
  8
Livello 1
100
AcDbVertex
100
AcDb2dVertex
 10
8.602368042043707
 20
5.789936752220114
 30
0.0
  0
SEQEND
  5
464
330
461
100
AcDbEntity
  8
Livello 1
  0
POLYLINE
  5
465
330
1F
100
AcDbEntity
  8
Livello 1
100
AcDb2dPolyline
 66
     1
 10
0.0
 20
0.0
 30
0.0
  0
VERTEX
  5
466
330
465
100
AcDbEntity
  8
Livello 1
100
AcDbVertex
100
AcDb2dVertex
 10
8.696561797275961
 20
3.951612269444012
 30
0.0
  0
VERTEX
  5
467
330
465
100
AcDbEntity
  8
Livello 1
100
AcDbVertex
100
AcDb2dVertex
 10
8.696561797275961
 20
3.697611838870571
 30
0.0
  0
SEQEND
  5
468
330
465
100
AcDbEntity
  8
Livello 1
  0
POLYLINE
  5
469
330
1F
100
AcDbEntity
  8
Livello 1
100
AcDb2dPolyline
 66
     1
 10
0.0
 20
0.0
 30
0.0
  0
VERTEX
  5
46A
330
469
100
AcDbEntity
  8
Livello 1
100
AcDbVertex
100
AcDb2dVertex
 10
8.696561797275961
 20
3.594463526857524
 30
0.0
  0
VERTEX
  5
46B
330
469
100
AcDbEntity
  8
Livello 1
100
AcDbVertex
100
AcDb2dVertex
 10
8.696561797275961
 20
3.650553987726738
 30
0.0
  0
VERTEX
  5
46C
330
469
100
AcDbEntity
  8
Livello 1
100
AcDbVertex
100
AcDb2dVertex
 10
8.696561797275961
 20
3.666067683333764
 30
0.0
  0
VERTEX
  5
46D
330
469
100
AcDbEntity
  8
Livello 1
100
AcDbVertex
100
AcDb2dVertex
 10
8.696561797275961
 20
3.681947420336072
 30
0.0
  0
VERTEX
  5
46E
330
469
100
AcDbEntity
  8
Livello 1
100
AcDbVertex
100
AcDb2dVertex
 10
8.696561797275961
 20
3.697827157338409
 30
0.0
  0
SEQEND
  5
46F
330
469
100
AcDbEntity
  8
Livello 1
  0
POLYLINE
  5
470
330
1F
100
AcDbEntity
  8
Livello 1
100
AcDb2dPolyline
 66
     1
 10
0.0
 20
0.0
 30
0.0
  0
VERTEX
  5
471
330
470
100
AcDbEntity
  8
Livello 1
100
AcDbVertex
100
AcDb2dVertex
 10
9.276950035825763
 20
2.037689472613465
 30
0.0
  0
VERTEX
  5
472
330
470
100
AcDbEntity
  8
Livello 1
100
AcDbVertex
100
AcDb2dVertex
 10
9.276950035825763
 20
2.149159843408085
 30
0.0
  0
SEQEND
  5
473
330
470
100
AcDbEntity
  8
Livello 1
  0
SPLINE
  5
474
330
1F
100
AcDbEntity
  8
Livello 1
100
AcDbSpline
210
0.0
220
0.0
230
1.0
 70
     9
 71
     3
 72
    23
 73
    19
 74
     0
 42
0.000000001
 43
0.0000000001
 40
0.0
 40
0.0
 40
0.0
 40
0.0
 40
1.0
 40
1.0
 40
1.0
 40
2.0
 40
2.0
 40
2.0
 40
3.0
 40
3.0
 40
3.0
 40
4.0
 40
4.0
 40
4.0
 40
5.0
 40
5.0
 40
5.0
 40
6.0
 40
6.0
 40
6.0
 40
6.0
 10
1.872075257234016
 20
5.737377514223254
 30
0.0
 10
1.872075257234016
 20
5.737377514223254
 30
0.0
 10
1.856199557452981
 20
5.737377514223254
 30
0.0
 10
1.856199557452981
 20
5.737377514223254
 30
0.0
 10
1.827271521300275
 20
5.737377514223254
 30
0.0
 10
1.80398886622595
 20
5.761008716067408
 30
0.0
 10
1.80398886622595
 20
5.789936752220114
 30
0.0
 10
1.80398886622595
 20
5.81886478837282
 30
0.0
 10
1.827271521300275
 20
5.842495990216932
 30
0.0
 10
1.856199557452981
 20
5.842495990216932
 30
0.0
 10
1.856199557452981
 20
5.842495990216932
 30
0.0
 10
1.872075257234016
 20
5.842495990216932
 30
0.0
 10
1.872075257234016
 20
5.842495990216932
 30
0.0
 10
1.901001947646335
 20
5.842495990216932
 30
0.0
 10
1.924638532452135
 20
5.81886478837282
 30
0.0
 10
1.924638532452135
 20
5.789936752220114
 30
0.0
 10
1.924638532452135
 20
5.761008716067408
 30
0.0
 10
1.901001947646335
 20
5.737377514223254
 30
0.0
 10
1.872075257234016
 20
5.737377514223254
 30
0.0
  0
POLYLINE
  5
475
330
1F
100
AcDbEntity
  8
Livello 1
100
AcDb2dPolyline
 66
     1
 10
0.0
 20
0.0
 30
0.0
  0
VERTEX
  5
476
330
475
100
AcDbEntity
  8
Livello 1
100
AcDbVertex
100
AcDb2dVertex
 10
8.461224094901538
 20
5.789872156679763
 30
0.0
  0
VERTEX
  5
477
330
475
100
AcDbEntity
  8
Livello 1
100
AcDbVertex
100
AcDb2dVertex
 10
8.477098448942157
 20
5.789872156679763
 30
0.0
  0
SEQEND
  5
478
330
475
100
AcDbEntity
  8
Livello 1
  0
POLYLINE
  5
479
330
1F
100
AcDbEntity
  8
Livello 1
100
AcDb2dPolyline
 66
     1
 10
0.0
 20
0.0
 30
0.0
  0
VERTEX
  5
47A
330
479
100
AcDbEntity
  8
Livello 1
100
AcDbVertex
100
AcDb2dVertex
 10
8.602475701277612
 20
5.899652277501928
 30
0.0
  0
VERTEX
  5
47B
330
479
100
AcDbEntity
  8
Livello 1
100
AcDbVertex
100
AcDb2dVertex
 10
8.586598655756134
 20
5.962794418192501
 30
0.0
  0
VERTEX
  5
47C
330
479
100
AcDbEntity
  8
Livello 1
100
AcDbVertex
100
AcDb2dVertex
 10
8.523803716094917
 20
5.993843341253338
 30
0.0
  0
SEQEND
  5
47D
330
479
100
AcDbEntity
  8
Livello 1
  0
SPLINE
  5
47E
330
1F
100
AcDbEntity
  8
Livello 1
100
AcDbSpline
210
0.0
220
0.0
230
1.0
 70
     9
 71
     3
 72
    35
 73
    31
 74
     0
 42
0.000000001
 43
0.0000000001
 40
0.0
 40
0.0
 40
0.0
 40
0.0
 40
1.0
 40
1.0
 40
1.0
 40
2.0
 40
2.0
 40
2.0
 40
3.0
 40
3.0
 40
3.0
 40
4.0
 40
4.0
 40
4.0
 40
5.0
 40
5.0
 40
5.0
 40
6.0
 40
6.0
 40
6.0
 40
7.0
 40
7.0
 40
7.0
 40
8.0
 40
8.0
 40
8.0
 40
9.0
 40
9.0
 40
9.0
 40
10.0
 40
10.0
 40
10.0
 40
10.0
 10
1.715124243072409
 20
5.847157635045419
 30
0.0
 10
1.710890543698766
 20
5.847157635045419
 30
0.0
 10
1.706656844325067
 20
5.84750214459396
 30
0.0
 10
1.702423144951424
 20
5.8485679710097
 30
0.0
 10
1.674201622521266
 20
5.855619650831073
 30
0.0
 10
1.657268170767025
 20
5.884192411511861
 30
0.0
 10
1.664323887809658
 20
5.912420662644137
 30
0.0
 10
1.664323887809658
 20
5.912420662644137
 30
0.0
 10
1.679845657859203
 20
5.975207527862806
 30
0.0
 10
1.679845657859203
 20
5.975207527862806
 30
0.0
 10
1.683020259519253
 20
5.987911317464664
 30
0.0
 10
1.690782490284462
 20
5.999204771102256
 30
0.0
 10
1.701717976969277
 20
6.006256450923643
 30
0.0
 10
1.701717976969277
 20
6.006256450923643
 30
0.0
 10
1.748989800840533
 20
6.037649883532964
 30
0.0
 10
1.748989800840533
 20
6.037649883532964
 30
0.0
 10
1.772626385646347
 20
6.053529620535286
 30
0.0
 10
1.80543419144125
 20
6.047177725734357
 30
0.0
 10
1.821662475213358
 20
6.022835972946396
 30
0.0
 10
1.83789075898548
 20
5.998494220158434
 30
0.0
 10
1.831187625933893
 20
5.966034961133331
 30
0.0
 10
1.806845873145945
 20
5.950165990054401
 30
0.0
 10
1.806845873145945
 20
5.950165990054401
 30
0.0
 10
1.776860085020018
 20
5.930055245159252
 30
0.0
 10
1.776860085020018
 20
5.930055245159252
 30
0.0
 10
1.776860085020018
 20
5.930055245159252
 30
0.0
 10
1.765923252594774
 20
5.887013083440407
 30
0.0
 10
1.765923252594774
 20
5.887013083440407
 30
0.0
 10
1.760279217256822
 20
5.86302660612435
 30
0.0
 10
1.738759482137837
 20
5.847157635045419
 30
0.0
 10
1.715124243072409
 20
5.847157635045419
 30
0.0
  0
SPLINE
  5
47F
330
1F
100
AcDbEntity
  8
Livello 1
100
AcDbSpline
210
0.0
220
0.0
230
1.0
 70
     9
 71
     3
 72
    35
 73
    31
 74
     0
 42
0.000000001
 43
0.0000000001
 40
0.0
 40
0.0
 40
0.0
 40
0.0
 40
1.0
 40
1.0
 40
1.0
 40
2.0
 40
2.0
 40
2.0
 40
3.0
 40
3.0
 40
3.0
 40
4.0
 40
4.0
 40
4.0
 40
5.0
 40
5.0
 40
5.0
 40
6.0
 40
6.0
 40
6.0
 40
7.0
 40
7.0
 40
7.0
 40
8.0
 40
8.0
 40
8.0
 40
9.0
 40
9.0
 40
9.0
 40
10.0
 40
10.0
 40
10.0
 40
10.0
 10
2.373936850566963
 20
6.004114032168729
 30
0.0
 10
2.368291469488596
 20
6.004114032168729
 30
0.0
 10
2.362647434150659
 20
6.004813817189173
 30
0.0
 10
2.357355982803781
 20
6.00693470409729
 30
0.0
 10
2.329839628355742
 20
6.016107270826765
 30
0.0
 10
2.315021680547928
 20
6.045735091999915
 30
0.0
 10
2.324194247277389
 20
6.073252792188341
 30
0.0
 10
2.324194247277389
 20
6.073252792188341
 30
0.0
 10
2.340069947058452
 20
6.120170686328094
 30
0.0
 10
2.340069947058452
 20
6.120170686328094
 30
0.0
 10
2.344302300691694
 20
6.133574260950382
 30
0.0
 10
2.353827451412215
 20
6.144512439116056
 30
0.0
 10
2.366527203792813
 20
6.150509058445067
 30
0.0
 10
2.366527203792813
 20
6.150509058445067
 30
0.0
 10
2.39792467362345
 20
6.166388795447389
 30
0.0
 10
2.39792467362345
 20
6.166388795447389
 30
0.0
 10
2.423325524125033
 20
6.178737309577343
 30
0.0
 10
2.455075577946715
 20
6.168498916432113
 30
0.0
 10
2.468127914318387
 20
6.142402318131345
 30
0.0
 10
2.480827666698971
 20
6.116639463455712
 30
0.0
 10
2.470244764005201
 20
6.084890755374431
 30
0.0
 10
2.44449132951253
 20
6.072197731695993
 30
0.0
 10
2.44449132951253
 20
6.072197731695993
 30
0.0
 10
2.432496745114079
 20
6.066201112366968
 30
0.0
 10
2.432496745114079
 20
6.066201112366968
 30
0.0
 10
2.432496745114079
 20
6.066201112366968
 30
0.0
 10
2.423678108116106
 20
6.03973847267089
 30
0.0
 10
2.423678108116106
 20
6.03973847267089
 30
0.0
 10
2.416269807082386
 20
6.017862116339557
 30
0.0
 10
2.395807823936593
 20
6.004114032168729
 30
0.0
 10
2.373936850566963
 20
6.004114032168729
 30
0.0
  0
SPLINE
  5
480
330
1F
100
AcDbEntity
  8
Livello 1
100
AcDbSpline
210
0.0
220
0.0
230
1.0
 70
     9
 71
     3
 72
    35
 73
    31
 74
     0
 42
0.000000001
 43
0.0000000001
 40
0.0
 40
0.0
 40
0.0
 40
0.0
 40
1.0
 40
1.0
 40
1.0
 40
2.0
 40
2.0
 40
2.0
 40
3.0
 40
3.0
 40
3.0
 40
4.0
 40
4.0
 40
4.0
 40
5.0
 40
5.0
 40
5.0
 40
6.0
 40
6.0
 40
6.0
 40
7.0
 40
7.0
 40
7.0
 40
8.0
 40
8.0
 40
8.0
 40
9.0
 40
9.0
 40
9.0
 40
10.0
 40
10.0
 40
10.0
 40
10.0
 10
2.076051824769308
 20
5.941380996567019
 30
0.0
 10
2.070759027682001
 20
5.941380996567019
 30
0.0
 10
2.065114992344049
 20
5.942080781587449
 30
0.0
 10
2.059470957006112
 20
5.943846393023648
 30
0.0
 10
2.031954602558101
 20
5.953018959753123
 30
0.0
 10
2.017136654750245
 20
5.983002056398191
 30
0.0
 10
2.026309221479735
 20
6.010164481114699
 30
0.0
 10
2.026309221479735
 20
6.010164481114699
 30
0.0
 10
2.041832337269738
 20
6.05743765072637
 30
0.0
 10
2.041832337269738
 20
6.05743765072637
 30
0.0
 10
2.047123788616602
 20
6.072962112256774
 30
0.0
 10
2.059470957006112
 20
6.085665901858632
 30
0.0
 10
2.074992727055658
 20
6.090596694771903
 30
0.0
 10
2.074992727055658
 20
6.090596694771903
 30
0.0
 10
2.122264550926914
 20
6.106476431774225
 30
0.0
 10
2.122264550926914
 20
6.106476431774225
 30
0.0
 10
2.150134835106413
 20
6.116004273975619
 30
0.0
 10
2.179415455250207
 20
6.1004798124452
 30
0.0
 10
2.188586676239239
 20
6.073317387728678
 30
0.0
 10
2.197759242968743
 20
6.045444412068334
 30
0.0
 10
2.182942640901302
 20
6.015816590895212
 30
0.0
 10
2.155426286453305
 20
6.006644024165709
 30
0.0
 10
2.155426286453305
 20
6.006644024165709
 30
0.0
 10
2.133201383352158
 20
5.999581578420972
 30
0.0
 10
2.133201383352158
 20
5.999581578420972
 30
0.0
 10
2.133201383352158
 20
5.999581578420972
 30
0.0
 10
2.125793082318452
 20
5.977360712541084
 30
0.0
 10
2.125793082318452
 20
5.977360712541084
 30
0.0
 10
2.118384781284746
 20
5.955484356209751
 30
0.0
 10
2.097922798138938
 20
5.941380996567019
 30
0.0
 10
2.076051824769308
 20
5.941380996567019
 30
0.0
  0
POLYLINE
  5
481
330
1F
100
AcDbEntity
  8
Livello 1
100
AcDb2dPolyline
 66
     1
 10
0.0
 20
0.0
 30
0.0
  0
VERTEX
  5
482
330
481
100
AcDbEntity
  8
Livello 1
100
AcDbVertex
100
AcDb2dVertex
 10
8.225956371029127
 20
6.338891185947872
 30
0.0
  0
VERTEX
  5
483
330
481
100
AcDbEntity
  8
Livello 1
100
AcDbVertex
100
AcDb2dVertex
 10
8.210431909498751
 20
6.386153589636165
 30
0.0
  0
VERTEX
  5
484
330
481
100
AcDbEntity
  8
Livello 1
100
AcDbVertex
100
AcDb2dVertex
 10
8.163161431367896
 20
6.40167805116657
 30
0.0
  0
SEQEND
  5
485
330
481
100
AcDbEntity
  8
Livello 1
  0
POLYLINE
  5
486
330
1F
100
AcDbEntity
  8
Livello 1
100
AcDb2dPolyline
 66
     1
 10
0.0
 20
0.0
 30
0.0
  0
VERTEX
  5
487
330
486
100
AcDbEntity
  8
Livello 1
100
AcDbVertex
100
AcDb2dVertex
 10
7.927787394002038
 20
6.338891185947872
 30
0.0
  0
VERTEX
  5
488
330
486
100
AcDbEntity
  8
Livello 1
100
AcDbVertex
100
AcDb2dVertex
 10
7.912264278212049
 20
6.386153589636165
 30
0.0
  0
VERTEX
  5
489
330
486
100
AcDbEntity
  8
Livello 1
100
AcDbVertex
100
AcDb2dVertex
 10
7.864992454340821
 20
6.40167805116657
 30
0.0
  0
SEQEND
  5
48A
330
486
100
AcDbEntity
  8
Livello 1
  0
SPLINE
  5
48B
330
1F
100
AcDbEntity
  8
Livello 1
100
AcDbSpline
210
0.0
220
0.0
230
1.0
 70
     9
 71
     3
 72
    35
 73
    31
 74
     0
 42
0.000000001
 43
0.0000000001
 40
0.0
 40
0.0
 40
0.0
 40
0.0
 40
1.0
 40
1.0
 40
1.0
 40
2.0
 40
2.0
 40
2.0
 40
3.0
 40
3.0
 40
3.0
 40
4.0
 40
4.0
 40
4.0
 40
5.0
 40
5.0
 40
5.0
 40
6.0
 40
6.0
 40
6.0
 40
7.0
 40
7.0
 40
7.0
 40
8.0
 40
8.0
 40
8.0
 40
9.0
 40
9.0
 40
9.0
 40
10.0
 40
10.0
 40
10.0
 40
10.0
 10
2.797693015435655
 20
6.082608379615479
 30
0.0
 10
2.792047634357302
 20
6.082608379615479
 30
0.0
 10
2.786756183010425
 20
6.083308164635923
 30
0.0
 10
2.781112147672473
 20
6.085073776072121
 30
0.0
 10
2.753595793224462
 20
6.0946016182735
 30
0.0
 10
2.73877784541662
 20
6.124229439446651
 30
0.0
 10
2.74795041214611
 20
6.151747139635077
 30
0.0
 10
2.74795041214611
 20
6.151747139635077
 30
0.0
 10
2.763473527936056
 20
6.19866503377483
 30
0.0
 10
2.763473527936056
 20
6.19866503377483
 30
0.0
 10
2.767353297578253
 20
6.209958487412421
 30
0.0
 10
2.774761598611959
 20
6.219475563690423
 30
0.0
 10
2.78428674933248
 20
6.225827458491352
 30
0.0
 10
2.78428674933248
 20
6.225827458491352
 30
0.0
 10
2.831558573203736
 20
6.257231657024078
 30
0.0
 10
2.831558573203736
 20
6.257231657024078
 30
0.0
 10
2.855195158009564
 20
6.273100628103009
 30
0.0
 10
2.888002963804453
 20
6.26674873330208
 30
0.0
 10
2.904231247576575
 20
6.242406980514104
 30
0.0
 10
2.920105601617223
 20
6.218420503198061
 30
0.0
 10
2.91340381430605
 20
6.185616734624431
 30
0.0
 10
2.889414645509162
 20
6.169736997622123
 30
0.0
 10
2.889414645509162
 20
6.169736997622123
 30
0.0
 10
2.857312007696421
 20
6.148571192234612
 30
0.0
 10
2.857312007696421
 20
6.148571192234612
 30
0.0
 10
2.857312007696421
 20
6.148571192234612
 30
0.0
 10
2.847434272984813
 20
6.118588095589558
 30
0.0
 10
2.847434272984813
 20
6.118588095589558
 30
0.0
 10
2.840025971951106
 20
6.096711739258211
 30
0.0
 10
2.819563988805313
 20
6.082608379615479
 30
0.0
 10
2.797693015435655
 20
6.082608379615479
 30
0.0
  0
POLYLINE
  5
48C
330
1F
100
AcDbEntity
  8
Livello 1
100
AcDb2dPolyline
 66
     1
 10
0.0
 20
0.0
 30
0.0
  0
VERTEX
  5
48D
330
48C
100
AcDbEntity
  8
Livello 1
100
AcDbVertex
100
AcDb2dVertex
 10
7.504207521128876
 20
6.338891185947872
 30
0.0
  0
VERTEX
  5
48E
330
48C
100
AcDbEntity
  8
Livello 1
100
AcDbVertex
100
AcDb2dVertex
 10
7.488684405338901
 20
6.386153589636165
 30
0.0
  0
VERTEX
  5
48F
330
48C
100
AcDbEntity
  8
Livello 1
100
AcDbVertex
100
AcDb2dVertex
 10
7.441412581467659
 20
6.40167805116657
 30
0.0
  0
SEQEND
  5
490
330
48C
100
AcDbEntity
  8
Livello 1
  0
POLYLINE
  5
491
330
1F
100
AcDbEntity
  8
Livello 1
100
AcDb2dPolyline
 66
     1
 10
0.0
 20
0.0
 30
0.0
  0
VERTEX
  5
492
330
491
100
AcDbEntity
  8
Livello 1
100
AcDbVertex
100
AcDb2dVertex
 10
8.429860268581521
 20
6.338891185947872
 30
0.0
  0
VERTEX
  5
493
330
491
100
AcDbEntity
  8
Livello 1
100
AcDbVertex
100
AcDb2dVertex
 10
8.414335807051102
 20
6.386153589636165
 30
0.0
  0
VERTEX
  5
494
330
491
100
AcDbEntity
  8
Livello 1
100
AcDbVertex
100
AcDb2dVertex
 10
8.367065328920304
 20
6.40167805116657
 30
0.0
  0
SEQEND
  5
495
330
491
100
AcDbEntity
  8
Livello 1
  0
POLYLINE
  5
496
330
1F
100
AcDbEntity
  8
Livello 1
100
AcDb2dPolyline
 66
     1
 10
0.0
 20
0.0
 30
0.0
  0
VERTEX
  5
497
330
496
100
AcDbEntity
  8
Livello 1
100
AcDbVertex
100
AcDb2dVertex
 10
8.44562965486908
 20
5.789872156679763
 30
0.0
  0
VERTEX
  5
498
330
496
100
AcDbEntity
  8
Livello 1
100
AcDbVertex
100
AcDb2dVertex
 10
8.461151424918625
 20
5.789872156679763
 30
0.0
  0
VERTEX
  5
499
330
496
100
AcDbEntity
  8
Livello 1
100
AcDbVertex
100
AcDb2dVertex
 10
8.477025778959259
 20
5.789872156679763
 30
0.0
  0
SEQEND
  5
49A
330
496
100
AcDbEntity
  8
Livello 1
  0
SPLINE
  5
49B
330
1F
100
AcDbEntity
  8
Livello 1
100
AcDbSpline
210
0.0
220
0.0
230
1.0
 70
     9
 71
     3
 72
    23
 73
    19
 74
     0
 42
0.000000001
 43
0.0000000001
 40
0.0
 40
0.0
 40
0.0
 40
0.0
 40
1.0
 40
1.0
 40
1.0
 40
2.0
 40
2.0
 40
2.0
 40
3.0
 40
3.0
 40
3.0
 40
4.0
 40
4.0
 40
4.0
 40
5.0
 40
5.0
 40
5.0
 40
6.0
 40
6.0
 40
6.0
 40
6.0
 10
1.88763201653461
 20
5.737377514223254
 30
0.0
 10
1.88763201653461
 20
5.737377514223254
 30
0.0
 10
1.87210890074462
 20
5.737377514223254
 30
0.0
 10
1.87210890074462
 20
5.737377514223254
 30
0.0
 10
1.843180864591943
 20
5.737377514223254
 30
0.0
 10
1.819545625526515
 20
5.761008716067408
 30
0.0
 10
1.819545625526515
 20
5.789936752220114
 30
0.0
 10
1.819545625526515
 20
5.81886478837282
 30
0.0
 10
1.843180864591943
 20
5.842495990216932
 30
0.0
 10
1.87210890074462
 20
5.842495990216932
 30
0.0
 10
1.87210890074462
 20
5.842495990216932
 30
0.0
 10
1.88763201653461
 20
5.842495990216932
 30
0.0
 10
1.88763201653461
 20
5.842495990216932
 30
0.0
 10
1.916558706946901
 20
5.842495990216932
 30
0.0
 10
1.940195291752743
 20
5.81886478837282
 30
0.0
 10
1.940195291752743
 20
5.789936752220114
 30
0.0
 10
1.940195291752743
 20
5.761008716067408
 30
0.0
 10
1.916558706946901
 20
5.737377514223254
 30
0.0
 10
1.88763201653461
 20
5.737377514223254
 30
0.0
  0
SPLINE
  5
49C
330
1F
100
AcDbEntity
  8
Livello 1
100
AcDbSpline
210
0.0
220
0.0
230
1.0
 70
     9
 71
     3
 72
    23
 73
    19
 74
     0
 42
0.000000001
 43
0.0000000001
 40
0.0
 40
0.0
 40
0.0
 40
0.0
 40
1.0
 40
1.0
 40
1.0
 40
2.0
 40
2.0
 40
2.0
 40
3.0
 40
3.0
 40
3.0
 40
4.0
 40
4.0
 40
4.0
 40
5.0
 40
5.0
 40
5.0
 40
6.0
 40
6.0
 40
6.0
 40
6.0
 10
1.856270881695465
 20
5.737377514223254
 30
0.0
 10
1.856270881695465
 20
5.737377514223254
 30
0.0
 10
1.840747765905447
 20
5.737377514223254
 30
0.0
 10
1.840747765905447
 20
5.737377514223254
 30
0.0
 10
1.811467145761696
 20
5.737377514223254
 30
0.0
 10
1.788184490687342
 20
5.761008716067408
 30
0.0
 10
1.788184490687342
 20
5.789936752220114
 30
0.0
 10
1.788184490687342
 20
5.81886478837282
 30
0.0
 10
1.811467145761696
 20
5.842495990216932
 30
0.0
 10
1.840747765905447
 20
5.842495990216932
 30
0.0
 10
1.840747765905447
 20
5.842495990216932
 30
0.0
 10
1.856270881695465
 20
5.842495990216932
 30
0.0
 10
1.856270881695465
 20
5.842495990216932
 30
0.0
 10
1.885197572107756
 20
5.842495990216932
 30
0.0
 10
1.90883415691357
 20
5.81886478837282
 30
0.0
 10
1.90883415691357
 20
5.789936752220114
 30
0.0
 10
1.90883415691357
 20
5.761008716067408
 30
0.0
 10
1.885197572107756
 20
5.737377514223254
 30
0.0
 10
1.856270881695465
 20
5.737377514223254
 30
0.0
  0
POLYLINE
  5
49D
330
1F
100
AcDbEntity
  8
Livello 1
100
AcDb2dPolyline
 66
     1
 10
0.0
 20
0.0
 30
0.0
  0
VERTEX
  5
49E
330
49D
100
AcDbEntity
  8
Livello 1
100
AcDbVertex
100
AcDb2dVertex
 10
8.586671325739018
 20
3.96749200644632
 30
0.0
  0
VERTEX
  5
49F
330
49D
100
AcDbEntity
  8
Livello 1
100
AcDbVertex
100
AcDb2dVertex
 10
8.571146864208614
 20
3.983005702053347
 30
0.0
  0
VERTEX
  5
4A0
330
49D
100
AcDbEntity
  8
Livello 1
100
AcDbVertex
100
AcDb2dVertex
 10
8.571146864208614
 20
3.998885439055669
 30
0.0
  0
VERTEX
  5
4A1
330
49D
100
AcDbEntity
  8
Livello 1
100
AcDbVertex
100
AcDb2dVertex
 10
8.571146864208614
 20
4.030278871665018
 30
0.0
  0
VERTEX
  5
4A2
330
49D
100
AcDbEntity
  8
Livello 1
100
AcDbVertex
100
AcDb2dVertex
 10
8.571146864208614
 20
4.045803333195422
 30
0.0
  0
SEQEND
  5
4A3
330
49D
100
AcDbEntity
  8
Livello 1
  0
SPLINE
  5
4A4
330
1F
100
AcDbEntity
  8
Livello 1
100
AcDbSpline
210
0.0
220
0.0
230
1.0
 70
     9
 71
     3
 72
    23
 73
    19
 74
     0
 42
0.000000001
 43
0.0000000001
 40
0.0
 40
0.0
 40
0.0
 40
0.0
 40
1.0
 40
1.0
 40
1.0
 40
2.0
 40
2.0
 40
2.0
 40
3.0
 40
3.0
 40
3.0
 40
4.0
 40
4.0
 40
4.0
 40
5.0
 40
5.0
 40
5.0
 40
6.0
 40
6.0
 40
6.0
 40
6.0
 10
1.898109951475319
 20
3.904339099832355
 30
0.0
 10
1.869181915322613
 20
3.904339099832355
 30
0.0
 10
1.84554533051677
 20
3.927970301676481
 30
0.0
 10
1.84554533051677
 20
3.956898337829187
 30
0.0
 10
1.84554533051677
 20
3.956898337829187
 30
0.0
 10
1.84554533051677
 20
5.793101933697172
 30
0.0
 10
1.84554533051677
 20
5.793101933697172
 30
0.0
 10
1.84554533051677
 20
5.822029969849893
 30
0.0
 10
1.869181915322613
 20
5.845671937617424
 30
0.0
 10
1.898109951475319
 20
5.845671937617424
 30
0.0
 10
1.927036641887568
 20
5.845671937617424
 30
0.0
 10
1.950673226693425
 20
5.822029969849893
 30
0.0
 10
1.950673226693425
 20
5.793101933697172
 30
0.0
 10
1.950673226693425
 20
5.793101933697172
 30
0.0
 10
1.950673226693425
 20
3.956898337829187
 30
0.0
 10
1.950673226693425
 20
3.956898337829187
 30
0.0
 10
1.950673226693425
 20
3.927970301676481
 30
0.0
 10
1.927036641887568
 20
3.904339099832355
 30
0.0
 10
1.898109951475319
 20
3.904339099832355
 30
0.0
  0
POLYLINE
  5
4A5
330
1F
100
AcDbEntity
  8
Livello 1
100
AcDb2dPolyline
 66
     1
 10
0.0
 20
0.0
 30
0.0
  0
VERTEX
  5
4A6
330
4A5
100
AcDbEntity
  8
Livello 1
100
AcDbVertex
100
AcDb2dVertex
 10
8.697797186985127
 20
4.62475162949164
 30
0.0
  0
VERTEX
  5
4A7
330
4A5
100
AcDbEntity
  8
Livello 1
100
AcDbVertex
100
AcDb2dVertex
 10
8.702028194877968
 20
4.63426870576967
 30
0.0
  0
VERTEX
  5
4A8
330
4A5
100
AcDbEntity
  8
Livello 1
100
AcDbVertex
100
AcDb2dVertex
 10
8.706967062233744
 20
4.647327770843432
 30
0.0
  0
VERTEX
  5
4A9
330
4A5
100
AcDbEntity
  8
Livello 1
100
AcDbVertex
100
AcDb2dVertex
 10
8.708027505687823
 20
4.656844847121433
 30
0.0
  0
VERTEX
  5
4AA
330
4A5
100
AcDbEntity
  8
Livello 1
100
AcDbVertex
100
AcDb2dVertex
 10
8.708732673669942
 20
4.666727964794745
 30
0.0
  0
VERTEX
  5
4AB
330
4A5
100
AcDbEntity
  8
Livello 1
100
AcDbVertex
100
AcDb2dVertex
 10
8.710143009634208
 20
4.679776263945129
 30
0.0
  0
VERTEX
  5
4AC
330
4A5
100
AcDbEntity
  8
Livello 1
100
AcDbVertex
100
AcDb2dVertex
 10
8.708027505687823
 20
4.690014657090358
 30
0.0
  0
VERTEX
  5
4AD
330
4A5
100
AcDbEntity
  8
Livello 1
100
AcDbVertex
100
AcDb2dVertex
 10
8.705556726269477
 20
4.700242284312182
 30
0.0
  0
VERTEX
  5
4AE
330
4A5
100
AcDbEntity
  8
Livello 1
100
AcDbVertex
100
AcDb2dVertex
 10
8.69991269093154
 20
4.710469911534033
 30
0.0
  0
VERTEX
  5
4AF
330
4A5
100
AcDbEntity
  8
Livello 1
100
AcDbVertex
100
AcDb2dVertex
 10
8.697797186985127
 20
4.721052814227775
 30
0.0
  0
VERTEX
  5
4B0
330
4A5
100
AcDbEntity
  8
Livello 1
100
AcDbVertex
100
AcDb2dVertex
 10
8.692150460166331
 20
4.73163571692153
 30
0.0
  0
SEQEND
  5
4B1
330
4A5
100
AcDbEntity
  8
Livello 1
  0
POLYLINE
  5
4B2
330
1F
100
AcDbEntity
  8
Livello 1
100
AcDb2dPolyline
 66
     1
 10
0.0
 20
0.0
 30
0.0
  0
VERTEX
  5
4B3
330
4B2
100
AcDbEntity
  8
Livello 1
100
AcDbVertex
100
AcDb2dVertex
 10
8.714834260752027
 20
4.563687312015602
 30
0.0
  0
VERTEX
  5
4B4
330
4B2
100
AcDbEntity
  8
Livello 1
100
AcDbVertex
100
AcDb2dVertex
 10
8.722593800036392
 20
4.57602506022215
 30
0.0
  0
VERTEX
  5
4B5
330
4B2
100
AcDbEntity
  8
Livello 1
100
AcDbVertex
100
AcDb2dVertex
 10
8.733881870712252
 20
4.588018298880186
 30
0.0
  0
VERTEX
  5
4B6
330
4B2
100
AcDbEntity
  8
Livello 1
100
AcDbVertex
100
AcDb2dVertex
 10
8.741996685468535
 20
4.603898035882508
 30
0.0
  0
VERTEX
  5
4B7
330
4B2
100
AcDbEntity
  8
Livello 1
100
AcDbVertex
100
AcDb2dVertex
 10
8.746935552824339
 20
4.616601825484366
 30
0.0
  0
VERTEX
  5
4B8
330
4B2
100
AcDbEntity
  8
Livello 1
100
AcDbVertex
100
AcDb2dVertex
 10
8.751521836189098
 20
4.629294849162832
 30
0.0
  0
VERTEX
  5
4B9
330
4B2
100
AcDbEntity
  8
Livello 1
100
AcDbVertex
100
AcDb2dVertex
 10
8.75293217215335
 20
4.645529861637072
 30
0.0
  0
VERTEX
  5
4BA
330
4B2
100
AcDbEntity
  8
Livello 1
100
AcDbVertex
100
AcDb2dVertex
 10
8.757518455518109
 20
4.658578160787456
 30
0.0
  0
VERTEX
  5
4BB
330
4B2
100
AcDbEntity
  8
Livello 1
100
AcDbVertex
100
AcDb2dVertex
 10
8.756108119553815
 20
4.675157682810223
 30
0.0
  0
VERTEX
  5
4BC
330
4B2
100
AcDbEntity
  8
Livello 1
100
AcDbVertex
100
AcDb2dVertex
 10
8.753989924126571
 20
4.688561257432525
 30
0.0
  0
VERTEX
  5
4BD
330
4B2
100
AcDbEntity
  8
Livello 1
100
AcDbVertex
100
AcDb2dVertex
 10
8.752579588162305
 20
4.705496054927195
 30
0.0
  0
VERTEX
  5
4BE
330
4B2
100
AcDbEntity
  8
Livello 1
100
AcDbVertex
100
AcDb2dVertex
 10
8.750464084215892
 20
4.718899629549497
 30
0.0
  0
VERTEX
  5
4BF
330
4B2
100
AcDbEntity
  8
Livello 1
100
AcDbVertex
100
AcDb2dVertex
 10
8.745525216860059
 20
4.732313970095191
 30
0.0
  0
VERTEX
  5
4C0
330
4B2
100
AcDbEntity
  8
Livello 1
100
AcDbVertex
100
AcDb2dVertex
 10
8.736705234121657
 20
4.746772605209855
 30
0.0
  0
VERTEX
  5
4C1
330
4B2
100
AcDbEntity
  8
Livello 1
100
AcDbVertex
100
AcDb2dVertex
 10
8.73106119878372
 20
4.757355507903596
 30
0.0
  0
VERTEX
  5
4C2
330
4B2
100
AcDbEntity
  8
Livello 1
100
AcDbVertex
100
AcDb2dVertex
 10
8.722946384027466
 20
4.771469633469735
 30
0.0
  0
VERTEX
  5
4C3
330
4B2
100
AcDbEntity
  8
Livello 1
100
AcDbVertex
100
AcDb2dVertex
 10
8.710600561378342
 20
4.782407811635408
 30
0.0
  0
VERTEX
  5
4C4
330
4B2
100
AcDbEntity
  8
Livello 1
100
AcDbVertex
100
AcDb2dVertex
 10
8.698604631239476
 20
4.793690499349594
 30
0.0
  0
SEQEND
  5
4C5
330
4B2
100
AcDbEntity
  8
Livello 1
  0
POLYLINE
  5
4C6
330
1F
100
AcDbEntity
  8
Livello 1
100
AcDb2dPolyline
 66
     1
 10
0.0
 20
0.0
 30
0.0
  0
VERTEX
  5
4C7
330
4C6
100
AcDbEntity
  8
Livello 1
100
AcDbVertex
100
AcDb2dVertex
 10
8.700687837415713
 20
4.410617413236593
 30
0.0
  0
VERTEX
  5
4C8
330
4C6
100
AcDbEntity
  8
Livello 1
100
AcDbVertex
100
AcDb2dVertex
 10
8.952570072561897
 20
3.451761212304433
 30
0.0
  0
VERTEX
  5
4C9
330
4C6
100
AcDbEntity
  8
Livello 1
100
AcDbVertex
100
AcDb2dVertex
 10
9.304995266260405
 20
2.056874348096954
 30
0.0
  0
VERTEX
  5
4CA
330
4C6
100
AcDbEntity
  8
Livello 1
100
AcDbVertex
100
AcDb2dVertex
 10
9.357204611747036
 20
2.065347129805985
 30
0.0
  0
VERTEX
  5
4CB
330
4C6
100
AcDbEntity
  8
Livello 1
100
AcDbVertex
100
AcDb2dVertex
 10
8.711975908091602
 20
4.546784812291093
 30
0.0
  0
SEQEND
  5
4CC
330
4C6
100
AcDbEntity
  8
Livello 1
  0
SPLINE
  5
4CD
330
1F
100
AcDbEntity
  8
Livello 1
100
AcDbSpline
210
0.0
220
0.0
230
1.0
 70
     9
 71
     3
 72
    71
 73
    67
 74
     0
 42
0.000000001
 43
0.0000000001
 40
0.0
 40
0.0
 40
0.0
 40
0.0
 40
1.0
 40
1.0
 40
1.0
 40
2.0
 40
2.0
 40
2.0
 40
3.0
 40
3.0
 40
3.0
 40
4.0
 40
4.0
 40
4.0
 40
5.0
 40
5.0
 40
5.0
 40
6.0
 40
6.0
 40
6.0
 40
7.0
 40
7.0
 40
7.0
 40
8.0
 40
8.0
 40
8.0
 40
9.0
 40
9.0
 40
9.0
 40
10.0
 40
10.0
 40
10.0
 40
11.0
 40
11.0
 40
11.0
 40
12.0
 40
12.0
 40
12.0
 40
13.0
 40
13.0
 40
13.0
 40
14.0
 40
14.0
 40
14.0
 40
15.0
 40
15.0
 40
15.0
 40
16.0
 40
16.0
 40
16.0
 40
17.0
 40
17.0
 40
17.0
 40
18.0
 40
18.0
 40
18.0
 40
19.0
 40
19.0
 40
19.0
 40
20.0
 40
20.0
 40
20.0
 40
21.0
 40
21.0
 40
21.0
 40
22.0
 40
22.0
 40
22.0
 40
22.0
 10
1.596308821044019
 20
4.485472878577041
 30
0.0
 10
1.579021439558275
 20
4.485472878577041
 30
0.0
 10
1.562441917535494
 20
4.493934894362681
 30
0.0
 10
1.552211598832812
 20
4.509459355893099
 30
0.0
 10
1.552211598832812
 20
4.509459355893099
 30
0.0
 10
1.538452748738606
 20
4.527093938408214
 30
0.0
 10
1.538452748738606
 20
4.527093938408214
 30
0.0
 10
1.535278147078571
 20
4.530269885808678
 30
0.0
 10
1.532808713400669
 20
4.533801108681061
 30
0.0
 10
1.530691863713812
 20
4.538032116573887
 30
0.0
 10
1.530691863713812
 20
4.538032116573887
 30
0.0
 10
1.51058381029955
 20
4.585305286185544
 30
0.0
 10
1.51058381029955
 20
4.585305286185544
 30
0.0
 10
1.50917212859484
 20
4.589536294078371
 30
0.0
 10
1.50811437662162
 20
4.593767301971197
 30
0.0
 10
1.507407862899057
 20
4.598353585335928
 30
0.0
 10
1.507407862899057
 20
4.598353585335928
 30
0.0
 10
1.504233261239036
 20
4.614588597810168
 30
0.0
 10
1.504233261239036
 20
4.614588597810168
 30
0.0
 10
1.501411243570061
 20
4.621995553103459
 30
0.0
 10
1.50035214585641
 20
4.630102293417181
 30
0.0
 10
1.501058659578973
 20
4.63786452418239
 30
0.0
 10
1.501058659578973
 20
4.63786452418239
 30
0.0
 10
1.508819544603767
 20
4.701017430796355
 30
0.0
 10
1.508819544603767
 20
4.701017430796355
 30
0.0
 10
1.50917212859484
 20
4.70453788774536
 30
0.0
 10
1.510229880568061
 20
4.708069110617742
 30
0.0
 10
1.511288978281669
 20
4.711245058018207
 30
0.0
 10
1.511288978281669
 20
4.711245058018207
 30
0.0
 10
1.54339161609441
 20
4.772632353196001
 30
0.0
 10
1.54339161609441
 20
4.772632353196001
 30
0.0
 10
1.545861049772341
 20
4.776863361088828
 30
0.0
 10
1.549035651432362
 20
4.780739093509737
 30
0.0
 10
1.5525641828239
 20
4.784270316382119
 30
0.0
 10
1.5525641828239
 20
4.784270316382119
 30
0.0
 10
1.576905935611861
 20
4.806491182261979
 30
0.0
 10
1.576905935611861
 20
4.806491182261979
 30
0.0
 10
1.598424324990418
 20
4.82624665168521
 30
0.0
 10
1.631586060516809
 20
4.824836315720929
 30
0.0
 10
1.651341529940026
 20
4.803315234861514
 30
0.0
 10
1.670744415372197
 20
4.781804919925477
 30
0.0
 10
1.669332733667488
 20
4.748635109956566
 30
0.0
 10
1.647814344288931
 20
4.729234916005253
 30
0.0
 10
1.647814344288931
 20
4.729234916005253
 30
0.0
 10
1.611830591093578
 20
4.681961746393582
 30
0.0
 10
1.611830591093578
 20
4.681961746393582
 30
0.0
 10
1.611830591093578
 20
4.681961746393582
 30
0.0
 10
1.606891723737774
 20
4.639630135618574
 30
0.0
 10
1.606891723737774
 20
4.639630135618574
 30
0.0
 10
1.606891723737774
 20
4.639630135618574
 30
0.0
 10
1.607244307728862
 20
4.638219799654322
 30
0.0
 10
1.607244307728862
 20
4.638219799654322
 30
0.0
 10
1.609008573424617
 20
4.633988791761481
 30
0.0
 10
1.610066325397809
 20
4.629757783868654
 30
0.0
 10
1.610418909388897
 20
4.625171500503924
 30
0.0
 10
1.610418909388897
 20
4.625171500503924
 30
0.0
 10
1.619591476118358
 20
4.593767301971197
 30
0.0
 10
1.619591476118358
 20
4.593767301971197
 30
0.0
 10
1.619591476118358
 20
4.593767301971197
 30
0.0
 10
1.640406043255211
 20
4.566249601782757
 30
0.0
 10
1.640406043255211
 20
4.566249601782757
 30
0.0
 10
1.655927813304771
 20
4.542263124466714
 30
0.0
 10
1.649224680253212
 20
4.509459355893099
 30
0.0
 10
1.62488292746525
 20
4.493934894362681
 30
0.0
 10
1.616064290467264
 20
4.488293550505588
 30
0.0
 10
1.606186555755627
 20
4.485472878577041
 30
0.0
 10
1.596308821044019
 20
4.485472878577041
 30
0.0
  0
SPLINE
  5
4CE
330
1F
100
AcDbEntity
  8
Livello 1
100
AcDbSpline
210
0.0
220
0.0
230
1.0
 70
     9
 71
     3
 72
    41
 73
    37
 74
     0
 42
0.000000001
 43
0.0000000001
 40
0.0
 40
0.0
 40
0.0
 40
0.0
 40
1.0
 40
1.0
 40
1.0
 40
2.0
 40
2.0
 40
2.0
 40
3.0
 40
3.0
 40
3.0
 40
4.0
 40
4.0
 40
4.0
 40
5.0
 40
5.0
 40
5.0
 40
6.0
 40
6.0
 40
6.0
 40
7.0
 40
7.0
 40
7.0
 40
8.0
 40
8.0
 40
8.0
 40
9.0
 40
9.0
 40
9.0
 40
10.0
 40
10.0
 40
10.0
 40
11.0
 40
11.0
 40
11.0
 40
12.0
 40
12.0
 40
12.0
 40
12.0
 10
1.006287772539749
 20
1.978735276122122
 30
0.0
 10
1.003464409130344
 20
1.978735276122122
 30
0.0
 10
1.000642391461354
 20
1.979079785670649
 30
0.0
 10
0.9978203737923934
 20
1.979435061142567
 30
0.0
 10
0.9978203737923934
 20
1.979435061142567
 30
0.0
 10
0.9456096825653474
 20
1.98789707692822
 30
0.0
 10
0.9456096825653474
 20
1.98789707692822
 30
0.0
 10
0.9311456644889943
 20
1.990017963836322
 30
0.0
 10
0.9180933281173366
 20
1.998490745545353
 30
0.0
 10
0.9099785133610538
 20
2.010828493751901
 30
0.0
 10
0.9018650443452003
 20
2.023177007881869
 30
0.0
 10
0.8993956106672982
 20
2.038346193940341
 30
0.0
 10
0.9032753803094806
 20
2.052815594978397
 30
0.0
 10
0.9032753803094806
 20
2.052815594978397
 30
0.0
 10
1.548154191454699
 20
4.534253277463491
 30
0.0
 10
1.548154191454699
 20
4.534253277463491
 30
0.0
 10
1.555209908497332
 20
4.56212625312385
 30
0.0
 10
1.583784014918535
 20
4.579050284695142
 30
0.0
 10
1.612006883089122
 20
4.571998604873769
 30
0.0
 10
1.640228405519252
 20
4.564591649580478
 30
0.0
 10
1.657161857273521
 20
4.53601888889969
 30
0.0
 10
1.649753556239815
 20
4.507790637767428
 30
0.0
 10
1.649753556239815
 20
4.507790637767428
 30
0.0
 10
1.630350670807658
 20
4.433355043439249
 30
0.0
 10
1.630350670807658
 20
4.433355043439249
 30
0.0
 10
1.654339839604546
 20
4.423482691689329
 30
0.0
 10
1.668098689698766
 20
4.397375327465169
 30
0.0
 10
1.661042972656119
 20
4.371623238712928
 30
0.0
 10
1.661042972656119
 20
4.371623238712928
 30
0.0
 10
1.40915939176952
 20
3.412422528232241
 30
0.0
 10
1.40915939176952
 20
3.412422528232241
 30
0.0
 10
1.40915939176952
 20
3.412422528232241
 30
0.0
 10
1.057086782062057
 20
2.018246214968584
 30
0.0
 10
1.057086782062057
 20
2.018246214968584
 30
0.0
 10
1.051090162733061
 20
1.994604247201053
 30
0.0
 10
1.02992301160512
 20
1.978735276122122
 30
0.0
 10
1.006287772539749
 20
1.978735276122122
 30
0.0
  0
SPLINE
  5
4CF
330
1F
100
AcDbEntity
  8
Livello 1
100
AcDbSpline
210
0.0
220
0.0
230
1.0
 70
     9
 71
     3
 72
    17
 73
    13
 74
     0
 42
0.000000001
 43
0.0000000001
 40
0.0
 40
0.0
 40
0.0
 40
0.0
 40
1.0
 40
1.0
 40
1.0
 40
2.0
 40
2.0
 40
2.0
 40
3.0
 40
3.0
 40
3.0
 40
4.0
 40
4.0
 40
4.0
 40
4.0
 10
5.183881882196132
 20
12.78974026325937
 30
0.0
 10
2.88235892846653
 20
12.78974026325937
 30
0.0
 10
1.009814958190858
 20
14.66228961649675
 30
0.0
 10
1.009814958190858
 20
16.96380718726468
 30
0.0
 10
1.009814958190858
 20
19.265335523956
 30
0.0
 10
2.88235892846653
 20
21.13787411126999
 30
0.0
 10
5.183881882196132
 20
21.13787411126999
 30
0.0
 10
7.485403490185348
 20
21.13787411126999
 30
0.0
 10
9.357947460461048
 20
19.265335523956
 30
0.0
 10
9.357947460461048
 20
16.96380718726468
 30
0.0
 10
9.357947460461048
 20
14.66228961649675
 30
0.0
 10
7.485403490185348
 20
12.78974026325937
 30
0.0
 10
5.183881882196132
 20
12.78974026325937
 30
0.0
  0
SPLINE
  5
4D0
330
1F
100
AcDbEntity
  8
Livello 1
100
AcDbSpline
210
0.0
220
0.0
230
1.0
 70
     9
 71
     3
 72
    17
 73
    13
 74
     0
 42
0.000000001
 43
0.0000000001
 40
0.0
 40
0.0
 40
0.0
 40
0.0
 40
1.0
 40
1.0
 40
1.0
 40
2.0
 40
2.0
 40
2.0
 40
3.0
 40
3.0
 40
3.0
 40
4.0
 40
4.0
 40
4.0
 40
4.0
 10
5.183881882196132
 20
21.0327556352763
 30
0.0
 10
2.940215000771942
 20
21.0327556352763
 30
0.0
 10
1.11459027037641
 20
19.20747945165058
 30
0.0
 10
1.11459027037641
 20
16.96380718726468
 30
0.0
 10
1.11459027037641
 20
14.72014568880216
 30
0.0
 10
2.940215000771942
 20
12.89486950517644
 30
0.0
 10
5.183881882196132
 20
12.89486950517644
 30
0.0
 10
7.427547417879935
 20
12.89486950517644
 30
0.0
 10
9.252820910024809
 20
14.72014568880216
 30
0.0
 10
9.252820910024809
 20
16.96380718726468
 30
0.0
 10
9.252820910024809
 20
19.20747945165058
 30
0.0
 10
7.427547417879935
 20
21.0327556352763
 30
0.0
 10
5.183881882196132
 20
21.0327556352763
 30
0.0
  0
SPLINE
  5
4D1
330
1F
100
AcDbEntity
  8
Livello 1
100
AcDbSpline
210
0.0
220
0.0
230
1.0
 70
     9
 71
     3
 72
    17
 73
    13
 74
     0
 42
0.000000001
 43
0.0000000001
 40
0.0
 40
0.0
 40
0.0
 40
0.0
 40
1.0
 40
1.0
 40
1.0
 40
2.0
 40
2.0
 40
2.0
 40
3.0
 40
3.0
 40
3.0
 40
4.0
 40
4.0
 40
4.0
 40
4.0
 10
5.183881882196132
 20
13.71034513838185
 30
0.0
 10
3.389653275890822
 20
13.71034513838185
 30
0.0
 10
1.930212589288061
 20
15.16978447924421
 30
0.0
 10
1.930212589288061
 20
16.96365646433719
 30
0.0
 10
1.930212589288061
 20
18.75788372490209
 30
0.0
 10
3.389653275890822
 20
20.21767834123636
 30
0.0
 10
5.183881882196132
 20
20.21767834123636
 30
0.0
 10
6.977756558769968
 20
20.21767834123636
 30
0.0
 10
8.437549829363817
 20
18.75788372490209
 30
0.0
 10
8.437549829363817
 20
16.96365646433719
 30
0.0
 10
8.437549829363817
 20
15.16978447924421
 30
0.0
 10
6.977756558769968
 20
13.71034513838185
 30
0.0
 10
5.183881882196132
 20
13.71034513838185
 30
0.0
  0
SPLINE
  5
4D2
330
1F
100
AcDbEntity
  8
Livello 1
100
AcDbSpline
210
0.0
220
0.0
230
1.0
 70
     9
 71
     3
 72
    17
 73
    13
 74
     0
 42
0.000000001
 43
0.0000000001
 40
0.0
 40
0.0
 40
0.0
 40
0.0
 40
1.0
 40
1.0
 40
1.0
 40
2.0
 40
2.0
 40
2.0
 40
3.0
 40
3.0
 40
3.0
 40
4.0
 40
4.0
 40
4.0
 40
4.0
 10
5.183881882196132
 20
20.11255986524267
 30
0.0
 10
3.447509348196263
 20
20.11255986524267
 30
0.0
 10
2.034986555733198
 20
18.70002765259668
 30
0.0
 10
2.034986555733198
 20
16.96365646433719
 30
0.0
 10
2.034986555733198
 20
15.22764055154964
 30
0.0
 10
3.447509348196263
 20
13.81511910482702
 30
0.0
 10
5.183881882196132
 20
13.81511910482702
 30
0.0
 10
6.91990048646457
 20
13.81511910482702
 30
0.0
 10
8.332423278927578
 20
15.22764055154964
 30
0.0
 10
8.332423278927578
 20
16.96365646433719
 30
0.0
 10
8.332423278927578
 20
18.70002765259668
 30
0.0
 10
6.91990048646457
 20
20.11255986524267
 30
0.0
 10
5.183881882196132
 20
20.11255986524267
 30
0.0
  0
SPLINE
  5
4D3
330
1F
100
AcDbEntity
  8
Livello 1
100
AcDbSpline
210
0.0
220
0.0
230
1.0
 70
     9
 71
     3
 72
    17
 73
    13
 74
     0
 42
0.000000001
 43
0.0000000001
 40
0.0
 40
0.0
 40
0.0
 40
0.0
 40
1.0
 40
1.0
 40
1.0
 40
2.0
 40
2.0
 40
2.0
 40
3.0
 40
3.0
 40
3.0
 40
4.0
 40
4.0
 40
4.0
 40
4.0
 10
5.183881882196132
 20
13.91030063353044
 30
0.0
 10
3.50007262341434
 20
13.91030063353044
 30
0.0
 10
2.130236717198258
 20
15.28013519400612
 30
0.0
 10
2.130236717198258
 20
16.96359186879684
 30
0.0
 10
2.130236717198258
 20
18.64774832860801
 30
0.0
 10
3.50007262341434
 20
20.0175828890837
 30
0.0
 10
5.183881882196132
 20
20.0175828890837
 30
0.0
 10
6.867689795237538
 20
20.0175828890837
 30
0.0
 10
8.237524355713219
 20
18.64774832860801
 30
0.0
 10
8.237524355713219
 20
16.96359186879684
 30
0.0
 10
8.237524355713219
 20
15.28013519400612
 30
0.0
 10
6.867689795237538
 20
13.91030063353044
 30
0.0
 10
5.183881882196132
 20
13.91030063353044
 30
0.0
  0
SPLINE
  5
4D4
330
1F
100
AcDbEntity
  8
Livello 1
100
AcDbSpline
210
0.0
220
0.0
230
1.0
 70
     9
 71
     3
 72
    17
 73
    13
 74
     0
 42
0.000000001
 43
0.0000000001
 40
0.0
 40
0.0
 40
0.0
 40
0.0
 40
1.0
 40
1.0
 40
1.0
 40
2.0
 40
2.0
 40
2.0
 40
3.0
 40
3.0
 40
3.0
 40
4.0
 40
4.0
 40
4.0
 40
4.0
 10
5.183881882196132
 20
19.91246441309001
 30
0.0
 10
3.55792869571978
 20
19.91246441309001
 30
0.0
 10
2.235012029383824
 20
18.58954774675408
 30
0.0
 10
2.235012029383824
 20
16.96359186879684
 30
0.0
 10
2.235012029383824
 20
15.33799126631153
 30
0.0
 10
3.55792869571978
 20
14.01542987544751
 30
0.0
 10
5.183881882196132
 20
14.01542987544751
 30
0.0
 10
6.809833722932111
 20
14.01542987544751
 30
0.0
 10
8.13239780527698
 20
15.33799126631153
 30
0.0
 10
8.13239780527698
 20
16.96359186879684
 30
0.0
 10
8.13239780527698
 20
18.58954774675408
 30
0.0
 10
6.809833722932111
 20
19.91246441309001
 30
0.0
 10
5.183881882196132
 20
19.91246441309001
 30
0.0
  0
POLYLINE
  5
59A
330
1F
100
AcDbEntity
  8
Livello 1
100
AcDb2dPolyline
 66
     1
 10
0.0
 20
0.0
 30
0.0
  0
VERTEX
  5
59B
330
59A
100
AcDbEntity
  8
Livello 1
100
AcDbVertex
100
AcDb2dVertex
 10
10.44150535203584
 20
6.264703207857706
 30
0.0
  0
VERTEX
  5
59C
330
59A
100
AcDbEntity
  8
Livello 1
100
AcDbVertex
100
AcDb2dVertex
 10
10.44150535203584
 20
2.193644638861357
 30
0.0
  0
SEQEND
  5
59D
330
59A
100
AcDbEntity
  8
Livello 1
  0
POLYLINE
  5
59E
330
1F
100
AcDbEntity
  8
Livello 1
100
AcDb2dPolyline
 66
     1
 10
0.0
 20
0.0
 30
0.0
  0
VERTEX
  5
59F
330
59E
100
AcDbEntity
  8
Livello 1
100
AcDbVertex
100
AcDb2dVertex
 10
9.154431136150734
 20
11.58109919923152
 30
0.0
  0
VERTEX
  5
5A0
330
59E
100
AcDbEntity
  8
Livello 1
100
AcDbVertex
100
AcDb2dVertex
 10
1.177772783279735
 20
11.58109919923152
 30
0.0
  0
SEQEND
  5
5A1
330
59E
100
AcDbEntity
  8
Livello 1
  0
MTEXT
  5
5A2
330
1F
100
AcDbEntity
  8
Livello 1
100
AcDbMText
 10
13.54501961992317
 20
0.1182599059685288
 30
0.0
 40
2.123016666135912
 41
0.0
 46
0.0
 71
     7
 72
     1
  1
\fSource Sans Pro Light|b0|i0|c0|p34;\W1;58 mm
 11
-0.0000000000000002
 21
1.0
 31
0.0
 73
     1
 44
1.0
  0
MTEXT
  5
5A3
330
1F
100
AcDbEntity
  8
Livello 1
100
AcDbMText
 10
0.4807223073797787
 20
8.477568782459108
 30
0.0
 40
2.123016666135912
 41
0.0
 46
0.0
 71
     7
 72
     1
  1
\fSource Sans Pro Light|b0|i0|c0|p34;\W1;103 mm
 73
     1
 44
1.0
  0
SPLINE
  5
5A4
330
1F
100
AcDbEntity
  8
Livello 1
100
AcDbSpline
210
0.0
220
0.0
230
1.0
 70
     9
 71
     3
 72
    23
 73
    19
 74
     0
 42
0.000000001
 43
0.0000000001
 40
0.0
 40
0.0
 40
0.0
 40
0.0
 40
1.0
 40
1.0
 40
1.0
 40
2.0
 40
2.0
 40
2.0
 40
3.0
 40
3.0
 40
3.0
 40
4.0
 40
4.0
 40
4.0
 40
5.0
 40
5.0
 40
5.0
 40
6.0
 40
6.0
 40
6.0
 40
6.0
 10
1.040613573532823
 20
1.985119468693227
 30
0.0
 10
1.011332953389029
 20
1.985119468693227
 30
0.0
 10
0.9880489525742461
 20
2.008761436460758
 30
0.0
 10
0.9880489525742461
 20
2.037689472613465
 30
0.0
 10
0.9880489525742461
 20
2.037689472613465
 30
0.0
 10
0.9880489525742461
 20
2.149159843408085
 30
0.0
 10
0.9880489525742461
 20
2.149159843408085
 30
0.0
 10
0.9880489525742461
 20
2.178087879560791
 30
0.0
 10
1.011332953389029
 20
2.201374571856391
 30
0.0
 10
1.040613573532823
 20
2.201374571856391
 30
0.0
 10
1.0695402639451
 20
2.201374571856391
 30
0.0
 10
1.093176848750914
 20
2.178087879560791
 30
0.0
 10
1.093176848750914
 20
2.149159843408085
 30
0.0
 10
1.093176848750914
 20
2.149159843408085
 30
0.0
 10
1.093176848750914
 20
2.037689472613465
 30
0.0
 10
1.093176848750914
 20
2.037689472613465
 30
0.0
 10
1.093176848750914
 20
2.008761436460758
 30
0.0
 10
1.0695402639451
 20
1.985119468693227
 30
0.0
 10
1.040613573532823
 20
1.985119468693227
 30
0.0
  0
SPLINE
  5
5A5
330
1F
100
AcDbEntity
  8
Livello 1
100
AcDbSpline
210
0.0
220
0.0
230
1.0
 70
     9
 71
     3
 72
    23
 73
    19
 74
     0
 42
0.000000001
 43
0.0000000001
 40
0.0
 40
0.0
 40
0.0
 40
0.0
 40
1.0
 40
1.0
 40
1.0
 40
2.0
 40
2.0
 40
2.0
 40
3.0
 40
3.0
 40
3.0
 40
4.0
 40
4.0
 40
4.0
 40
5.0
 40
5.0
 40
5.0
 40
6.0
 40
6.0
 40
6.0
 40
6.0
 10
1.620933179321013
 20
3.894714364320435
 30
0.0
 10
1.592005143168307
 20
3.894714364320435
 30
0.0
 10
1.568368558362479
 20
3.918345566164575
 30
0.0
 10
1.568368558362479
 20
3.947273602317281
 30
0.0
 10
1.568368558362479
 20
3.947273602317281
 30
0.0
 10
1.568368558362479
 20
5.789829092986181
 30
0.0
 10
1.568368558362479
 20
5.789829092986181
 30
0.0
 10
1.568368558362479
 20
5.818757129138901
 30
0.0
 10
1.592005143168307
 20
5.842399096906433
 30
0.0
 10
1.620933179321013
 20
5.842399096906433
 30
0.0
 10
1.649859869733319
 20
5.842399096906433
 30
0.0
 10
1.673496454539119
 20
5.818757129138901
 30
0.0
 10
1.673496454539119
 20
5.789829092986181
 30
0.0
 10
1.673496454539119
 20
5.789829092986181
 30
0.0
 10
1.673496454539119
 20
3.947273602317281
 30
0.0
 10
1.673496454539119
 20
3.947273602317281
 30
0.0
 10
1.673496454539119
 20
3.918345566164575
 30
0.0
 10
1.649859869733319
 20
3.894714364320435
 30
0.0
 10
1.620933179321013
 20
3.894714364320435
 30
0.0
  0
SPLINE
  5
5A6
330
1F
100
AcDbEntity
  8
Livello 1
100
AcDbSpline
210
0.0
220
0.0
230
1.0
 70
     9
 71
     3
 72
    23
 73
    19
 74
     0
 42
0.000000001
 43
0.0000000001
 40
0.0
 40
0.0
 40
0.0
 40
0.0
 40
1.0
 40
1.0
 40
1.0
 40
2.0
 40
2.0
 40
2.0
 40
3.0
 40
3.0
 40
3.0
 40
4.0
 40
4.0
 40
4.0
 40
5.0
 40
5.0
 40
5.0
 40
6.0
 40
6.0
 40
6.0
 40
6.0
 10
1.856234546703987
 20
5.737377514223254
 30
0.0
 10
1.856234546703987
 20
5.737377514223254
 30
0.0
 10
1.840712776654456
 20
5.737377514223254
 30
0.0
 10
1.840712776654456
 20
5.737377514223254
 30
0.0
 10
1.811432156510676
 20
5.737377514223254
 30
0.0
 10
1.788148155695893
 20
5.761008716067408
 30
0.0
 10
1.788148155695893
 20
5.789936752220114
 30
0.0
 10
1.788148155695893
 20
5.81886478837282
 30
0.0
 10
1.811432156510676
 20
5.842495990216932
 30
0.0
 10
1.840712776654456
 20
5.842495990216932
 30
0.0
 10
1.840712776654456
 20
5.842495990216932
 30
0.0
 10
1.856234546703987
 20
5.842495990216932
 30
0.0
 10
1.856234546703987
 20
5.842495990216932
 30
0.0
 10
1.885162582856693
 20
5.842495990216932
 30
0.0
 10
1.908799167662536
 20
5.81886478837282
 30
0.0
 10
1.908799167662536
 20
5.789936752220114
 30
0.0
 10
1.908799167662536
 20
5.761008716067408
 30
0.0
 10
1.885162582856693
 20
5.737377514223254
 30
0.0
 10
1.856234546703987
 20
5.737377514223254
 30
0.0
  0
SPLINE
  5
5A7
330
1F
100
AcDbEntity
  8
Livello 1
100
AcDbSpline
210
0.0
220
0.0
230
1.0
 70
     9
 71
     3
 72
    23
 73
    19
 74
     0
 42
0.000000001
 43
0.0000000001
 40
0.0
 40
0.0
 40
0.0
 40
0.0
 40
1.0
 40
1.0
 40
1.0
 40
2.0
 40
2.0
 40
2.0
 40
3.0
 40
3.0
 40
3.0
 40
4.0
 40
4.0
 40
4.0
 40
5.0
 40
5.0
 40
5.0
 40
6.0
 40
6.0
 40
6.0
 40
6.0
 10
1.715124243072409
 20
5.737377514223254
 30
0.0
 10
1.686196206919703
 20
5.737377514223254
 30
0.0
 10
1.662559622113889
 20
5.761008716067408
 30
0.0
 10
1.662559622113889
 20
5.789936752220114
 30
0.0
 10
1.662559622113889
 20
5.789936752220114
 30
0.0
 10
1.662559622113889
 20
5.899652277501928
 30
0.0
 10
1.662559622113889
 20
5.899652277501928
 30
0.0
 10
1.662559622113889
 20
5.928580313654634
 30
0.0
 10
1.686196206919703
 20
5.952211515498774
 30
0.0
 10
1.715124243072409
 20
5.952211515498774
 30
0.0
 10
1.7440509334847
 20
5.952211515498774
 30
0.0
 10
1.767687518290543
 20
5.928580313654634
 30
0.0
 10
1.767687518290543
 20
5.899652277501928
 30
0.0
 10
1.767687518290543
 20
5.899652277501928
 30
0.0
 10
1.767687518290543
 20
5.789936752220114
 30
0.0
 10
1.767687518290543
 20
5.789936752220114
 30
0.0
 10
1.767687518290543
 20
5.761008716067408
 30
0.0
 10
1.7440509334847
 20
5.737377514223254
 30
0.0
 10
1.715124243072409
 20
5.737377514223254
 30
0.0
  0
SPLINE
  5
5A8
330
1F
100
AcDbEntity
  8
Livello 1
100
AcDbSpline
210
0.0
220
0.0
230
1.0
 70
     9
 71
     3
 72
    23
 73
    19
 74
     0
 42
0.000000001
 43
0.0000000001
 40
0.0
 40
0.0
 40
0.0
 40
0.0
 40
1.0
 40
1.0
 40
1.0
 40
2.0
 40
2.0
 40
2.0
 40
3.0
 40
3.0
 40
3.0
 40
4.0
 40
4.0
 40
4.0
 40
5.0
 40
5.0
 40
5.0
 40
6.0
 40
6.0
 40
6.0
 40
6.0
 10
1.620933179321013
 20
3.564545025752806
 30
0.0
 10
1.592005143168307
 20
3.564545025752806
 30
0.0
 10
1.568368558362479
 20
3.588176227596932
 30
0.0
 10
1.568368558362479
 20
3.617104263749638
 30
0.0
 10
1.568368558362479
 20
3.617104263749638
 30
0.0
 10
1.568368558362479
 20
3.951536907980269
 30
0.0
 10
1.568368558362479
 20
3.951536907980269
 30
0.0
 10
1.568368558362479
 20
3.980464944132975
 30
0.0
 10
1.592005143168307
 20
4.004096145977115
 30
0.0
 10
1.620933179321013
 20
4.004096145977115
 30
0.0
 10
1.649859869733319
 20
4.004096145977115
 30
0.0
 10
1.673496454539119
 20
3.980464944132975
 30
0.0
 10
1.673496454539119
 20
3.951536907980269
 30
0.0
 10
1.673496454539119
 20
3.951536907980269
 30
0.0
 10
1.673496454539119
 20
3.617104263749638
 30
0.0
 10
1.673496454539119
 20
3.617104263749638
 30
0.0
 10
1.673496454539119
 20
3.588176227596932
 30
0.0
 10
1.649859869733319
 20
3.564545025752806
 30
0.0
 10
1.620933179321013
 20
3.564545025752806
 30
0.0
  0
SPLINE
  5
5A9
330
1F
100
AcDbEntity
  8
Livello 1
100
AcDbSpline
210
0.0
220
0.0
230
1.0
 70
     9
 71
     3
 72
    71
 73
    67
 74
     0
 42
0.000000001
 43
0.0000000001
 40
0.0
 40
0.0
 40
0.0
 40
0.0
 40
1.0
 40
1.0
 40
1.0
 40
2.0
 40
2.0
 40
2.0
 40
3.0
 40
3.0
 40
3.0
 40
4.0
 40
4.0
 40
4.0
 40
5.0
 40
5.0
 40
5.0
 40
6.0
 40
6.0
 40
6.0
 40
7.0
 40
7.0
 40
7.0
 40
8.0
 40
8.0
 40
8.0
 40
9.0
 40
9.0
 40
9.0
 40
10.0
 40
10.0
 40
10.0
 40
11.0
 40
11.0
 40
11.0
 40
12.0
 40
12.0
 40
12.0
 40
13.0
 40
13.0
 40
13.0
 40
14.0
 40
14.0
 40
14.0
 40
15.0
 40
15.0
 40
15.0
 40
16.0
 40
16.0
 40
16.0
 40
17.0
 40
17.0
 40
17.0
 40
18.0
 40
18.0
 40
18.0
 40
19.0
 40
19.0
 40
19.0
 40
20.0
 40
20.0
 40
20.0
 40
21.0
 40
21.0
 40
21.0
 40
22.0
 40
22.0
 40
22.0
 40
22.0
 10
9.276950035825763
 20
1.985227127927146
 30
0.0
 10
9.276950035825763
 20
1.985227127927146
 30
0.0
 10
1.040648562783815
 20
1.985227127927146
 30
0.0
 10
1.040648562783815
 20
1.985227127927146
 30
0.0
 10
1.011367942640049
 20
1.985227127927146
 30
0.0
 10
0.9880839418252662
 20
2.008869095694677
 30
0.0
 10
0.9880839418252662
 20
2.037786365923992
 30
0.0
 10
0.9880839418252662
 20
2.066714402076712
 30
0.0
 10
1.011367942640049
 20
2.090001094372311
 30
0.0
 10
1.040648562783815
 20
2.090001094372311
 30
0.0
 10
1.040648562783815
 20
2.090001094372311
 30
0.0
 10
8.700157615688709
 20
2.090001094372311
 30
0.0
 10
8.700157615688709
 20
2.090001094372311
 30
0.0
 10
8.694513580350744
 20
2.091411430336577
 30
0.0
 10
8.689574712994954
 20
2.09353231724468
 30
0.0
 10
8.684635845639135
 20
2.09635298917324
 30
0.0
 10
8.684635845639135
 20
2.09635298917324
 30
0.0
 10
1.040648562783815
 20
2.09635298917324
 30
0.0
 10
1.040648562783815
 20
2.09635298917324
 30
0.0
 10
1.011367942640049
 20
2.09635298917324
 30
0.0
 10
0.9880839418252662
 20
2.119984191017366
 30
0.0
 10
0.9880839418252662
 20
2.148912227170072
 30
0.0
 10
0.9880839418252662
 20
2.178195538794696
 30
0.0
 10
1.011367942640049
 20
2.201482231090309
 30
0.0
 10
1.040648562783815
 20
2.201482231090309
 30
0.0
 10
1.040648562783815
 20
2.201482231090309
 30
0.0
 10
1.560642662588705
 20
2.201482231090309
 30
0.0
 10
1.560642662588705
 20
2.201482231090309
 30
0.0
 10
1.560642662588705
 20
2.201482231090309
 30
0.0
 10
1.560642662588705
 20
3.603420775119161
 30
0.0
 10
1.560642662588705
 20
3.603420775119161
 30
0.0
 10
1.560642662588705
 20
3.632348811271882
 30
0.0
 10
1.583925317663059
 20
3.655980013116007
 30
0.0
 10
1.613205937806839
 20
3.655980013116007
 30
0.0
 10
1.613205937806839
 20
3.655980013116007
 30
0.0
 10
8.712153545827561
 20
3.655980013116007
 30
0.0
 10
8.712153545827561
 20
3.655980013116007
 30
0.0
 10
8.741434165971327
 20
3.655980013116007
 30
0.0
 10
8.764718166786096
 20
3.632348811271882
 30
0.0
 10
8.764718166786096
 20
3.603420775119161
 30
0.0
 10
8.764718166786096
 20
3.603420775119161
 30
0.0
 10
8.764718166786096
 20
2.201482231090309
 30
0.0
 10
8.764718166786096
 20
2.201482231090309
 30
0.0
 10
8.764718166786096
 20
2.201482231090309
 30
0.0
 10
9.276950035825763
 20
2.201482231090309
 30
0.0
 10
9.276950035825763
 20
2.201482231090309
 30
0.0
 10
9.305878071978483
 20
2.201482231090309
 30
0.0
 10
9.32951465678434
 20
2.178195538794696
 30
0.0
 10
9.32951465678434
 20
2.148912227170072
 30
0.0
 10
9.32951465678434
 20
2.119984191017366
 30
0.0
 10
9.305878071978483
 20
2.09635298917324
 30
0.0
 10
9.276950035825763
 20
2.09635298917324
 30
0.0
 10
9.276950035825763
 20
2.09635298917324
 30
0.0
 10
8.740023830007061
 20
2.09635298917324
 30
0.0
 10
8.740023830007061
 20
2.09635298917324
 30
0.0
 10
8.735084962651257
 20
2.09353231724468
 30
0.0
 10
8.730146095295467
 20
2.091411430336577
 30
0.0
 10
8.724499368476656
 20
2.090001094372311
 30
0.0
 10
8.724499368476656
 20
2.090001094372311
 30
0.0
 10
9.276950035825763
 20
2.090001094372311
 30
0.0
 10
9.276950035825763
 20
2.090001094372311
 30
0.0
 10
9.305878071978483
 20
2.090001094372311
 30
0.0
 10
9.32951465678434
 20
2.066714402076712
 30
0.0
 10
9.32951465678434
 20
2.037786365923992
 30
0.0
 10
9.32951465678434
 20
2.008869095694677
 30
0.0
 10
9.305878071978483
 20
1.985227127927146
 30
0.0
 10
9.276950035825763
 20
1.985227127927146
 30
0.0
  0
POLYLINE
  5
5AA
330
1F
100
AcDbEntity
  8
Livello 1
100
AcDb2dPolyline
 66
     1
 10
0.0
 20
0.0
 30
0.0
  0
VERTEX
  5
5AB
330
5AA
100
AcDbEntity
  8
Livello 1
100
AcDbVertex
100
AcDb2dVertex
 10
1.665770558765387
 20
2.201482231090309
 30
0.0
  0
VERTEX
  5
5AC
330
5AA
100
AcDbEntity
  8
Livello 1
100
AcDbVertex
100
AcDb2dVertex
 10
8.659941508860114
 20
2.201482231090309
 30
0.0
  0
VERTEX
  5
5AD
330
5AA
100
AcDbEntity
  8
Livello 1
100
AcDbVertex
100
AcDb2dVertex
 10
8.659941508860114
 20
3.550850771198938
 30
0.0
  0
VERTEX
  5
5AE
330
5AA
100
AcDbEntity
  8
Livello 1
100
AcDbVertex
100
AcDb2dVertex
 10
1.665770558765387
 20
3.550850771198938
 30
0.0
  0
VERTEX
  5
5AF
330
5AA
100
AcDbEntity
  8
Livello 1
100
AcDbVertex
100
AcDb2dVertex
 10
1.665770558765387
 20
2.201482231090309
 30
0.0
  0
SEQEND
  5
5B0
330
5AA
100
AcDbEntity
  8
Livello 1
  0
SPLINE
  5
5B1
330
1F
100
AcDbEntity
  8
Livello 1
100
AcDbSpline
210
0.0
220
0.0
230
1.0
 70
     9
 71
     3
 72
    98
 73
    94
 74
     0
 42
0.000000001
 43
0.0000000001
 40
0.0
 40
0.0
 40
0.0
 40
0.0
 40
1.0
 40
1.0
 40
1.0
 40
2.0
 40
2.0
 40
2.0
 40
3.0
 40
3.0
 40
3.0
 40
4.0
 40
4.0
 40
4.0
 40
5.0
 40
5.0
 40
5.0
 40
6.0
 40
6.0
 40
6.0
 40
7.0
 40
7.0
 40
7.0
 40
8.0
 40
8.0
 40
8.0
 40
9.0
 40
9.0
 40
9.0
 40
10.0
 40
10.0
 40
10.0
 40
11.0
 40
11.0
 40
11.0
 40
12.0
 40
12.0
 40
12.0
 40
13.0
 40
13.0
 40
13.0
 40
14.0
 40
14.0
 40
14.0
 40
15.0
 40
15.0
 40
15.0
 40
16.0
 40
16.0
 40
16.0
 40
17.0
 40
17.0
 40
17.0
 40
18.0
 40
18.0
 40
18.0
 40
19.0
 40
19.0
 40
19.0
 40
20.0
 40
20.0
 40
20.0
 40
21.0
 40
21.0
 40
21.0
 40
22.0
 40
22.0
 40
22.0
 40
23.0
 40
23.0
 40
23.0
 40
24.0
 40
24.0
 40
24.0
 40
25.0
 40
25.0
 40
25.0
 40
26.0
 40
26.0
 40
26.0
 40
27.0
 40
27.0
 40
27.0
 40
28.0
 40
28.0
 40
28.0
 40
29.0
 40
29.0
 40
29.0
 40
30.0
 40
30.0
 40
30.0
 40
31.0
 40
31.0
 40
31.0
 40
31.0
 10
2.750562494308908
 20
3.899042265523775
 30
0.0
 10
2.750562494308908
 20
3.899042265523775
 30
0.0
 10
2.750208564577448
 20
3.899042265523775
 30
0.0
 10
2.750208564577448
 20
3.899042265523775
 30
0.0
 10
2.750208564577448
 20
3.899042265523775
 30
0.0
 10
2.327228891933344
 20
3.899042265523775
 30
0.0
 10
2.327228891933344
 20
3.899042265523775
 30
0.0
 10
2.327228891933344
 20
3.899042265523775
 30
0.0
 10
2.326876307942256
 20
3.899042265523775
 30
0.0
 10
2.326876307942256
 20
3.899042265523775
 30
0.0
 10
2.326876307942256
 20
3.899042265523775
 30
0.0
 10
2.045006938929759
 20
3.899042265523775
 30
0.0
 10
2.045006938929759
 20
3.899042265523775
 30
0.0
 10
2.045006938929759
 20
3.899042265523775
 30
0.0
 10
2.044300425207197
 20
3.899042265523775
 30
0.0
 10
2.044300425207197
 20
3.899042265523775
 30
0.0
 10
2.044300425207197
 20
3.899042265523775
 30
0.0
 10
1.620966822831604
 20
3.899042265523775
 30
0.0
 10
1.620966822831604
 20
3.899042265523775
 30
0.0
 10
1.591687548428268
 20
3.899042265523775
 30
0.0
 10
1.568403547613485
 20
3.922684233291306
 30
0.0
 10
1.568403547613485
 20
3.951612269444012
 30
0.0
 10
1.568403547613485
 20
3.980540305596719
 30
0.0
 10
1.591687548428268
 20
4.004171507440858
 30
0.0
 10
1.620966822831604
 20
4.004171507440858
 30
0.0
 10
1.620966822831604
 20
4.004171507440858
 30
0.0
 10
1.993147485953343
 20
4.004171507440858
 30
0.0
 10
1.993147485953343
 20
4.004171507440858
 30
0.0
 10
1.993147485953343
 20
4.004171507440858
 30
0.0
 10
2.023487203810759
 20
5.994543126273754
 30
0.0
 10
2.023487203810759
 20
5.994543126273754
 30
0.0
 10
2.023839787801833
 20
6.023826437898392
 30
0.0
 10
2.04606469090298
 20
6.04640257925017
 30
0.0
 10
2.076756992751441
 20
6.04640257925017
 30
0.0
 10
2.106036267154763
 20
6.04570279422974
 30
0.0
 10
2.128967683978501
 20
6.022060826462208
 30
0.0
 10
2.128615099987413
 20
5.993132790309502
 30
0.0
 10
2.128615099987413
 20
5.993132790309502
 30
0.0
 10
2.097922798138938
 20
4.004171507440858
 30
0.0
 10
2.097922798138938
 20
4.004171507440858
 30
0.0
 10
2.097922798138938
 20
4.004171507440858
 30
0.0
 10
2.275723368688403
 20
4.004171507440858
 30
0.0
 10
2.275723368688403
 20
4.004171507440858
 30
0.0
 10
2.275723368688403
 20
4.004171507440858
 30
0.0
 10
2.321583510854992
 20
6.057696032887761
 30
0.0
 10
2.321583510854992
 20
6.057696032887761
 30
0.0
 10
2.321937440586467
 20
6.086268793568564
 30
0.0
 10
2.345572679651894
 20
6.109200210392245
 30
0.0
 10
2.373795547822453
 20
6.109200210392245
 30
0.0
 10
2.373795547822453
 20
6.109200210392245
 30
0.0
 10
2.37485329979566
 20
6.109200210392245
 30
0.0
 10
2.37485329979566
 20
6.109200210392245
 30
0.0
 10
2.404133919939425
 20
6.108489659448423
 30
0.0
 10
2.427065336763106
 20
6.084503182132365
 30
0.0
 10
2.426358823040558
 20
6.055575145979659
 30
0.0
 10
2.426358823040558
 20
6.055575145979659
 30
0.0
 10
2.380851264865114
 20
4.004171507440858
 30
0.0
 10
2.380851264865114
 20
4.004171507440858
 30
0.0
 10
2.380851264865114
 20
4.004171507440858
 30
0.0
 10
2.699056971064024
 20
4.004171507440858
 30
0.0
 10
2.699056971064024
 20
4.004171507440858
 30
0.0
 10
2.699056971064024
 20
4.004171507440858
 30
0.0
 10
2.745269697221615
 20
6.136362635108767
 30
0.0
 10
2.745269697221615
 20
6.136362635108767
 30
0.0
 10
2.745976210944178
 20
6.165290671261473
 30
0.0
 10
2.769964034000665
 20
6.186101201177052
 30
0.0
 10
2.798892070153385
 20
6.187511537141332
 30
0.0
 10
2.827820106306077
 20
6.186811752120888
 30
0.0
 10
2.850750177389357
 20
6.163169784353371
 30
0.0
 10
2.85004500940721
 20
6.133897238652124
 30
0.0
 10
2.85004500940721
 20
6.133897238652124
 30
0.0
 10
2.803125769527028
 20
3.95055720895165
 30
0.0
 10
2.803125769527028
 20
3.95055720895165
 30
0.0
 10
2.803125769527028
 20
3.943850038678803
 30
0.0
 10
2.801361503831273
 20
3.93714286840597
 30
0.0
 10
2.798892070153385
 20
3.931146249076945
 30
0.0
 10
2.798892070153385
 20
3.931146249076945
 30
0.0
 10
2.798892070153385
 20
3.930801739528419
 30
0.0
 10
2.798892070153385
 20
3.930801739528419
 30
0.0
 10
2.798892070153385
 20
3.930801739528419
 30
0.0
 10
2.798539486162297
 20
3.930446464056501
 30
0.0
 10
2.798539486162297
 20
3.930446464056501
 30
0.0
 10
2.796070052484395
 20
3.924805120199422
 30
0.0
 10
2.792542866833301
 20
3.919508285890856
 30
0.0
 10
2.787956583468556
 20
3.914922002526097
 30
0.0
 10
2.782665132121678
 20
3.909280658669004
 30
0.0
 10
2.775961999070105
 20
3.905049650776177
 30
0.0
 10
2.768553698036384
 20
3.902218212924239
 30
0.0
 10
2.768553698036384
 20
3.902218212924239
 30
0.0
 10
2.768201114045325
 20
3.902218212924239
 30
0.0
 10
2.768201114045325
 20
3.902218212924239
 30
0.0
 10
2.762909662698461
 20
3.900108091939529
 30
0.0
 10
2.756911697629035
 20
3.899042265523775
 30
0.0
 10
2.750562494308908
 20
3.899042265523775
 30
0.0
  0
SPLINE
  5
5B2
330
1F
100
AcDbEntity
  8
Livello 1
100
AcDbSpline
210
0.0
220
0.0
230
1.0
 70
     9
 71
     3
 72
    23
 73
    19
 74
     0
 42
0.000000001
 43
0.0000000001
 40
0.0
 40
0.0
 40
0.0
 40
0.0
 40
1.0
 40
1.0
 40
1.0
 40
2.0
 40
2.0
 40
2.0
 40
3.0
 40
3.0
 40
3.0
 40
4.0
 40
4.0
 40
4.0
 40
5.0
 40
5.0
 40
5.0
 40
6.0
 40
6.0
 40
6.0
 40
6.0
 10
8.696631775777987
 20
3.899042265523775
 30
0.0
 10
8.696631775777987
 20
3.899042265523775
 30
0.0
 10
7.567037450041098
 20
3.899042265523775
 30
0.0
 10
7.567037450041098
 20
3.899042265523775
 30
0.0
 10
7.53810941388842
 20
3.899042265523775
 30
0.0
 10
7.514472829082563
 20
3.922684233291306
 30
0.0
 10
7.514472829082563
 20
3.951612269444012
 30
0.0
 10
7.514472829082563
 20
3.980540305596719
 30
0.0
 10
7.53810941388842
 20
4.004171507440858
 30
0.0
 10
7.567037450041098
 20
4.004171507440858
 30
0.0
 10
7.567037450041098
 20
4.004171507440858
 30
0.0
 10
8.696631775777987
 20
4.004171507440858
 30
0.0
 10
8.696631775777987
 20
4.004171507440858
 30
0.0
 10
8.725559811930693
 20
4.004171507440858
 30
0.0
 10
8.749193705255692
 20
3.980540305596719
 30
0.0
 10
8.749193705255692
 20
3.951612269444012
 30
0.0
 10
8.749193705255692
 20
3.922684233291306
 30
0.0
 10
8.725559811930693
 20
3.899042265523775
 30
0.0
 10
8.696631775777987
 20
3.899042265523775
 30
0.0
  0
SPLINE
  5
5B3
330
1F
100
AcDbEntity
  8
Livello 1
100
AcDbSpline
210
0.0
220
0.0
230
1.0
 70
     9
 71
     3
 72
    41
 73
    37
 74
     0
 42
0.000000001
 43
0.0000000001
 40
0.0
 40
0.0
 40
0.0
 40
0.0
 40
1.0
 40
1.0
 40
1.0
 40
2.0
 40
2.0
 40
2.0
 40
3.0
 40
3.0
 40
3.0
 40
4.0
 40
4.0
 40
4.0
 40
5.0
 40
5.0
 40
5.0
 40
6.0
 40
6.0
 40
6.0
 40
7.0
 40
7.0
 40
7.0
 40
8.0
 40
8.0
 40
8.0
 40
9.0
 40
9.0
 40
9.0
 40
10.0
 40
10.0
 40
10.0
 40
11.0
 40
11.0
 40
11.0
 40
12.0
 40
12.0
 40
12.0
 40
12.0
 10
1.856270881695465
 20
5.737377514223254
 30
0.0
 10
1.856270881695465
 20
5.737377514223254
 30
0.0
 10
1.840747765905447
 20
5.737377514223254
 30
0.0
 10
1.840747765905447
 20
5.737377514223254
 30
0.0
 10
1.8379257482365
 20
5.737377514223254
 30
0.0
 10
1.835103730567553
 20
5.737722023771794
 30
0.0
 10
1.832634296889608
 20
5.738077299243713
 30
0.0
 10
1.830164863211706
 20
5.737722023771794
 30
0.0
 10
1.827695429533818
 20
5.737377514223254
 30
0.0
 10
1.824873411864828
 20
5.737377514223254
 30
0.0
 10
1.824873411864828
 20
5.737377514223254
 30
0.0
 10
1.809350296074839
 20
5.737377514223254
 30
0.0
 10
1.809350296074839
 20
5.737377514223254
 30
0.0
 10
1.780423605662576
 20
5.737377514223254
 30
0.0
 10
1.756787020856734
 20
5.761008716067408
 30
0.0
 10
1.756787020856734
 20
5.789936752220114
 30
0.0
 10
1.756787020856734
 20
5.81886478837282
 30
0.0
 10
1.780423605662576
 20
5.842495990216932
 30
0.0
 10
1.809350296074839
 20
5.842495990216932
 30
0.0
 10
1.809350296074839
 20
5.842495990216932
 30
0.0
 10
1.824873411864828
 20
5.842495990216932
 30
0.0
 10
1.824873411864828
 20
5.842495990216932
 30
0.0
 10
1.827695429533818
 20
5.842495990216932
 30
0.0
 10
1.830164863211706
 20
5.84215148066842
 30
0.0
 10
1.832634296889608
 20
5.841796205196502
 30
0.0
 10
1.835103730567553
 20
5.84215148066842
 30
0.0
 10
1.8379257482365
 20
5.842495990216932
 30
0.0
 10
1.840747765905447
 20
5.842495990216932
 30
0.0
 10
1.840747765905447
 20
5.842495990216932
 30
0.0
 10
1.856270881695465
 20
5.842495990216932
 30
0.0
 10
1.856270881695465
 20
5.842495990216932
 30
0.0
 10
1.885197572107756
 20
5.842495990216932
 30
0.0
 10
1.90883415691357
 20
5.81886478837282
 30
0.0
 10
1.90883415691357
 20
5.789936752220114
 30
0.0
 10
1.90883415691357
 20
5.761008716067408
 30
0.0
 10
1.885197572107756
 20
5.737377514223254
 30
0.0
 10
1.856270881695465
 20
5.737377514223254
 30
0.0
  0
POLYLINE
  5
5B4
330
1F
100
AcDbEntity
  8
Livello 1
100
AcDb2dPolyline
 66
     1
 10
0.0
 20
0.0
 30
0.0
  0
VERTEX
  5
5B5
330
5B4
100
AcDbEntity
  8
Livello 1
100
AcDbVertex
100
AcDb2dVertex
 10
8.571114566438467
 20
3.96749200644632
 30
0.0
  0
VERTEX
  5
5B6
330
5B4
100
AcDbEntity
  8
Livello 1
100
AcDbVertex
100
AcDb2dVertex
 10
8.476920811206198
 20
3.96749200644632
 30
0.0
  0
VERTEX
  5
5B7
330
5B4
100
AcDbEntity
  8
Livello 1
100
AcDbVertex
100
AcDb2dVertex
 10
8.696701754280056
 20
3.96749200644632
 30
0.0
  0
SEQEND
  5
5B8
330
5B4
100
AcDbEntity
  8
Livello 1
  0
SPLINE
  5
5B9
330
1F
100
AcDbEntity
  8
Livello 1
100
AcDbSpline
210
0.0
220
0.0
230
1.0
 70
     9
 71
     3
 72
    23
 73
    19
 74
     0
 42
0.000000001
 43
0.0000000001
 40
0.0
 40
0.0
 40
0.0
 40
0.0
 40
1.0
 40
1.0
 40
1.0
 40
2.0
 40
2.0
 40
2.0
 40
3.0
 40
3.0
 40
3.0
 40
4.0
 40
4.0
 40
4.0
 40
5.0
 40
5.0
 40
5.0
 40
6.0
 40
6.0
 40
6.0
 40
6.0
 10
8.571184544940493
 20
3.993157967811441
 30
0.0
 10
8.571184544940493
 20
3.993157967811441
 30
0.0
 10
8.476990789708253
 20
3.993157967811441
 30
0.0
 10
8.476990789708253
 20
3.993157967811441
 30
0.0
 10
8.448062753555547
 20
3.993157967811441
 30
0.0
 10
8.424428860230534
 20
4.016799935578973
 30
0.0
 10
8.424428860230534
 20
4.045727971731679
 30
0.0
 10
8.424428860230534
 20
4.074656007884385
 30
0.0
 10
8.448062753555547
 20
4.098287209728525
 30
0.0
 10
8.476990789708253
 20
4.098287209728525
 30
0.0
 10
8.476990789708253
 20
4.098287209728525
 30
0.0
 10
8.571184544940493
 20
4.098287209728525
 30
0.0
 10
8.571184544940493
 20
4.098287209728525
 30
0.0
 10
8.600109889612355
 20
4.098287209728525
 30
0.0
 10
8.623746474418183
 20
4.074656007884385
 30
0.0
 10
8.623746474418183
 20
4.045727971731679
 30
0.0
 10
8.623746474418183
 20
4.016799935578973
 30
0.0
 10
8.600109889612355
 20
3.993157967811441
 30
0.0
 10
8.571184544940493
 20
3.993157967811441
 30
0.0
  0
SPLINE
  5
5BA
330
1F
100
AcDbEntity
  8
Livello 1
100
AcDbSpline
210
0.0
220
0.0
230
1.0
 70
     9
 71
     3
 72
    23
 73
    19
 74
     0
 42
0.000000001
 43
0.0000000001
 40
0.0
 40
0.0
 40
0.0
 40
0.0
 40
1.0
 40
1.0
 40
1.0
 40
2.0
 40
2.0
 40
2.0
 40
3.0
 40
3.0
 40
3.0
 40
4.0
 40
4.0
 40
4.0
 40
5.0
 40
5.0
 40
5.0
 40
6.0
 40
6.0
 40
6.0
 40
6.0
 10
8.571184544940493
 20
4.44824431548956
 30
0.0
 10
8.571184544940493
 20
4.44824431548956
 30
0.0
 10
8.461116435667605
 20
4.44824431548956
 30
0.0
 10
8.461116435667605
 20
4.44824431548956
 30
0.0
 10
8.432188399514899
 20
4.44824431548956
 30
0.0
 10
8.408904398700144
 20
4.471531007785173
 30
0.0
 10
8.408904398700144
 20
4.500803553486392
 30
0.0
 10
8.408904398700144
 20
4.529731589639112
 30
0.0
 10
8.432188399514899
 20
4.553018281934726
 30
0.0
 10
8.461116435667605
 20
4.553018281934726
 30
0.0
 10
8.461116435667605
 20
4.553018281934726
 30
0.0
 10
8.571184544940493
 20
4.553018281934726
 30
0.0
 10
8.571184544940493
 20
4.553018281934726
 30
0.0
 10
8.600109889612355
 20
4.553018281934726
 30
0.0
 10
8.623746474418183
 20
4.529731589639112
 30
0.0
 10
8.623746474418183
 20
4.500803553486392
 30
0.0
 10
8.623746474418183
 20
4.471531007785173
 30
0.0
 10
8.600109889612355
 20
4.44824431548956
 30
0.0
 10
8.571184544940493
 20
4.44824431548956
 30
0.0
  0
SPLINE
  5
5BB
330
1F
100
AcDbEntity
  8
Livello 1
100
AcDbSpline
210
0.0
220
0.0
230
1.0
 70
     9
 71
     3
 72
    23
 73
    19
 74
     0
 42
0.000000001
 43
0.0000000001
 40
0.0
 40
0.0
 40
0.0
 40
0.0
 40
1.0
 40
1.0
 40
1.0
 40
2.0
 40
2.0
 40
2.0
 40
3.0
 40
3.0
 40
3.0
 40
4.0
 40
4.0
 40
4.0
 40
5.0
 40
5.0
 40
5.0
 40
6.0
 40
6.0
 40
6.0
 40
6.0
 10
7.519906928914394
 20
4.620757471913449
 30
0.0
 10
7.519906928914394
 20
4.620757471913449
 30
0.0
 10
2.797623036933615
 20
4.620757471913449
 30
0.0
 10
2.797623036933615
 20
4.620757471913449
 30
0.0
 10
2.768695000780908
 20
4.620757471913449
 30
0.0
 10
2.745412345706569
 20
4.644388673757575
 30
0.0
 10
2.745412345706569
 20
4.673316709910281
 30
0.0
 10
2.745412345706569
 20
4.702244746063001
 30
0.0
 10
2.768695000780908
 20
4.725875947907113
 30
0.0
 10
2.797623036933615
 20
4.725875947907113
 30
0.0
 10
2.797623036933615
 20
4.725875947907113
 30
0.0
 10
7.519906928914394
 20
4.725875947907113
 30
0.0
 10
7.519906928914394
 20
4.725875947907113
 30
0.0
 10
7.548833619326671
 20
4.725875947907113
 30
0.0
 10
7.5724702041325
 20
4.702244746063001
 30
0.0
 10
7.5724702041325
 20
4.673316709910281
 30
0.0
 10
7.5724702041325
 20
4.644388673757575
 30
0.0
 10
7.548833619326671
 20
4.620757471913449
 30
0.0
 10
7.519906928914394
 20
4.620757471913449
 30
0.0
  0
SPLINE
  5
5BC
330
1F
100
AcDbEntity
  8
Livello 1
100
AcDbSpline
210
0.0
220
0.0
230
1.0
 70
     9
 71
     3
 72
    23
 73
    19
 74
     0
 42
0.000000001
 43
0.0000000001
 40
0.0
 40
0.0
 40
0.0
 40
0.0
 40
1.0
 40
1.0
 40
1.0
 40
2.0
 40
2.0
 40
2.0
 40
3.0
 40
3.0
 40
3.0
 40
4.0
 40
4.0
 40
4.0
 40
5.0
 40
5.0
 40
5.0
 40
6.0
 40
6.0
 40
6.0
 40
6.0
 10
1.872075257234016
 20
5.737377514223254
 30
0.0
 10
1.872075257234016
 20
5.737377514223254
 30
0.0
 10
1.620896844329564
 20
5.737377514223254
 30
0.0
 10
1.620896844329564
 20
5.737377514223254
 30
0.0
 10
1.591968808176858
 20
5.737377514223254
 30
0.0
 10
1.568333569111459
 20
5.761008716067408
 30
0.0
 10
1.568333569111459
 20
5.789936752220114
 30
0.0
 10
1.568333569111459
 20
5.81886478837282
 30
0.0
 10
1.591968808176858
 20
5.842495990216932
 30
0.0
 10
1.620896844329564
 20
5.842495990216932
 30
0.0
 10
1.620896844329564
 20
5.842495990216932
 30
0.0
 10
1.872075257234016
 20
5.842495990216932
 30
0.0
 10
1.872075257234016
 20
5.842495990216932
 30
0.0
 10
1.901001947646335
 20
5.842495990216932
 30
0.0
 10
1.924638532452135
 20
5.81886478837282
 30
0.0
 10
1.924638532452135
 20
5.789936752220114
 30
0.0
 10
1.924638532452135
 20
5.761008716067408
 30
0.0
 10
1.901001947646335
 20
5.737377514223254
 30
0.0
 10
1.872075257234016
 20
5.737377514223254
 30
0.0
  0
POLYLINE
  5
5BD
330
1F
100
AcDbEntity
  8
Livello 1
100
AcDb2dPolyline
 66
     1
 10
0.0
 20
0.0
 30
0.0
  0
VERTEX
  5
5BE
330
5BD
100
AcDbEntity
  8
Livello 1
100
AcDbVertex
100
AcDb2dVertex
 10
8.696561797275961
 20
5.789872156679763
 30
0.0
  0
VERTEX
  5
5BF
330
5BD
100
AcDbEntity
  8
Livello 1
100
AcDbVertex
100
AcDb2dVertex
 10
8.445734622622126
 20
5.789872156679763
 30
0.0
  0
VERTEX
  5
5C0
330
5BD
100
AcDbEntity
  8
Livello 1
100
AcDbVertex
100
AcDb2dVertex
 10
8.602368042043707
 20
5.789872156679763
 30
0.0
  0
SEQEND
  5
5C1
330
5BD
100
AcDbEntity
  8
Livello 1
  0
SPLINE
  5
5C2
330
1F
100
AcDbEntity
  8
Livello 1
100
AcDbSpline
210
0.0
220
0.0
230
1.0
 70
     9
 71
     3
 72
    59
 73
    55
 74
     0
 42
0.000000001
 43
0.0000000001
 40
0.0
 40
0.0
 40
0.0
 40
0.0
 40
1.0
 40
1.0
 40
1.0
 40
2.0
 40
2.0
 40
2.0
 40
3.0
 40
3.0
 40
3.0
 40
4.0
 40
4.0
 40
4.0
 40
5.0
 40
5.0
 40
5.0
 40
6.0
 40
6.0
 40
6.0
 40
7.0
 40
7.0
 40
7.0
 40
8.0
 40
8.0
 40
8.0
 40
9.0
 40
9.0
 40
9.0
 40
10.0
 40
10.0
 40
10.0
 40
11.0
 40
11.0
 40
11.0
 40
12.0
 40
12.0
 40
12.0
 40
13.0
 40
13.0
 40
13.0
 40
14.0
 40
14.0
 40
14.0
 40
15.0
 40
15.0
 40
15.0
 40
16.0
 40
16.0
 40
16.0
 40
17.0
 40
17.0
 40
17.0
 40
18.0
 40
18.0
 40
18.0
 40
18.0
 10
7.566967471539058
 20
3.899149924757679
 30
0.0
 10
7.538744603368485
 20
3.899149924757679
 30
0.0
 10
7.515461948294159
 20
3.921726066109471
 30
0.0
 10
7.514756780312026
 20
3.950298826790259
 30
0.0
 10
7.514756780312026
 20
3.950298826790259
 30
0.0
 10
7.451609256659736
 20
6.337545445523957
 30
0.0
 10
7.451609256659736
 20
6.337545445523957
 30
0.0
 10
7.451609256659736
 20
6.341421177944866
 30
0.0
 10
7.451961840650824
 20
6.345307676289166
 30
0.0
 10
7.452667008632943
 20
6.349183408710075
 30
0.0
 10
7.452667008632943
 20
6.349183408710075
 30
0.0
 10
3.807061583179887
 20
6.349183408710075
 30
0.0
 10
3.807061583179887
 20
6.349183408710075
 30
0.0
 10
3.807061583179887
 20
6.349183408710075
 30
0.0
 10
1.788467096176376
 20
5.942436057059353
 30
0.0
 10
1.788467096176376
 20
5.942436057059353
 30
0.0
 10
1.760598157737305
 20
5.936794713202274
 30
0.0
 10
1.732375289566746
 20
5.955129080737833
 30
0.0
 10
1.726378670237707
 20
5.983357331870109
 30
0.0
 10
1.72073463489977
 20
6.011930092550898
 30
0.0
 10
1.739078422618305
 20
6.039803068211242
 30
0.0
 10
1.767653874779952
 20
6.045444412068334
 30
0.0
 10
1.767653874779952
 20
6.045444412068334
 30
0.0
 10
3.790480715416677
 20
6.452902314662878
 30
0.0
 10
3.790480715416677
 20
6.452902314662878
 30
0.0
 10
3.79224498111246
 20
6.453257590134782
 30
0.0
 10
3.794361830799275
 20
6.4536128656067
 30
0.0
 10
3.796478680486117
 20
6.453957375155226
 30
0.0
 10
3.798595530172931
 20
6.453957375155226
 30
0.0
 10
3.800005866137212
 20
6.454312650627144
 30
0.0
 10
3.802827883806187
 20
6.453957375155226
 30
0.0
 10
3.802827883806187
 20
6.453957375155226
 30
0.0
 10
8.367065328920304
 20
6.453957375155226
 30
0.0
 10
8.367065328920304
 20
6.453957375155226
 30
0.0
 10
8.395993365072996
 20
6.453957375155226
 30
0.0
 10
8.419629949878824
 20
6.430681448783033
 30
0.0
 10
8.419629949878824
 20
6.401753412630299
 30
0.0
 10
8.419629949878824
 20
6.372470101005689
 30
0.0
 10
8.395993365072996
 20
6.349183408710075
 30
0.0
 10
8.367065328920304
 20
6.349183408710075
 30
0.0
 10
8.367065328920304
 20
6.349183408710075
 30
0.0
 10
7.555678055122754
 20
6.349183408710075
 30
0.0
 10
7.555678055122754
 20
6.349183408710075
 30
0.0
 10
7.556384568845331
 20
6.346362736781529
 30
0.0
 10
7.556737152836376
 20
6.343186789381064
 30
0.0
 10
7.556737152836376
 20
6.340366117452504
 30
0.0
 10
7.556737152836376
 20
6.340366117452504
 30
0.0
 10
7.619530746757178
 20
3.953119498718805
 30
0.0
 10
7.619530746757178
 20
3.953119498718805
 30
0.0
 10
7.620237260479754
 20
3.923836187094181
 30
0.0
 10
7.597305843656059
 20
3.899849709778138
 30
0.0
 10
7.568377807503352
 20
3.899149924757679
 30
0.0
 10
7.568377807503352
 20
3.899149924757679
 30
0.0
 10
7.566967471539058
 20
3.899149924757679
 30
0.0
 10
7.566967471539058
 20
3.899149924757679
 30
0.0
  0
SPLINE
  5
5C3
330
1F
100
AcDbEntity
  8
Livello 1
100
AcDbSpline
210
0.0
220
0.0
230
1.0
 70
     9
 71
     3
 72
    23
 73
    19
 74
     0
 42
0.000000001
 43
0.0000000001
 40
0.0
 40
0.0
 40
0.0
 40
0.0
 40
1.0
 40
1.0
 40
1.0
 40
2.0
 40
2.0
 40
2.0
 40
3.0
 40
3.0
 40
3.0
 40
4.0
 40
4.0
 40
4.0
 40
5.0
 40
5.0
 40
5.0
 40
6.0
 40
6.0
 40
6.0
 40
6.0
 10
1.872075257234016
 20
5.737474407533795
 30
0.0
 10
1.872075257234016
 20
5.737474407533795
 30
0.0
 10
1.715089253821403
 20
5.737474407533795
 30
0.0
 10
1.715089253821403
 20
5.737474407533795
 30
0.0
 10
1.686162563409141
 20
5.737474407533795
 30
0.0
 10
1.662525978603298
 20
5.760750333906003
 30
0.0
 10
1.662525978603298
 20
5.790033645530641
 30
0.0
 10
1.662525978603298
 20
5.818961681683333
 30
0.0
 10
1.686162563409141
 20
5.842248373978947
 30
0.0
 10
1.715089253821403
 20
5.842248373978947
 30
0.0
 10
1.715089253821403
 20
5.842248373978947
 30
0.0
 10
1.872075257234016
 20
5.842248373978947
 30
0.0
 10
1.872075257234016
 20
5.842248373978947
 30
0.0
 10
1.901003293386736
 20
5.842248373978947
 30
0.0
 10
1.924639878192579
 20
5.818961681683333
 30
0.0
 10
1.924639878192579
 20
5.790033645530641
 30
0.0
 10
1.924639878192579
 20
5.760750333906003
 30
0.0
 10
1.901003293386736
 20
5.737474407533795
 30
0.0
 10
1.872075257234016
 20
5.737474407533795
 30
0.0
  0
SPLINE
  5
5C4
330
1F
100
AcDbEntity
  8
Livello 1
100
AcDbSpline
210
0.0
220
0.0
230
1.0
 70
     9
 71
     3
 72
    26
 73
    22
 74
     0
 42
0.000000001
 43
0.0000000001
 40
0.0
 40
0.0
 40
0.0
 40
0.0
 40
1.0
 40
1.0
 40
1.0
 40
2.0
 40
2.0
 40
2.0
 40
3.0
 40
3.0
 40
3.0
 40
4.0
 40
4.0
 40
4.0
 40
5.0
 40
5.0
 40
5.0
 40
6.0
 40
6.0
 40
6.0
 40
7.0
 40
7.0
 40
7.0
 40
7.0
 10
8.524054023813775
 20
5.941380996567019
 30
0.0
 10
8.52123066040437
 20
5.941380996567019
 30
0.0
 10
8.518054713003905
 20
5.941725506115531
 30
0.0
 10
8.515234041075359
 20
5.942080781587449
 30
0.0
 10
8.515234041075359
 20
5.942080781587449
 30
0.0
 10
8.421395561315023
 20
5.957605243117853
 30
0.0
 10
8.421395561315023
 20
5.957605243117853
 30
0.0
 10
8.392467525162317
 20
5.962546801954516
 30
0.0
 10
8.373064639730159
 20
5.989709226671038
 30
0.0
 10
8.378003507085963
 20
6.017926711879908
 30
0.0
 10
8.382942374441768
 20
6.046854748032615
 30
0.0
 10
8.410457383149335
 20
6.066610217455846
 30
0.0
 10
8.438327667328849
 20
6.061324149070671
 30
0.0
 10
8.438327667328849
 20
6.061324149070671
 30
0.0
 10
8.532518731080259
 20
6.045444412068334
 30
0.0
 10
8.532518731080259
 20
6.045444412068334
 30
0.0
 10
8.561094183241905
 20
6.040858128703604
 30
0.0
 10
8.580497068674048
 20
6.013695703987082
 30
0.0
 10
8.575558201318258
 20
5.985122943306294
 30
0.0
 10
8.571324501944573
 20
5.959370854554052
 30
0.0
 10
8.549100944583855
 20
5.941380996567019
 30
0.0
 10
8.524054023813775
 20
5.941380996567019
 30
0.0
  0
POLYLINE
  5
5C5
330
1F
100
AcDbEntity
  8
Livello 1
100
AcDb2dPolyline
 66
     1
 10
0.0
 20
0.0
 30
0.0
  0
VERTEX
  5
5C6
330
5C5
100
AcDbEntity
  8
Livello 1
100
AcDbVertex
100
AcDb2dVertex
 10
8.476993481189097
 20
3.951536907980269
 30
0.0
  0
VERTEX
  5
5C7
330
5C5
100
AcDbEntity
  8
Livello 1
100
AcDbVertex
100
AcDb2dVertex
 10
8.429720311577412
 20
6.338794292637359
 30
0.0
  0
SEQEND
  5
5C8
330
5C5
100
AcDbEntity
  8
Livello 1
  0
POLYLINE
  5
5C9
330
1F
100
AcDbEntity
  8
Livello 1
100
AcDb2dPolyline
 66
     1
 10
0.0
 20
0.0
 30
0.0
  0
VERTEX
  5
5CA
330
5C9
100
AcDbEntity
  8
Livello 1
100
AcDbVertex
100
AcDb2dVertex
 10
8.273086892155859
 20
3.951536907980269
 30
0.0
  0
VERTEX
  5
5CB
330
5C9
100
AcDbEntity
  8
Livello 1
100
AcDbVertex
100
AcDb2dVertex
 10
8.225813722544188
 20
6.338794292637359
 30
0.0
  0
SEQEND
  5
5CC
330
5C9
100
AcDbEntity
  8
Livello 1
  0
POLYLINE
  5
5CD
330
1F
100
AcDbEntity
  8
Livello 1
100
AcDb2dPolyline
 66
     1
 10
0.0
 20
0.0
 30
0.0
  0
VERTEX
  5
5CE
330
5CD
100
AcDbEntity
  8
Livello 1
100
AcDbVertex
100
AcDb2dVertex
 10
7.9905123551612
 20
3.951536907980269
 30
0.0
  0
VERTEX
  5
5CF
330
5CD
100
AcDbEntity
  8
Livello 1
100
AcDbVertex
100
AcDb2dVertex
 10
7.927717415499984
 20
6.338794292637359
 30
0.0
  0
SEQEND
  5
5D0
330
5CD
100
AcDbEntity
  8
Livello 1
  0
POLYLINE
  5
5D1
330
1F
100
AcDbEntity
  8
Livello 1
100
AcDb2dPolyline
 66
     1
 10
0.0
 20
0.0
 30
0.0
  0
VERTEX
  5
5D2
330
5D1
100
AcDbEntity
  8
Livello 1
100
AcDbVertex
100
AcDb2dVertex
 10
8.476993481189097
 20
5.789872156679763
 30
0.0
  0
VERTEX
  5
5D3
330
5D1
100
AcDbEntity
  8
Livello 1
100
AcDbVertex
100
AcDb2dVertex
 10
8.492515251238671
 20
5.789872156679763
 30
0.0
  0
SEQEND
  5
5D4
330
5D1
100
AcDbEntity
  8
Livello 1
  0
POLYLINE
  5
5D5
330
1F
100
AcDbEntity
  8
Livello 1
100
AcDb2dPolyline
 66
     1
 10
0.0
 20
0.0
 30
0.0
  0
VERTEX
  5
5D6
330
5D5
100
AcDbEntity
  8
Livello 1
100
AcDbVertex
100
AcDb2dVertex
 10
8.476993481189097
 20
5.789872156679763
 30
0.0
  0
VERTEX
  5
5D7
330
5D5
100
AcDbEntity
  8
Livello 1
100
AcDbVertex
100
AcDb2dVertex
 10
8.492515251238671
 20
5.789872156679763
 30
0.0
  0
SEQEND
  5
5D8
330
5D5
100
AcDbEntity
  8
Livello 1
  0
POLYLINE
  5
5D9
330
1F
100
AcDbEntity
  8
Livello 1
100
AcDb2dPolyline
 66
     1
 10
0.0
 20
0.0
 30
0.0
  0
VERTEX
  5
5DA
330
5D9
100
AcDbEntity
  8
Livello 1
100
AcDbVertex
100
AcDb2dVertex
 10
8.696561797275961
 20
5.789936752220114
 30
0.0
  0
VERTEX
  5
5DB
330
5D9
100
AcDbEntity
  8
Livello 1
100
AcDbVertex
100
AcDb2dVertex
 10
8.696561797275961
 20
3.967481240522943
 30
0.0
  0
SEQEND
  5
5DC
330
5D9
100
AcDbEntity
  8
Livello 1
  0
POLYLINE
  5
5DD
330
1F
100
AcDbEntity
  8
Livello 1
100
AcDb2dPolyline
 66
     1
 10
0.0
 20
0.0
 30
0.0
  0
VERTEX
  5
5DE
330
5DD
100
AcDbEntity
  8
Livello 1
100
AcDbVertex
100
AcDb2dVertex
 10
8.570971917953528
 20
4.500534405401609
 30
0.0
  0
VERTEX
  5
5DF
330
5DD
100
AcDbEntity
  8
Livello 1
100
AcDbVertex
100
AcDb2dVertex
 10
8.570971917953528
 20
4.045803333195422
 30
0.0
  0
SEQEND
  5
5E0
330
5DD
100
AcDbEntity
  8
Livello 1
  0
POLYLINE
  5
5E1
330
1F
100
AcDbEntity
  8
Livello 1
100
AcDb2dPolyline
 66
     1
 10
0.0
 20
0.0
 30
0.0
  0
VERTEX
  5
5E2
330
5E1
100
AcDbEntity
  8
Livello 1
100
AcDbVertex
100
AcDb2dVertex
 10
8.570971917953528
 20
3.967481240522943
 30
0.0
  0
VERTEX
  5
5E3
330
5E1
100
AcDbEntity
  8
Livello 1
100
AcDbVertex
100
AcDb2dVertex
 10
8.570971917953528
 20
3.951612269444012
 30
0.0
  0
SEQEND
  5
5E4
330
5E1
100
AcDbEntity
  8
Livello 1
  0
POLYLINE
  5
5E5
330
1F
100
AcDbEntity
  8
Livello 1
100
AcDb2dPolyline
 66
     1
 10
0.0
 20
0.0
 30
0.0
  0
VERTEX
  5
5E6
330
5E5
100
AcDbEntity
  8
Livello 1
100
AcDbVertex
100
AcDb2dVertex
 10
8.602368042043707
 20
5.899641511578536
 30
0.0
  0
VERTEX
  5
5E7
330
5E5
100
AcDbEntity
  8
Livello 1
100
AcDbVertex
100
AcDb2dVertex
 10
8.602368042043707
 20
5.789936752220114
 30
0.0
  0
SEQEND
  5
5E8
330
5E5
100
AcDbEntity
  8
Livello 1
  0
POLYLINE
  5
5E9
330
1F
100
AcDbEntity
  8
Livello 1
100
AcDb2dPolyline
 66
     1
 10
0.0
 20
0.0
 30
0.0
  0
VERTEX
  5
5EA
330
5E9
100
AcDbEntity
  8
Livello 1
100
AcDbVertex
100
AcDb2dVertex
 10
8.696561797275961
 20
3.951612269444012
 30
0.0
  0
VERTEX
  5
5EB
330
5E9
100
AcDbEntity
  8
Livello 1
100
AcDbVertex
100
AcDb2dVertex
 10
8.696561797275961
 20
3.697611838870571
 30
0.0
  0
SEQEND
  5
5EC
330
5E9
100
AcDbEntity
  8
Livello 1
  0
POLYLINE
  5
5ED
330
1F
100
AcDbEntity
  8
Livello 1
100
AcDb2dPolyline
 66
     1
 10
0.0
 20
0.0
 30
0.0
  0
VERTEX
  5
5EE
330
5ED
100
AcDbEntity
  8
Livello 1
100
AcDbVertex
100
AcDb2dVertex
 10
8.696561797275961
 20
3.594463526857524
 30
0.0
  0
VERTEX
  5
5EF
330
5ED
100
AcDbEntity
  8
Livello 1
100
AcDbVertex
100
AcDb2dVertex
 10
8.696561797275961
 20
3.650553987726738
 30
0.0
  0
VERTEX
  5
5F0
330
5ED
100
AcDbEntity
  8
Livello 1
100
AcDbVertex
100
AcDb2dVertex
 10
8.696561797275961
 20
3.666067683333764
 30
0.0
  0
VERTEX
  5
5F1
330
5ED
100
AcDbEntity
  8
Livello 1
100
AcDbVertex
100
AcDb2dVertex
 10
8.696561797275961
 20
3.681947420336072
 30
0.0
  0
VERTEX
  5
5F2
330
5ED
100
AcDbEntity
  8
Livello 1
100
AcDbVertex
100
AcDb2dVertex
 10
8.696561797275961
 20
3.697827157338409
 30
0.0
  0
SEQEND
  5
5F3
330
5ED
100
AcDbEntity
  8
Livello 1
  0
POLYLINE
  5
5F4
330
1F
100
AcDbEntity
  8
Livello 1
100
AcDb2dPolyline
 66
     1
 10
0.0
 20
0.0
 30
0.0
  0
VERTEX
  5
5F5
330
5F4
100
AcDbEntity
  8
Livello 1
100
AcDbVertex
100
AcDb2dVertex
 10
9.276950035825763
 20
2.037689472613465
 30
0.0
  0
VERTEX
  5
5F6
330
5F4
100
AcDbEntity
  8
Livello 1
100
AcDbVertex
100
AcDb2dVertex
 10
9.276950035825763
 20
2.149159843408085
 30
0.0
  0
SEQEND
  5
5F7
330
5F4
100
AcDbEntity
  8
Livello 1
  0
SPLINE
  5
5F8
330
1F
100
AcDbEntity
  8
Livello 1
100
AcDbSpline
210
0.0
220
0.0
230
1.0
 70
     9
 71
     3
 72
    23
 73
    19
 74
     0
 42
0.000000001
 43
0.0000000001
 40
0.0
 40
0.0
 40
0.0
 40
0.0
 40
1.0
 40
1.0
 40
1.0
 40
2.0
 40
2.0
 40
2.0
 40
3.0
 40
3.0
 40
3.0
 40
4.0
 40
4.0
 40
4.0
 40
5.0
 40
5.0
 40
5.0
 40
6.0
 40
6.0
 40
6.0
 40
6.0
 10
1.872075257234016
 20
5.737377514223254
 30
0.0
 10
1.872075257234016
 20
5.737377514223254
 30
0.0
 10
1.856199557452981
 20
5.737377514223254
 30
0.0
 10
1.856199557452981
 20
5.737377514223254
 30
0.0
 10
1.827271521300275
 20
5.737377514223254
 30
0.0
 10
1.80398886622595
 20
5.761008716067408
 30
0.0
 10
1.80398886622595
 20
5.789936752220114
 30
0.0
 10
1.80398886622595
 20
5.81886478837282
 30
0.0
 10
1.827271521300275
 20
5.842495990216932
 30
0.0
 10
1.856199557452981
 20
5.842495990216932
 30
0.0
 10
1.856199557452981
 20
5.842495990216932
 30
0.0
 10
1.872075257234016
 20
5.842495990216932
 30
0.0
 10
1.872075257234016
 20
5.842495990216932
 30
0.0
 10
1.901001947646335
 20
5.842495990216932
 30
0.0
 10
1.924638532452135
 20
5.81886478837282
 30
0.0
 10
1.924638532452135
 20
5.789936752220114
 30
0.0
 10
1.924638532452135
 20
5.761008716067408
 30
0.0
 10
1.901001947646335
 20
5.737377514223254
 30
0.0
 10
1.872075257234016
 20
5.737377514223254
 30
0.0
  0
POLYLINE
  5
5F9
330
1F
100
AcDbEntity
  8
Livello 1
100
AcDb2dPolyline
 66
     1
 10
0.0
 20
0.0
 30
0.0
  0
VERTEX
  5
5FA
330
5F9
100
AcDbEntity
  8
Livello 1
100
AcDbVertex
100
AcDb2dVertex
 10
8.461224094901538
 20
5.789872156679763
 30
0.0
  0
VERTEX
  5
5FB
330
5F9
100
AcDbEntity
  8
Livello 1
100
AcDbVertex
100
AcDb2dVertex
 10
8.477098448942157
 20
5.789872156679763
 30
0.0
  0
SEQEND
  5
5FC
330
5F9
100
AcDbEntity
  8
Livello 1
  0
POLYLINE
  5
5FD
330
1F
100
AcDbEntity
  8
Livello 1
100
AcDb2dPolyline
 66
     1
 10
0.0
 20
0.0
 30
0.0
  0
VERTEX
  5
5FE
330
5FD
100
AcDbEntity
  8
Livello 1
100
AcDbVertex
100
AcDb2dVertex
 10
8.602475701277612
 20
5.899652277501928
 30
0.0
  0
VERTEX
  5
5FF
330
5FD
100
AcDbEntity
  8
Livello 1
100
AcDbVertex
100
AcDb2dVertex
 10
8.586598655756134
 20
5.962794418192501
 30
0.0
  0
VERTEX
  5
600
330
5FD
100
AcDbEntity
  8
Livello 1
100
AcDbVertex
100
AcDb2dVertex
 10
8.523803716094917
 20
5.993843341253338
 30
0.0
  0
SEQEND
  5
601
330
5FD
100
AcDbEntity
  8
Livello 1
  0
SPLINE
  5
602
330
1F
100
AcDbEntity
  8
Livello 1
100
AcDbSpline
210
0.0
220
0.0
230
1.0
 70
     9
 71
     3
 72
    35
 73
    31
 74
     0
 42
0.000000001
 43
0.0000000001
 40
0.0
 40
0.0
 40
0.0
 40
0.0
 40
1.0
 40
1.0
 40
1.0
 40
2.0
 40
2.0
 40
2.0
 40
3.0
 40
3.0
 40
3.0
 40
4.0
 40
4.0
 40
4.0
 40
5.0
 40
5.0
 40
5.0
 40
6.0
 40
6.0
 40
6.0
 40
7.0
 40
7.0
 40
7.0
 40
8.0
 40
8.0
 40
8.0
 40
9.0
 40
9.0
 40
9.0
 40
10.0
 40
10.0
 40
10.0
 40
10.0
 10
1.715124243072409
 20
5.847157635045419
 30
0.0
 10
1.710890543698766
 20
5.847157635045419
 30
0.0
 10
1.706656844325067
 20
5.84750214459396
 30
0.0
 10
1.702423144951424
 20
5.8485679710097
 30
0.0
 10
1.674201622521266
 20
5.855619650831073
 30
0.0
 10
1.657268170767025
 20
5.884192411511861
 30
0.0
 10
1.664323887809658
 20
5.912420662644137
 30
0.0
 10
1.664323887809658
 20
5.912420662644137
 30
0.0
 10
1.679845657859203
 20
5.975207527862806
 30
0.0
 10
1.679845657859203
 20
5.975207527862806
 30
0.0
 10
1.683020259519253
 20
5.987911317464664
 30
0.0
 10
1.690782490284462
 20
5.999204771102256
 30
0.0
 10
1.701717976969277
 20
6.006256450923643
 30
0.0
 10
1.701717976969277
 20
6.006256450923643
 30
0.0
 10
1.748989800840533
 20
6.037649883532964
 30
0.0
 10
1.748989800840533
 20
6.037649883532964
 30
0.0
 10
1.772626385646347
 20
6.053529620535286
 30
0.0
 10
1.80543419144125
 20
6.047177725734357
 30
0.0
 10
1.821662475213358
 20
6.022835972946396
 30
0.0
 10
1.83789075898548
 20
5.998494220158434
 30
0.0
 10
1.831187625933893
 20
5.966034961133331
 30
0.0
 10
1.806845873145945
 20
5.950165990054401
 30
0.0
 10
1.806845873145945
 20
5.950165990054401
 30
0.0
 10
1.776860085020018
 20
5.930055245159252
 30
0.0
 10
1.776860085020018
 20
5.930055245159252
 30
0.0
 10
1.776860085020018
 20
5.930055245159252
 30
0.0
 10
1.765923252594774
 20
5.887013083440407
 30
0.0
 10
1.765923252594774
 20
5.887013083440407
 30
0.0
 10
1.760279217256822
 20
5.86302660612435
 30
0.0
 10
1.738759482137837
 20
5.847157635045419
 30
0.0
 10
1.715124243072409
 20
5.847157635045419
 30
0.0
  0
SPLINE
  5
603
330
1F
100
AcDbEntity
  8
Livello 1
100
AcDbSpline
210
0.0
220
0.0
230
1.0
 70
     9
 71
     3
 72
    35
 73
    31
 74
     0
 42
0.000000001
 43
0.0000000001
 40
0.0
 40
0.0
 40
0.0
 40
0.0
 40
1.0
 40
1.0
 40
1.0
 40
2.0
 40
2.0
 40
2.0
 40
3.0
 40
3.0
 40
3.0
 40
4.0
 40
4.0
 40
4.0
 40
5.0
 40
5.0
 40
5.0
 40
6.0
 40
6.0
 40
6.0
 40
7.0
 40
7.0
 40
7.0
 40
8.0
 40
8.0
 40
8.0
 40
9.0
 40
9.0
 40
9.0
 40
10.0
 40
10.0
 40
10.0
 40
10.0
 10
2.373936850566963
 20
6.004114032168729
 30
0.0
 10
2.368291469488596
 20
6.004114032168729
 30
0.0
 10
2.362647434150659
 20
6.004813817189173
 30
0.0
 10
2.357355982803781
 20
6.00693470409729
 30
0.0
 10
2.329839628355742
 20
6.016107270826765
 30
0.0
 10
2.315021680547928
 20
6.045735091999915
 30
0.0
 10
2.324194247277389
 20
6.073252792188341
 30
0.0
 10
2.324194247277389
 20
6.073252792188341
 30
0.0
 10
2.340069947058452
 20
6.120170686328094
 30
0.0
 10
2.340069947058452
 20
6.120170686328094
 30
0.0
 10
2.344302300691694
 20
6.133574260950382
 30
0.0
 10
2.353827451412215
 20
6.144512439116056
 30
0.0
 10
2.366527203792813
 20
6.150509058445067
 30
0.0
 10
2.366527203792813
 20
6.150509058445067
 30
0.0
 10
2.39792467362345
 20
6.166388795447389
 30
0.0
 10
2.39792467362345
 20
6.166388795447389
 30
0.0
 10
2.423325524125033
 20
6.178737309577343
 30
0.0
 10
2.455075577946715
 20
6.168498916432113
 30
0.0
 10
2.468127914318387
 20
6.142402318131345
 30
0.0
 10
2.480827666698971
 20
6.116639463455712
 30
0.0
 10
2.470244764005201
 20
6.084890755374431
 30
0.0
 10
2.44449132951253
 20
6.072197731695993
 30
0.0
 10
2.44449132951253
 20
6.072197731695993
 30
0.0
 10
2.432496745114079
 20
6.066201112366968
 30
0.0
 10
2.432496745114079
 20
6.066201112366968
 30
0.0
 10
2.432496745114079
 20
6.066201112366968
 30
0.0
 10
2.423678108116106
 20
6.03973847267089
 30
0.0
 10
2.423678108116106
 20
6.03973847267089
 30
0.0
 10
2.416269807082386
 20
6.017862116339557
 30
0.0
 10
2.395807823936593
 20
6.004114032168729
 30
0.0
 10
2.373936850566963
 20
6.004114032168729
 30
0.0
  0
SPLINE
  5
604
330
1F
100
AcDbEntity
  8
Livello 1
100
AcDbSpline
210
0.0
220
0.0
230
1.0
 70
     9
 71
     3
 72
    35
 73
    31
 74
     0
 42
0.000000001
 43
0.0000000001
 40
0.0
 40
0.0
 40
0.0
 40
0.0
 40
1.0
 40
1.0
 40
1.0
 40
2.0
 40
2.0
 40
2.0
 40
3.0
 40
3.0
 40
3.0
 40
4.0
 40
4.0
 40
4.0
 40
5.0
 40
5.0
 40
5.0
 40
6.0
 40
6.0
 40
6.0
 40
7.0
 40
7.0
 40
7.0
 40
8.0
 40
8.0
 40
8.0
 40
9.0
 40
9.0
 40
9.0
 40
10.0
 40
10.0
 40
10.0
 40
10.0
 10
2.076051824769308
 20
5.941380996567019
 30
0.0
 10
2.070759027682001
 20
5.941380996567019
 30
0.0
 10
2.065114992344049
 20
5.942080781587449
 30
0.0
 10
2.059470957006112
 20
5.943846393023648
 30
0.0
 10
2.031954602558101
 20
5.953018959753123
 30
0.0
 10
2.017136654750245
 20
5.983002056398191
 30
0.0
 10
2.026309221479735
 20
6.010164481114699
 30
0.0
 10
2.026309221479735
 20
6.010164481114699
 30
0.0
 10
2.041832337269738
 20
6.05743765072637
 30
0.0
 10
2.041832337269738
 20
6.05743765072637
 30
0.0
 10
2.047123788616602
 20
6.072962112256774
 30
0.0
 10
2.059470957006112
 20
6.085665901858632
 30
0.0
 10
2.074992727055658
 20
6.090596694771903
 30
0.0
 10
2.074992727055658
 20
6.090596694771903
 30
0.0
 10
2.122264550926914
 20
6.106476431774225
 30
0.0
 10
2.122264550926914
 20
6.106476431774225
 30
0.0
 10
2.150134835106413
 20
6.116004273975619
 30
0.0
 10
2.179415455250207
 20
6.1004798124452
 30
0.0
 10
2.188586676239239
 20
6.073317387728678
 30
0.0
 10
2.197759242968743
 20
6.045444412068334
 30
0.0
 10
2.182942640901302
 20
6.015816590895212
 30
0.0
 10
2.155426286453305
 20
6.006644024165709
 30
0.0
 10
2.155426286453305
 20
6.006644024165709
 30
0.0
 10
2.133201383352158
 20
5.999581578420972
 30
0.0
 10
2.133201383352158
 20
5.999581578420972
 30
0.0
 10
2.133201383352158
 20
5.999581578420972
 30
0.0
 10
2.125793082318452
 20
5.977360712541084
 30
0.0
 10
2.125793082318452
 20
5.977360712541084
 30
0.0
 10
2.118384781284746
 20
5.955484356209751
 30
0.0
 10
2.097922798138938
 20
5.941380996567019
 30
0.0
 10
2.076051824769308
 20
5.941380996567019
 30
0.0
  0
POLYLINE
  5
605
330
1F
100
AcDbEntity
  8
Livello 1
100
AcDb2dPolyline
 66
     1
 10
0.0
 20
0.0
 30
0.0
  0
VERTEX
  5
606
330
605
100
AcDbEntity
  8
Livello 1
100
AcDbVertex
100
AcDb2dVertex
 10
8.225956371029127
 20
6.338891185947872
 30
0.0
  0
VERTEX
  5
607
330
605
100
AcDbEntity
  8
Livello 1
100
AcDbVertex
100
AcDb2dVertex
 10
8.210431909498751
 20
6.386153589636165
 30
0.0
  0
VERTEX
  5
608
330
605
100
AcDbEntity
  8
Livello 1
100
AcDbVertex
100
AcDb2dVertex
 10
8.163161431367896
 20
6.40167805116657
 30
0.0
  0
SEQEND
  5
609
330
605
100
AcDbEntity
  8
Livello 1
  0
POLYLINE
  5
60A
330
1F
100
AcDbEntity
  8
Livello 1
100
AcDb2dPolyline
 66
     1
 10
0.0
 20
0.0
 30
0.0
  0
VERTEX
  5
60B
330
60A
100
AcDbEntity
  8
Livello 1
100
AcDbVertex
100
AcDb2dVertex
 10
7.927787394002038
 20
6.338891185947872
 30
0.0
  0
VERTEX
  5
60C
330
60A
100
AcDbEntity
  8
Livello 1
100
AcDbVertex
100
AcDb2dVertex
 10
7.912264278212049
 20
6.386153589636165
 30
0.0
  0
VERTEX
  5
60D
330
60A
100
AcDbEntity
  8
Livello 1
100
AcDbVertex
100
AcDb2dVertex
 10
7.864992454340821
 20
6.40167805116657
 30
0.0
  0
SEQEND
  5
60E
330
60A
100
AcDbEntity
  8
Livello 1
  0
SPLINE
  5
60F
330
1F
100
AcDbEntity
  8
Livello 1
100
AcDbSpline
210
0.0
220
0.0
230
1.0
 70
     9
 71
     3
 72
    35
 73
    31
 74
     0
 42
0.000000001
 43
0.0000000001
 40
0.0
 40
0.0
 40
0.0
 40
0.0
 40
1.0
 40
1.0
 40
1.0
 40
2.0
 40
2.0
 40
2.0
 40
3.0
 40
3.0
 40
3.0
 40
4.0
 40
4.0
 40
4.0
 40
5.0
 40
5.0
 40
5.0
 40
6.0
 40
6.0
 40
6.0
 40
7.0
 40
7.0
 40
7.0
 40
8.0
 40
8.0
 40
8.0
 40
9.0
 40
9.0
 40
9.0
 40
10.0
 40
10.0
 40
10.0
 40
10.0
 10
2.797693015435655
 20
6.082608379615479
 30
0.0
 10
2.792047634357302
 20
6.082608379615479
 30
0.0
 10
2.786756183010425
 20
6.083308164635923
 30
0.0
 10
2.781112147672473
 20
6.085073776072121
 30
0.0
 10
2.753595793224462
 20
6.0946016182735
 30
0.0
 10
2.73877784541662
 20
6.124229439446651
 30
0.0
 10
2.74795041214611
 20
6.151747139635077
 30
0.0
 10
2.74795041214611
 20
6.151747139635077
 30
0.0
 10
2.763473527936056
 20
6.19866503377483
 30
0.0
 10
2.763473527936056
 20
6.19866503377483
 30
0.0
 10
2.767353297578253
 20
6.209958487412421
 30
0.0
 10
2.774761598611959
 20
6.219475563690423
 30
0.0
 10
2.78428674933248
 20
6.225827458491352
 30
0.0
 10
2.78428674933248
 20
6.225827458491352
 30
0.0
 10
2.831558573203736
 20
6.257231657024078
 30
0.0
 10
2.831558573203736
 20
6.257231657024078
 30
0.0
 10
2.855195158009564
 20
6.273100628103009
 30
0.0
 10
2.888002963804453
 20
6.26674873330208
 30
0.0
 10
2.904231247576575
 20
6.242406980514104
 30
0.0
 10
2.920105601617223
 20
6.218420503198061
 30
0.0
 10
2.91340381430605
 20
6.185616734624431
 30
0.0
 10
2.889414645509162
 20
6.169736997622123
 30
0.0
 10
2.889414645509162
 20
6.169736997622123
 30
0.0
 10
2.857312007696421
 20
6.148571192234612
 30
0.0
 10
2.857312007696421
 20
6.148571192234612
 30
0.0
 10
2.857312007696421
 20
6.148571192234612
 30
0.0
 10
2.847434272984813
 20
6.118588095589558
 30
0.0
 10
2.847434272984813
 20
6.118588095589558
 30
0.0
 10
2.840025971951106
 20
6.096711739258211
 30
0.0
 10
2.819563988805313
 20
6.082608379615479
 30
0.0
 10
2.797693015435655
 20
6.082608379615479
 30
0.0
  0
POLYLINE
  5
610
330
1F
100
AcDbEntity
  8
Livello 1
100
AcDb2dPolyline
 66
     1
 10
0.0
 20
0.0
 30
0.0
  0
VERTEX
  5
611
330
610
100
AcDbEntity
  8
Livello 1
100
AcDbVertex
100
AcDb2dVertex
 10
7.504207521128876
 20
6.338891185947872
 30
0.0
  0
VERTEX
  5
612
330
610
100
AcDbEntity
  8
Livello 1
100
AcDbVertex
100
AcDb2dVertex
 10
7.488684405338901
 20
6.386153589636165
 30
0.0
  0
VERTEX
  5
613
330
610
100
AcDbEntity
  8
Livello 1
100
AcDbVertex
100
AcDb2dVertex
 10
7.441412581467659
 20
6.40167805116657
 30
0.0
  0
SEQEND
  5
614
330
610
100
AcDbEntity
  8
Livello 1
  0
POLYLINE
  5
615
330
1F
100
AcDbEntity
  8
Livello 1
100
AcDb2dPolyline
 66
     1
 10
0.0
 20
0.0
 30
0.0
  0
VERTEX
  5
616
330
615
100
AcDbEntity
  8
Livello 1
100
AcDbVertex
100
AcDb2dVertex
 10
8.429860268581521
 20
6.338891185947872
 30
0.0
  0
VERTEX
  5
617
330
615
100
AcDbEntity
  8
Livello 1
100
AcDbVertex
100
AcDb2dVertex
 10
8.414335807051102
 20
6.386153589636165
 30
0.0
  0
VERTEX
  5
618
330
615
100
AcDbEntity
  8
Livello 1
100
AcDbVertex
100
AcDb2dVertex
 10
8.367065328920304
 20
6.40167805116657
 30
0.0
  0
SEQEND
  5
619
330
615
100
AcDbEntity
  8
Livello 1
  0
POLYLINE
  5
61A
330
1F
100
AcDbEntity
  8
Livello 1
100
AcDb2dPolyline
 66
     1
 10
0.0
 20
0.0
 30
0.0
  0
VERTEX
  5
61B
330
61A
100
AcDbEntity
  8
Livello 1
100
AcDbVertex
100
AcDb2dVertex
 10
8.44562965486908
 20
5.789872156679763
 30
0.0
  0
VERTEX
  5
61C
330
61A
100
AcDbEntity
  8
Livello 1
100
AcDbVertex
100
AcDb2dVertex
 10
8.461151424918625
 20
5.789872156679763
 30
0.0
  0
VERTEX
  5
61D
330
61A
100
AcDbEntity
  8
Livello 1
100
AcDbVertex
100
AcDb2dVertex
 10
8.477025778959259
 20
5.789872156679763
 30
0.0
  0
SEQEND
  5
61E
330
61A
100
AcDbEntity
  8
Livello 1
  0
SPLINE
  5
61F
330
1F
100
AcDbEntity
  8
Livello 1
100
AcDbSpline
210
0.0
220
0.0
230
1.0
 70
     9
 71
     3
 72
    23
 73
    19
 74
     0
 42
0.000000001
 43
0.0000000001
 40
0.0
 40
0.0
 40
0.0
 40
0.0
 40
1.0
 40
1.0
 40
1.0
 40
2.0
 40
2.0
 40
2.0
 40
3.0
 40
3.0
 40
3.0
 40
4.0
 40
4.0
 40
4.0
 40
5.0
 40
5.0
 40
5.0
 40
6.0
 40
6.0
 40
6.0
 40
6.0
 10
1.88763201653461
 20
5.737377514223254
 30
0.0
 10
1.88763201653461
 20
5.737377514223254
 30
0.0
 10
1.87210890074462
 20
5.737377514223254
 30
0.0
 10
1.87210890074462
 20
5.737377514223254
 30
0.0
 10
1.843180864591943
 20
5.737377514223254
 30
0.0
 10
1.819545625526515
 20
5.761008716067408
 30
0.0
 10
1.819545625526515
 20
5.789936752220114
 30
0.0
 10
1.819545625526515
 20
5.81886478837282
 30
0.0
 10
1.843180864591943
 20
5.842495990216932
 30
0.0
 10
1.87210890074462
 20
5.842495990216932
 30
0.0
 10
1.87210890074462
 20
5.842495990216932
 30
0.0
 10
1.88763201653461
 20
5.842495990216932
 30
0.0
 10
1.88763201653461
 20
5.842495990216932
 30
0.0
 10
1.916558706946901
 20
5.842495990216932
 30
0.0
 10
1.940195291752743
 20
5.81886478837282
 30
0.0
 10
1.940195291752743
 20
5.789936752220114
 30
0.0
 10
1.940195291752743
 20
5.761008716067408
 30
0.0
 10
1.916558706946901
 20
5.737377514223254
 30
0.0
 10
1.88763201653461
 20
5.737377514223254
 30
0.0
  0
SPLINE
  5
620
330
1F
100
AcDbEntity
  8
Livello 1
100
AcDbSpline
210
0.0
220
0.0
230
1.0
 70
     9
 71
     3
 72
    23
 73
    19
 74
     0
 42
0.000000001
 43
0.0000000001
 40
0.0
 40
0.0
 40
0.0
 40
0.0
 40
1.0
 40
1.0
 40
1.0
 40
2.0
 40
2.0
 40
2.0
 40
3.0
 40
3.0
 40
3.0
 40
4.0
 40
4.0
 40
4.0
 40
5.0
 40
5.0
 40
5.0
 40
6.0
 40
6.0
 40
6.0
 40
6.0
 10
1.856270881695465
 20
5.737377514223254
 30
0.0
 10
1.856270881695465
 20
5.737377514223254
 30
0.0
 10
1.840747765905447
 20
5.737377514223254
 30
0.0
 10
1.840747765905447
 20
5.737377514223254
 30
0.0
 10
1.811467145761696
 20
5.737377514223254
 30
0.0
 10
1.788184490687342
 20
5.761008716067408
 30
0.0
 10
1.788184490687342
 20
5.789936752220114
 30
0.0
 10
1.788184490687342
 20
5.81886478837282
 30
0.0
 10
1.811467145761696
 20
5.842495990216932
 30
0.0
 10
1.840747765905447
 20
5.842495990216932
 30
0.0
 10
1.840747765905447
 20
5.842495990216932
 30
0.0
 10
1.856270881695465
 20
5.842495990216932
 30
0.0
 10
1.856270881695465
 20
5.842495990216932
 30
0.0
 10
1.885197572107756
 20
5.842495990216932
 30
0.0
 10
1.90883415691357
 20
5.81886478837282
 30
0.0
 10
1.90883415691357
 20
5.789936752220114
 30
0.0
 10
1.90883415691357
 20
5.761008716067408
 30
0.0
 10
1.885197572107756
 20
5.737377514223254
 30
0.0
 10
1.856270881695465
 20
5.737377514223254
 30
0.0
  0
POLYLINE
  5
621
330
1F
100
AcDbEntity
  8
Livello 1
100
AcDb2dPolyline
 66
     1
 10
0.0
 20
0.0
 30
0.0
  0
VERTEX
  5
622
330
621
100
AcDbEntity
  8
Livello 1
100
AcDbVertex
100
AcDb2dVertex
 10
8.586671325739018
 20
3.96749200644632
 30
0.0
  0
VERTEX
  5
623
330
621
100
AcDbEntity
  8
Livello 1
100
AcDbVertex
100
AcDb2dVertex
 10
8.571146864208614
 20
3.983005702053347
 30
0.0
  0
VERTEX
  5
624
330
621
100
AcDbEntity
  8
Livello 1
100
AcDbVertex
100
AcDb2dVertex
 10
8.571146864208614
 20
3.998885439055669
 30
0.0
  0
VERTEX
  5
625
330
621
100
AcDbEntity
  8
Livello 1
100
AcDbVertex
100
AcDb2dVertex
 10
8.571146864208614
 20
4.030278871665018
 30
0.0
  0
VERTEX
  5
626
330
621
100
AcDbEntity
  8
Livello 1
100
AcDbVertex
100
AcDb2dVertex
 10
8.571146864208614
 20
4.045803333195422
 30
0.0
  0
SEQEND
  5
627
330
621
100
AcDbEntity
  8
Livello 1
  0
SPLINE
  5
628
330
1F
100
AcDbEntity
  8
Livello 1
100
AcDbSpline
210
0.0
220
0.0
230
1.0
 70
     9
 71
     3
 72
    23
 73
    19
 74
     0
 42
0.000000001
 43
0.0000000001
 40
0.0
 40
0.0
 40
0.0
 40
0.0
 40
1.0
 40
1.0
 40
1.0
 40
2.0
 40
2.0
 40
2.0
 40
3.0
 40
3.0
 40
3.0
 40
4.0
 40
4.0
 40
4.0
 40
5.0
 40
5.0
 40
5.0
 40
6.0
 40
6.0
 40
6.0
 40
6.0
 10
1.898109951475319
 20
3.904339099832355
 30
0.0
 10
1.869181915322613
 20
3.904339099832355
 30
0.0
 10
1.84554533051677
 20
3.927970301676481
 30
0.0
 10
1.84554533051677
 20
3.956898337829187
 30
0.0
 10
1.84554533051677
 20
3.956898337829187
 30
0.0
 10
1.84554533051677
 20
5.793101933697172
 30
0.0
 10
1.84554533051677
 20
5.793101933697172
 30
0.0
 10
1.84554533051677
 20
5.822029969849893
 30
0.0
 10
1.869181915322613
 20
5.845671937617424
 30
0.0
 10
1.898109951475319
 20
5.845671937617424
 30
0.0
 10
1.927036641887568
 20
5.845671937617424
 30
0.0
 10
1.950673226693425
 20
5.822029969849893
 30
0.0
 10
1.950673226693425
 20
5.793101933697172
 30
0.0
 10
1.950673226693425
 20
5.793101933697172
 30
0.0
 10
1.950673226693425
 20
3.956898337829187
 30
0.0
 10
1.950673226693425
 20
3.956898337829187
 30
0.0
 10
1.950673226693425
 20
3.927970301676481
 30
0.0
 10
1.927036641887568
 20
3.904339099832355
 30
0.0
 10
1.898109951475319
 20
3.904339099832355
 30
0.0
  0
POLYLINE
  5
629
330
1F
100
AcDbEntity
  8
Livello 1
100
AcDb2dPolyline
 66
     1
 10
0.0
 20
0.0
 30
0.0
  0
VERTEX
  5
62A
330
629
100
AcDbEntity
  8
Livello 1
100
AcDbVertex
100
AcDb2dVertex
 10
8.697797186985127
 20
4.62475162949164
 30
0.0
  0
VERTEX
  5
62B
330
629
100
AcDbEntity
  8
Livello 1
100
AcDbVertex
100
AcDb2dVertex
 10
8.702028194877968
 20
4.63426870576967
 30
0.0
  0
VERTEX
  5
62C
330
629
100
AcDbEntity
  8
Livello 1
100
AcDbVertex
100
AcDb2dVertex
 10
8.706967062233744
 20
4.647327770843432
 30
0.0
  0
VERTEX
  5
62D
330
629
100
AcDbEntity
  8
Livello 1
100
AcDbVertex
100
AcDb2dVertex
 10
8.708027505687823
 20
4.656844847121433
 30
0.0
  0
VERTEX
  5
62E
330
629
100
AcDbEntity
  8
Livello 1
100
AcDbVertex
100
AcDb2dVertex
 10
8.708732673669942
 20
4.666727964794745
 30
0.0
  0
VERTEX
  5
62F
330
629
100
AcDbEntity
  8
Livello 1
100
AcDbVertex
100
AcDb2dVertex
 10
8.710143009634208
 20
4.679776263945129
 30
0.0
  0
VERTEX
  5
630
330
629
100
AcDbEntity
  8
Livello 1
100
AcDbVertex
100
AcDb2dVertex
 10
8.708027505687823
 20
4.690014657090358
 30
0.0
  0
VERTEX
  5
631
330
629
100
AcDbEntity
  8
Livello 1
100
AcDbVertex
100
AcDb2dVertex
 10
8.705556726269477
 20
4.700242284312182
 30
0.0
  0
VERTEX
  5
632
330
629
100
AcDbEntity
  8
Livello 1
100
AcDbVertex
100
AcDb2dVertex
 10
8.69991269093154
 20
4.710469911534033
 30
0.0
  0
VERTEX
  5
633
330
629
100
AcDbEntity
  8
Livello 1
100
AcDbVertex
100
AcDb2dVertex
 10
8.697797186985127
 20
4.721052814227775
 30
0.0
  0
VERTEX
  5
634
330
629
100
AcDbEntity
  8
Livello 1
100
AcDbVertex
100
AcDb2dVertex
 10
8.692150460166331
 20
4.73163571692153
 30
0.0
  0
SEQEND
  5
635
330
629
100
AcDbEntity
  8
Livello 1
  0
POLYLINE
  5
636
330
1F
100
AcDbEntity
  8
Livello 1
100
AcDb2dPolyline
 66
     1
 10
0.0
 20
0.0
 30
0.0
  0
VERTEX
  5
637
330
636
100
AcDbEntity
  8
Livello 1
100
AcDbVertex
100
AcDb2dVertex
 10
8.714834260752027
 20
4.563687312015602
 30
0.0
  0
VERTEX
  5
638
330
636
100
AcDbEntity
  8
Livello 1
100
AcDbVertex
100
AcDb2dVertex
 10
8.722593800036392
 20
4.57602506022215
 30
0.0
  0
VERTEX
  5
639
330
636
100
AcDbEntity
  8
Livello 1
100
AcDbVertex
100
AcDb2dVertex
 10
8.733881870712252
 20
4.588018298880186
 30
0.0
  0
VERTEX
  5
63A
330
636
100
AcDbEntity
  8
Livello 1
100
AcDbVertex
100
AcDb2dVertex
 10
8.741996685468535
 20
4.603898035882508
 30
0.0
  0
VERTEX
  5
63B
330
636
100
AcDbEntity
  8
Livello 1
100
AcDbVertex
100
AcDb2dVertex
 10
8.746935552824339
 20
4.616601825484366
 30
0.0
  0
VERTEX
  5
63C
330
636
100
AcDbEntity
  8
Livello 1
100
AcDbVertex
100
AcDb2dVertex
 10
8.751521836189098
 20
4.629294849162832
 30
0.0
  0
VERTEX
  5
63D
330
636
100
AcDbEntity
  8
Livello 1
100
AcDbVertex
100
AcDb2dVertex
 10
8.75293217215335
 20
4.645529861637072
 30
0.0
  0
VERTEX
  5
63E
330
636
100
AcDbEntity
  8
Livello 1
100
AcDbVertex
100
AcDb2dVertex
 10
8.757518455518109
 20
4.658578160787456
 30
0.0
  0
VERTEX
  5
63F
330
636
100
AcDbEntity
  8
Livello 1
100
AcDbVertex
100
AcDb2dVertex
 10
8.756108119553815
 20
4.675157682810223
 30
0.0
  0
VERTEX
  5
640
330
636
100
AcDbEntity
  8
Livello 1
100
AcDbVertex
100
AcDb2dVertex
 10
8.753989924126571
 20
4.688561257432525
 30
0.0
  0
VERTEX
  5
641
330
636
100
AcDbEntity
  8
Livello 1
100
AcDbVertex
100
AcDb2dVertex
 10
8.752579588162305
 20
4.705496054927195
 30
0.0
  0
VERTEX
  5
642
330
636
100
AcDbEntity
  8
Livello 1
100
AcDbVertex
100
AcDb2dVertex
 10
8.750464084215892
 20
4.718899629549497
 30
0.0
  0
VERTEX
  5
643
330
636
100
AcDbEntity
  8
Livello 1
100
AcDbVertex
100
AcDb2dVertex
 10
8.745525216860059
 20
4.732313970095191
 30
0.0
  0
VERTEX
  5
644
330
636
100
AcDbEntity
  8
Livello 1
100
AcDbVertex
100
AcDb2dVertex
 10
8.736705234121657
 20
4.746772605209855
 30
0.0
  0
VERTEX
  5
645
330
636
100
AcDbEntity
  8
Livello 1
100
AcDbVertex
100
AcDb2dVertex
 10
8.73106119878372
 20
4.757355507903596
 30
0.0
  0
VERTEX
  5
646
330
636
100
AcDbEntity
  8
Livello 1
100
AcDbVertex
100
AcDb2dVertex
 10
8.722946384027466
 20
4.771469633469735
 30
0.0
  0
VERTEX
  5
647
330
636
100
AcDbEntity
  8
Livello 1
100
AcDbVertex
100
AcDb2dVertex
 10
8.710600561378342
 20
4.782407811635408
 30
0.0
  0
VERTEX
  5
648
330
636
100
AcDbEntity
  8
Livello 1
100
AcDbVertex
100
AcDb2dVertex
 10
8.698604631239476
 20
4.793690499349594
 30
0.0
  0
SEQEND
  5
649
330
636
100
AcDbEntity
  8
Livello 1
  0
POLYLINE
  5
64A
330
1F
100
AcDbEntity
  8
Livello 1
100
AcDb2dPolyline
 66
     1
 10
0.0
 20
0.0
 30
0.0
  0
VERTEX
  5
64B
330
64A
100
AcDbEntity
  8
Livello 1
100
AcDbVertex
100
AcDb2dVertex
 10
8.700687837415713
 20
4.410617413236593
 30
0.0
  0
VERTEX
  5
64C
330
64A
100
AcDbEntity
  8
Livello 1
100
AcDbVertex
100
AcDb2dVertex
 10
8.952570072561897
 20
3.451761212304433
 30
0.0
  0
VERTEX
  5
64D
330
64A
100
AcDbEntity
  8
Livello 1
100
AcDbVertex
100
AcDb2dVertex
 10
9.304995266260405
 20
2.056874348096954
 30
0.0
  0
VERTEX
  5
64E
330
64A
100
AcDbEntity
  8
Livello 1
100
AcDbVertex
100
AcDb2dVertex
 10
9.357204611747036
 20
2.065347129805985
 30
0.0
  0
VERTEX
  5
64F
330
64A
100
AcDbEntity
  8
Livello 1
100
AcDbVertex
100
AcDb2dVertex
 10
8.711975908091602
 20
4.546784812291093
 30
0.0
  0
SEQEND
  5
650
330
64A
100
AcDbEntity
  8
Livello 1
  0
SPLINE
  5
651
330
1F
100
AcDbEntity
  8
Livello 1
100
AcDbSpline
210
0.0
220
0.0
230
1.0
 70
     9
 71
     3
 72
    71
 73
    67
 74
     0
 42
0.000000001
 43
0.0000000001
 40
0.0
 40
0.0
 40
0.0
 40
0.0
 40
1.0
 40
1.0
 40
1.0
 40
2.0
 40
2.0
 40
2.0
 40
3.0
 40
3.0
 40
3.0
 40
4.0
 40
4.0
 40
4.0
 40
5.0
 40
5.0
 40
5.0
 40
6.0
 40
6.0
 40
6.0
 40
7.0
 40
7.0
 40
7.0
 40
8.0
 40
8.0
 40
8.0
 40
9.0
 40
9.0
 40
9.0
 40
10.0
 40
10.0
 40
10.0
 40
11.0
 40
11.0
 40
11.0
 40
12.0
 40
12.0
 40
12.0
 40
13.0
 40
13.0
 40
13.0
 40
14.0
 40
14.0
 40
14.0
 40
15.0
 40
15.0
 40
15.0
 40
16.0
 40
16.0
 40
16.0
 40
17.0
 40
17.0
 40
17.0
 40
18.0
 40
18.0
 40
18.0
 40
19.0
 40
19.0
 40
19.0
 40
20.0
 40
20.0
 40
20.0
 40
21.0
 40
21.0
 40
21.0
 40
22.0
 40
22.0
 40
22.0
 40
22.0
 10
1.596308821044019
 20
4.485472878577041
 30
0.0
 10
1.579021439558275
 20
4.485472878577041
 30
0.0
 10
1.562441917535494
 20
4.493934894362681
 30
0.0
 10
1.552211598832812
 20
4.509459355893099
 30
0.0
 10
1.552211598832812
 20
4.509459355893099
 30
0.0
 10
1.538452748738606
 20
4.527093938408214
 30
0.0
 10
1.538452748738606
 20
4.527093938408214
 30
0.0
 10
1.535278147078571
 20
4.530269885808678
 30
0.0
 10
1.532808713400669
 20
4.533801108681061
 30
0.0
 10
1.530691863713812
 20
4.538032116573887
 30
0.0
 10
1.530691863713812
 20
4.538032116573887
 30
0.0
 10
1.51058381029955
 20
4.585305286185544
 30
0.0
 10
1.51058381029955
 20
4.585305286185544
 30
0.0
 10
1.50917212859484
 20
4.589536294078371
 30
0.0
 10
1.50811437662162
 20
4.593767301971197
 30
0.0
 10
1.507407862899057
 20
4.598353585335928
 30
0.0
 10
1.507407862899057
 20
4.598353585335928
 30
0.0
 10
1.504233261239036
 20
4.614588597810168
 30
0.0
 10
1.504233261239036
 20
4.614588597810168
 30
0.0
 10
1.501411243570061
 20
4.621995553103459
 30
0.0
 10
1.50035214585641
 20
4.630102293417181
 30
0.0
 10
1.501058659578973
 20
4.63786452418239
 30
0.0
 10
1.501058659578973
 20
4.63786452418239
 30
0.0
 10
1.508819544603767
 20
4.701017430796355
 30
0.0
 10
1.508819544603767
 20
4.701017430796355
 30
0.0
 10
1.50917212859484
 20
4.70453788774536
 30
0.0
 10
1.510229880568061
 20
4.708069110617742
 30
0.0
 10
1.511288978281669
 20
4.711245058018207
 30
0.0
 10
1.511288978281669
 20
4.711245058018207
 30
0.0
 10
1.54339161609441
 20
4.772632353196001
 30
0.0
 10
1.54339161609441
 20
4.772632353196001
 30
0.0
 10
1.545861049772341
 20
4.776863361088828
 30
0.0
 10
1.549035651432362
 20
4.780739093509737
 30
0.0
 10
1.5525641828239
 20
4.784270316382119
 30
0.0
 10
1.5525641828239
 20
4.784270316382119
 30
0.0
 10
1.576905935611861
 20
4.806491182261979
 30
0.0
 10
1.576905935611861
 20
4.806491182261979
 30
0.0
 10
1.598424324990418
 20
4.82624665168521
 30
0.0
 10
1.631586060516809
 20
4.824836315720929
 30
0.0
 10
1.651341529940026
 20
4.803315234861514
 30
0.0
 10
1.670744415372197
 20
4.781804919925477
 30
0.0
 10
1.669332733667488
 20
4.748635109956566
 30
0.0
 10
1.647814344288931
 20
4.729234916005253
 30
0.0
 10
1.647814344288931
 20
4.729234916005253
 30
0.0
 10
1.611830591093578
 20
4.681961746393582
 30
0.0
 10
1.611830591093578
 20
4.681961746393582
 30
0.0
 10
1.611830591093578
 20
4.681961746393582
 30
0.0
 10
1.606891723737774
 20
4.639630135618574
 30
0.0
 10
1.606891723737774
 20
4.639630135618574
 30
0.0
 10
1.606891723737774
 20
4.639630135618574
 30
0.0
 10
1.607244307728862
 20
4.638219799654322
 30
0.0
 10
1.607244307728862
 20
4.638219799654322
 30
0.0
 10
1.609008573424617
 20
4.633988791761481
 30
0.0
 10
1.610066325397809
 20
4.629757783868654
 30
0.0
 10
1.610418909388897
 20
4.625171500503924
 30
0.0
 10
1.610418909388897
 20
4.625171500503924
 30
0.0
 10
1.619591476118358
 20
4.593767301971197
 30
0.0
 10
1.619591476118358
 20
4.593767301971197
 30
0.0
 10
1.619591476118358
 20
4.593767301971197
 30
0.0
 10
1.640406043255211
 20
4.566249601782757
 30
0.0
 10
1.640406043255211
 20
4.566249601782757
 30
0.0
 10
1.655927813304771
 20
4.542263124466714
 30
0.0
 10
1.649224680253212
 20
4.509459355893099
 30
0.0
 10
1.62488292746525
 20
4.493934894362681
 30
0.0
 10
1.616064290467264
 20
4.488293550505588
 30
0.0
 10
1.606186555755627
 20
4.485472878577041
 30
0.0
 10
1.596308821044019
 20
4.485472878577041
 30
0.0
  0
SPLINE
  5
652
330
1F
100
AcDbEntity
  8
Livello 1
100
AcDbSpline
210
0.0
220
0.0
230
1.0
 70
     9
 71
     3
 72
    41
 73
    37
 74
     0
 42
0.000000001
 43
0.0000000001
 40
0.0
 40
0.0
 40
0.0
 40
0.0
 40
1.0
 40
1.0
 40
1.0
 40
2.0
 40
2.0
 40
2.0
 40
3.0
 40
3.0
 40
3.0
 40
4.0
 40
4.0
 40
4.0
 40
5.0
 40
5.0
 40
5.0
 40
6.0
 40
6.0
 40
6.0
 40
7.0
 40
7.0
 40
7.0
 40
8.0
 40
8.0
 40
8.0
 40
9.0
 40
9.0
 40
9.0
 40
10.0
 40
10.0
 40
10.0
 40
11.0
 40
11.0
 40
11.0
 40
12.0
 40
12.0
 40
12.0
 40
12.0
 10
1.006287772539749
 20
1.978735276122122
 30
0.0
 10
1.003464409130344
 20
1.978735276122122
 30
0.0
 10
1.000642391461354
 20
1.979079785670649
 30
0.0
 10
0.9978203737923934
 20
1.979435061142567
 30
0.0
 10
0.9978203737923934
 20
1.979435061142567
 30
0.0
 10
0.9456096825653474
 20
1.98789707692822
 30
0.0
 10
0.9456096825653474
 20
1.98789707692822
 30
0.0
 10
0.9311456644889943
 20
1.990017963836322
 30
0.0
 10
0.9180933281173366
 20
1.998490745545353
 30
0.0
 10
0.9099785133610538
 20
2.010828493751901
 30
0.0
 10
0.9018650443452003
 20
2.023177007881869
 30
0.0
 10
0.8993956106672982
 20
2.038346193940341
 30
0.0
 10
0.9032753803094806
 20
2.052815594978397
 30
0.0
 10
0.9032753803094806
 20
2.052815594978397
 30
0.0
 10
1.548154191454699
 20
4.534253277463491
 30
0.0
 10
1.548154191454699
 20
4.534253277463491
 30
0.0
 10
1.555209908497332
 20
4.56212625312385
 30
0.0
 10
1.583784014918535
 20
4.579050284695142
 30
0.0
 10
1.612006883089122
 20
4.571998604873769
 30
0.0
 10
1.640228405519252
 20
4.564591649580478
 30
0.0
 10
1.657161857273521
 20
4.53601888889969
 30
0.0
 10
1.649753556239815
 20
4.507790637767428
 30
0.0
 10
1.649753556239815
 20
4.507790637767428
 30
0.0
 10
1.630350670807658
 20
4.433355043439249
 30
0.0
 10
1.630350670807658
 20
4.433355043439249
 30
0.0
 10
1.654339839604546
 20
4.423482691689329
 30
0.0
 10
1.668098689698766
 20
4.397375327465169
 30
0.0
 10
1.661042972656119
 20
4.371623238712928
 30
0.0
 10
1.661042972656119
 20
4.371623238712928
 30
0.0
 10
1.40915939176952
 20
3.412422528232241
 30
0.0
 10
1.40915939176952
 20
3.412422528232241
 30
0.0
 10
1.40915939176952
 20
3.412422528232241
 30
0.0
 10
1.057086782062057
 20
2.018246214968584
 30
0.0
 10
1.057086782062057
 20
2.018246214968584
 30
0.0
 10
1.051090162733061
 20
1.994604247201053
 30
0.0
 10
1.02992301160512
 20
1.978735276122122
 30
0.0
 10
1.006287772539749
 20
1.978735276122122
 30
0.0
  0
SPLINE
  5
653
330
1F
100
AcDbEntity
  8
Livello 1
100
AcDbSpline
210
0.0
220
0.0
230
1.0
 70
     9
 71
     3
 72
    17
 73
    13
 74
     0
 42
0.000000001
 43
0.0000000001
 40
0.0
 40
0.0
 40
0.0
 40
0.0
 40
1.0
 40
1.0
 40
1.0
 40
2.0
 40
2.0
 40
2.0
 40
3.0
 40
3.0
 40
3.0
 40
4.0
 40
4.0
 40
4.0
 40
4.0
 10
5.183881882196132
 20
12.78974026325937
 30
0.0
 10
2.88235892846653
 20
12.78974026325937
 30
0.0
 10
1.009814958190858
 20
14.66228961649675
 30
0.0
 10
1.009814958190858
 20
16.96380718726468
 30
0.0
 10
1.009814958190858
 20
19.265335523956
 30
0.0
 10
2.88235892846653
 20
21.13787411126999
 30
0.0
 10
5.183881882196132
 20
21.13787411126999
 30
0.0
 10
7.485403490185348
 20
21.13787411126999
 30
0.0
 10
9.357947460461048
 20
19.265335523956
 30
0.0
 10
9.357947460461048
 20
16.96380718726468
 30
0.0
 10
9.357947460461048
 20
14.66228961649675
 30
0.0
 10
7.485403490185348
 20
12.78974026325937
 30
0.0
 10
5.183881882196132
 20
12.78974026325937
 30
0.0
  0
SPLINE
  5
654
330
1F
100
AcDbEntity
  8
Livello 1
100
AcDbSpline
210
0.0
220
0.0
230
1.0
 70
     9
 71
     3
 72
    17
 73
    13
 74
     0
 42
0.000000001
 43
0.0000000001
 40
0.0
 40
0.0
 40
0.0
 40
0.0
 40
1.0
 40
1.0
 40
1.0
 40
2.0
 40
2.0
 40
2.0
 40
3.0
 40
3.0
 40
3.0
 40
4.0
 40
4.0
 40
4.0
 40
4.0
 10
5.183881882196132
 20
21.0327556352763
 30
0.0
 10
2.940215000771942
 20
21.0327556352763
 30
0.0
 10
1.11459027037641
 20
19.20747945165058
 30
0.0
 10
1.11459027037641
 20
16.96380718726468
 30
0.0
 10
1.11459027037641
 20
14.72014568880216
 30
0.0
 10
2.940215000771942
 20
12.89486950517644
 30
0.0
 10
5.183881882196132
 20
12.89486950517644
 30
0.0
 10
7.427547417879935
 20
12.89486950517644
 30
0.0
 10
9.252820910024809
 20
14.72014568880216
 30
0.0
 10
9.252820910024809
 20
16.96380718726468
 30
0.0
 10
9.252820910024809
 20
19.20747945165058
 30
0.0
 10
7.427547417879935
 20
21.0327556352763
 30
0.0
 10
5.183881882196132
 20
21.0327556352763
 30
0.0
  0
SPLINE
  5
655
330
1F
100
AcDbEntity
  8
Livello 1
100
AcDbSpline
210
0.0
220
0.0
230
1.0
 70
     9
 71
     3
 72
    17
 73
    13
 74
     0
 42
0.000000001
 43
0.0000000001
 40
0.0
 40
0.0
 40
0.0
 40
0.0
 40
1.0
 40
1.0
 40
1.0
 40
2.0
 40
2.0
 40
2.0
 40
3.0
 40
3.0
 40
3.0
 40
4.0
 40
4.0
 40
4.0
 40
4.0
 10
5.183881882196132
 20
13.71034513838185
 30
0.0
 10
3.389653275890822
 20
13.71034513838185
 30
0.0
 10
1.930212589288061
 20
15.16978447924421
 30
0.0
 10
1.930212589288061
 20
16.96365646433719
 30
0.0
 10
1.930212589288061
 20
18.75788372490209
 30
0.0
 10
3.389653275890822
 20
20.21767834123636
 30
0.0
 10
5.183881882196132
 20
20.21767834123636
 30
0.0
 10
6.977756558769968
 20
20.21767834123636
 30
0.0
 10
8.437549829363817
 20
18.75788372490209
 30
0.0
 10
8.437549829363817
 20
16.96365646433719
 30
0.0
 10
8.437549829363817
 20
15.16978447924421
 30
0.0
 10
6.977756558769968
 20
13.71034513838185
 30
0.0
 10
5.183881882196132
 20
13.71034513838185
 30
0.0
  0
SPLINE
  5
656
330
1F
100
AcDbEntity
  8
Livello 1
100
AcDbSpline
210
0.0
220
0.0
230
1.0
 70
     9
 71
     3
 72
    17
 73
    13
 74
     0
 42
0.000000001
 43
0.0000000001
 40
0.0
 40
0.0
 40
0.0
 40
0.0
 40
1.0
 40
1.0
 40
1.0
 40
2.0
 40
2.0
 40
2.0
 40
3.0
 40
3.0
 40
3.0
 40
4.0
 40
4.0
 40
4.0
 40
4.0
 10
5.183881882196132
 20
20.11255986524267
 30
0.0
 10
3.447509348196263
 20
20.11255986524267
 30
0.0
 10
2.034986555733198
 20
18.70002765259668
 30
0.0
 10
2.034986555733198
 20
16.96365646433719
 30
0.0
 10
2.034986555733198
 20
15.22764055154964
 30
0.0
 10
3.447509348196263
 20
13.81511910482702
 30
0.0
 10
5.183881882196132
 20
13.81511910482702
 30
0.0
 10
6.91990048646457
 20
13.81511910482702
 30
0.0
 10
8.332423278927578
 20
15.22764055154964
 30
0.0
 10
8.332423278927578
 20
16.96365646433719
 30
0.0
 10
8.332423278927578
 20
18.70002765259668
 30
0.0
 10
6.91990048646457
 20
20.11255986524267
 30
0.0
 10
5.183881882196132
 20
20.11255986524267
 30
0.0
  0
SPLINE
  5
657
330
1F
100
AcDbEntity
  8
Livello 1
100
AcDbSpline
210
0.0
220
0.0
230
1.0
 70
     9
 71
     3
 72
    17
 73
    13
 74
     0
 42
0.000000001
 43
0.0000000001
 40
0.0
 40
0.0
 40
0.0
 40
0.0
 40
1.0
 40
1.0
 40
1.0
 40
2.0
 40
2.0
 40
2.0
 40
3.0
 40
3.0
 40
3.0
 40
4.0
 40
4.0
 40
4.0
 40
4.0
 10
5.183881882196132
 20
13.91030063353044
 30
0.0
 10
3.50007262341434
 20
13.91030063353044
 30
0.0
 10
2.130236717198258
 20
15.28013519400612
 30
0.0
 10
2.130236717198258
 20
16.96359186879684
 30
0.0
 10
2.130236717198258
 20
18.64774832860801
 30
0.0
 10
3.50007262341434
 20
20.0175828890837
 30
0.0
 10
5.183881882196132
 20
20.0175828890837
 30
0.0
 10
6.867689795237538
 20
20.0175828890837
 30
0.0
 10
8.237524355713219
 20
18.64774832860801
 30
0.0
 10
8.237524355713219
 20
16.96359186879684
 30
0.0
 10
8.237524355713219
 20
15.28013519400612
 30
0.0
 10
6.867689795237538
 20
13.91030063353044
 30
0.0
 10
5.183881882196132
 20
13.91030063353044
 30
0.0
  0
SPLINE
  5
658
330
1F
100
AcDbEntity
  8
Livello 1
100
AcDbSpline
210
0.0
220
0.0
230
1.0
 70
     9
 71
     3
 72
    17
 73
    13
 74
     0
 42
0.000000001
 43
0.0000000001
 40
0.0
 40
0.0
 40
0.0
 40
0.0
 40
1.0
 40
1.0
 40
1.0
 40
2.0
 40
2.0
 40
2.0
 40
3.0
 40
3.0
 40
3.0
 40
4.0
 40
4.0
 40
4.0
 40
4.0
 10
5.183881882196132
 20
19.91246441309001
 30
0.0
 10
3.55792869571978
 20
19.91246441309001
 30
0.0
 10
2.235012029383824
 20
18.58954774675408
 30
0.0
 10
2.235012029383824
 20
16.96359186879684
 30
0.0
 10
2.235012029383824
 20
15.33799126631153
 30
0.0
 10
3.55792869571978
 20
14.01542987544751
 30
0.0
 10
5.183881882196132
 20
14.01542987544751
 30
0.0
 10
6.809833722932111
 20
14.01542987544751
 30
0.0
 10
8.13239780527698
 20
15.33799126631153
 30
0.0
 10
8.13239780527698
 20
16.96359186879684
 30
0.0
 10
8.13239780527698
 20
18.58954774675408
 30
0.0
 10
6.809833722932111
 20
19.91246441309001
 30
0.0
 10
5.183881882196132
 20
19.91246441309001
 30
0.0
  0
ENDSEC
  0
SECTION
  2
OBJECTS
  0
DICTIONARY
  5
C
330
0
100
AcDbDictionary
281
     1
  3
ACAD_CIP_PREVIOUS_PRODUCT_INFO
350
216
  3
ACAD_COLOR
350
6B
  3
ACAD_DETAILVIEWSTYLE
350
21B
  3
ACAD_GROUP
350
D
  3
ACAD_LAYOUT
350
1A
  3
ACAD_MATERIAL
350
6A
  3
ACAD_MLEADERSTYLE
350
12D
  3
ACAD_MLINESTYLE
350
17
  3
ACAD_PLOTSETTINGS
350
19
  3
ACAD_PLOTSTYLENAME
350
E
  3
ACAD_SCALELIST
350
10C
  3
ACAD_SECTIONVIEWSTYLE
350
219
  3
ACAD_TABLESTYLE
350
7E
  3
ACAD_VISUALSTYLE
350
EF
  3
ACDB_RECOMPOSE_DATA
350
65A
  3
AcDbVariableDictionary
350
5E
  3
AcDsDecomposeData
350
660
  0
DICTIONARY
  5
1FF
330
2
100
AcDbDictionary
280
     1
281
     1
  3
ACAD_LAYERSTATES
360
200
  0
DICTIONARY
  5
13C
330
10
100
AcDbDictionary
280
     1
281
     1
  0
DICTIONARY
  5
1CE
330
1F
100
AcDbDictionary
280
     1
281
     1
  0
DICTIONARY
  5
34F
330
28F
100
AcDbDictionary
280
     1
281
     1
  3
ACAD_SORTENTS
360
350
  0
XRECORD
  5
216
102
{ACAD_REACTORS
330
C
102
}
330
C
100
AcDbXrecord
280
     1
300
ACD
300
2020
300

  0
DICTIONARY
  5
6B
102
{ACAD_REACTORS
330
C
102
}
330
C
100
AcDbDictionary
281
     1
  0
DICTIONARY
  5
21B
102
{ACAD_REACTORS
330
C
102
}
330
C
100
AcDbDictionary
281
     1
  3
Imperial24
350
28E
  3
Metric50
350
21C
  0
DICTIONARY
  5
D
102
{ACAD_REACTORS
330
C
102
}
330
C
100
AcDbDictionary
281
     1
  0
DICTIONARY
  5
1A
102
{ACAD_REACTORS
330
C
102
}
330
C
100
AcDbDictionary
281
     1
  3
Layout1
350
D3
  3
Layout2
350
D7
  3
Model
350
22
  0
DICTIONARY
  5
6A
102
{ACAD_REACTORS
330
C
102
}
330
C
100
AcDbDictionary
281
     1
  3
ByBlock
350
ED
  3
ByLayer
350
EC
  3
Global
350
EE
  0
DICTIONARY
  5
12D
102
{ACAD_REACTORS
330
C
102
}
330
C
100
AcDbDictionary
281
     1
  3
Annotativa
350
13B
  3
Standard
350
12E
  0
DICTIONARY
  5
17
102
{ACAD_REACTORS
330
C
102
}
330
C
100
AcDbDictionary
281
     1
  3
Standard
350
18
  0
DICTIONARY
  5
19
102
{ACAD_REACTORS
330
C
102
}
330
C
100
AcDbDictionary
281
     1
  0
ACDBDICTIONARYWDFLT
  5
E
102
{ACAD_REACTORS
330
C
102
}
330
C
100
AcDbDictionary
281
     1
  3
Normal
350
F
100
AcDbDictionaryWithDefault
340
F
  0
DICTIONARY
  5
10C
102
{ACAD_REACTORS
330
C
102
}
330
C
100
AcDbDictionary
281
     1
  3
A0
350
10D
  3
A1
350
1BE
  3
A2
350
1BF
  3
A3
350
1C0
  3
A4
350
1C1
  3
A5
350
1C2
  3
A6
350
1C3
  3
A7
350
1C4
  3
A8
350
1C5
  3
A9
350
1C6
  3
B0
350
1C7
  3
B1
350
1C8
  3
B2
350
1C9
  3
B3
350
1CA
  3
B4
350
1CB
  3
B5
350
1CC
  3
B6
350
1CD
  0
DICTIONARY
  5
219
102
{ACAD_REACTORS
330
C
102
}
330
C
100
AcDbDictionary
281
     1
  3
Imperial24
350
28D
  3
Metric50
350
21A
  0
DICTIONARY
  5
7E
102
{ACAD_REACTORS
330
C
102
}
330
C
100
AcDbDictionary
281
     1
  3
Standard
350
7F
  0
DICTIONARY
  5
EF
102
{ACAD_REACTORS
330
C
102
}
330
C
100
AcDbDictionary
281
     1
  3
2dWireframe
350
F5
  3
Basic
350
F4
  3
Brighten
350
FB
  3
ColorChange
350
FF
  3
Conceptual
350
F8
  3
Dim
350
FA
  3
EdgeColorOff
350
1E6
  3
Facepattern
350
FE
  3
Flat
350
F0
  3
FlatWithEdges
350
F1
  3
Gouraud
350
F2
  3
GouraudWithEdges
350
F3
  3
Hidden
350
F7
  3
JitterOff
350
1E4
  3
Linepattern
350
FD
  3
OverhangOff
350
1E5
  3
Realistic
350
F9
  3
Shaded
350
1F3
  3
Shaded with edges
350
1F2
  3
Shades of Gray
350
1EF
  3
Sketchy
350
1F0
  3
Thicken
350
FC
  3
Wireframe
350
F6
  3
X-Ray
350
1F1
  0
XRECORD
  5
65A
102
{ACAD_REACTORS
330
C
102
}
330
C
100
AcDbXrecord
280
     1
 90
        1
330
7F
  0
DICTIONARY
  5
5E
102
{ACAD_REACTORS
330
C
102
}
330
C
100
AcDbDictionary
281
     1
  3
CANNOSCALE
350
146
  3
CENTEREXE
350
259
  3
CENTERLTYPEFILE
350
25A
  3
CMLEADERSTYLE
350
145
  3
CTABLESTYLE
350
84
  3
CVIEWDETAILSTYLE
350
227
  3
CVIEWSECTIONSTYLE
350
228
  3
DIMASSOC
350
5F
  3
HIDETEXT
350
63
  3
LAYEREVAL
350
1AE
  3
LAYERNOTIFY
350
1AF
  0
DICTIONARY
  5
660
102
{ACAD_REACTORS
330
C
102
}
330
C
100
AcDbDictionary
281
     1
  3
AcDsRecords
350
662
  3
AcDsSchemas
350
661
1001
ACAD
1070
     2
  0
DICTIONARY
  5
200
102
{ACAD_REACTORS
330
1FF
102
}
330
1FF
100
AcDbDictionary
281
     1
  0
SORTENTSTABLE
  5
350
102
{ACAD_REACTORS
330
34F
102
}
330
34F
100
AcDbSortentsTable
330
28F
  0
ACDBDETAILVIEWSTYLE
  5
28E
102
{ACAD_XDICTIONARY
360
669
102
}
102
{ACAD_REACTORS
330
21B
102
}
330
21B
100
AcDbModelDocViewStyle
 70
     0
  3
Imperial24
290
     0
100
AcDbDetailViewStyle
 70
     0
 71
     0
 90
        3
 71
     1
340
11
 62
   256
 40
0.24
340
0
 62
   256
 40
0.24
300

 40
0.36
280
     3
 71
     2
340
16
 90
       25
 62
   256
 71
     3
340
11
 62
   256
 40
0.24
 90
        1
 40
0.75
 90
        1
300
%<\AcVar ViewType \f "%tc1">% %<\AcVar ViewDetailId>%\PSCALA %<\AcVar ViewScale \f "%sn">%
 71
     4
340
16
 90
       25
 62
   256
340
16
 90
       25
 62
   256
280
     0
  0
ACDBDETAILVIEWSTYLE
  5
21C
102
{ACAD_XDICTIONARY
360
665
102
}
102
{ACAD_REACTORS
330
21B
102
}
330
21B
100
AcDbModelDocViewStyle
 70
     0
  3
Metric50
290
     0
100
AcDbDetailViewStyle
 70
     0
 71
     0
 90
        3
 71
     1
340
11
 62
   256
 40
5.0
340
0
 62
   256
 40
5.0
300

 40
0.0
280
     1
 71
     2
340
16
 90
       25
 62
   256
 71
     3
340
11
 62
   256
 40
5.0
 90
        0
 40
15.0
 90
        1
300
%<\AcVar ViewDetailId>% (%<\AcVar ViewScale \f "%sn">%)
 71
     4
340
16
 90
       25
 62
   256
340
16
 90
       25
 62
   256
280
     0
  0
LAYOUT
  5
D3
102
{ACAD_REACTORS
330
1A
102
}
330
1A
100
AcDbPlotSettings
  1

  2
C:\Documents and Settings\basas\Application Data\Autodesk\AutoCAD 2005\R16.1\enu\plotters\Default Windows System Printer.pc3
  4

  6

 40
0.0
 41
0.0
 42
0.0
 43
0.0
 44
0.0
 45
0.0
 46
0.0
 47
0.0
 48
0.0
 49
0.0
140
0.0
141
0.0
142
1.0
143
1.0
 70
   688
 72
     0
 73
     0
 74
     5
  7

 75
    16
147
1.0
 76
     0
 77
     2
 78
   300
148
0.0
149
0.0
100
AcDbLayout
  1
Layout1
 70
     1
 71
     1
 10
0.0
 20
0.0
 11
12.0
 21
9.0
 12
0.0
 22
0.0
 32
0.0
 14
0.0
 24
0.0
 34
0.0
 15
0.0
 25
0.0
 35
0.0
146
0.0
 13
0.0
 23
0.0
 33
0.0
 16
1.0
 26
0.0
 36
0.0
 17
0.0
 27
1.0
 37
0.0
 76
     0
330
D2
  0
LAYOUT
  5
D7
102
{ACAD_REACTORS
330
1A
102
}
330
1A
100
AcDbPlotSettings
  1

  2
C:\Documents and Settings\basas\Application Data\Autodesk\AutoCAD 2005\R16.1\enu\plotters\Default Windows System Printer.pc3
  4

  6

 40
0.0
 41
0.0
 42
0.0
 43
0.0
 44
0.0
 45
0.0
 46
0.0
 47
0.0
 48
0.0
 49
0.0
140
0.0
141
0.0
142
1.0
143
1.0
 70
   688
 72
     0
 73
     0
 74
     5
  7

 75
    16
147
1.0
 76
     0
 77
     2
 78
   300
148
0.0
149
0.0
100
AcDbLayout
  1
Layout2
 70
     1
 71
     2
 10
0.0
 20
0.0
 11
12.0
 21
9.0
 12
0.0
 22
0.0
 32
0.0
 14
0.0
 24
0.0
 34
0.0
 15
0.0
 25
0.0
 35
0.0
146
0.0
 13
0.0
 23
0.0
 33
0.0
 16
1.0
 26
0.0
 36
0.0
 17
0.0
 27
1.0
 37
0.0
 76
     0
330
D6
  0
LAYOUT
  5
22
102
{ACAD_XDICTIONARY
360
205
102
}
102
{ACAD_REACTORS
330
1A
102
}
330
1A
100
AcDbPlotSettings
  1

  2
none_device
  4
ISO_A4_(210.00_x_297.00_MM)
  6

 40
7.5
 41
20.0
 42
7.5
 43
20.0
 44
210.0
 45
297.0
 46
11.54999923706054
 47
-13.65000009536743
 48
0.0
 49
0.0
140
0.0
141
0.0
142
1.0
143
8.704084754739808
 70
 11952
 72
     1
 73
     0
 74
     0
  7

 75
     0
147
0.1148885871608098
 76
     0
 77
     2
 78
   300
148
0.0
149
0.0
100
AcDbLayout
  1
Model
 70
     1
 71
     0
 10
0.0
 20
0.0
 11
12.0
 21
9.0
 12
0.0
 22
0.0
 32
0.0
 14
0.0
 24
0.0
 34
0.0
 15
0.0
 25
0.0
 35
0.0
146
0.0
 13
0.0
 23
0.0
 33
0.0
 16
1.0
 26
0.0
 36
0.0
 17
0.0
 27
1.0
 37
0.0
 76
     0
330
1F
331
EA
1001
ACAD_PSEXT
1000
None
1000
None
1000
Not applicable
1000
The layout will not be plotted unless a new plotter configuration name is selected.
1070
     0
  0
MATERIAL
  5
ED
102
{ACAD_XDICTIONARY
360
1F9
102
}
102
{ACAD_REACTORS
330
6A
102
}
330
6A
100
AcDbMaterial
  1
ByBlock
 94
       63
  0
MATERIAL
  5
EC
102
{ACAD_XDICTIONARY
360
1F7
102
}
102
{ACAD_REACTORS
330
6A
102
}
330
6A
100
AcDbMaterial
  1
ByLayer
 94
       63
  0
MATERIAL
  5
EE
102
{ACAD_XDICTIONARY
360
173
102
}
102
{ACAD_REACTORS
330
6A
102
}
330
6A
100
AcDbMaterial
  1
Global
 43
0.0007999999797903
 43
0.0
 43
0.0
 43
0.0
 43
0.0
 43
0.0007999999797903
 43
0.0
 43
0.0
 43
0.0
 43
0.0
 43
1.0
 43
0.0
 43
0.0
 43
0.0
 43
0.0
 43
1.0
 49
0.0007999999797903
 49
0.0
 49
0.0
 49
0.0
 49
0.0
 49
0.0007999999797903
 49
0.0
 49
0.0
 49
0.0
 49
0.0
 49
1.0
 49
0.0
 49
0.0
 49
0.0
 49
0.0
 49
1.0
142
0.0007999999797903
142
0.0
142
0.0
142
0.0
142
0.0
142
0.0007999999797903
142
0.0
142
0.0
142
0.0
142
0.0
142
1.0
142
0.0
142
0.0
142
0.0
142
0.0
142
1.0
144
0.0007999999797903
144
0.0
144
0.0
144
0.0
144
0.0
144
0.0007999999797903
144
0.0
144
0.0
144
0.0
144
0.0
144
1.0
144
0.0
144
0.0
144
0.0
144
0.0
144
1.0
 94
       63
1001
ACAD
1070
    -1
1070
     3
1070
     0
1000

1071
        0
1070
     0
  0
MLEADERSTYLE
  5
13B
102
{ACAD_REACTORS
330
12D
102
}
330
12D
100
AcDbMLeaderStyle
179
     2
170
     2
171
     1
172
     0
 90
        2
 40
0.0
 41
0.0
173
     1
 91
-1056964608
340
14
 92
       -2
290
     1
 42
2.0
291
     1
 43
8.0
  3
Standard
 44
4.0
300

342
11
174
     1
178
     1
175
     1
176
     0
 93
-1056964608
 45
4.0
292
     0
297
     0
 46
4.0
 94
-1056964608
 47
1.0
 49
1.0
140
1.0
293
     1
141
0.0
294
     1
177
     0
142
1.0
295
     0
296
     1
143
3.75
271
     0
272
     9
273
     9
298
     0
  0
MLEADERSTYLE
  5
12E
102
{ACAD_REACTORS
330
12D
102
}
330
12D
100
AcDbMLeaderStyle
179
     2
170
     2
171
     1
172
     0
 90
        2
 40
0.0
 41
0.0
173
     1
 91
-1056964608
340
14
 92
       -2
290
     1
 42
2.0
291
     1
 43
8.0
  3
Standard
 44
4.0
300

342
11
174
     1
178
     1
175
     1
176
     0
 93
-1056964608
 45
4.0
292
     0
297
     0
 46
4.0
 94
-1056964608
 47
1.0
 49
1.0
140
1.0
293
     1
141
0.0
294
     1
177
     0
142
1.0
295
     0
296
     0
143
3.75
271
     0
272
     9
273
     9
298
     0
  0
MLINESTYLE
  5
18
102
{ACAD_REACTORS
330
17
102
}
330
17
100
AcDbMlineStyle
  2
STANDARD
 70
     0
  3

 62
   256
 51
90.0
 52
90.0
 71
     2
 49
0.5
 62
   256
  6
BYLAYER
 49
-0.5
 62
   256
  6
BYLAYER
  0
ACDBPLACEHOLDER
  5
F
102
{ACAD_REACTORS
330
E
102
}
330
E
  0
SCALE
  5
10D
102
{ACAD_REACTORS
330
10C
102
}
330
10C
100
AcDbScale
 70
     0
300
1:1
140
1.0
141
1.0
290
     1
  0
SCALE
  5
1BE
102
{ACAD_REACTORS
330
10C
102
}
330
10C
100
AcDbScale
 70
     0
300
1:2
140
1.0
141
2.0
290
     0
  0
SCALE
  5
1BF
102
{ACAD_REACTORS
330
10C
102
}
330
10C
100
AcDbScale
 70
     0
300
1:4
140
1.0
141
4.0
290
     0
  0
SCALE
  5
1C0
102
{ACAD_REACTORS
330
10C
102
}
330
10C
100
AcDbScale
 70
     0
300
1:5
140
1.0
141
5.0
290
     0
  0
SCALE
  5
1C1
102
{ACAD_REACTORS
330
10C
102
}
330
10C
100
AcDbScale
 70
     0
300
1:8
140
1.0
141
8.0
290
     0
  0
SCALE
  5
1C2
102
{ACAD_REACTORS
330
10C
102
}
330
10C
100
AcDbScale
 70
     0
300
1:10
140
1.0
141
10.0
290
     0
  0
SCALE
  5
1C3
102
{ACAD_REACTORS
330
10C
102
}
330
10C
100
AcDbScale
 70
     0
300
1:16
140
1.0
141
16.0
290
     0
  0
SCALE
  5
1C4
102
{ACAD_REACTORS
330
10C
102
}
330
10C
100
AcDbScale
 70
     0
300
1:20
140
1.0
141
20.0
290
     0
  0
SCALE
  5
1C5
102
{ACAD_REACTORS
330
10C
102
}
330
10C
100
AcDbScale
 70
     0
300
1:30
140
1.0
141
30.0
290
     0
  0
SCALE
  5
1C6
102
{ACAD_REACTORS
330
10C
102
}
330
10C
100
AcDbScale
 70
     0
300
1:40
140
1.0
141
40.0
290
     0
  0
SCALE
  5
1C7
102
{ACAD_REACTORS
330
10C
102
}
330
10C
100
AcDbScale
 70
     0
300
1:50
140
1.0
141
50.0
290
     0
  0
SCALE
  5
1C8
102
{ACAD_REACTORS
330
10C
102
}
330
10C
100
AcDbScale
 70
     0
300
1:100
140
1.0
141
100.0
290
     0
  0
SCALE
  5
1C9
102
{ACAD_REACTORS
330
10C
102
}
330
10C
100
AcDbScale
 70
     0
300
2:1
140
2.0
141
1.0
290
     0
  0
SCALE
  5
1CA
102
{ACAD_REACTORS
330
10C
102
}
330
10C
100
AcDbScale
 70
     0
300
4:1
140
4.0
141
1.0
290
     0
  0
SCALE
  5
1CB
102
{ACAD_REACTORS
330
10C
102
}
330
10C
100
AcDbScale
 70
     0
300
8:1
140
8.0
141
1.0
290
     0
  0
SCALE
  5
1CC
102
{ACAD_REACTORS
330
10C
102
}
330
10C
100
AcDbScale
 70
     0
300
10:1
140
10.0
141
1.0
290
     0
  0
SCALE
  5
1CD
102
{ACAD_REACTORS
330
10C
102
}
330
10C
100
AcDbScale
 70
     0
300
100:1
140
100.0
141
1.0
290
     0
  0
ACDBSECTIONVIEWSTYLE
  5
28D
102
{ACAD_XDICTIONARY
360
667
102
}
102
{ACAD_REACTORS
330
219
102
}
330
219
100
AcDbModelDocViewStyle
 70
     0
  3
Imperial24
290
     0
100
AcDbSectionViewStyle
 70
     0
 71
     0
 90
       78
 71
     1
340
11
 62
   256
 40
0.24
340
0
340
0
 62
   256
 40
0.24
300
I, O, Q, S, X, Z
 40
0.48
 90
        3
 40
0.18
 90
        1
 71
     2
340
16
 90
       25
 62
   256
340
16
 90
       50
 62
   256
 40
0.24
 40
0.0
 40
0.24
 71
     3
340
11
 62
   256
 40
0.24
 90
        1
 40
0.75
 90
        1
300
%<\AcVar ViewType \f "%tc1">% %<\AcVar ViewSectionStartId>%-%<\AcVar ViewSectionEndId>%\PSCALA %<\AcVar ViewScale \f "%sn">%
 71
     4
 62
   256
 62
   257
300
ANSI31
 40
1.0
 90
        0
290
     0
290
     0
 90
        6
 40
0.0
 40
1.570796326794896
 40
0.2617993877991494
 40
1.308996938995747
 40
-0.2617993877991494
 40
1.832595714594046
  0
ACDBSECTIONVIEWSTYLE
  5
21A
102
{ACAD_XDICTIONARY
360
663
102
}
102
{ACAD_REACTORS
330
219
102
}
330
219
100
AcDbModelDocViewStyle
 70
     0
  3
Metric50
290
     0
100
AcDbSectionViewStyle
 70
     0
 71
     0
 90
      102
 71
     1
340
11
 62
   256
 40
5.0
340
0
340
0
 62
   256
 40
5.0
300
I, O, Q, S, X, Z
 40
10.0
 90
        0
 40
2.5
 90
        0
 71
     2
340
16
 90
       25
 62
   256
340
16
 90
       50
 62
   256
 40
5.0
 40
2.5
 40
5.0
 71
     3
340
11
 62
   256
 40
5.0
 90
        0
 40
15.0
 90
        1
300
%<\AcVar ViewSectionStartId>%-%<\AcVar ViewSectionEndId>% (%<\AcVar ViewScale \f "%sn">%)
 71
     4
 62
   256
 62
   257
300
ANSI31
 40
1.0
 90
        0
290
     0
290
     0
 90
        6
 40
0.0
 40
1.570796326794896
 40
0.2617993877991494
 40
1.308996938995747
 40
-0.2617993877991494
 40
1.832595714594046
  0
TABLESTYLE
  5
7F
102
{ACAD_XDICTIONARY
360
162
102
}
102
{ACAD_REACTORS
330
7E
102
}
330
7E
100
AcDbTableStyle
280
     0
  3
Standard
 70
     0
 71
     0
 40
1.5
 41
1.5
280
     0
281
     0
  7
Standard
140
4.5
170
     2
 62
     0
 63
     7
283
     0
 90
      512
 91
        0
  1

274
    -2
284
     1
 64
     0
275
    -2
285
     1
 65
     0
276
    -2
286
     1
 66
     0
277
    -2
287
     1
 67
     0
278
    -2
288
     1
 68
     0
279
    -2
289
     1
 69
     0
  7
Standard
140
6.0
170
     5
 62
     0
 63
     7
283
     0
 90
      512
 91
        0
  1

274
    -2
284
     1
 64
     0
275
    -2
285
     1
 65
     0
276
    -2
286
     1
 66
     0
277
    -2
287
     1
 67
     0
278
    -2
288
     1
 68
     0
279
    -2
289
     1
 69
     0
  7
Standard
140
4.5
170
     5
 62
     0
 63
     7
283
     0
 90
      512
 91
        0
  1

274
    -2
284
     1
 64
     0
275
    -2
285
     1
 65
     0
276
    -2
286
     1
 66
     0
277
    -2
287
     1
 67
     0
278
    -2
288
     1
 68
     0
279
    -2
289
     1
 69
     0
  0
VISUALSTYLE
  5
F5
102
{ACAD_REACTORS
330
EF
102
}
330
EF
100
AcDbVisualStyle
  2
2dWireframe
 70
     4
177
     3
291
     0
 70
    58
 90
        0
176
     1
 90
        2
176
     1
 90
        1
176
     1
 90
        0
176
     1
 40
0.6
176
     1
 40
30.0
176
     1
 62
     7
420
 16777215
176
     1
 90
        1
176
     1
 90
        4
176
     1
 62
     7
176
     1
 62
   257
176
     1
 90
        1
176
     1
 90
        1
176
     1
 40
1.0
176
     1
 90
        0
176
     1
 62
   257
176
     1
 40
1.0
176
     1
 90
        1
176
     1
 90
        6
176
     1
 90
        2
176
     1
 62
     7
176
     1
 90
        5
176
     1
 90
        0
176
     1
 90
        0
176
     1
290
     0
176
     1
 90
        1
176
     1
 40
0.0
176
     1
 90
        0
176
     1
290
     1
176
     1
290
     1
176
     1
290
     0
176
     1
290
     0
176
     1
290
     0
176
     1
290
     0
176
     1
290
     0
176
     1
290
     0
176
     1
290
     0
176
     1
 90
       50
176
     1
 40
0.0
176
     1
 40
1.0
176
     1
 90
        0
176
     1
 62
    18
420
        0
176
     1
 90
       50
176
     1
 90
        3
176
     1
 62
     5
420
      255
176
     1
290
     0
176
     1
 90
       50
176
     1
 90
       50
176
     1
 90
       50
176
     1
290
     0
176
     1
 90
       50
176
     1
 62
   256
176
     0
 40
1.0
176
     0
 90
        2
176
     1
  1
strokes_ogs.tif
176
     1
290
     0
176
     1
 40
1.0
176
     1
 40
1.0
176
     1
1001
ACAD
1000
AcDbSavedByObjectVersion
1070
     0
  0
VISUALSTYLE
  5
F4
102
{ACAD_REACTORS
330
EF
102
}
330
EF
100
AcDbVisualStyle
  2
Basic
 70
     7
177
     3
291
     1
 70
    58
 90
        1
176
     1
 90
        0
176
     1
 90
        1
176
     1
 90
        0
176
     1
 40
0.6
176
     1
 40
30.0
176
     1
 62
     7
420
 16777215
176
     1
 90
        0
176
     1
 90
        4
176
     1
 62
     7
176
     1
 62
   257
176
     1
 90
        1
176
     1
 90
        1
176
     1
 40
1.0
176
     1
 90
        8
176
     1
 62
     7
176
     1
 40
1.0
176
     1
 90
        1
176
     1
 90
        6
176
     1
 90
        2
176
     1
 62
     7
176
     1
 90
        5
176
     1
 90
        0
176
     1
 90
        0
176
     1
290
     0
176
     1
 90
        1
176
     1
 40
0.0
176
     1
 90
        0
176
     1
290
     0
176
     1
290
     1
176
     1
290
     1
176
     1
290
     0
176
     1
290
     0
176
     1
290
     0
176
     1
290
     0
176
     1
290
     0
176
     1
290
     0
176
     1
 90
       50
176
     1
 40
0.0
176
     1
 40
1.0
176
     1
 90
        0
176
     1
 62
    18
420
        0
176
     1
 90
       50
176
     1
 90
        3
176
     1
 62
     5
420
      255
176
     1
290
     0
176
     1
 90
       50
176
     1
 90
       50
176
     1
 90
       50
176
     1
290
     0
176
     1
 90
       50
176
     1
 62
   256
176
     0
 40
1.0
176
     0
 90
        2
176
     1
  1
strokes_ogs.tif
176
     1
290
     0
176
     1
 40
1.0
176
     1
 40
1.0
176
     1
1001
ACAD
1000
AcDbSavedByObjectVersion
1070
     0
  0
VISUALSTYLE
  5
FB
102
{ACAD_REACTORS
330
EF
102
}
330
EF
100
AcDbVisualStyle
  2
Brighten
 70
    12
177
     3
291
     1
 70
    58
 90
        2
176
     1
 90
        2
176
     1
 90
        1
176
     1
 90
        0
176
     1
 40
0.6
176
     1
 40
30.0
176
     1
 62
     7
420
 16777215
176
     1
 90
        1
176
     1
 90
        4
176
     1
 62
     7
176
     1
 62
   257
176
     1
 90
        1
176
     1
 90
        1
176
     1
 40
1.0
176
     1
 90
        8
176
     1
 62
     7
176
     1
 40
1.0
176
     1
 90
        1
176
     1
 90
        6
176
     1
 90
        2
176
     1
 62
     7
176
     1
 90
        5
176
     1
 90
        0
176
     1
 90
        0
176
     1
290
     0
176
     1
 90
        1
176
     1
 40
50.0
176
     1
 90
        0
176
     1
290
     0
176
     1
290
     1
176
     1
290
     1
176
     1
290
     0
176
     1
290
     0
176
     1
290
     0
176
     1
290
     0
176
     1
290
     0
176
     1
290
     0
176
     1
 90
       50
176
     1
 40
0.0
176
     1
 40
1.0
176
     1
 90
        0
176
     1
 62
    18
420
        0
176
     1
 90
       50
176
     1
 90
        3
176
     1
 62
     5
420
      255
176
     1
290
     0
176
     1
 90
       50
176
     1
 90
       50
176
     1
 90
       50
176
     1
290
     0
176
     1
 90
       50
176
     1
 62
   256
176
     0
 40
1.0
176
     0
 90
        2
176
     1
  1
strokes_ogs.tif
176
     1
290
     0
176
     1
 40
1.0
176
     1
 40
1.0
176
     1
1001
ACAD
1000
AcDbSavedByObjectVersion
1070
     0
  0
VISUALSTYLE
  5
FF
102
{ACAD_REACTORS
330
EF
102
}
330
EF
100
AcDbVisualStyle
  2
ColorChange
 70
    16
177
     3
291
     1
 70
    58
 90
        2
176
     1
 90
        2
176
     1
 90
        3
176
     1
 90
        0
176
     1
 40
0.6
176
     1
 40
30.0
176
     1
 62
     8
420
  8421504
176
     1
 90
        1
176
     1
 90
        4
176
     1
 62
     7
176
     1
 62
   257
176
     1
 90
        1
176
     1
 90
        1
176
     1
 40
1.0
176
     1
 90
        8
176
     1
 62
     8
420
  8421504
176
     1
 40
1.0
176
     1
 90
        1
176
     1
 90
        6
176
     1
 90
        2
176
     1
 62
     7
176
     1
 90
        5
176
     1
 90
        0
176
     1
 90
        0
176
     1
290
     0
176
     1
 90
        1
176
     1
 40
0.0
176
     1
 90
        0
176
     1
290
     0
176
     1
290
     1
176
     1
290
     1
176
     1
290
     0
176
     1
290
     0
176
     1
290
     0
176
     1
290
     0
176
     1
290
     0
176
     1
290
     0
176
     1
 90
       50
176
     1
 40
0.0
176
     1
 40
1.0
176
     1
 90
        0
176
     1
 62
    18
420
        0
176
     1
 90
       50
176
     1
 90
        3
176
     1
 62
     5
420
      255
176
     1
290
     0
176
     1
 90
       50
176
     1
 90
       50
176
     1
 90
       50
176
     1
290
     0
176
     1
 90
       50
176
     1
 62
   256
176
     0
 40
1.0
176
     0
 90
        2
176
     1
  1
strokes_ogs.tif
176
     1
290
     0
176
     1
 40
1.0
176
     1
 40
1.0
176
     1
1001
ACAD
1000
AcDbSavedByObjectVersion
1070
     0
  0
VISUALSTYLE
  5
F8
102
{ACAD_REACTORS
330
EF
102
}
330
EF
100
AcDbVisualStyle
  2
Conceptual
 70
     9
177
     3
291
     0
 70
    58
 90
        3
176
     1
 90
        2
176
     1
 90
        1
176
     1
 90
        0
176
     1
 40
0.6
176
     1
 40
30.0
176
     1
 62
     7
420
 16777215
176
     1
 90
        2
176
     1
 90
        2
176
     1
 62
     7
176
     1
 62
   257
176
     1
 90
        1
176
     1
 90
        1
176
     1
 40
40.0
176
     1
 90
        8
176
     1
 62
     7
176
     1
 40
1.0
176
     1
 90
        1
176
     1
 90
        6
176
     1
 90
        2
176
     1
 62
     7
176
     1
 90
        3
176
     1
 90
        0
176
     1
 90
        0
176
     1
290
     0
176
     1
 90
        1
176
     1
 40
0.0
176
     1
 90
        0
176
     1
290
     0
176
     1
290
     1
176
     1
290
     1
176
     1
290
     0
176
     1
290
     0
176
     1
290
     0
176
     1
290
     0
176
     1
290
     0
176
     1
290
     0
176
     1
 90
       50
176
     1
 40
0.0
176
     1
 40
1.0
176
     1
 90
        0
176
     1
 62
    18
420
        0
176
     1
 90
       50
176
     1
 90
        3
176
     1
 62
     5
420
      255
176
     1
290
     0
176
     1
 90
       50
176
     1
 90
       50
176
     1
 90
       50
176
     1
290
     0
176
     1
 90
       50
176
     1
 62
   256
176
     0
 40
1.0
176
     0
 90
        2
176
     1
  1
strokes_ogs.tif
176
     1
290
     0
176
     1
 40
1.0
176
     1
 40
1.0
176
     1
1001
ACAD
1000
AcDbSavedByObjectVersion
1070
     0
  0
VISUALSTYLE
  5
FA
102
{ACAD_REACTORS
330
EF
102
}
330
EF
100
AcDbVisualStyle
  2
Dim
 70
    11
177
     3
291
     1
 70
    58
 90
        2
176
     1
 90
        2
176
     1
 90
        1
176
     1
 90
        0
176
     1
 40
0.6
176
     1
 40
30.0
176
     1
 62
     7
420
 16777215
176
     1
 90
        1
176
     1
 90
        4
176
     1
 62
     7
176
     1
 62
   257
176
     1
 90
        1
176
     1
 90
        1
176
     1
 40
1.0
176
     1
 90
        8
176
     1
 62
     7
176
     1
 40
1.0
176
     1
 90
        1
176
     1
 90
        6
176
     1
 90
        2
176
     1
 62
     7
176
     1
 90
        5
176
     1
 90
        0
176
     1
 90
        0
176
     1
290
     0
176
     1
 90
        1
176
     1
 40
-50.0
176
     1
 90
        0
176
     1
290
     0
176
     1
290
     1
176
     1
290
     1
176
     1
290
     0
176
     1
290
     0
176
     1
290
     0
176
     1
290
     0
176
     1
290
     0
176
     1
290
     0
176
     1
 90
       50
176
     1
 40
0.0
176
     1
 40
1.0
176
     1
 90
        0
176
     1
 62
    18
420
        0
176
     1
 90
       50
176
     1
 90
        3
176
     1
 62
     5
420
      255
176
     1
290
     0
176
     1
 90
       50
176
     1
 90
       50
176
     1
 90
       50
176
     1
290
     0
176
     1
 90
       50
176
     1
 62
   256
176
     0
 40
1.0
176
     0
 90
        2
176
     1
  1
strokes_ogs.tif
176
     1
290
     0
176
     1
 40
1.0
176
     1
 40
1.0
176
     1
1001
ACAD
1000
AcDbSavedByObjectVersion
1070
     0
  0
VISUALSTYLE
  5
1E6
102
{ACAD_REACTORS
330
EF
102
}
330
EF
100
AcDbVisualStyle
  2
EdgeColorOff
 70
    22
177
     3
291
     1
 70
    58
 90
        2
176
     0
 90
        2
176
     0
 90
        0
176
     0
 90
        0
176
     0
 40
0.6
176
     0
 40
30.0
176
     0
 62
     7
420
 16777215
176
     0
 90
        1
176
     0
 90
        4
176
     0
 62
     7
176
     0
 62
   257
176
     0
 90
        1
176
     0
 90
        1
176
     0
 40
1.0
176
     0
 90
        8
176
     2
 62
     7
176
     0
 40
1.0
176
     0
 90
        1
176
     0
 90
        6
176
     0
 90
        2
176
     0
 62
     7
176
     0
 90
        5
176
     0
 90
        0
176
     0
 90
        0
176
     0
290
     0
176
     0
 90
        1
176
     0
 40
0.0
176
     0
 90
        0
176
     0
290
     0
176
     1
290
     1
176
     1
290
     1
176
     1
290
     0
176
     1
290
     0
176
     1
290
     0
176
     1
290
     0
176
     1
290
     0
176
     1
290
     0
176
     1
 90
       50
176
     1
 40
0.0
176
     1
 40
1.0
176
     1
 90
        0
176
     1
 62
    18
420
        0
176
     1
 90
       50
176
     1
 90
        3
176
     1
 62
     5
420
      255
176
     1
290
     0
176
     1
 90
       50
176
     1
 90
       50
176
     1
 90
       50
176
     1
290
     0
176
     1
 90
       50
176
     1
 62
   256
176
     0
 40
1.0
176
     0
 90
        2
176
     1
  1
strokes_ogs.tif
176
     1
290
     0
176
     1
 40
1.0
176
     1
 40
1.0
176
     1
1001
ACAD
1000
AcDbSavedByObjectVersion
1070
     0
  0
VISUALSTYLE
  5
FE
102
{ACAD_REACTORS
330
EF
102
}
330
EF
100
AcDbVisualStyle
  2
Facepattern
 70
    15
177
     3
291
     1
 70
    58
 90
        2
176
     1
 90
        2
176
     1
 90
        1
176
     1
 90
        0
176
     1
 40
0.6
176
     1
 40
30.0
176
     1
 62
     7
420
 16777215
176
     1
 90
        1
176
     1
 90
        4
176
     1
 62
     7
176
     1
 62
   257
176
     1
 90
        1
176
     1
 90
        1
176
     1
 40
1.0
176
     1
 90
        8
176
     1
 62
     7
176
     1
 40
1.0
176
     1
 90
        1
176
     1
 90
        6
176
     1
 90
        2
176
     1
 62
     7
176
     1
 90
        5
176
     1
 90
        0
176
     1
 90
        0
176
     1
290
     0
176
     1
 90
        1
176
     1
 40
0.0
176
     1
 90
        0
176
     1
290
     0
176
     1
290
     1
176
     1
290
     1
176
     1
290
     0
176
     1
290
     0
176
     1
290
     0
176
     1
290
     0
176
     1
290
     0
176
     1
290
     0
176
     1
 90
       50
176
     1
 40
0.0
176
     1
 40
1.0
176
     1
 90
        0
176
     1
 62
    18
420
        0
176
     1
 90
       50
176
     1
 90
        3
176
     1
 62
     5
420
      255
176
     1
290
     0
176
     1
 90
       50
176
     1
 90
       50
176
     1
 90
       50
176
     1
290
     0
176
     1
 90
       50
176
     1
 62
   256
176
     0
 40
1.0
176
     0
 90
        2
176
     1
  1
strokes_ogs.tif
176
     1
290
     0
176
     1
 40
1.0
176
     1
 40
1.0
176
     1
1001
ACAD
1000
AcDbSavedByObjectVersion
1070
     0
  0
VISUALSTYLE
  5
F0
102
{ACAD_REACTORS
330
EF
102
}
330
EF
100
AcDbVisualStyle
  2
Flat
 70
     0
177
     3
291
     1
 70
    58
 90
        2
176
     1
 90
        1
176
     1
 90
        1
176
     1
 90
        2
176
     1
 40
0.6
176
     1
 40
30.0
176
     1
 62
     7
420
 16777215
176
     1
 90
        0
176
     1
 90
        0
176
     1
 62
     7
176
     1
 62
   257
176
     1
 90
        1
176
     1
 90
        1
176
     1
 40
1.0
176
     1
 90
        8
176
     1
 62
     7
176
     1
 40
1.0
176
     1
 90
        1
176
     1
 90
        6
176
     1
 90
        2
176
     1
 62
     7
176
     1
 90
        5
176
     1
 90
        0
176
     1
 90
        0
176
     1
290
     0
176
     1
 90
       13
176
     1
 40
0.0
176
     1
 90
        0
176
     1
290
     0
176
     1
290
     1
176
     1
290
     1
176
     1
290
     0
176
     1
290
     0
176
     1
290
     0
176
     1
290
     0
176
     1
290
     0
176
     1
290
     0
176
     1
 90
       50
176
     1
 40
0.0
176
     1
 40
1.0
176
     1
 90
        0
176
     1
 62
    18
420
        0
176
     1
 90
       50
176
     1
 90
        3
176
     1
 62
     5
420
      255
176
     1
290
     0
176
     1
 90
       50
176
     1
 90
       50
176
     1
 90
       50
176
     1
290
     0
176
     1
 90
       50
176
     1
 62
   256
176
     0
 40
1.0
176
     0
 90
        2
176
     1
  1
strokes_ogs.tif
176
     1
290
     0
176
     1
 40
1.0
176
     1
 40
1.0
176
     1
1001
ACAD
1000
AcDbSavedByObjectVersion
1070
     0
  0
VISUALSTYLE
  5
F1
102
{ACAD_REACTORS
330
EF
102
}
330
EF
100
AcDbVisualStyle
  2
FlatWithEdges
 70
     1
177
     3
291
     1
 70
    58
 90
        2
176
     1
 90
        1
176
     1
 90
        1
176
     1
 90
        2
176
     1
 40
0.6
176
     1
 40
30.0
176
     1
 62
     7
420
 16777215
176
     1
 90
        1
176
     1
 90
        0
176
     1
 62
     7
176
     1
 62
   257
176
     1
 90
        1
176
     1
 90
        1
176
     1
 40
1.0
176
     1
 90
        0
176
     1
 62
   257
176
     1
 40
1.0
176
     1
 90
        1
176
     1
 90
        6
176
     1
 90
        2
176
     1
 62
     7
176
     1
 90
        5
176
     1
 90
        0
176
     1
 90
        0
176
     1
290
     0
176
     1
 90
       13
176
     1
 40
0.0
176
     1
 90
        0
176
     1
290
     0
176
     1
290
     1
176
     1
290
     1
176
     1
290
     0
176
     1
290
     0
176
     1
290
     0
176
     1
290
     0
176
     1
290
     0
176
     1
290
     0
176
     1
 90
       50
176
     1
 40
0.0
176
     1
 40
1.0
176
     1
 90
        0
176
     1
 62
    18
420
        0
176
     1
 90
       50
176
     1
 90
        3
176
     1
 62
     5
420
      255
176
     1
290
     0
176
     1
 90
       50
176
     1
 90
       50
176
     1
 90
       50
176
     1
290
     0
176
     1
 90
       50
176
     1
 62
   256
176
     0
 40
1.0
176
     0
 90
        2
176
     1
  1
strokes_ogs.tif
176
     1
290
     0
176
     1
 40
1.0
176
     1
 40
1.0
176
     1
1001
ACAD
1000
AcDbSavedByObjectVersion
1070
     0
  0
VISUALSTYLE
  5
F2
102
{ACAD_REACTORS
330
EF
102
}
330
EF
100
AcDbVisualStyle
  2
Gouraud
 70
     2
177
     3
291
     1
 70
    58
 90
        2
176
     1
 90
        2
176
     1
 90
        1
176
     1
 90
        2
176
     1
 40
0.6
176
     1
 40
30.0
176
     1
 62
     7
420
 16777215
176
     1
 90
        0
176
     1
 90
        0
176
     1
 62
     7
176
     1
 62
   257
176
     1
 90
        1
176
     1
 90
        1
176
     1
 40
1.0
176
     1
 90
        0
176
     1
 62
     7
176
     1
 40
1.0
176
     1
 90
        1
176
     1
 90
        6
176
     1
 90
        2
176
     1
 62
     7
176
     1
 90
        5
176
     1
 90
        0
176
     1
 90
        0
176
     1
290
     0
176
     1
 90
       13
176
     1
 40
0.0
176
     1
 90
        0
176
     1
290
     0
176
     1
290
     1
176
     1
290
     1
176
     1
290
     0
176
     1
290
     0
176
     1
290
     0
176
     1
290
     0
176
     1
290
     0
176
     1
290
     0
176
     1
 90
       50
176
     1
 40
0.0
176
     1
 40
1.0
176
     1
 90
        0
176
     1
 62
    18
420
        0
176
     1
 90
       50
176
     1
 90
        3
176
     1
 62
     5
420
      255
176
     1
290
     0
176
     1
 90
       50
176
     1
 90
       50
176
     1
 90
       50
176
     1
290
     0
176
     1
 90
       50
176
     1
 62
   256
176
     0
 40
1.0
176
     0
 90
        2
176
     1
  1
strokes_ogs.tif
176
     1
290
     0
176
     1
 40
1.0
176
     1
 40
1.0
176
     1
1001
ACAD
1000
AcDbSavedByObjectVersion
1070
     0
  0
VISUALSTYLE
  5
F3
102
{ACAD_REACTORS
330
EF
102
}
330
EF
100
AcDbVisualStyle
  2
GouraudWithEdges
 70
     3
177
     3
291
     1
 70
    58
 90
        2
176
     1
 90
        2
176
     1
 90
        1
176
     1
 90
        2
176
     1
 40
0.6
176
     1
 40
30.0
176
     1
 62
     7
420
 16777215
176
     1
 90
        1
176
     1
 90
        0
176
     1
 62
     7
176
     1
 62
   257
176
     1
 90
        1
176
     1
 90
        1
176
     1
 40
1.0
176
     1
 90
        0
176
     1
 62
   257
176
     1
 40
1.0
176
     1
 90
        1
176
     1
 90
        6
176
     1
 90
        2
176
     1
 62
     7
176
     1
 90
        5
176
     1
 90
        0
176
     1
 90
        0
176
     1
290
     0
176
     1
 90
       13
176
     1
 40
0.0
176
     1
 90
        0
176
     1
290
     0
176
     1
290
     1
176
     1
290
     1
176
     1
290
     0
176
     1
290
     0
176
     1
290
     0
176
     1
290
     0
176
     1
290
     0
176
     1
290
     0
176
     1
 90
       50
176
     1
 40
0.0
176
     1
 40
1.0
176
     1
 90
        0
176
     1
 62
    18
420
        0
176
     1
 90
       50
176
     1
 90
        3
176
     1
 62
     5
420
      255
176
     1
290
     0
176
     1
 90
       50
176
     1
 90
       50
176
     1
 90
       50
176
     1
290
     0
176
     1
 90
       50
176
     1
 62
   256
176
     0
 40
1.0
176
     0
 90
        2
176
     1
  1
strokes_ogs.tif
176
     1
290
     0
176
     1
 40
1.0
176
     1
 40
1.0
176
     1
1001
ACAD
1000
AcDbSavedByObjectVersion
1070
     0
  0
VISUALSTYLE
  5
F7
102
{ACAD_REACTORS
330
EF
102
}
330
EF
100
AcDbVisualStyle
  2
Hidden
 70
     6
177
     3
291
     0
 70
    58
 90
        1
176
     1
 90
        2
176
     1
 90
        2
176
     1
 90
        0
176
     1
 40
0.6
176
     1
 40
30.0
176
     1
 62
     7
420
 16777215
176
     1
 90
        2
176
     1
 90
        2
176
     1
 62
     7
176
     1
 62
   257
176
     1
 90
        2
176
     1
 90
        1
176
     1
 40
40.0
176
     1
 90
        0
176
     1
 62
   257
176
     1
 40
1.0
176
     1
 90
        1
176
     1
 90
        6
176
     1
 90
        2
176
     1
 62
     7
176
     1
 90
        3
176
     1
 90
        0
176
     1
 90
        0
176
     1
290
     0
176
     1
 90
        1
176
     1
 40
0.0
176
     1
 90
        0
176
     1
290
     0
176
     1
290
     1
176
     1
290
     1
176
     1
290
     0
176
     1
290
     0
176
     1
290
     0
176
     1
290
     0
176
     1
290
     0
176
     1
290
     0
176
     1
 90
       50
176
     1
 40
0.0
176
     1
 40
1.0
176
     1
 90
        0
176
     1
 62
    18
420
        0
176
     1
 90
       50
176
     1
 90
        3
176
     1
 62
     5
420
      255
176
     1
290
     0
176
     1
 90
       50
176
     1
 90
       50
176
     1
 90
       50
176
     1
290
     0
176
     1
 90
       50
176
     1
 62
   256
176
     0
 40
1.0
176
     0
 90
        2
176
     1
  1
strokes_ogs.tif
176
     1
290
     0
176
     1
 40
1.0
176
     1
 40
1.0
176
     1
1001
ACAD
1000
AcDbSavedByObjectVersion
1070
     0
  0
VISUALSTYLE
  5
1E4
102
{ACAD_REACTORS
330
EF
102
}
330
EF
100
AcDbVisualStyle
  2
JitterOff
 70
    20
177
     3
291
     1
 70
    58
 90
        2
176
     0
 90
        2
176
     0
 90
        0
176
     0
 90
        0
176
     0
 40
0.6
176
     0
 40
30.0
176
     0
 62
     7
420
 16777215
176
     0
 90
        1
176
     0
 90
        4
176
     0
 62
     7
176
     0
 62
   257
176
     0
 90
        1
176
     0
 90
        1
176
     0
 40
1.0
176
     0
 90
       10
176
     2
 62
     7
176
     0
 40
1.0
176
     0
 90
        1
176
     0
 90
        6
176
     0
 90
        2
176
     0
 62
     7
176
     0
 90
        5
176
     0
 90
        0
176
     0
 90
        0
176
     0
290
     0
176
     0
 90
        1
176
     0
 40
0.0
176
     0
 90
        0
176
     0
290
     0
176
     1
290
     1
176
     1
290
     1
176
     1
290
     0
176
     1
290
     0
176
     1
290
     0
176
     1
290
     0
176
     1
290
     0
176
     1
290
     0
176
     1
 90
       50
176
     1
 40
0.0
176
     1
 40
1.0
176
     1
 90
        0
176
     1
 62
    18
420
        0
176
     1
 90
       50
176
     1
 90
        3
176
     1
 62
     5
420
      255
176
     1
290
     0
176
     1
 90
       50
176
     1
 90
       50
176
     1
 90
       50
176
     1
290
     0
176
     1
 90
       50
176
     1
 62
   256
176
     0
 40
1.0
176
     0
 90
        2
176
     1
  1
strokes_ogs.tif
176
     1
290
     0
176
     1
 40
1.0
176
     1
 40
1.0
176
     1
1001
ACAD
1000
AcDbSavedByObjectVersion
1070
     0
  0
VISUALSTYLE
  5
FD
102
{ACAD_REACTORS
330
EF
102
}
330
EF
100
AcDbVisualStyle
  2
Linepattern
 70
    14
177
     3
291
     1
 70
    58
 90
        2
176
     1
 90
        2
176
     1
 90
        1
176
     1
 90
        0
176
     1
 40
0.6
176
     1
 40
30.0
176
     1
 62
     7
420
 16777215
176
     1
 90
        1
176
     1
 90
        4
176
     1
 62
     7
176
     1
 62
   257
176
     1
 90
        7
176
     1
 90
        7
176
     1
 40
1.0
176
     1
 90
        8
176
     1
 62
     7
176
     1
 40
1.0
176
     1
 90
        1
176
     1
 90
        6
176
     1
 90
        2
176
     1
 62
     7
176
     1
 90
        5
176
     1
 90
        0
176
     1
 90
        0
176
     1
290
     0
176
     1
 90
        1
176
     1
 40
0.0
176
     1
 90
        0
176
     1
290
     0
176
     1
290
     1
176
     1
290
     1
176
     1
290
     0
176
     1
290
     0
176
     1
290
     0
176
     1
290
     0
176
     1
290
     0
176
     1
290
     0
176
     1
 90
       50
176
     1
 40
0.0
176
     1
 40
1.0
176
     1
 90
        0
176
     1
 62
    18
420
        0
176
     1
 90
       50
176
     1
 90
        3
176
     1
 62
     5
420
      255
176
     1
290
     0
176
     1
 90
       50
176
     1
 90
       50
176
     1
 90
       50
176
     1
290
     0
176
     1
 90
       50
176
     1
 62
   256
176
     0
 40
1.0
176
     0
 90
        2
176
     1
  1
strokes_ogs.tif
176
     1
290
     0
176
     1
 40
1.0
176
     1
 40
1.0
176
     1
1001
ACAD
1000
AcDbSavedByObjectVersion
1070
     0
  0
VISUALSTYLE
  5
1E5
102
{ACAD_REACTORS
330
EF
102
}
330
EF
100
AcDbVisualStyle
  2
OverhangOff
 70
    21
177
     3
291
     1
 70
    58
 90
        2
176
     0
 90
        2
176
     0
 90
        0
176
     0
 90
        0
176
     0
 40
0.6
176
     0
 40
30.0
176
     0
 62
     7
420
 16777215
176
     0
 90
        1
176
     0
 90
        4
176
     0
 62
     7
176
     0
 62
   257
176
     0
 90
        1
176
     0
 90
        1
176
     0
 40
1.0
176
     0
 90
        9
176
     2
 62
     7
176
     0
 40
1.0
176
     0
 90
        1
176
     0
 90
        6
176
     0
 90
        2
176
     0
 62
     7
176
     0
 90
        5
176
     0
 90
        0
176
     0
 90
        0
176
     0
290
     0
176
     0
 90
        1
176
     0
 40
0.0
176
     0
 90
        0
176
     0
290
     0
176
     1
290
     1
176
     1
290
     1
176
     1
290
     0
176
     1
290
     0
176
     1
290
     0
176
     1
290
     0
176
     1
290
     0
176
     1
290
     0
176
     1
 90
       50
176
     1
 40
0.0
176
     1
 40
1.0
176
     1
 90
        0
176
     1
 62
    18
420
        0
176
     1
 90
       50
176
     1
 90
        3
176
     1
 62
     5
420
      255
176
     1
290
     0
176
     1
 90
       50
176
     1
 90
       50
176
     1
 90
       50
176
     1
290
     0
176
     1
 90
       50
176
     1
 62
   256
176
     0
 40
1.0
176
     0
 90
        2
176
     1
  1
strokes_ogs.tif
176
     1
290
     0
176
     1
 40
1.0
176
     1
 40
1.0
176
     1
1001
ACAD
1000
AcDbSavedByObjectVersion
1070
     0
  0
VISUALSTYLE
  5
F9
102
{ACAD_REACTORS
330
EF
102
}
330
EF
100
AcDbVisualStyle
  2
Realistic
 70
     8
177
     3
291
     0
 70
    58
 90
        2
176
     1
 90
        3
176
     1
 90
        0
176
     1
 90
        2
176
     1
 40
0.6
176
     1
 40
30.0
176
     1
 62
     7
420
 16777215
176
     1
 90
        0
176
     1
 90
        0
176
     1
 62
     7
176
     1
 62
   257
176
     1
 90
        1
176
     1
 90
        1
176
     1
 40
1.0
176
     1
 90
        8
176
     1
 62
   257
176
     1
 40
1.0
176
     1
 90
        1
176
     1
 90
        6
176
     1
 90
        2
176
     1
 62
     7
176
     1
 90
        3
176
     1
 90
        0
176
     1
 90
        0
176
     1
290
     0
176
     1
 90
       13
176
     1
 40
0.0
176
     1
 90
        0
176
     1
290
     0
176
     1
290
     1
176
     1
290
     1
176
     1
290
     0
176
     1
290
     0
176
     1
290
     0
176
     1
290
     0
176
     1
290
     0
176
     1
290
     0
176
     1
 90
       50
176
     1
 40
0.0
176
     1
 40
1.0
176
     1
 90
        0
176
     1
 62
    18
420
        0
176
     1
 90
       50
176
     1
 90
        3
176
     1
 62
     5
420
      255
176
     1
290
     0
176
     1
 90
       50
176
     1
 90
       50
176
     1
 90
       50
176
     1
290
     0
176
     1
 90
       50
176
     1
 62
   256
176
     0
 40
1.0
176
     0
 90
        2
176
     1
  1
strokes_ogs.tif
176
     1
290
     0
176
     1
 40
1.0
176
     1
 40
1.0
176
     1
1001
ACAD
1000
AcDbSavedByObjectVersion
1070
     0
  0
VISUALSTYLE
  5
1F3
102
{ACAD_REACTORS
330
EF
102
}
330
EF
100
AcDbVisualStyle
  2
Shaded
 70
    27
177
     3
291
     0
 70
    58
 90
        2
176
     1
 90
        2
176
     1
 90
        1
176
     1
 90
        2
176
     1
 40
0.6
176
     1
 40
30.0
176
     1
 62
     7
420
 16777215
176
     1
 90
        0
176
     1
 90
        4
176
     1
 62
     7
176
     1
 62
   257
176
     1
 90
        1
176
     1
 90
        1
176
     1
 40
1.0
176
     1
 90
        8
176
     1
 62
   257
176
     1
 40
1.0
176
     1
 90
        1
176
     1
 90
        6
176
     1
 90
        2
176
     1
 62
     8
420
  7895160
176
     1
 90
        3
176
     1
 90
        0
176
     1
 90
        0
176
     1
290
     0
176
     1
 90
        5
176
     1
 40
0.0
176
     1
 90
        0
176
     1
290
     0
176
     1
290
     1
176
     1
290
     1
176
     1
290
     0
176
     1
290
     0
176
     1
290
     0
176
     1
290
     0
176
     1
290
     0
176
     1
290
     0
176
     1
 90
       50
176
     1
 40
0.0
176
     1
 40
1.0
176
     1
 90
        0
176
     1
 62
    18
420
        0
176
     1
 90
       50
176
     1
 90
        3
176
     1
 62
     5
420
      255
176
     1
290
     0
176
     1
 90
       50
176
     1
 90
       50
176
     1
 90
       50
176
     1
290
     0
176
     1
 90
       50
176
     1
 62
   256
176
     0
 40
1.0
176
     0
 90
        2
176
     1
  1
strokes_ogs.tif
176
     1
290
     0
176
     1
 40
1.0
176
     1
 40
1.0
176
     1
1001
ACAD
1000
AcDbSavedByObjectVersion
1070
     0
  0
VISUALSTYLE
  5
1F2
102
{ACAD_REACTORS
330
EF
102
}
330
EF
100
AcDbVisualStyle
  2
Shaded with edges
 70
    26
177
     3
291
     0
 70
    58
 90
        2
176
     1
 90
        2
176
     1
 90
        1
176
     1
 90
        2
176
     1
 40
0.6
176
     1
 40
30.0
176
     1
 62
     7
420
 16777215
176
     1
 90
        1
176
     1
 90
        2
176
     1
 62
     7
176
     1
 62
   257
176
     1
 90
        2
176
     1
 90
        1
176
     1
 40
1.0
176
     1
 90
        8
176
     1
 62
   257
176
     1
 40
1.0
176
     1
 90
        1
176
     1
 90
        6
176
     1
 90
        2
176
     1
 62
     7
176
     1
 90
        3
176
     1
 90
        0
176
     1
 90
        0
176
     1
290
     0
176
     1
 90
        5
176
     1
 40
0.0
176
     1
 90
        0
176
     1
290
     0
176
     1
290
     1
176
     1
290
     1
176
     1
290
     0
176
     1
290
     0
176
     1
290
     0
176
     1
290
     0
176
     1
290
     0
176
     1
290
     0
176
     1
 90
       50
176
     1
 40
0.0
176
     1
 40
1.0
176
     1
 90
        0
176
     1
 62
    18
420
        0
176
     1
 90
       50
176
     1
 90
        3
176
     1
 62
     5
420
      255
176
     1
290
     0
176
     1
 90
       50
176
     1
 90
       50
176
     1
 90
       50
176
     1
290
     0
176
     1
 90
       50
176
     1
 62
   256
176
     0
 40
1.0
176
     0
 90
        2
176
     1
  1
strokes_ogs.tif
176
     1
290
     0
176
     1
 40
1.0
176
     1
 40
1.0
176
     1
1001
ACAD
1000
AcDbSavedByObjectVersion
1070
     0
  0
VISUALSTYLE
  5
1EF
102
{ACAD_REACTORS
330
EF
102
}
330
EF
100
AcDbVisualStyle
  2
Shades of Gray
 70
    23
177
     3
291
     0
 70
    58
 90
        2
176
     1
 90
        2
176
     1
 90
        3
176
     1
 90
        0
176
     1
 40
0.6
176
     1
 40
30.0
176
     1
 62
     7
420
 16777215
176
     1
 90
        2
176
     1
 90
        2
176
     1
 62
     7
176
     1
 62
     7
176
     1
 90
        1
176
     1
 90
        1
176
     1
 40
40.0
176
     1
 90
        8
176
     1
 62
     7
176
     1
 40
1.0
176
     1
 90
        1
176
     1
 90
        6
176
     1
 90
        2
176
     1
 62
     7
176
     1
 90
        3
176
     1
 90
        0
176
     1
 90
        0
176
     1
290
     0
176
     1
 90
        1
176
     1
 40
0.0
176
     1
 90
        0
176
     1
290
     0
176
     1
290
     1
176
     1
290
     1
176
     1
290
     0
176
     1
290
     0
176
     1
290
     0
176
     1
290
     0
176
     1
290
     0
176
     1
290
     0
176
     1
 90
       50
176
     1
 40
0.0
176
     1
 40
1.0
176
     1
 90
        0
176
     1
 62
    18
420
        0
176
     1
 90
       50
176
     1
 90
        3
176
     1
 62
     5
420
      255
176
     1
290
     0
176
     1
 90
       50
176
     1
 90
       50
176
     1
 90
       50
176
     1
290
     0
176
     1
 90
       50
176
     1
 62
   256
176
     0
 40
1.0
176
     0
 90
        2
176
     1
  1
strokes_ogs.tif
176
     1
290
     0
176
     1
 40
1.0
176
     1
 40
1.0
176
     1
1001
ACAD
1000
AcDbSavedByObjectVersion
1070
     0
  0
VISUALSTYLE
  5
1F0
102
{ACAD_REACTORS
330
EF
102
}
330
EF
100
AcDbVisualStyle
  2
Sketchy
 70
    24
177
     3
291
     0
 70
    58
 90
        1
176
     1
 90
        2
176
     1
 90
        2
176
     1
 90
        0
176
     1
 40
0.6
176
     1
 40
30.0
176
     1
 62
     7
420
 16777215
176
     1
 90
        2
176
     1
 90
        2
176
     1
 62
     7
176
     1
 62
     7
176
     1
 90
        1
176
     1
 90
        1
176
     1
 40
40.0
176
     1
 90
       11
176
     1
 62
     7
176
     1
 40
1.0
176
     1
 90
        1
176
     1
 90
        6
176
     1
 90
        2
176
     1
 62
     7
176
     1
 90
        6
176
     1
 90
        0
176
     1
 90
        0
176
     1
290
     0
176
     1
 90
        1
176
     1
 40
0.0
176
     1
 90
        0
176
     1
290
     0
176
     1
290
     1
176
     1
290
     1
176
     1
290
     0
176
     1
290
     0
176
     1
290
     0
176
     1
290
     0
176
     1
290
     0
176
     1
290
     0
176
     1
 90
       50
176
     1
 40
0.0
176
     1
 40
1.0
176
     1
 90
        0
176
     1
 62
    18
420
        0
176
     1
 90
       50
176
     1
 90
        3
176
     1
 62
     5
420
      255
176
     1
290
     0
176
     1
 90
       50
176
     1
 90
       50
176
     1
 90
       50
176
     1
290
     0
176
     1
 90
       50
176
     1
 62
   256
176
     0
 40
1.0
176
     0
 90
        2
176
     1
  1
strokes_ogs.tif
176
     1
290
     0
176
     1
 40
1.0
176
     1
 40
1.0
176
     1
1001
ACAD
1000
AcDbSavedByObjectVersion
1070
     0
  0
VISUALSTYLE
  5
FC
102
{ACAD_REACTORS
330
EF
102
}
330
EF
100
AcDbVisualStyle
  2
Thicken
 70
    13
177
     3
291
     1
 70
    58
 90
        2
176
     1
 90
        2
176
     1
 90
        1
176
     1
 90
        0
176
     1
 40
0.6
176
     1
 40
30.0
176
     1
 62
     7
420
 16777215
176
     1
 90
        1
176
     1
 90
        4
176
     1
 62
     7
176
     1
 62
   257
176
     1
 90
        1
176
     1
 90
        1
176
     1
 40
1.0
176
     1
 90
       12
176
     1
 62
     7
176
     1
 40
1.0
176
     1
 90
        1
176
     1
 90
        6
176
     1
 90
        2
176
     1
 62
     7
176
     1
 90
        5
176
     1
 90
        0
176
     1
 90
        0
176
     1
290
     0
176
     1
 90
        1
176
     1
 40
0.0
176
     1
 90
        0
176
     1
290
     0
176
     1
290
     1
176
     1
290
     1
176
     1
290
     0
176
     1
290
     0
176
     1
290
     0
176
     1
290
     0
176
     1
290
     0
176
     1
290
     0
176
     1
 90
       50
176
     1
 40
0.0
176
     1
 40
1.0
176
     1
 90
        0
176
     1
 62
    18
420
        0
176
     1
 90
       50
176
     1
 90
        3
176
     1
 62
     5
420
      255
176
     1
290
     0
176
     1
 90
       50
176
     1
 90
       50
176
     1
 90
       50
176
     1
290
     0
176
     1
 90
       50
176
     1
 62
   256
176
     0
 40
1.0
176
     0
 90
        2
176
     1
  1
strokes_ogs.tif
176
     1
290
     0
176
     1
 40
1.0
176
     1
 40
1.0
176
     1
1001
ACAD
1000
AcDbSavedByObjectVersion
1070
     0
  0
VISUALSTYLE
  5
F6
102
{ACAD_REACTORS
330
EF
102
}
330
EF
100
AcDbVisualStyle
  2
Wireframe
 70
     5
177
     3
291
     0
 70
    58
 90
        0
176
     1
 90
        2
176
     1
 90
        0
176
     1
 90
        0
176
     1
 40
0.6
176
     1
 40
30.0
176
     1
 62
     7
420
 16777215
176
     1
 90
        1
176
     1
 90
        4
176
     1
 62
     7
176
     1
 62
   257
176
     1
 90
        1
176
     1
 90
        1
176
     1
 40
1.0
176
     1
 90
        0
176
     1
 62
   257
176
     1
 40
1.0
176
     1
 90
        1
176
     1
 90
        6
176
     1
 90
        2
176
     1
 62
     7
176
     1
 90
        3
176
     1
 90
        0
176
     1
 90
        0
176
     1
290
     0
176
     1
 90
        1
176
     1
 40
0.0
176
     1
 90
        0
176
     1
290
     0
176
     1
290
     1
176
     1
290
     1
176
     1
290
     0
176
     1
290
     0
176
     1
290
     0
176
     1
290
     0
176
     1
290
     0
176
     1
290
     0
176
     1
 90
       50
176
     1
 40
0.0
176
     1
 40
1.0
176
     1
 90
        0
176
     1
 62
    18
420
        0
176
     1
 90
       50
176
     1
 90
        3
176
     1
 62
     5
420
      255
176
     1
290
     0
176
     1
 90
       50
176
     1
 90
       50
176
     1
 90
       50
176
     1
290
     0
176
     1
 90
       50
176
     1
 62
   256
176
     0
 40
1.0
176
     0
 90
        2
176
     1
  1
strokes_ogs.tif
176
     1
290
     0
176
     1
 40
1.0
176
     1
 40
1.0
176
     1
1001
ACAD
1000
AcDbSavedByObjectVersion
1070
     0
  0
VISUALSTYLE
  5
1F1
102
{ACAD_REACTORS
330
EF
102
}
330
EF
100
AcDbVisualStyle
  2
X-Ray
 70
    25
177
     3
291
     0
 70
    58
 90
        2
176
     1
 90
        2
176
     1
 90
        1
176
     1
 90
        1
176
     1
 40
0.5
176
     1
 40
30.0
176
     1
 62
     7
420
 16777215
176
     1
 90
        1
176
     1
 90
        0
176
     1
 62
     7
176
     1
 62
   257
176
     1
 90
        1
176
     1
 90
        1
176
     1
 40
1.0
176
     1
 90
        8
176
     1
 62
     7
176
     1
 40
1.0
176
     1
 90
        1
176
     1
 90
        6
176
     1
 90
        2
176
     1
 62
     7
176
     1
 90
        3
176
     1
 90
        0
176
     1
 90
        0
176
     1
290
     0
176
     1
 90
       13
176
     1
 40
0.0
176
     1
 90
        0
176
     1
290
     0
176
     1
290
     1
176
     1
290
     1
176
     1
290
     0
176
     1
290
     0
176
     1
290
     0
176
     1
290
     0
176
     1
290
     0
176
     1
290
     0
176
     1
 90
       50
176
     1
 40
0.0
176
     1
 40
1.0
176
     1
 90
        0
176
     1
 62
    18
420
        0
176
     1
 90
       50
176
     1
 90
        3
176
     1
 62
     5
420
      255
176
     1
290
     0
176
     1
 90
       50
176
     1
 90
       50
176
     1
 90
       50
176
     1
290
     0
176
     1
 90
       50
176
     1
 62
   256
176
     0
 40
1.0
176
     0
 90
        2
176
     1
  1
strokes_ogs.tif
176
     1
290
     0
176
     1
 40
1.0
176
     1
 40
1.0
176
     1
1001
ACAD
1000
AcDbSavedByObjectVersion
1070
     0
  0
DICTIONARYVAR
  5
146
102
{ACAD_REACTORS
330
5E
102
}
330
5E
100
DictionaryVariables
280
     0
  1
1:1
  0
DICTIONARYVAR
  5
259
102
{ACAD_REACTORS
330
5E
102
}
330
5E
100
DictionaryVariables
280
     0
  1
3.500000
  0
DICTIONARYVAR
  5
25A
102
{ACAD_REACTORS
330
5E
102
}
330
5E
100
DictionaryVariables
280
     0
  1
acadiso.lin
  0
DICTIONARYVAR
  5
145
102
{ACAD_REACTORS
330
5E
102
}
330
5E
100
DictionaryVariables
280
     0
  1
STANDARD
  0
DICTIONARYVAR
  5
84
102
{ACAD_REACTORS
330
5E
102
}
330
5E
100
DictionaryVariables
280
     0
  1
STANDARD
  0
DICTIONARYVAR
  5
227
102
{ACAD_REACTORS
330
5E
102
}
330
5E
100
DictionaryVariables
280
     0
  1
Metric50
  0
DICTIONARYVAR
  5
228
102
{ACAD_REACTORS
330
5E
102
}
330
5E
100
DictionaryVariables
280
     0
  1
Metric50
  0
DICTIONARYVAR
  5
5F
102
{ACAD_REACTORS
330
5E
102
}
330
5E
100
DictionaryVariables
280
     0
  1
2
  0
DICTIONARYVAR
  5
63
102
{ACAD_REACTORS
330
5E
102
}
330
5E
100
DictionaryVariables
280
     0
  1
1
  0
DICTIONARYVAR
  5
1AE
102
{ACAD_REACTORS
330
5E
102
}
330
5E
100
DictionaryVariables
280
     0
  1
0
  0
DICTIONARYVAR
  5
1AF
102
{ACAD_REACTORS
330
5E
102
}
330
5E
100
DictionaryVariables
280
     0
  1
0
  0
DICTIONARY
  5
662
102
{ACAD_REACTORS
330
660
102
}
330
660
100
AcDbDictionary
281
     1
  0
DICTIONARY
  5
661
102
{ACAD_REACTORS
330
660
102
}
330
660
100
AcDbDictionary
281
     1
  3
2313958042928
350
65B
  3
2313958042944
350
65C
  3
2313958042960
350
65D
  3
2313958042976
350
65E
  3
2313958042992
350
65F
  0
DICTIONARY
  5
669
330
28E
100
AcDbDictionary
280
     1
281
     1
  3
ACAD_XREC_ROUNDTRIP
360
66A
  0
DICTIONARY
  5
665
330
21C
100
AcDbDictionary
280
     1
281
     1
  3
ACAD_XREC_ROUNDTRIP
360
666
  0
DICTIONARY
  5
205
330
22
100
AcDbDictionary
280
     1
281
     1
  0
DICTIONARY
  5
1F9
330
ED
100
AcDbDictionary
280
     1
281
     1
  3
FBXASSET
360
1FA
  0
DICTIONARY
  5
1F7
330
EC
100
AcDbDictionary
280
     1
281
     1
  3
FBXASSET
360
1F8
  0
DICTIONARY
  5
173
330
EE
100
AcDbDictionary
280
     1
281
     1
  3
BUMPTILE
360
175
  3
DIFFUSETILE
360
174
  3
FBXASSET
360
1FB
  3
OPACITYTILE
360
176
  3
REFLECTIONTILE
360
177
  0
DICTIONARY
  5
667
330
28D
100
AcDbDictionary
280
     1
281
     1
  3
ACAD_XREC_ROUNDTRIP
360
668
  0
DICTIONARY
  5
663
330
21A
100
AcDbDictionary
280
     1
281
     1
  3
ACAD_XREC_ROUNDTRIP
360
664
  0
DICTIONARY
  5
162
330
7F
100
AcDbDictionary
280
     1
281
     1
  3
ACAD_ROUNDTRIP_2008_TABLESTYLE_CELLSTYLEMAP
360
659
  0
XRECORD
  5
65B
102
{ACAD_REACTORS
330
661
102
}
330
661
100
AcDbXrecord
280
     1
  1
AcDb_Thumbnail_Schema
102
{ATTRRECORD
341
65C
  2
AcDbDs::TreatedAsObjectData
280
     1
291
     1
102
ATTRRECORD}
102
{ATTRRECORD
341
65D
  2
AcDbDs::Legacy
280
     1
291
     1
102
ATTRRECORD}
  2
AcDbDs::ID
280
    10
 91
        8
102
{ATTRRECORD
341
65E
  2
AcDs:Indexable
280
     1
291
     1
102
ATTRRECORD}
102
{ATTRRECORD
341
65F
  2
AcDbDs::HandleAttribute
280
     7
282
     1
102
ATTRRECORD}
  2
Thumbnail_Data
280
    15
 91
        0
  0
XRECORD
  5
65C
102
{ACAD_REACTORS
330
661
102
}
330
661
100
AcDbXrecord
280
     1
  1
AcDbDs::TreatedAsObjectDataSchema
  2
AcDbDs::TreatedAsObjectData
280
     1
 91
        0
  0
XRECORD
  5
65D
102
{ACAD_REACTORS
330
661
102
}
330
661
100
AcDbXrecord
280
     1
  1
AcDbDs::LegacySchema
  2
AcDbDs::Legacy
280
     1
 91
        0
  0
XRECORD
  5
65E
102
{ACAD_REACTORS
330
661
102
}
330
661
100
AcDbXrecord
280
     1
  1
AcDbDs::IndexedPropertySchema
  2
AcDs:Indexable
280
     1
 91
        0
  0
XRECORD
  5
65F
102
{ACAD_REACTORS
330
661
102
}
330
661
100
AcDbXrecord
280
     1
  1
AcDbDs::HandleAttributeSchema
  2
AcDbDs::HandleAttribute
280
     7
 91
        1
284
     1
  0
XRECORD
  5
66A
102
{ACAD_REACTORS
330
669
102
}
330
669
100
AcDbXrecord
280
     1
102
DISPLAYNAME
  1
Imperial24
102
FLAGS
 90
        0
  0
XRECORD
  5
666
102
{ACAD_REACTORS
330
665
102
}
330
665
100
AcDbXrecord
280
     1
102
DISPLAYNAME
  1
Metric50
102
FLAGS
 90
        0
  0
XRECORD
  5
1FA
102
{ACAD_REACTORS
330
1F9
102
}
330
1F9
100
AcDbXrecord
280
     1
 70
     1
 90
429727718
  1
D62C5603-E3A1-4AEA-B7FB-FE5D8D0755AF
310
504B03040A0000080000CC70623B3DEE336E79000000790000001B0000006175746F6465736B2D64657369676E2D7061636B6167652E786D6C3C3F786D6C2076657273696F6E3D22312E302220656E636F64696E673D227574662D3822203F3E3C666F726D6174733E3C666F726D61743E687474703A2F2F736368656D612E
310
6175746F6465736B2E636F6D2F64657369676E2D7061636B6167652F323030393C2F666F726D61743E3C2F666F726D6174733E504B0304140006080800CC70623BD486FD9CA0000000F4000000130000005B436F6E74656E745F54797065735D2E786D6C7D8EC10E82300C865F65E91D8A1E8C310C0EEA1BF002731658846E
310
D98AC1B77784ABF1D8FE5FBFBF75BBCE937A534CCEB38643598122B6FEE978D0B0485F9C41B54DDD7D022595594E1A469170414C76A4D9A4D207E29CF43ECE46F218070CC6BECC4078ACAA135ACF422C856C0E68EA1BF5669944DDD7BCDE7B1F8E415D77AECB980613C2E4AC91FC167A2B244592486606FC29C8FD7F045B9A
310
EF7053A7E60B504B0304140006080800CC70623B853B8169EB0000007C01000008000000636F72652E786D6C8D90416EC3201045AF62CDB6C206821CC7C244919D9CA01740401C94182C03558F5F9C3852BBEB6A467FFE9B197D7EFC9E1EC5975982F5AE035262288C535E5B377690E21535501C055FBC8FBF6C503839990E
310
5619041F179FE64D52DE45E362569DD7661365082642A11EB9E920A89B99642953CC8E702F67A9EE7234257977194EC9EAE275C4EABCCF5EAD5940D4AC6F0E35A568B8F43562CD7046CD199FD07E60174276A7BE677B5EADB0E0D14EEFFB6A31321A0D82627C4084204C3F096B71DD52F6819B16635EADF63F509AF53FA164
310
5DDCD1EDDD17164090FCC8732078B56691CB33A85CD7DCC40F504B0304140006080800CC70623B55019EA25F0000007C00000007000000636E782E786D6C4DCB3B0E80201045D1AD90E915ED2CF8AC45050C11660C8261F98AB1B07AC9C97D42D718D865D3E909258CFD00CCE24AC6E326A164D74DC0B4128928FF32603847
310
2BA13128B1252AC747C6BAB984FC68F0B87FE8960A5C09FE86CFB69FBA01504B0304140006080800CC70623BDBABAAF470010000D40300000C0000006662782F636F72652E786D6CC553D16E823014FD95A6AF4B694182CC941A83FA05FB810A9511A125A5257EFE2E82712ECEB8A7F100CD39F7F69E734AF9FADC366850B6
310
AF8DCE7018308C942E4C59EB2AC3DE1D498AD15A706B8CFB56869196ADCAF00863C12B6B7C374385D14E6907A836A59A41D9F7CA615434B0C8705F7CAA5606D23BA8E84F41278B93AC54100640439DE0BDB320004D43C63716C7C399D30917DCFBBA9CD9BA8469F5B156168B24CED3F7248AC8769F27244EB73B92EED8862C
310
B7F13E0C179B3C8F979C8ECD82BBBABDAA2BAC924E9558448CBD9330242CFA08E3154B5651FCC6D215639C8EE5774DBE2B5F6CF2B5768B68963BB5F5588420E442FC700B1139D4CB01F450C1E918227C2E09DF070D8140C84E1E9AAB8F1340832A9CB13130A5F1376A908D57309505ECF2A0DF179C4E9D30F5B239B87E3823
310
7A79C6F31DE1A8A5AEC08474B03C7837EAE4938639B44E5932B833D2C6B6B279CDC613877FA26EE21F4A2A4C63EC7F29A2F301D1F9F7A0E37D145F504B0304140006080800CC70623B9C113CC27E0000009D0000000B0000006662782F636E782E786D6C4DCCDF0A83201C86E15B91DFB94BFB330DD428C8FB886521330DA7
310
6397BF1A1DECE883878F57749FCDA1B7892F1BBC047A23808C7F84D9FA55424E0BE6803A256208E9EF06C84F9B91703228B1C690F78B66B34CD9A5439DF5CF0BFBF65E35BCA1B8D6A5C6F540381E886698B5741C695F9503EBA150A2F8958E3DC3EA0B504B0304140006080800CC70623B7DF2F77C2A010000120200003100
310
00006662782F41393633353835312D344632462D344230382D423046372D3739314545314133324237412F636F72652E786D6C8D51DB8EC22014FC15C2939B0D2DB4B45643319AE817EC0F6041255A68B86CFCFC856D4D76DF7CE190393373060EDB3DC707F856CE6B6B7A480A0C81328395DA5C7B18C3057510EC3873D686
310
3F34088C18550F330C39BB3A1BA7051AAC09CA84841A2BD5020AEF55806078A44B0FFD7053A328440C89E1EFC52486BBB8AA8214A99D789CF9E05200300FC927E4FB4D5B375D43103D5527440FB843077C5AA3F5861C8F645F5787F59E95B390B318B55CE45AA638FAA2957BD7248B390B7A7CC51F9C124149C82B8C378810
310
84AB2F42B7B8DD56F413775B8C5999E9FF4471926F8AA236A1AE96B8B3CC434E5839373893369E1FAF30EA395917409EB7F26AF8801C171837A4A6AC9C89E9F9C9B1A58BA30FD6A5EF5DDDCF894B9AD9B6A59C957943A9FCAE2FD5BC4DFE03504B0304140006080800CC70623BAD7543B64E01000033030000300000006662
310
782F41393633353835312D344632462D344230382D423046372D3739314545314133324237412F636E782E786D6CD593CD6EC32010845F0571AD6CE3D48AD20813A9873E410FBD12D82434182C7EAAE6EDBB2424CD25871E7B41D6EC30B3FA84F9E67BB2E40B4234DE8DB46F1925E094D7C6ED479AD3AE5951B2113C789FEE
310
6C943839C1488B4C05DF079FE72A69D8C96C13AAD6B8631503449F83828872B949AC57D26200B826A308D316B4064D6E46FCDA41C05550DC9E483A00797BFD207EFB092A45DE9514C1BBD22178396BD39D891265658C238DEA00936C654E5E433CB65A26D9F6EDB5EBC14EBF49A45CB856E66048291F6939A9A81BB5C89177
310
38143CA680F4AA299D66A042CEB3354A2684DC9D8D178FE0D9B8B41CAAD720F880EE7EF93C0C18769E099ECC04D5A102C8049A8A05632F4DDF376CF1DE0F6BB65C2F8627B65A33C6BB62177CEBBDAD973006829F89F22E814B54F4BC2BE347F8AA8F681390B50FA73F804400B5F542E796F19FF974E7F78DB802FE05E20750
310
4B0304140006080800CC70623BE75B7789680500003C100000340000006662782F41393633353835312D344632462D344230382D423046372D3739314545314133324237412F6F626A656374732E786D6CAD575B8F9B3818FD2B887D06C22499CB8AA1CA655245D5B455A356FB305264C061D8018C6C3393D95FBFC7600890
310
A4CD5EF210B0B1BFEBF98E3F7B1FF6596ABC522E1296DF9BAE3D320D9A872C4AF2F8DE2CE5CEBA358D0FBEC719939D65A691938CDE9B6ADAF4BD98B3B2D05311DD91329583D9D5FC0F438434A7A611A644887B5384CF34233629258BA878B12322891DEFF6B66BD70BFB62634E8AE781D082709A4B588AF91C528CDA28B73F
310
1C998EEF39EABBEFA97FBD6A7C7E9553F9D3D79FE442923C3C523610337627CB87ABE99D359D4CC6D6E4FACAB5E6ABF9D2726FC6A3C5F56271377BB88362213924694B38DD99FE47C48627A1E7D49F5A8BB5E1A74C0A599ED3B0F21F1E56366B89112D681E218F0915D0D6F17AD41FBA2A369DCF6335D62ABBD39779D5DDD1
310
11D4D8DE3CBB96B2E04FB8202E41051754A1AA8E8F76B4C6DFE810B580B1547F4B84911149794252234D024EF8BBE963A95AE27B3D310A9D5C215C7960FAEE415ED75694C6AFB17BCACA5D99A60A9AA65F217B0BFC53292ACB92BF283FAD0D3621576592CB5BED907C2FA8E9DF794E35E97BEA31BED21FEB401ABB94C44839
310
DCACBF0E1C5DA8DA5B2F4DFFD32AD86F543D9E565E7056502E157C00AD2671CD534549AB752FCA9CDA00677A313F04E51B22FF19E57B300579E3C97EB29F682D92935CEC18CF901B7B54FD8C51F362B56FC72FE0B3C1EAE335EDCCBF5AEC39ADB17DC238973F804BA5E6F6BFE7AF1FB32E523BE9F3BD571418E3631DCA4D48
310
5250CF639223210A9446CA30052EDF057BD35F8329C1ECD84552BF0DC8D18BE7BCE23BFE6BD960AB4A7DE79923A103BEBD80F911CBAA2C60DB19B01CF164A5583B772EE6D3FFA56666CBCDA74DC97724A48F9A58967497E489C4D979006FD7A05E227A1EBDD0F737C623387A9C844D3709995625106D157315F8B8392CD4E0
310
A0B9A720C4BE9829CEF37EA1E13111214D53925356365ADA634861B52519DD27A00AEB808EAF0628E6F435519D446F45CF2C9CF5214F0A15B2F6D06B79DA3EE3CBF7F56780D2F4E7EF73A0F5E5B02A38D07DC852C6B7C1FBB6664213E0C39E3EBA7FF4E1AD23EA2829407C85E586727488B751B2DB9502BC7B228A3FD68B6E
310
A65A22397E690AA8D158D7E404EC8CDA235CC3B7D1898680131CEC2CDF2638C65196279577750F15884AEE19F94199155B92B13297978469D4F8D358DF0AEF7631E28DC8F0D9F437D5D39A83B2231A1D52D543813A824EF8D44BCFF2FA6A31BD1E8DAD87F1CCB526B3879935BF59CDADD5C37479BB1CDD4CA7B3556B516589
310
EF352754B706114D9C885EC9131DE6EFEB43D99AFE2391C2F958179413D7CFEF6B1B6DB1E7600F00DE6E5C67454A339A4BA2E0FBA85ED26F045D454F463DBFCE484C2F90F2E5E3666003662ED8F755951A7D1BECD5B30B550B2785C8E7320B7292A4838DDA71BBC863ED7613CAF659337A3354231D4FF4A182A54904C2898C
310
98B28C4AD0CE056CCF332A80986E571EE9DBC305BB5FEB7E509220A58D25CF042D712A806AC0AD0C657FDEF80D2D9CEAA2EE4D1C76F60BFE74219A06527D6F82DF6412526107381E55E353090704D085B52408A8913C4ED159D79BDA71BB4BC506F4831350EB6F975CD22D69BF7AC49B91A2C0A9DDA3D5CA36AD20FC478E37
310
E61844E2352865EBCB61A275A65283CAAA9DD27703B4102F5AF51EF5F573B75CBB5AD38BC845F7A49F82A0966A49C2E3EA5EA0ECD326CD965F1DB402C6FA8B51A4658C5C5E2EC9E214602E55810345408596591009A82E7E7FFACA19EEA299B14A0081A705CB3296EBC14CDF658DCD336EA6D1136881AAEB87B81AB9EE53D5
310
F5EB8BC8362082DA24122F98680A4E7930C01A0079749CEA14382A0783E5EBA5A10F8C098456A03D6A4AEB6BB881E2513747552A5DB22C7EDAF83BD5528081A365F7FF06504B0304140006080000CC70623B000000000000000000000000350000006662782F41393633353835312D344632462D344230382D423046372D37
310
39314545314133324237412F76657274696365732E62696E504B0304140006080800CC70623BF270F1330600000004000000360000006662782F41393633353835312D344632462D344230382D423046372D3739314545314133324237412F747269616E676C65732E62696E636660600000504B0304140006080000CC7062
310
3B000000000000000000000000370000006662782F41393633353835312D344632462D344230382D423046372D3739314545314133324237412F617474726962757465732E62696E504B0304140006080800CC70623B08DA0BD19000000041010000360000006662782F41393633353835312D344632462D344230382D4230
310
46372D3739314545314133324237412F6469726563746F72792E786D6C858F410AC3201045AF22B36F53E9A60B35CBEEBAE80D244E44489C6234F4F835464A48035D0DF398FF9F8AF63D0E6CC63039F212F8F9020C7D47C6792B21C5FE7403D62A1188E2E60C98D7234A5830286103A55745067B9D86B8A3CF9C7F90C11DE6
310
07FB144396D7B6A82D282E9A152AD114D5EF2CB866EEE831B8EEA07A7BB5A8D7D61A2BAAEB7FD5F70921FF497D00504B0304140006080800CC70623BEDD1DC58FD000000A00100003B0000006662782F41393633353835312D344632462D344230382D423046372D3739314545314133324237412F7265736F75726365732F
310
636F72652E786D6C8D504B6E833010BD0A9A6D65B00922041947112427E8052C33A156828DFCA97AFC9A40A576D7CDCCE87D344F8F9FBFE667F689CE6B6B3A6039850C8DB2A336530731DC4903D95970676DF82583CCC8193B5861107C72362E3BA4AC096842428D1D7107A5F7182053CF7474E0D507CE32973124857FE48B
310
540F3961CEF244279DE03EB81420DB9EAC1384436FA353E879B1B182C7A8C75DA3C7F453DF353A1075D537A7BA6464B8F535A99AE14A9A2BBD90E350DD183B5CFABE3AF262350B1EF4FC9351399401471025A527C218A1E53BAB5A5AB765F5469B96525EACF23FA6B88CFF34456DC2A1DCE36E360F82A5202F42F062ED2BAD
310
579969AFDD8A6F504B010214000A0000080000CC70623B3DEE336E79000000790000001B00000000000000000000000000000000006175746F6465736B2D64657369676E2D7061636B6167652E786D6C504B01021400140006080800CC70623BD486FD9CA0000000F40000001300000000000000000000000000B20000005B
310
436F6E74656E745F54797065735D2E786D6C504B01021400140006080800CC70623B853B8169EB0000007C010000080000000000000000000000000083010000636F72652E786D6C504B01021400140006080800CC70623B55019EA25F0000007C000000070000000000000000000000000094020000636E782E786D6C504B
310
01021400140006080800CC70623BDBABAAF470010000D40300000C00000000000000000000000000180300006662782F636F72652E786D6C504B01021400140006080800CC70623B9C113CC27E0000009D0000000B00000000000000000000000000B20400006662782F636E782E786D6C504B01021400140006080800CC70
310
623B7DF2F77C2A010000120200003100000000000000000000000000590500006662782F41393633353835312D344632462D344230382D423046372D3739314545314133324237412F636F72652E786D6C504B01021400140006080800CC70623BAD7543B64E010000330300003000000000000000000000000000D2060000
310
6662782F41393633353835312D344632462D344230382D423046372D3739314545314133324237412F636E782E786D6C504B01021400140006080800CC70623BE75B7789680500003C10000034000000000000000000000000006E0800006662782F41393633353835312D344632462D344230382D423046372D3739314545
310
314133324237412F6F626A656374732E786D6C504B01021400140006080000CC70623B0000000000000000000000003500000000000000000000000000280E00006662782F41393633353835312D344632462D344230382D423046372D3739314545314133324237412F76657274696365732E62696E504B01021400140006
310
080800CC70623BF270F133060000000400000036000000000000000000000000007B0E00006662782F41393633353835312D344632462D344230382D423046372D3739314545314133324237412F747269616E676C65732E62696E504B01021400140006080000CC70623B0000000000000000000000003700000000000000
310
000000000000D50E00006662782F41393633353835312D344632462D344230382D423046372D3739314545314133324237412F617474726962757465732E62696E504B01021400140006080800CC70623B08DA0BD1900000004101000036000000000000000000000000002A0F00006662782F41393633353835312D344632
310
462D344230382D423046372D3739314545314133324237412F6469726563746F72792E786D6C504B01021400140006080800CC70623BEDD1DC58FD000000A00100003B000000000000000000000000000E1000006662782F41393633353835312D344632462D344230382D423046372D3739314545314133324237412F7265
310
736F75726365732F636F72652E786D6C504B0506000000000E000E0080040000641100000000
  0
XRECORD
  5
1F8
102
{ACAD_REACTORS
330
1F7
102
}
330
1F7
100
AcDbXrecord
280
     1
 70
     1
 90
429727718
  1
30362254-06B7-45E0-A893-8CFA70E3D6BC
310
504B03040A0000080000CC70623B3DEE336E79000000790000001B0000006175746F6465736B2D64657369676E2D7061636B6167652E786D6C3C3F786D6C2076657273696F6E3D22312E302220656E636F64696E673D227574662D3822203F3E3C666F726D6174733E3C666F726D61743E687474703A2F2F736368656D612E
310
6175746F6465736B2E636F6D2F64657369676E2D7061636B6167652F323030393C2F666F726D61743E3C2F666F726D6174733E504B0304140006080800CC70623BD486FD9CA0000000F4000000130000005B436F6E74656E745F54797065735D2E786D6C7D8EC10E82300C865F65E91D8A1E8C310C0EEA1BF002731658846E
310
D98AC1B77784ABF1D8FE5FBFBF75BBCE937A534CCEB38643598122B6FEE978D0B0485F9C41B54DDD7D022595594E1A469170414C76A4D9A4D207E29CF43ECE46F218070CC6BECC4078ACAA135ACF422C856C0E68EA1BF5669944DDD7BCDE7B1F8E415D77AECB980613C2E4AC91FC167A2B244592486606FC29C8FD7F045B9A
310
EF7053A7E60B504B0304140006080800CC70623B1EC5D7A3EB0000007C01000008000000636F72652E786D6C8D90416EC3201045AF82665B6103C6756C6122AB4D4ED00B204C5C94182C03558F5F9C3852BBEB6A467FFE9B197D71FC9E6FE8CBACC17AD7032D0820E3B41FAD9B7A48F1820F808E52ACDEC75F36404ECDA687
310
4D0629A6D5A76597B477D1B89855E747B38B2A041301E95B6E7A08FAD3CCAA50296647B8168BD2573599823EBB0CA76447F43862C7BCCF5EAC59410E4DDD9C7973C2755553CCCFA4C603E3040F1565ED3B1FDE4E432BCA0D9622DAF9795FAF464533826484B498524CD807E51D79ED187F21878E10516EF63F505AC67F42C9
310
BA58B1FDDD071640D2FCC87D2045B96591CB3DA85CB7DCE40F504B0304140006080800CC70623B55019EA25F0000007C00000007000000636E782E786D6C4DCB3B0E80201045D1AD90E915ED2CF8AC45050C11660C8261F98AB1B07AC9C97D42D718D865D3E909258CFD00CCE24AC6E326A164D74DC0B4128928FF32603847
310
2BA13128B1252AC747C6BAB984FC68F0B87FE8960A5C09FE86CFB69FBA01504B0304140006080800CC70623B8C9102E971010000D40300000C0000006662782F636F72652E786D6CC5535B6E833010BC8AE5DF0A6C08340F1947A84D4ED00B38C6A128602363A31CBFCB234A53A551FA553EC09AD9F5CE8C31DB9E9B1AF5CA
310
7695D1198E428A91D2D214952E33ECDD315861B4E5CC1AE3BE9561A445A3323CC098B3D21ADFCE9034DA29ED00D5A6503328BA4E398C640D8B0C77F253352214DE4145770A5B214FA2546114020D759C75CE8200340D19DE981F0F6746269C33EFAB6266AB02A655C74A59CCF365BADC27CB5D902ED22848F6340DF238A141
310
BE88E2F57B92BFEDF23523433367AE6A2EEAA455C2A902F398D2751045018D3FA264435F3771F242571B4A1919CA6F9A7C5B3CD9E42BED16F12C776AEB308F40C848FC700B1139D4891EF410CEC810227CC6846F8386402064270EF5C5C709A05E49676C024C61FC95EA45ED154CA5211D1FF4FB8291A913A68E9B83EBBB33
310
E2A7673CDE118E5AE8124C0807CB8377834E366998436B950D7A7746DAD846D4CFD978E0F04FD455FC5D49D2D4C6FE9722321F10997F0F32DC47FE05504B0304140006080800CC70623BFFEA85907E0000009D0000000B0000006662782F636E782E786D6C4DCCD10A83201886E15B91FFDC95D95A811AB6F23E625948A6C3
310
E9D8E5AF46073BFAE0E1E365ED67B3E8ADC3CB78C7815C7240DA3DFC64DCC221C519D7805AC182F7F1EF06C88D9BE6703008B6049F9E274D7A1E938DBB5AE3D6131B2589BA0D3D965551E0B2EA732C9B9A624AAEB41E3A557677029960D9AFB4EF11165F504B0304140006080800CC70623B4FEEA4082C0100001202000031
310
0000006662782F39464131463745442D413632322D343644302D413938332D3331353338454246344243312F636F72652E786D6C8D515B6EC32010BC0AE2AB55850DD871ED0813254D72825EC00192A2C460F1A872FC42ED48ED5F7E00CDCECCCEB26C731F6FE05B39AFADE921293004CA082BB5B9F43086336A21D870E6AC
310
0D7F68109861543DCC30E4ECE26C9C164858139409093556AA051CBC570102714B8F1E7AF1A5C6A11862480C7F2DA6415C878B2A4891CA89C7990F2E050073937C42DE1DB7E4F87ED8A36D4329AA9B3D46DBAEAD504556557BD81DEBDD0761E52CE42C462D17B996298E3E6BE59E35C962CE821E1FF18553435012728A7187
310
0841987E927A8D9B35ADDF70BBC6989599FE4F1427F9A4286A132ABAC49D651EF234CD5CE04CDA78BA3DC2A8FB645D00B9DF8B57E215725C60BCA2A463E54C4CE327C7A65E1C7DB02E7DEFCBF594B864C5CA6CDBD49C957943E9FA5D5FBAF336F90F504B0304140006080800CC70623BAD7543B64E01000033030000300000
310
006662782F39464131463745442D413632322D343644302D413938332D3331353338454246344243312F636E782E786D6CD593CD6EC32010845F0571AD6CE3D48AD20813A9873E410FBD12D82434182C7EAAE6EDBB2424CD25871E7B41D6EC30B3FA84F9E67BB2E40B4234DE8DB46F1925E094D7C6ED479AD3AE5951B2113C
310
789FEE6C943839C1488B4C05DF079FE72A69D8C96C13AAD6B8631503449F83828872B949AC57D26200B826A308D316B4064D6E46FCDA41C05550DC9E483A00797BFD207EFB092A45DE9514C1BBD22178396BD39D891265658C238DEA00936C654E5E433CB65A26D9F6EDB5EBC14EBF49A45CB856E66048291F6939A9A81BB5
310
C8917738143CA680F4AA299D66A042CEB3354A2684DC9D8D178FE0D9B8B41CAAD720F880EE7EF93C0C18769E099ECC04D5A102C8049A8A05632F4DDF376CF1DE0F6BB65C2F8627B65A33C6BB62177CEBBDAD973006829F89F22E814B54F4BC2BE347F8AA8F681390B50FA73F804400B5F542E796F19FF974E7F78DB802FE05
310
E207504B0304140006080800CC70623B16AB87BA640500003C100000340000006662782F39464131463745442D413632322D343644302D413938332D3331353338454246344243312F6F626A656374732E786D6CAD575B6FA33818FD2B887DE6924B3BED8A326A92B68A663B534DD4D13E548A0C38942D60649B369D5FBFC7
310
600890A493BDE42160637FD7F31D7FF63E6FB3D478A55C242CBF3247B66B1A340F5994E4F19559CA8D75611A9F7D8F33263BCB4C232719BD32D5B4E97B316765A1A722BA21652A07B3B7B33F0D11D29C9A46981221AE4C113ED38CD8A4942CA2E2C58E882476BCD9DA23BB5ED8171B73523C0F841684D35CC252CCE79062D4
310
468DFA43D7747CCF51DF7D4FFDEB5593E3AB9CCA9FBEFE241792E4E19EB28198C968BAB8199F5D5A67D3E9C49A9E8F47D6EC76B6B0469F26EEFC7C3EBFBCBEB98462213924694B38DD98FE1D62C393D073EA4FADC5DAF04326852CCF6958F90F0F2B9BB5C48816348F90C7840A68EB78EDF68723159BCEE7891A6B95DDE9D3
310
BCEAEEE8086A6C6F9E5D4B59F0175C10A7A0820BAA5055C7473B5AE3CFDD452D602CD5DF12616444529E90D448938013FE6EFA58AA96F85E4F8C42275708571E98FE6827AF6B2B4AE3D7D83D64E5A64C53054DD3AF90BD06FEA9149565C94FCA0F6B834DC85599E4F2423B24DF0B6AFA979E534DFA9E7A4CC6FA631D486393
310
921829879BF5D781A373557BCB85E97FB90DB62B558F8795179C15944B051F40AB495CF35451D26A4727654E6D8033BD98EF82F21D91FF8AF2DD9982BCF1643BDD4EB516C9492E368C67C88DED563FC36D5EACF66DFF057C3658BDBFA69DF9578B3DA735B64F18C7F20770A9D45CFCF7FCF563D6456A277DBEF78A02637CA2
310
43B90A490AEAB94F72244481D24819A6C0E59B606BFA4B3025981DBB48EAB701D97BF19C577CC77F2D1B6C55A9EF3C732474C0B727303F625995056C3B02963D9EAC146BE78EC5FCEC7FA999EBC5EACBAAE41B12D27B4D2C0BBA49F244E2ECDC81B76B502F113D8F5EE8FB1BE3111CDD4FC2AA9B844CAB1288B68AB90A7CDC
310
1C166AB0D3DC5310625FCC14E779BFD0709F8890A629C9292B1B2DED31A4B0DA928CEE135085754027E3018A397D4D5427D15BD1330B677DC8934285AC3DF45A9EB68FF8F2B8FC0A509AFEECFD0FF2DE25CC6047F7214B195F07EFEB9A094D800F7BFAE8FED187B78EA8A3A400F115961BCAD1215E47C966530AF0EE8128FE
310
58CEBB996A8964FFA529A046635D9353B0336A8F700DDF46271A024E70B0B37C9DE01847591E54DED53D54202AB947E4076556AC49C6CA5C9E1226B7F1A7B1BE15DEED62C41B91E1B3E9AFAAA735036547343A925075041DF0A9979E893B391F8FCFA6967B3EFB644DCF6E5CEBFAE272625DCC6FAF3FB93793C5F90CE1EF57
310
407342756B10D1C489E8953CD1617E5CEECAD6F4EF8914CE5D5D504E5C3F1F9736DA62CFC11E00BCDDB8CC8A9466349744C1F75EBDA4DF09BA8A9E8C7A7E9991989E20E5DBDD6A6003664ED8F7A04A8DBE0DF6EAD9B9AA858342E47399053949D2C146EDB85DE4B176BB0965FBAC19BD19AA918E27FA50C1D22402E144464C
310
59462568E704B6E71915404CB72B8FF4EDE184DDAF753F284990D2C6926782963815403548A70C657FDEF80D2D9CEAA2AE4C1C76F60BFE74219A06527D6582DF6412526107381E55E353090704D085B52408D0933C4ED159D79BDA71BB4BC506F4831350EB6F979CD22D69BF7AC49B91A2C0A9DDA3D5CA36AD20FC478E37E6
310
1844E2352865EBCB6EA275A652E3836BE04EFB400BF1A2556F515F1FBB35B2AB35BD889C744FFA1004B5544B121E57F70215746DD2F5E2C1412B602CBF19455AC6C8E5E9922C4E01E65215385004546899059180EAFCF7A707CE7017CD8CDB0410789AB32C63B91E5CEBBBACB17AC6CD347A022D5075FD106377347AAABA7E
310
7D11590744509B44E205134DC1290F06580320F78E537D3D73540E06CB970B431F185308AD40BBD794D6D77003C5A36E8EAA54BA64597CD8F83BD552A080A365F7FF06504B0304140006080000CC70623B000000000000000000000000350000006662782F39464131463745442D413632322D343644302D413938332D3331
310
353338454246344243312F76657274696365732E62696E504B0304140006080800CC70623BF270F1330600000004000000360000006662782F39464131463745442D413632322D343644302D413938332D3331353338454246344243312F747269616E676C65732E62696E636660600000504B0304140006080000CC70623B
310
000000000000000000000000370000006662782F39464131463745442D413632322D343644302D413938332D3331353338454246344243312F617474726962757465732E62696E504B0304140006080800CC70623B08DA0BD19000000041010000360000006662782F39464131463745442D413632322D343644302D413938
310
332D3331353338454246344243312F6469726563746F72792E786D6C858F410AC3201045AF22B36F53E9A60B35CBEEBAE80D244E44489C6234F4F835464A48035D0DF398FF9F8AF63D0E6CC63039F212F8F9020C7D47C6792B21C5FE7403D62A1188E2E60C98D7234A5830286103A55745067B9D86B8A3CF9C7F90C11DE607
310
FB144396D7B6A82D282E9A152AD114D5EF2CB866EEE831B8EEA07A7BB5A8D7D61A2BAAEB7FD5F70921FF497D00504B0304140006080800CC70623B0D6EF93BFE000000A00100003B0000006662782F39464131463745442D413632322D343644302D413938332D3331353338454246344243312F7265736F75726365732F63
310
6F72652E786D6C8D50596E833010BD0A9ADFCA60B334011947A8694ED00B586642AC041B79A97AFC9A40A5F6AF3F33A3B7689E1E3F7DCD8FEC139DD7D6F4C0720A191A65476DA61E62B892236427C19DB5E1970C322367EC618541F0C9D9B8EC90B226A009093576C41D94DE63804C3DD2D18357379C652E63480A7FCF17A9
310
EE72C29CE5894E3AC17D702940B63D59270887DE46A7D0F36263058F518FBB468FE9A7BE6A7420864373B8D4873369AA8691FA421B3294352543C5CAF65C0F6FEF43CB8BD52C78D0F34F46E550061C419494B6843142CB0F5677F4B52BEB177AEC28E5C52AFF638ACBF84F53D42654E51E77B379102C05791282176B5F693D
310
CB4C7BED567C03504B010214000A0000080000CC70623B3DEE336E79000000790000001B00000000000000000000000000000000006175746F6465736B2D64657369676E2D7061636B6167652E786D6C504B01021400140006080800CC70623BD486FD9CA0000000F40000001300000000000000000000000000B20000005B
310
436F6E74656E745F54797065735D2E786D6C504B01021400140006080800CC70623B1EC5D7A3EB0000007C010000080000000000000000000000000083010000636F72652E786D6C504B01021400140006080800CC70623B55019EA25F0000007C000000070000000000000000000000000094020000636E782E786D6C504B
310
01021400140006080800CC70623B8C9102E971010000D40300000C00000000000000000000000000180300006662782F636F72652E786D6C504B01021400140006080800CC70623BFFEA85907E0000009D0000000B00000000000000000000000000B30400006662782F636E782E786D6C504B01021400140006080800CC70
310
623B4FEEA4082C0100001202000031000000000000000000000000005A0500006662782F39464131463745442D413632322D343644302D413938332D3331353338454246344243312F636F72652E786D6C504B01021400140006080800CC70623BAD7543B64E010000330300003000000000000000000000000000D5060000
310
6662782F39464131463745442D413632322D343644302D413938332D3331353338454246344243312F636E782E786D6C504B01021400140006080800CC70623B16AB87BA640500003C1000003400000000000000000000000000710800006662782F39464131463745442D413632322D343644302D413938332D3331353338
310
454246344243312F6F626A656374732E786D6C504B01021400140006080000CC70623B0000000000000000000000003500000000000000000000000000270E00006662782F39464131463745442D413632322D343644302D413938332D3331353338454246344243312F76657274696365732E62696E504B01021400140006
310
080800CC70623BF270F133060000000400000036000000000000000000000000007A0E00006662782F39464131463745442D413632322D343644302D413938332D3331353338454246344243312F747269616E676C65732E62696E504B01021400140006080000CC70623B0000000000000000000000003700000000000000
310
000000000000D40E00006662782F39464131463745442D413632322D343644302D413938332D3331353338454246344243312F617474726962757465732E62696E504B01021400140006080800CC70623B08DA0BD190000000410100003600000000000000000000000000290F00006662782F39464131463745442D413632
310
322D343644302D413938332D3331353338454246344243312F6469726563746F72792E786D6C504B01021400140006080800CC70623B0D6EF93BFE000000A00100003B000000000000000000000000000D1000006662782F39464131463745442D413632322D343644302D413938332D3331353338454246344243312F7265
310
736F75726365732F636F72652E786D6C504B0506000000000E000E0080040000641100000000
  0
XRECORD
  5
175
102
{ACAD_REACTORS
330
173
102
}
330
173
100
AcDbXrecord
280
     1
270
     1
271
     1
  0
XRECORD
  5
174
102
{ACAD_REACTORS
330
173
102
}
330
173
100
AcDbXrecord
280
     1
270
     1
271
     1
  0
XRECORD
  5
1FB
102
{ACAD_REACTORS
330
173
102
}
330
173
100
AcDbXrecord
280
     1
 70
     0
 90
1673772943
  1
ECE7A1D2-D628-4531-984C-D00F80459256
310
504B03040A0000080000CC70623B3DEE336E79000000790000001B0000006175746F6465736B2D64657369676E2D7061636B6167652E786D6C3C3F786D6C2076657273696F6E3D22312E302220656E636F64696E673D227574662D3822203F3E3C666F726D6174733E3C666F726D61743E687474703A2F2F736368656D612E
310
6175746F6465736B2E636F6D2F64657369676E2D7061636B6167652F323030393C2F666F726D61743E3C2F666F726D6174733E504B0304140006080800CC70623BD486FD9CA0000000F4000000130000005B436F6E74656E745F54797065735D2E786D6C7D8EC10E82300C865F65E91D8A1E8C310C0EEA1BF002731658846E
310
D98AC1B77784ABF1D8FE5FBFBF75BBCE937A534CCEB38643598122B6FEE978D0B0485F9C41B54DDD7D022595594E1A469170414C76A4D9A4D207E29CF43ECE46F218070CC6BECC4078ACAA135ACF422C856C0E68EA1BF5669944DDD7BCDE7B1F8E415D77AECB980613C2E4AC91FC167A2B244592486606FC29C8FD7F045B9A
310
EF7053A7E60B504B0304140006080800CC70623BD9DDAED0EC0000007C01000008000000636F72652E786D6C8D90416EC3201045AF82665B61836D9CD8C2444DD39CA01740405C94182C03558F5F9C3852BBEB6A467FFE9B197D7EF89E6EE8CB2CC17A37002D0820E394D7D68D03A478C17B4007C117EFE32F1B20272733C0
310
2A83E0E3E2D3BC49CABB685CCCAAF3DA6CA20CC14440EA969B0182FA34932C648AD911AEC52CD5558EA6A0CF2EC329598D1E47ACCEFBECC59A050463A7EA5833865FEBDD0E37353BE3EE8DBDE3F6786A48D375FBF6CC78B9C282473B3DEFABC5C86834888A900E538A49F5419B9EB47DD5BC907D4F082F57FB1F28CDFA9F50
310
B22ED6D5F6EE030B20687EE43E10BC5CB3C8E51E54AE6B6EE207504B0304140006080800CC70623B55019EA25F0000007C00000007000000636E782E786D6C4DCB3B0E80201045D1AD90E915ED2CF8AC45050C11660C8261F98AB1B07AC9C97D42D718D865D3E909258CFD00CCE24AC6E326A164D74DC0B4128928FF326038
310
472BA13128B1252AC747C6BAB984FC68F0B87FE8960A5C09FE86CFB69FBA01504B0304140006080800CC70623BA24EB22D72010000D40300000C0000006662782F636F72652E786D6CC5535B6E833010BC8AE5DF0A6C5E49888CA3A6694ED00B38E05014B091B1518EDFE511A5A9D228FD2A1F60CDEC7A67C6986DCE4D8D7A
310
69BA4AAB0C073EC548AA5C17952A33ECECD15B61B4E1CC686DBF9561A44423333CC098B3D268D7CE50AE9595CA02AA74216750749DB418E5352C32DCE59FB211BE70162ABA93DF8AFC244AE9073ED050C759670D0840D390E18DF9F1706664C23973AE2A66B62A605A75ACA4C13C4976E1364A12EF355A2EBD384AF65EFA96
310
BC7B8BED2EA6719AAE16FB8491A199335B351775B991C2CA02F390D2D40B028F861F41BCA68B7518BFD0D59A524686F29B26D7164F36B94AD9289CE54E6D1DE6010819891F6E21228B3AD1831EC219194284CF98F06DD01008846CC5A1BEF83801D4CBDC6A1303536877A57A513B0953A94FC707FDBE6064EA84A9E3E6E0FA
310
EE8CF0E9198F7784A316AA0413C2C2F2E0ECA0934D1AE6D05A69BCDE9E91D2A611F573361E38FC1375157F5752AE6B6DFE4B11990F88CCBF0719EE23FF02504B0304140006080800CC70623B408A7D3B7C0000009D0000000B0000006662782F636E782E786D6C4DCCD10A83201886E15B91FFDC552A92A0064DBC8F581632
310
D3703A76F9ABD1C18E3E78F878E5F0D9027ABBFCF2292AE86E2D20171F69F6715550CB827B40839639A5F2770314A7CD293819B45C73AAFB45B35BA61ACAA1C1C7E7855C58C15BC331339661262CC762340413D68D77DA5B42298546CBE6573AF60CEB2F504B0304140006080800CC70623B449FB9BD290100001202000031
310
0000006662782F36394639363044362D344446342D343946362D394244322D3234314243333846323333332F636F72652E786D6C8D515B6EC32010BC0AE22B55850D98B871848994463E412FE002495162B07854397EA176A4F62F3F2C9A9D991D587EB84F37F0AD7D30CEF6905418026DA553C65E7A98E219ED203808EE9D
310
8B7F6810D871D23D2C3014FCE25D9A57483A1BB58D19B54EE9151C43D0110279CB971E06F9A5A7B11A53CC8C70ADE6515EC78BAE4895DB992778883E0700CB907242D17643D7E2538BD869608875438BBAE38922CAC8F1BDD90DB4691A5E2F42C153326A951B95E398B3D1FE599322163C9AE9115F7A3D46ADA0A018778810
310
84E907617BDCEE297BC5BB3DC6BC2EF47FA234AB2745C9D8D8D035EE220B50105E2F0DC1954B9FB747187D9F9D8FA0CCDB042D5FA0C015C65B42DF78BD10F3F3B363CB56C7109DCFDFBBB97E662ED92EB62D13BC2E1BCAE5777DB9966D8A1F504B0304140006080800CC70623BAD7543B64E01000033030000300000006662
310
782F36394639363044362D344446342D343946362D394244322D3234314243333846323333332F636E782E786D6CD593CD6EC32010845F0571AD6CE3D48AD20813A9873E410FBD12D82434182C7EAAE6EDBB2424CD25871E7B41D6EC30B3FA84F9E67BB2E40B4234DE8DB46F1925E094D7C6ED479AD3AE5951B2113C789FEE
310
6C943839C1488B4C05DF079FE72A69D8C96C13AAD6B8631503449F83828872B949AC57D26200B826A308D316B4064D6E46FCDA41C05550DC9E483A00797BFD207EFB092A45DE9514C1BBD22178396BD39D891265658C238DEA00936C654E5E433CB65A26D9F6EDB5EBC14EBF49A45CB856E66048291F6939A9A81BB5C89177
310
38143CA680F4AA299D66A042CEB3354A2684DC9D8D178FE0D9B8B41CAAD720F880EE7EF93C0C18769E099ECC04D5A102C8049A8A05632F4DDF376CF1DE0F6BB65C2F8627B65A33C6BB62177CEBBDAD973006829F89F22E814B54F4BC2BE347F8AA8F681390B50FA73F804400B5F542E796F19FF974E7F78DB802FE05E20750
310
4B0304140006080800CC70623B8D05915C650500003B100000340000006662782F36394639363044362D344446342D343946362D394244322D3234314243333846323333332F6F626A656374732E786D6CAD575B6FA33814FE2B887D06429276DA1565D4266D158D3A339A6846FB502932E050B66023DB74D2FDF5FB190C01
310
9276B2973C046C8ECFF53B17071F77456EBD502133CEAE6CDF9DD81665314F32965ED995DA3A17B6F5310C04E7AA47665B8C14F4CAD6DB7618A48257A5D94AE89654B91AEDDEDDFC61C998326A5B714EA4BCB265FC440BE2924AF184CA6737218AB8E976E7FA6E4338649B0A523E8D98964450A6A029F619B8588D52FE7039
310
B1BD30F0F4F730D0FF866AF6369557DB33949F31A9088B0F848DD8CCFCF9F2767A76E99CCDE733677E3EF59D9BBB9BA5E37F984D16E78BC5E5F5ED25044B25C0C96822E8D60EEFE11B91C581D77CEA34368A1F5329E68CD1B8B61F16D63A1B8E092D294B10C78C4A48EB593D192E7DED9BDEE7995E1B91FDEDD3ACEA9FE831
310
6A756F9F7D4D79F4274C90A7A04248AA51D5F8C718DAE06FB2F75AC4796EBE65D22A88A22223B995679120E2D50E41AA49C260C046A35368846B0BECD0DFF3EBEB8AD4F835768F69B9ADF25C43D30E6B646F807FAA64AD59F61715C7A54127C4AACA98BA3006A9D792DAE165E0D59B61A01FB3A9F9D838D2DAE62445C86166
310
F37564E842E7DE6A69879FEEA2DD5AE7E371E1A5E025154AC307D06A03D73EB5978C58FFA4C8E9033066E0F3BD53BEC1F39F91BE7B55103791EDE6BBB991A2046172CB4581D8B893FA674DDA17A77B3B7C413D1B511FD2743BFF8A38F03A658705E3ADF8015C3A3417FF3D7E439FF591DA0B5F18BC20C1B8981957AE6392A3
310
F43C640C01D1A0B4728E2DD4F26DB4B3C3152A252A3B4E913CEC1C72F012782FF88EFF8637AA552DBEF76408E8A8DE9E50F9E1CB3A2DA0DB1B6039A893B56063DC5B3E3FFB5F72E67AB9FEB4AEC496C4F4C1149625DD662C53E89D7BF0F6151A046260D1337DFDC94502430F83B0EE07A130A224BCAD7DAE1D9FB6CD422FF6
310
920702629C4BB9AE79C12F243C6432A6794E18E5552BA56B431AAB5D91317302B2B071E86C3A42B1A02F999E24061403B5D0EB639195DA655DD3EBEAB4FB862DDF579F014AD0E73C22F99E28DA57FB98E75C6CA2D74D53086D600F4786E0FE3144B771A8A7B900F03594DB8A633CBC49B2EDB69228BB479CF863B5E807AAAB
310
23872F6DFEB4129B949CA33823F58830E86D65621E10047D9DB34D862E8EAC3C2ABC2F7B2C40D67CDFE01F5545B92105AF983AC54D93D69E56FB8E797F88913F898A9FEC705D3F9D1B54EC8426FB500D40A03BD0119B06E1B95DDC7EB8F6975367793EBD70E66733DFB9BC982F9CE564727731999F5D4ECFCE3B8D6A4DC2A0
310
6D50FD148437D110834A64C6CDDF57FBACB5C307A2A477DFE4939736CFEF2B175371E0E10CF0DD1D5C15654E0BCA14D1E87DD02FF93782A162C0A3D95F1524A52770F972BF1EE9809D13CE7DD599467F8ECE9ADD85CE85A34CD45355448C64F9E8A031DC2D596ACC6E5DD93D9B82DE2EF5CAF81363A8E47996A0DE24564A79
310
4115AACE09C55E14540231FDA13C319787134EBF34E3A022514E5B4D9E0826E25C02D5805B15ABE1BEF51B26383D445DD9E875EE33FE4C22DA16427D65A3BCA92CA6D28DD01DF5DC53330704308475351050232CCD31583787BA75774AFB06E5070DD0C8EF484E19968C5D83BA5B90B244D31E54D55A372320FE4786B7EA58
310
44E135AA5467CB7EA333A61683CC6A8C3257034C10CF46F40EF9F5BE59BE5BD30C3C72D235E95D10345C1D45445A5F0BB47E46A5EBE5570F9380B5FA629579952296A773720405982B9DE04011506178964401AA8BDF1FBF0A8EAB6861DD6580C0E38217056766716DAEB2D6FA0917D3E4116581EADB879C4E7CFFB11EFACD
310
3D641311495D92C8676CB409A72D18610D803CE8A626049E8EC1887CB5B44CC39883690DDA8399B4B9855B481E7D71D4A9D22F96E5BB73BF5793020C02137BF837504B0304140006080000CC70623B000000000000000000000000350000006662782F36394639363044362D344446342D343946362D394244322D32343142
310
43333846323333332F76657274696365732E62696E504B0304140006080800CC70623BF270F1330600000004000000360000006662782F36394639363044362D344446342D343946362D394244322D3234314243333846323333332F747269616E676C65732E62696E636660600000504B0304140006080000CC70623B0000
310
00000000000000000000370000006662782F36394639363044362D344446342D343946362D394244322D3234314243333846323333332F617474726962757465732E62696E504B0304140006080800CC70623B08DA0BD19000000041010000360000006662782F36394639363044362D344446342D343946362D394244322D
310
3234314243333846323333332F6469726563746F72792E786D6C858F410AC3201045AF22B36F53E9A60B35CBEEBAE80D244E44489C6234F4F835464A48035D0DF398FF9F8AF63D0E6CC63039F212F8F9020C7D47C6792B21C5FE7403D62A1188E2E60C98D7234A5830286103A55745067B9D86B8A3CF9C7F90C11DE607FB14
310
4396D7B6A82D282E9A152AD114D5EF2CB866EEE831B8EEA07A7BB5A8D7D61A2BAAEB7FD5F70921FF497D00504B0304140006080800CC70623BCA768048FE000000A00100003B0000006662782F36394639363044362D344446342D343946362D394244322D3234314243333846323333332F7265736F75726365732F636F72
310
652E786D6C8D50596E833010BD0A9ADFCA60D600328E9AA639412F609909B1126CE4A5EAF16B0295DABFFECC8CDEA2797AECF8353F924FB44E193D409E5248504B332A3D0D10FC95B4901C39B3C6F85F3248B49871801506CE266BC2B243D2688FDA47549B11775038871E12F988C7004EDE7016A9083E2ADC3D5D84BC8B09
310
D33C8D74D471E6BC8D0192EDC93A815B742658898E651BCB59086ADC356A8C3FD555A1055ED7E7E254D615792D0F075295F585746FF53B694EE78A565DD736979A65AB9933AFE69F8CD2A2F038022F28ED489E135A7CE4554F9BBEA85E68DB53CAB255FEC71496F19FA6A0B42F8B3DEE6673C0F318E4497096AD7DC5F52C33
310
EEB55BFE0D504B010214000A0000080000CC70623B3DEE336E79000000790000001B00000000000000000000000000000000006175746F6465736B2D64657369676E2D7061636B6167652E786D6C504B01021400140006080800CC70623BD486FD9CA0000000F40000001300000000000000000000000000B20000005B436F
310
6E74656E745F54797065735D2E786D6C504B01021400140006080800CC70623BD9DDAED0EC0000007C010000080000000000000000000000000083010000636F72652E786D6C504B01021400140006080800CC70623B55019EA25F0000007C000000070000000000000000000000000095020000636E782E786D6C504B0102
310
1400140006080800CC70623BA24EB22D72010000D40300000C00000000000000000000000000190300006662782F636F72652E786D6C504B01021400140006080800CC70623B408A7D3B7C0000009D0000000B00000000000000000000000000B50400006662782F636E782E786D6C504B01021400140006080800CC70623B
310
449FB9BD290100001202000031000000000000000000000000005A0500006662782F36394639363044362D344446342D343946362D394244322D3234314243333846323333332F636F72652E786D6C504B01021400140006080800CC70623BAD7543B64E010000330300003000000000000000000000000000D20600006662
310
782F36394639363044362D344446342D343946362D394244322D3234314243333846323333332F636E782E786D6C504B01021400140006080800CC70623B8D05915C650500003B10000034000000000000000000000000006E0800006662782F36394639363044362D344446342D343946362D394244322D32343142433338
310
46323333332F6F626A656374732E786D6C504B01021400140006080000CC70623B0000000000000000000000003500000000000000000000000000250E00006662782F36394639363044362D344446342D343946362D394244322D3234314243333846323333332F76657274696365732E62696E504B010214001400060808
310
00CC70623BF270F13306000000040000003600000000000000000000000000780E00006662782F36394639363044362D344446342D343946362D394244322D3234314243333846323333332F747269616E676C65732E62696E504B01021400140006080000CC70623B00000000000000000000000037000000000000000000
310
00000000D20E00006662782F36394639363044362D344446342D343946362D394244322D3234314243333846323333332F617474726962757465732E62696E504B01021400140006080800CC70623B08DA0BD190000000410100003600000000000000000000000000270F00006662782F36394639363044362D344446342D
310
343946362D394244322D3234314243333846323333332F6469726563746F72792E786D6C504B01021400140006080800CC70623BCA768048FE000000A00100003B000000000000000000000000000B1000006662782F36394639363044362D344446342D343946362D394244322D3234314243333846323333332F7265736F
310
75726365732F636F72652E786D6C504B0506000000000E000E0080040000621100000000
  0
XRECORD
  5
176
102
{ACAD_REACTORS
330
173
102
}
330
173
100
AcDbXrecord
280
     1
270
     1
271
     1
  0
XRECORD
  5
177
102
{ACAD_REACTORS
330
173
102
}
330
173
100
AcDbXrecord
280
     1
270
     1
271
     1
  0
XRECORD
  5
668
102
{ACAD_REACTORS
330
667
102
}
330
667
100
AcDbXrecord
280
     1
102
DISPLAYNAME
  1
Imperial24
102
FLAGS
 90
        0
  0
XRECORD
  5
664
102
{ACAD_REACTORS
330
663
102
}
330
663
100
AcDbXrecord
280
     1
102
DISPLAYNAME
  1
Metric50
102
FLAGS
 90
        0
  0
CELLSTYLEMAP
  5
659
102
{ACAD_REACTORS
330
162
102
}
330
162
100
AcDbCellStyleMap
 90
        3
300
CELLSTYLE
  1
TABLEFORMAT_BEGIN
 90
        5
170
     1
 91
        0
 92
    32768
 62
   257
 93
        1
300
CONTENTFORMAT
  1
CONTENTFORMAT_BEGIN
 90
        0
 91
        0
 92
      512
 93
        0
300

 40
0.0
140
1.0
 94
        5
 62
     0
340
11
144
6.0
309
CONTENTFORMAT_END
171
     1
301
MARGIN
  1
CELLMARGIN_BEGIN
 40
1.5
 40
1.5
 40
1.5
 40
1.5
 40
4.5
 40
4.5
309
CELLMARGIN_END
 94
        6
 95
        1
302
GRIDFORMAT
  1
GRIDFORMAT_BEGIN
 90
        0
 91
        1
 62
     0
 92
       -2
340
14
 93
        0
 40
1.125
309
GRIDFORMAT_END
 95
        2
302
GRIDFORMAT
  1
GRIDFORMAT_BEGIN
 90
        0
 91
        1
 62
     0
 92
       -2
340
14
 93
        0
 40
1.125
309
GRIDFORMAT_END
 95
        4
302
GRIDFORMAT
  1
GRIDFORMAT_BEGIN
 90
        0
 91
        1
 62
     0
 92
       -2
340
14
 93
        0
 40
1.125
309
GRIDFORMAT_END
 95
        8
302
GRIDFORMAT
  1
GRIDFORMAT_BEGIN
 90
        0
 91
        1
 62
     0
 92
       -2
340
14
 93
        0
 40
1.125
309
GRIDFORMAT_END
 95
       16
302
GRIDFORMAT
  1
GRIDFORMAT_BEGIN
 90
        0
 91
        1
 62
     0
 92
       -2
340
14
 93
        0
 40
1.125
309
GRIDFORMAT_END
 95
       32
302
GRIDFORMAT
  1
GRIDFORMAT_BEGIN
 90
        0
 91
        1
 62
     0
 92
       -2
340
14
 93
        0
 40
1.125
309
GRIDFORMAT_END
309
TABLEFORMAT_END
  1
CELLSTYLE_BEGIN
 90
        1
 91
        1
300
_TITLE
309
CELLSTYLE_END
300
CELLSTYLE
  1
TABLEFORMAT_BEGIN
 90
        5
170
     1
 91
        0
 92
        0
 62
   257
 93
        1
300
CONTENTFORMAT
  1
CONTENTFORMAT_BEGIN
 90
        0
 91
        0
 92
      512
 93
        0
300

 40
0.0
140
1.0
 94
        5
 62
     0
340
11
144
4.5
309
CONTENTFORMAT_END
171
     1
301
MARGIN
  1
CELLMARGIN_BEGIN
 40
1.5
 40
1.5
 40
1.5
 40
1.5
 40
4.5
 40
4.5
309
CELLMARGIN_END
 94
        6
 95
        1
302
GRIDFORMAT
  1
GRIDFORMAT_BEGIN
 90
        0
 91
        1
 62
     0
 92
       -2
340
14
 93
        0
 40
1.125
309
GRIDFORMAT_END
 95
        2
302
GRIDFORMAT
  1
GRIDFORMAT_BEGIN
 90
        0
 91
        1
 62
     0
 92
       -2
340
14
 93
        0
 40
1.125
309
GRIDFORMAT_END
 95
        4
302
GRIDFORMAT
  1
GRIDFORMAT_BEGIN
 90
        0
 91
        1
 62
     0
 92
       -2
340
14
 93
        0
 40
1.125
309
GRIDFORMAT_END
 95
        8
302
GRIDFORMAT
  1
GRIDFORMAT_BEGIN
 90
        0
 91
        1
 62
     0
 92
       -2
340
14
 93
        0
 40
1.125
309
GRIDFORMAT_END
 95
       16
302
GRIDFORMAT
  1
GRIDFORMAT_BEGIN
 90
        0
 91
        1
 62
     0
 92
       -2
340
14
 93
        0
 40
1.125
309
GRIDFORMAT_END
 95
       32
302
GRIDFORMAT
  1
GRIDFORMAT_BEGIN
 90
        0
 91
        1
 62
     0
 92
       -2
340
14
 93
        0
 40
1.125
309
GRIDFORMAT_END
309
TABLEFORMAT_END
  1
CELLSTYLE_BEGIN
 90
        2
 91
        1
300
_HEADER
309
CELLSTYLE_END
300
CELLSTYLE
  1
TABLEFORMAT_BEGIN
 90
        5
170
     1
 91
        0
 92
        0
 62
   257
 93
        1
300
CONTENTFORMAT
  1
CONTENTFORMAT_BEGIN
 90
        0
 91
        0
 92
      512
 93
        0
300

 40
0.0
140
1.0
 94
        2
 62
     0
340
11
144
4.5
309
CONTENTFORMAT_END
171
     1
301
MARGIN
  1
CELLMARGIN_BEGIN
 40
1.5
 40
1.5
 40
1.5
 40
1.5
 40
4.5
 40
4.5
309
CELLMARGIN_END
 94
        6
 95
        1
302
GRIDFORMAT
  1
GRIDFORMAT_BEGIN
 90
        0
 91
        1
 62
     0
 92
       -2
340
14
 93
        0
 40
1.125
309
GRIDFORMAT_END
 95
        2
302
GRIDFORMAT
  1
GRIDFORMAT_BEGIN
 90
        0
 91
        1
 62
     0
 92
       -2
340
14
 93
        0
 40
1.125
309
GRIDFORMAT_END
 95
        4
302
GRIDFORMAT
  1
GRIDFORMAT_BEGIN
 90
        0
 91
        1
 62
     0
 92
       -2
340
14
 93
        0
 40
1.125
309
GRIDFORMAT_END
 95
        8
302
GRIDFORMAT
  1
GRIDFORMAT_BEGIN
 90
        0
 91
        1
 62
     0
 92
       -2
340
14
 93
        0
 40
1.125
309
GRIDFORMAT_END
 95
       16
302
GRIDFORMAT
  1
GRIDFORMAT_BEGIN
 90
        0
 91
        1
 62
     0
 92
       -2
340
14
 93
        0
 40
1.125
309
GRIDFORMAT_END
 95
       32
302
GRIDFORMAT
  1
GRIDFORMAT_BEGIN
 90
        0
 91
        1
 62
     0
 92
       -2
340
14
 93
        0
 40
1.125
309
GRIDFORMAT_END
309
TABLEFORMAT_END
  1
CELLSTYLE_BEGIN
 90
        3
 91
        2
300
_DATA
309
CELLSTYLE_END
  0
ENDSEC
  0
SECTION
  2
ACDSDATA
 70
     2
 71
     8
  0
ACDSSCHEMA
 90
        0
  1
AcDb_Thumbnail_Schema
  2
AcDbDs::ID
280
    10
 91
        8
  2
Thumbnail_Data
280
    15
 91
        0
101
ACDSRECORD
 95
        0
 90
        1
  2
AcDbDs::TreatedAsObjectData
280
     1
291
     1
101
ACDSRECORD
 95
        0
 90
        2
  2
AcDbDs::Legacy
280
     1
291
     1
101
ACDSRECORD
  1
AcDbDs::ID
 90
        3
  2
AcDs:Indexable
280
     1
291
     1
101
ACDSRECORD
  1
AcDbDs::ID
 90
        4
  2
AcDbDs::HandleAttribute
280
     7
282
     1
  0
ACDSSCHEMA
 90
        1
  1
AcDbDs::TreatedAsObjectDataSchema
  2
AcDbDs::TreatedAsObjectData
280
     1
 91
        0
  0
ACDSSCHEMA
 90
        2
  1
AcDbDs::LegacySchema
  2
AcDbDs::Legacy
280
     1
 91
        0
  0
ACDSSCHEMA
 90
        3
  1
AcDbDs::IndexedPropertySchema
  2
AcDs:Indexable
280
     1
 91
        0
  0
ACDSSCHEMA
 90
        4
  1
AcDbDs::HandleAttributeSchema
  2
AcDbDs::HandleAttribute
280
     7
 91
        1
284
     1
  0
ACDSRECORD
 90
        0
  2
AcDbDs::ID
280
    10
320
22
  2
Thumbnail_Data
280
    15
 94
      896
310
89504E470D0A1A0A0000000D49484452000001000000009108030000001BE1960600000300504C5445212830FFFFFF2128300000000000000000000000000000000000000000000000000000330000660000990000CC0000FF0033000033330033660033990033CC0033FF0066000066330066660066990066CC0066FF0099
310
000099330099660099990099CC0099FF00CC0000CC3300CC6600CC9900CCCC00CCFF00FF0000FF3300FF6600FF9900FFCC00FFFF3300003300333300663300993300CC3300FF3333003333333333663333993333CC3333FF3366003366333366663366993366CC3366FF3399003399333399663399993399CC3399FF33CC00
310
33CC3333CC6633CC9933CCCC33CCFF33FF0033FF3333FF6633FF9933FFCC33FFFF6600006600336600666600996600CC6600FF6633006633336633666633996633CC6633FF6666006666336666666666996666CC6666FF6699006699336699666699996699CC6699FF66CC0066CC3366CC6666CC9966CCCC66CCFF66FF0066
310
FF3366FF6666FF9966FFCC66FFFF9900009900339900669900999900CC9900FF9933009933339933669933999933CC9933FF9966009966339966669966999966CC9966FF9999009999339999669999999999CC9999FF99CC0099CC3399CC6699CC9999CCCC99CCFF99FF0099FF3399FF6699FF9999FFCC99FFFFCC0000CC00
310
33CC0066CC0099CC00CCCC00FFCC3300CC3333CC3366CC3399CC33CCCC33FFCC6600CC6633CC6666CC6699CC66CCCC66FFCC9900CC9933CC9966CC9999CC99CCCC99FFCCCC00CCCC33CCCC66CCCC99CCCCCCCCCCFFCCFF00CCFF33CCFF66CCFF99CCFFCCCCFFFFFF0000FF0033FF0066FF0099FF00CCFF00FFFF3300FF3333
310
FF3366FF3399FF33CCFF33FFFF6600FF6633FF6666FF6699FF66CCFF66FFFF9900FF9933FF9966FF9999FF99CCFF99FFFFCC00FFCC33FFCC66FFCC99FFCCCCFFCCFFFFFF00FFFF33FFFF66FFFF99FFFFCCFFFFFF0000000D0D0D1A1A1A2828283535354343435050505D5D5D6B6B6B787878868686939393A1A1A1AEAEAEBB
310
BBBBC9C9C9D6D6D6E4E4E4F1F1F1FFFFFF0000000000000000000000000000000000000000000000000000000000002E4550F10000003B4944415478DAEDC13101000000C2A0F54F6D0B2FA0000000000000000000000000000000000000000000000000000000000000000000000000CE06919100016C9A5B1B0000000049
310
454E44AE426082
  0
ENDSEC
  0
EOF
