  0
SECTION
  2
HEADER
  9
$ACADVER
  1
AC1027
  9
$ACADMAINTVER
 70
   125
  9
$DWGCODEPAGE
  3
ANSI_1252
  9
$LASTSAVEDBY
  1
ufficio.tecnico
  9
$REQUIREDVERSIONS
160
                 0
  9
$INSBASE
 10
0.0
 20
0.0
 30
0.0
  9
$EXTMIN
 10
60.45642289819887
 20
32.79667570133539
 30
0.0
  9
$EXTMAX
 10
415.7806901903615
 20
238.0753622412991
 30
0.0
  9
$LIMMIN
 10
0.0
 20
0.0
  9
$LIMMAX
 10
12.0
 20
9.0
  9
$ORTHOMODE
 70
     0
  9
$REGENMODE
 70
     1
  9
$FILLMODE
 70
     1
  9
$QTEXTMODE
 70
     0
  9
$MIRRTEXT
 70
     0
  9
$LTSCALE
 40
1.0
  9
$ATTMODE
 70
     1
  9
$TEXTSIZE
 40
0.2
  9
$TRACEWID
 40
0.05
  9
$TEXTSTYLE
  7
Standard
  9
$CLAYER
  8
0
  9
$CELTYPE
  6
ByLayer
  9
$CECOLOR
 62
   256
  9
$CELTSCALE
 40
1.0
  9
$DISPSILH
 70
     0
  9
$DIMSCALE
 40
1.0
  9
$DIMASZ
 40
0.18
  9
$DIMEXO
 40
0.0625
  9
$DIMDLI
 40
0.38
  9
$DIMRND
 40
0.0
  9
$DIMDLE
 40
0.0
  9
$DIMEXE
 40
0.18
  9
$DIMTP
 40
0.0
  9
$DIMTM
 40
0.0
  9
$DIMTXT
 40
0.18
  9
$DIMCEN
 40
0.09
  9
$DIMTSZ
 40
0.0
  9
$DIMTOL
 70
     0
  9
$DIMLIM
 70
     0
  9
$DIMTIH
 70
     1
  9
$DIMTOH
 70
     1
  9
$DIMSE1
 70
     0
  9
$DIMSE2
 70
     0
  9
$DIMTAD
 70
     0
  9
$DIMZIN
 70
     0
  9
$DIMBLK
  1

  9
$DIMASO
 70
     1
  9
$DIMSHO
 70
     1
  9
$DIMPOST
  1

  9
$DIMAPOST
  1

  9
$DIMALT
 70
     0
  9
$DIMALTD
 70
     2
  9
$DIMALTF
 40
25.4
  9
$DIMLFAC
 40
1.0
  9
$DIMTOFL
 70
     0
  9
$DIMTVP
 40
0.0
  9
$DIMTIX
 70
     0
  9
$DIMSOXD
 70
     0
  9
$DIMSAH
 70
     0
  9
$DIMBLK1
  1

  9
$DIMBLK2
  1

  9
$DIMSTYLE
  2
Standard
  9
$DIMCLRD
 70
     0
  9
$DIMCLRE
 70
     0
  9
$DIMCLRT
 70
     0
  9
$DIMTFAC
 40
1.0
  9
$DIMGAP
 40
0.09
  9
$DIMJUST
 70
     0
  9
$DIMSD1
 70
     0
  9
$DIMSD2
 70
     0
  9
$DIMTOLJ
 70
     1
  9
$DIMTZIN
 70
     0
  9
$DIMALTZ
 70
     0
  9
$DIMALTTZ
 70
     0
  9
$DIMUPT
 70
     0
  9
$DIMDEC
 70
     4
  9
$DIMTDEC
 70
     4
  9
$DIMALTU
 70
     2
  9
$DIMALTTD
 70
     2
  9
$DIMTXSTY
  7
Standard
  9
$DIMAUNIT
 70
     0
  9
$DIMADEC
 70
     0
  9
$DIMALTRND
 40
0.0
  9
$DIMAZIN
 70
     0
  9
$DIMDSEP
 70
    46
  9
$DIMATFIT
 70
     3
  9
$DIMFRAC
 70
     0
  9
$DIMLDRBLK
  1

  9
$DIMLUNIT
 70
     2
  9
$DIMLWD
 70
    -2
  9
$DIMLWE
 70
    -2
  9
$DIMTMOVE
 70
     0
  9
$DIMFXL
 40
1.0
  9
$DIMFXLON
 70
     0
  9
$DIMJOGANG
 40
0.7853981633974483
  9
$DIMTFILL
 70
     0
  9
$DIMTFILLCLR
 70
     0
  9
$DIMARCSYM
 70
     0
  9
$DIMLTYPE
  6

  9
$DIMLTEX1
  6

  9
$DIMLTEX2
  6

  9
$DIMTXTDIRECTION
 70
     0
  9
$LUNITS
 70
     2
  9
$LUPREC
 70
     4
  9
$SKETCHINC
 40
0.1
  9
$FILLETRAD
 40
0.0
  9
$AUNITS
 70
     0
  9
$AUPREC
 70
     0
  9
$MENU
  1
.
  9
$ELEVATION
 40
0.0
  9
$PELEVATION
 40
0.0
  9
$THICKNESS
 40
0.0
  9
$LIMCHECK
 70
     0
  9
$CHAMFERA
 40
0.0
  9
$CHAMFERB
 40
0.0
  9
$CHAMFERC
 40
0.0
  9
$CHAMFERD
 40
0.0
  9
$SKPOLY
 70
     0
  9
$TDCREATE
 40
2459341.350949074
  9
$TDUCREATE
 40
2459341.267615741
  9
$TDUPDATE
 40
2459341.352303241
  9
$TDUUPDATE
 40
2459341.268969907
  9
$TDINDWG
 40
0.0013541667
  9
$TDUSRTIMER
 40
0.0013541667
  9
$USRTIMER
 70
     1
  9
$ANGBASE
 50
0.0
  9
$ANGDIR
 70
     0
  9
$PDMODE
 70
     0
  9
$PDSIZE
 40
0.0
  9
$PLINEWID
 40
0.0
  9
$SPLFRAME
 70
     0
  9
$SPLINETYPE
 70
     6
  9
$SPLINESEGS
 70
     8
  9
$HANDSEED
  5
2F6
  9
$SURFTAB1
 70
     6
  9
$SURFTAB2
 70
     6
  9
$SURFTYPE
 70
     6
  9
$SURFU
 70
     6
  9
$SURFV
 70
     6
  9
$UCSBASE
  2

  9
$UCSNAME
  2

  9
$UCSORG
 10
0.0
 20
0.0
 30
0.0
  9
$UCSXDIR
 10
1.0
 20
0.0
 30
0.0
  9
$UCSYDIR
 10
0.0
 20
1.0
 30
0.0
  9
$UCSORTHOREF
  2

  9
$UCSORTHOVIEW
 70
     0
  9
$UCSORGTOP
 10
0.0
 20
0.0
 30
0.0
  9
$UCSORGBOTTOM
 10
0.0
 20
0.0
 30
0.0
  9
$UCSORGLEFT
 10
0.0
 20
0.0
 30
0.0
  9
$UCSORGRIGHT
 10
0.0
 20
0.0
 30
0.0
  9
$UCSORGFRONT
 10
0.0
 20
0.0
 30
0.0
  9
$UCSORGBACK
 10
0.0
 20
0.0
 30
0.0
  9
$PUCSBASE
  2

  9
$PUCSNAME
  2

  9
$PUCSORG
 10
0.0
 20
0.0
 30
0.0
  9
$PUCSXDIR
 10
1.0
 20
0.0
 30
0.0
  9
$PUCSYDIR
 10
0.0
 20
1.0
 30
0.0
  9
$PUCSORTHOREF
  2

  9
$PUCSORTHOVIEW
 70
     0
  9
$PUCSORGTOP
 10
0.0
 20
0.0
 30
0.0
  9
$PUCSORGBOTTOM
 10
0.0
 20
0.0
 30
0.0
  9
$PUCSORGLEFT
 10
0.0
 20
0.0
 30
0.0
  9
$PUCSORGRIGHT
 10
0.0
 20
0.0
 30
0.0
  9
$PUCSORGFRONT
 10
0.0
 20
0.0
 30
0.0
  9
$PUCSORGBACK
 10
0.0
 20
0.0
 30
0.0
  9
$USERI1
 70
     0
  9
$USERI2
 70
     0
  9
$USERI3
 70
     0
  9
$USERI4
 70
     0
  9
$USERI5
 70
     0
  9
$USERR1
 40
0.0
  9
$USERR2
 40
0.0
  9
$USERR3
 40
0.0
  9
$USERR4
 40
0.0
  9
$USERR5
 40
0.0
  9
$WORLDVIEW
 70
     1
  9
$SHADEDGE
 70
     3
  9
$SHADEDIF
 70
    70
  9
$TILEMODE
 70
     1
  9
$MAXACTVP
 70
    64
  9
$PINSBASE
 10
0.0
 20
0.0
 30
0.0
  9
$PLIMCHECK
 70
     0
  9
$PEXTMIN
 10
0.0
 20
0.0
 30
0.0
  9
$PEXTMAX
 10
0.0
 20
0.0
 30
0.0
  9
$PLIMMIN
 10
0.0
 20
0.0
  9
$PLIMMAX
 10
12.0
 20
9.0
  9
$UNITMODE
 70
     0
  9
$VISRETAIN
 70
     1
  9
$PLINEGEN
 70
     0
  9
$PSLTSCALE
 70
     1
  9
$TREEDEPTH
 70
  3020
  9
$CMLSTYLE
  2
Standard
  9
$CMLJUST
 70
     0
  9
$CMLSCALE
 40
1.0
  9
$PROXYGRAPHICS
 70
     1
  9
$MEASUREMENT
 70
     0
  9
$CELWEIGHT
370
    -1
  9
$ENDCAPS
280
     0
  9
$JOINSTYLE
280
     0
  9
$LWDISPLAY
290
     0
  9
$INSUNITS
 70
     1
  9
$HYPERLINKBASE
  1

  9
$STYLESHEET
  1

  9
$XEDIT
290
     1
  9
$CEPSNTYPE
380
     0
  9
$PSTYLEMODE
290
     0
  9
$FINGERPRINTGUID
  2
{171A5532-06A2-4A46-901C-BC245DB307CB}
  9
$VERSIONGUID
  2
{5F185151-A7ED-F64A-92F1-68D0C39390EC}
  9
$EXTNAMES
290
     1
  9
$PSVPSCALE
 40
0.0
  9
$OLESTARTUP
290
     0
  9
$SORTENTS
280
   127
  9
$INDEXCTL
280
     0
  9
$HIDETEXT
280
     1
  9
$XCLIPFRAME
280
     2
  9
$HALOGAP
280
     0
  9
$OBSCOLOR
 70
   257
  9
$OBSLTYPE
280
     0
  9
$INTERSECTIONDISPLAY
280
     0
  9
$INTERSECTIONCOLOR
 70
   257
  9
$DIMASSOC
280
     2
  9
$PROJECTNAME
  1

  9
$CAMERADISPLAY
290
     0
  9
$LENSLENGTH
 40
50.0
  9
$CAMERAHEIGHT
 40
60.0
  9
$STEPSPERSEC
 40
2.0
  9
$STEPSIZE
 40
6.0
  9
$3DDWFPREC
 40
2.0
  9
$PSOLWIDTH
 40
0.25
  9
$PSOLHEIGHT
 40
4.0
  9
$LOFTANG1
 40
1.570796326794896
  9
$LOFTANG2
 40
1.570796326794896
  9
$LOFTMAG1
 40
0.0
  9
$LOFTMAG2
 40
0.0
  9
$LOFTPARAM
 70
     7
  9
$LOFTNORMALS
280
     1
  9
$LATITUDE
 40
37.795
  9
$LONGITUDE
 40
-122.394
  9
$NORTHDIRECTION
 40
0.0
  9
$TIMEZONE
 70
 -8000
  9
$LIGHTGLYPHDISPLAY
280
     1
  9
$TILEMODELIGHTSYNCH
280
     1
  9
$CMATERIAL
347
92
  9
$SOLIDHIST
280
     0
  9
$SHOWHIST
280
     1
  9
$DWFFRAME
280
     2
  9
$DGNFRAME
280
     0
  9
$REALWORLDSCALE
290
     1
  9
$INTERFERECOLOR
 62
     1
  9
$INTERFEREOBJVS
345
9F
  9
$INTERFEREVPVS
346
9C
  9
$CSHADOW
280
     0
  9
$SHADOWPLANELOCATION
 40
0.0
  0
ENDSEC
  0
SECTION
  2
CLASSES
  0
CLASS
  1
ACDBDICTIONARYWDFLT
  2
AcDbDictionaryWithDefault
  3
ObjectDBX Classes
 90
        0
 91
        1
280
     0
281
     0
  0
CLASS
  1
DICTIONARYVAR
  2
AcDbDictionaryVar
  3
ObjectDBX Classes
 90
        0
 91
        9
280
     0
281
     0
  0
CLASS
  1
MATERIAL
  2
AcDbMaterial
  3
ObjectDBX Classes
 90
     1153
 91
        3
280
     0
281
     0
  0
CLASS
  1
VISUALSTYLE
  2
AcDbVisualStyle
  3
ObjectDBX Classes
 90
     4095
 91
       24
280
     0
281
     0
  0
CLASS
  1
TABLESTYLE
  2
AcDbTableStyle
  3
ObjectDBX Classes
 90
     4095
 91
        1
280
     0
281
     0
  0
CLASS
  1
SCALE
  2
AcDbScale
  3
ObjectDBX Classes
 90
     1153
 91
       33
280
     0
281
     0
  0
CLASS
  1
MLEADERSTYLE
  2
AcDbMLeaderStyle
  3
ACDB_MLEADERSTYLE_CLASS
 90
     4095
 91
        2
280
     0
281
     0
  0
CLASS
  1
CELLSTYLEMAP
  2
AcDbCellStyleMap
  3
ObjectDBX Classes
 90
     1152
 91
        3
280
     0
281
     0
  0
CLASS
  1
EXACXREFPANELOBJECT
  2
ExAcXREFPanelObject
  3
EXAC_ESW
 90
     1025
 91
        0
280
     0
281
     0
  0
CLASS
  1
NPOCOLLECTION
  2
AcDbImpNonPersistentObjectsCollection
  3
ObjectDBX Classes
 90
     1153
 91
        0
280
     0
281
     0
  0
CLASS
  1
LAYER_INDEX
  2
AcDbLayerIndex
  3
ObjectDBX Classes
 90
        0
 91
        0
280
     0
281
     0
  0
CLASS
  1
SPATIAL_INDEX
  2
AcDbSpatialIndex
  3
ObjectDBX Classes
 90
        0
 91
        0
280
     0
281
     0
  0
CLASS
  1
IDBUFFER
  2
AcDbIdBuffer
  3
ObjectDBX Classes
 90
        0
 91
        0
280
     0
281
     0
  0
CLASS
  1
ACDBSECTIONVIEWSTYLE
  2
AcDbSectionViewStyle
  3
ObjectDBX Classes
 90
     1025
 91
        1
280
     0
281
     0
  0
CLASS
  1
ACDBDETAILVIEWSTYLE
  2
AcDbDetailViewStyle
  3
ObjectDBX Classes
 90
     1025
 91
        1
280
     0
281
     0
  0
CLASS
  1
SORTENTSTABLE
  2
AcDbSortentsTable
  3
ObjectDBX Classes
 90
        0
 91
        3
280
     0
281
     0
  0
ENDSEC
  0
SECTION
  2
TABLES
  0
TABLE
  2
VPORT
  5
8
330
0
100
AcDbSymbolTable
 70
     1
1001
ACAD
1000
DbSaveVer
1071
      105
  0
VPORT
  5
90
330
8
100
AcDbSymbolTableRecord
100
AcDbViewportTableRecord
  2
*Active
 70
     0
 10
0.0
 20
0.0
 11
1.0
 21
1.0
 12
315.1450778747203
 22
159.7279552719834
 13
0.0
 23
0.0
 14
0.5
 24
0.5
 15
0.5
 25
0.5
 16
0.0
 26
0.0
 36
1.0
 17
0.0
 27
0.0
 37
0.0
 40
530.9703816371088
 41
1.932867132867133
 42
50.0
 43
0.0
 44
0.0
 50
0.0
 51
0.0
 71
     0
 72
  1000
 73
     1
 74
     3
 75
     0
 76
     1
 77
     0
 78
     0
281
     0
 65
     1
110
0.0
120
0.0
130
0.0
111
1.0
121
0.0
131
0.0
112
0.0
122
1.0
132
0.0
 79
     0
146
0.0
348
9B
 60
     3
 61
     5
292
     1
282
     1
141
0.0
142
0.0
 63
   250
421
  3355443
1001
ACAD_NAV_VCDISPLAY
1070
     3
  0
ENDTAB
  0
TABLE
  2
LTYPE
  5
5
330
0
100
AcDbSymbolTable
 70
     1
  0
LTYPE
  5
14
330
5
100
AcDbSymbolTableRecord
100
AcDbLinetypeTableRecord
  2
ByBlock
 70
     0
  3

 72
    65
 73
     0
 40
0.0
  0
LTYPE
  5
15
330
5
100
AcDbSymbolTableRecord
100
AcDbLinetypeTableRecord
  2
ByLayer
 70
     0
  3

 72
    65
 73
     0
 40
0.0
  0
LTYPE
  5
16
330
5
100
AcDbSymbolTableRecord
100
AcDbLinetypeTableRecord
  2
Continuous
 70
     0
  3
Solid line
 72
    65
 73
     0
 40
0.0
  0
ENDTAB
  0
TABLE
  2
LAYER
  5
2
102
{ACAD_XDICTIONARY
360
18B
102
}
330
0
100
AcDbSymbolTable
 70
     2
  0
LAYER
  5
10
102
{ACAD_XDICTIONARY
360
E1
102
}
330
2
100
AcDbSymbolTableRecord
100
AcDbLayerTableRecord
  2
0
 70
     0
 62
     7
  6
Continuous
370
    -3
390
F
347
94
348
0
  0
LAYER
  5
21E
330
2
100
AcDbSymbolTableRecord
100
AcDbLayerTableRecord
  2
Livello 1
 70
     0
 62
     7
  6
Continuous
370
     0
390
F
347
94
348
0
  0
ENDTAB
  0
TABLE
  2
STYLE
  5
3
330
0
100
AcDbSymbolTable
 70
     2
  0
STYLE
  5
11
330
3
100
AcDbSymbolTableRecord
100
AcDbTextStyleTableRecord
  2
Standard
 70
     0
 40
0.0
 41
1.0
 50
0.0
 71
     0
 42
0.2
  3
arial.ttf
  4

1001
ACAD
1000
Arial
1071
       34
  0
STYLE
  5
D7
330
3
100
AcDbSymbolTableRecord
100
AcDbTextStyleTableRecord
  2
Annotativa
 70
     0
 40
0.0
 41
1.0
 50
0.0
 71
     0
 42
0.2
  3
arial.ttf
  4

1001
AcadAnnotative
1000
AnnotativeData
1002
{
1070
     1
1070
     1
1002
}
1001
ACAD
1000
Arial
1071
       34
  0
ENDTAB
  0
TABLE
  2
VIEW
  5
6
330
0
100
AcDbSymbolTable
 70
     0
  0
ENDTAB
  0
TABLE
  2
UCS
  5
7
330
0
100
AcDbSymbolTable
 70
     0
  0
ENDTAB
  0
TABLE
  2
APPID
  5
9
330
0
100
AcDbSymbolTable
 70
     7
  0
APPID
  5
12
330
9
100
AcDbSymbolTableRecord
100
AcDbRegAppTableRecord
  2
ACAD
 70
     0
  0
APPID
  5
D8
330
9
100
AcDbSymbolTableRecord
100
AcDbRegAppTableRecord
  2
AcadAnnoPO
 70
     0
  0
APPID
  5
D9
330
9
100
AcDbSymbolTableRecord
100
AcDbRegAppTableRecord
  2
AcadAnnotative
 70
     0
  0
APPID
  5
DA
330
9
100
AcDbSymbolTableRecord
100
AcDbRegAppTableRecord
  2
ACAD_DSTYLE_DIMJAG
 70
     0
  0
APPID
  5
DB
330
9
100
AcDbSymbolTableRecord
100
AcDbRegAppTableRecord
  2
ACAD_DSTYLE_DIMTALN
 70
     0
  0
APPID
  5
102
330
9
100
AcDbSymbolTableRecord
100
AcDbRegAppTableRecord
  2
ACAD_MLEADERVER
 70
     0
  0
APPID
  5
1A3
330
9
100
AcDbSymbolTableRecord
100
AcDbRegAppTableRecord
  2
ACAD_NAV_VCDISPLAY
 70
     0
  0
ENDTAB
  0
TABLE
  2
DIMSTYLE
  5
A
330
0
100
AcDbSymbolTable
 70
     2
100
AcDbDimStyleTable
 71
     2
340
DC
340
27
  0
DIMSTYLE
105
27
330
A
100
AcDbSymbolTableRecord
100
AcDbDimStyleTableRecord
  2
Standard
 70
     0
340
11
  0
DIMSTYLE
105
DC
330
A
100
AcDbSymbolTableRecord
100
AcDbDimStyleTableRecord
  2
Annotativa
 70
     0
 40
0.0
340
11
1001
AcadAnnotative
1000
AnnotativeData
1002
{
1070
     1
1070
     1
1002
}
1001
ACAD_DSTYLE_DIMJAG
1070
   388
1040
1.5
1001
ACAD_DSTYLE_DIMTALN
1070
   392
1070
     0
  0
ENDTAB
  0
TABLE
  2
BLOCK_RECORD
  5
1
330
0
100
AcDbSymbolTable
 70
    10
  0
BLOCK_RECORD
  5
1F
102
{ACAD_XDICTIONARY
360
15A
102
}
330
1
100
AcDbSymbolTableRecord
100
AcDbBlockTableRecord
  2
*Model_Space
340
22
 70
     0
280
     1
281
     0
  0
BLOCK_RECORD
  5
73
330
1
100
AcDbSymbolTableRecord
100
AcDbBlockTableRecord
  2
*Paper_Space
340
74
 70
     0
280
     1
281
     0
  0
BLOCK_RECORD
  5
78
330
1
100
AcDbSymbolTableRecord
100
AcDbBlockTableRecord
  2
*Paper_Space0
340
79
 70
     0
280
     1
281
     0
  0
BLOCK_RECORD
  5
20C
330
1
100
AcDbSymbolTableRecord
100
AcDbBlockTableRecord
  2
Block_1
340
0
102
{BLKREFS
102
}
 70
     0
280
     1
281
     0
  0
BLOCK_RECORD
  5
215
330
1
100
AcDbSymbolTableRecord
100
AcDbBlockTableRecord
  2
Block_3
340
0
102
{BLKREFS
102
}
 70
     0
280
     1
281
     0
  0
BLOCK_RECORD
  5
257
330
1
100
AcDbSymbolTableRecord
100
AcDbBlockTableRecord
  2
Block_5
340
0
102
{BLKREFS
102
}
 70
     0
280
     1
281
     0
  0
BLOCK_RECORD
  5
260
330
1
100
AcDbSymbolTableRecord
100
AcDbBlockTableRecord
  2
Block_7
340
0
102
{BLKREFS
102
}
 70
     0
280
     1
281
     0
  0
BLOCK_RECORD
  5
2A4
330
1
100
AcDbSymbolTableRecord
100
AcDbBlockTableRecord
  2
Block_9
340
0
102
{BLKREFS
331
2E6
102
}
 70
     0
280
     1
281
     0
  0
BLOCK_RECORD
  5
2AE
330
1
100
AcDbSymbolTableRecord
100
AcDbBlockTableRecord
  2
Block_11
340
0
102
{BLKREFS
331
2E7
102
}
 70
     0
280
     1
281
     0
  0
ENDTAB
  0
ENDSEC
  0
SECTION
  2
BLOCKS
  0
BLOCK
  5
20
330
1F
100
AcDbEntity
  8
0
100
AcDbBlockBegin
  2
*Model_Space
 70
     0
 10
0.0
 20
0.0
 30
0.0
  3
*Model_Space
  1

  0
ENDBLK
  5
21
330
1F
100
AcDbEntity
  8
0
100
AcDbBlockEnd
  0
BLOCK
  5
75
330
73
100
AcDbEntity
 67
     1
  8
0
100
AcDbBlockBegin
  2
*Paper_Space
 70
     0
 10
0.0
 20
0.0
 30
0.0
  3
*Paper_Space
  1

  0
ENDBLK
  5
76
330
73
100
AcDbEntity
 67
     1
  8
0
100
AcDbBlockEnd
  0
BLOCK
  5
7A
330
78
100
AcDbEntity
 67
     1
  8
0
100
AcDbBlockBegin
  2
*Paper_Space0
 70
     0
 10
0.0
 20
0.0
 30
0.0
  3
*Paper_Space0
  1

  0
ENDBLK
  5
7B
330
78
100
AcDbEntity
 67
     1
  8
0
100
AcDbBlockEnd
  0
BLOCK
  5
20D
330
20C
100
AcDbEntity
  8
0
100
AcDbBlockBegin
  2
Block_1
 70
     0
 10
0.0
 20
0.0
 30
0.0
  3
Block_1
  1

  0
SPLINE
  5
20E
330
20C
100
AcDbEntity
  8
Livello 1
100
AcDbSpline
210
0.0
220
0.0
230
1.0
 70
    11
 71
     3
 72
    29
 73
    25
 74
     0
 42
0.000000001
 43
0.0000000001
 40
0.0
 40
0.0
 40
0.0
 40
0.0
 40
1.0
 40
1.0
 40
1.0
 40
2.0
 40
2.0
 40
2.0
 40
3.0
 40
3.0
 40
3.0
 40
4.0
 40
4.0
 40
4.0
 40
5.0
 40
5.0
 40
5.0
 40
6.0
 40
6.0
 40
6.0
 40
7.0
 40
7.0
 40
7.0
 40
8.0
 40
8.0
 40
8.0
 40
8.0
 10
44.97055391670874
 20
-119.5101901285426
 30
0.0
 10
44.97055391670874
 20
-119.5101901285426
 30
0.0
 10
44.97055391670874
 20
-120.2465792885147
 30
0.0
 10
44.97055391670874
 20
-120.2465792885147
 30
0.0
 10
44.97055391670874
 20
-120.2465792885147
 30
0.0
 10
41.37680256127039
 20
-127.7641221468784
 30
0.0
 10
41.37680256127039
 20
-127.7641221468784
 30
0.0
 10
41.37680256127039
 20
-127.7641221468784
 30
0.0
 10
40.22131753551759
 20
-127.7641221468784
 30
0.0
 10
40.22131753551759
 20
-127.7641221468784
 30
0.0
 10
40.22131753551759
 20
-127.7641221468784
 30
0.0
 10
43.80232203766053
 20
-120.4625867754399
 30
0.0
 10
43.80232203766053
 20
-120.4625867754399
 30
0.0
 10
43.80232203766053
 20
-120.4625867754399
 30
0.0
 10
43.80232203766053
 20
-120.437093068849
 30
0.0
 10
43.80232203766053
 20
-120.437093068849
 30
0.0
 10
43.80232203766053
 20
-120.437093068849
 30
0.0
 10
39.76415336462494
 20
-120.437093068849
 30
0.0
 10
39.76415336462494
 20
-120.437093068849
 30
0.0
 10
39.76415336462494
 20
-120.437093068849
 30
0.0
 10
39.76415336462494
 20
-119.5101901285426
 30
0.0
 10
39.76415336462494
 20
-119.5101901285426
 30
0.0
 10
39.76415336462494
 20
-119.5101901285426
 30
0.0
 10
44.97055391670874
 20
-119.5101901285426
 30
0.0
 10
44.97055391670874
 20
-119.5101901285426
 30
0.0
  0
HATCH
  5
20F
330
20C
100
AcDbEntity
  8
Livello 1
 62
   250
420
  1907995
440
 33554687
100
AcDbHatch
 10
0.0
 20
0.0
 30
0.0
210
0.0
220
0.0
230
1.0
  2
SOLID
 70
     1
 71
     1
 91
        1
 92
        1
 93
        1
 72
     4
 94
        3
 73
     0
 74
     0
 95
       29
 96
       25
 40
0.0
 40
0.0
 40
0.0
 40
0.0
 40
1.0
 40
1.0
 40
1.0
 40
2.0
 40
2.0
 40
2.0
 40
3.0
 40
3.0
 40
3.0
 40
4.0
 40
4.0
 40
4.0
 40
5.0
 40
5.0
 40
5.0
 40
6.0
 40
6.0
 40
6.0
 40
7.0
 40
7.0
 40
7.0
 40
8.0
 40
8.0
 40
8.0
 40
8.0
 10
44.97055391670874
 20
-119.5101901285426
 10
44.97055391670874
 20
-119.5101901285426
 10
44.97055391670874
 20
-120.2465792885147
 10
44.97055391670874
 20
-120.2465792885147
 10
44.97055391670874
 20
-120.2465792885147
 10
41.37680256127039
 20
-127.7641221468784
 10
41.37680256127039
 20
-127.7641221468784
 10
41.37680256127039
 20
-127.7641221468784
 10
40.22131753551759
 20
-127.7641221468784
 10
40.22131753551759
 20
-127.7641221468784
 10
40.22131753551759
 20
-127.7641221468784
 10
43.80232203766053
 20
-120.4625867754399
 10
43.80232203766053
 20
-120.4625867754399
 10
43.80232203766053
 20
-120.4625867754399
 10
43.80232203766053
 20
-120.437093068849
 10
43.80232203766053
 20
-120.437093068849
 10
43.80232203766053
 20
-120.437093068849
 10
39.76415336462494
 20
-120.437093068849
 10
39.76415336462494
 20
-120.437093068849
 10
39.76415336462494
 20
-120.437093068849
 10
39.76415336462494
 20
-119.5101901285426
 10
39.76415336462494
 20
-119.5101901285426
 10
39.76415336462494
 20
-119.5101901285426
 10
44.97055391670874
 20
-119.5101901285426
 10
44.97055391670874
 20
-119.5101901285426
 97
        0
 97
        1
330
20E
 75
     2
 76
     1
 98
        1
 10
0.0
 20
0.0
450
        0
451
        0
460
0.0
461
0.0
452
        0
462
0.0
453
        0
470

  0
SPLINE
  5
210
330
20C
100
AcDbEntity
  8
Livello 1
100
AcDbSpline
210
0.0
220
0.0
230
1.0
 70
     9
 71
     3
 72
    17
 73
    13
 74
     0
 42
0.000000001
 43
0.0000000001
 40
0.0
 40
0.0
 40
0.0
 40
0.0
 40
1.0
 40
1.0
 40
1.0
 40
2.0
 40
2.0
 40
2.0
 40
3.0
 40
3.0
 40
3.0
 40
4.0
 40
4.0
 40
4.0
 40
4.0
 10
47.39641790264743
 20
-121.4911200325612
 30
0.0
 10
47.39641790264743
 20
-122.3165649108271
 30
0.0
 10
48.01860214728353
 20
-122.7609822284243
 30
0.0
 10
48.97099879418085
 20
-123.0148857656872
 30
0.0
 10
49.68223875711069
 20
-122.7737290817197
 30
0.0
 10
50.22811413674853
 20
-122.2657497524197
 30
0.0
 10
50.22811413674853
 20
-121.5164414843778
 30
0.0
 10
50.22811413674853
 20
-120.8561889346297
 30
0.0
 10
49.83451197755872
 20
-120.1704426782907
 30
0.0
 10
48.83130017225398
 20
-120.1704426782907
 30
0.0
 10
47.9043972319475
 20
-120.1704426782907
 30
0.0
 10
47.39641790264743
 20
-120.7800523244057
 30
0.0
 10
47.39641790264743
 20
-121.4911200325612
 30
0.0
  0
SPLINE
  5
211
330
20C
100
AcDbEntity
  8
Livello 1
100
AcDbSpline
210
0.0
220
0.0
230
1.0
 70
     9
 71
     3
 72
    17
 73
    13
 74
     0
 42
0.000000001
 43
0.0000000001
 40
0.0
 40
0.0
 40
0.0
 40
0.0
 40
1.0
 40
1.0
 40
1.0
 40
2.0
 40
2.0
 40
2.0
 40
3.0
 40
3.0
 40
3.0
 40
4.0
 40
4.0
 40
4.0
 40
4.0
 10
50.46944307549028
 20
-125.6181721691163
 30
0.0
 10
50.46944307549028
 20
-124.6149603638115
 30
0.0
 10
49.77112222063014
 20
-124.132302486328
 30
0.0
 10
48.65353324521509
 20
-123.8148369373623
 30
0.0
 10
47.68856199979661
 20
-124.094234181216
 30
0.0
 10
47.1678358172011
 20
-124.7291652791476
 30
0.0
 10
47.1678358172011
 20
-125.5165418523014
 30
0.0
 10
47.12976751208908
 20
-126.3545613290884
 30
0.0
 10
47.76469861002063
 20
-127.0911227438348
 30
0.0
 10
48.81872557373283
 20
-127.0911227438348
 30
0.0
 10
49.82193737903757
 20
-127.0911227438348
 30
0.0
 10
50.46944307549028
 20
-126.4689384991987
 30
0.0
 10
50.46944307549028
 20
-125.6181721691163
 30
0.0
  0
SPLINE
  5
212
330
20C
100
AcDbEntity
  8
Livello 1
100
AcDbSpline
210
0.0
220
0.0
230
1.0
 70
     9
 71
     3
 72
    35
 73
    31
 74
     0
 42
0.000000001
 43
0.0000000001
 40
0.0
 40
0.0
 40
0.0
 40
0.0
 40
1.0
 40
1.0
 40
1.0
 40
2.0
 40
2.0
 40
2.0
 40
3.0
 40
3.0
 40
3.0
 40
4.0
 40
4.0
 40
4.0
 40
5.0
 40
5.0
 40
5.0
 40
6.0
 40
6.0
 40
6.0
 40
7.0
 40
7.0
 40
7.0
 40
8.0
 40
8.0
 40
8.0
 40
9.0
 40
9.0
 40
9.0
 40
10.0
 40
10.0
 40
10.0
 40
10.0
 10
46.02509764474373
 20
-125.6688150727494
 30
0.0
 10
46.02509764474373
 20
-124.6275349623327
 30
0.0
 10
46.64728188937984
 20
-123.8911458023605
 30
0.0
 10
47.66306829320575
 20
-123.4593030832844
 30
0.0
 10
47.66306829320575
 20
-123.4593030832844
 30
0.0
 10
47.65049369468459
 20
-123.4212347781725
 30
0.0
 10
47.65049369468459
 20
-123.4212347781725
 30
0.0
 10
46.73616535289928
 20
-122.9895643138706
 30
0.0
 10
46.34256319370949
 20
-122.2784966057151
 30
0.0
 10
46.34256319370949
 20
-121.5672566427853
 30
0.0
 10
46.34256319370949
 20
-120.2593261418102
 30
0.0
 10
47.44723306105486
 20
-119.3704915066157
 30
0.0
 10
48.89486218395684
 20
-119.3704915066157
 30
0.0
 10
50.49493678208111
 20
-119.3704915066157
 30
0.0
 10
51.29488795375614
 20
-120.3737033119204
 30
0.0
 10
51.29488795375614
 20
-121.4022365690418
 30
0.0
 10
51.29488795375614
 20
-122.1005574239019
 30
0.0
 10
50.95192869819952
 20
-122.8498656919438
 30
0.0
 10
49.93614229437359
 20
-123.332351314653
 30
0.0
 10
49.93614229437359
 20
-123.332351314653
 30
0.0
 10
49.93614229437359
 20
-123.370419619765
 30
0.0
 10
49.93614229437359
 20
-123.370419619765
 30
0.0
 10
50.96467555149494
 20
-123.7767686322502
 30
0.0
 10
51.59960664942649
 20
-124.5005831937012
 30
0.0
 10
51.59960664942649
 20
-125.503794999006
 30
0.0
 10
51.59960664942649
 20
-126.9386772686125
 30
0.0
 10
50.3678127586754
 20
-127.9038207688053
 30
0.0
 10
48.79323186714197
 20
-127.9038207688053
 30
0.0
 10
47.06637775516049
 20
-127.9038207688053
 30
0.0
 10
46.02509764474373
 20
-126.8752875116839
 30
0.0
 10
46.02509764474373
 20
-125.6688150727494
 30
0.0
  0
HATCH
  5
213
330
20C
100
AcDbEntity
  8
Livello 1
 62
   250
420
  1907995
440
 33554687
100
AcDbHatch
 10
0.0
 20
0.0
 30
0.0
210
0.0
220
0.0
230
1.0
  2
SOLID
 70
     1
 71
     1
 91
        3
 92
        1
 93
        1
 72
     4
 94
        3
 73
     0
 74
     0
 95
       17
 96
       13
 40
0.0
 40
0.0
 40
0.0
 40
0.0
 40
1.0
 40
1.0
 40
1.0
 40
2.0
 40
2.0
 40
2.0
 40
3.0
 40
3.0
 40
3.0
 40
4.0
 40
4.0
 40
4.0
 40
4.0
 10
47.39641790264743
 20
-121.4911200325612
 10
47.39641790264743
 20
-122.3165649108271
 10
48.01860214728353
 20
-122.7609822284243
 10
48.97099879418085
 20
-123.0148857656872
 10
49.68223875711069
 20
-122.7737290817197
 10
50.22811413674853
 20
-122.2657497524197
 10
50.22811413674853
 20
-121.5164414843778
 10
50.22811413674853
 20
-120.8561889346297
 10
49.83451197755872
 20
-120.1704426782907
 10
48.83130017225398
 20
-120.1704426782907
 10
47.9043972319475
 20
-120.1704426782907
 10
47.39641790264743
 20
-120.7800523244057
 10
47.39641790264743
 20
-121.4911200325612
 97
        0
 97
        1
330
210
 92
        1
 93
        1
 72
     4
 94
        3
 73
     0
 74
     0
 95
       17
 96
       13
 40
0.0
 40
0.0
 40
0.0
 40
0.0
 40
1.0
 40
1.0
 40
1.0
 40
2.0
 40
2.0
 40
2.0
 40
3.0
 40
3.0
 40
3.0
 40
4.0
 40
4.0
 40
4.0
 40
4.0
 10
50.46944307549028
 20
-125.6181721691163
 10
50.46944307549028
 20
-124.6149603638115
 10
49.77112222063014
 20
-124.132302486328
 10
48.65353324521509
 20
-123.8148369373623
 10
47.68856199979661
 20
-124.094234181216
 10
47.1678358172011
 20
-124.7291652791476
 10
47.1678358172011
 20
-125.5165418523014
 10
47.12976751208908
 20
-126.3545613290884
 10
47.76469861002063
 20
-127.0911227438348
 10
48.81872557373283
 20
-127.0911227438348
 10
49.82193737903757
 20
-127.0911227438348
 10
50.46944307549028
 20
-126.4689384991987
 10
50.46944307549028
 20
-125.6181721691163
 97
        0
 97
        1
330
211
 92
        1
 93
        1
 72
     4
 94
        3
 73
     0
 74
     0
 95
       35
 96
       31
 40
0.0
 40
0.0
 40
0.0
 40
0.0
 40
1.0
 40
1.0
 40
1.0
 40
2.0
 40
2.0
 40
2.0
 40
3.0
 40
3.0
 40
3.0
 40
4.0
 40
4.0
 40
4.0
 40
5.0
 40
5.0
 40
5.0
 40
6.0
 40
6.0
 40
6.0
 40
7.0
 40
7.0
 40
7.0
 40
8.0
 40
8.0
 40
8.0
 40
9.0
 40
9.0
 40
9.0
 40
10.0
 40
10.0
 40
10.0
 40
10.0
 10
46.02509764474373
 20
-125.6688150727494
 10
46.02509764474373
 20
-124.6275349623327
 10
46.64728188937984
 20
-123.8911458023605
 10
47.66306829320575
 20
-123.4593030832844
 10
47.66306829320575
 20
-123.4593030832844
 10
47.65049369468459
 20
-123.4212347781725
 10
47.65049369468459
 20
-123.4212347781725
 10
46.73616535289928
 20
-122.9895643138706
 10
46.34256319370949
 20
-122.2784966057151
 10
46.34256319370949
 20
-121.5672566427853
 10
46.34256319370949
 20
-120.2593261418102
 10
47.44723306105486
 20
-119.3704915066157
 10
48.89486218395684
 20
-119.3704915066157
 10
50.49493678208111
 20
-119.3704915066157
 10
51.29488795375614
 20
-120.3737033119204
 10
51.29488795375614
 20
-121.4022365690418
 10
51.29488795375614
 20
-122.1005574239019
 10
50.95192869819952
 20
-122.8498656919438
 10
49.93614229437359
 20
-123.332351314653
 10
49.93614229437359
 20
-123.332351314653
 10
49.93614229437359
 20
-123.370419619765
 10
49.93614229437359
 20
-123.370419619765
 10
50.96467555149494
 20
-123.7767686322502
 10
51.59960664942649
 20
-124.5005831937012
 10
51.59960664942649
 20
-125.503794999006
 10
51.59960664942649
 20
-126.9386772686125
 10
50.3678127586754
 20
-127.9038207688053
 10
48.79323186714197
 20
-127.9038207688053
 10
47.06637775516049
 20
-127.9038207688053
 10
46.02509764474373
 20
-126.8752875116839
 10
46.02509764474373
 20
-125.6688150727494
 97
        0
 97
        1
330
212
 75
     2
 76
     1
 98
        1
 10
0.0
 20
0.0
450
        0
451
        0
460
0.0
461
0.0
452
        0
462
0.0
453
        0
470

  0
ENDBLK
  5
214
330
20C
100
AcDbEntity
  8
0
100
AcDbBlockEnd
  0
BLOCK
  5
216
330
215
100
AcDbEntity
  8
0
100
AcDbBlockBegin
  2
Block_3
 70
     0
 10
0.0
 20
0.0
 30
0.0
  3
Block_3
  1

  0
SPLINE
  5
217
330
215
100
AcDbEntity
  8
Livello 1
100
AcDbSpline
210
0.0
220
0.0
230
1.0
 70
    11
 71
     3
 72
    29
 73
    25
 74
     0
 42
0.000000001
 43
0.0000000001
 40
0.0
 40
0.0
 40
0.0
 40
0.0
 40
1.0
 40
1.0
 40
1.0
 40
2.0
 40
2.0
 40
2.0
 40
3.0
 40
3.0
 40
3.0
 40
4.0
 40
4.0
 40
4.0
 40
5.0
 40
5.0
 40
5.0
 40
6.0
 40
6.0
 40
6.0
 40
7.0
 40
7.0
 40
7.0
 40
8.0
 40
8.0
 40
8.0
 40
8.0
 10
95.42776690322641
 20
-62.0956068095629
 30
0.0
 10
95.42776690322641
 20
-62.0956068095629
 30
0.0
 10
96.16432831797284
 20
-62.0956068095629
 30
0.0
 10
96.16432831797284
 20
-62.0956068095629
 30
0.0
 10
96.16432831797284
 20
-62.0956068095629
 30
0.0
 10
103.6816989215622
 20
-65.68935816500128
 30
0.0
 10
103.6816989215622
 20
-65.68935816500128
 30
0.0
 10
103.6816989215622
 20
-65.68935816500128
 30
0.0
 10
103.6816989215622
 20
-66.84484319075408
 30
0.0
 10
103.6816989215622
 20
-66.84484319075408
 30
0.0
 10
103.6816989215622
 20
-66.84484319075408
 30
0.0
 10
96.38016355012371
 20
-63.26383868861111
 30
0.0
 10
96.38016355012371
 20
-63.26383868861111
 30
0.0
 10
96.38016355012371
 20
-63.26383868861111
 30
0.0
 10
96.35466984353286
 20
-63.26383868861111
 30
0.0
 10
96.35466984353286
 20
-63.26383868861111
 30
0.0
 10
96.35466984353286
 20
-63.26383868861111
 30
0.0
 10
96.35466984353286
 20
-67.30200736164673
 30
0.0
 10
96.35466984353286
 20
-67.30200736164673
 30
0.0
 10
96.35466984353286
 20
-67.30200736164673
 30
0.0
 10
95.42776690322641
 20
-67.30200736164673
 30
0.0
 10
95.42776690322641
 20
-67.30200736164673
 30
0.0
 10
95.42776690322641
 20
-67.30200736164673
 30
0.0
 10
95.42776690322641
 20
-62.0956068095629
 30
0.0
 10
95.42776690322641
 20
-62.0956068095629
 30
0.0
  0
HATCH
  5
218
330
215
100
AcDbEntity
  8
Livello 1
 62
   250
420
  1907995
440
 33554687
100
AcDbHatch
 10
0.0
 20
0.0
 30
0.0
210
0.0
220
0.0
230
1.0
  2
SOLID
 70
     1
 71
     1
 91
        1
 92
        1
 93
        1
 72
     4
 94
        3
 73
     0
 74
     0
 95
       29
 96
       25
 40
0.0
 40
0.0
 40
0.0
 40
0.0
 40
1.0
 40
1.0
 40
1.0
 40
2.0
 40
2.0
 40
2.0
 40
3.0
 40
3.0
 40
3.0
 40
4.0
 40
4.0
 40
4.0
 40
5.0
 40
5.0
 40
5.0
 40
6.0
 40
6.0
 40
6.0
 40
7.0
 40
7.0
 40
7.0
 40
8.0
 40
8.0
 40
8.0
 40
8.0
 10
95.42776690322641
 20
-62.0956068095629
 10
95.42776690322641
 20
-62.0956068095629
 10
96.16432831797284
 20
-62.0956068095629
 10
96.16432831797284
 20
-62.0956068095629
 10
96.16432831797284
 20
-62.0956068095629
 10
103.6816989215622
 20
-65.68935816500128
 10
103.6816989215622
 20
-65.68935816500128
 10
103.6816989215622
 20
-65.68935816500128
 10
103.6816989215622
 20
-66.84484319075408
 10
103.6816989215622
 20
-66.84484319075408
 10
103.6816989215622
 20
-66.84484319075408
 10
96.38016355012371
 20
-63.26383868861111
 10
96.38016355012371
 20
-63.26383868861111
 10
96.38016355012371
 20
-63.26383868861111
 10
96.35466984353286
 20
-63.26383868861111
 10
96.35466984353286
 20
-63.26383868861111
 10
96.35466984353286
 20
-63.26383868861111
 10
96.35466984353286
 20
-67.30200736164673
 10
96.35466984353286
 20
-67.30200736164673
 10
96.35466984353286
 20
-67.30200736164673
 10
95.42776690322641
 20
-67.30200736164673
 10
95.42776690322641
 20
-67.30200736164673
 10
95.42776690322641
 20
-67.30200736164673
 10
95.42776690322641
 20
-62.0956068095629
 10
95.42776690322641
 20
-62.0956068095629
 97
        0
 97
        1
330
217
 75
     2
 76
     1
 98
        1
 10
0.0
 20
0.0
450
        0
451
        0
460
0.0
461
0.0
452
        0
462
0.0
453
        0
470

  0
SPLINE
  5
219
330
215
100
AcDbEntity
  8
Livello 1
100
AcDbSpline
210
0.0
220
0.0
230
1.0
 70
     9
 71
     3
 72
    17
 73
    13
 74
     0
 42
0.000000001
 43
0.0000000001
 40
0.0
 40
0.0
 40
0.0
 40
0.0
 40
1.0
 40
1.0
 40
1.0
 40
2.0
 40
2.0
 40
2.0
 40
3.0
 40
3.0
 40
3.0
 40
4.0
 40
4.0
 40
4.0
 40
4.0
 10
101.5357489438001
 20
-56.59671765078138
 30
0.0
 10
100.5325371384953
 20
-56.59671765078138
 30
0.0
 10
100.0498792610118
 20
-57.29503850564153
 30
0.0
 10
99.73241371204608
 20
-58.41262748105656
 30
0.0
 10
100.0118109558998
 20
-59.37759872647505
 30
0.0
 10
100.6467420538313
 20
-59.89832490907056
 30
0.0
 10
101.4341186269852
 20
-59.89832490907056
 30
0.0
 10
102.2721381037722
 20
-59.93639321418257
 30
0.0
 10
103.0086995185186
 20
-59.30146211625102
 30
0.0
 10
103.0086995185186
 20
-58.24743515253884
 30
0.0
 10
103.0086995185186
 20
-57.24439560200835
 30
0.0
 10
102.3865152738825
 20
-56.59671765078138
 30
0.0
 10
101.5357489438001
 20
-56.59671765078138
 30
0.0
  0
SPLINE
  5
21A
330
215
100
AcDbEntity
  8
Livello 1
100
AcDbSpline
210
0.0
220
0.0
230
1.0
 70
     9
 71
     3
 72
    17
 73
    13
 74
     0
 42
0.000000001
 43
0.0000000001
 40
0.0
 40
0.0
 40
0.0
 40
0.0
 40
1.0
 40
1.0
 40
1.0
 40
2.0
 40
2.0
 40
2.0
 40
3.0
 40
3.0
 40
3.0
 40
4.0
 40
4.0
 40
4.0
 40
4.0
 10
97.40869680724507
 20
-59.66974282362422
 30
0.0
 10
98.23414168551092
 20
-59.66974282362422
 30
0.0
 10
98.67855900310814
 20
-59.04755857898812
 30
0.0
 10
98.93246254037107
 20
-58.0951619320908
 30
0.0
 10
98.69130585640355
 20
-57.38392196916096
 30
0.0
 10
98.18332652710347
 20
-56.83787433474886
 30
0.0
 10
97.43401825906165
 20
-56.83787433474886
 30
0.0
 10
96.7737657093135
 20
-56.83787433474886
 30
0.0
 10
96.0880194529745
 20
-57.23164874871292
 30
0.0
 10
96.0880194529745
 20
-58.23486055401768
 30
0.0
 10
96.0880194529745
 20
-59.16176349432415
 30
0.0
 10
96.69762909908948
 20
-59.66974282362422
 30
0.0
 10
97.40869680724507
 20
-59.66974282362422
 30
0.0
  0
SPLINE
  5
21B
330
215
100
AcDbEntity
  8
Livello 1
100
AcDbSpline
210
0.0
220
0.0
230
1.0
 70
     9
 71
     3
 72
    35
 73
    31
 74
     0
 42
0.000000001
 43
0.0000000001
 40
0.0
 40
0.0
 40
0.0
 40
0.0
 40
1.0
 40
1.0
 40
1.0
 40
2.0
 40
2.0
 40
2.0
 40
3.0
 40
3.0
 40
3.0
 40
4.0
 40
4.0
 40
4.0
 40
5.0
 40
5.0
 40
5.0
 40
6.0
 40
6.0
 40
6.0
 40
7.0
 40
7.0
 40
7.0
 40
8.0
 40
8.0
 40
8.0
 40
9.0
 40
9.0
 40
9.0
 40
10.0
 40
10.0
 40
10.0
 40
10.0
 10
101.5863918474332
 20
-61.04106308152793
 30
0.0
 10
100.5451117370165
 20
-61.04106308152793
 30
0.0
 10
99.80872257704435
 20
-60.41887883689181
 30
0.0
 10
99.37687985796827
 20
-59.4030924330659
 30
0.0
 10
99.37687985796827
 20
-59.4030924330659
 30
0.0
 10
99.33881155285627
 20
-59.41566703158707
 30
0.0
 10
99.33881155285627
 20
-59.41566703158707
 30
0.0
 10
98.90714108855448
 20
-60.32999537337236
 30
0.0
 10
98.19590112562465
 20
-60.72359753256216
 30
0.0
 10
97.48483341746908
 20
-60.72359753256216
 30
0.0
 10
96.17690291649395
 20
-60.72359753256216
 30
0.0
 10
95.28806828129951
 20
-59.6189276652168
 30
0.0
 10
95.28806828129951
 20
-58.17129854231481
 30
0.0
 10
95.28806828129951
 20
-56.57122394419053
 30
0.0
 10
96.2912800866043
 20
-55.77127277251552
 30
0.0
 10
97.31981334372562
 20
-55.77127277251552
 30
0.0
 10
98.01813419858575
 20
-55.77127277251552
 30
0.0
 10
98.76744246662759
 20
-56.11423202807213
 30
0.0
 10
99.24992808933685
 20
-57.13001843189805
 30
0.0
 10
99.24992808933685
 20
-57.13001843189805
 30
0.0
 10
99.28799639444886
 20
-57.13001843189805
 30
0.0
 10
99.28799639444886
 20
-57.13001843189805
 30
0.0
 10
99.69434540693407
 20
-56.10148517477671
 30
0.0
 10
100.418159968385
 20
-55.46655407684517
 30
0.0
 10
101.4213717736898
 20
-55.46655407684517
 30
0.0
 10
102.8562540432963
 20
-55.46655407684517
 30
0.0
 10
103.8213975434891
 20
-56.69834796759626
 30
0.0
 10
103.8213975434891
 20
-58.27292885912967
 30
0.0
 10
103.8213975434891
 20
-59.99978297111115
 30
0.0
 10
102.7928642863677
 20
-61.04106308152793
 30
0.0
 10
101.5863918474332
 20
-61.04106308152793
 30
0.0
  0
HATCH
  5
21C
330
215
100
AcDbEntity
  8
Livello 1
 62
   250
420
  1907995
440
 33554687
100
AcDbHatch
 10
0.0
 20
0.0
 30
0.0
210
0.0
220
0.0
230
1.0
  2
SOLID
 70
     1
 71
     1
 91
        3
 92
        1
 93
        1
 72
     4
 94
        3
 73
     0
 74
     0
 95
       17
 96
       13
 40
0.0
 40
0.0
 40
0.0
 40
0.0
 40
1.0
 40
1.0
 40
1.0
 40
2.0
 40
2.0
 40
2.0
 40
3.0
 40
3.0
 40
3.0
 40
4.0
 40
4.0
 40
4.0
 40
4.0
 10
101.5357489438001
 20
-56.59671765078138
 10
100.5325371384953
 20
-56.59671765078138
 10
100.0498792610118
 20
-57.29503850564153
 10
99.73241371204608
 20
-58.41262748105656
 10
100.0118109558998
 20
-59.37759872647505
 10
100.6467420538313
 20
-59.89832490907056
 10
101.4341186269852
 20
-59.89832490907056
 10
102.2721381037722
 20
-59.93639321418257
 10
103.0086995185186
 20
-59.30146211625102
 10
103.0086995185186
 20
-58.24743515253884
 10
103.0086995185186
 20
-57.24439560200835
 10
102.3865152738825
 20
-56.59671765078138
 10
101.5357489438001
 20
-56.59671765078138
 97
        0
 97
        1
330
219
 92
        1
 93
        1
 72
     4
 94
        3
 73
     0
 74
     0
 95
       17
 96
       13
 40
0.0
 40
0.0
 40
0.0
 40
0.0
 40
1.0
 40
1.0
 40
1.0
 40
2.0
 40
2.0
 40
2.0
 40
3.0
 40
3.0
 40
3.0
 40
4.0
 40
4.0
 40
4.0
 40
4.0
 10
97.40869680724507
 20
-59.66974282362422
 10
98.23414168551092
 20
-59.66974282362422
 10
98.67855900310814
 20
-59.04755857898812
 10
98.93246254037107
 20
-58.0951619320908
 10
98.69130585640355
 20
-57.38392196916096
 10
98.18332652710347
 20
-56.83787433474886
 10
97.43401825906165
 20
-56.83787433474886
 10
96.7737657093135
 20
-56.83787433474886
 10
96.0880194529745
 20
-57.23164874871292
 10
96.0880194529745
 20
-58.23486055401768
 10
96.0880194529745
 20
-59.16176349432415
 10
96.69762909908948
 20
-59.66974282362422
 10
97.40869680724507
 20
-59.66974282362422
 97
        0
 97
        1
330
21A
 92
        1
 93
        1
 72
     4
 94
        3
 73
     0
 74
     0
 95
       35
 96
       31
 40
0.0
 40
0.0
 40
0.0
 40
0.0
 40
1.0
 40
1.0
 40
1.0
 40
2.0
 40
2.0
 40
2.0
 40
3.0
 40
3.0
 40
3.0
 40
4.0
 40
4.0
 40
4.0
 40
5.0
 40
5.0
 40
5.0
 40
6.0
 40
6.0
 40
6.0
 40
7.0
 40
7.0
 40
7.0
 40
8.0
 40
8.0
 40
8.0
 40
9.0
 40
9.0
 40
9.0
 40
10.0
 40
10.0
 40
10.0
 40
10.0
 10
101.5863918474332
 20
-61.04106308152793
 10
100.5451117370165
 20
-61.04106308152793
 10
99.80872257704435
 20
-60.41887883689181
 10
99.37687985796827
 20
-59.4030924330659
 10
99.37687985796827
 20
-59.4030924330659
 10
99.33881155285627
 20
-59.41566703158707
 10
99.33881155285627
 20
-59.41566703158707
 10
98.90714108855448
 20
-60.32999537337236
 10
98.19590112562465
 20
-60.72359753256216
 10
97.48483341746908
 20
-60.72359753256216
 10
96.17690291649395
 20
-60.72359753256216
 10
95.28806828129951
 20
-59.6189276652168
 10
95.28806828129951
 20
-58.17129854231481
 10
95.28806828129951
 20
-56.57122394419053
 10
96.2912800866043
 20
-55.77127277251552
 10
97.31981334372562
 20
-55.77127277251552
 10
98.01813419858575
 20
-55.77127277251552
 10
98.76744246662759
 20
-56.11423202807213
 10
99.24992808933685
 20
-57.13001843189805
 10
99.24992808933685
 20
-57.13001843189805
 10
99.28799639444886
 20
-57.13001843189805
 10
99.28799639444886
 20
-57.13001843189805
 10
99.69434540693407
 20
-56.10148517477671
 10
100.418159968385
 20
-55.46655407684517
 10
101.4213717736898
 20
-55.46655407684517
 10
102.8562540432963
 20
-55.46655407684517
 10
103.8213975434891
 20
-56.69834796759626
 10
103.8213975434891
 20
-58.27292885912967
 10
103.8213975434891
 20
-59.99978297111115
 10
102.7928642863677
 20
-61.04106308152793
 10
101.5863918474332
 20
-61.04106308152793
 97
        0
 97
        1
330
21B
 75
     2
 76
     1
 98
        1
 10
0.0
 20
0.0
450
        0
451
        0
460
0.0
461
0.0
452
        0
462
0.0
453
        0
470

  0
ENDBLK
  5
21D
330
215
100
AcDbEntity
  8
0
100
AcDbBlockEnd
  0
BLOCK
  5
258
330
257
100
AcDbEntity
  8
0
100
AcDbBlockBegin
  2
Block_5
 70
     0
 10
0.0
 20
0.0
 30
0.0
  3
Block_5
  1

  0
SPLINE
  5
259
330
257
100
AcDbEntity
  8
Livello 1
100
AcDbSpline
210
0.0
220
0.0
230
1.0
 70
    11
 71
     3
 72
    50
 73
    46
 74
     0
 42
0.000000001
 43
0.0000000001
 40
0.0
 40
0.0
 40
0.0
 40
0.0
 40
1.0
 40
1.0
 40
1.0
 40
2.0
 40
2.0
 40
2.0
 40
3.0
 40
3.0
 40
3.0
 40
4.0
 40
4.0
 40
4.0
 40
5.0
 40
5.0
 40
5.0
 40
6.0
 40
6.0
 40
6.0
 40
7.0
 40
7.0
 40
7.0
 40
8.0
 40
8.0
 40
8.0
 40
9.0
 40
9.0
 40
9.0
 40
10.0
 40
10.0
 40
10.0
 40
11.0
 40
11.0
 40
11.0
 40
12.0
 40
12.0
 40
12.0
 40
13.0
 40
13.0
 40
13.0
 40
14.0
 40
14.0
 40
14.0
 40
15.0
 40
15.0
 40
15.0
 40
15.0
 10
155.4327175175654
 20
-120.4498399221445
 30
0.0
 10
155.4327175175654
 20
-120.4498399221445
 30
0.0
 10
152.2835557344985
 20
-120.4498399221445
 30
0.0
 10
152.2835557344985
 20
-120.4498399221445
 30
0.0
 10
152.2835557344985
 20
-120.4498399221445
 30
0.0
 10
151.966262440307
 20
-122.57046844809
 30
0.0
 10
151.966262440307
 20
-122.57046844809
 30
0.0
 10
152.1567762206414
 20
-122.5451469962734
 30
0.0
 10
152.3345431476802
 20
-122.5196532896826
 30
0.0
 10
152.6390895885763
 20
-122.5196532896826
 30
0.0
 10
153.2740206865079
 20
-122.5196532896826
 30
0.0
 10
153.9089517844394
 20
-122.6593519116095
 30
0.0
 10
154.4171033685137
 20
-122.9640706072798
 30
0.0
 10
155.0644368101921
 20
-123.332351314653
 30
0.0
 10
155.5980821008574
 20
-124.0434190228086
 30
0.0
 10
155.5980821008574
 20
-125.0846991332253
 30
0.0
 10
155.5980821008574
 20
-126.697520584645
 30
0.0
 10
154.3154730516989
 20
-127.9038207688053
 30
0.0
 10
152.5250569280146
 20
-127.9038207688053
 30
0.0
 10
151.6234754395247
 20
-127.9038207688053
 30
0.0
 10
150.8614203181874
 20
-127.6499172315424
 30
0.0
 10
150.4676459042233
 20
-127.3958414395052
 30
0.0
 10
150.4676459042233
 20
-127.3958414395052
 30
0.0
 10
150.7470431480771
 20
-126.5450751094227
 30
0.0
 10
150.7470431480771
 20
-126.5450751094227
 30
0.0
 10
151.0898301488595
 20
-126.7481634882782
 30
0.0
 10
151.7630018066773
 20
-127.0022392803154
 30
0.0
 10
152.5123100747191
 20
-127.0022392803154
 30
0.0
 10
153.5661647836571
 20
-127.0022392803154
 30
0.0
 10
154.4677462721469
 20
-126.3164930239764
 30
0.0
 10
154.4677462721469
 20
-125.2118231566311
 30
0.0
 10
154.4549994188515
 20
-124.1450493396234
 30
0.0
 10
153.7439317106959
 20
-123.3831664730604
 30
0.0
 10
152.0930419541642
 20
-123.3831664730604
 30
0.0
 10
151.6234754395247
 20
-123.3831664730604
 30
0.0
 10
151.2551947321515
 20
-123.4339816314679
 30
0.0
 10
150.9503037817069
 20
-123.4720499365799
 30
0.0
 10
150.9503037817069
 20
-123.4720499365799
 30
0.0
 10
151.4836045628235
 20
-119.5101901285426
 30
0.0
 10
151.4836045628235
 20
-119.5101901285426
 30
0.0
 10
151.4836045628235
 20
-119.5101901285426
 30
0.0
 10
155.4327175175654
 20
-119.5101901285426
 30
0.0
 10
155.4327175175654
 20
-119.5101901285426
 30
0.0
 10
155.4327175175654
 20
-119.5101901285426
 30
0.0
 10
155.4327175175654
 20
-120.4498399221445
 30
0.0
 10
155.4327175175654
 20
-120.4498399221445
 30
0.0
  0
HATCH
  5
25A
330
257
100
AcDbEntity
  8
Livello 1
 62
   250
420
  1907995
440
 33554687
100
AcDbHatch
 10
0.0
 20
0.0
 30
0.0
210
0.0
220
0.0
230
1.0
  2
SOLID
 70
     1
 71
     1
 91
        1
 92
        1
 93
        1
 72
     4
 94
        3
 73
     0
 74
     0
 95
       50
 96
       46
 40
0.0
 40
0.0
 40
0.0
 40
0.0
 40
1.0
 40
1.0
 40
1.0
 40
2.0
 40
2.0
 40
2.0
 40
3.0
 40
3.0
 40
3.0
 40
4.0
 40
4.0
 40
4.0
 40
5.0
 40
5.0
 40
5.0
 40
6.0
 40
6.0
 40
6.0
 40
7.0
 40
7.0
 40
7.0
 40
8.0
 40
8.0
 40
8.0
 40
9.0
 40
9.0
 40
9.0
 40
10.0
 40
10.0
 40
10.0
 40
11.0
 40
11.0
 40
11.0
 40
12.0
 40
12.0
 40
12.0
 40
13.0
 40
13.0
 40
13.0
 40
14.0
 40
14.0
 40
14.0
 40
15.0
 40
15.0
 40
15.0
 40
15.0
 10
155.4327175175654
 20
-120.4498399221445
 10
155.4327175175654
 20
-120.4498399221445
 10
152.2835557344985
 20
-120.4498399221445
 10
152.2835557344985
 20
-120.4498399221445
 10
152.2835557344985
 20
-120.4498399221445
 10
151.966262440307
 20
-122.57046844809
 10
151.966262440307
 20
-122.57046844809
 10
152.1567762206414
 20
-122.5451469962734
 10
152.3345431476802
 20
-122.5196532896826
 10
152.6390895885763
 20
-122.5196532896826
 10
153.2740206865079
 20
-122.5196532896826
 10
153.9089517844394
 20
-122.6593519116095
 10
154.4171033685137
 20
-122.9640706072798
 10
155.0644368101921
 20
-123.332351314653
 10
155.5980821008574
 20
-124.0434190228086
 10
155.5980821008574
 20
-125.0846991332253
 10
155.5980821008574
 20
-126.697520584645
 10
154.3154730516989
 20
-127.9038207688053
 10
152.5250569280146
 20
-127.9038207688053
 10
151.6234754395247
 20
-127.9038207688053
 10
150.8614203181874
 20
-127.6499172315424
 10
150.4676459042233
 20
-127.3958414395052
 10
150.4676459042233
 20
-127.3958414395052
 10
150.7470431480771
 20
-126.5450751094227
 10
150.7470431480771
 20
-126.5450751094227
 10
151.0898301488595
 20
-126.7481634882782
 10
151.7630018066773
 20
-127.0022392803154
 10
152.5123100747191
 20
-127.0022392803154
 10
153.5661647836571
 20
-127.0022392803154
 10
154.4677462721469
 20
-126.3164930239764
 10
154.4677462721469
 20
-125.2118231566311
 10
154.4549994188515
 20
-124.1450493396234
 10
153.7439317106959
 20
-123.3831664730604
 10
152.0930419541642
 20
-123.3831664730604
 10
151.6234754395247
 20
-123.3831664730604
 10
151.2551947321515
 20
-123.4339816314679
 10
150.9503037817069
 20
-123.4720499365799
 10
150.9503037817069
 20
-123.4720499365799
 10
151.4836045628235
 20
-119.5101901285426
 10
151.4836045628235
 20
-119.5101901285426
 10
151.4836045628235
 20
-119.5101901285426
 10
155.4327175175654
 20
-119.5101901285426
 10
155.4327175175654
 20
-119.5101901285426
 10
155.4327175175654
 20
-119.5101901285426
 10
155.4327175175654
 20
-120.4498399221445
 10
155.4327175175654
 20
-120.4498399221445
 97
        0
 97
        1
330
259
 75
     2
 76
     1
 98
        1
 10
0.0
 20
0.0
450
        0
451
        0
460
0.0
461
0.0
452
        0
462
0.0
453
        0
470

  0
SPLINE
  5
25B
330
257
100
AcDbEntity
  8
Livello 1
100
AcDbSpline
210
0.0
220
0.0
230
1.0
 70
     9
 71
     3
 72
    17
 73
    13
 74
     0
 42
0.000000001
 43
0.0000000001
 40
0.0
 40
0.0
 40
0.0
 40
0.0
 40
1.0
 40
1.0
 40
1.0
 40
2.0
 40
2.0
 40
2.0
 40
3.0
 40
3.0
 40
3.0
 40
4.0
 40
4.0
 40
4.0
 40
4.0
 10
158.2904242225802
 20
-121.4911200325612
 30
0.0
 10
158.2904242225802
 20
-122.3165649108271
 30
0.0
 10
158.9126084672163
 20
-122.7609822284243
 30
0.0
 10
159.8651773688879
 20
-123.0148857656872
 30
0.0
 10
160.5762450770434
 20
-122.7737290817197
 30
0.0
 10
161.1222927114555
 20
-122.2657497524197
 30
0.0
 10
161.1222927114555
 20
-121.5164414843778
 30
0.0
 10
161.1222927114555
 20
-120.8561889346297
 30
0.0
 10
160.7285182974915
 20
-120.1704426782907
 30
0.0
 10
159.7253064921867
 20
-120.1704426782907
 30
0.0
 10
158.7985758066545
 20
-120.1704426782907
 30
0.0
 10
158.2904242225802
 20
-120.7800523244057
 30
0.0
 10
158.2904242225802
 20
-121.4911200325612
 30
0.0
  0
SPLINE
  5
25C
330
257
100
AcDbEntity
  8
Livello 1
100
AcDbSpline
210
0.0
220
0.0
230
1.0
 70
     9
 71
     3
 72
    17
 73
    13
 74
     0
 42
0.000000001
 43
0.0000000001
 40
0.0
 40
0.0
 40
0.0
 40
0.0
 40
1.0
 40
1.0
 40
1.0
 40
2.0
 40
2.0
 40
2.0
 40
3.0
 40
3.0
 40
3.0
 40
4.0
 40
4.0
 40
4.0
 40
4.0
 10
161.363449395423
 20
-125.6181721691163
 30
0.0
 10
161.363449395423
 20
-124.6149603638115
 30
0.0
 10
160.6651285405629
 20
-124.132302486328
 30
0.0
 10
159.5475395651478
 20
-123.8148369373623
 30
0.0
 10
158.5825683197294
 20
-124.094234181216
 30
0.0
 10
158.0620143919081
 20
-124.7291652791476
 30
0.0
 10
158.0620143919081
 20
-125.5165418523014
 30
0.0
 10
158.0237738320218
 20
-126.3545613290884
 30
0.0
 10
158.6587049299534
 20
-127.0911227438348
 30
0.0
 10
159.7129041484398
 20
-127.0911227438348
 30
0.0
 10
160.7161159537445
 20
-127.0911227438348
 30
0.0
 10
161.363449395423
 20
-126.4689384991987
 30
0.0
 10
161.363449395423
 20
-125.6181721691163
 30
0.0
  0
SPLINE
  5
25D
330
257
100
AcDbEntity
  8
Livello 1
100
AcDbSpline
210
0.0
220
0.0
230
1.0
 70
     9
 71
     3
 72
    35
 73
    31
 74
     0
 42
0.000000001
 43
0.0000000001
 40
0.0
 40
0.0
 40
0.0
 40
0.0
 40
1.0
 40
1.0
 40
1.0
 40
2.0
 40
2.0
 40
2.0
 40
3.0
 40
3.0
 40
3.0
 40
4.0
 40
4.0
 40
4.0
 40
5.0
 40
5.0
 40
5.0
 40
6.0
 40
6.0
 40
6.0
 40
7.0
 40
7.0
 40
7.0
 40
8.0
 40
8.0
 40
8.0
 40
9.0
 40
9.0
 40
9.0
 40
10.0
 40
10.0
 40
10.0
 40
10.0
 10
156.9192762194507
 20
-125.6688150727494
 30
0.0
 10
156.9192762194507
 20
-124.6275349623327
 30
0.0
 10
157.5414604640869
 20
-123.8911458023605
 30
0.0
 10
158.5570746131385
 20
-123.4593030832844
 30
0.0
 10
158.5570746131385
 20
-123.4593030832844
 30
0.0
 10
158.5446722693916
 20
-123.4212347781725
 30
0.0
 10
158.5446722693916
 20
-123.4212347781725
 30
0.0
 10
157.6303439276063
 20
-122.9895643138706
 30
0.0
 10
157.2365695136422
 20
-122.2784966057151
 30
0.0
 10
157.2365695136422
 20
-121.5672566427853
 30
0.0
 10
157.2365695136422
 20
-120.2593261418102
 30
0.0
 10
158.3414116357619
 20
-119.3704915066157
 30
0.0
 10
159.7890407586638
 20
-119.3704915066157
 30
0.0
 10
161.3889431020139
 20
-119.3704915066157
 30
0.0
 10
162.1888942736889
 20
-120.3737033119204
 30
0.0
 10
162.1888942736889
 20
-121.4022365690418
 30
0.0
 10
162.1888942736889
 20
-122.1005574239019
 30
0.0
 10
161.8461072729065
 20
-122.8498656919438
 30
0.0
 10
160.8301486143063
 20
-123.332351314653
 30
0.0
 10
160.8301486143063
 20
-123.332351314653
 30
0.0
 10
160.8301486143063
 20
-123.370419619765
 30
0.0
 10
160.8301486143063
 20
-123.370419619765
 30
0.0
 10
161.8588541262019
 20
-123.7767686322502
 30
0.0
 10
162.4937852241335
 20
-124.5005831937012
 30
0.0
 10
162.4937852241335
 20
-125.503794999006
 30
0.0
 10
162.4937852241335
 20
-126.9386772686125
 30
0.0
 10
161.2618190786081
 20
-127.9038207688053
 30
0.0
 10
159.6874104418489
 20
-127.9038207688053
 30
0.0
 10
157.9603840750932
 20
-127.9038207688053
 30
0.0
 10
156.9192762194507
 20
-126.8752875116839
 30
0.0
 10
156.9192762194507
 20
-125.6688150727494
 30
0.0
  0
HATCH
  5
25E
330
257
100
AcDbEntity
  8
Livello 1
 62
   250
420
  1907995
440
 33554687
100
AcDbHatch
 10
0.0
 20
0.0
 30
0.0
210
0.0
220
0.0
230
1.0
  2
SOLID
 70
     1
 71
     1
 91
        3
 92
        1
 93
        1
 72
     4
 94
        3
 73
     0
 74
     0
 95
       17
 96
       13
 40
0.0
 40
0.0
 40
0.0
 40
0.0
 40
1.0
 40
1.0
 40
1.0
 40
2.0
 40
2.0
 40
2.0
 40
3.0
 40
3.0
 40
3.0
 40
4.0
 40
4.0
 40
4.0
 40
4.0
 10
158.2904242225802
 20
-121.4911200325612
 10
158.2904242225802
 20
-122.3165649108271
 10
158.9126084672163
 20
-122.7609822284243
 10
159.8651773688879
 20
-123.0148857656872
 10
160.5762450770434
 20
-122.7737290817197
 10
161.1222927114555
 20
-122.2657497524197
 10
161.1222927114555
 20
-121.5164414843778
 10
161.1222927114555
 20
-120.8561889346297
 10
160.7285182974915
 20
-120.1704426782907
 10
159.7253064921867
 20
-120.1704426782907
 10
158.7985758066545
 20
-120.1704426782907
 10
158.2904242225802
 20
-120.7800523244057
 10
158.2904242225802
 20
-121.4911200325612
 97
        0
 97
        1
330
25B
 92
        1
 93
        1
 72
     4
 94
        3
 73
     0
 74
     0
 95
       17
 96
       13
 40
0.0
 40
0.0
 40
0.0
 40
0.0
 40
1.0
 40
1.0
 40
1.0
 40
2.0
 40
2.0
 40
2.0
 40
3.0
 40
3.0
 40
3.0
 40
4.0
 40
4.0
 40
4.0
 40
4.0
 10
161.363449395423
 20
-125.6181721691163
 10
161.363449395423
 20
-124.6149603638115
 10
160.6651285405629
 20
-124.132302486328
 10
159.5475395651478
 20
-123.8148369373623
 10
158.5825683197294
 20
-124.094234181216
 10
158.0620143919081
 20
-124.7291652791476
 10
158.0620143919081
 20
-125.5165418523014
 10
158.0237738320218
 20
-126.3545613290884
 10
158.6587049299534
 20
-127.0911227438348
 10
159.7129041484398
 20
-127.0911227438348
 10
160.7161159537445
 20
-127.0911227438348
 10
161.363449395423
 20
-126.4689384991987
 10
161.363449395423
 20
-125.6181721691163
 97
        0
 97
        1
330
25C
 92
        1
 93
        1
 72
     4
 94
        3
 73
     0
 74
     0
 95
       35
 96
       31
 40
0.0
 40
0.0
 40
0.0
 40
0.0
 40
1.0
 40
1.0
 40
1.0
 40
2.0
 40
2.0
 40
2.0
 40
3.0
 40
3.0
 40
3.0
 40
4.0
 40
4.0
 40
4.0
 40
5.0
 40
5.0
 40
5.0
 40
6.0
 40
6.0
 40
6.0
 40
7.0
 40
7.0
 40
7.0
 40
8.0
 40
8.0
 40
8.0
 40
9.0
 40
9.0
 40
9.0
 40
10.0
 40
10.0
 40
10.0
 40
10.0
 10
156.9192762194507
 20
-125.6688150727494
 10
156.9192762194507
 20
-124.6275349623327
 10
157.5414604640869
 20
-123.8911458023605
 10
158.5570746131385
 20
-123.4593030832844
 10
158.5570746131385
 20
-123.4593030832844
 10
158.5446722693916
 20
-123.4212347781725
 10
158.5446722693916
 20
-123.4212347781725
 10
157.6303439276063
 20
-122.9895643138706
 10
157.2365695136422
 20
-122.2784966057151
 10
157.2365695136422
 20
-121.5672566427853
 10
157.2365695136422
 20
-120.2593261418102
 10
158.3414116357619
 20
-119.3704915066157
 10
159.7890407586638
 20
-119.3704915066157
 10
161.3889431020139
 20
-119.3704915066157
 10
162.1888942736889
 20
-120.3737033119204
 10
162.1888942736889
 20
-121.4022365690418
 10
162.1888942736889
 20
-122.1005574239019
 10
161.8461072729065
 20
-122.8498656919438
 10
160.8301486143063
 20
-123.332351314653
 10
160.8301486143063
 20
-123.332351314653
 10
160.8301486143063
 20
-123.370419619765
 10
160.8301486143063
 20
-123.370419619765
 10
161.8588541262019
 20
-123.7767686322502
 10
162.4937852241335
 20
-124.5005831937012
 10
162.4937852241335
 20
-125.503794999006
 10
162.4937852241335
 20
-126.9386772686125
 10
161.2618190786081
 20
-127.9038207688053
 10
159.6874104418489
 20
-127.9038207688053
 10
157.9603840750932
 20
-127.9038207688053
 10
156.9192762194507
 20
-126.8752875116839
 10
156.9192762194507
 20
-125.6688150727494
 97
        0
 97
        1
330
25D
 75
     2
 76
     1
 98
        1
 10
0.0
 20
0.0
450
        0
451
        0
460
0.0
461
0.0
452
        0
462
0.0
453
        0
470

  0
ENDBLK
  5
25F
330
257
100
AcDbEntity
  8
0
100
AcDbBlockEnd
  0
BLOCK
  5
261
330
260
100
AcDbEntity
  8
0
100
AcDbBlockBegin
  2
Block_7
 70
     0
 10
0.0
 20
0.0
 30
0.0
  3
Block_7
  1

  0
SPLINE
  5
262
330
260
100
AcDbEntity
  8
Livello 1
100
AcDbSpline
210
0.0
220
0.0
230
1.0
 70
    11
 71
     3
 72
    50
 73
    46
 74
     0
 42
0.000000001
 43
0.0000000001
 40
0.0
 40
0.0
 40
0.0
 40
0.0
 40
1.0
 40
1.0
 40
1.0
 40
2.0
 40
2.0
 40
2.0
 40
3.0
 40
3.0
 40
3.0
 40
4.0
 40
4.0
 40
4.0
 40
5.0
 40
5.0
 40
5.0
 40
6.0
 40
6.0
 40
6.0
 40
7.0
 40
7.0
 40
7.0
 40
8.0
 40
8.0
 40
8.0
 40
9.0
 40
9.0
 40
9.0
 40
10.0
 40
10.0
 40
10.0
 40
11.0
 40
11.0
 40
11.0
 40
12.0
 40
12.0
 40
12.0
 40
13.0
 40
13.0
 40
13.0
 40
14.0
 40
14.0
 40
14.0
 40
15.0
 40
15.0
 40
15.0
 40
15.0
 10
192.9205240403115
 20
-78.47169594392375
 30
0.0
 10
192.9205240403115
 20
-78.47169594392375
 30
0.0
 10
192.9205240403115
 20
-81.62085772699063
 30
0.0
 10
192.9205240403115
 20
-81.62085772699063
 30
0.0
 10
192.9205240403115
 20
-81.62085772699063
 30
0.0
 10
195.0413248210313
 20
-81.93832327595639
 30
0.0
 10
195.0413248210313
 20
-81.93832327595639
 30
0.0
 10
195.0158311144405
 20
-81.74780949562208
 30
0.0
 10
194.9903374078496
 20
-81.5700425685832
 30
0.0
 10
194.9903374078496
 20
-81.26532387291284
 30
0.0
 10
194.9903374078496
 20
-80.6303927749813
 30
0.0
 10
195.1302082845508
 20
-79.99546167704973
 30
0.0
 10
195.4347547254469
 20
-79.48748234774964
 30
0.0
 10
195.8030354328201
 20
-78.83997665129695
 30
0.0
 10
196.5141031409756
 20
-78.30650361540602
 30
0.0
 10
197.5555555061666
 20
-78.30650361540602
 30
0.0
 10
199.1682047028121
 20
-78.30650361540602
 30
0.0
 10
200.3746771417466
 20
-79.58911266456451
 30
0.0
 10
200.3746771417466
 20
-81.37952878824888
 30
0.0
 10
200.3746771417466
 20
-82.28111027673874
 30
0.0
 10
200.1207736044837
 20
-83.04316539807601
 30
0.0
 10
199.8665255576723
 20
-83.43676755726582
 30
0.0
 10
199.8665255576723
 20
-83.43676755726582
 30
0.0
 10
199.0159314823641
 20
-83.15737031341205
 30
0.0
 10
199.0159314823641
 20
-83.15737031341205
 30
0.0
 10
199.2191921159938
 20
-82.81458331262969
 30
0.0
 10
199.4730956532567
 20
-82.14141165481187
 30
0.0
 10
199.4730956532567
 20
-81.39227564154429
 30
0.0
 10
199.4730956532567
 20
-80.33824867783211
 30
0.0
 10
198.7871771421435
 20
-79.43666718934223
 30
0.0
 10
197.6826795295724
 20
-79.43666718934223
 30
0.0
 10
196.6157334577905
 20
-79.44941404263765
 30
0.0
 10
195.8540228460018
 20
-80.16048175079319
 30
0.0
 10
195.8540228460018
 20
-81.81137150732494
 30
0.0
 10
195.8540228460018
 20
-82.28111027673874
 30
0.0
 10
195.9046657496349
 20
-82.64939098411195
 30
0.0
 10
195.9429063095212
 20
-82.95410967978233
 30
0.0
 10
195.9429063095212
 20
-82.95410967978233
 30
0.0
 10
191.9810465014839
 20
-82.42080889866564
 30
0.0
 10
191.9810465014839
 20
-82.42080889866564
 30
0.0
 10
191.9810465014839
 20
-82.42080889866564
 30
0.0
 10
191.9810465014839
 20
-78.47169594392375
 30
0.0
 10
191.9810465014839
 20
-78.47169594392375
 30
0.0
 10
191.9810465014839
 20
-78.47169594392375
 30
0.0
 10
192.9205240403115
 20
-78.47169594392375
 30
0.0
 10
192.9205240403115
 20
-78.47169594392375
 30
0.0
  0
HATCH
  5
263
330
260
100
AcDbEntity
  8
Livello 1
 62
   250
420
  1907995
440
 33554687
100
AcDbHatch
 10
0.0
 20
0.0
 30
0.0
210
0.0
220
0.0
230
1.0
  2
SOLID
 70
     1
 71
     1
 91
        1
 92
        1
 93
        1
 72
     4
 94
        3
 73
     0
 74
     0
 95
       50
 96
       46
 40
0.0
 40
0.0
 40
0.0
 40
0.0
 40
1.0
 40
1.0
 40
1.0
 40
2.0
 40
2.0
 40
2.0
 40
3.0
 40
3.0
 40
3.0
 40
4.0
 40
4.0
 40
4.0
 40
5.0
 40
5.0
 40
5.0
 40
6.0
 40
6.0
 40
6.0
 40
7.0
 40
7.0
 40
7.0
 40
8.0
 40
8.0
 40
8.0
 40
9.0
 40
9.0
 40
9.0
 40
10.0
 40
10.0
 40
10.0
 40
11.0
 40
11.0
 40
11.0
 40
12.0
 40
12.0
 40
12.0
 40
13.0
 40
13.0
 40
13.0
 40
14.0
 40
14.0
 40
14.0
 40
15.0
 40
15.0
 40
15.0
 40
15.0
 10
192.9205240403115
 20
-78.47169594392375
 10
192.9205240403115
 20
-78.47169594392375
 10
192.9205240403115
 20
-81.62085772699063
 10
192.9205240403115
 20
-81.62085772699063
 10
192.9205240403115
 20
-81.62085772699063
 10
195.0413248210313
 20
-81.93832327595639
 10
195.0413248210313
 20
-81.93832327595639
 10
195.0158311144405
 20
-81.74780949562208
 10
194.9903374078496
 20
-81.5700425685832
 10
194.9903374078496
 20
-81.26532387291284
 10
194.9903374078496
 20
-80.6303927749813
 10
195.1302082845508
 20
-79.99546167704973
 10
195.4347547254469
 20
-79.48748234774964
 10
195.8030354328201
 20
-78.83997665129695
 10
196.5141031409756
 20
-78.30650361540602
 10
197.5555555061666
 20
-78.30650361540602
 10
199.1682047028121
 20
-78.30650361540602
 10
200.3746771417466
 20
-79.58911266456451
 10
200.3746771417466
 20
-81.37952878824888
 10
200.3746771417466
 20
-82.28111027673874
 10
200.1207736044837
 20
-83.04316539807601
 10
199.8665255576723
 20
-83.43676755726582
 10
199.8665255576723
 20
-83.43676755726582
 10
199.0159314823641
 20
-83.15737031341205
 10
199.0159314823641
 20
-83.15737031341205
 10
199.2191921159938
 20
-82.81458331262969
 10
199.4730956532567
 20
-82.14141165481187
 10
199.4730956532567
 20
-81.39227564154429
 10
199.4730956532567
 20
-80.33824867783211
 10
198.7871771421435
 20
-79.43666718934223
 10
197.6826795295724
 20
-79.43666718934223
 10
196.6157334577905
 20
-79.44941404263765
 10
195.8540228460018
 20
-80.16048175079319
 10
195.8540228460018
 20
-81.81137150732494
 10
195.8540228460018
 20
-82.28111027673874
 10
195.9046657496349
 20
-82.64939098411195
 10
195.9429063095212
 20
-82.95410967978233
 10
195.9429063095212
 20
-82.95410967978233
 10
191.9810465014839
 20
-82.42080889866564
 10
191.9810465014839
 20
-82.42080889866564
 10
191.9810465014839
 20
-82.42080889866564
 10
191.9810465014839
 20
-78.47169594392375
 10
191.9810465014839
 20
-78.47169594392375
 10
191.9810465014839
 20
-78.47169594392375
 10
192.9205240403115
 20
-78.47169594392375
 10
192.9205240403115
 20
-78.47169594392375
 97
        0
 97
        1
330
262
 75
     2
 76
     1
 98
        1
 10
0.0
 20
0.0
450
        0
451
        0
460
0.0
461
0.0
452
        0
462
0.0
453
        0
470

  0
SPLINE
  5
264
330
260
100
AcDbEntity
  8
Livello 1
100
AcDbSpline
210
0.0
220
0.0
230
1.0
 70
     9
 71
     3
 72
    20
 73
    16
 74
     0
 42
0.000000001
 43
0.0000000001
 40
0.0
 40
0.0
 40
0.0
 40
0.0
 40
1.0
 40
1.0
 40
1.0
 40
2.0
 40
2.0
 40
2.0
 40
3.0
 40
3.0
 40
3.0
 40
4.0
 40
4.0
 40
4.0
 40
5.0
 40
5.0
 40
5.0
 40
5.0
 10
194.698537820249
 20
-75.8298244710599
 30
0.0
 10
195.726898822596
 20
-75.8298244710599
 30
0.0
 10
196.450713384047
 20
-75.20764022642379
 30
0.0
 10
196.450713384047
 20
-74.24249672623105
 30
0.0
 10
196.450713384047
 20
-73.49336071296345
 30
0.0
 10
196.0824326766738
 20
-72.90924477343934
 30
0.0
 10
195.5873724554434
 20
-72.61710067629016
 30
0.0
 10
195.4857421386286
 20
-72.55371091936158
 30
0.0
 10
195.3586181152228
 20
-72.5154703594753
 30
0.0
 10
195.1808511881839
 20
-72.5154703594753
 30
0.0
 10
193.7714626251682
 20
-72.5154703594753
 30
0.0
 10
192.6921142096395
 20
-73.03619654207081
 30
0.0
 10
192.6921142096395
 20
-74.20442842111903
 30
0.0
 10
192.6921142096395
 20
-75.15682506801635
 30
0.0
 10
193.5303059412007
 20
-75.8298244710599
 30
0.0
 10
194.698537820249
 20
-75.8298244710599
 30
0.0
  0
SPLINE
  5
265
330
260
100
AcDbEntity
  8
Livello 1
100
AcDbSpline
210
0.0
220
0.0
230
1.0
 70
     9
 71
     3
 72
    41
 73
    37
 74
     0
 42
0.000000001
 43
0.0000000001
 40
0.0
 40
0.0
 40
0.0
 40
0.0
 40
1.0
 40
1.0
 40
1.0
 40
2.0
 40
2.0
 40
2.0
 40
3.0
 40
3.0
 40
3.0
 40
4.0
 40
4.0
 40
4.0
 40
5.0
 40
5.0
 40
5.0
 40
6.0
 40
6.0
 40
6.0
 40
7.0
 40
7.0
 40
7.0
 40
8.0
 40
8.0
 40
8.0
 40
9.0
 40
9.0
 40
9.0
 40
10.0
 40
10.0
 40
10.0
 40
11.0
 40
11.0
 40
11.0
 40
12.0
 40
12.0
 40
12.0
 40
12.0
 10
199.4476019466659
 20
-76.23617348354511
 30
0.0
 10
199.4730956532567
 20
-75.99484454480337
 30
0.0
 10
199.4476019466659
 20
-75.71561955572388
 30
0.0
 10
199.4093613867796
 20
-75.33459199505525
 30
0.0
 10
199.3204779232602
 20
-74.68691404382828
 30
0.0
 10
199.0538275327018
 20
-74.07747665248756
 30
0.0
 10
198.6094102151046
 20
-73.6075656282995
 30
0.0
 10
198.1143499938742
 20
-73.0615179938874
 30
0.0
 10
197.3905354324232
 20
-72.6679158346976
 30
0.0
 10
196.4128173337093
 20
-72.5154703594753
 30
0.0
 10
196.4128173337093
 20
-72.5154703594753
 30
0.0
 10
196.4128173337093
 20
-72.55371091936158
 30
0.0
 10
196.4128173337093
 20
-72.55371091936158
 30
0.0
 10
196.9712673118683
 20
-73.01070283547996
 30
0.0
 10
197.3016519689037
 20
-73.67112764000236
 30
0.0
 10
197.3016519689037
 20
-74.49657251826822
 30
0.0
 10
197.3016519689037
 20
-75.9822699462822
 30
0.0
 10
196.1840629934887
 20
-76.93466659317953
 30
0.0
 10
194.774674430473
 20
-76.93466659317953
 30
0.0
 10
193.2126681374606
 20
-76.93466659317953
 30
0.0
 10
191.8411756247826
 20
-75.80450301924333
 30
0.0
 10
191.8411756247826
 20
-74.11554495759959
 30
0.0
 10
191.8411756247826
 20
-72.42658689595583
 30
0.0
 10
193.2126681374606
 20
-71.38530678553909
 30
0.0
 10
195.3207220648851
 20
-71.38530678553909
 30
0.0
 10
197.1366318951601
 20
-71.38530678553909
 30
0.0
 10
198.4064940910234
 20
-71.99491643165405
 30
0.0
 10
199.193698409403
 20
-72.80761445662449
 30
0.0
 10
199.8158826540391
 20
-73.44254555455603
 30
0.0
 10
200.1969102147077
 20
-74.31863333645506
 30
0.0
 10
200.2985405315226
 20
-75.20764022642379
 30
0.0
 10
200.3619302884512
 20
-75.613989238909
 30
0.0
 10
200.3746771417466
 20
-75.96952309298679
 30
0.0
 10
200.3619302884512
 20
-76.23617348354511
 30
0.0
 10
200.3619302884512
 20
-76.23617348354511
 30
0.0
 10
199.4476019466659
 20
-76.23617348354511
 30
0.0
 10
199.4476019466659
 20
-76.23617348354511
 30
0.0
  0
HATCH
  5
266
330
260
100
AcDbEntity
  8
Livello 1
 62
   250
420
  1907995
440
 33554687
100
AcDbHatch
 10
0.0
 20
0.0
 30
0.0
210
0.0
220
0.0
230
1.0
  2
SOLID
 70
     1
 71
     1
 91
        2
 92
        1
 93
        1
 72
     4
 94
        3
 73
     0
 74
     0
 95
       20
 96
       16
 40
0.0
 40
0.0
 40
0.0
 40
0.0
 40
1.0
 40
1.0
 40
1.0
 40
2.0
 40
2.0
 40
2.0
 40
3.0
 40
3.0
 40
3.0
 40
4.0
 40
4.0
 40
4.0
 40
5.0
 40
5.0
 40
5.0
 40
5.0
 10
194.698537820249
 20
-75.8298244710599
 10
195.726898822596
 20
-75.8298244710599
 10
196.450713384047
 20
-75.20764022642379
 10
196.450713384047
 20
-74.24249672623105
 10
196.450713384047
 20
-73.49336071296345
 10
196.0824326766738
 20
-72.90924477343934
 10
195.5873724554434
 20
-72.61710067629016
 10
195.4857421386286
 20
-72.55371091936158
 10
195.3586181152228
 20
-72.5154703594753
 10
195.1808511881839
 20
-72.5154703594753
 10
193.7714626251682
 20
-72.5154703594753
 10
192.6921142096395
 20
-73.03619654207081
 10
192.6921142096395
 20
-74.20442842111903
 10
192.6921142096395
 20
-75.15682506801635
 10
193.5303059412007
 20
-75.8298244710599
 10
194.698537820249
 20
-75.8298244710599
 97
        0
 97
        1
330
264
 92
        1
 93
        1
 72
     4
 94
        3
 73
     0
 74
     0
 95
       41
 96
       37
 40
0.0
 40
0.0
 40
0.0
 40
0.0
 40
1.0
 40
1.0
 40
1.0
 40
2.0
 40
2.0
 40
2.0
 40
3.0
 40
3.0
 40
3.0
 40
4.0
 40
4.0
 40
4.0
 40
5.0
 40
5.0
 40
5.0
 40
6.0
 40
6.0
 40
6.0
 40
7.0
 40
7.0
 40
7.0
 40
8.0
 40
8.0
 40
8.0
 40
9.0
 40
9.0
 40
9.0
 40
10.0
 40
10.0
 40
10.0
 40
11.0
 40
11.0
 40
11.0
 40
12.0
 40
12.0
 40
12.0
 40
12.0
 10
199.4476019466659
 20
-76.23617348354511
 10
199.4730956532567
 20
-75.99484454480337
 10
199.4476019466659
 20
-75.71561955572388
 10
199.4093613867796
 20
-75.33459199505525
 10
199.3204779232602
 20
-74.68691404382828
 10
199.0538275327018
 20
-74.07747665248756
 10
198.6094102151046
 20
-73.6075656282995
 10
198.1143499938742
 20
-73.0615179938874
 10
197.3905354324232
 20
-72.6679158346976
 10
196.4128173337093
 20
-72.5154703594753
 10
196.4128173337093
 20
-72.5154703594753
 10
196.4128173337093
 20
-72.55371091936158
 10
196.4128173337093
 20
-72.55371091936158
 10
196.9712673118683
 20
-73.01070283547996
 10
197.3016519689037
 20
-73.67112764000236
 10
197.3016519689037
 20
-74.49657251826822
 10
197.3016519689037
 20
-75.9822699462822
 10
196.1840629934887
 20
-76.93466659317953
 10
194.774674430473
 20
-76.93466659317953
 10
193.2126681374606
 20
-76.93466659317953
 10
191.8411756247826
 20
-75.80450301924333
 10
191.8411756247826
 20
-74.11554495759959
 10
191.8411756247826
 20
-72.42658689595583
 10
193.2126681374606
 20
-71.38530678553909
 10
195.3207220648851
 20
-71.38530678553909
 10
197.1366318951601
 20
-71.38530678553909
 10
198.4064940910234
 20
-71.99491643165405
 10
199.193698409403
 20
-72.80761445662449
 10
199.8158826540391
 20
-73.44254555455603
 10
200.1969102147077
 20
-74.31863333645506
 10
200.2985405315226
 20
-75.20764022642379
 10
200.3619302884512
 20
-75.613989238909
 10
200.3746771417466
 20
-75.96952309298679
 10
200.3619302884512
 20
-76.23617348354511
 10
200.3619302884512
 20
-76.23617348354511
 10
199.4476019466659
 20
-76.23617348354511
 10
199.4476019466659
 20
-76.23617348354511
 97
        0
 97
        1
330
265
 75
     2
 76
     1
 98
        1
 10
0.0
 20
0.0
450
        0
451
        0
460
0.0
461
0.0
452
        0
462
0.0
453
        0
470

  0
ENDBLK
  5
267
330
260
100
AcDbEntity
  8
0
100
AcDbBlockEnd
  0
BLOCK
  5
2A5
330
2A4
100
AcDbEntity
  8
0
100
AcDbBlockBegin
  2
Block_9
 70
     0
 10
0.0
 20
0.0
 30
0.0
  3
Block_9
  1

  0
SPLINE
  5
2A6
330
2A4
100
AcDbEntity
  8
Livello 1
100
AcDbSpline
210
0.0
220
0.0
230
1.0
 70
    11
 71
     3
 72
    26
 73
    22
 74
     0
 42
0.000000001
 43
0.0000000001
 40
0.0
 40
0.0
 40
0.0
 40
0.0
 40
1.0
 40
1.0
 40
1.0
 40
2.0
 40
2.0
 40
2.0
 40
3.0
 40
3.0
 40
3.0
 40
4.0
 40
4.0
 40
4.0
 40
5.0
 40
5.0
 40
5.0
 40
6.0
 40
6.0
 40
6.0
 40
7.0
 40
7.0
 40
7.0
 40
7.0
 10
45.83699543124907
 20
-260.1536294922533
 30
0.0
 10
45.83699543124907
 20
-260.1536294922533
 30
0.0
 10
45.83699543124907
 20
-257.3978976136019
 30
0.0
 10
45.83699543124907
 20
-257.3978976136019
 30
0.0
 10
45.83699543124907
 20
-256.9662271493001
 30
0.0
 10
45.8497422845445
 20
-256.5345566849984
 30
0.0
 10
45.87506373636109
 20
-256.1028862206965
 30
0.0
 10
45.87506373636109
 20
-256.1028862206965
 30
0.0
 10
45.83699543124907
 20
-256.1028862206965
 30
0.0
 10
45.83699543124907
 20
-256.1028862206965
 30
0.0
 10
45.5829196392119
 20
-256.5851995886315
 30
0.0
 10
45.37983126035642
 20
-256.9407334427093
 30
0.0
 10
45.1512491749101
 20
-257.3217610033779
 30
0.0
 10
45.1512491749101
 20
-257.3217610033779
 30
0.0
 10
43.13225096577943
 20
-260.1281357856624
 30
0.0
 10
43.13225096577943
 20
-260.1281357856624
 30
0.0
 10
43.13225096577943
 20
-260.1281357856624
 30
0.0
 10
43.13225096577943
 20
-260.1536294922533
 30
0.0
 10
43.13225096577943
 20
-260.1536294922533
 30
0.0
 10
43.13225096577943
 20
-260.1536294922533
 30
0.0
 10
45.83699543124907
 20
-260.1536294922533
 30
0.0
 10
45.83699543124907
 20
-260.1536294922533
 30
0.0
  0
SPLINE
  5
2A7
330
2A4
100
AcDbEntity
  8
Livello 1
100
AcDbSpline
210
0.0
220
0.0
230
1.0
 70
    11
 71
     3
 72
    38
 73
    34
 74
     0
 42
0.000000001
 43
0.0000000001
 40
0.0
 40
0.0
 40
0.0
 40
0.0
 40
1.0
 40
1.0
 40
1.0
 40
2.0
 40
2.0
 40
2.0
 40
3.0
 40
3.0
 40
3.0
 40
4.0
 40
4.0
 40
4.0
 40
5.0
 40
5.0
 40
5.0
 40
6.0
 40
6.0
 40
6.0
 40
7.0
 40
7.0
 40
7.0
 40
8.0
 40
8.0
 40
8.0
 40
9.0
 40
9.0
 40
9.0
 40
10.0
 40
10.0
 40
10.0
 40
11.0
 40
11.0
 40
11.0
 40
11.0
 10
45.83699543124907
 20
-263.2772975687294
 30
0.0
 10
45.83699543124907
 20
-263.2772975687294
 30
0.0
 10
45.83699543124907
 20
-261.0297172741523
 30
0.0
 10
45.83699543124907
 20
-261.0297172741523
 30
0.0
 10
45.83699543124907
 20
-261.0297172741523
 30
0.0
 10
42.00208739184322
 20
-261.0297172741523
 30
0.0
 10
42.00208739184322
 20
-261.0297172741523
 30
0.0
 10
42.00208739184322
 20
-261.0297172741523
 30
0.0
 10
42.00208739184322
 20
-260.2931558594059
 30
0.0
 10
42.00208739184322
 20
-260.2931558594059
 30
0.0
 10
42.00208739184322
 20
-260.2931558594059
 30
0.0
 10
45.68454995602677
 20
-255.0235378051677
 30
0.0
 10
45.68454995602677
 20
-255.0235378051677
 30
0.0
 10
45.68454995602677
 20
-255.0235378051677
 30
0.0
 10
46.890850140187
 20
-255.0235378051677
 30
0.0
 10
46.890850140187
 20
-255.0235378051677
 30
0.0
 10
46.890850140187
 20
-255.0235378051677
 30
0.0
 10
46.890850140187
 20
-260.1536294922533
 30
0.0
 10
46.890850140187
 20
-260.1536294922533
 30
0.0
 10
46.890850140187
 20
-260.1536294922533
 30
0.0
 10
48.04650742071407
 20
-260.1536294922533
 30
0.0
 10
48.04650742071407
 20
-260.1536294922533
 30
0.0
 10
48.04650742071407
 20
-260.1536294922533
 30
0.0
 10
48.04650742071407
 20
-261.0297172741523
 30
0.0
 10
48.04650742071407
 20
-261.0297172741523
 30
0.0
 10
48.04650742071407
 20
-261.0297172741523
 30
0.0
 10
46.890850140187
 20
-261.0297172741523
 30
0.0
 10
46.890850140187
 20
-261.0297172741523
 30
0.0
 10
46.890850140187
 20
-261.0297172741523
 30
0.0
 10
46.890850140187
 20
-263.2772975687294
 30
0.0
 10
46.890850140187
 20
-263.2772975687294
 30
0.0
 10
46.890850140187
 20
-263.2772975687294
 30
0.0
 10
45.83699543124907
 20
-263.2772975687294
 30
0.0
 10
45.83699543124907
 20
-263.2772975687294
 30
0.0
  0
HATCH
  5
2A8
330
2A4
100
AcDbEntity
  8
Livello 1
 62
   250
420
  1907995
440
 33554687
100
AcDbHatch
 10
0.0
 20
0.0
 30
0.0
210
0.0
220
0.0
230
1.0
  2
SOLID
 70
     1
 71
     1
 91
        2
 92
        1
 93
        1
 72
     4
 94
        3
 73
     0
 74
     0
 95
       26
 96
       22
 40
0.0
 40
0.0
 40
0.0
 40
0.0
 40
1.0
 40
1.0
 40
1.0
 40
2.0
 40
2.0
 40
2.0
 40
3.0
 40
3.0
 40
3.0
 40
4.0
 40
4.0
 40
4.0
 40
5.0
 40
5.0
 40
5.0
 40
6.0
 40
6.0
 40
6.0
 40
7.0
 40
7.0
 40
7.0
 40
7.0
 10
45.83699543124907
 20
-260.1536294922533
 10
45.83699543124907
 20
-260.1536294922533
 10
45.83699543124907
 20
-257.3978976136019
 10
45.83699543124907
 20
-257.3978976136019
 10
45.83699543124907
 20
-256.9662271493001
 10
45.8497422845445
 20
-256.5345566849984
 10
45.87506373636109
 20
-256.1028862206965
 10
45.87506373636109
 20
-256.1028862206965
 10
45.83699543124907
 20
-256.1028862206965
 10
45.83699543124907
 20
-256.1028862206965
 10
45.5829196392119
 20
-256.5851995886315
 10
45.37983126035642
 20
-256.9407334427093
 10
45.1512491749101
 20
-257.3217610033779
 10
45.1512491749101
 20
-257.3217610033779
 10
43.13225096577943
 20
-260.1281357856624
 10
43.13225096577943
 20
-260.1281357856624
 10
43.13225096577943
 20
-260.1281357856624
 10
43.13225096577943
 20
-260.1536294922533
 10
43.13225096577943
 20
-260.1536294922533
 10
43.13225096577943
 20
-260.1536294922533
 10
45.83699543124907
 20
-260.1536294922533
 10
45.83699543124907
 20
-260.1536294922533
 97
        0
 97
        1
330
2A6
 92
        1
 93
        1
 72
     4
 94
        3
 73
     0
 74
     0
 95
       38
 96
       34
 40
0.0
 40
0.0
 40
0.0
 40
0.0
 40
1.0
 40
1.0
 40
1.0
 40
2.0
 40
2.0
 40
2.0
 40
3.0
 40
3.0
 40
3.0
 40
4.0
 40
4.0
 40
4.0
 40
5.0
 40
5.0
 40
5.0
 40
6.0
 40
6.0
 40
6.0
 40
7.0
 40
7.0
 40
7.0
 40
8.0
 40
8.0
 40
8.0
 40
9.0
 40
9.0
 40
9.0
 40
10.0
 40
10.0
 40
10.0
 40
11.0
 40
11.0
 40
11.0
 40
11.0
 10
45.83699543124907
 20
-263.2772975687294
 10
45.83699543124907
 20
-263.2772975687294
 10
45.83699543124907
 20
-261.0297172741523
 10
45.83699543124907
 20
-261.0297172741523
 10
45.83699543124907
 20
-261.0297172741523
 10
42.00208739184322
 20
-261.0297172741523
 10
42.00208739184322
 20
-261.0297172741523
 10
42.00208739184322
 20
-261.0297172741523
 10
42.00208739184322
 20
-260.2931558594059
 10
42.00208739184322
 20
-260.2931558594059
 10
42.00208739184322
 20
-260.2931558594059
 10
45.68454995602677
 20
-255.0235378051677
 10
45.68454995602677
 20
-255.0235378051677
 10
45.68454995602677
 20
-255.0235378051677
 10
46.890850140187
 20
-255.0235378051677
 10
46.890850140187
 20
-255.0235378051677
 10
46.890850140187
 20
-255.0235378051677
 10
46.890850140187
 20
-260.1536294922533
 10
46.890850140187
 20
-260.1536294922533
 10
46.890850140187
 20
-260.1536294922533
 10
48.04650742071407
 20
-260.1536294922533
 10
48.04650742071407
 20
-260.1536294922533
 10
48.04650742071407
 20
-260.1536294922533
 10
48.04650742071407
 20
-261.0297172741523
 10
48.04650742071407
 20
-261.0297172741523
 10
48.04650742071407
 20
-261.0297172741523
 10
46.890850140187
 20
-261.0297172741523
 10
46.890850140187
 20
-261.0297172741523
 10
46.890850140187
 20
-261.0297172741523
 10
46.890850140187
 20
-263.2772975687294
 10
46.890850140187
 20
-263.2772975687294
 10
46.890850140187
 20
-263.2772975687294
 10
45.83699543124907
 20
-263.2772975687294
 10
45.83699543124907
 20
-263.2772975687294
 97
        0
 97
        1
330
2A7
 75
     2
 76
     1
 98
        1
 10
0.0
 20
0.0
450
        0
451
        0
460
0.0
461
0.0
452
        0
462
0.0
453
        0
470

  0
SPLINE
  5
2A9
330
2A4
100
AcDbEntity
  8
Livello 1
100
AcDbSpline
210
0.0
220
0.0
230
1.0
 70
     9
 71
     3
 72
    17
 73
    13
 74
     0
 42
0.000000001
 43
0.0000000001
 40
0.0
 40
0.0
 40
0.0
 40
0.0
 40
1.0
 40
1.0
 40
1.0
 40
2.0
 40
2.0
 40
2.0
 40
3.0
 40
3.0
 40
3.0
 40
4.0
 40
4.0
 40
4.0
 40
4.0
 10
50.1676527109824
 20
-257.0044677091864
 30
0.0
 10
50.1676527109824
 20
-257.8299125874523
 30
0.0
 10
50.78983695561852
 20
-258.2743299050495
 30
0.0
 10
51.74223360251583
 20
-258.5282334423124
 30
0.0
 10
52.45347356544566
 20
-258.2870767583449
 30
0.0
 10
52.9993489450835
 20
-257.7789251742706
 30
0.0
 10
52.9993489450835
 20
-257.0296169062288
 30
0.0
 10
52.9993489450835
 20
-256.3695366112548
 30
0.0
 10
52.60574678589371
 20
-255.6836181001416
 30
0.0
 10
51.60253498058895
 20
-255.6836181001416
 30
0.0
 10
50.67563204028248
 20
-255.6836181001416
 30
0.0
 10
50.1676527109824
 20
-256.2934000010308
 30
0.0
 10
50.1676527109824
 20
-257.0044677091864
 30
0.0
  0
SPLINE
  5
2AA
330
2A4
100
AcDbEntity
  8
Livello 1
100
AcDbSpline
210
0.0
220
0.0
230
1.0
 70
     9
 71
     3
 72
    17
 73
    13
 74
     0
 42
0.000000001
 43
0.0000000001
 40
0.0
 40
0.0
 40
0.0
 40
0.0
 40
1.0
 40
1.0
 40
1.0
 40
2.0
 40
2.0
 40
2.0
 40
3.0
 40
3.0
 40
3.0
 40
4.0
 40
4.0
 40
4.0
 40
4.0
 10
53.24067788382524
 20
-261.1313475909672
 30
0.0
 10
53.24067788382524
 20
-260.1281357856624
 30
0.0
 10
52.54235702896512
 20
-259.6454779081789
 30
0.0
 10
51.42476805355006
 20
-259.3281846139874
 30
0.0
 10
50.45979680813157
 20
-259.6075818578412
 30
0.0
 10
49.93907062553606
 20
-260.2425129557727
 30
0.0
 10
49.93907062553606
 20
-261.0297172741523
 30
0.0
 10
49.90100232042404
 20
-261.8679090057136
 30
0.0
 10
50.5359334183556
 20
-262.60447042046
 30
0.0
 10
51.58996038206779
 20
-262.60447042046
 30
0.0
 10
52.59317218737255
 20
-262.60447042046
 30
0.0
 10
53.24067788382524
 20
-261.9822861758239
 30
0.0
 10
53.24067788382524
 20
-261.1313475909672
 30
0.0
  0
SPLINE
  5
2AB
330
2A4
100
AcDbEntity
  8
Livello 1
100
AcDbSpline
210
0.0
220
0.0
230
1.0
 70
     9
 71
     3
 72
    35
 73
    31
 74
     0
 42
0.000000001
 43
0.0000000001
 40
0.0
 40
0.0
 40
0.0
 40
0.0
 40
1.0
 40
1.0
 40
1.0
 40
2.0
 40
2.0
 40
2.0
 40
3.0
 40
3.0
 40
3.0
 40
4.0
 40
4.0
 40
4.0
 40
5.0
 40
5.0
 40
5.0
 40
6.0
 40
6.0
 40
6.0
 40
7.0
 40
7.0
 40
7.0
 40
8.0
 40
8.0
 40
8.0
 40
9.0
 40
9.0
 40
9.0
 40
10.0
 40
10.0
 40
10.0
 40
10.0
 10
48.7963324530787
 20
-261.1819904946004
 30
0.0
 10
48.7963324530787
 20
-260.1408826389579
 30
0.0
 10
49.41851669771481
 20
-259.4043212242115
 30
0.0
 10
50.43430310154072
 20
-258.9726507599096
 30
0.0
 10
50.43430310154072
 20
-258.9726507599096
 30
0.0
 10
50.42172850301957
 20
-258.9344102000234
 30
0.0
 10
50.42172850301957
 20
-258.9344102000234
 30
0.0
 10
49.50740016123425
 20
-258.5027397357215
 30
0.0
 10
49.11379800204446
 20
-257.791672027566
 30
0.0
 10
49.11379800204446
 20
-257.0806043194104
 30
0.0
 10
49.11379800204446
 20
-255.7725015636611
 30
0.0
 10
50.21846786938983
 20
-254.8836669284666
 30
0.0
 10
51.66609699229181
 20
-254.8836669284666
 30
0.0
 10
53.2661715904161
 20
-254.8836669284666
 30
0.0
 10
54.06612276209111
 20
-255.8868787337714
 30
0.0
 10
54.06612276209111
 20
-256.915584245667
 30
0.0
 10
54.06612276209111
 20
-257.6139051005271
 30
0.0
 10
53.72316350653449
 20
-258.3632133685689
 30
0.0
 10
52.70737710270857
 20
-258.8455267365039
 30
0.0
 10
52.70737710270857
 20
-258.8455267365039
 30
0.0
 10
52.70737710270857
 20
-258.8837672963902
 30
0.0
 10
52.70737710270857
 20
-258.8837672963902
 30
0.0
 10
53.7359103598299
 20
-259.2899440541011
 30
0.0
 10
54.37084145776146
 20
-260.0137586155522
 30
0.0
 10
54.37084145776146
 20
-261.0169704208569
 30
0.0
 10
54.37084145776146
 20
-262.4518526904635
 30
0.0
 10
53.13904756701038
 20
-263.4171684454305
 30
0.0
 10
51.56446667547694
 20
-263.4171684454305
 30
0.0
 10
49.83761256349546
 20
-263.4171684454305
 30
0.0
 10
48.7963324530787
 20
-262.3884629335349
 30
0.0
 10
48.7963324530787
 20
-261.1819904946004
 30
0.0
  0
HATCH
  5
2AC
330
2A4
100
AcDbEntity
  8
Livello 1
 62
   250
420
  1907995
440
 33554687
100
AcDbHatch
 10
0.0
 20
0.0
 30
0.0
210
0.0
220
0.0
230
1.0
  2
SOLID
 70
     1
 71
     1
 91
        3
 92
        1
 93
        1
 72
     4
 94
        3
 73
     0
 74
     0
 95
       17
 96
       13
 40
0.0
 40
0.0
 40
0.0
 40
0.0
 40
1.0
 40
1.0
 40
1.0
 40
2.0
 40
2.0
 40
2.0
 40
3.0
 40
3.0
 40
3.0
 40
4.0
 40
4.0
 40
4.0
 40
4.0
 10
50.1676527109824
 20
-257.0044677091864
 10
50.1676527109824
 20
-257.8299125874523
 10
50.78983695561852
 20
-258.2743299050495
 10
51.74223360251583
 20
-258.5282334423124
 10
52.45347356544566
 20
-258.2870767583449
 10
52.9993489450835
 20
-257.7789251742706
 10
52.9993489450835
 20
-257.0296169062288
 10
52.9993489450835
 20
-256.3695366112548
 10
52.60574678589371
 20
-255.6836181001416
 10
51.60253498058895
 20
-255.6836181001416
 10
50.67563204028248
 20
-255.6836181001416
 10
50.1676527109824
 20
-256.2934000010308
 10
50.1676527109824
 20
-257.0044677091864
 97
        0
 97
        1
330
2A9
 92
        1
 93
        1
 72
     4
 94
        3
 73
     0
 74
     0
 95
       17
 96
       13
 40
0.0
 40
0.0
 40
0.0
 40
0.0
 40
1.0
 40
1.0
 40
1.0
 40
2.0
 40
2.0
 40
2.0
 40
3.0
 40
3.0
 40
3.0
 40
4.0
 40
4.0
 40
4.0
 40
4.0
 10
53.24067788382524
 20
-261.1313475909672
 10
53.24067788382524
 20
-260.1281357856624
 10
52.54235702896512
 20
-259.6454779081789
 10
51.42476805355006
 20
-259.3281846139874
 10
50.45979680813157
 20
-259.6075818578412
 10
49.93907062553606
 20
-260.2425129557727
 10
49.93907062553606
 20
-261.0297172741523
 10
49.90100232042404
 20
-261.8679090057136
 10
50.5359334183556
 20
-262.60447042046
 10
51.58996038206779
 20
-262.60447042046
 10
52.59317218737255
 20
-262.60447042046
 10
53.24067788382524
 20
-261.9822861758239
 10
53.24067788382524
 20
-261.1313475909672
 97
        0
 97
        1
330
2AA
 92
        1
 93
        1
 72
     4
 94
        3
 73
     0
 74
     0
 95
       35
 96
       31
 40
0.0
 40
0.0
 40
0.0
 40
0.0
 40
1.0
 40
1.0
 40
1.0
 40
2.0
 40
2.0
 40
2.0
 40
3.0
 40
3.0
 40
3.0
 40
4.0
 40
4.0
 40
4.0
 40
5.0
 40
5.0
 40
5.0
 40
6.0
 40
6.0
 40
6.0
 40
7.0
 40
7.0
 40
7.0
 40
8.0
 40
8.0
 40
8.0
 40
9.0
 40
9.0
 40
9.0
 40
10.0
 40
10.0
 40
10.0
 40
10.0
 10
48.7963324530787
 20
-261.1819904946004
 10
48.7963324530787
 20
-260.1408826389579
 10
49.41851669771481
 20
-259.4043212242115
 10
50.43430310154072
 20
-258.9726507599096
 10
50.43430310154072
 20
-258.9726507599096
 10
50.42172850301957
 20
-258.9344102000234
 10
50.42172850301957
 20
-258.9344102000234
 10
49.50740016123425
 20
-258.5027397357215
 10
49.11379800204446
 20
-257.791672027566
 10
49.11379800204446
 20
-257.0806043194104
 10
49.11379800204446
 20
-255.7725015636611
 10
50.21846786938983
 20
-254.8836669284666
 10
51.66609699229181
 20
-254.8836669284666
 10
53.2661715904161
 20
-254.8836669284666
 10
54.06612276209111
 20
-255.8868787337714
 10
54.06612276209111
 20
-256.915584245667
 10
54.06612276209111
 20
-257.6139051005271
 10
53.72316350653449
 20
-258.3632133685689
 10
52.70737710270857
 20
-258.8455267365039
 10
52.70737710270857
 20
-258.8455267365039
 10
52.70737710270857
 20
-258.8837672963902
 10
52.70737710270857
 20
-258.8837672963902
 10
53.7359103598299
 20
-259.2899440541011
 10
54.37084145776146
 20
-260.0137586155522
 10
54.37084145776146
 20
-261.0169704208569
 10
54.37084145776146
 20
-262.4518526904635
 10
53.13904756701038
 20
-263.4171684454305
 10
51.56446667547694
 20
-263.4171684454305
 10
49.83761256349546
 20
-263.4171684454305
 10
48.7963324530787
 20
-262.3884629335349
 10
48.7963324530787
 20
-261.1819904946004
 97
        0
 97
        1
330
2AB
 75
     2
 76
     1
 98
        1
 10
0.0
 20
0.0
450
        0
451
        0
460
0.0
461
0.0
452
        0
462
0.0
453
        0
470

  0
ENDBLK
  5
2AD
330
2A4
100
AcDbEntity
  8
0
100
AcDbBlockEnd
  0
BLOCK
  5
2AF
330
2AE
100
AcDbEntity
  8
0
100
AcDbBlockBegin
  2
Block_11
 70
     0
 10
0.0
 20
0.0
 30
0.0
  3
Block_11
  1

  0
SPLINE
  5
2B0
330
2AE
100
AcDbEntity
  8
Livello 1
100
AcDbSpline
210
0.0
220
0.0
230
1.0
 70
    11
 71
     3
 72
    26
 73
    22
 74
     0
 42
0.000000001
 43
0.0000000001
 40
0.0
 40
0.0
 40
0.0
 40
0.0
 40
1.0
 40
1.0
 40
1.0
 40
2.0
 40
2.0
 40
2.0
 40
3.0
 40
3.0
 40
3.0
 40
4.0
 40
4.0
 40
4.0
 40
5.0
 40
5.0
 40
5.0
 40
6.0
 40
6.0
 40
6.0
 40
7.0
 40
7.0
 40
7.0
 40
7.0
 10
85.3742892581703
 20
-229.3400064530817
 30
0.0
 10
85.3742892581703
 20
-229.3400064530817
 30
0.0
 10
82.61872963429324
 20
-229.3400064530817
 30
0.0
 10
82.61872963429324
 20
-229.3400064530817
 30
0.0
 10
82.18705916999144
 20
-229.3400064530817
 30
0.0
 10
81.75521645091537
 20
-229.3276041093348
 30
0.0
 10
81.32354598661356
 20
-229.3021104027439
 30
0.0
 10
81.32354598661356
 20
-229.3021104027439
 30
0.0
 10
81.32354598661356
 20
-229.3400064530817
 30
0.0
 10
81.32354598661356
 20
-229.3400064530817
 30
0.0
 10
81.8060316093228
 20
-229.5942544998931
 30
0.0
 10
82.16156546340057
 20
-229.7975151335229
 30
0.0
 10
82.5425930240692
 20
-230.0259249641949
 30
0.0
 10
82.5425930240692
 20
-230.0259249641949
 30
0.0
 10
85.34896780635373
 20
-232.0450954280998
 30
0.0
 10
85.34896780635373
 20
-232.0450954280998
 30
0.0
 10
85.34896780635373
 20
-232.0450954280998
 30
0.0
 10
85.3742892581703
 20
-232.0450954280998
 30
0.0
 10
85.3742892581703
 20
-232.0450954280998
 30
0.0
 10
85.3742892581703
 20
-232.0450954280998
 30
0.0
 10
85.3742892581703
 20
-229.3400064530817
 30
0.0
 10
85.3742892581703
 20
-229.3400064530817
 30
0.0
  0
SPLINE
  5
2B1
330
2AE
100
AcDbEntity
  8
Livello 1
100
AcDbSpline
210
0.0
220
0.0
230
1.0
 70
    11
 71
     3
 72
    38
 73
    34
 74
     0
 42
0.000000001
 43
0.0000000001
 40
0.0
 40
0.0
 40
0.0
 40
0.0
 40
1.0
 40
1.0
 40
1.0
 40
2.0
 40
2.0
 40
2.0
 40
3.0
 40
3.0
 40
3.0
 40
4.0
 40
4.0
 40
4.0
 40
5.0
 40
5.0
 40
5.0
 40
6.0
 40
6.0
 40
6.0
 40
7.0
 40
7.0
 40
7.0
 40
8.0
 40
8.0
 40
8.0
 40
9.0
 40
9.0
 40
9.0
 40
10.0
 40
10.0
 40
10.0
 40
11.0
 40
11.0
 40
11.0
 40
11.0
 10
88.49812958942059
 20
-229.3400064530817
 30
0.0
 10
88.49812958942059
 20
-229.3400064530817
 30
0.0
 10
86.25054929484361
 20
-229.3400064530817
 30
0.0
 10
86.25054929484361
 20
-229.3400064530817
 30
0.0
 10
86.25054929484361
 20
-229.3400064530817
 30
0.0
 10
86.25054929484361
 20
-233.1750867472618
 30
0.0
 10
86.25054929484361
 20
-233.1750867472618
 30
0.0
 10
86.25054929484361
 20
-233.1750867472618
 30
0.0
 10
85.5139878800972
 20
-233.1750867472618
 30
0.0
 10
85.5139878800972
 20
-233.1750867472618
 30
0.0
 10
85.5139878800972
 20
-233.1750867472618
 30
0.0
 10
80.24419757108478
 20
-229.4926241830783
 30
0.0
 10
80.24419757108478
 20
-229.4926241830783
 30
0.0
 10
80.24419757108478
 20
-229.4926241830783
 30
0.0
 10
80.24419757108478
 20
-228.2861517441439
 30
0.0
 10
80.24419757108478
 20
-228.2861517441439
 30
0.0
 10
80.24419757108478
 20
-228.2861517441439
 30
0.0
 10
85.3742892581703
 20
-228.2861517441439
 30
0.0
 10
85.3742892581703
 20
-228.2861517441439
 30
0.0
 10
85.3742892581703
 20
-228.2861517441439
 30
0.0
 10
85.3742892581703
 20
-227.1306667183909
 30
0.0
 10
85.3742892581703
 20
-227.1306667183909
 30
0.0
 10
85.3742892581703
 20
-227.1306667183909
 30
0.0
 10
86.25054929484361
 20
-227.1306667183909
 30
0.0
 10
86.25054929484361
 20
-227.1306667183909
 30
0.0
 10
86.25054929484361
 20
-227.1306667183909
 30
0.0
 10
86.25054929484361
 20
-228.2861517441439
 30
0.0
 10
86.25054929484361
 20
-228.2861517441439
 30
0.0
 10
86.25054929484361
 20
-228.2861517441439
 30
0.0
 10
88.49812958942059
 20
-228.2861517441439
 30
0.0
 10
88.49812958942059
 20
-228.2861517441439
 30
0.0
 10
88.49812958942059
 20
-228.2861517441439
 30
0.0
 10
88.49812958942059
 20
-229.3400064530817
 30
0.0
 10
88.49812958942059
 20
-229.3400064530817
 30
0.0
  0
HATCH
  5
2B2
330
2AE
100
AcDbEntity
  8
Livello 1
 62
   250
420
  1907995
440
 33554687
100
AcDbHatch
 10
0.0
 20
0.0
 30
0.0
210
0.0
220
0.0
230
1.0
  2
SOLID
 70
     1
 71
     1
 91
        2
 92
        1
 93
        1
 72
     4
 94
        3
 73
     0
 74
     0
 95
       26
 96
       22
 40
0.0
 40
0.0
 40
0.0
 40
0.0
 40
1.0
 40
1.0
 40
1.0
 40
2.0
 40
2.0
 40
2.0
 40
3.0
 40
3.0
 40
3.0
 40
4.0
 40
4.0
 40
4.0
 40
5.0
 40
5.0
 40
5.0
 40
6.0
 40
6.0
 40
6.0
 40
7.0
 40
7.0
 40
7.0
 40
7.0
 10
85.3742892581703
 20
-229.3400064530817
 10
85.3742892581703
 20
-229.3400064530817
 10
82.61872963429324
 20
-229.3400064530817
 10
82.61872963429324
 20
-229.3400064530817
 10
82.18705916999144
 20
-229.3400064530817
 10
81.75521645091537
 20
-229.3276041093348
 10
81.32354598661356
 20
-229.3021104027439
 10
81.32354598661356
 20
-229.3021104027439
 10
81.32354598661356
 20
-229.3400064530817
 10
81.32354598661356
 20
-229.3400064530817
 10
81.8060316093228
 20
-229.5942544998931
 10
82.16156546340057
 20
-229.7975151335229
 10
82.5425930240692
 20
-230.0259249641949
 10
82.5425930240692
 20
-230.0259249641949
 10
85.34896780635373
 20
-232.0450954280998
 10
85.34896780635373
 20
-232.0450954280998
 10
85.34896780635373
 20
-232.0450954280998
 10
85.3742892581703
 20
-232.0450954280998
 10
85.3742892581703
 20
-232.0450954280998
 10
85.3742892581703
 20
-232.0450954280998
 10
85.3742892581703
 20
-229.3400064530817
 10
85.3742892581703
 20
-229.3400064530817
 97
        0
 97
        1
330
2B0
 92
        1
 93
        1
 72
     4
 94
        3
 73
     0
 74
     0
 95
       38
 96
       34
 40
0.0
 40
0.0
 40
0.0
 40
0.0
 40
1.0
 40
1.0
 40
1.0
 40
2.0
 40
2.0
 40
2.0
 40
3.0
 40
3.0
 40
3.0
 40
4.0
 40
4.0
 40
4.0
 40
5.0
 40
5.0
 40
5.0
 40
6.0
 40
6.0
 40
6.0
 40
7.0
 40
7.0
 40
7.0
 40
8.0
 40
8.0
 40
8.0
 40
9.0
 40
9.0
 40
9.0
 40
10.0
 40
10.0
 40
10.0
 40
11.0
 40
11.0
 40
11.0
 40
11.0
 10
88.49812958942059
 20
-229.3400064530817
 10
88.49812958942059
 20
-229.3400064530817
 10
86.25054929484361
 20
-229.3400064530817
 10
86.25054929484361
 20
-229.3400064530817
 10
86.25054929484361
 20
-229.3400064530817
 10
86.25054929484361
 20
-233.1750867472618
 10
86.25054929484361
 20
-233.1750867472618
 10
86.25054929484361
 20
-233.1750867472618
 10
85.5139878800972
 20
-233.1750867472618
 10
85.5139878800972
 20
-233.1750867472618
 10
85.5139878800972
 20
-233.1750867472618
 10
80.24419757108478
 20
-229.4926241830783
 10
80.24419757108478
 20
-229.4926241830783
 10
80.24419757108478
 20
-229.4926241830783
 10
80.24419757108478
 20
-228.2861517441439
 10
80.24419757108478
 20
-228.2861517441439
 10
80.24419757108478
 20
-228.2861517441439
 10
85.3742892581703
 20
-228.2861517441439
 10
85.3742892581703
 20
-228.2861517441439
 10
85.3742892581703
 20
-228.2861517441439
 10
85.3742892581703
 20
-227.1306667183909
 10
85.3742892581703
 20
-227.1306667183909
 10
85.3742892581703
 20
-227.1306667183909
 10
86.25054929484361
 20
-227.1306667183909
 10
86.25054929484361
 20
-227.1306667183909
 10
86.25054929484361
 20
-227.1306667183909
 10
86.25054929484361
 20
-228.2861517441439
 10
86.25054929484361
 20
-228.2861517441439
 10
86.25054929484361
 20
-228.2861517441439
 10
88.49812958942059
 20
-228.2861517441439
 10
88.49812958942059
 20
-228.2861517441439
 10
88.49812958942059
 20
-228.2861517441439
 10
88.49812958942059
 20
-229.3400064530817
 10
88.49812958942059
 20
-229.3400064530817
 97
        0
 97
        1
330
2B1
 75
     2
 76
     1
 98
        1
 10
0.0
 20
0.0
450
        0
451
        0
460
0.0
461
0.0
452
        0
462
0.0
453
        0
470

  0
SPLINE
  5
2B3
330
2AE
100
AcDbEntity
  8
Livello 1
100
AcDbSpline
210
0.0
220
0.0
230
1.0
 70
     9
 71
     3
 72
    17
 73
    13
 74
     0
 42
0.000000001
 43
0.0000000001
 40
0.0
 40
0.0
 40
0.0
 40
0.0
 40
1.0
 40
1.0
 40
1.0
 40
2.0
 40
2.0
 40
2.0
 40
3.0
 40
3.0
 40
3.0
 40
4.0
 40
4.0
 40
4.0
 40
4.0
 10
86.35217961165848
 20
-221.9364962552798
 30
0.0
 10
85.34896780635373
 20
-221.9364962552798
 30
0.0
 10
84.86630992887022
 20
-222.6348171101399
 30
0.0
 10
84.54884437990447
 20
-223.752406085555
 30
0.0
 10
84.82824162375822
 20
-224.7173773309735
 30
0.0
 10
85.46317272168977
 20
-225.2382757683432
 30
0.0
 10
86.25054929484361
 20
-225.2382757683432
 30
0.0
 10
87.08856877163063
 20
-225.276171818681
 30
0.0
 10
87.82513018637706
 20
-224.6412407207494
 30
0.0
 10
87.82513018637706
 20
-223.5873860118115
 30
0.0
 10
87.82513018637706
 20
-222.5841742065068
 30
0.0
 10
87.20294594174093
 20
-221.9364962552798
 30
0.0
 10
86.35217961165848
 20
-221.9364962552798
 30
0.0
  0
SPLINE
  5
2B4
330
2AE
100
AcDbEntity
  8
Livello 1
100
AcDbSpline
210
0.0
220
0.0
230
1.0
 70
     9
 71
     3
 72
    17
 73
    13
 74
     0
 42
0.000000001
 43
0.0000000001
 40
0.0
 40
0.0
 40
0.0
 40
0.0
 40
1.0
 40
1.0
 40
1.0
 40
2.0
 40
2.0
 40
2.0
 40
3.0
 40
3.0
 40
3.0
 40
4.0
 40
4.0
 40
4.0
 40
4.0
 10
82.22512747510345
 20
-225.0095214281226
 30
0.0
 10
83.0505723533693
 20
-225.0095214281226
 30
0.0
 10
83.49498967096653
 20
-224.3873371834865
 30
0.0
 10
83.74889320822942
 20
-223.4351127913634
 30
0.0
 10
83.50773652426196
 20
-222.7237005736593
 30
0.0
 10
82.99975719496186
 20
-222.1776529392473
 30
0.0
 10
82.25044892692002
 20
-222.1776529392473
 30
0.0
 10
81.59019637717189
 20
-222.1776529392473
 30
0.0
 10
80.90445012083291
 20
-222.5714273532113
 30
0.0
 10
80.90445012083291
 20
-223.5746391585161
 30
0.0
 10
80.90445012083291
 20
-224.5017143535968
 30
0.0
 10
81.51405976694787
 20
-225.0095214281226
 30
0.0
 10
82.22512747510345
 20
-225.0095214281226
 30
0.0
  0
SPLINE
  5
2B5
330
2AE
100
AcDbEntity
  8
Livello 1
100
AcDbSpline
210
0.0
220
0.0
230
1.0
 70
     9
 71
     3
 72
    35
 73
    31
 74
     0
 42
0.000000001
 43
0.0000000001
 40
0.0
 40
0.0
 40
0.0
 40
0.0
 40
1.0
 40
1.0
 40
1.0
 40
2.0
 40
2.0
 40
2.0
 40
3.0
 40
3.0
 40
3.0
 40
4.0
 40
4.0
 40
4.0
 40
5.0
 40
5.0
 40
5.0
 40
6.0
 40
6.0
 40
6.0
 40
7.0
 40
7.0
 40
7.0
 40
8.0
 40
8.0
 40
8.0
 40
9.0
 40
9.0
 40
9.0
 40
10.0
 40
10.0
 40
10.0
 40
10.0
 10
86.40282251529164
 20
-226.3806694312521
 30
0.0
 10
85.36154240487489
 20
-226.3806694312521
 30
0.0
 10
84.62515324490274
 20
-225.7584851866159
 30
0.0
 10
84.19331052582668
 20
-224.7428710375643
 30
0.0
 10
84.19331052582668
 20
-224.7428710375643
 30
0.0
 10
84.15524222071466
 20
-224.7552733813112
 30
0.0
 10
84.15524222071466
 20
-224.7552733813112
 30
0.0
 10
83.72357175641289
 20
-225.6696017230965
 30
0.0
 10
83.01233179348303
 20
-226.0633761370606
 30
0.0
 10
82.30126408532745
 20
-226.0633761370606
 30
0.0
 10
80.99333358435236
 20
-226.0633761370606
 30
0.0
 10
80.1044989491579
 20
-224.9585340149409
 30
0.0
 10
80.1044989491579
 20
-223.5109048920389
 30
0.0
 10
80.1044989491579
 20
-221.9110025486889
 30
0.0
 10
81.10771075446265
 20
-221.1110513770139
 30
0.0
 10
82.136244011584
 20
-221.1110513770139
 30
0.0
 10
82.83456486644414
 20
-221.1110513770139
 30
0.0
 10
83.58387313448599
 20
-221.4541828873448
 30
0.0
 10
84.06635875719521
 20
-222.4697970363965
 30
0.0
 10
84.06635875719521
 20
-222.4697970363965
 30
0.0
 10
84.10442706230723
 20
-222.4697970363965
 30
0.0
 10
84.10442706230723
 20
-222.4697970363965
 30
0.0
 10
84.51077607479245
 20
-221.4410915245009
 30
0.0
 10
85.23459063624343
 20
-220.8065049361178
 30
0.0
 10
86.2378024415482
 20
-220.8065049361178
 30
0.0
 10
87.67268471115475
 20
-220.8065049361178
 30
0.0
 10
88.6378282113475
 20
-222.0381265720947
 30
0.0
 10
88.6378282113475
 20
-223.6128797184024
 30
0.0
 10
88.6378282113475
 20
-225.3395615756096
 30
0.0
 10
87.60929495422614
 20
-226.3806694312521
 30
0.0
 10
86.40282251529164
 20
-226.3806694312521
 30
0.0
  0
HATCH
  5
2B6
330
2AE
100
AcDbEntity
  8
Livello 1
 62
   250
420
  1907995
440
 33554687
100
AcDbHatch
 10
0.0
 20
0.0
 30
0.0
210
0.0
220
0.0
230
1.0
  2
SOLID
 70
     1
 71
     1
 91
        3
 92
        1
 93
        1
 72
     4
 94
        3
 73
     0
 74
     0
 95
       17
 96
       13
 40
0.0
 40
0.0
 40
0.0
 40
0.0
 40
1.0
 40
1.0
 40
1.0
 40
2.0
 40
2.0
 40
2.0
 40
3.0
 40
3.0
 40
3.0
 40
4.0
 40
4.0
 40
4.0
 40
4.0
 10
86.35217961165848
 20
-221.9364962552798
 10
85.34896780635373
 20
-221.9364962552798
 10
84.86630992887022
 20
-222.6348171101399
 10
84.54884437990447
 20
-223.752406085555
 10
84.82824162375822
 20
-224.7173773309735
 10
85.46317272168977
 20
-225.2382757683432
 10
86.25054929484361
 20
-225.2382757683432
 10
87.08856877163063
 20
-225.276171818681
 10
87.82513018637706
 20
-224.6412407207494
 10
87.82513018637706
 20
-223.5873860118115
 10
87.82513018637706
 20
-222.5841742065068
 10
87.20294594174093
 20
-221.9364962552798
 10
86.35217961165848
 20
-221.9364962552798
 97
        0
 97
        1
330
2B3
 92
        1
 93
        1
 72
     4
 94
        3
 73
     0
 74
     0
 95
       17
 96
       13
 40
0.0
 40
0.0
 40
0.0
 40
0.0
 40
1.0
 40
1.0
 40
1.0
 40
2.0
 40
2.0
 40
2.0
 40
3.0
 40
3.0
 40
3.0
 40
4.0
 40
4.0
 40
4.0
 40
4.0
 10
82.22512747510345
 20
-225.0095214281226
 10
83.0505723533693
 20
-225.0095214281226
 10
83.49498967096653
 20
-224.3873371834865
 10
83.74889320822942
 20
-223.4351127913634
 10
83.50773652426196
 20
-222.7237005736593
 10
82.99975719496186
 20
-222.1776529392473
 10
82.25044892692002
 20
-222.1776529392473
 10
81.59019637717189
 20
-222.1776529392473
 10
80.90445012083291
 20
-222.5714273532113
 10
80.90445012083291
 20
-223.5746391585161
 10
80.90445012083291
 20
-224.5017143535968
 10
81.51405976694787
 20
-225.0095214281226
 10
82.22512747510345
 20
-225.0095214281226
 97
        0
 97
        1
330
2B4
 92
        1
 93
        1
 72
     4
 94
        3
 73
     0
 74
     0
 95
       35
 96
       31
 40
0.0
 40
0.0
 40
0.0
 40
0.0
 40
1.0
 40
1.0
 40
1.0
 40
2.0
 40
2.0
 40
2.0
 40
3.0
 40
3.0
 40
3.0
 40
4.0
 40
4.0
 40
4.0
 40
5.0
 40
5.0
 40
5.0
 40
6.0
 40
6.0
 40
6.0
 40
7.0
 40
7.0
 40
7.0
 40
8.0
 40
8.0
 40
8.0
 40
9.0
 40
9.0
 40
9.0
 40
10.0
 40
10.0
 40
10.0
 40
10.0
 10
86.40282251529164
 20
-226.3806694312521
 10
85.36154240487489
 20
-226.3806694312521
 10
84.62515324490274
 20
-225.7584851866159
 10
84.19331052582668
 20
-224.7428710375643
 10
84.19331052582668
 20
-224.7428710375643
 10
84.15524222071466
 20
-224.7552733813112
 10
84.15524222071466
 20
-224.7552733813112
 10
83.72357175641289
 20
-225.6696017230965
 10
83.01233179348303
 20
-226.0633761370606
 10
82.30126408532745
 20
-226.0633761370606
 10
80.99333358435236
 20
-226.0633761370606
 10
80.1044989491579
 20
-224.9585340149409
 10
80.1044989491579
 20
-223.5109048920389
 10
80.1044989491579
 20
-221.9110025486889
 10
81.10771075446265
 20
-221.1110513770139
 10
82.136244011584
 20
-221.1110513770139
 10
82.83456486644414
 20
-221.1110513770139
 10
83.58387313448599
 20
-221.4541828873448
 10
84.06635875719521
 20
-222.4697970363965
 10
84.06635875719521
 20
-222.4697970363965
 10
84.10442706230723
 20
-222.4697970363965
 10
84.10442706230723
 20
-222.4697970363965
 10
84.51077607479245
 20
-221.4410915245009
 10
85.23459063624343
 20
-220.8065049361178
 10
86.2378024415482
 20
-220.8065049361178
 10
87.67268471115475
 20
-220.8065049361178
 10
88.6378282113475
 20
-222.0381265720947
 10
88.6378282113475
 20
-223.6128797184024
 10
88.6378282113475
 20
-225.3395615756096
 10
87.60929495422614
 20
-226.3806694312521
 10
86.40282251529164
 20
-226.3806694312521
 97
        0
 97
        1
330
2B5
 75
     2
 76
     1
 98
        1
 10
0.0
 20
0.0
450
        0
451
        0
460
0.0
461
0.0
452
        0
462
0.0
453
        0
470

  0
SPLINE
  5
2B7
330
2AE
100
AcDbEntity
  8
Livello 1
100
AcDbSpline
210
0.0
220
0.0
230
1.0
 70
     9
 71
     3
 72
    17
 73
    13
 74
     0
 42
0.000000001
 43
0.0000000001
 40
0.0
 40
0.0
 40
0.0
 40
0.0
 40
1.0
 40
1.0
 40
1.0
 40
2.0
 40
2.0
 40
2.0
 40
3.0
 40
3.0
 40
3.0
 40
4.0
 40
4.0
 40
4.0
 40
4.0
 10
90.05996362765861
 20
-220.132644259203
 30
0.0
 10
89.31082761439105
 20
-219.8535915248977
 30
0.0
 10
87.95208195500851
 20
-219.5104600145668
 30
0.0
 10
87.02517901470205
 20
-219.3705891378657
 30
0.0
 10
87.02517901470205
 20
-219.3705891378657
 30
0.0
 10
86.89805499129631
 20
-218.1262206485935
 30
0.0
 10
86.89805499129631
 20
-218.1262206485935
 30
0.0
 10
87.97757566159935
 20
-218.4183647457427
 30
0.0
 10
89.38696422461505
 20
-218.9771592334501
 30
0.0
 10
89.98382701743459
 20
-219.3326930875279
 30
0.0
 10
89.98382701743459
 20
-219.3326930875279
 30
0.0
 10
90.05996362765861
 20
-220.132644259203
 30
0.0
 10
90.05996362765861
 20
-220.132644259203
 30
0.0
  0
HATCH
  5
2B8
330
2AE
100
AcDbEntity
  8
Livello 1
 62
   250
420
  1907995
440
 33554687
100
AcDbHatch
 10
0.0
 20
0.0
 30
0.0
210
0.0
220
0.0
230
1.0
  2
SOLID
 70
     1
 71
     1
 91
        1
 92
        1
 93
        1
 72
     4
 94
        3
 73
     0
 74
     0
 95
       17
 96
       13
 40
0.0
 40
0.0
 40
0.0
 40
0.0
 40
1.0
 40
1.0
 40
1.0
 40
2.0
 40
2.0
 40
2.0
 40
3.0
 40
3.0
 40
3.0
 40
4.0
 40
4.0
 40
4.0
 40
4.0
 10
90.05996362765861
 20
-220.132644259203
 10
89.31082761439105
 20
-219.8535915248977
 10
87.95208195500851
 20
-219.5104600145668
 10
87.02517901470205
 20
-219.3705891378657
 10
87.02517901470205
 20
-219.3705891378657
 10
86.89805499129631
 20
-218.1262206485935
 10
86.89805499129631
 20
-218.1262206485935
 10
87.97757566159935
 20
-218.4183647457427
 10
89.38696422461505
 20
-218.9771592334501
 10
89.98382701743459
 20
-219.3326930875279
 10
89.98382701743459
 20
-219.3326930875279
 10
90.05996362765861
 20
-220.132644259203
 10
90.05996362765861
 20
-220.132644259203
 97
        0
 97
        1
330
2B7
 75
     2
 76
     1
 98
        1
 10
0.0
 20
0.0
450
        0
451
        0
460
0.0
461
0.0
452
        0
462
0.0
453
        0
470

  0
SPLINE
  5
2B9
330
2AE
100
AcDbEntity
  8
Livello 1
100
AcDbSpline
210
0.0
220
0.0
230
1.0
 70
    11
 71
     3
 72
    50
 73
    46
 74
     0
 42
0.000000001
 43
0.0000000001
 40
0.0
 40
0.0
 40
0.0
 40
0.0
 40
1.0
 40
1.0
 40
1.0
 40
2.0
 40
2.0
 40
2.0
 40
3.0
 40
3.0
 40
3.0
 40
4.0
 40
4.0
 40
4.0
 40
5.0
 40
5.0
 40
5.0
 40
6.0
 40
6.0
 40
6.0
 40
7.0
 40
7.0
 40
7.0
 40
8.0
 40
8.0
 40
8.0
 40
9.0
 40
9.0
 40
9.0
 40
10.0
 40
10.0
 40
10.0
 40
11.0
 40
11.0
 40
11.0
 40
12.0
 40
12.0
 40
12.0
 40
13.0
 40
13.0
 40
13.0
 40
14.0
 40
14.0
 40
14.0
 40
15.0
 40
15.0
 40
15.0
 40
15.0
 10
81.18384736468668
 20
-212.2089246431283
 30
0.0
 10
81.18384736468668
 20
-212.2089246431283
 30
0.0
 10
81.18384736468668
 20
-215.3577419166467
 30
0.0
 10
81.18384736468668
 20
-215.3577419166467
 30
0.0
 10
81.18384736468668
 20
-215.3577419166467
 30
0.0
 10
83.30447589063222
 20
-215.6753797203867
 30
0.0
 10
83.30447589063222
 20
-215.6753797203867
 30
0.0
 10
83.27915443881563
 20
-215.4848659400524
 30
0.0
 10
83.25366073222481
 20
-215.3070990130135
 30
0.0
 10
83.25366073222481
 20
-215.0022080625689
 30
0.0
 10
83.25366073222481
 20
-214.3676214741859
 30
0.0
 10
83.39335935415167
 20
-213.7323458667058
 30
0.0
 10
83.69807804982201
 20
-213.22453879218
 30
0.0
 10
84.06635875719521
 20
-212.576860840953
 30
0.0
 10
84.77742646535078
 20
-212.0435600598364
 30
0.0
 10
85.81870657576756
 20
-212.0435600598364
 30
0.0
 10
87.43152802718725
 20
-212.0435600598364
 30
0.0
 10
88.6378282113475
 20
-213.3261691089948
 30
0.0
 10
88.6378282113475
 20
-215.1165852326792
 30
0.0
 10
88.6378282113475
 20
-216.0181667211691
 30
0.0
 10
88.38392467408459
 20
-216.7802218425063
 30
0.0
 10
88.12984888204741
 20
-217.1739962564704
 30
0.0
 10
88.12984888204741
 20
-217.1739962564704
 30
0.0
 10
87.27908255196494
 20
-216.8942545030681
 30
0.0
 10
87.27908255196494
 20
-216.8942545030681
 30
0.0
 10
87.48234318559472
 20
-216.5518120118343
 30
0.0
 10
87.73624672285761
 20
-215.8786403540164
 30
0.0
 10
87.73624672285761
 20
-215.1293320859746
 30
0.0
 10
87.73624672285761
 20
-214.0754773770367
 30
0.0
 10
87.05050046651862
 20
-213.1735513789983
 30
0.0
 10
85.94583059917326
 20
-213.1735513789983
 30
0.0
 10
84.87905678216566
 20
-213.1866427418422
 30
0.0
 10
84.11717391560264
 20
-213.8977104499978
 30
0.0
 10
84.11717391560264
 20
-215.5486002065295
 30
0.0
 10
84.11717391560264
 20
-216.0181667211691
 30
0.0
 10
84.16798907401009
 20
-216.3864474285424
 30
0.0
 10
84.20605737912209
 20
-216.6913383789869
 30
0.0
 10
84.20605737912209
 20
-216.6913383789869
 30
0.0
 10
80.24419757108478
 20
-216.1576930883217
 30
0.0
 10
80.24419757108478
 20
-216.1576930883217
 30
0.0
 10
80.24419757108478
 20
-216.1576930883217
 30
0.0
 10
80.24419757108478
 20
-212.2089246431283
 30
0.0
 10
80.24419757108478
 20
-212.2089246431283
 30
0.0
 10
80.24419757108478
 20
-212.2089246431283
 30
0.0
 10
81.18384736468668
 20
-212.2089246431283
 30
0.0
 10
81.18384736468668
 20
-212.2089246431283
 30
0.0
  0
HATCH
  5
2BA
330
2AE
100
AcDbEntity
  8
Livello 1
 62
   250
420
  1907995
440
 33554687
100
AcDbHatch
 10
0.0
 20
0.0
 30
0.0
210
0.0
220
0.0
230
1.0
  2
SOLID
 70
     1
 71
     1
 91
        1
 92
        1
 93
        1
 72
     4
 94
        3
 73
     0
 74
     0
 95
       50
 96
       46
 40
0.0
 40
0.0
 40
0.0
 40
0.0
 40
1.0
 40
1.0
 40
1.0
 40
2.0
 40
2.0
 40
2.0
 40
3.0
 40
3.0
 40
3.0
 40
4.0
 40
4.0
 40
4.0
 40
5.0
 40
5.0
 40
5.0
 40
6.0
 40
6.0
 40
6.0
 40
7.0
 40
7.0
 40
7.0
 40
8.0
 40
8.0
 40
8.0
 40
9.0
 40
9.0
 40
9.0
 40
10.0
 40
10.0
 40
10.0
 40
11.0
 40
11.0
 40
11.0
 40
12.0
 40
12.0
 40
12.0
 40
13.0
 40
13.0
 40
13.0
 40
14.0
 40
14.0
 40
14.0
 40
15.0
 40
15.0
 40
15.0
 40
15.0
 10
81.18384736468668
 20
-212.2089246431283
 10
81.18384736468668
 20
-212.2089246431283
 10
81.18384736468668
 20
-215.3577419166467
 10
81.18384736468668
 20
-215.3577419166467
 10
81.18384736468668
 20
-215.3577419166467
 10
83.30447589063222
 20
-215.6753797203867
 10
83.30447589063222
 20
-215.6753797203867
 10
83.27915443881563
 20
-215.4848659400524
 10
83.25366073222481
 20
-215.3070990130135
 10
83.25366073222481
 20
-215.0022080625689
 10
83.25366073222481
 20
-214.3676214741859
 10
83.39335935415167
 20
-213.7323458667058
 10
83.69807804982201
 20
-213.22453879218
 10
84.06635875719521
 20
-212.576860840953
 10
84.77742646535078
 20
-212.0435600598364
 10
85.81870657576756
 20
-212.0435600598364
 10
87.43152802718725
 20
-212.0435600598364
 10
88.6378282113475
 20
-213.3261691089948
 10
88.6378282113475
 20
-215.1165852326792
 10
88.6378282113475
 20
-216.0181667211691
 10
88.38392467408459
 20
-216.7802218425063
 10
88.12984888204741
 20
-217.1739962564704
 10
88.12984888204741
 20
-217.1739962564704
 10
87.27908255196494
 20
-216.8942545030681
 10
87.27908255196494
 20
-216.8942545030681
 10
87.48234318559472
 20
-216.5518120118343
 10
87.73624672285761
 20
-215.8786403540164
 10
87.73624672285761
 20
-215.1293320859746
 10
87.73624672285761
 20
-214.0754773770367
 10
87.05050046651862
 20
-213.1735513789983
 10
85.94583059917326
 20
-213.1735513789983
 10
84.87905678216566
 20
-213.1866427418422
 10
84.11717391560264
 20
-213.8977104499978
 10
84.11717391560264
 20
-215.5486002065295
 10
84.11717391560264
 20
-216.0181667211691
 10
84.16798907401009
 20
-216.3864474285424
 10
84.20605737912209
 20
-216.6913383789869
 10
84.20605737912209
 20
-216.6913383789869
 10
80.24419757108478
 20
-216.1576930883217
 10
80.24419757108478
 20
-216.1576930883217
 10
80.24419757108478
 20
-216.1576930883217
 10
80.24419757108478
 20
-212.2089246431283
 10
80.24419757108478
 20
-212.2089246431283
 10
80.24419757108478
 20
-212.2089246431283
 10
81.18384736468668
 20
-212.2089246431283
 10
81.18384736468668
 20
-212.2089246431283
 97
        0
 97
        1
330
2B9
 75
     2
 76
     1
 98
        1
 10
0.0
 20
0.0
450
        0
451
        0
460
0.0
461
0.0
452
        0
462
0.0
453
        0
470

  0
ENDBLK
  5
2BB
330
2AE
100
AcDbEntity
  8
0
100
AcDbBlockEnd
  0
ENDSEC
  0
SECTION
  2
ENTITIES
  0
SPLINE
  5
2D5
330
1F
100
AcDbEntity
  8
Livello 1
100
AcDbSpline
210
0.0
220
0.0
230
1.0
 70
     8
 71
     3
 72
    17
 73
    13
 74
     0
 42
0.000000001
 43
0.0000000001
 40
0.0
 40
0.0
 40
0.0
 40
0.0
 40
1.0
 40
1.0
 40
1.0
 40
2.0
 40
2.0
 40
2.0
 40
3.0
 40
3.0
 40
3.0
 40
4.0
 40
4.0
 40
4.0
 40
4.0
 10
219.2993096439226
 20
183.6289342024783
 30
0.0
 10
208.3179228306196
 20
186.5353278554301
 30
0.0
 10
200.1228394387362
 20
196.6174197518226
 30
0.0
 10
200.1228394387362
 20
208.5721944659921
 30
0.0
 10
200.1228394387362
 20
222.7994292429683
 30
0.0
 10
211.5927833205252
 20
234.3328818326611
 30
0.0
 10
225.7416761360921
 20
234.3328818326611
 30
0.0
 10
239.8905689516583
 20
234.3328818326611
 30
0.0
 10
251.360512833448
 20
222.7994292429683
 30
0.0
 10
251.360512833448
 20
208.5721944659921
 30
0.0
 10
251.360512833448
 20
196.576894236578
 30
0.0
 10
243.1468923488683
 20
186.4965042810264
 30
0.0
 10
232.1087279926009
 20
183.6289342024783
 30
0.0
  0
LINE
  5
2D6
330
1F
100
AcDbEntity
  8
Livello 1
100
AcDbLine
 10
232.1087279926009
 20
183.5802477102823
 30
0.0
 11
219.2993096439226
 21
183.5802477102823
 31
0.0
  0
LINE
  5
2D7
330
1F
100
AcDbEntity
  8
Livello 1
100
AcDbLine
 10
232.1087279926015
 20
183.7086714642061
 30
0.0
 11
219.2993096439239
 21
183.7086714642061
 31
0.0
  0
LINE
  5
2D8
330
1F
100
AcDbEntity
  8
Livello 1
100
AcDbLine
 10
220.9004869375081
 20
182.0863058540291
 30
0.0
 11
219.2993096439239
 21
182.0863058540291
 31
0.0
  0
LINE
  5
2D9
330
1F
100
AcDbEntity
  8
Livello 1
100
AcDbLine
 10
219.2993096439239
 20
182.0863058540291
 30
0.0
 11
219.2993096439239
 21
183.6874831476146
 31
0.0
  0
LINE
  5
2DA
330
1F
100
AcDbEntity
  8
Livello 1
100
AcDbLine
 10
219.2993096439239
 20
183.6874831476146
 30
0.0
 11
220.9004869375081
 21
183.6874831476146
 31
0.0
  0
LINE
  5
2DB
330
1F
100
AcDbEntity
  8
Livello 1
100
AcDbLine
 10
220.9004869375081
 20
183.6874831476146
 30
0.0
 11
220.9004869375081
 21
182.0863058540291
 31
0.0
  0
LINE
  5
2DC
330
1F
100
AcDbEntity
  8
Livello 1
100
AcDbLine
 10
226.5046074650542
 20
182.0863058540291
 30
0.0
 11
224.9034301714699
 21
182.0863058540291
 31
0.0
  0
LINE
  5
2DD
330
1F
100
AcDbEntity
  8
Livello 1
100
AcDbLine
 10
224.9034301714699
 20
182.0863058540291
 30
0.0
 11
224.9034301714699
 21
183.6874831476146
 31
0.0
  0
LINE
  5
2DE
330
1F
100
AcDbEntity
  8
Livello 1
100
AcDbLine
 10
224.9034301714699
 20
183.6874831476146
 30
0.0
 11
226.5046074650542
 21
183.6874831476146
 31
0.0
  0
LINE
  5
2DF
330
1F
100
AcDbEntity
  8
Livello 1
100
AcDbLine
 10
226.5046074650542
 20
183.6874831476146
 30
0.0
 11
226.5046074650542
 21
182.0863058540291
 31
0.0
  0
LINE
  5
2E0
330
1F
100
AcDbEntity
  8
Livello 1
100
AcDbLine
 10
232.1463853104315
 20
182.0863058540291
 30
0.0
 11
230.5452080168473
 21
182.0863058540291
 31
0.0
  0
LINE
  5
2E1
330
1F
100
AcDbEntity
  8
Livello 1
100
AcDbLine
 10
230.5452080168473
 20
182.0863058540291
 30
0.0
 11
230.5452080168473
 21
183.6874831476146
 31
0.0
  0
LINE
  5
2E2
330
1F
100
AcDbEntity
  8
Livello 1
100
AcDbLine
 10
230.5452080168473
 20
183.6874831476146
 30
0.0
 11
232.1463853104315
 21
183.6874831476146
 31
0.0
  0
LINE
  5
2E3
330
1F
100
AcDbEntity
  8
Livello 1
100
AcDbLine
 10
232.1463853104315
 20
183.6874831476146
 30
0.0
 11
232.1463853104315
 21
182.0863058540291
 31
0.0
  0
LINE
  5
2E4
330
1F
100
AcDbEntity
  8
Livello 1
100
AcDbLine
 10
200.1228394387362
 20
176.0278330702284
 30
0.0
 11
251.360512833448
 21
176.0278330702284
 31
0.0
  0
LINE
  5
2E5
330
1F
100
AcDbEntity
  8
Livello 1
100
AcDbLine
 10
255.5595770419348
 20
234.3328818326611
 30
0.0
 11
255.5595770419348
 21
182.0863058540291
 31
0.0
  0
INSERT
  5
2E6
330
1F
100
AcDbEntity
  8
Livello 1
100
AcDbBlockReference
  2
Block_9
 10
177.6740832342458
 20
428.6951169576771
 30
0.0
  0
INSERT
  5
2E7
330
1F
100
AcDbEntity
  8
Livello 1
100
AcDbBlockReference
  2
Block_11
 10
177.6740832342458
 20
428.6951169576771
 30
0.0
  0
ENDSEC
  0
SECTION
  2
OBJECTS
  0
DICTIONARY
  5
C
330
0
100
AcDbDictionary
281
     1
  3
ACAD_CIP_PREVIOUS_PRODUCT_INFO
350
1A2
  3
ACAD_COLOR
350
6C
  3
ACAD_DETAILVIEWSTYLE
350
1A8
  3
ACAD_GROUP
350
D
  3
ACAD_LAYOUT
350
1A
  3
ACAD_MATERIAL
350
6B
  3
ACAD_MLEADERSTYLE
350
D2
  3
ACAD_MLINESTYLE
350
17
  3
ACAD_PLOTSETTINGS
350
19
  3
ACAD_PLOTSTYLENAME
350
E
  3
ACAD_SCALELIST
350
B1
  3
ACAD_SECTIONVIEWSTYLE
350
1A5
  3
ACAD_TABLESTYLE
350
A6
  3
ACAD_VISUALSTYLE
350
95
  3
ACDB_RECOMPOSE_DATA
350
2E9
  3
AcDbVariableDictionary
350
59
  3
AcDsDecomposeData
350
2EF
  0
DICTIONARY
  5
18B
330
2
100
AcDbDictionary
280
     1
281
     1
  3
ACAD_LAYERSTATES
360
18C
  0
DICTIONARY
  5
E1
330
10
100
AcDbDictionary
280
     1
281
     1
  0
DICTIONARY
  5
15A
330
1F
100
AcDbDictionary
280
     1
281
     1
  0
XRECORD
  5
1A2
102
{ACAD_REACTORS
330
C
102
}
330
C
100
AcDbXrecord
280
     1
300
ACD
300
2019
300
ACD_F_S
  0
DICTIONARY
  5
6C
102
{ACAD_REACTORS
330
C
102
}
330
C
100
AcDbDictionary
281
     1
  0
DICTIONARY
  5
1A8
102
{ACAD_REACTORS
330
C
102
}
330
C
100
AcDbDictionary
281
     1
  3
Imperial24
350
1A9
  0
DICTIONARY
  5
D
102
{ACAD_REACTORS
330
C
102
}
330
C
100
AcDbDictionary
281
     1
  0
DICTIONARY
  5
1A
102
{ACAD_REACTORS
330
C
102
}
330
C
100
AcDbDictionary
281
     1
  3
Layout1
350
74
  3
Layout2
350
79
  3
Model
350
22
  0
DICTIONARY
  5
6B
102
{ACAD_REACTORS
330
C
102
}
330
C
100
AcDbDictionary
281
     1
  3
ByBlock
350
93
  3
ByLayer
350
92
  3
Global
350
94
  0
DICTIONARY
  5
D2
102
{ACAD_REACTORS
330
C
102
}
330
C
100
AcDbDictionary
281
     1
  3
Annotativa
350
E0
  3
Standard
350
D3
  0
DICTIONARY
  5
17
102
{ACAD_REACTORS
330
C
102
}
330
C
100
AcDbDictionary
281
     1
  3
Standard
350
18
  0
DICTIONARY
  5
19
102
{ACAD_REACTORS
330
C
102
}
330
C
100
AcDbDictionary
281
     1
  0
ACDBDICTIONARYWDFLT
  5
E
102
{ACAD_REACTORS
330
C
102
}
330
C
100
AcDbDictionary
281
     1
  3
Normal
350
F
100
AcDbDictionaryWithDefault
340
F
  0
DICTIONARY
  5
B1
102
{ACAD_REACTORS
330
C
102
}
330
C
100
AcDbDictionary
281
     1
  3
A0
350
B2
  3
A1
350
124
  3
A2
350
125
  3
A3
350
126
  3
A4
350
127
  3
A5
350
128
  3
A6
350
129
  3
A7
350
12A
  3
A8
350
12B
  3
A9
350
12C
  3
B0
350
12D
  3
B1
350
12E
  3
B2
350
12F
  3
B3
350
130
  3
B4
350
131
  3
B5
350
132
  3
B6
350
133
  3
B7
350
134
  3
B8
350
135
  3
B9
350
136
  3
C0
350
137
  3
C1
350
138
  3
C2
350
139
  3
C3
350
13A
  3
C4
350
13B
  3
C5
350
13C
  3
C6
350
13D
  3
C7
350
13E
  3
C8
350
13F
  3
C9
350
140
  3
D0
350
141
  3
D1
350
142
  3
D2
350
143
  0
DICTIONARY
  5
1A5
102
{ACAD_REACTORS
330
C
102
}
330
C
100
AcDbDictionary
281
     1
  3
Imperial24
350
1A7
  0
DICTIONARY
  5
A6
102
{ACAD_REACTORS
330
C
102
}
330
C
100
AcDbDictionary
281
     1
  3
Standard
350
A7
  0
DICTIONARY
  5
95
102
{ACAD_REACTORS
330
C
102
}
330
C
100
AcDbDictionary
281
     1
  3
2dWireframe
350
9B
  3
Basic
350
9A
  3
Brighten
350
A1
  3
ColorChange
350
A5
  3
Conceptual
350
9E
  3
Dim
350
A0
  3
EdgeColorOff
350
172
  3
Facepattern
350
A4
  3
Flat
350
96
  3
FlatWithEdges
350
97
  3
Gouraud
350
98
  3
GouraudWithEdges
350
99
  3
Hidden
350
9D
  3
JitterOff
350
170
  3
Linepattern
350
A3
  3
OverhangOff
350
171
  3
Realistic
350
9F
  3
Shaded
350
17F
  3
Shaded with edges
350
17E
  3
Shades of Gray
350
17B
  3
Sketchy
350
17C
  3
Thicken
350
A2
  3
Wireframe
350
9C
  3
X-Ray
350
17D
  0
XRECORD
  5
2E9
102
{ACAD_REACTORS
330
C
102
}
330
C
100
AcDbXrecord
280
     1
 90
        1
330
A7
  0
DICTIONARY
  5
59
102
{ACAD_REACTORS
330
C
102
}
330
C
100
AcDbDictionary
281
     1
  3
CANNOSCALE
350
EB
  3
CMLEADERSTYLE
350
EA
  3
CTABLESTYLE
350
AB
  3
CVIEWDETAILSTYLE
350
1B4
  3
CVIEWSECTIONSTYLE
350
1B5
  3
DIMASSOC
350
5A
  3
HIDETEXT
350
5E
  3
LAYEREVAL
350
14A
  3
LAYERNOTIFY
350
14B
  0
DICTIONARY
  5
2EF
102
{ACAD_REACTORS
330
C
102
}
330
C
100
AcDbDictionary
281
     1
  3
AcDsRecords
350
2F1
  3
AcDsSchemas
350
2F0
1001
ACAD
1070
     2
  0
DICTIONARY
  5
18C
102
{ACAD_REACTORS
330
18B
102
}
330
18B
100
AcDbDictionary
281
     1
  0
ACDBDETAILVIEWSTYLE
  5
1A9
102
{ACAD_XDICTIONARY
360
2F4
102
}
102
{ACAD_REACTORS
330
1A8
102
}
330
1A8
100
AcDbModelDocViewStyle
 70
     0
  3
Imperial24
290
     0
100
AcDbDetailViewStyle
 70
     0
 71
     0
 90
        3
 71
     1
340
11
 62
   256
 40
0.24
340
0
 62
   256
 40
0.24
300

 40
0.36
280
     3
 71
     2
340
16
 90
       25
 62
   256
 71
     3
340
11
 62
   256
 40
0.24
 90
        1
 40
0.75
 90
        1
300
%<\AcVar ViewType \f "%tc1">% %<\AcVar ViewDetailId>%\PSCALE %<\AcVar ViewScale \f "%sn">%
 71
     4
340
16
 90
       25
 62
   256
340
16
 90
       25
 62
   256
280
     0
  0
LAYOUT
  5
74
102
{ACAD_REACTORS
330
1A
102
}
330
1A
100
AcDbPlotSettings
  1

  2
\\ADSCCNDC1\hq601xrx1
  4

  6

 40
0.0
 41
0.0
 42
0.0
 43
0.0
 44
0.0
 45
0.0
 46
0.0
 47
0.0
 48
0.0
 49
0.0
140
0.0
141
0.0
142
1.0
143
1.0
 70
   688
 72
     0
 73
     0
 74
     5
  7

 75
    16
147
1.0
 76
     0
 77
     2
 78
   300
148
0.0
149
0.0
100
AcDbLayout
  1
Layout1
 70
     1
 71
     1
 10
0.0
 20
0.0
 11
12.0
 21
9.0
 12
0.0
 22
0.0
 32
0.0
 14
0.0
 24
0.0
 34
0.0
 15
0.0
 25
0.0
 35
0.0
146
0.0
 13
0.0
 23
0.0
 33
0.0
 16
1.0
 26
0.0
 36
0.0
 17
0.0
 27
1.0
 37
0.0
 76
     0
330
73
  0
LAYOUT
  5
79
102
{ACAD_REACTORS
330
1A
102
}
330
1A
100
AcDbPlotSettings
  1

  2
\\ADSCCNDC1\hq601xrx1
  4

  6

 40
0.0
 41
0.0
 42
0.0
 43
0.0
 44
0.0
 45
0.0
 46
0.0
 47
0.0
 48
0.0
 49
0.0
140
0.0
141
0.0
142
1.0
143
1.0
 70
   688
 72
     0
 73
     0
 74
     5
  7

 75
    16
147
1.0
 76
     0
 77
     2
 78
   300
148
0.0
149
0.0
100
AcDbLayout
  1
Layout2
 70
     1
 71
     2
 10
0.0
 20
0.0
 11
12.0
 21
9.0
 12
0.0
 22
0.0
 32
0.0
 14
0.0
 24
0.0
 34
0.0
 15
0.0
 25
0.0
 35
0.0
146
0.0
 13
0.0
 23
0.0
 33
0.0
 16
1.0
 26
0.0
 36
0.0
 17
0.0
 27
1.0
 37
0.0
 76
     0
330
78
  0
LAYOUT
  5
22
102
{ACAD_XDICTIONARY
360
191
102
}
102
{ACAD_REACTORS
330
1A
102
}
330
1A
100
AcDbPlotSettings
  1

  2
none_device
  4
Letter_(8.50_x_11.00_Inches)
  6

 40
6.349999904632568
 41
6.349999904632568
 42
6.350006103515625
 43
6.350006103515625
 44
215.8999938964844
 45
279.3999938964844
 46
0.0
 47
0.0
 48
0.0
 49
0.0
140
0.0
141
0.0
142
1.0
143
3.560208697428376
 70
 11952
 72
     0
 73
     1
 74
     0
  7

 75
     0
147
0.28088241027059
 76
     0
 77
     2
 78
   300
148
0.1311165230791651
149
0.096403374003771
100
AcDbLayout
  1
Model
 70
     1
 71
     0
 10
0.0
 20
0.0
 11
12.0
 21
9.0
 12
0.0
 22
0.0
 32
0.0
 14
0.0
 24
0.0
 34
0.0
 15
0.0
 25
0.0
 35
0.0
146
0.0
 13
0.0
 23
0.0
 33
0.0
 16
1.0
 26
0.0
 36
0.0
 17
0.0
 27
1.0
 37
0.0
 76
     0
330
1F
331
90
  0
MATERIAL
  5
93
102
{ACAD_XDICTIONARY
360
185
102
}
102
{ACAD_REACTORS
330
6B
102
}
330
6B
100
AcDbMaterial
  1
ByBlock
 94
       63
  0
MATERIAL
  5
92
102
{ACAD_XDICTIONARY
360
183
102
}
102
{ACAD_REACTORS
330
6B
102
}
330
6B
100
AcDbMaterial
  1
ByLayer
 94
       63
  0
MATERIAL
  5
94
102
{ACAD_XDICTIONARY
360
10B
102
}
102
{ACAD_REACTORS
330
6B
102
}
330
6B
100
AcDbMaterial
  1
Global
 43
0.0208000000566244
 43
0.0
 43
0.0
 43
0.0
 43
0.0
 43
0.0208000000566244
 43
0.0
 43
0.0
 43
0.0
 43
0.0
 43
1.0
 43
0.0
 43
0.0
 43
0.0
 43
0.0
 43
1.0
 49
0.0208000000566244
 49
0.0
 49
0.0
 49
0.0
 49
0.0
 49
0.0208000000566244
 49
0.0
 49
0.0
 49
0.0
 49
0.0
 49
1.0
 49
0.0
 49
0.0
 49
0.0
 49
0.0
 49
1.0
142
0.0208000000566244
142
0.0
142
0.0
142
0.0
142
0.0
142
0.0208000000566244
142
0.0
142
0.0
142
0.0
142
0.0
142
1.0
142
0.0
142
0.0
142
0.0
142
0.0
142
1.0
144
0.0208000000566244
144
0.0
144
0.0
144
0.0
144
0.0
144
0.0208000000566244
144
0.0
144
0.0
144
0.0
144
0.0
144
1.0
144
0.0
144
0.0
144
0.0
144
0.0
144
1.0
 94
       63
1001
ACAD
1070
    -1
1070
     3
1070
     0
1000

1071
        0
1070
     0
  0
MLEADERSTYLE
  5
E0
102
{ACAD_REACTORS
330
D2
102
}
330
D2
100
AcDbMLeaderStyle
179
     2
170
     2
171
     1
172
     0
 90
        2
 40
0.0
 41
0.0
173
     1
 91
-1056964608
340
14
 92
       -2
290
     1
 42
0.09
291
     1
 43
0.36
  3
Standard
 44
0.18
300

342
11
174
     1
178
     1
175
     1
176
     0
 93
-1056964608
 45
0.18
292
     0
297
     0
 46
0.18
 94
-1056964608
 47
1.0
 49
1.0
140
1.0
293
     1
141
0.0
294
     1
177
     0
142
1.0
295
     0
296
     1
143
0.125
271
     0
272
     9
273
     9
298
     0
  0
MLEADERSTYLE
  5
D3
102
{ACAD_REACTORS
330
D2
102
}
330
D2
100
AcDbMLeaderStyle
179
     2
170
     2
171
     1
172
     0
 90
        2
 40
0.0
 41
0.0
173
     1
 91
-1056964608
340
14
 92
       -2
290
     1
 42
0.09
291
     1
 43
0.36
  3
Standard
 44
0.18
300

342
11
174
     1
178
     1
175
     1
176
     0
 93
-1056964608
 45
0.18
292
     0
297
     0
 46
0.18
 94
-1056964608
 47
1.0
 49
1.0
140
1.0
293
     1
141
0.0
294
     1
177
     0
142
1.0
295
     0
296
     0
143
0.125
271
     0
272
     9
273
     9
298
     0
  0
MLINESTYLE
  5
18
102
{ACAD_REACTORS
330
17
102
}
330
17
100
AcDbMlineStyle
  2
STANDARD
 70
     0
  3

 62
   256
 51
90.0
 52
90.0
 71
     2
 49
0.5
 62
   256
  6
BYLAYER
 49
-0.5
 62
   256
  6
BYLAYER
  0
ACDBPLACEHOLDER
  5
F
102
{ACAD_REACTORS
330
E
102
}
330
E
  0
SCALE
  5
B2
102
{ACAD_REACTORS
330
B1
102
}
330
B1
100
AcDbScale
 70
     0
300
1:1
140
1.0
141
1.0
290
     1
  0
SCALE
  5
124
102
{ACAD_REACTORS
330
B1
102
}
330
B1
100
AcDbScale
 70
     0
300
1:2
140
1.0
141
2.0
290
     0
  0
SCALE
  5
125
102
{ACAD_REACTORS
330
B1
102
}
330
B1
100
AcDbScale
 70
     0
300
1:4
140
1.0
141
4.0
290
     0
  0
SCALE
  5
126
102
{ACAD_REACTORS
330
B1
102
}
330
B1
100
AcDbScale
 70
     0
300
1:5
140
1.0
141
5.0
290
     0
  0
SCALE
  5
127
102
{ACAD_REACTORS
330
B1
102
}
330
B1
100
AcDbScale
 70
     0
300
1:8
140
1.0
141
8.0
290
     0
  0
SCALE
  5
128
102
{ACAD_REACTORS
330
B1
102
}
330
B1
100
AcDbScale
 70
     0
300
1:10
140
1.0
141
10.0
290
     0
  0
SCALE
  5
129
102
{ACAD_REACTORS
330
B1
102
}
330
B1
100
AcDbScale
 70
     0
300
1:16
140
1.0
141
16.0
290
     0
  0
SCALE
  5
12A
102
{ACAD_REACTORS
330
B1
102
}
330
B1
100
AcDbScale
 70
     0
300
1:20
140
1.0
141
20.0
290
     0
  0
SCALE
  5
12B
102
{ACAD_REACTORS
330
B1
102
}
330
B1
100
AcDbScale
 70
     0
300
1:30
140
1.0
141
30.0
290
     0
  0
SCALE
  5
12C
102
{ACAD_REACTORS
330
B1
102
}
330
B1
100
AcDbScale
 70
     0
300
1:40
140
1.0
141
40.0
290
     0
  0
SCALE
  5
12D
102
{ACAD_REACTORS
330
B1
102
}
330
B1
100
AcDbScale
 70
     0
300
1:50
140
1.0
141
50.0
290
     0
  0
SCALE
  5
12E
102
{ACAD_REACTORS
330
B1
102
}
330
B1
100
AcDbScale
 70
     0
300
1:100
140
1.0
141
100.0
290
     0
  0
SCALE
  5
12F
102
{ACAD_REACTORS
330
B1
102
}
330
B1
100
AcDbScale
 70
     0
300
2:1
140
2.0
141
1.0
290
     0
  0
SCALE
  5
130
102
{ACAD_REACTORS
330
B1
102
}
330
B1
100
AcDbScale
 70
     0
300
4:1
140
4.0
141
1.0
290
     0
  0
SCALE
  5
131
102
{ACAD_REACTORS
330
B1
102
}
330
B1
100
AcDbScale
 70
     0
300
8:1
140
8.0
141
1.0
290
     0
  0
SCALE
  5
132
102
{ACAD_REACTORS
330
B1
102
}
330
B1
100
AcDbScale
 70
     0
300
10:1
140
10.0
141
1.0
290
     0
  0
SCALE
  5
133
102
{ACAD_REACTORS
330
B1
102
}
330
B1
100
AcDbScale
 70
     0
300
100:1
140
100.0
141
1.0
290
     0
  0
SCALE
  5
134
102
{ACAD_REACTORS
330
B1
102
}
330
B1
100
AcDbScale
 70
     0
300
1/128" = 1'-0"
140
0.0078125
141
12.0
290
     0
  0
SCALE
  5
135
102
{ACAD_REACTORS
330
B1
102
}
330
B1
100
AcDbScale
 70
     0
300
1/64" = 1'-0"
140
0.015625
141
12.0
290
     0
  0
SCALE
  5
136
102
{ACAD_REACTORS
330
B1
102
}
330
B1
100
AcDbScale
 70
     0
300
1/32" = 1'-0"
140
0.03125
141
12.0
290
     0
  0
SCALE
  5
137
102
{ACAD_REACTORS
330
B1
102
}
330
B1
100
AcDbScale
 70
     0
300
1/16" = 1'-0"
140
0.0625
141
12.0
290
     0
  0
SCALE
  5
138
102
{ACAD_REACTORS
330
B1
102
}
330
B1
100
AcDbScale
 70
     0
300
3/32" = 1'-0"
140
0.09375
141
12.0
290
     0
  0
SCALE
  5
139
102
{ACAD_REACTORS
330
B1
102
}
330
B1
100
AcDbScale
 70
     0
300
1/8" = 1'-0"
140
0.125
141
12.0
290
     0
  0
SCALE
  5
13A
102
{ACAD_REACTORS
330
B1
102
}
330
B1
100
AcDbScale
 70
     0
300
3/16" = 1'-0"
140
0.1875
141
12.0
290
     0
  0
SCALE
  5
13B
102
{ACAD_REACTORS
330
B1
102
}
330
B1
100
AcDbScale
 70
     0
300
1/4" = 1'-0"
140
0.25
141
12.0
290
     0
  0
SCALE
  5
13C
102
{ACAD_REACTORS
330
B1
102
}
330
B1
100
AcDbScale
 70
     0
300
3/8" = 1'-0"
140
0.375
141
12.0
290
     0
  0
SCALE
  5
13D
102
{ACAD_REACTORS
330
B1
102
}
330
B1
100
AcDbScale
 70
     0
300
1/2" = 1'-0"
140
0.5
141
12.0
290
     0
  0
SCALE
  5
13E
102
{ACAD_REACTORS
330
B1
102
}
330
B1
100
AcDbScale
 70
     0
300
3/4" = 1'-0"
140
0.75
141
12.0
290
     0
  0
SCALE
  5
13F
102
{ACAD_REACTORS
330
B1
102
}
330
B1
100
AcDbScale
 70
     0
300
1" = 1'-0"
140
1.0
141
12.0
290
     0
  0
SCALE
  5
140
102
{ACAD_REACTORS
330
B1
102
}
330
B1
100
AcDbScale
 70
     0
300
1-1/2" = 1'-0"
140
1.5
141
12.0
290
     0
  0
SCALE
  5
141
102
{ACAD_REACTORS
330
B1
102
}
330
B1
100
AcDbScale
 70
     0
300
3" = 1'-0"
140
3.0
141
12.0
290
     0
  0
SCALE
  5
142
102
{ACAD_REACTORS
330
B1
102
}
330
B1
100
AcDbScale
 70
     0
300
6" = 1'-0"
140
6.0
141
12.0
290
     0
  0
SCALE
  5
143
102
{ACAD_REACTORS
330
B1
102
}
330
B1
100
AcDbScale
 70
     0
300
1'-0" = 1'-0"
140
12.0
141
12.0
290
     0
  0
ACDBSECTIONVIEWSTYLE
  5
1A7
102
{ACAD_XDICTIONARY
360
2F2
102
}
102
{ACAD_REACTORS
330
1A5
102
}
330
1A5
100
AcDbModelDocViewStyle
 70
     0
  3
Imperial24
290
     0
100
AcDbSectionViewStyle
 70
     0
 71
     0
 90
       78
 71
     1
340
11
 62
   256
 40
0.24
340
0
340
0
 62
   256
 40
0.24
300
I, O, Q, S, X, Z
 40
0.48
 90
        3
 40
0.18
 90
        1
 71
     2
340
16
 90
       25
 62
   256
340
16
 90
       50
 62
   256
 40
0.24
 40
0.0
 40
0.24
 71
     3
340
11
 62
   256
 40
0.24
 90
        1
 40
0.75
 90
        1
300
%<\AcVar ViewType \f "%tc1">% %<\AcVar ViewSectionStartId>%-%<\AcVar ViewSectionEndId>%\PSCALE %<\AcVar ViewScale \f "%sn">%
 71
     4
 62
   256
 62
   257
300
ANSI31
 40
1.0
 90
        0
290
     0
290
     0
 90
        6
 40
0.0
 40
1.570796326794896
 40
0.2617993877991494
 40
1.308996938995747
 40
-0.2617993877991494
 40
1.832595714594046
  0
TABLESTYLE
  5
A7
102
{ACAD_XDICTIONARY
360
FF
102
}
102
{ACAD_REACTORS
330
A6
102
}
330
A6
100
AcDbTableStyle
280
     0
  3
Standard
 70
     0
 71
     0
 40
0.06
 41
0.06
280
     0
281
     0
  7
Standard
140
0.18
170
     2
 62
     0
 63
     7
283
     0
 90
      512
 91
        0
  1

274
    -2
284
     1
 64
     0
275
    -2
285
     1
 65
     0
276
    -2
286
     1
 66
     0
277
    -2
287
     1
 67
     0
278
    -2
288
     1
 68
     0
279
    -2
289
     1
 69
     0
  7
Standard
140
0.25
170
     5
 62
     0
 63
     7
283
     0
 90
      512
 91
        0
  1

274
    -2
284
     1
 64
     0
275
    -2
285
     1
 65
     0
276
    -2
286
     1
 66
     0
277
    -2
287
     1
 67
     0
278
    -2
288
     1
 68
     0
279
    -2
289
     1
 69
     0
  7
Standard
140
0.18
170
     5
 62
     0
 63
     7
283
     0
 90
      512
 91
        0
  1

274
    -2
284
     1
 64
     0
275
    -2
285
     1
 65
     0
276
    -2
286
     1
 66
     0
277
    -2
287
     1
 67
     0
278
    -2
288
     1
 68
     0
279
    -2
289
     1
 69
     0
  0
VISUALSTYLE
  5
9B
102
{ACAD_REACTORS
330
95
102
}
330
95
100
AcDbVisualStyle
  2
2dWireframe
 70
     4
177
     3
291
     0
 70
    58
 90
        0
176
     1
 90
        2
176
     1
 90
        1
176
     1
 90
        0
176
     1
 40
0.6
176
     1
 40
30.0
176
     1
 62
     7
420
 16777215
176
     1
 90
        1
176
     1
 90
        4
176
     1
 62
     7
176
     1
 62
   257
176
     1
 90
        1
176
     1
 90
        1
176
     1
 40
1.0
176
     1
 90
        0
176
     1
 62
   257
176
     1
 40
1.0
176
     1
 90
        1
176
     1
 90
        6
176
     1
 90
        2
176
     1
 62
     7
176
     1
 90
        5
176
     1
 90
        0
176
     1
 90
        0
176
     1
290
     0
176
     1
 90
        1
176
     1
 40
0.0
176
     1
 90
        0
176
     1
290
     1
176
     1
290
     1
176
     1
290
     0
176
     1
290
     0
176
     1
290
     0
176
     1
290
     0
176
     1
290
     0
176
     1
290
     0
176
     1
290
     0
176
     1
 90
       50
176
     1
 40
0.0
176
     1
 40
1.0
176
     1
 90
        0
176
     1
 62
    18
420
        0
176
     1
 90
       50
176
     1
 90
        3
176
     1
 62
     5
420
      255
176
     1
290
     0
176
     1
 90
       50
176
     1
 90
       50
176
     1
 90
       50
176
     1
290
     0
176
     1
 90
       50
176
     1
 62
   256
176
     0
 40
1.0
176
     0
 90
        2
176
     1
  1
strokes_ogs.tif
176
     1
290
     0
176
     1
 40
1.0
176
     1
 40
1.0
176
     1
1001
ACAD
1000
AcDbSavedByObjectVersion
1070
     0
  0
VISUALSTYLE
  5
9A
102
{ACAD_REACTORS
330
95
102
}
330
95
100
AcDbVisualStyle
  2
Basic
 70
     7
177
     3
291
     1
 70
    58
 90
        1
176
     1
 90
        0
176
     1
 90
        1
176
     1
 90
        0
176
     1
 40
0.6
176
     1
 40
30.0
176
     1
 62
     7
420
 16777215
176
     1
 90
        0
176
     1
 90
        4
176
     1
 62
     7
176
     1
 62
   257
176
     1
 90
        1
176
     1
 90
        1
176
     1
 40
1.0
176
     1
 90
        8
176
     1
 62
     7
176
     1
 40
1.0
176
     1
 90
        1
176
     1
 90
        6
176
     1
 90
        2
176
     1
 62
     7
176
     1
 90
        5
176
     1
 90
        0
176
     1
 90
        0
176
     1
290
     0
176
     1
 90
        1
176
     1
 40
0.0
176
     1
 90
        0
176
     1
290
     0
176
     1
290
     1
176
     1
290
     1
176
     1
290
     0
176
     1
290
     0
176
     1
290
     0
176
     1
290
     0
176
     1
290
     0
176
     1
290
     0
176
     1
 90
       50
176
     1
 40
0.0
176
     1
 40
1.0
176
     1
 90
        0
176
     1
 62
    18
420
        0
176
     1
 90
       50
176
     1
 90
        3
176
     1
 62
     5
420
      255
176
     1
290
     0
176
     1
 90
       50
176
     1
 90
       50
176
     1
 90
       50
176
     1
290
     0
176
     1
 90
       50
176
     1
 62
   256
176
     0
 40
1.0
176
     0
 90
        2
176
     1
  1
strokes_ogs.tif
176
     1
290
     0
176
     1
 40
1.0
176
     1
 40
1.0
176
     1
1001
ACAD
1000
AcDbSavedByObjectVersion
1070
     0
  0
VISUALSTYLE
  5
A1
102
{ACAD_REACTORS
330
95
102
}
330
95
100
AcDbVisualStyle
  2
Brighten
 70
    12
177
     3
291
     1
 70
    58
 90
        2
176
     1
 90
        2
176
     1
 90
        1
176
     1
 90
        0
176
     1
 40
0.6
176
     1
 40
30.0
176
     1
 62
     7
420
 16777215
176
     1
 90
        1
176
     1
 90
        4
176
     1
 62
     7
176
     1
 62
   257
176
     1
 90
        1
176
     1
 90
        1
176
     1
 40
1.0
176
     1
 90
        8
176
     1
 62
     7
176
     1
 40
1.0
176
     1
 90
        1
176
     1
 90
        6
176
     1
 90
        2
176
     1
 62
     7
176
     1
 90
        5
176
     1
 90
        0
176
     1
 90
        0
176
     1
290
     0
176
     1
 90
        1
176
     1
 40
50.0
176
     1
 90
        0
176
     1
290
     0
176
     1
290
     1
176
     1
290
     1
176
     1
290
     0
176
     1
290
     0
176
     1
290
     0
176
     1
290
     0
176
     1
290
     0
176
     1
290
     0
176
     1
 90
       50
176
     1
 40
0.0
176
     1
 40
1.0
176
     1
 90
        0
176
     1
 62
    18
420
        0
176
     1
 90
       50
176
     1
 90
        3
176
     1
 62
     5
420
      255
176
     1
290
     0
176
     1
 90
       50
176
     1
 90
       50
176
     1
 90
       50
176
     1
290
     0
176
     1
 90
       50
176
     1
 62
   256
176
     0
 40
1.0
176
     0
 90
        2
176
     1
  1
strokes_ogs.tif
176
     1
290
     0
176
     1
 40
1.0
176
     1
 40
1.0
176
     1
1001
ACAD
1000
AcDbSavedByObjectVersion
1070
     0
  0
VISUALSTYLE
  5
A5
102
{ACAD_REACTORS
330
95
102
}
330
95
100
AcDbVisualStyle
  2
ColorChange
 70
    16
177
     3
291
     1
 70
    58
 90
        2
176
     1
 90
        2
176
     1
 90
        3
176
     1
 90
        0
176
     1
 40
0.6
176
     1
 40
30.0
176
     1
 62
     8
420
  8421504
176
     1
 90
        1
176
     1
 90
        4
176
     1
 62
     7
176
     1
 62
   257
176
     1
 90
        1
176
     1
 90
        1
176
     1
 40
1.0
176
     1
 90
        8
176
     1
 62
     8
420
  8421504
176
     1
 40
1.0
176
     1
 90
        1
176
     1
 90
        6
176
     1
 90
        2
176
     1
 62
     7
176
     1
 90
        5
176
     1
 90
        0
176
     1
 90
        0
176
     1
290
     0
176
     1
 90
        1
176
     1
 40
0.0
176
     1
 90
        0
176
     1
290
     0
176
     1
290
     1
176
     1
290
     1
176
     1
290
     0
176
     1
290
     0
176
     1
290
     0
176
     1
290
     0
176
     1
290
     0
176
     1
290
     0
176
     1
 90
       50
176
     1
 40
0.0
176
     1
 40
1.0
176
     1
 90
        0
176
     1
 62
    18
420
        0
176
     1
 90
       50
176
     1
 90
        3
176
     1
 62
     5
420
      255
176
     1
290
     0
176
     1
 90
       50
176
     1
 90
       50
176
     1
 90
       50
176
     1
290
     0
176
     1
 90
       50
176
     1
 62
   256
176
     0
 40
1.0
176
     0
 90
        2
176
     1
  1
strokes_ogs.tif
176
     1
290
     0
176
     1
 40
1.0
176
     1
 40
1.0
176
     1
1001
ACAD
1000
AcDbSavedByObjectVersion
1070
     0
  0
VISUALSTYLE
  5
9E
102
{ACAD_REACTORS
330
95
102
}
330
95
100
AcDbVisualStyle
  2
Conceptual
 70
     9
177
     3
291
     0
 70
    58
 90
        3
176
     1
 90
        2
176
     1
 90
        1
176
     1
 90
        0
176
     1
 40
0.6
176
     1
 40
30.0
176
     1
 62
     7
420
 16777215
176
     1
 90
        2
176
     1
 90
        2
176
     1
 62
     7
176
     1
 62
   257
176
     1
 90
        1
176
     1
 90
        1
176
     1
 40
40.0
176
     1
 90
        8
176
     1
 62
     7
176
     1
 40
1.0
176
     1
 90
        1
176
     1
 90
        6
176
     1
 90
        2
176
     1
 62
     7
176
     1
 90
        3
176
     1
 90
        0
176
     1
 90
        0
176
     1
290
     0
176
     1
 90
        1
176
     1
 40
0.0
176
     1
 90
        0
176
     1
290
     0
176
     1
290
     1
176
     1
290
     1
176
     1
290
     0
176
     1
290
     0
176
     1
290
     0
176
     1
290
     0
176
     1
290
     0
176
     1
290
     0
176
     1
 90
       50
176
     1
 40
0.0
176
     1
 40
1.0
176
     1
 90
        0
176
     1
 62
    18
420
        0
176
     1
 90
       50
176
     1
 90
        3
176
     1
 62
     5
420
      255
176
     1
290
     0
176
     1
 90
       50
176
     1
 90
       50
176
     1
 90
       50
176
     1
290
     0
176
     1
 90
       50
176
     1
 62
   256
176
     0
 40
1.0
176
     0
 90
        2
176
     1
  1
strokes_ogs.tif
176
     1
290
     0
176
     1
 40
1.0
176
     1
 40
1.0
176
     1
1001
ACAD
1000
AcDbSavedByObjectVersion
1070
     0
  0
VISUALSTYLE
  5
A0
102
{ACAD_REACTORS
330
95
102
}
330
95
100
AcDbVisualStyle
  2
Dim
 70
    11
177
     3
291
     1
 70
    58
 90
        2
176
     1
 90
        2
176
     1
 90
        1
176
     1
 90
        0
176
     1
 40
0.6
176
     1
 40
30.0
176
     1
 62
     7
420
 16777215
176
     1
 90
        1
176
     1
 90
        4
176
     1
 62
     7
176
     1
 62
   257
176
     1
 90
        1
176
     1
 90
        1
176
     1
 40
1.0
176
     1
 90
        8
176
     1
 62
     7
176
     1
 40
1.0
176
     1
 90
        1
176
     1
 90
        6
176
     1
 90
        2
176
     1
 62
     7
176
     1
 90
        5
176
     1
 90
        0
176
     1
 90
        0
176
     1
290
     0
176
     1
 90
        1
176
     1
 40
-50.0
176
     1
 90
        0
176
     1
290
     0
176
     1
290
     1
176
     1
290
     1
176
     1
290
     0
176
     1
290
     0
176
     1
290
     0
176
     1
290
     0
176
     1
290
     0
176
     1
290
     0
176
     1
 90
       50
176
     1
 40
0.0
176
     1
 40
1.0
176
     1
 90
        0
176
     1
 62
    18
420
        0
176
     1
 90
       50
176
     1
 90
        3
176
     1
 62
     5
420
      255
176
     1
290
     0
176
     1
 90
       50
176
     1
 90
       50
176
     1
 90
       50
176
     1
290
     0
176
     1
 90
       50
176
     1
 62
   256
176
     0
 40
1.0
176
     0
 90
        2
176
     1
  1
strokes_ogs.tif
176
     1
290
     0
176
     1
 40
1.0
176
     1
 40
1.0
176
     1
1001
ACAD
1000
AcDbSavedByObjectVersion
1070
     0
  0
VISUALSTYLE
  5
172
102
{ACAD_REACTORS
330
95
102
}
330
95
100
AcDbVisualStyle
  2
EdgeColorOff
 70
    22
177
     3
291
     1
 70
    58
 90
        2
176
     0
 90
        2
176
     0
 90
        0
176
     0
 90
        0
176
     0
 40
0.6
176
     0
 40
30.0
176
     0
 62
     7
420
 16777215
176
     0
 90
        1
176
     0
 90
        4
176
     0
 62
     7
176
     0
 62
   257
176
     0
 90
        1
176
     0
 90
        1
176
     0
 40
1.0
176
     0
 90
        8
176
     2
 62
     7
176
     0
 40
1.0
176
     0
 90
        1
176
     0
 90
        6
176
     0
 90
        2
176
     0
 62
     7
176
     0
 90
        5
176
     0
 90
        0
176
     0
 90
        0
176
     0
290
     0
176
     0
 90
        1
176
     0
 40
0.0
176
     0
 90
        0
176
     0
290
     0
176
     1
290
     1
176
     1
290
     1
176
     1
290
     0
176
     1
290
     0
176
     1
290
     0
176
     1
290
     0
176
     1
290
     0
176
     1
290
     0
176
     1
 90
       50
176
     1
 40
0.0
176
     1
 40
1.0
176
     1
 90
        0
176
     1
 62
    18
420
        0
176
     1
 90
       50
176
     1
 90
        3
176
     1
 62
     5
420
      255
176
     1
290
     0
176
     1
 90
       50
176
     1
 90
       50
176
     1
 90
       50
176
     1
290
     0
176
     1
 90
       50
176
     1
 62
   256
176
     0
 40
1.0
176
     0
 90
        2
176
     1
  1
strokes_ogs.tif
176
     1
290
     0
176
     1
 40
1.0
176
     1
 40
1.0
176
     1
1001
ACAD
1000
AcDbSavedByObjectVersion
1070
     0
  0
VISUALSTYLE
  5
A4
102
{ACAD_REACTORS
330
95
102
}
330
95
100
AcDbVisualStyle
  2
Facepattern
 70
    15
177
     3
291
     1
 70
    58
 90
        2
176
     1
 90
        2
176
     1
 90
        1
176
     1
 90
        0
176
     1
 40
0.6
176
     1
 40
30.0
176
     1
 62
     7
420
 16777215
176
     1
 90
        1
176
     1
 90
        4
176
     1
 62
     7
176
     1
 62
   257
176
     1
 90
        1
176
     1
 90
        1
176
     1
 40
1.0
176
     1
 90
        8
176
     1
 62
     7
176
     1
 40
1.0
176
     1
 90
        1
176
     1
 90
        6
176
     1
 90
        2
176
     1
 62
     7
176
     1
 90
        5
176
     1
 90
        0
176
     1
 90
        0
176
     1
290
     0
176
     1
 90
        1
176
     1
 40
0.0
176
     1
 90
        0
176
     1
290
     0
176
     1
290
     1
176
     1
290
     1
176
     1
290
     0
176
     1
290
     0
176
     1
290
     0
176
     1
290
     0
176
     1
290
     0
176
     1
290
     0
176
     1
 90
       50
176
     1
 40
0.0
176
     1
 40
1.0
176
     1
 90
        0
176
     1
 62
    18
420
        0
176
     1
 90
       50
176
     1
 90
        3
176
     1
 62
     5
420
      255
176
     1
290
     0
176
     1
 90
       50
176
     1
 90
       50
176
     1
 90
       50
176
     1
290
     0
176
     1
 90
       50
176
     1
 62
   256
176
     0
 40
1.0
176
     0
 90
        2
176
     1
  1
strokes_ogs.tif
176
     1
290
     0
176
     1
 40
1.0
176
     1
 40
1.0
176
     1
1001
ACAD
1000
AcDbSavedByObjectVersion
1070
     0
  0
VISUALSTYLE
  5
96
102
{ACAD_REACTORS
330
95
102
}
330
95
100
AcDbVisualStyle
  2
Flat
 70
     0
177
     3
291
     1
 70
    58
 90
        2
176
     1
 90
        1
176
     1
 90
        1
176
     1
 90
        2
176
     1
 40
0.6
176
     1
 40
30.0
176
     1
 62
     7
420
 16777215
176
     1
 90
        0
176
     1
 90
        0
176
     1
 62
     7
176
     1
 62
   257
176
     1
 90
        1
176
     1
 90
        1
176
     1
 40
1.0
176
     1
 90
        8
176
     1
 62
     7
176
     1
 40
1.0
176
     1
 90
        1
176
     1
 90
        6
176
     1
 90
        2
176
     1
 62
     7
176
     1
 90
        5
176
     1
 90
        0
176
     1
 90
        0
176
     1
290
     0
176
     1
 90
       13
176
     1
 40
0.0
176
     1
 90
        0
176
     1
290
     0
176
     1
290
     1
176
     1
290
     1
176
     1
290
     0
176
     1
290
     0
176
     1
290
     0
176
     1
290
     0
176
     1
290
     0
176
     1
290
     0
176
     1
 90
       50
176
     1
 40
0.0
176
     1
 40
1.0
176
     1
 90
        0
176
     1
 62
    18
420
        0
176
     1
 90
       50
176
     1
 90
        3
176
     1
 62
     5
420
      255
176
     1
290
     0
176
     1
 90
       50
176
     1
 90
       50
176
     1
 90
       50
176
     1
290
     0
176
     1
 90
       50
176
     1
 62
   256
176
     0
 40
1.0
176
     0
 90
        2
176
     1
  1
strokes_ogs.tif
176
     1
290
     0
176
     1
 40
1.0
176
     1
 40
1.0
176
     1
1001
ACAD
1000
AcDbSavedByObjectVersion
1070
     0
  0
VISUALSTYLE
  5
97
102
{ACAD_REACTORS
330
95
102
}
330
95
100
AcDbVisualStyle
  2
FlatWithEdges
 70
     1
177
     3
291
     1
 70
    58
 90
        2
176
     1
 90
        1
176
     1
 90
        1
176
     1
 90
        2
176
     1
 40
0.6
176
     1
 40
30.0
176
     1
 62
     7
420
 16777215
176
     1
 90
        1
176
     1
 90
        0
176
     1
 62
     7
176
     1
 62
   257
176
     1
 90
        1
176
     1
 90
        1
176
     1
 40
1.0
176
     1
 90
        0
176
     1
 62
   257
176
     1
 40
1.0
176
     1
 90
        1
176
     1
 90
        6
176
     1
 90
        2
176
     1
 62
     7
176
     1
 90
        5
176
     1
 90
        0
176
     1
 90
        0
176
     1
290
     0
176
     1
 90
       13
176
     1
 40
0.0
176
     1
 90
        0
176
     1
290
     0
176
     1
290
     1
176
     1
290
     1
176
     1
290
     0
176
     1
290
     0
176
     1
290
     0
176
     1
290
     0
176
     1
290
     0
176
     1
290
     0
176
     1
 90
       50
176
     1
 40
0.0
176
     1
 40
1.0
176
     1
 90
        0
176
     1
 62
    18
420
        0
176
     1
 90
       50
176
     1
 90
        3
176
     1
 62
     5
420
      255
176
     1
290
     0
176
     1
 90
       50
176
     1
 90
       50
176
     1
 90
       50
176
     1
290
     0
176
     1
 90
       50
176
     1
 62
   256
176
     0
 40
1.0
176
     0
 90
        2
176
     1
  1
strokes_ogs.tif
176
     1
290
     0
176
     1
 40
1.0
176
     1
 40
1.0
176
     1
1001
ACAD
1000
AcDbSavedByObjectVersion
1070
     0
  0
VISUALSTYLE
  5
98
102
{ACAD_REACTORS
330
95
102
}
330
95
100
AcDbVisualStyle
  2
Gouraud
 70
     2
177
     3
291
     1
 70
    58
 90
        2
176
     1
 90
        2
176
     1
 90
        1
176
     1
 90
        2
176
     1
 40
0.6
176
     1
 40
30.0
176
     1
 62
     7
420
 16777215
176
     1
 90
        0
176
     1
 90
        0
176
     1
 62
     7
176
     1
 62
   257
176
     1
 90
        1
176
     1
 90
        1
176
     1
 40
1.0
176
     1
 90
        0
176
     1
 62
     7
176
     1
 40
1.0
176
     1
 90
        1
176
     1
 90
        6
176
     1
 90
        2
176
     1
 62
     7
176
     1
 90
        5
176
     1
 90
        0
176
     1
 90
        0
176
     1
290
     0
176
     1
 90
       13
176
     1
 40
0.0
176
     1
 90
        0
176
     1
290
     0
176
     1
290
     1
176
     1
290
     1
176
     1
290
     0
176
     1
290
     0
176
     1
290
     0
176
     1
290
     0
176
     1
290
     0
176
     1
290
     0
176
     1
 90
       50
176
     1
 40
0.0
176
     1
 40
1.0
176
     1
 90
        0
176
     1
 62
    18
420
        0
176
     1
 90
       50
176
     1
 90
        3
176
     1
 62
     5
420
      255
176
     1
290
     0
176
     1
 90
       50
176
     1
 90
       50
176
     1
 90
       50
176
     1
290
     0
176
     1
 90
       50
176
     1
 62
   256
176
     0
 40
1.0
176
     0
 90
        2
176
     1
  1
strokes_ogs.tif
176
     1
290
     0
176
     1
 40
1.0
176
     1
 40
1.0
176
     1
1001
ACAD
1000
AcDbSavedByObjectVersion
1070
     0
  0
VISUALSTYLE
  5
99
102
{ACAD_REACTORS
330
95
102
}
330
95
100
AcDbVisualStyle
  2
GouraudWithEdges
 70
     3
177
     3
291
     1
 70
    58
 90
        2
176
     1
 90
        2
176
     1
 90
        1
176
     1
 90
        2
176
     1
 40
0.6
176
     1
 40
30.0
176
     1
 62
     7
420
 16777215
176
     1
 90
        1
176
     1
 90
        0
176
     1
 62
     7
176
     1
 62
   257
176
     1
 90
        1
176
     1
 90
        1
176
     1
 40
1.0
176
     1
 90
        0
176
     1
 62
   257
176
     1
 40
1.0
176
     1
 90
        1
176
     1
 90
        6
176
     1
 90
        2
176
     1
 62
     7
176
     1
 90
        5
176
     1
 90
        0
176
     1
 90
        0
176
     1
290
     0
176
     1
 90
       13
176
     1
 40
0.0
176
     1
 90
        0
176
     1
290
     0
176
     1
290
     1
176
     1
290
     1
176
     1
290
     0
176
     1
290
     0
176
     1
290
     0
176
     1
290
     0
176
     1
290
     0
176
     1
290
     0
176
     1
 90
       50
176
     1
 40
0.0
176
     1
 40
1.0
176
     1
 90
        0
176
     1
 62
    18
420
        0
176
     1
 90
       50
176
     1
 90
        3
176
     1
 62
     5
420
      255
176
     1
290
     0
176
     1
 90
       50
176
     1
 90
       50
176
     1
 90
       50
176
     1
290
     0
176
     1
 90
       50
176
     1
 62
   256
176
     0
 40
1.0
176
     0
 90
        2
176
     1
  1
strokes_ogs.tif
176
     1
290
     0
176
     1
 40
1.0
176
     1
 40
1.0
176
     1
1001
ACAD
1000
AcDbSavedByObjectVersion
1070
     0
  0
VISUALSTYLE
  5
9D
102
{ACAD_REACTORS
330
95
102
}
330
95
100
AcDbVisualStyle
  2
Hidden
 70
     6
177
     3
291
     0
 70
    58
 90
        1
176
     1
 90
        2
176
     1
 90
        2
176
     1
 90
        0
176
     1
 40
0.6
176
     1
 40
30.0
176
     1
 62
     7
420
 16777215
176
     1
 90
        2
176
     1
 90
        2
176
     1
 62
     7
176
     1
 62
   257
176
     1
 90
        2
176
     1
 90
        1
176
     1
 40
40.0
176
     1
 90
        0
176
     1
 62
   257
176
     1
 40
1.0
176
     1
 90
        1
176
     1
 90
        6
176
     1
 90
        2
176
     1
 62
     7
176
     1
 90
        3
176
     1
 90
        0
176
     1
 90
        0
176
     1
290
     0
176
     1
 90
        1
176
     1
 40
0.0
176
     1
 90
        0
176
     1
290
     0
176
     1
290
     1
176
     1
290
     1
176
     1
290
     0
176
     1
290
     0
176
     1
290
     0
176
     1
290
     0
176
     1
290
     0
176
     1
290
     0
176
     1
 90
       50
176
     1
 40
0.0
176
     1
 40
1.0
176
     1
 90
        0
176
     1
 62
    18
420
        0
176
     1
 90
       50
176
     1
 90
        3
176
     1
 62
     5
420
      255
176
     1
290
     0
176
     1
 90
       50
176
     1
 90
       50
176
     1
 90
       50
176
     1
290
     0
176
     1
 90
       50
176
     1
 62
   256
176
     0
 40
1.0
176
     0
 90
        2
176
     1
  1
strokes_ogs.tif
176
     1
290
     0
176
     1
 40
1.0
176
     1
 40
1.0
176
     1
1001
ACAD
1000
AcDbSavedByObjectVersion
1070
     0
  0
VISUALSTYLE
  5
170
102
{ACAD_REACTORS
330
95
102
}
330
95
100
AcDbVisualStyle
  2
JitterOff
 70
    20
177
     3
291
     1
 70
    58
 90
        2
176
     0
 90
        2
176
     0
 90
        0
176
     0
 90
        0
176
     0
 40
0.6
176
     0
 40
30.0
176
     0
 62
     7
420
 16777215
176
     0
 90
        1
176
     0
 90
        4
176
     0
 62
     7
176
     0
 62
   257
176
     0
 90
        1
176
     0
 90
        1
176
     0
 40
1.0
176
     0
 90
       10
176
     2
 62
     7
176
     0
 40
1.0
176
     0
 90
        1
176
     0
 90
        6
176
     0
 90
        2
176
     0
 62
     7
176
     0
 90
        5
176
     0
 90
        0
176
     0
 90
        0
176
     0
290
     0
176
     0
 90
        1
176
     0
 40
0.0
176
     0
 90
        0
176
     0
290
     0
176
     1
290
     1
176
     1
290
     1
176
     1
290
     0
176
     1
290
     0
176
     1
290
     0
176
     1
290
     0
176
     1
290
     0
176
     1
290
     0
176
     1
 90
       50
176
     1
 40
0.0
176
     1
 40
1.0
176
     1
 90
        0
176
     1
 62
    18
420
        0
176
     1
 90
       50
176
     1
 90
        3
176
     1
 62
     5
420
      255
176
     1
290
     0
176
     1
 90
       50
176
     1
 90
       50
176
     1
 90
       50
176
     1
290
     0
176
     1
 90
       50
176
     1
 62
   256
176
     0
 40
1.0
176
     0
 90
        2
176
     1
  1
strokes_ogs.tif
176
     1
290
     0
176
     1
 40
1.0
176
     1
 40
1.0
176
     1
1001
ACAD
1000
AcDbSavedByObjectVersion
1070
     0
  0
VISUALSTYLE
  5
A3
102
{ACAD_REACTORS
330
95
102
}
330
95
100
AcDbVisualStyle
  2
Linepattern
 70
    14
177
     3
291
     1
 70
    58
 90
        2
176
     1
 90
        2
176
     1
 90
        1
176
     1
 90
        0
176
     1
 40
0.6
176
     1
 40
30.0
176
     1
 62
     7
420
 16777215
176
     1
 90
        1
176
     1
 90
        4
176
     1
 62
     7
176
     1
 62
   257
176
     1
 90
        7
176
     1
 90
        7
176
     1
 40
1.0
176
     1
 90
        8
176
     1
 62
     7
176
     1
 40
1.0
176
     1
 90
        1
176
     1
 90
        6
176
     1
 90
        2
176
     1
 62
     7
176
     1
 90
        5
176
     1
 90
        0
176
     1
 90
        0
176
     1
290
     0
176
     1
 90
        1
176
     1
 40
0.0
176
     1
 90
        0
176
     1
290
     0
176
     1
290
     1
176
     1
290
     1
176
     1
290
     0
176
     1
290
     0
176
     1
290
     0
176
     1
290
     0
176
     1
290
     0
176
     1
290
     0
176
     1
 90
       50
176
     1
 40
0.0
176
     1
 40
1.0
176
     1
 90
        0
176
     1
 62
    18
420
        0
176
     1
 90
       50
176
     1
 90
        3
176
     1
 62
     5
420
      255
176
     1
290
     0
176
     1
 90
       50
176
     1
 90
       50
176
     1
 90
       50
176
     1
290
     0
176
     1
 90
       50
176
     1
 62
   256
176
     0
 40
1.0
176
     0
 90
        2
176
     1
  1
strokes_ogs.tif
176
     1
290
     0
176
     1
 40
1.0
176
     1
 40
1.0
176
     1
1001
ACAD
1000
AcDbSavedByObjectVersion
1070
     0
  0
VISUALSTYLE
  5
171
102
{ACAD_REACTORS
330
95
102
}
330
95
100
AcDbVisualStyle
  2
OverhangOff
 70
    21
177
     3
291
     1
 70
    58
 90
        2
176
     0
 90
        2
176
     0
 90
        0
176
     0
 90
        0
176
     0
 40
0.6
176
     0
 40
30.0
176
     0
 62
     7
420
 16777215
176
     0
 90
        1
176
     0
 90
        4
176
     0
 62
     7
176
     0
 62
   257
176
     0
 90
        1
176
     0
 90
        1
176
     0
 40
1.0
176
     0
 90
        9
176
     2
 62
     7
176
     0
 40
1.0
176
     0
 90
        1
176
     0
 90
        6
176
     0
 90
        2
176
     0
 62
     7
176
     0
 90
        5
176
     0
 90
        0
176
     0
 90
        0
176
     0
290
     0
176
     0
 90
        1
176
     0
 40
0.0
176
     0
 90
        0
176
     0
290
     0
176
     1
290
     1
176
     1
290
     1
176
     1
290
     0
176
     1
290
     0
176
     1
290
     0
176
     1
290
     0
176
     1
290
     0
176
     1
290
     0
176
     1
 90
       50
176
     1
 40
0.0
176
     1
 40
1.0
176
     1
 90
        0
176
     1
 62
    18
420
        0
176
     1
 90
       50
176
     1
 90
        3
176
     1
 62
     5
420
      255
176
     1
290
     0
176
     1
 90
       50
176
     1
 90
       50
176
     1
 90
       50
176
     1
290
     0
176
     1
 90
       50
176
     1
 62
   256
176
     0
 40
1.0
176
     0
 90
        2
176
     1
  1
strokes_ogs.tif
176
     1
290
     0
176
     1
 40
1.0
176
     1
 40
1.0
176
     1
1001
ACAD
1000
AcDbSavedByObjectVersion
1070
     0
  0
VISUALSTYLE
  5
9F
102
{ACAD_REACTORS
330
95
102
}
330
95
100
AcDbVisualStyle
  2
Realistic
 70
     8
177
     3
291
     0
 70
    58
 90
        2
176
     1
 90
        3
176
     1
 90
        0
176
     1
 90
        2
176
     1
 40
0.6
176
     1
 40
30.0
176
     1
 62
     7
420
 16777215
176
     1
 90
        0
176
     1
 90
        0
176
     1
 62
     7
176
     1
 62
   257
176
     1
 90
        1
176
     1
 90
        1
176
     1
 40
1.0
176
     1
 90
        8
176
     1
 62
   257
176
     1
 40
1.0
176
     1
 90
        1
176
     1
 90
        6
176
     1
 90
        2
176
     1
 62
     7
176
     1
 90
        3
176
     1
 90
        0
176
     1
 90
        0
176
     1
290
     0
176
     1
 90
       13
176
     1
 40
0.0
176
     1
 90
        0
176
     1
290
     0
176
     1
290
     1
176
     1
290
     1
176
     1
290
     0
176
     1
290
     0
176
     1
290
     0
176
     1
290
     0
176
     1
290
     0
176
     1
290
     0
176
     1
 90
       50
176
     1
 40
0.0
176
     1
 40
1.0
176
     1
 90
        0
176
     1
 62
    18
420
        0
176
     1
 90
       50
176
     1
 90
        3
176
     1
 62
     5
420
      255
176
     1
290
     0
176
     1
 90
       50
176
     1
 90
       50
176
     1
 90
       50
176
     1
290
     0
176
     1
 90
       50
176
     1
 62
   256
176
     0
 40
1.0
176
     0
 90
        2
176
     1
  1
strokes_ogs.tif
176
     1
290
     0
176
     1
 40
1.0
176
     1
 40
1.0
176
     1
1001
ACAD
1000
AcDbSavedByObjectVersion
1070
     0
  0
VISUALSTYLE
  5
17F
102
{ACAD_REACTORS
330
95
102
}
330
95
100
AcDbVisualStyle
  2
Shaded
 70
    27
177
     3
291
     0
 70
    58
 90
        2
176
     1
 90
        2
176
     1
 90
        1
176
     1
 90
        2
176
     1
 40
0.6
176
     1
 40
30.0
176
     1
 62
     7
420
 16777215
176
     1
 90
        0
176
     1
 90
        4
176
     1
 62
     7
176
     1
 62
   257
176
     1
 90
        1
176
     1
 90
        1
176
     1
 40
1.0
176
     1
 90
        8
176
     1
 62
   257
176
     1
 40
1.0
176
     1
 90
        1
176
     1
 90
        6
176
     1
 90
        2
176
     1
 62
     8
420
  7895160
176
     1
 90
        3
176
     1
 90
        0
176
     1
 90
        0
176
     1
290
     0
176
     1
 90
        5
176
     1
 40
0.0
176
     1
 90
        0
176
     1
290
     0
176
     1
290
     1
176
     1
290
     1
176
     1
290
     0
176
     1
290
     0
176
     1
290
     0
176
     1
290
     0
176
     1
290
     0
176
     1
290
     0
176
     1
 90
       50
176
     1
 40
0.0
176
     1
 40
1.0
176
     1
 90
        0
176
     1
 62
    18
420
        0
176
     1
 90
       50
176
     1
 90
        3
176
     1
 62
     5
420
      255
176
     1
290
     0
176
     1
 90
       50
176
     1
 90
       50
176
     1
 90
       50
176
     1
290
     0
176
     1
 90
       50
176
     1
 62
   256
176
     0
 40
1.0
176
     0
 90
        2
176
     1
  1
strokes_ogs.tif
176
     1
290
     0
176
     1
 40
1.0
176
     1
 40
1.0
176
     1
1001
ACAD
1000
AcDbSavedByObjectVersion
1070
     0
  0
VISUALSTYLE
  5
17E
102
{ACAD_REACTORS
330
95
102
}
330
95
100
AcDbVisualStyle
  2
Shaded with edges
 70
    26
177
     3
291
     0
 70
    58
 90
        2
176
     1
 90
        2
176
     1
 90
        1
176
     1
 90
        2
176
     1
 40
0.6
176
     1
 40
30.0
176
     1
 62
     7
420
 16777215
176
     1
 90
        1
176
     1
 90
        2
176
     1
 62
     7
176
     1
 62
   257
176
     1
 90
        2
176
     1
 90
        1
176
     1
 40
1.0
176
     1
 90
        8
176
     1
 62
   257
176
     1
 40
1.0
176
     1
 90
        1
176
     1
 90
        6
176
     1
 90
        2
176
     1
 62
     7
176
     1
 90
        3
176
     1
 90
        0
176
     1
 90
        0
176
     1
290
     0
176
     1
 90
        5
176
     1
 40
0.0
176
     1
 90
        0
176
     1
290
     0
176
     1
290
     1
176
     1
290
     1
176
     1
290
     0
176
     1
290
     0
176
     1
290
     0
176
     1
290
     0
176
     1
290
     0
176
     1
290
     0
176
     1
 90
       50
176
     1
 40
0.0
176
     1
 40
1.0
176
     1
 90
        0
176
     1
 62
    18
420
        0
176
     1
 90
       50
176
     1
 90
        3
176
     1
 62
     5
420
      255
176
     1
290
     0
176
     1
 90
       50
176
     1
 90
       50
176
     1
 90
       50
176
     1
290
     0
176
     1
 90
       50
176
     1
 62
   256
176
     0
 40
1.0
176
     0
 90
        2
176
     1
  1
strokes_ogs.tif
176
     1
290
     0
176
     1
 40
1.0
176
     1
 40
1.0
176
     1
1001
ACAD
1000
AcDbSavedByObjectVersion
1070
     0
  0
VISUALSTYLE
  5
17B
102
{ACAD_REACTORS
330
95
102
}
330
95
100
AcDbVisualStyle
  2
Shades of Gray
 70
    23
177
     3
291
     0
 70
    58
 90
        2
176
     1
 90
        2
176
     1
 90
        3
176
     1
 90
        0
176
     1
 40
0.6
176
     1
 40
30.0
176
     1
 62
     7
420
 16777215
176
     1
 90
        2
176
     1
 90
        2
176
     1
 62
     7
176
     1
 62
     7
176
     1
 90
        1
176
     1
 90
        1
176
     1
 40
40.0
176
     1
 90
        8
176
     1
 62
     7
176
     1
 40
1.0
176
     1
 90
        1
176
     1
 90
        6
176
     1
 90
        2
176
     1
 62
     7
176
     1
 90
        3
176
     1
 90
        0
176
     1
 90
        0
176
     1
290
     0
176
     1
 90
        1
176
     1
 40
0.0
176
     1
 90
        0
176
     1
290
     0
176
     1
290
     1
176
     1
290
     1
176
     1
290
     0
176
     1
290
     0
176
     1
290
     0
176
     1
290
     0
176
     1
290
     0
176
     1
290
     0
176
     1
 90
       50
176
     1
 40
0.0
176
     1
 40
1.0
176
     1
 90
        0
176
     1
 62
    18
420
        0
176
     1
 90
       50
176
     1
 90
        3
176
     1
 62
     5
420
      255
176
     1
290
     0
176
     1
 90
       50
176
     1
 90
       50
176
     1
 90
       50
176
     1
290
     0
176
     1
 90
       50
176
     1
 62
   256
176
     0
 40
1.0
176
     0
 90
        2
176
     1
  1
strokes_ogs.tif
176
     1
290
     0
176
     1
 40
1.0
176
     1
 40
1.0
176
     1
1001
ACAD
1000
AcDbSavedByObjectVersion
1070
     0
  0
VISUALSTYLE
  5
17C
102
{ACAD_REACTORS
330
95
102
}
330
95
100
AcDbVisualStyle
  2
Sketchy
 70
    24
177
     3
291
     0
 70
    58
 90
        1
176
     1
 90
        2
176
     1
 90
        2
176
     1
 90
        0
176
     1
 40
0.6
176
     1
 40
30.0
176
     1
 62
     7
420
 16777215
176
     1
 90
        2
176
     1
 90
        2
176
     1
 62
     7
176
     1
 62
     7
176
     1
 90
        1
176
     1
 90
        1
176
     1
 40
40.0
176
     1
 90
       11
176
     1
 62
     7
176
     1
 40
1.0
176
     1
 90
        1
176
     1
 90
        6
176
     1
 90
        2
176
     1
 62
     7
176
     1
 90
        6
176
     1
 90
        0
176
     1
 90
        0
176
     1
290
     0
176
     1
 90
        1
176
     1
 40
0.0
176
     1
 90
        0
176
     1
290
     0
176
     1
290
     1
176
     1
290
     1
176
     1
290
     0
176
     1
290
     0
176
     1
290
     0
176
     1
290
     0
176
     1
290
     0
176
     1
290
     0
176
     1
 90
       50
176
     1
 40
0.0
176
     1
 40
1.0
176
     1
 90
        0
176
     1
 62
    18
420
        0
176
     1
 90
       50
176
     1
 90
        3
176
     1
 62
     5
420
      255
176
     1
290
     0
176
     1
 90
       50
176
     1
 90
       50
176
     1
 90
       50
176
     1
290
     0
176
     1
 90
       50
176
     1
 62
   256
176
     0
 40
1.0
176
     0
 90
        2
176
     1
  1
strokes_ogs.tif
176
     1
290
     0
176
     1
 40
1.0
176
     1
 40
1.0
176
     1
1001
ACAD
1000
AcDbSavedByObjectVersion
1070
     0
  0
VISUALSTYLE
  5
A2
102
{ACAD_REACTORS
330
95
102
}
330
95
100
AcDbVisualStyle
  2
Thicken
 70
    13
177
     3
291
     1
 70
    58
 90
        2
176
     1
 90
        2
176
     1
 90
        1
176
     1
 90
        0
176
     1
 40
0.6
176
     1
 40
30.0
176
     1
 62
     7
420
 16777215
176
     1
 90
        1
176
     1
 90
        4
176
     1
 62
     7
176
     1
 62
   257
176
     1
 90
        1
176
     1
 90
        1
176
     1
 40
1.0
176
     1
 90
       12
176
     1
 62
     7
176
     1
 40
1.0
176
     1
 90
        1
176
     1
 90
        6
176
     1
 90
        2
176
     1
 62
     7
176
     1
 90
        5
176
     1
 90
        0
176
     1
 90
        0
176
     1
290
     0
176
     1
 90
        1
176
     1
 40
0.0
176
     1
 90
        0
176
     1
290
     0
176
     1
290
     1
176
     1
290
     1
176
     1
290
     0
176
     1
290
     0
176
     1
290
     0
176
     1
290
     0
176
     1
290
     0
176
     1
290
     0
176
     1
 90
       50
176
     1
 40
0.0
176
     1
 40
1.0
176
     1
 90
        0
176
     1
 62
    18
420
        0
176
     1
 90
       50
176
     1
 90
        3
176
     1
 62
     5
420
      255
176
     1
290
     0
176
     1
 90
       50
176
     1
 90
       50
176
     1
 90
       50
176
     1
290
     0
176
     1
 90
       50
176
     1
 62
   256
176
     0
 40
1.0
176
     0
 90
        2
176
     1
  1
strokes_ogs.tif
176
     1
290
     0
176
     1
 40
1.0
176
     1
 40
1.0
176
     1
1001
ACAD
1000
AcDbSavedByObjectVersion
1070
     0
  0
VISUALSTYLE
  5
9C
102
{ACAD_REACTORS
330
95
102
}
330
95
100
AcDbVisualStyle
  2
Wireframe
 70
     5
177
     3
291
     0
 70
    58
 90
        0
176
     1
 90
        2
176
     1
 90
        0
176
     1
 90
        0
176
     1
 40
0.6
176
     1
 40
30.0
176
     1
 62
     7
420
 16777215
176
     1
 90
        1
176
     1
 90
        4
176
     1
 62
     7
176
     1
 62
   257
176
     1
 90
        1
176
     1
 90
        1
176
     1
 40
1.0
176
     1
 90
        0
176
     1
 62
   257
176
     1
 40
1.0
176
     1
 90
        1
176
     1
 90
        6
176
     1
 90
        2
176
     1
 62
     7
176
     1
 90
        3
176
     1
 90
        0
176
     1
 90
        0
176
     1
290
     0
176
     1
 90
        1
176
     1
 40
0.0
176
     1
 90
        0
176
     1
290
     0
176
     1
290
     1
176
     1
290
     1
176
     1
290
     0
176
     1
290
     0
176
     1
290
     0
176
     1
290
     0
176
     1
290
     0
176
     1
290
     0
176
     1
 90
       50
176
     1
 40
0.0
176
     1
 40
1.0
176
     1
 90
        0
176
     1
 62
    18
420
        0
176
     1
 90
       50
176
     1
 90
        3
176
     1
 62
     5
420
      255
176
     1
290
     0
176
     1
 90
       50
176
     1
 90
       50
176
     1
 90
       50
176
     1
290
     0
176
     1
 90
       50
176
     1
 62
   256
176
     0
 40
1.0
176
     0
 90
        2
176
     1
  1
strokes_ogs.tif
176
     1
290
     0
176
     1
 40
1.0
176
     1
 40
1.0
176
     1
1001
ACAD
1000
AcDbSavedByObjectVersion
1070
     0
  0
VISUALSTYLE
  5
17D
102
{ACAD_REACTORS
330
95
102
}
330
95
100
AcDbVisualStyle
  2
X-Ray
 70
    25
177
     3
291
     0
 70
    58
 90
        2
176
     1
 90
        2
176
     1
 90
        1
176
     1
 90
        1
176
     1
 40
0.5
176
     1
 40
30.0
176
     1
 62
     7
420
 16777215
176
     1
 90
        1
176
     1
 90
        0
176
     1
 62
     7
176
     1
 62
   257
176
     1
 90
        1
176
     1
 90
        1
176
     1
 40
1.0
176
     1
 90
        8
176
     1
 62
     7
176
     1
 40
1.0
176
     1
 90
        1
176
     1
 90
        6
176
     1
 90
        2
176
     1
 62
     7
176
     1
 90
        3
176
     1
 90
        0
176
     1
 90
        0
176
     1
290
     0
176
     1
 90
       13
176
     1
 40
0.0
176
     1
 90
        0
176
     1
290
     0
176
     1
290
     1
176
     1
290
     1
176
     1
290
     0
176
     1
290
     0
176
     1
290
     0
176
     1
290
     0
176
     1
290
     0
176
     1
290
     0
176
     1
 90
       50
176
     1
 40
0.0
176
     1
 40
1.0
176
     1
 90
        0
176
     1
 62
    18
420
        0
176
     1
 90
       50
176
     1
 90
        3
176
     1
 62
     5
420
      255
176
     1
290
     0
176
     1
 90
       50
176
     1
 90
       50
176
     1
 90
       50
176
     1
290
     0
176
     1
 90
       50
176
     1
 62
   256
176
     0
 40
1.0
176
     0
 90
        2
176
     1
  1
strokes_ogs.tif
176
     1
290
     0
176
     1
 40
1.0
176
     1
 40
1.0
176
     1
1001
ACAD
1000
AcDbSavedByObjectVersion
1070
     0
  0
DICTIONARYVAR
  5
EB
102
{ACAD_REACTORS
330
59
102
}
330
59
100
DictionaryVariables
280
     0
  1
1:1
  0
DICTIONARYVAR
  5
EA
102
{ACAD_REACTORS
330
59
102
}
330
59
100
DictionaryVariables
280
     0
  1
STANDARD
  0
DICTIONARYVAR
  5
AB
102
{ACAD_REACTORS
330
59
102
}
330
59
100
DictionaryVariables
280
     0
  1
STANDARD
  0
DICTIONARYVAR
  5
1B4
102
{ACAD_REACTORS
330
59
102
}
330
59
100
DictionaryVariables
280
     0
  1
Imperial24
  0
DICTIONARYVAR
  5
1B5
102
{ACAD_REACTORS
330
59
102
}
330
59
100
DictionaryVariables
280
     0
  1
Imperial24
  0
DICTIONARYVAR
  5
5A
102
{ACAD_REACTORS
330
59
102
}
330
59
100
DictionaryVariables
280
     0
  1
2
  0
DICTIONARYVAR
  5
5E
102
{ACAD_REACTORS
330
59
102
}
330
59
100
DictionaryVariables
280
     0
  1
1
  0
DICTIONARYVAR
  5
14A
102
{ACAD_REACTORS
330
59
102
}
330
59
100
DictionaryVariables
280
     0
  1
0
  0
DICTIONARYVAR
  5
14B
102
{ACAD_REACTORS
330
59
102
}
330
59
100
DictionaryVariables
280
     0
  1
0
  0
DICTIONARY
  5
2F1
102
{ACAD_REACTORS
330
2EF
102
}
330
2EF
100
AcDbDictionary
281
     1
  0
DICTIONARY
  5
2F0
102
{ACAD_REACTORS
330
2EF
102
}
330
2EF
100
AcDbDictionary
281
     1
  3
2788312824352
350
2EA
  3
2788312824368
350
2EB
  3
2788312824384
350
2EC
  3
2788312824400
350
2ED
  3
2788312824416
350
2EE
  0
DICTIONARY
  5
2F4
330
1A9
100
AcDbDictionary
280
     1
281
     1
  3
ACAD_XREC_ROUNDTRIP
360
2F5
  0
DICTIONARY
  5
191
330
22
100
AcDbDictionary
280
     1
281
     1
  0
DICTIONARY
  5
185
330
93
100
AcDbDictionary
280
     1
281
     1
  3
FBXASSET
360
186
  0
DICTIONARY
  5
183
330
92
100
AcDbDictionary
280
     1
281
     1
  3
FBXASSET
360
184
  0
DICTIONARY
  5
10B
330
94
100
AcDbDictionary
280
     1
281
     1
  3
BUMPTILE
360
10D
  3
DIFFUSETILE
360
10C
  3
FBXASSET
360
187
  3
OPACITYTILE
360
10E
  3
REFLECTIONTILE
360
10F
  0
DICTIONARY
  5
2F2
330
1A7
100
AcDbDictionary
280
     1
281
     1
  3
ACAD_XREC_ROUNDTRIP
360
2F3
  0
DICTIONARY
  5
FF
330
A7
100
AcDbDictionary
280
     1
281
     1
  3
ACAD_ROUNDTRIP_2008_TABLESTYLE_CELLSTYLEMAP
360
2E8
  0
XRECORD
  5
2EA
102
{ACAD_REACTORS
330
2F0
102
}
330
2F0
100
AcDbXrecord
280
     1
  1
AcDb_Thumbnail_Schema
102
{ATTRRECORD
341
2EB
  2
AcDbDs::TreatedAsObjectData
280
     1
291
     1
102
ATTRRECORD}
102
{ATTRRECORD
341
2EC
  2
AcDbDs::Legacy
280
     1
291
     1
102
ATTRRECORD}
  2
AcDbDs::ID
280
    10
 91
        8
102
{ATTRRECORD
341
2ED
  2
AcDs:Indexable
280
     1
291
     1
102
ATTRRECORD}
102
{ATTRRECORD
341
2EE
  2
AcDbDs::HandleAttribute
280
     7
282
     1
102
ATTRRECORD}
  2
Thumbnail_Data
280
    15
 91
        0
  0
XRECORD
  5
2EB
102
{ACAD_REACTORS
330
2F0
102
}
330
2F0
100
AcDbXrecord
280
     1
  1
AcDbDs::TreatedAsObjectDataSchema
  2
AcDbDs::TreatedAsObjectData
280
     1
 91
        0
  0
XRECORD
  5
2EC
102
{ACAD_REACTORS
330
2F0
102
}
330
2F0
100
AcDbXrecord
280
     1
  1
AcDbDs::LegacySchema
  2
AcDbDs::Legacy
280
     1
 91
        0
  0
XRECORD
  5
2ED
102
{ACAD_REACTORS
330
2F0
102
}
330
2F0
100
AcDbXrecord
280
     1
  1
AcDbDs::IndexedPropertySchema
  2
AcDs:Indexable
280
     1
 91
        0
  0
XRECORD
  5
2EE
102
{ACAD_REACTORS
330
2F0
102
}
330
2F0
100
AcDbXrecord
280
     1
  1
AcDbDs::HandleAttributeSchema
  2
AcDbDs::HandleAttribute
280
     7
 91
        1
284
     1
  0
XRECORD
  5
2F5
102
{ACAD_REACTORS
330
2F4
102
}
330
2F4
100
AcDbXrecord
280
     1
102
DISPLAYNAME
  1
Imperial24
102
FLAGS
 90
        0
  0
XRECORD
  5
186
102
{ACAD_REACTORS
330
185
102
}
330
185
100
AcDbXrecord
280
     1
 70
     1
 90
429727718
  1
7581DE8E-A623-425F-9BF4-B3F4BE6C4F9A
310
504B03040A0000080000AC70623B3DEE336E79000000790000001B0000006175746F6465736B2D64657369676E2D7061636B6167652E786D6C3C3F786D6C2076657273696F6E3D22312E302220656E636F64696E673D227574662D3822203F3E3C666F726D6174733E3C666F726D61743E687474703A2F2F736368656D612E
310
6175746F6465736B2E636F6D2F64657369676E2D7061636B6167652F323030393C2F666F726D61743E3C2F666F726D6174733E504B0304140006080800AC70623BD486FD9CA0000000F4000000130000005B436F6E74656E745F54797065735D2E786D6C7D8EC10E82300C865F65E91D8A1E8C310C0EEA1BF002731658846E
310
D98AC1B77784ABF1D8FE5FBFBF75BBCE937A534CCEB38643598122B6FEE978D0B0485F9C41B54DDD7D022595594E1A469170414C76A4D9A4D207E29CF43ECE46F218070CC6BECC4078ACAA135ACF422C856C0E68EA1BF5669944DDD7BCDE7B1F8E415D77AECB980613C2E4AC91FC167A2B244592486606FC29C8FD7F045B9A
310
EF7053A7E60B504B0304140006080800AC70623B9A2F3B5FEC0000007C01000008000000636F72652E786D6C8D90416E83301045AF62CDB632D8040820E328B4E204BD80653BC44AB011B6AB1EBF262152BBEB6A467FFE9B197D76FA9EEFE84BAFDE38DB03CD08206DA553C64E3DC470C10DA01367AB73E1970D9015B3EE61
310
9381B3697571D925E96CD03624D53AA5775178AF0320794F4D0F5E5EF52C32114372F85BB608791393CEE8AB4B708C46A1E711A3D23E73317A055E0D4D53D6C71A9FC7A1C6657D18703354232ECFED4731B6B43CBED72CDF60CE82995FF7E5AA45D00A7841488B29C5A4F8A46547AAAEA8DE48D311C2F2CDFE078A8BFA2714
310
8D0D87627FF78979E0343DF21870966F59A4F2082AD52D37FE03504B0304140006080800AC70623B55019EA25F0000007C00000007000000636E782E786D6C4DCB3B0E80201045D1AD90E915ED2CF8AC45050C11660C8261F98AB1B07AC9C97D42D718D865D3E909258CFD00CCE24AC6E326A164D74DC0B4128928FF326038
310
472BA13128B1252AC747C6BAB984FC68F0B87FE8960A5C09FE86CFB69FBA01504B0304140006080800AC70623B6E137E0172010000D40300000C0000006662782F636F72652E786D6CC5535B6E833010BC8AE5DF0A6C0810121947A1554ED00B38E05014B091B1518EDFE511A5A9D22AFD2A1F60CDEC7A67C698ED2E6D8306
310
69FA5AAB0C073EC548AA4297B5AA32ECECC94B31DA7166B4B65FCA3052A295191E61CC5965B4EB16A8D0CA4A650155BA940B28FA5E5A8C8A061619EE8B0FD90A5F380B15FDD9EF44711695F4031F68A8E3ACB70604A079C8F8C6FC74BC3032E39C3957970B5B9730AD3ED5D2601EE7691A25EBC4DB1FF2C48B9255EEA5797C
310
F0A2FDE62D3C6C8268FD9A3032367366EBF6AAAE30525859621E52BAF182C0A3E17B106D69BC0DE3179A6E2965642CBF6B725DF96493AB955D858BDCB9ADC73C002113F1CD2D4464512F06D04338236388F09912BE0F1A028190AD3836571F67800659586D22604AED6ED4201A27612AF5E9F4A09F178CCC9D3075DA1C5C3F
310
9C113E3DE3F71DE1A885AAC084B0B03C3A3BEA64B38625B44E1A6FB017A4B46945F39C8D5F1CFE89BA897F28A9D08D36FFA5882C074496DF838CF7917F02504B0304140006080800AC70623BE001BAC07D0000009D0000000B0000006662782F636E782E786D6C4DCCD10AC2201886E15B91FFDCA6536B037548D87D8CE686
310
E4344CA3CB6F8B1D74F4C1C3C72B87CF1AD0DBE5974F51013D11402EDED3E4E3A2A096197780062D734AE5EF06288EAB53B03368B9E4549F074D6E1E6B289B061F1F07124689687987B9601C7373BD60C36E065B6A6DDF7341A93843A365F32B6DBB87F517504B0304140006080800AC70623B8E5068122901000012020000
310
310000006662782F30333130353234382D343533342D344143372D413346412D4531454539393435313135362F636F72652E786D6C8D515B6EC32010BC0AE22B55850D364E93081345557A825E801892A2C460F1A872FC2EB523B57FF961D1EECCECECAED8DFC71BFA36215AEF7ACC2A8A917183D7D65D7A9CD3996C30DA4B
310
11BC4F7F601839359A1E973496E2127C9E96D4E05D322E41D6796D96A48AD1248C861B7C7A1C872F33AA4AE5048878AD26355CD5C554AC8232E0A4882980013437292F96B465B46BF886F0AEE5841FDEDFC8A1FD3890233B1EB75BDE31D6AD453D13A5C8D9EA856E35D8B1676BC2B322852C45B2E3C3FE108C4A4663D950BA
310
258C11DA7C32BEA3DDAEE95EE96647A9A80BFC1F294FFA4952B62EB5CD6277A6452C99A8E78214DAE7D3ED61C6DC271F122AFD56D10C2F305545CB6A60FC1908E383E29A2F8A31F900EB5D5D4F8065DD2CBBE652D4E542107ECF07B15C53FE00504B0304140006080800AC70623B503B51794E010000330300003000000066
310
62782F30333130353234382D343533342D344143372D413346412D4531454539393435313135362F636E782E786D6CD593C16EC32010447F0571AD6CE3D489D20813A9877E410FBD62D82434182CC055F3F75D1292E692438FBD206B7698593D61BEFD1E2DF982108D773D6D6B460938E5B571FB9ECE6957AD29D90A1EBC4F
310
77364A9C1CA1A759A682EF839FA72269D8C9D92654AD71C72206887E0E0A22CAF926B15E498B01E0AA19451807D01A34B919F16B070157417138917400F2F6FA41FCF0092A45DEE414C19BDC21783E4BD39D891265658C3D8DEA00A3ACE59CBC8678ACB54CB26EEB6BD7839D7E9348BE70AD9C8321B9BCA7F9A4A26C542347
310
DEE050F09802D22BA6749A800A394DD62899107273365E3C82CFC6A55557BC06C10774B7ABE7AEC3B0F34CF06446280E154026D0542C187BA9DAB6628BF7B6DBB0E566B17C62EB0D63BCC976C107EF6DB9843110FC449477095CA2A2E54D1E3FC2577C449B80AC7D38FD01240228AD173AB78CFFCCA739BF6FC415F02F103F
310
504B0304140006080800AC70623B38FA165F680500003C100000340000006662782F30333130353234382D343533342D344143372D413346412D4531454539393435313135362F6F626A656374732E786D6CAD575D6FA33814FD2B887D0E8424EDB42BCAA8499A2A1A756634D18CF6A15264C0A16CC146B6E9A4FBEBF7180C
310
019276B21F7908D8D8F7F3DCE36BFFE33ECFAC172A64CAD98DED3963DBA22CE271CA921BBB54BBD1956D7D0C7CC1B9EA2CB32D46727A63EB693BF013C1CBC24CC57447CA4C0D6657F33F2C1951466D2BCA889437B68C9E684E1C522A1E53F9ECC4441127D9ED1DCFA917F6C52682144F03A105119429588A790629566D94D7
310
1F8E6D37F05DFD3DF0F5BF59357D7B955BF9D3D79F32A9088B8E940DC44CBDD9F26E72713DBA98CDA6A3D9E5C41BCD57F3E5C8FB301D2F2E178BEBDBBB6B28964A4092B144D09D1DDC2336228D7CB7FED45A6C0C3F6552C419A351E53F3CAC6C3612635A5016238F2995D0D6F17ADC1F7A3A369DCF533D362ABBD3E779D5DD
310
D111D4D8DE3CBB96F2F04FB820CF41859054A3AA8E8F71B4C6DFF810B590F3CC7C4BA5951345454A322B4B4341C4AB1D60A95E12F83D311A9D42235C7B6007DE415ED75694C6AFB17BCACA5D99651A9A7650217B0BFC53252BCBD2BFA838AD0D36215765CAD4957148BD16D40EAE7DB79A0C7CFD984ECCC73A90D62E230952
310
0E37EBAF034717BAF6D64B3BF8B40AF71B5D8FA79517821754280D1F40AB495CF3D451326ABDB332A737C0995ECC0F41F986C87F46F91E4C41DE44BA9FED67468B1284C91D173972E38CAB9F356E5E46EDDBF10BF86CB0FA784D3BF3AF16FB6E6B6C9F30DECA1FC0A55373F5DFF3D78F5917A99DF405FE0B0A8C8BA909E526
310
2219A8E72165488806A595714C81CB77E1DE0ED6604A303B76912C680372F4E2BB2FF88EFF5A36D8AA52DF79322474C0B767303F625995056C7B032C473C592936CEBD15F38BFFA5666E979B4F9B52EC48441F0CB12CE92E65A9C2D979006FD7A05E227A1E3DD3D79F5CC470F438099B6E1272A34A22DA3AE63AF0497358E8
310
C141734F41847D09D79CE7FF42C3432A239A6584515E365ADA634863B52519D327A00AEB804E2703140BFA92EA4EA2B7A26716CEFA48A4850E597BE8B53CEDBCE1CBF7F56780D20EE6AF73A0F5F9B02A3CD07DC4332EB6E1EBB666421BE0C39E3EBA7FF4E16D22EA6A29407C85E586724C88B771BADB9512BC7B228A3FD68B
310
6EA65A22397E690AA8D158D7E40CEC8CDA23C2C0B7D1898640101CEC9C6D531CE328CB93CABBBA870A6425F70DF96199175B92F392A973C2346EFC69AC6F8577BB18F993A8E8C90E36D573340765C7343EA4AA87027D049DF0A9979E0F1757DEF2EEEA6E747B39412B35B9588DAEE7ABD9683E5DCDE677978BD9EAFAB6B5A8
310
B224F09B13AA5B8388264E44BF14A909F3F7F5A16CEDE08128E9DED705E526F5F3FBDA415BECBBD80380B71BD77991D19C3245347C1FF44BF68DA0ABE8C9A8E7D73949E81952BEDC6F063660E68C7D5F75A9D19F83BD6676A16BE1A410F554E621236936D8681C770A9618B79B50B6CF9AD19BA11E9978A20F953C4B63104E
310
6C2594E7548176CE607B915309C474BBF2D8DC1ECED8FD52F7838A84196D2C79226889330954036E65A4FAF3D66F68E174177563E3B0739EF1670AD1B690EA1B1BFCA6D2884A27C4F1A81B9F4A3820802EAC2541408DB02443675D6F6AC7ED2E1D1BD00F4E40A3BF5D724EB764FCEA116F4E8A02A7768F562BDB8C82E81F39
310
DE98631185D7B054AD2F8789D6994A0D2AAB76CADC0DD0423C1BD57BD4D7FB6E794EB5A61791B3EE49EF82A0963A524424D5BD40DB674CBA5D7E75D10A58EB2F569195097279BEA491A00073A90B1C28022A8CCC82284075F1FBE357C17117CDAD550A083C2E789E736606B7E62E6B6D9E70338D1F410B545F3FE464EC798F
310
55D76F2E22DB9048EA90583E63A22938EDC1006B00E4D1716A52E0EA1C0C96AF9796393066105A81F6A829ADAFE1168A47DF1C75A974C9B278B7F177ABA5008340CB1EFC0D504B0304140006080000AC70623B000000000000000000000000350000006662782F30333130353234382D343533342D344143372D413346412D
310
4531454539393435313135362F76657274696365732E62696E504B0304140006080800AC70623BF270F1330600000004000000360000006662782F30333130353234382D343533342D344143372D413346412D4531454539393435313135362F747269616E676C65732E62696E636660600000504B0304140006080000AC70
310
623B000000000000000000000000370000006662782F30333130353234382D343533342D344143372D413346412D4531454539393435313135362F617474726962757465732E62696E504B0304140006080800AC70623B08DA0BD19000000041010000360000006662782F30333130353234382D343533342D344143372D41
310
3346412D4531454539393435313135362F6469726563746F72792E786D6C858F410AC3201045AF22B36F53E9A60B35CBEEBAE80D244E44489C6234F4F835464A48035D0DF398FF9F8AF63D0E6CC63039F212F8F9020C7D47C6792B21C5FE7403D62A1188E2E60C98D7234A5830286103A55745067B9D86B8A3CF9C7F90C11D
310
E607FB144396D7B6A82D282E9A152AD114D5EF2CB866EEE831B8EEA07A7BB5A8D7D61A2BAAEB7FD5F70921FF497D00504B0304140006080800AC70623BF2C5666EFF000000A00100003B0000006662782F30333130353234382D343533342D344143372D413346412D4531454539393435313135362F7265736F7572636573
310
2F636F72652E786D6C8D504B6E833010BD0A9A6D65B00910888CA3D02A27E8052C33A156821DF953F5F8B5132AB5BB6E6646EFA3797AFCF8B5DE8A4F745E5B33022B291468949DB5594688E1427A288E823B6BC32F191446AE38428641F0C5D978DF20654D4013126AEC8C1B28BDC70085BAA56304AF3E7095A58C2129FCB5
310
BC4B75950B96AC4C74D209EE834B018AE7933C4138F4363A859E574F56F018F5BC69F49C7EEA8B4607A29DFABEE9F62D399DA78E34DD6E22FDD49E49731ADEEAF3C09AFD6BC7AB6C163CE8F527A3722803CE206A4A07C218A1F53B6B0EB43DD4ED0BED0F94F22ACBFF98E27DFEA7296A1376F516F769F320580AF22004AF72
310
5F693DCA4C3B772BBE01504B010214000A0000080000AC70623B3DEE336E79000000790000001B00000000000000000000000000000000006175746F6465736B2D64657369676E2D7061636B6167652E786D6C504B01021400140006080800AC70623BD486FD9CA0000000F40000001300000000000000000000000000B200
310
00005B436F6E74656E745F54797065735D2E786D6C504B01021400140006080800AC70623B9A2F3B5FEC0000007C010000080000000000000000000000000083010000636F72652E786D6C504B01021400140006080800AC70623B55019EA25F0000007C000000070000000000000000000000000095020000636E782E786D
310
6C504B01021400140006080800AC70623B6E137E0172010000D40300000C00000000000000000000000000190300006662782F636F72652E786D6C504B01021400140006080800AC70623BE001BAC07D0000009D0000000B00000000000000000000000000B50400006662782F636E782E786D6C504B010214001400060808
310
00AC70623B8E506812290100001202000031000000000000000000000000005B0500006662782F30333130353234382D343533342D344143372D413346412D4531454539393435313135362F636F72652E786D6C504B01021400140006080800AC70623B503B51794E010000330300003000000000000000000000000000D3
310
0600006662782F30333130353234382D343533342D344143372D413346412D4531454539393435313135362F636E782E786D6C504B01021400140006080800AC70623B38FA165F680500003C10000034000000000000000000000000006F0800006662782F30333130353234382D343533342D344143372D413346412D4531
310
454539393435313135362F6F626A656374732E786D6C504B01021400140006080000AC70623B0000000000000000000000003500000000000000000000000000290E00006662782F30333130353234382D343533342D344143372D413346412D4531454539393435313135362F76657274696365732E62696E504B01021400
310
140006080800AC70623BF270F133060000000400000036000000000000000000000000007C0E00006662782F30333130353234382D343533342D344143372D413346412D4531454539393435313135362F747269616E676C65732E62696E504B01021400140006080000AC70623B0000000000000000000000003700000000
310
000000000000000000D60E00006662782F30333130353234382D343533342D344143372D413346412D4531454539393435313135362F617474726962757465732E62696E504B01021400140006080800AC70623B08DA0BD1900000004101000036000000000000000000000000002B0F00006662782F30333130353234382D
310
343533342D344143372D413346412D4531454539393435313135362F6469726563746F72792E786D6C504B01021400140006080800AC70623BF2C5666EFF000000A00100003B000000000000000000000000000F1000006662782F30333130353234382D343533342D344143372D413346412D453145453939343531313536
310
2F7265736F75726365732F636F72652E786D6C504B0506000000000E000E0080040000671100000000
  0
XRECORD
  5
184
102
{ACAD_REACTORS
330
183
102
}
330
183
100
AcDbXrecord
280
     1
 70
     1
 90
429727718
  1
778E3A9F-1AF3-452F-85C1-1BC15BD3F630
310
504B03040A0000080000AC70623B3DEE336E79000000790000001B0000006175746F6465736B2D64657369676E2D7061636B6167652E786D6C3C3F786D6C2076657273696F6E3D22312E302220656E636F64696E673D227574662D3822203F3E3C666F726D6174733E3C666F726D61743E687474703A2F2F736368656D612E
310
6175746F6465736B2E636F6D2F64657369676E2D7061636B6167652F323030393C2F666F726D61743E3C2F666F726D6174733E504B0304140006080800AC70623BD486FD9CA0000000F4000000130000005B436F6E74656E745F54797065735D2E786D6C7D8EC10E82300C865F65E91D8A1E8C310C0EEA1BF002731658846E
310
D98AC1B77784ABF1D8FE5FBFBF75BBCE937A534CCEB38643598122B6FEE978D0B0485F9C41B54DDD7D022595594E1A469170414C76A4D9A4D207E29CF43ECE46F218070CC6BECC4078ACAA135ACF422C856C0E68EA1BF5669944DDD7BCDE7B1F8E415D77AECB980613C2E4AC91FC167A2B244592486606FC29C8FD7F045B9A
310
EF7053A7E60B504B0304140006080800AC70623BFD5588D4EC0000007C01000008000000636F72652E786D6C8D90416EC3201045AF82665B6103891DC7C24471939CA01740405C94182C03558F5F9C3852BBEB6A467FFE9B197D7EF81EEFE8CBCCC17AD7012D0820E394D7D60D1DA478C50DA083E0B3F7F1970D9093A3E960
310
9141F061F6695A25E55D342E66D5796D56518660222075CF4D07417D9A511632C5EC08B76292EA260753D05797E194AC46CF2356E77DF66ACD0C62C768BD63971E5727D2E06DDF9C71BF7B3FE10BABF79BFA488FE4DCF07281058F767CDD57B391D168108C903DA61413F641B72DA95A56BD91A62584978BFD0F9426FD4F28
310
5917376C7DF7890510343FF218085E2E59E4F2082AD72537F103504B0304140006080800AC70623B55019EA25F0000007C00000007000000636E782E786D6C4DCB3B0E80201045D1AD90E915ED2CF8AC45050C11660C8261F98AB1B07AC9C97D42D718D865D3E909258CFD00CCE24AC6E326A164D74DC0B4128928FF326038
310
472BA13128B1252AC747C6BAB984FC68F0B87FE8960A5C09FE86CFB69FBA01504B0304140006080800AC70623BB5D38BAD72010000D40300000C0000006662782F636F72652E786D6CC553DB8E823014FC95A6AF1B68C11B9A52A3AB7EC1FE4085CA36424B4A4BFCFC3D5C8CEBC635EED3F200CDCC393D3353CAD697AA44AD
310
B48D323AC5514831923A33B9D2458ABD3B0509466BCEAC31EE5B19465A5432C51D8C392BACF1F50865463BA91DA0DAE4720445D348875156C222C54DF6292B110AEFA0A23987B5C8CEA2906114020D759C35CE8200340CE9DE989F8E1746069C33EF553EB22A8769EAA4A4C57C1147F3457CD806B31D4D82E936D907DBC5FB
310
2E38C4F3E564BE8936749F30D23573E65475559759299CCC318F295D065114D0F8239AAEE86C15CFDE68B2A29491AEFCAEC9D7F98B4D5E69378947B9435B837904427AE2875B88C8A146B4A0877046BA10E1D3277C1F340402213B712CAF3ECE00B53273C64E81C98DBF51AD28BD84A934A4FD837E5F303274C2D47E7370FD
310
7046FCF28CE73BC2510B5D8009E16079F4AED3C9060D6368B5B441EB2E481B5B89F2351B4F1CFE89BA897F282933A5B1FFA5888C0744C6DF8374F7917F01504B0304140006080800AC70623B09885E1C7E0000009D0000000B0000006662782F636E782E786D6C4DCCDF0A83201C86E15B91DFB9CBA6FD11D41063F711CB42
310
663A9C8E5DFE6A74B0A30F1E3E5E317C368FDE36BD5C0C12EA0B0164C33DCE2EAC124A5E700F685022C598FF6E80C2B459090783126B8AE579D26C97A9F8BCAB77E17122E586D5843498B3EE8699D114F39E5E713D76EDA84DCBB569A052A2FA95F63DC2EA0B504B0304140006080800AC70623B961D28872A010000120200
310
00310000006662782F33394334313030352D393437462D344341332D393833322D3144373644414336394143352F636F72652E786D6C8D515B6EC32010BC8AC557AA0A1BFC4A1C61A2C8514FD00B10435294182C1E558EDFA576A4F62F3F80666766875D76784CF7EC5B39AFADE911CD09CA9419ADD4E6DAA3182E7887B203
310
67CEDAF08786322326D5A30423CEAECEC67985466B8232015063A55A41E1BD0A281BEFF0E8911FBFD42472110330FC2D9FC578135795D31CCAC0E3CC070701B2A5493A11AFBAA1A68434B8ABB71FB81E8E15EE765589E969DB9E8E43DB1D8786158B90B318B55CE55A421C7DD1CABD6A92C49C053D3DE38F4E89A024E22521
310
1DA61493F293D67BD2ECCBE69DECF684B022D1FF89E22C5F14456D4255AE711799479CB2622970266D3CDF9F61D463B62E64A9DFC6ABF10D7192C35CCA0A040B11BE0F8E6DBD3AFA601D8C77733B0397C290926D5B7356A40DC1F5BB3EB8D336F90F504B0304140006080800AC70623B503B51794E01000033030000300000
310
006662782F33394334313030352D393437462D344341332D393833322D3144373644414336394143352F636E782E786D6CD593C16EC32010447F0571AD6CE3D489D20813A9877E410FBD62D82434182CC055F3F75D1292E692438FBD206B7698593D61BEFD1E2DF982108D773D6D6B460938E5B571FB9ECE6957AD29D90A1E
310
BC4F77364A9C1CA1A759A682EF839FA72269D8C9D92654AD71C72206887E0E0A22CAF926B15E498B01E0AA19451807D01A34B919F16B070157417138917400F2F6FA41FCF0092A45DEE414C19BDC21783E4BD39D891265658C3D8DEA00A3ACE59CBC8678ACB54CB26EEB6BD7839D7E9348BE70AD9C8321B9BCA7F9A4A26C54
310
2347DEE050F09802D22BA6749A800A394DD62899107273365E3C82CFC6A55557BC06C10774B7ABE7AEC3B0F34CF06446280E154026D0542C187BA9DAB6628BF7B6DBB0E566B17C62EB0D63BCC976C107EF6DB9843110FC449477095CA2A2E54D1E3FC2577C449B80AC7D38FD01240228AD173AB78CFFCCA739BF6FC415F02F
310
103F504B0304140006080800AC70623B2EA4D28F640500003C100000340000006662782F33394334313030352D393437462D344341332D393833322D3144373644414336394143352F6F626A656374732E786D6CAD575D739B3814FD2B0CFB6C30B1D3263B844E6CC71D4F376DA79E76F621331E01326103122389C4E9AFDF
310
231018B09D7A3FFC609090EEE7B94757FE875D9E59CF54C894B31BDB73C6B64559C4E394253776A9B6A32BDBFA10F88273D559665B8CE4F4C6D6D376E027829785998AE99694991ACC2E677F5A32A28CDA569411296F6C193DD29C38A4543CA6F2C98989224EB2DD399E532FEC8B4D04291E07420B222853B014F30C52ACDA
310
28AF3F1CDB6EE0BBFA7BE0EB7FB36A727A955BF9D3D79F32A9088B0E940DC44CBCE9E2EEE2F27A74399D4E46D37717DE68B69C2D46DEFBC978FE6E3EBFBEBDBB8662A90424194B04DDDAC147C446A491EFD69F5A8B8DE1C74C8A386334AAFC878795CD46624C0BCA62E431A512DA3A5E8FFB434FC7A6F379A2C7466577FA3C
310
AFBA3B3A821ADB9B67D7521EFE0517E439A810926A54D5F1318ED6F81BEFA316729E996FA9B472A2A84849666569288878B5032CD54B02BF2746A35368846B0FECC0DBCBEBDA8AD2F835768F59B92DB34C43D30E2A646F807FAA646559FA938AE3DA60137255A64C5D1987D46B41EDE0DA77ABC9C0D78FC985F95807D2DA66
310
2441CAE166FD75E0E85CD7DE6A61079F96E16EADEBF1B8F242F0820AA5E1036835896B9E3A4A46AD7756E6F40638D38BF93E28DF10F9CF28DFBD29C89B4877D3DDD468518230B9E522476E9C71F5B3C6CDCBA87D3B7C019F0D561FAE6967FED562DF6D8DED13C6A9FC015C3A3557FF3D7FFD987591DA495FE03FA3C0B89898
310
50AE2392817AEE53868468505A19C714B87C1BEEEC6005A604B36317C9823620072FBEFB8CEFF8AF6583AD2AF59D274342077C7B06F323965559C0B6136039E0C94AB171EE54CC2FFF979AB95DAC3FAD4BB12511BD37C4B2A0DB94A50A67E71EBC5D837A89E879F4445F5FB888E1E86112D6DD24E4469544B475CC75E093E6
310
B0D083BDE69E8208FB12AE39CFFF8586FB544634CB08A3BC6CB4B4C790C66A4B32A64F4015D6019D5C0C502CE873AA3B89DE8A9E5938EB2391163A64EDA1D7F2B473C297EFABCF00A51DCC5EFF20AF5DC20CF7741FF18C8B4DF8BAA999D006F8B0A78FEE1F7D789B88BA5A0A105F61B9A11C13E24D9C6EB7A504EF1E89E28F
310
D5BC9BA996480E5F9A026A34D63539053BA3F68830F06D74A2211004073B679B14C738CAF2A8F2AEEEA10259C93D213F2CF36243725E32754E98C68D3F8DF5ADF06E17235F888A1EED605D3D473350764CE31309D547D0119F7AE979FFFEEA6E727BBD1C79B74BB4529717CBD1D5E5DC1B79B3B977395B4C96EF2638E6FA15
310
D09C50DD1A44347122FAA5484D98BFAFF6656B07F74449F7635D506E523FBFAF1CB4C5BE8B3D0078BB71951719CD295344C3F75EBF64DF08BA8A9E8C7A7E9593849E21E5CBC7F5C006CC9CB1EFAB2E35FA32D86B66E7BA168E0A518F651E329266838DC671A7608971BB0965FBAC19BD19EA918927FA50C9B33406E1C45642
310
794E1568E70CB6173995404CB72B8FCDEDE18CDDCF753FA84898D1C6924782963893403548A78C547FDEFA0D2D9CEEA26E6C1C76CE13FE4C21DA16527D6383DF541A51E984381E75E353090704D085B52408D0139664E8ACEB4DEDB8DDA56303FAC10968F4B74BCEE9968C5F3DE2CD4951E0D4EED16A659B5110FD23C71B73
310
2CA2F01A96AAF5653FD13A53A909C03570A77DA0857832AA77A8AFB7DDF29C6A4D2F2267DD93DE04412D75A48848AA7B810EBA31E976F1D5452B60ADBE58455626C8E5F992468202CCA52E70A008A830320BA200D5F9EF0F5F05C75D34B7962920F030E779CE9919DC9ABBACB57EC4CD347E002D507DFD901763CF7BA8BA7E
310
7311D984445287C4F209134DC1690F065803200F8E53733D73750E06CB570BCB1C185308AD407BD094D6D7700BC5A36F8EBA54BA6459BCD9F8BBD552A040A0650FFE06504B0304140006080000AC70623B000000000000000000000000350000006662782F33394334313030352D393437462D344341332D393833322D3144
310
373644414336394143352F76657274696365732E62696E504B0304140006080800AC70623BF270F1330600000004000000360000006662782F33394334313030352D393437462D344341332D393833322D3144373644414336394143352F747269616E676C65732E62696E636660600000504B0304140006080000AC70623B
310
000000000000000000000000370000006662782F33394334313030352D393437462D344341332D393833322D3144373644414336394143352F617474726962757465732E62696E504B0304140006080800AC70623B08DA0BD19000000041010000360000006662782F33394334313030352D393437462D344341332D393833
310
322D3144373644414336394143352F6469726563746F72792E786D6C858F410AC3201045AF22B36F53E9A60B35CBEEBAE80D244E44489C6234F4F835464A48035D0DF398FF9F8AF63D0E6CC63039F212F8F9020C7D47C6792B21C5FE7403D62A1188E2E60C98D7234A5830286103A55745067B9D86B8A3CF9C7F90C11DE607
310
FB144396D7B6A82D282E9A152AD114D5EF2CB866EEE831B8EEA07A7BB5A8D7D61A2BAAEB7FD5F70921FF497D00504B0304140006080800AC70623B95BFD5E5FE000000A00100003B0000006662782F33394334313030352D393437462D344341332D393833322D3144373644414336394143352F7265736F75726365732F63
310
6F72652E786D6C8D50596E833010BD0A9ADFCA603B1B41C611699213F40296992456828DBC543D7E4DA052FBD79F99D15B344F4F1CBE8667F1893E18675B60258502AD76BDB1B71652BC921A8A8314DEB9F84B06855503B630C120C5CDBB342E907636A28D19B5AEC70554216084423FF3D142D0771C54A952CC8AF02847A5
310
1FEA86252B339D755284E87380627E324D901E834B5E6310D5CC4A9192E9178DE9F34F7335E841EE38DBEEF8A5239B13ADC9FA589FC971F77E2217BEDDAFB61DEBE8B916D56496229AE127A3F6A822F62039A57BC218A1FC83AD1BBA69F8E68DD60DA5A29AE47F4C69ECFF694AC6C6155FE2CEB60092E5202F428A6AEA2BAF
310
5799794FDDCA6F504B010214000A0000080000AC70623B3DEE336E79000000790000001B00000000000000000000000000000000006175746F6465736B2D64657369676E2D7061636B6167652E786D6C504B01021400140006080800AC70623BD486FD9CA0000000F40000001300000000000000000000000000B20000005B
310
436F6E74656E745F54797065735D2E786D6C504B01021400140006080800AC70623BFD5588D4EC0000007C010000080000000000000000000000000083010000636F72652E786D6C504B01021400140006080800AC70623B55019EA25F0000007C000000070000000000000000000000000095020000636E782E786D6C504B
310
01021400140006080800AC70623BB5D38BAD72010000D40300000C00000000000000000000000000190300006662782F636F72652E786D6C504B01021400140006080800AC70623B09885E1C7E0000009D0000000B00000000000000000000000000B50400006662782F636E782E786D6C504B01021400140006080800AC70
310
623B961D28872A0100001202000031000000000000000000000000005C0500006662782F33394334313030352D393437462D344341332D393833322D3144373644414336394143352F636F72652E786D6C504B01021400140006080800AC70623B503B51794E010000330300003000000000000000000000000000D5060000
310
6662782F33394334313030352D393437462D344341332D393833322D3144373644414336394143352F636E782E786D6C504B01021400140006080800AC70623B2EA4D28F640500003C1000003400000000000000000000000000710800006662782F33394334313030352D393437462D344341332D393833322D3144373644
310
414336394143352F6F626A656374732E786D6C504B01021400140006080000AC70623B0000000000000000000000003500000000000000000000000000270E00006662782F33394334313030352D393437462D344341332D393833322D3144373644414336394143352F76657274696365732E62696E504B01021400140006
310
080800AC70623BF270F133060000000400000036000000000000000000000000007A0E00006662782F33394334313030352D393437462D344341332D393833322D3144373644414336394143352F747269616E676C65732E62696E504B01021400140006080000AC70623B0000000000000000000000003700000000000000
310
000000000000D40E00006662782F33394334313030352D393437462D344341332D393833322D3144373644414336394143352F617474726962757465732E62696E504B01021400140006080800AC70623B08DA0BD190000000410100003600000000000000000000000000290F00006662782F33394334313030352D393437
310
462D344341332D393833322D3144373644414336394143352F6469726563746F72792E786D6C504B01021400140006080800AC70623B95BFD5E5FE000000A00100003B000000000000000000000000000D1000006662782F33394334313030352D393437462D344341332D393833322D3144373644414336394143352F7265
310
736F75726365732F636F72652E786D6C504B0506000000000E000E0080040000641100000000
  0
XRECORD
  5
10D
102
{ACAD_REACTORS
330
10B
102
}
330
10B
100
AcDbXrecord
280
     1
270
     1
271
     1
  0
XRECORD
  5
10C
102
{ACAD_REACTORS
330
10B
102
}
330
10B
100
AcDbXrecord
280
     1
270
     1
271
     1
  0
XRECORD
  5
187
102
{ACAD_REACTORS
330
10B
102
}
330
10B
100
AcDbXrecord
280
     1
 70
     0
 90
1778669749
  1
7E355024-1ABF-47F9-966E-F2159FBE82AB
310
504B03040A0000080000AC70623B3DEE336E79000000790000001B0000006175746F6465736B2D64657369676E2D7061636B6167652E786D6C3C3F786D6C2076657273696F6E3D22312E302220656E636F64696E673D227574662D3822203F3E3C666F726D6174733E3C666F726D61743E687474703A2F2F736368656D612E
310
6175746F6465736B2E636F6D2F64657369676E2D7061636B6167652F323030393C2F666F726D61743E3C2F666F726D6174733E504B0304140006080800AC70623BD486FD9CA0000000F4000000130000005B436F6E74656E745F54797065735D2E786D6C7D8EC10E82300C865F65E91D8A1E8C310C0EEA1BF002731658846E
310
D98AC1B77784ABF1D8FE5FBFBF75BBCE937A534CCEB38643598122B6FEE978D0B0485F9C41B54DDD7D022595594E1A469170414C76A4D9A4D207E29CF43ECE46F218070CC6BECC4078ACAA135ACF422C856C0E68EA1BF5669944DDD7BCDE7B1F8E415D77AECB980613C2E4AC91FC167A2B244592486606FC29C8FD7F045B9A
310
EF7053A7E60B504B0304140006080800AC70623BDCE527C8EB0000007C01000008000000636F72652E786D6C8D90416EC3201045AF82665B6103B15DC7C24471249FA01740405C94182C03558F5F9C3852BBEB6A467FFE9B197D7EFA9EEFE8CBACC17AD7032D0820E394D7D64D3DA478C52DA093E0ABF7F1970D9093B3E961
310
9341F069F569D925E55D342E66D5796D76518660222075CF4D0F417D9A591632C5EC08B76291EA262753D05797E194AC46CF2356E77DF66ACD0A621C9B73335C463C5E0E1457EC9DE2A1612D3E9233A92BD2D66333F07283058F767EDD57AB91D168108C9023A61413F641AB8ED41DABDF48DB11C2CBCDFE074A8BFE2794AC
310
8B07B6BFFBC402089A1F790C042FB72C72790495EB969BF801504B0304140006080800AC70623B55019EA25F0000007C00000007000000636E782E786D6C4DCB3B0E80201045D1AD90E915ED2CF8AC45050C11660C8261F98AB1B07AC9C97D42D718D865D3E909258CFD00CCE24AC6E326A164D74DC0B4128928FF32603847
310
2BA13128B1252AC747C6BAB984FC68F0B87FE8960A5C09FE86CFB69FBA01504B0304140006080800AC70623BB24894EB71010000D40300000C0000006662782F636F72652E786D6CC5535B6E833010BC8AE5DF0A6C085012194749244ED00B38E05014B091B1518EDFE511A5A9D228FD2A1F60CDEC7A67C6986D2F6D830669
310
FA5AAB0C073EC548AA4297B5AA32ECECC94B31DA7266B4B6DFCA3052A295191E61CC5965B4EB16A8D0CA4A650155BA940B28FA5E5A8C8A061619EE8B4FD90A5F380B15FDD9EF44711695F4031F68A8E3ACB70604A079C8F8C6FC74BC3032E39C3957970B5B9730AD3ED5D2609EE7C92ED91F722F3FAC022F0ADF036F9F84A9
310
B7A63B1A47348DF364CFC8D8CC99ADDBABBAC2486165897948E9DA0B028F861F41B4A1F1268CDF68BAA19491B1FCAEC975E58B4DAE5676152E72E7B61EF300844CC40FB7109145BD18400FE18C8C21C2674AF83E68080442B6E2D85C7D9C011A6461B5898029B5BB5183689C84A9D4A7D3837E5F303277C2D4697370FD7046
310
F8F28CE73BC2510B5581096161797476D4C9660D4B689D34DE602F4869D38AE6351B4F1CFE89BA897F28A9D08D36FFA5882C074496DF838CF7917F01504B0304140006080800AC70623B3A54DFB77D0000009D0000000B0000006662782F636E782E786D6C4DCCD10A83201805E05791FFDEA5EBA76DA046A37C8F581632D3
310
613AF6F8B3D1C52E0E073E0E47B49FD591B7899B0D5E023F3120C63FC264FD2221A7995E81B44AC410D2DF0C881F5723616750628921BF0E9ACC3C66978A3AEB9F07B2A6D77AB87514F95953EC39D20EEF9C6AD60C88BC2EB940A544F57B2ABD1FAB2F504B0304140006080800AC70623B4A17098729010000120200003100
310
00006662782F30364446464539412D343132462D344431342D413442312D4630364534343133343431372F636F72652E786D6C8D515B6EC32010BC0AE22B55850D0E76930813A54A7C825E80DA244589C1E251E5F85D6A476AFFF2018B7667666759B1BF8F37F4AD7D30CEB6981514236D7B37187B69718A67B2C1682F8577
310
2EFE816164D5A85B9CD3588A8B77695A52BDB351DB0859EB06BD2455083A62D4DFE0D1E2D07FE951152A4540846B31A9FEAA2EBA600594012745881E0CA0B949BEB1A4CDB1EB4EDB03E1ACEA083F324E0EFC9D918E3627CED91ACE9B2867A214299961A19B01EC98B3D1FE59914C96229AF161BFF75A453D605951BA258C11
310
5A7D30BEA3F5AEAA5FE96647A92833FC1F294DC393A4646C5C578BDD9916B064A29C0B520C2E7DDE1E66F47D723EA2DC6F1574FF02531594D6AC69443903617C506CF8A218A2F3F0BDABEB2760593DCB365C8A326F08C2EFFA20E66DCA1F504B0304140006080800AC70623B503B51794E0100003303000030000000666278
310
2F30364446464539412D343132462D344431342D413442312D4630364534343133343431372F636E782E786D6CD593C16EC32010447F0571AD6CE3D489D20813A9877E410FBD62D82434182CC055F3F75D1292E692438FBD206B7698593D61BEFD1E2DF982108D773D6D6B460938E5B571FB9ECE6957AD29D90A1EBC4F7736
310
4A9C1CA1A759A682EF839FA72269D8C9D92654AD71C72206887E0E0A22CAF926B15E498B01E0AA19451807D01A34B919F16B070157417138917400F2F6FA41FCF0092A45DEE414C19BDC21783E4BD39D891265658C3D8DEA00A3ACE59CBC8678ACB54CB26EEB6BD7839D7E9348BE70AD9C8321B9BCA7F9A4A26C542347DEE0
310
50F09802D22BA6749A800A394DD62899107273365E3C82CFC6A55557BC06C10774B7ABE7AEC3B0F34CF06446280E154026D0542C187BA9DAB6628BF7B6DBB0E566B17C62EB0D63BCC976C107EF6DB9843110FC449477095CA2A2E54D1E3FC2577C449B80AC7D38FD01240228AD173AB78CFFCCA739BF6FC415F02F103F504B
310
0304140006080800AC70623BD8F6D0D5660500003B100000340000006662782F30364446464539412D343132462D344431342D413442312D4630364534343133343431372F6F626A656374732E786D6CAD575B8F9B3814FE2B887D064292B964C5504D92491555D3568D5AEDC348910187610730B2CD4C667FFD7E06438024
310
6DF6928780CDF1B97EE762EFC33E4B8D57CA45C2F23BD3B547A641F39045491EDF99A5DC59B7A6F1C1F73863B243661A39C9E89DA9B64DDF8B392B0BBD15D11D295339D85DCDFF304448736A1A614A84B83345F84C33629352B2888A173B2292D8F16E6FBB764DD8671B73523C0F981684D35C4253ECE7E062D44AB9FDE5C8
310
747CCF51DF7D4FFD6BAAC9792AA7B2A72F3FC985247978246CC066E24E970FE3AB9975359D4EACE9F5D8B5E6ABF9D2726F26A3C5F56231BB7F9841B0901C9CB4269CEE4CFF237CC393D073EA4FADC65AF1532A852CCF6958D90F0B2B9D35C78816348F10C7840A48EB583DEA2F5DE59BCEE7895A6B91DDEDCBACEA9EE8306A
310
746F9E5D4D59F0274C1097A0820BAA5055FB471B5AE36F74F05AC058AABF25C2C888A43C21A991260127FCDDF441AA487CAFC746A1932B842B0B4CDF3DF0EBEA8AD4F835764F69B92BD35441D3F42B646F817F2A45A559F217E5A7A54127C4AA4C7279AB0D92EF0535FD99E7549BBEA71E93B1FE583BD2D8A52446C86166FD
310
7560E842E5DE7A69FA9F56C17EA3F2F1B4F082B38272A9E0036835816B9ECA4B5AAC7B51E4D40118D3F3F9C129DFE0F9CF48DF832A881B4FF6D3FD544B919CE462C77886D8D8A3EA678C9A17AB7D3B7E413D1B501FD3B43BFF8AD8735A65FB05E35CFC002E159ADBFF1EBFBECFBA48ED84CFF75E91608C4FB42B372149517A
310
1E931C0151A03452862DD4F25DB037FD352A252A3B4E91D46F1D72F4E239AFF88EFF9A37AA5525BEF3CC11D041BDBDA0F2C397555A40B7336039AA9395606DDC399F5FFD2F3973BFDC7CDA947C4742FAA80BCB92EE923C91E89D07F07615EA05A267D10B7D7F633C82A1C741D8748390695102DE563E578E8F9B66A11607C9
310
3D0121CEC54CD53CEF17121E1311D2342539656523A56D430AAB6D91D17302B2B076E8643C4031A7AF899A247A143DB5D0EB439E14CA656DD36BEBB47DC696EFEBCF0025E8531690F440141CAA7DC852C6B7C1FBB62E8426B087237D70FFE8A35B3BD4515C00F80ACA4DC5D11EDE46C96E570A94DD134EFCB15E7403D5D691
310
E397267F1A89754A4E519C917A846BF43632310F7082BECEF26D822E8EAC3C29BC2B7B2840547CCFF00FCAACD8928C95B9BCC44DA3C69E46FB96797788116F4486CFA6BFA99ED61C153BA2D121543D10A80E74C2A65E786E1E265757A3F1D472EFE72B6B7AB39A59B3EBEB076B3576AF66ABF9C3EDF87EDE6A5469E27B4D83
310
EAA620BC8986E8953CD16EFEBE3E64ADE93F12299C8F753E3971FDFCBEB631157B0ECE00DFEDC17556A434A3B9240ABD8FEA25FD463054F478D4FBEB8CC4F4022E5F3E6E063A60E782735F55A6D1B7C159BDBB50B97092897C2EB32027493A38A80DB78B3CD66637AE6C9F75416F966AA5FD893154B03489506F2223A62CA3
310
1255E78262CF332A8098EE501EE9CBC305A75FEB71509220A58D26CF0413712A806AC0AD0C657FDFF80D139C1AA2EE4CF43AFB057F3A114D03A1BE3351DE6412526107E88E6AEEA998030218C2DA1A08A8913C4E3158D787DA757B4AF906E5070D50CB6F492E1996B45DBDBA9B91A240D3EE55D54A372D20FC478637EA1844
310
E23528656BCB61A335A61283CCAA8DD257034C102F5AF41EF9F573B35CBBA2E979E4A26BD24F415073B524E171752D50FA6995EE975F1D4C02C6FA8B51A4658C585ECEC9E214602E558203454085E6591009A82E7E7FFACA19AEA299B14A0081A705CB3296EBC5BDBECA1A9B675C4CA3279405AA6E1F623C72DDA76AE8D7F7
310
906D4004B549245EB0D1249CB260803500F2A89BEA10382A0603F2F5D2D00D630AA615688F66D2FA166E2079D4C551A54AB758163F9DFB9D8A1460E098D8FDBF01504B0304140006080000AC70623B000000000000000000000000350000006662782F30364446464539412D343132462D344431342D413442312D46303645
310
34343133343431372F76657274696365732E62696E504B0304140006080800AC70623BF270F1330600000004000000360000006662782F30364446464539412D343132462D344431342D413442312D4630364534343133343431372F747269616E676C65732E62696E636660600000504B0304140006080000AC70623B0000
310
00000000000000000000370000006662782F30364446464539412D343132462D344431342D413442312D4630364534343133343431372F617474726962757465732E62696E504B0304140006080800AC70623B08DA0BD19000000041010000360000006662782F30364446464539412D343132462D344431342D413442312D
310
4630364534343133343431372F6469726563746F72792E786D6C858F410AC3201045AF22B36F53E9A60B35CBEEBAE80D244E44489C6234F4F835464A48035D0DF398FF9F8AF63D0E6CC63039F212F8F9020C7D47C6792B21C5FE7403D62A1188E2E60C98D7234A5830286103A55745067B9D86B8A3CF9C7F90C11DE607FB14
310
4396D7B6A82D282E9A152AD114D5EF2CB866EEE831B8EEA07A7BB5A8D7D61A2BAAEB7FD5F70921FF497D00504B0304140006080800AC70623BB40F7AF9FE000000A00100003B0000006662782F30364446464539412D343132462D344431342D413442312D4630364534343133343431372F7265736F75726365732F636F72
310
652E786D6C8D504B6E833010BD0A9A6D65B00950828CA3109513F4029699502BC146FE543D7E4D42A576D7CDCCE87D344F8F9FBE967BF689CE6B6B7A6039850C8DB29336730F315C490BD94970676DF82583CCC8057BD860107C7636AE3BA4AC096842428D9D7007A5F7182053F774F4E0D5072E3297312485BFE5AB543739
310
63CEF244279DE03EB814207B3ED9260887DE46A7D0F3E2C90A1EA39E768D9ED24F7DD5E8408C63736E86CB1B192F0746AAF29591A1295B72A4675A57B4ADC766E0C566163CE8E527A37228034E204A4A8F843142CB775675B4EECAFA85B61DA5BCD8E47F4C719DFE698ADA8443B9C77DDA3C0896823C08C18BADAFB41E65A6
310
BD752BBE01504B010214000A0000080000AC70623B3DEE336E79000000790000001B00000000000000000000000000000000006175746F6465736B2D64657369676E2D7061636B6167652E786D6C504B01021400140006080800AC70623BD486FD9CA0000000F40000001300000000000000000000000000B20000005B436F
310
6E74656E745F54797065735D2E786D6C504B01021400140006080800AC70623BDCE527C8EB0000007C010000080000000000000000000000000083010000636F72652E786D6C504B01021400140006080800AC70623B55019EA25F0000007C000000070000000000000000000000000094020000636E782E786D6C504B0102
310
1400140006080800AC70623BB24894EB71010000D40300000C00000000000000000000000000180300006662782F636F72652E786D6C504B01021400140006080800AC70623B3A54DFB77D0000009D0000000B00000000000000000000000000B30400006662782F636E782E786D6C504B01021400140006080800AC70623B
310
4A17098729010000120200003100000000000000000000000000590500006662782F30364446464539412D343132462D344431342D413442312D4630364534343133343431372F636F72652E786D6C504B01021400140006080800AC70623B503B51794E010000330300003000000000000000000000000000D10600006662
310
782F30364446464539412D343132462D344431342D413442312D4630364534343133343431372F636E782E786D6C504B01021400140006080800AC70623BD8F6D0D5660500003B10000034000000000000000000000000006D0800006662782F30364446464539412D343132462D344431342D413442312D46303645343431
310
33343431372F6F626A656374732E786D6C504B01021400140006080000AC70623B0000000000000000000000003500000000000000000000000000250E00006662782F30364446464539412D343132462D344431342D413442312D4630364534343133343431372F76657274696365732E62696E504B010214001400060808
310
00AC70623BF270F13306000000040000003600000000000000000000000000780E00006662782F30364446464539412D343132462D344431342D413442312D4630364534343133343431372F747269616E676C65732E62696E504B01021400140006080000AC70623B00000000000000000000000037000000000000000000
310
00000000D20E00006662782F30364446464539412D343132462D344431342D413442312D4630364534343133343431372F617474726962757465732E62696E504B01021400140006080800AC70623B08DA0BD190000000410100003600000000000000000000000000270F00006662782F30364446464539412D343132462D
310
344431342D413442312D4630364534343133343431372F6469726563746F72792E786D6C504B01021400140006080800AC70623BB40F7AF9FE000000A00100003B000000000000000000000000000B1000006662782F30364446464539412D343132462D344431342D413442312D4630364534343133343431372F7265736F
310
75726365732F636F72652E786D6C504B0506000000000E000E0080040000621100000000
  0
XRECORD
  5
10E
102
{ACAD_REACTORS
330
10B
102
}
330
10B
100
AcDbXrecord
280
     1
270
     1
271
     1
  0
XRECORD
  5
10F
102
{ACAD_REACTORS
330
10B
102
}
330
10B
100
AcDbXrecord
280
     1
270
     1
271
     1
  0
XRECORD
  5
2F3
102
{ACAD_REACTORS
330
2F2
102
}
330
2F2
100
AcDbXrecord
280
     1
102
DISPLAYNAME
  1
Imperial24
102
FLAGS
 90
        0
  0
CELLSTYLEMAP
  5
2E8
102
{ACAD_REACTORS
330
FF
102
}
330
FF
100
AcDbCellStyleMap
 90
        3
300
CELLSTYLE
  1
TABLEFORMAT_BEGIN
 90
        5
170
     1
 91
        0
 92
    32768
 62
   257
 93
        1
300
CONTENTFORMAT
  1
CONTENTFORMAT_BEGIN
 90
        0
 91
        0
 92
      512
 93
        0
300

 40
0.0
140
1.0
 94
        5
 62
     0
340
11
144
0.25
309
CONTENTFORMAT_END
171
     1
301
MARGIN
  1
CELLMARGIN_BEGIN
 40
0.06
 40
0.06
 40
0.06
 40
0.06
 40
0.18
 40
0.18
309
CELLMARGIN_END
 94
        6
 95
        1
302
GRIDFORMAT
  1
GRIDFORMAT_BEGIN
 90
        0
 91
        1
 62
     0
 92
       -2
340
0
 93
        0
 40
0.045
309
GRIDFORMAT_END
 95
        2
302
GRIDFORMAT
  1
GRIDFORMAT_BEGIN
 90
        0
 91
        1
 62
     0
 92
       -2
340
0
 93
        0
 40
0.045
309
GRIDFORMAT_END
 95
        4
302
GRIDFORMAT
  1
GRIDFORMAT_BEGIN
 90
        0
 91
        1
 62
     0
 92
       -2
340
0
 93
        0
 40
0.045
309
GRIDFORMAT_END
 95
        8
302
GRIDFORMAT
  1
GRIDFORMAT_BEGIN
 90
        0
 91
        1
 62
     0
 92
       -2
340
0
 93
        0
 40
0.045
309
GRIDFORMAT_END
 95
       16
302
GRIDFORMAT
  1
GRIDFORMAT_BEGIN
 90
        0
 91
        1
 62
     0
 92
       -2
340
0
 93
        0
 40
0.045
309
GRIDFORMAT_END
 95
       32
302
GRIDFORMAT
  1
GRIDFORMAT_BEGIN
 90
        0
 91
        1
 62
     0
 92
       -2
340
0
 93
        0
 40
0.045
309
GRIDFORMAT_END
309
TABLEFORMAT_END
  1
CELLSTYLE_BEGIN
 90
        1
 91
        1
300
_TITLE
309
CELLSTYLE_END
300
CELLSTYLE
  1
TABLEFORMAT_BEGIN
 90
        5
170
     1
 91
        0
 92
        0
 62
   257
 93
        1
300
CONTENTFORMAT
  1
CONTENTFORMAT_BEGIN
 90
        0
 91
        0
 92
      512
 93
        0
300

 40
0.0
140
1.0
 94
        5
 62
     0
340
11
144
0.18
309
CONTENTFORMAT_END
171
     1
301
MARGIN
  1
CELLMARGIN_BEGIN
 40
0.06
 40
0.06
 40
0.06
 40
0.06
 40
0.18
 40
0.18
309
CELLMARGIN_END
 94
        6
 95
        1
302
GRIDFORMAT
  1
GRIDFORMAT_BEGIN
 90
        0
 91
        1
 62
     0
 92
       -2
340
0
 93
        0
 40
0.045
309
GRIDFORMAT_END
 95
        2
302
GRIDFORMAT
  1
GRIDFORMAT_BEGIN
 90
        0
 91
        1
 62
     0
 92
       -2
340
0
 93
        0
 40
0.045
309
GRIDFORMAT_END
 95
        4
302
GRIDFORMAT
  1
GRIDFORMAT_BEGIN
 90
        0
 91
        1
 62
     0
 92
       -2
340
0
 93
        0
 40
0.045
309
GRIDFORMAT_END
 95
        8
302
GRIDFORMAT
  1
GRIDFORMAT_BEGIN
 90
        0
 91
        1
 62
     0
 92
       -2
340
0
 93
        0
 40
0.045
309
GRIDFORMAT_END
 95
       16
302
GRIDFORMAT
  1
GRIDFORMAT_BEGIN
 90
        0
 91
        1
 62
     0
 92
       -2
340
0
 93
        0
 40
0.045
309
GRIDFORMAT_END
 95
       32
302
GRIDFORMAT
  1
GRIDFORMAT_BEGIN
 90
        0
 91
        1
 62
     0
 92
       -2
340
0
 93
        0
 40
0.045
309
GRIDFORMAT_END
309
TABLEFORMAT_END
  1
CELLSTYLE_BEGIN
 90
        2
 91
        1
300
_HEADER
309
CELLSTYLE_END
300
CELLSTYLE
  1
TABLEFORMAT_BEGIN
 90
        5
170
     1
 91
        0
 92
        0
 62
   257
 93
        1
300
CONTENTFORMAT
  1
CONTENTFORMAT_BEGIN
 90
        0
 91
        0
 92
      512
 93
        0
300

 40
0.0
140
1.0
 94
        2
 62
     0
340
11
144
0.18
309
CONTENTFORMAT_END
171
     1
301
MARGIN
  1
CELLMARGIN_BEGIN
 40
0.06
 40
0.06
 40
0.06
 40
0.06
 40
0.18
 40
0.18
309
CELLMARGIN_END
 94
        6
 95
        1
302
GRIDFORMAT
  1
GRIDFORMAT_BEGIN
 90
        0
 91
        1
 62
     0
 92
       -2
340
0
 93
        0
 40
0.045
309
GRIDFORMAT_END
 95
        2
302
GRIDFORMAT
  1
GRIDFORMAT_BEGIN
 90
        0
 91
        1
 62
     0
 92
       -2
340
0
 93
        0
 40
0.045
309
GRIDFORMAT_END
 95
        4
302
GRIDFORMAT
  1
GRIDFORMAT_BEGIN
 90
        0
 91
        1
 62
     0
 92
       -2
340
0
 93
        0
 40
0.045
309
GRIDFORMAT_END
 95
        8
302
GRIDFORMAT
  1
GRIDFORMAT_BEGIN
 90
        0
 91
        1
 62
     0
 92
       -2
340
0
 93
        0
 40
0.045
309
GRIDFORMAT_END
 95
       16
302
GRIDFORMAT
  1
GRIDFORMAT_BEGIN
 90
        0
 91
        1
 62
     0
 92
       -2
340
0
 93
        0
 40
0.045
309
GRIDFORMAT_END
 95
       32
302
GRIDFORMAT
  1
GRIDFORMAT_BEGIN
 90
        0
 91
        1
 62
     0
 92
       -2
340
0
 93
        0
 40
0.045
309
GRIDFORMAT_END
309
TABLEFORMAT_END
  1
CELLSTYLE_BEGIN
 90
        3
 91
        2
300
_DATA
309
CELLSTYLE_END
  0
ENDSEC
  0
SECTION
  2
ACDSDATA
 70
     2
 71
     8
  0
ACDSSCHEMA
 90
        0
  1
AcDb_Thumbnail_Schema
  2
AcDbDs::ID
280
    10
 91
        8
  2
Thumbnail_Data
280
    15
 91
        0
101
ACDSRECORD
 95
        0
 90
        1
  2
AcDbDs::TreatedAsObjectData
280
     1
291
     1
101
ACDSRECORD
 95
        0
 90
        2
  2
AcDbDs::Legacy
280
     1
291
     1
101
ACDSRECORD
  1
AcDbDs::ID
 90
        3
  2
AcDs:Indexable
280
     1
291
     1
101
ACDSRECORD
  1
AcDbDs::ID
 90
        4
  2
AcDbDs::HandleAttribute
280
     7
282
     1
  0
ACDSSCHEMA
 90
        1
  1
AcDbDs::TreatedAsObjectDataSchema
  2
AcDbDs::TreatedAsObjectData
280
     1
 91
        0
  0
ACDSSCHEMA
 90
        2
  1
AcDbDs::LegacySchema
  2
AcDbDs::Legacy
280
     1
 91
        0
  0
ACDSSCHEMA
 90
        3
  1
AcDbDs::IndexedPropertySchema
  2
AcDs:Indexable
280
     1
 91
        0
  0
ACDSSCHEMA
 90
        4
  1
AcDbDs::HandleAttributeSchema
  2
AcDbDs::HandleAttribute
280
     7
 91
        1
284
     1
  0
ACDSRECORD
 90
        0
  2
AcDbDs::ID
280
    10
320
22
  2
Thumbnail_Data
280
    15
 94
      896
310
89504E470D0A1A0A0000000D49484452000001000000009108030000001BE1960600000300504C5445212830FFFFFF2128300000000000000000000000000000000000000000000000000000330000660000990000CC0000FF0033000033330033660033990033CC0033FF0066000066330066660066990066CC0066FF0099
310
000099330099660099990099CC0099FF00CC0000CC3300CC6600CC9900CCCC00CCFF00FF0000FF3300FF6600FF9900FFCC00FFFF3300003300333300663300993300CC3300FF3333003333333333663333993333CC3333FF3366003366333366663366993366CC3366FF3399003399333399663399993399CC3399FF33CC00
310
33CC3333CC6633CC9933CCCC33CCFF33FF0033FF3333FF6633FF9933FFCC33FFFF6600006600336600666600996600CC6600FF6633006633336633666633996633CC6633FF6666006666336666666666996666CC6666FF6699006699336699666699996699CC6699FF66CC0066CC3366CC6666CC9966CCCC66CCFF66FF0066
310
FF3366FF6666FF9966FFCC66FFFF9900009900339900669900999900CC9900FF9933009933339933669933999933CC9933FF9966009966339966669966999966CC9966FF9999009999339999669999999999CC9999FF99CC0099CC3399CC6699CC9999CCCC99CCFF99FF0099FF3399FF6699FF9999FFCC99FFFFCC0000CC00
310
33CC0066CC0099CC00CCCC00FFCC3300CC3333CC3366CC3399CC33CCCC33FFCC6600CC6633CC6666CC6699CC66CCCC66FFCC9900CC9933CC9966CC9999CC99CCCC99FFCCCC00CCCC33CCCC66CCCC99CCCCCCCCCCFFCCFF00CCFF33CCFF66CCFF99CCFFCCCCFFFFFF0000FF0033FF0066FF0099FF00CCFF00FFFF3300FF3333
310
FF3366FF3399FF33CCFF33FFFF6600FF6633FF6666FF6699FF66CCFF66FFFF9900FF9933FF9966FF9999FF99CCFF99FFFFCC00FFCC33FFCC66FFCC99FFCCCCFFCCFFFFFF00FFFF33FFFF66FFFF99FFFFCCFFFFFF0000000D0D0D1A1A1A2828283535354343435050505D5D5D6B6B6B787878868686939393A1A1A1AEAEAEBB
310
BBBBC9C9C9D6D6D6E4E4E4F1F1F1FFFFFF0000000000000000000000000000000000000000000000000000000000002E4550F10000003B4944415478DAEDC13101000000C2A0F54F6D0B2FA0000000000000000000000000000000000000000000000000000000000000000000000000CE06919100016C9A5B1B0000000049
310
454E44AE426082
  0
ENDSEC
  0
EOF
