  0
SECTION
  2
HEADER
  9
$ACADVER
  1
AC1021
  9
$ACADMAINTVER
 70
    50
  9
$DWGCODEPAGE
  3
ANSI_1252
  9
$LASTSAVEDBY
  1
ufficio.tecnico
  9
$INSBASE
 10
0.0
 20
0.0
 30
0.0
  9
$EXTMIN
 10
46.63164706016717
 20
18.35229112129911
 30
0.0
  9
$EXTMAX
 10
196.7733075733542
 20
265.1367527643383
 30
0.0
  9
$LIMMIN
 10
0.0
 20
0.0
  9
$LIMMAX
 10
12.0
 20
9.0
  9
$ORTHOMODE
 70
     0
  9
$REGENMODE
 70
     1
  9
$FILLMODE
 70
     1
  9
$QTEXTMODE
 70
     0
  9
$MIRRTEXT
 70
     0
  9
$LTSCALE
 40
1.0
  9
$ATTMODE
 70
     1
  9
$TEXTSIZE
 40
0.2
  9
$TRACEWID
 40
0.05
  9
$TEXTSTYLE
  7
Standard
  9
$CLAYER
  8
0
  9
$CELTYPE
  6
ByLayer
  9
$CECOLOR
 62
   256
  9
$CELTSCALE
 40
1.0
  9
$DISPSILH
 70
     0
  9
$DIMSCALE
 40
1.0
  9
$DIMASZ
 40
0.18
  9
$DIMEXO
 40
0.0625
  9
$DIMDLI
 40
0.38
  9
$DIMRND
 40
0.0
  9
$DIMDLE
 40
0.0
  9
$DIMEXE
 40
0.18
  9
$DIMTP
 40
0.0
  9
$DIMTM
 40
0.0
  9
$DIMTXT
 40
0.18
  9
$DIMCEN
 40
0.09
  9
$DIMTSZ
 40
0.0
  9
$DIMTOL
 70
     0
  9
$DIMLIM
 70
     0
  9
$DIMTIH
 70
     1
  9
$DIMTOH
 70
     1
  9
$DIMSE1
 70
     0
  9
$DIMSE2
 70
     0
  9
$DIMTAD
 70
     0
  9
$DIMZIN
 70
     0
  9
$DIMBLK
  1

  9
$DIMASO
 70
     1
  9
$DIMSHO
 70
     1
  9
$DIMPOST
  1

  9
$DIMAPOST
  1

  9
$DIMALT
 70
     0
  9
$DIMALTD
 70
     2
  9
$DIMALTF
 40
25.4
  9
$DIMLFAC
 40
1.0
  9
$DIMTOFL
 70
     0
  9
$DIMTVP
 40
0.0
  9
$DIMTIX
 70
     0
  9
$DIMSOXD
 70
     0
  9
$DIMSAH
 70
     0
  9
$DIMBLK1
  1

  9
$DIMBLK2
  1

  9
$DIMSTYLE
  2
Standard
  9
$DIMCLRD
 70
     0
  9
$DIMCLRE
 70
     0
  9
$DIMCLRT
 70
     0
  9
$DIMTFAC
 40
1.0
  9
$DIMGAP
 40
0.09
  9
$DIMJUST
 70
     0
  9
$DIMSD1
 70
     0
  9
$DIMSD2
 70
     0
  9
$DIMTOLJ
 70
     1
  9
$DIMTZIN
 70
     0
  9
$DIMALTZ
 70
     0
  9
$DIMALTTZ
 70
     0
  9
$DIMUPT
 70
     0
  9
$DIMDEC
 70
     4
  9
$DIMTDEC
 70
     4
  9
$DIMALTU
 70
     2
  9
$DIMALTTD
 70
     2
  9
$DIMTXSTY
  7
Standard
  9
$DIMAUNIT
 70
     0
  9
$DIMADEC
 70
     0
  9
$DIMALTRND
 40
0.0
  9
$DIMAZIN
 70
     0
  9
$DIMDSEP
 70
    46
  9
$DIMATFIT
 70
     3
  9
$DIMFRAC
 70
     0
  9
$DIMLDRBLK
  1

  9
$DIMLUNIT
 70
     2
  9
$DIMLWD
 70
    -2
  9
$DIMLWE
 70
    -2
  9
$DIMTMOVE
 70
     0
  9
$DIMFXL
 40
1.0
  9
$DIMFXLON
 70
     0
  9
$DIMJOGANG
 40
0.7853981633974483
  9
$DIMTFILL
 70
     0
  9
$DIMTFILLCLR
 70
     0
  9
$DIMARCSYM
 70
     0
  9
$DIMLTYPE
  6

  9
$DIMLTEX1
  6

  9
$DIMLTEX2
  6

  9
$LUNITS
 70
     2
  9
$LUPREC
 70
     4
  9
$SKETCHINC
 40
0.1
  9
$FILLETRAD
 40
0.0
  9
$AUNITS
 70
     0
  9
$AUPREC
 70
     0
  9
$MENU
  1
.
  9
$ELEVATION
 40
0.0
  9
$PELEVATION
 40
0.0
  9
$THICKNESS
 40
0.0
  9
$LIMCHECK
 70
     0
  9
$CHAMFERA
 40
0.0
  9
$CHAMFERB
 40
0.0
  9
$CHAMFERC
 40
0.0
  9
$CHAMFERD
 40
0.0
  9
$SKPOLY
 70
     0
  9
$TDCREATE
 40
2459457.420000000
  9
$TDUCREATE
 40
2459457.336666666
  9
$TDUPDATE
 40
2459457.694050926
  9
$TDUUPDATE
 40
2459457.610717593
  9
$TDINDWG
 40
0.0014467593
  9
$TDUSRTIMER
 40
0.0014467593
  9
$USRTIMER
 70
     1
  9
$ANGBASE
 50
0.0
  9
$ANGDIR
 70
     0
  9
$PDMODE
 70
     0
  9
$PDSIZE
 40
0.0
  9
$PLINEWID
 40
0.0
  9
$SPLFRAME
 70
     0
  9
$SPLINETYPE
 70
     6
  9
$SPLINESEGS
 70
     8
  9
$HANDSEED
  5
18C
  9
$SURFTAB1
 70
     6
  9
$SURFTAB2
 70
     6
  9
$SURFTYPE
 70
     6
  9
$SURFU
 70
     6
  9
$SURFV
 70
     6
  9
$UCSBASE
  2

  9
$UCSNAME
  2

  9
$UCSORG
 10
0.0
 20
0.0
 30
0.0
  9
$UCSXDIR
 10
1.0
 20
0.0
 30
0.0
  9
$UCSYDIR
 10
0.0
 20
1.0
 30
0.0
  9
$UCSORTHOREF
  2

  9
$UCSORTHOVIEW
 70
     0
  9
$UCSORGTOP
 10
0.0
 20
0.0
 30
0.0
  9
$UCSORGBOTTOM
 10
0.0
 20
0.0
 30
0.0
  9
$UCSORGLEFT
 10
0.0
 20
0.0
 30
0.0
  9
$UCSORGRIGHT
 10
0.0
 20
0.0
 30
0.0
  9
$UCSORGFRONT
 10
0.0
 20
0.0
 30
0.0
  9
$UCSORGBACK
 10
0.0
 20
0.0
 30
0.0
  9
$PUCSBASE
  2

  9
$PUCSNAME
  2

  9
$PUCSORG
 10
0.0
 20
0.0
 30
0.0
  9
$PUCSXDIR
 10
1.0
 20
0.0
 30
0.0
  9
$PUCSYDIR
 10
0.0
 20
1.0
 30
0.0
  9
$PUCSORTHOREF
  2

  9
$PUCSORTHOVIEW
 70
     0
  9
$PUCSORGTOP
 10
0.0
 20
0.0
 30
0.0
  9
$PUCSORGBOTTOM
 10
0.0
 20
0.0
 30
0.0
  9
$PUCSORGLEFT
 10
0.0
 20
0.0
 30
0.0
  9
$PUCSORGRIGHT
 10
0.0
 20
0.0
 30
0.0
  9
$PUCSORGFRONT
 10
0.0
 20
0.0
 30
0.0
  9
$PUCSORGBACK
 10
0.0
 20
0.0
 30
0.0
  9
$USERI1
 70
     0
  9
$USERI2
 70
     0
  9
$USERI3
 70
     0
  9
$USERI4
 70
     0
  9
$USERI5
 70
     0
  9
$USERR1
 40
0.0
  9
$USERR2
 40
0.0
  9
$USERR3
 40
0.0
  9
$USERR4
 40
0.0
  9
$USERR5
 40
0.0
  9
$WORLDVIEW
 70
     1
  9
$SHADEDGE
 70
     3
  9
$SHADEDIF
 70
    70
  9
$TILEMODE
 70
     1
  9
$MAXACTVP
 70
    64
  9
$PINSBASE
 10
0.0
 20
0.0
 30
0.0
  9
$PLIMCHECK
 70
     0
  9
$PEXTMIN
 10
1.000000000000000E+20
 20
1.000000000000000E+20
 30
1.000000000000000E+20
  9
$PEXTMAX
 10
-1.000000000000000E+20
 20
-1.000000000000000E+20
 30
-1.000000000000000E+20
  9
$PLIMMIN
 10
0.0
 20
0.0
  9
$PLIMMAX
 10
12.0
 20
9.0
  9
$UNITMODE
 70
     0
  9
$VISRETAIN
 70
     1
  9
$PLINEGEN
 70
     0
  9
$PSLTSCALE
 70
     1
  9
$TREEDEPTH
 70
  3020
  9
$CMLSTYLE
  2
Standard
  9
$CMLJUST
 70
     0
  9
$CMLSCALE
 40
1.0
  9
$PROXYGRAPHICS
 70
     1
  9
$MEASUREMENT
 70
     0
  9
$CELWEIGHT
370
    -1
  9
$ENDCAPS
280
     0
  9
$JOINSTYLE
280
     0
  9
$LWDISPLAY
290
     1
  9
$INSUNITS
 70
     4
  9
$HYPERLINKBASE
  1

  9
$STYLESHEET
  1

  9
$XEDIT
290
     1
  9
$CEPSNTYPE
380
     0
  9
$PSTYLEMODE
290
     1
  9
$FINGERPRINTGUID
  2
{8C44631D-8A08-E84D-94ED-037BD604CA4E}
  9
$VERSIONGUID
  2
{91DC333D-B5DF-9A46-ACED-9C65EC92AFDA}
  9
$EXTNAMES
290
     1
  9
$PSVPSCALE
 40
0.0
  9
$OLESTARTUP
290
     0
  9
$SORTENTS
280
   127
  9
$INDEXCTL
280
     0
  9
$HIDETEXT
280
     1
  9
$XCLIPFRAME
290
     0
  9
$HALOGAP
280
     0
  9
$OBSCOLOR
 70
   257
  9
$OBSLTYPE
280
     0
  9
$INTERSECTIONDISPLAY
280
     0
  9
$INTERSECTIONCOLOR
 70
   257
  9
$DIMASSOC
280
     2
  9
$PROJECTNAME
  1

  9
$CAMERADISPLAY
290
     0
  9
$LENSLENGTH
 40
50.0
  9
$CAMERAHEIGHT
 40
0.0
  9
$STEPSPERSEC
 40
2.0
  9
$STEPSIZE
 40
6.0
  9
$3DDWFPREC
 40
2.0
  9
$PSOLWIDTH
 40
0.25
  9
$PSOLHEIGHT
 40
4.0
  9
$LOFTANG1
 40
1.570796326794896
  9
$LOFTANG2
 40
1.570796326794896
  9
$LOFTMAG1
 40
0.0
  9
$LOFTMAG2
 40
0.0
  9
$LOFTPARAM
 70
     7
  9
$LOFTNORMALS
280
     1
  9
$LATITUDE
 40
37.795
  9
$LONGITUDE
 40
-122.394
  9
$NORTHDIRECTION
 40
0.0
  9
$TIMEZONE
 70
 -8000
  9
$LIGHTGLYPHDISPLAY
280
     1
  9
$TILEMODELIGHTSYNCH
280
     1
  9
$CMATERIAL
347
11
  9
$SOLIDHIST
280
     0
  9
$SHOWHIST
280
     1
  9
$DWFFRAME
280
     2
  9
$DGNFRAME
280
     0
  9
$REALWORLDSCALE
290
     1
  9
$INTERFERECOLOR
 62
     1
  9
$INTERFEREOBJVS
345
33
  9
$INTERFEREVPVS
346
30
  9
$CSHADOW
280
     0
  9
$SHADOWPLANELOCATION
 40
0.0
  0
ENDSEC
  0
SECTION
  2
CLASSES
  0
CLASS
  1
ACDBDICTIONARYWDFLT
  2
AcDbDictionaryWithDefault
  3
ObjectDBX Classes
 90
        0
 91
        1
280
     0
281
     0
  0
CLASS
  1
MATERIAL
  2
AcDbMaterial
  3
ObjectDBX Classes
 90
     1153
 91
        3
280
     0
281
     0
  0
CLASS
  1
VISUALSTYLE
  2
AcDbVisualStyle
  3
ObjectDBX Classes
 90
     4095
 91
       24
280
     0
281
     0
  0
CLASS
  1
SCALE
  2
AcDbScale
  3
ObjectDBX Classes
 90
     1153
 91
       17
280
     0
281
     0
  0
CLASS
  1
TABLESTYLE
  2
AcDbTableStyle
  3
ObjectDBX Classes
 90
     4095
 91
        1
280
     0
281
     0
  0
CLASS
  1
MLEADERSTYLE
  2
AcDbMLeaderStyle
  3
ACDB_MLEADERSTYLE_CLASS
 90
     4095
 91
        1
280
     0
281
     0
  0
CLASS
  1
ACDBSECTIONVIEWSTYLE
  2
AcDbSectionViewStyle
  3
ObjectDBX Classes
 90
     1025
 91
        1
280
     0
281
     0
  0
CLASS
  1
ACDBDETAILVIEWSTYLE
  2
AcDbDetailViewStyle
  3
ObjectDBX Classes
 90
     1025
 91
        1
280
     0
281
     0
  0
CLASS
  1
DICTIONARYVAR
  2
AcDbDictionaryVar
  3
ObjectDBX Classes
 90
        0
 91
        6
280
     0
281
     0
  0
CLASS
  1
CELLSTYLEMAP
  2
AcDbCellStyleMap
  3
ObjectDBX Classes
 90
     1152
 91
        2
280
     0
281
     0
  0
ENDSEC
  0
SECTION
  2
TABLES
  0
TABLE
  2
VPORT
  5
8
330
0
100
AcDbSymbolTable
 70
     1
  0
VPORT
  5
57
330
8
100
AcDbSymbolTableRecord
100
AcDbViewportTableRecord
  2
*Active
 70
     0
 10
0.0
 20
0.0
 11
1.0
 21
1.0
 12
-17.3911672135257
 22
-235.5616603405459
 13
0.0
 23
0.0
 14
1.0
 24
1.0
 15
0.0
 25
0.0
 16
0.0
 26
0.0
 36
1.0
 17
104.9999999737534
 27
148.4999999628701
 37
0.0
 40
1258.876174823007
 41
2.545333333333333
 42
50.0
 43
0.0
 44
0.0
 50
0.0
 51
0.0
 71
     0
 72
   100
 73
     1
 74
     0
 75
     1
 76
     0
 77
     0
 78
     0
281
     0
 65
     1
110
0.0
120
0.0
130
0.0
111
1.0
121
0.0
131
0.0
112
0.0
122
1.0
132
0.0
 79
     0
146
0.0
348
2F
 60
     3
 61
     5
292
     1
282
     1
141
0.0
142
0.0
 63
   250
421
  3355443
1001
ACAD_NAV_VCDISPLAY
1070
     3
  0
ENDTAB
  0
TABLE
  2
LTYPE
  5
5
330
0
100
AcDbSymbolTable
 70
     2
  0
LTYPE
  5
5B
330
5
100
AcDbSymbolTableRecord
100
AcDbLinetypeTableRecord
  2
ByBlock
 70
     0
  3

 72
    65
 73
     0
 40
0.0
  0
LTYPE
  5
5C
330
5
100
AcDbSymbolTableRecord
100
AcDbLinetypeTableRecord
  2
ByLayer
 70
     0
  3

 72
    65
 73
     0
 40
0.0
  0
LTYPE
  5
5D
330
5
100
AcDbSymbolTableRecord
100
AcDbLinetypeTableRecord
  2
Continuous
 70
     0
  3
Solid line
 72
    65
 73
     0
 40
0.0
  0
ENDTAB
  0
TABLE
  2
LAYER
  5
2
330
0
100
AcDbSymbolTable
 70
     3
  0
LAYER
  5
54
330
2
100
AcDbSymbolTableRecord
100
AcDbLayerTableRecord
  2
0
 70
     0
 62
     7
  6
Continuous
370
    -3
390
F
347
21
  0
LAYER
  5
78
330
2
100
AcDbSymbolTableRecord
100
AcDbLayerTableRecord
  2
Livello 2
 70
     0
 62
     7
  6
Continuous
370
     0
390
F
347
21
  0
LAYER
  5
85
330
2
100
AcDbSymbolTableRecord
100
AcDbLayerTableRecord
  2
Livello 3
 70
     0
 62
     7
  6
Continuous
370
     0
390
F
347
21
  0
ENDTAB
  0
TABLE
  2
STYLE
  5
3
330
0
100
AcDbSymbolTable
 70
     2
  0
STYLE
  5
55
330
3
100
AcDbSymbolTableRecord
100
AcDbTextStyleTableRecord
  2
Standard
 70
     0
 40
0.0
 41
1.0
 50
0.0
 71
     0
 42
0.2
  3
txt
  4

  0
STYLE
  5
5A
330
3
100
AcDbSymbolTableRecord
100
AcDbTextStyleTableRecord
  2
Annotative
 70
     0
 40
0.0
 41
1.0
 50
0.0
 71
     0
 42
0.2
  3
txt
  4

1001
AcadAnnotative
1000
AnnotativeData
1002
{
1070
     1
1070
     1
1002
}
  0
ENDTAB
  0
TABLE
  2
VIEW
  5
6
330
0
100
AcDbSymbolTable
 70
     0
  0
ENDTAB
  0
TABLE
  2
UCS
  5
7
330
0
100
AcDbSymbolTable
 70
     0
  0
ENDTAB
  0
TABLE
  2
APPID
  5
9
330
0
100
AcDbSymbolTable
 70
     5
  0
APPID
  5
56
330
9
100
AcDbSymbolTableRecord
100
AcDbRegAppTableRecord
  2
ACAD
 70
     0
  0
APPID
  5
5E
330
9
100
AcDbSymbolTableRecord
100
AcDbRegAppTableRecord
  2
AcadAnnotative
 70
     0
  0
APPID
  5
136
330
9
100
AcDbSymbolTableRecord
100
AcDbRegAppTableRecord
  2
ACAD_EXEMPT_FROM_CAD_STANDARDS
 70
     0
  0
APPID
  5
139
330
9
100
AcDbSymbolTableRecord
100
AcDbRegAppTableRecord
  2
ACAD_NAV_VCDISPLAY
 70
     0
  0
APPID
  5
185
330
9
100
AcDbSymbolTableRecord
100
AcDbRegAppTableRecord
  2
ACAD_MLEADERVER
 70
     0
  0
ENDTAB
  0
TABLE
  2
DIMSTYLE
  5
A
330
0
100
AcDbSymbolTable
 70
     2
100
AcDbDimStyleTable
 71
     0
  0
DIMSTYLE
105
58
330
A
100
AcDbSymbolTableRecord
100
AcDbDimStyleTableRecord
  2
Standard
 70
     0
340
55
  0
DIMSTYLE
105
59
330
A
100
AcDbSymbolTableRecord
100
AcDbDimStyleTableRecord
  2
Annotative
 70
     0
340
55
1001
AcadAnnotative
1000
AnnotativeData
1002
{
1070
     1
1070
     1
1002
}
  0
ENDTAB
  0
TABLE
  2
BLOCK_RECORD
  5
1
330
0
100
AcDbSymbolTable
 70
    17
  0
BLOCK_RECORD
  5
70
330
1
100
AcDbSymbolTableRecord
100
AcDbBlockTableRecord
  2
*Model_Space
340
73
 70
     0
280
     1
281
     0
  0
BLOCK_RECORD
  5
6C
330
1
100
AcDbSymbolTableRecord
100
AcDbBlockTableRecord
  2
*Paper_Space
340
6F
 70
     0
280
     1
281
     0
  0
BLOCK_RECORD
  5
74
330
1
100
AcDbSymbolTableRecord
100
AcDbBlockTableRecord
  2
*Paper_Space0
340
77
 70
     0
280
     1
281
     0
  0
BLOCK_RECORD
  5
8B
330
1
100
AcDbSymbolTableRecord
100
AcDbBlockTableRecord
  2
Block_0
340
0
 70
     0
280
     1
281
     0
  0
BLOCK_RECORD
  5
8F
330
1
100
AcDbSymbolTableRecord
100
AcDbBlockTableRecord
  2
Block_1
340
0
102
{BLKREFS
331
90
102
}
 70
     0
280
     1
281
     0
  0
BLOCK_RECORD
  5
9E
330
1
100
AcDbSymbolTableRecord
100
AcDbBlockTableRecord
  2
Block_2
340
0
102
{BLKREFS
331
9F
102
}
 70
     0
280
     1
281
     0
  0
BLOCK_RECORD
  5
A2
330
1
100
AcDbSymbolTableRecord
100
AcDbBlockTableRecord
  2
Block_3
340
0
102
{BLKREFS
331
A3
102
}
 70
     0
280
     1
281
     0
  0
BLOCK_RECORD
  5
A6
330
1
100
AcDbSymbolTableRecord
100
AcDbBlockTableRecord
  2
Block_4
340
0
 70
     0
280
     1
281
     0
  0
BLOCK_RECORD
  5
AA
330
1
100
AcDbSymbolTableRecord
100
AcDbBlockTableRecord
  2
Block_5
340
0
102
{BLKREFS
331
AB
102
}
 70
     0
280
     1
281
     0
  0
BLOCK_RECORD
  5
B9
330
1
100
AcDbSymbolTableRecord
100
AcDbBlockTableRecord
  2
Block_6
340
0
 70
     0
280
     1
281
     0
  0
BLOCK_RECORD
  5
BD
330
1
100
AcDbSymbolTableRecord
100
AcDbBlockTableRecord
  2
Block_7
340
0
102
{BLKREFS
331
BE
102
}
 70
     0
280
     1
281
     0
  0
BLOCK_RECORD
  5
CF
330
1
100
AcDbSymbolTableRecord
100
AcDbBlockTableRecord
  2
Block_8
340
0
 70
     0
280
     1
281
     0
  0
BLOCK_RECORD
  5
D3
330
1
100
AcDbSymbolTableRecord
100
AcDbBlockTableRecord
  2
Block_9
340
0
102
{BLKREFS
331
D4
102
}
 70
     0
280
     1
281
     0
  0
BLOCK_RECORD
  5
E2
330
1
100
AcDbSymbolTableRecord
100
AcDbBlockTableRecord
  2
Block_10
340
0
 70
     0
280
     1
281
     0
  0
BLOCK_RECORD
  5
E6
330
1
100
AcDbSymbolTableRecord
100
AcDbBlockTableRecord
  2
Block_11
340
0
102
{BLKREFS
331
E7
102
}
 70
     0
280
     1
281
     0
  0
ENDTAB
  0
ENDSEC
  0
SECTION
  2
BLOCKS
  0
BLOCK
  5
71
330
70
100
AcDbEntity
  8
0
100
AcDbBlockBegin
  2
*Model_Space
 70
     0
 10
0.0
 20
0.0
 30
0.0
  3
*Model_Space
  1

  0
ENDBLK
  5
72
330
70
100
AcDbEntity
  8
0
100
AcDbBlockEnd
  0
BLOCK
  5
6D
330
6C
100
AcDbEntity
 67
     1
  8
0
100
AcDbBlockBegin
  2
*Paper_Space
 70
     0
 10
0.0
 20
0.0
 30
0.0
  3
*Paper_Space
  1

  0
ENDBLK
  5
6E
330
6C
100
AcDbEntity
 67
     1
  8
0
100
AcDbBlockEnd
  0
BLOCK
  5
75
330
74
100
AcDbEntity
 67
     1
  8
0
100
AcDbBlockBegin
  2
*Paper_Space0
 70
     0
 10
0.0
 20
0.0
 30
0.0
  3
*Paper_Space0
  1

  0
ENDBLK
  5
76
330
74
100
AcDbEntity
 67
     1
  8
0
100
AcDbBlockEnd
  0
BLOCK
  5
8D
330
8B
100
AcDbEntity
  8
0
100
AcDbBlockBegin
  2
Block_0
 70
     0
 10
0.0
 20
0.0
 30
0.0
  3
Block_0
  1

  0
INSERT
  5
90
330
8B
100
AcDbEntity
  8
Livello 3
100
AcDbBlockReference
  2
Block_1
 10
0.0
 20
0.0
 30
0.0
  0
ENDBLK
  5
8E
330
8B
100
AcDbEntity
  8
0
100
AcDbBlockEnd
  0
BLOCK
  5
91
330
8F
100
AcDbEntity
  8
0
100
AcDbBlockBegin
  2
Block_1
 70
     0
 10
0.0
 20
0.0
 30
0.0
  3
Block_1
  1

  0
SPLINE
  5
93
330
8F
100
AcDbEntity
  8
Livello 3
100
AcDbSpline
210
0.0
220
0.0
230
1.0
 70
    11
 71
     3
 72
    47
 73
    43
 74
     0
 42
0.000000001
 43
0.0000000001
 40
0.0
 40
0.0
 40
0.0
 40
0.0
 40
1.0
 40
1.0
 40
1.0
 40
2.0
 40
2.0
 40
2.0
 40
3.0
 40
3.0
 40
3.0
 40
4.0
 40
4.0
 40
4.0
 40
5.0
 40
5.0
 40
5.0
 40
6.0
 40
6.0
 40
6.0
 40
7.0
 40
7.0
 40
7.0
 40
8.0
 40
8.0
 40
8.0
 40
9.0
 40
9.0
 40
9.0
 40
10.0
 40
10.0
 40
10.0
 40
11.0
 40
11.0
 40
11.0
 40
12.0
 40
12.0
 40
12.0
 40
13.0
 40
13.0
 40
13.0
 40
14.0
 40
14.0
 40
14.0
 40
14.0
 10
108.6145588921172
 20
18.24143608484936
 30
0.0
 10
108.6145588921172
 20
18.24143608484936
 30
0.0
 10
108.6145588921172
 20
18.5080864754077
 30
0.0
 10
108.6145588921172
 20
18.5080864754077
 30
0.0
 10
108.6145588921172
 20
18.5080864754077
 30
0.0
 10
108.9552788356084
 20
18.83916015154021
 30
0.0
 10
108.9552788356084
 20
18.83916015154021
 30
0.0
 10
109.7759005801949
 20
19.62016329804635
 30
0.0
 10
110.1462483448592
 20
20.03529730401895
 30
0.0
 10
110.1514159880871
 20
20.51933321969656
 30
0.0
 10
110.1514159880871
 20
20.84558376214971
 30
0.0
 10
109.9932861053142
 20
21.14702961710908
 30
0.0
 10
109.5137288137674
 20
21.14702961710908
 30
0.0
 10
109.2222737357152
 20
21.14702961710908
 30
0.0
 10
108.9800835231022
 20
20.99889051124334
 30
0.0
 10
108.8319444172364
 20
20.87521158332287
 30
0.0
 10
108.8319444172364
 20
20.87521158332287
 30
0.0
 10
108.6934515787294
 20
21.18148057196158
 30
0.0
 10
108.6934515787294
 20
21.18148057196158
 30
0.0
 10
108.9160047470765
 20
21.36923827590769
 30
0.0
 10
109.2322645126225
 20
21.50773111441473
 30
0.0
 10
109.6026122772868
 20
21.50773111441473
 30
0.0
 10
110.2947319602735
 20
21.50773111441473
 30
0.0
 10
110.5861870383257
 20
21.03334146609583
 30
0.0
 10
110.5861870383257
 20
20.5737657283635
 30
0.0
 10
110.5861870383257
 20
19.98086479535201
 30
0.0
 10
110.1562391217665
 20
19.50130750380523
 30
0.0
 10
109.4792778589149
 20
18.84915092844743
 30
0.0
 10
109.4792778589149
 20
18.84915092844743
 30
0.0
 10
109.2222737357152
 20
18.61212835906225
 30
0.0
 10
109.2222737357152
 20
18.61212835906225
 30
0.0
 10
109.2222737357152
 20
18.61212835906225
 30
0.0
 10
109.2222737357152
 20
18.60213758215502
 30
0.0
 10
109.2222737357152
 20
18.60213758215502
 30
0.0
 10
109.2222737357152
 20
18.60213758215502
 30
0.0
 10
110.6650797249379
 20
18.60213758215502
 30
0.0
 10
110.6650797249379
 20
18.60213758215502
 30
0.0
 10
110.6650797249379
 20
18.60213758215502
 30
0.0
 10
110.6650797249379
 20
18.24143608484936
 30
0.0
 10
110.6650797249379
 20
18.24143608484936
 30
0.0
 10
110.6650797249379
 20
18.24143608484936
 30
0.0
 10
108.6145588921172
 20
18.24143608484936
 30
0.0
 10
108.6145588921172
 20
18.24143608484936
 30
0.0
  0
HATCH
  5
94
330
8F
100
AcDbEntity
  8
Livello 3
 62
   250
420
  1907995
440
 33554687
100
AcDbHatch
 10
0.0
 20
0.0
 30
0.0
210
0.0
220
0.0
230
1.0
  2
SOLID
 70
     1
 71
     1
 91
        1
 92
        1
 93
        1
 72
     4
 94
        3
 73
     0
 74
     0
 95
       47
 96
       43
 40
0.0
 40
0.0
 40
0.0
 40
0.0
 40
1.0
 40
1.0
 40
1.0
 40
2.0
 40
2.0
 40
2.0
 40
3.0
 40
3.0
 40
3.0
 40
4.0
 40
4.0
 40
4.0
 40
5.0
 40
5.0
 40
5.0
 40
6.0
 40
6.0
 40
6.0
 40
7.0
 40
7.0
 40
7.0
 40
8.0
 40
8.0
 40
8.0
 40
9.0
 40
9.0
 40
9.0
 40
10.0
 40
10.0
 40
10.0
 40
11.0
 40
11.0
 40
11.0
 40
12.0
 40
12.0
 40
12.0
 40
13.0
 40
13.0
 40
13.0
 40
14.0
 40
14.0
 40
14.0
 40
14.0
 10
108.6145588921172
 20
18.24143608484936
 10
108.6145588921172
 20
18.24143608484936
 10
108.6145588921172
 20
18.5080864754077
 10
108.6145588921172
 20
18.5080864754077
 10
108.6145588921172
 20
18.5080864754077
 10
108.9552788356084
 20
18.83916015154021
 10
108.9552788356084
 20
18.83916015154021
 10
109.7759005801949
 20
19.62016329804635
 10
110.1462483448592
 20
20.03529730401895
 10
110.1514159880871
 20
20.51933321969656
 10
110.1514159880871
 20
20.84558376214971
 10
109.9932861053142
 20
21.14702961710908
 10
109.5137288137674
 20
21.14702961710908
 10
109.2222737357152
 20
21.14702961710908
 10
108.9800835231022
 20
20.99889051124334
 10
108.8319444172364
 20
20.87521158332287
 10
108.8319444172364
 20
20.87521158332287
 10
108.6934515787294
 20
21.18148057196158
 10
108.6934515787294
 20
21.18148057196158
 10
108.9160047470765
 20
21.36923827590769
 10
109.2322645126225
 20
21.50773111441473
 10
109.6026122772868
 20
21.50773111441473
 10
110.2947319602735
 20
21.50773111441473
 10
110.5861870383257
 20
21.03334146609583
 10
110.5861870383257
 20
20.5737657283635
 10
110.5861870383257
 20
19.98086479535201
 10
110.1562391217665
 20
19.50130750380523
 10
109.4792778589149
 20
18.84915092844743
 10
109.4792778589149
 20
18.84915092844743
 10
109.2222737357152
 20
18.61212835906225
 10
109.2222737357152
 20
18.61212835906225
 10
109.2222737357152
 20
18.61212835906225
 10
109.2222737357152
 20
18.60213758215502
 10
109.2222737357152
 20
18.60213758215502
 10
109.2222737357152
 20
18.60213758215502
 10
110.6650797249379
 20
18.60213758215502
 10
110.6650797249379
 20
18.60213758215502
 10
110.6650797249379
 20
18.60213758215502
 10
110.6650797249379
 20
18.24143608484936
 10
110.6650797249379
 20
18.24143608484936
 10
110.6650797249379
 20
18.24143608484936
 10
108.6145588921172
 20
18.24143608484936
 10
108.6145588921172
 20
18.24143608484936
 97
        1
330
93
 75
     2
 76
     1
 98
        1
 10
0.0
 20
0.0
450
        0
451
        0
460
0.0
461
0.0
452
        0
462
0.0
453
        0
470

  0
SPLINE
  5
95
330
8F
100
AcDbEntity
  8
Livello 3
100
AcDbSpline
210
0.0
220
0.0
230
1.0
 70
    11
 71
     3
 72
    50
 73
    46
 74
     0
 42
0.000000001
 43
0.0000000001
 40
0.0
 40
0.0
 40
0.0
 40
0.0
 40
1.0
 40
1.0
 40
1.0
 40
2.0
 40
2.0
 40
2.0
 40
3.0
 40
3.0
 40
3.0
 40
4.0
 40
4.0
 40
4.0
 40
5.0
 40
5.0
 40
5.0
 40
6.0
 40
6.0
 40
6.0
 40
7.0
 40
7.0
 40
7.0
 40
8.0
 40
8.0
 40
8.0
 40
9.0
 40
9.0
 40
9.0
 40
10.0
 40
10.0
 40
10.0
 40
11.0
 40
11.0
 40
11.0
 40
12.0
 40
12.0
 40
12.0
 40
13.0
 40
13.0
 40
13.0
 40
14.0
 40
14.0
 40
14.0
 40
15.0
 40
15.0
 40
15.0
 40
15.0
 10
113.0652777495114
 20
21.08777397476278
 30
0.0
 10
113.0652777495114
 20
21.08777397476278
 30
0.0
 10
111.8398572854081
 20
21.08777397476278
 30
0.0
 10
111.8398572854081
 20
21.08777397476278
 30
0.0
 10
111.8398572854081
 20
21.08777397476278
 30
0.0
 10
111.7161783574876
 20
20.26232909649692
 30
0.0
 10
111.7161783574876
 20
20.26232909649692
 30
0.0
 10
111.7902479104205
 20
20.27231987340414
 30
0.0
 10
111.859494329674
 20
20.28231065031137
 30
0.0
 10
111.9780056143666
 20
20.28231065031137
 30
0.0
 10
112.2253634702075
 20
20.28231065031137
 30
0.0
 10
112.4723768164999
 20
20.22787814164443
 30
0.0
 10
112.6701252973533
 20
20.10936685695183
 30
0.0
 10
112.921961777325
 20
19.96605088476543
 30
0.0
 10
113.1297010350856
 20
19.68906520775134
 30
0.0
 10
113.1297010350856
 20
19.28392197868596
 30
0.0
 10
113.1297010350856
 20
18.65657009082197
 30
0.0
 10
112.6305066992729
 20
18.18700357618241
 30
0.0
 10
111.9335638826069
 20
18.18700357618241
 30
0.0
 10
111.5828531622084
 20
18.18700357618241
 30
0.0
 10
111.2862304409284
 20
18.28587781660909
 30
0.0
 10
111.1332682013833
 20
18.38475205703575
 30
0.0
 10
111.1332682013833
 20
18.38475205703575
 30
0.0
 10
111.2417887091687
 20
18.71582573316826
 30
0.0
 10
111.2417887091687
 20
18.71582573316826
 30
0.0
 10
111.3754584139964
 20
18.63658853700752
 30
0.0
 10
111.6372856708754
 20
18.53771429658085
 30
0.0
 10
111.9287407489275
 20
18.53771429658085
 30
0.0
 10
112.3390516212208
 20
18.53771429658085
 30
0.0
 10
112.6897623416192
 20
18.80470919668771
 30
0.0
 10
112.6897623416192
 20
19.23465711324689
 30
0.0
 10
112.6849392079398
 20
19.6497911192195
 30
0.0
 10
112.4079535309258
 20
19.94606933095098
 30
0.0
 10
111.7657877324752
 20
19.94606933095098
 30
0.0
 10
111.5828531622084
 20
19.94606933095098
 30
0.0
 10
111.439537190022
 20
19.92643228668506
 30
0.0
 10
111.3210259053295
 20
19.91161837609848
 30
0.0
 10
111.3210259053295
 20
19.91161837609848
 30
0.0
 10
111.5284206535415
 20
21.45329860574779
 30
0.0
 10
111.5284206535415
 20
21.45329860574779
 30
0.0
 10
111.5284206535415
 20
21.45329860574779
 30
0.0
 10
113.0652777495114
 20
21.45329860574779
 30
0.0
 10
113.0652777495114
 20
21.45329860574779
 30
0.0
 10
113.0652777495114
 20
21.45329860574779
 30
0.0
 10
113.0652777495114
 20
21.08777397476278
 30
0.0
 10
113.0652777495114
 20
21.08777397476278
 30
0.0
  0
HATCH
  5
96
330
8F
100
AcDbEntity
  8
Livello 3
 62
   250
420
  1907995
440
 33554687
100
AcDbHatch
 10
0.0
 20
0.0
 30
0.0
210
0.0
220
0.0
230
1.0
  2
SOLID
 70
     1
 71
     1
 91
        1
 92
        1
 93
        1
 72
     4
 94
        3
 73
     0
 74
     0
 95
       50
 96
       46
 40
0.0
 40
0.0
 40
0.0
 40
0.0
 40
1.0
 40
1.0
 40
1.0
 40
2.0
 40
2.0
 40
2.0
 40
3.0
 40
3.0
 40
3.0
 40
4.0
 40
4.0
 40
4.0
 40
5.0
 40
5.0
 40
5.0
 40
6.0
 40
6.0
 40
6.0
 40
7.0
 40
7.0
 40
7.0
 40
8.0
 40
8.0
 40
8.0
 40
9.0
 40
9.0
 40
9.0
 40
10.0
 40
10.0
 40
10.0
 40
11.0
 40
11.0
 40
11.0
 40
12.0
 40
12.0
 40
12.0
 40
13.0
 40
13.0
 40
13.0
 40
14.0
 40
14.0
 40
14.0
 40
15.0
 40
15.0
 40
15.0
 40
15.0
 10
113.0652777495114
 20
21.08777397476278
 10
113.0652777495114
 20
21.08777397476278
 10
111.8398572854081
 20
21.08777397476278
 10
111.8398572854081
 20
21.08777397476278
 10
111.8398572854081
 20
21.08777397476278
 10
111.7161783574876
 20
20.26232909649692
 10
111.7161783574876
 20
20.26232909649692
 10
111.7902479104205
 20
20.27231987340414
 10
111.859494329674
 20
20.28231065031137
 10
111.9780056143666
 20
20.28231065031137
 10
112.2253634702075
 20
20.28231065031137
 10
112.4723768164999
 20
20.22787814164443
 10
112.6701252973533
 20
20.10936685695183
 10
112.921961777325
 20
19.96605088476543
 10
113.1297010350856
 20
19.68906520775134
 10
113.1297010350856
 20
19.28392197868596
 10
113.1297010350856
 20
18.65657009082197
 10
112.6305066992729
 20
18.18700357618241
 10
111.9335638826069
 20
18.18700357618241
 10
111.5828531622084
 20
18.18700357618241
 10
111.2862304409284
 20
18.28587781660909
 10
111.1332682013833
 20
18.38475205703575
 10
111.1332682013833
 20
18.38475205703575
 10
111.2417887091687
 20
18.71582573316826
 10
111.2417887091687
 20
18.71582573316826
 10
111.3754584139964
 20
18.63658853700752
 10
111.6372856708754
 20
18.53771429658085
 10
111.9287407489275
 20
18.53771429658085
 10
112.3390516212208
 20
18.53771429658085
 10
112.6897623416192
 20
18.80470919668771
 10
112.6897623416192
 20
19.23465711324689
 10
112.6849392079398
 20
19.6497911192195
 10
112.4079535309258
 20
19.94606933095098
 10
111.7657877324752
 20
19.94606933095098
 10
111.5828531622084
 20
19.94606933095098
 10
111.439537190022
 20
19.92643228668506
 10
111.3210259053295
 20
19.91161837609848
 10
111.3210259053295
 20
19.91161837609848
 10
111.5284206535415
 20
21.45329860574779
 10
111.5284206535415
 20
21.45329860574779
 10
111.5284206535415
 20
21.45329860574779
 10
113.0652777495114
 20
21.45329860574779
 10
113.0652777495114
 20
21.45329860574779
 10
113.0652777495114
 20
21.45329860574779
 10
113.0652777495114
 20
21.08777397476278
 10
113.0652777495114
 20
21.08777397476278
 97
        1
330
95
 75
     2
 76
     1
 98
        1
 10
0.0
 20
0.0
450
        0
451
        0
460
0.0
461
0.0
452
        0
462
0.0
453
        0
470

  0
SPLINE
  5
97
330
8F
100
AcDbEntity
  8
Livello 3
100
AcDbSpline
210
0.0
220
0.0
230
1.0
 70
     9
 71
     3
 72
    17
 73
    13
 74
     0
 42
0.000000001
 43
0.0000000001
 40
0.0
 40
0.0
 40
0.0
 40
0.0
 40
1.0
 40
1.0
 40
1.0
 40
2.0
 40
2.0
 40
2.0
 40
3.0
 40
3.0
 40
3.0
 40
4.0
 40
4.0
 40
4.0
 40
4.0
 10
114.0719346503014
 20
19.83238117993774
 30
0.0
 10
114.0719346503014
 20
18.99729003431318
 30
0.0
 10
114.3289387735011
 20
18.52290038599427
 30
0.0
 10
114.7244357352078
 20
18.52290038599427
 30
0.0
 10
115.1691975623535
 20
18.52290038599427
 30
0.0
 10
115.3814154442449
 20
19.04173176607289
 30
0.0
 10
115.3814154442449
 20
19.86200900111089
 30
0.0
 10
115.3814154442449
 20
20.65265841497573
 30
0.0
 10
115.1788438297122
 20
21.17183430460288
 30
0.0
 10
114.7292588688871
 20
21.17183430460288
 30
0.0
 10
114.3489203273155
 20
21.17183430460288
 30
0.0
 10
114.0719346503014
 20
20.70709092364268
 30
0.0
 10
114.0719346503014
 20
19.83238117993774
 30
0.0
  0
SPLINE
  5
98
330
8F
100
AcDbEntity
  8
Livello 3
100
AcDbSpline
210
0.0
220
0.0
230
1.0
 70
     9
 71
     3
 72
    17
 73
    13
 74
     0
 42
0.000000001
 43
0.0000000001
 40
0.0
 40
0.0
 40
0.0
 40
0.0
 40
1.0
 40
1.0
 40
1.0
 40
2.0
 40
2.0
 40
2.0
 40
3.0
 40
3.0
 40
3.0
 40
4.0
 40
4.0
 40
4.0
 40
4.0
 10
115.816531004032
 20
19.88199055492534
 30
0.0
 10
115.816531004032
 20
18.78989528610114
 30
0.0
 10
115.4113877749666
 20
18.18700357618241
 30
0.0
 10
114.699631047714
 20
18.18700357618241
 30
0.0
 10
114.0719346503014
 20
18.18700357618241
 30
0.0
 10
113.6471543769701
 20
18.77508137551456
 30
0.0
 10
113.6371636000629
 20
19.83754882316561
 30
0.0
 10
113.6371636000629
 20
20.91483018140324
 30
0.0
 10
114.1015624714746
 20
21.50773111441473
 30
0.0
 10
114.7540635563809
 20
21.50773111441473
 30
0.0
 10
115.4310248192325
 20
21.50773111441473
 30
0.0
 10
115.816531004032
 20
20.90483940449601
 30
0.0
 10
115.816531004032
 20
19.88199055492534
 30
0.0
  0
HATCH
  5
99
330
8F
100
AcDbEntity
  8
Livello 3
 62
   250
420
  1907995
440
 33554687
100
AcDbHatch
 10
0.0
 20
0.0
 30
0.0
210
0.0
220
0.0
230
1.0
  2
SOLID
 70
     1
 71
     1
 91
        2
 92
        1
 93
        1
 72
     4
 94
        3
 73
     0
 74
     0
 95
       17
 96
       13
 40
0.0
 40
0.0
 40
0.0
 40
0.0
 40
1.0
 40
1.0
 40
1.0
 40
2.0
 40
2.0
 40
2.0
 40
3.0
 40
3.0
 40
3.0
 40
4.0
 40
4.0
 40
4.0
 40
4.0
 10
114.0719346503014
 20
19.83238117993774
 10
114.0719346503014
 20
18.99729003431318
 10
114.3289387735011
 20
18.52290038599427
 10
114.7244357352078
 20
18.52290038599427
 10
115.1691975623535
 20
18.52290038599427
 10
115.3814154442449
 20
19.04173176607289
 10
115.3814154442449
 20
19.86200900111089
 10
115.3814154442449
 20
20.65265841497573
 10
115.1788438297122
 20
21.17183430460288
 10
114.7292588688871
 20
21.17183430460288
 10
114.3489203273155
 20
21.17183430460288
 10
114.0719346503014
 20
20.70709092364268
 10
114.0719346503014
 20
19.83238117993774
 97
        1
330
97
 92
        1
 93
        1
 72
     4
 94
        3
 73
     0
 74
     0
 95
       17
 96
       13
 40
0.0
 40
0.0
 40
0.0
 40
0.0
 40
1.0
 40
1.0
 40
1.0
 40
2.0
 40
2.0
 40
2.0
 40
3.0
 40
3.0
 40
3.0
 40
4.0
 40
4.0
 40
4.0
 40
4.0
 10
115.816531004032
 20
19.88199055492534
 10
115.816531004032
 20
18.78989528610114
 10
115.4113877749666
 20
18.18700357618241
 10
114.699631047714
 20
18.18700357618241
 10
114.0719346503014
 20
18.18700357618241
 10
113.6471543769701
 20
18.77508137551456
 10
113.6371636000629
 20
19.83754882316561
 10
113.6371636000629
 20
20.91483018140324
 10
114.1015624714746
 20
21.50773111441473
 10
114.7540635563809
 20
21.50773111441473
 10
115.4310248192325
 20
21.50773111441473
 10
115.816531004032
 20
20.90483940449601
 10
115.816531004032
 20
19.88199055492534
 97
        1
330
98
 75
     2
 76
     1
 98
        1
 10
0.0
 20
0.0
450
        0
451
        0
460
0.0
461
0.0
452
        0
462
0.0
453
        0
470

  0
SPLINE
  5
9A
330
8F
100
AcDbEntity
  8
Livello 3
100
AcDbSpline
210
0.0
220
0.0
230
1.0
 70
     9
 71
     3
 72
    80
 73
    76
 74
     0
 42
0.000000001
 43
0.0000000001
 40
0.0
 40
0.0
 40
0.0
 40
0.0
 40
1.0
 40
1.0
 40
1.0
 40
2.0
 40
2.0
 40
2.0
 40
3.0
 40
3.0
 40
3.0
 40
4.0
 40
4.0
 40
4.0
 40
5.0
 40
5.0
 40
5.0
 40
6.0
 40
6.0
 40
6.0
 40
7.0
 40
7.0
 40
7.0
 40
8.0
 40
8.0
 40
8.0
 40
9.0
 40
9.0
 40
9.0
 40
10.0
 40
10.0
 40
10.0
 40
11.0
 40
11.0
 40
11.0
 40
12.0
 40
12.0
 40
12.0
 40
13.0
 40
13.0
 40
13.0
 40
14.0
 40
14.0
 40
14.0
 40
15.0
 40
15.0
 40
15.0
 40
16.0
 40
16.0
 40
16.0
 40
17.0
 40
17.0
 40
17.0
 40
18.0
 40
18.0
 40
18.0
 40
19.0
 40
19.0
 40
19.0
 40
20.0
 40
20.0
 40
20.0
 40
21.0
 40
21.0
 40
21.0
 40
22.0
 40
22.0
 40
22.0
 40
23.0
 40
23.0
 40
23.0
 40
24.0
 40
24.0
 40
24.0
 40
25.0
 40
25.0
 40
25.0
 40
25.0
 10
117.4005859081498
 20
19.98568792903135
 30
0.0
 10
117.4005859081498
 20
20.23270127532377
 30
0.0
 10
117.3957627744705
 20
20.43527288985646
 30
0.0
 10
117.3806043543354
 20
20.6330213707098
 30
0.0
 10
117.3806043543354
 20
20.6330213707098
 30
0.0
 10
117.7612874054555
 20
20.6330213707098
 30
0.0
 10
117.7612874054555
 20
20.6330213707098
 30
0.0
 10
117.7612874054555
 20
20.6330213707098
 30
0.0
 10
117.7809244497214
 20
20.24751518591035
 30
0.0
 10
117.7809244497214
 20
20.24751518591035
 30
0.0
 10
117.7809244497214
 20
20.24751518591035
 30
0.0
 10
117.795738360308
 20
20.24751518591035
 30
0.0
 10
117.795738360308
 20
20.24751518591035
 30
0.0
 10
117.9294080651357
 20
20.47489148793683
 30
0.0
 10
118.1516167239343
 20
20.68745387937675
 30
0.0
 10
118.547113685641
 20
20.68745387937675
 30
0.0
 10
118.8730197185456
 20
20.68745387937675
 30
0.0
 10
119.120033064838
 20
20.48970539852341
 30
0.0
 10
119.2240749484926
 20
20.2082410973785
 30
0.0
 10
119.2240749484926
 20
20.2082410973785
 30
0.0
 10
119.2337212158513
 20
20.2082410973785
 30
0.0
 10
119.2337212158513
 20
20.2082410973785
 30
0.0
 10
119.3081352783327
 20
20.34156629265766
 30
0.0
 10
119.4018418755315
 20
20.44526366676369
 30
0.0
 10
119.5007161159581
 20
20.51933321969656
 30
0.0
 10
119.6440320881445
 20
20.62819823703045
 30
0.0
 10
119.8021619709175
 20
20.68745387937675
 30
0.0
 10
120.029538272944
 20
20.68745387937675
 30
0.0
 10
120.3457980384899
 20
20.68745387937675
 30
0.0
 10
120.815020043581
 20
20.47971462161618
 30
0.0
 10
120.815020043581
 20
19.6497911192195
 30
0.0
 10
120.815020043581
 20
19.6497911192195
 30
0.0
 10
120.815020043581
 20
18.24143608484936
 30
0.0
 10
120.815020043581
 20
18.24143608484936
 30
0.0
 10
120.815020043581
 20
18.24143608484936
 30
0.0
 10
120.3902397702496
 20
18.24143608484936
 30
0.0
 10
120.3902397702496
 20
18.24143608484936
 30
0.0
 10
120.3902397702496
 20
18.24143608484936
 30
0.0
 10
120.3902397702496
 20
19.59535861055255
 30
0.0
 10
120.3902397702496
 20
19.59535861055255
 30
0.0
 10
120.3902397702496
 20
20.05493434828488
 30
0.0
 10
120.2221191105695
 20
20.33157551575044
 30
0.0
 10
119.871408390171
 20
20.33157551575044
 30
0.0
 10
119.6243950438786
 20
20.33157551575044
 30
0.0
 10
119.4314696967046
 20
20.14864094548368
 30
0.0
 10
119.3574001437717
 20
19.93642306359228
 30
0.0
 10
119.3377630995058
 20
19.87716742124598
 30
0.0
 10
119.3229491889193
 20
19.79793022508524
 30
0.0
 10
119.3229491889193
 20
19.71903753847302
 30
0.0
 10
119.3229491889193
 20
19.71903753847302
 30
0.0
 10
119.3229491889193
 20
18.24143608484936
 30
0.0
 10
119.3229491889193
 20
18.24143608484936
 30
0.0
 10
119.3229491889193
 20
18.24143608484936
 30
0.0
 10
118.8978244060394
 20
18.24143608484936
 30
0.0
 10
118.8978244060394
 20
18.24143608484936
 30
0.0
 10
118.8978244060394
 20
18.24143608484936
 30
0.0
 10
118.8978244060394
 20
19.67425129716477
 30
0.0
 10
118.8978244060394
 20
19.67425129716477
 30
0.0
 10
118.8978244060394
 20
20.05493434828488
 30
0.0
 10
118.7297037463592
 20
20.33157551575044
 30
0.0
 10
118.3986300702267
 20
20.33157551575044
 30
0.0
 10
118.1268120364405
 20
20.33157551575044
 30
0.0
 10
117.9294080651357
 20
20.11418999063117
 30
0.0
 10
117.8601616458822
 20
19.89680446551191
 30
0.0
 10
117.8353569583884
 20
19.83238117993774
 30
0.0
 10
117.8253661814811
 20
19.75831162700487
 30
0.0
 10
117.8253661814811
 20
19.68424207407199
 30
0.0
 10
117.8253661814811
 20
19.68424207407199
 30
0.0
 10
117.8253661814811
 20
18.24143608484936
 30
0.0
 10
117.8253661814811
 20
18.24143608484936
 30
0.0
 10
117.8253661814811
 20
18.24143608484936
 30
0.0
 10
117.4005859081498
 20
18.24143608484936
 30
0.0
 10
117.4005859081498
 20
18.24143608484936
 30
0.0
 10
117.4005859081498
 20
18.24143608484936
 30
0.0
 10
117.4005859081498
 20
19.98568792903135
 30
0.0
 10
117.4005859081498
 20
19.98568792903135
 30
0.0
  0
HATCH
  5
9B
330
8F
100
AcDbEntity
  8
Livello 3
 62
   250
420
  1907995
440
 33554687
100
AcDbHatch
 10
0.0
 20
0.0
 30
0.0
210
0.0
220
0.0
230
1.0
  2
SOLID
 70
     1
 71
     1
 91
        1
 92
        1
 93
        1
 72
     4
 94
        3
 73
     0
 74
     0
 95
       80
 96
       76
 40
0.0
 40
0.0
 40
0.0
 40
0.0
 40
1.0
 40
1.0
 40
1.0
 40
2.0
 40
2.0
 40
2.0
 40
3.0
 40
3.0
 40
3.0
 40
4.0
 40
4.0
 40
4.0
 40
5.0
 40
5.0
 40
5.0
 40
6.0
 40
6.0
 40
6.0
 40
7.0
 40
7.0
 40
7.0
 40
8.0
 40
8.0
 40
8.0
 40
9.0
 40
9.0
 40
9.0
 40
10.0
 40
10.0
 40
10.0
 40
11.0
 40
11.0
 40
11.0
 40
12.0
 40
12.0
 40
12.0
 40
13.0
 40
13.0
 40
13.0
 40
14.0
 40
14.0
 40
14.0
 40
15.0
 40
15.0
 40
15.0
 40
16.0
 40
16.0
 40
16.0
 40
17.0
 40
17.0
 40
17.0
 40
18.0
 40
18.0
 40
18.0
 40
19.0
 40
19.0
 40
19.0
 40
20.0
 40
20.0
 40
20.0
 40
21.0
 40
21.0
 40
21.0
 40
22.0
 40
22.0
 40
22.0
 40
23.0
 40
23.0
 40
23.0
 40
24.0
 40
24.0
 40
24.0
 40
25.0
 40
25.0
 40
25.0
 40
25.0
 10
117.4005859081498
 20
19.98568792903135
 10
117.4005859081498
 20
20.23270127532377
 10
117.3957627744705
 20
20.43527288985646
 10
117.3806043543354
 20
20.6330213707098
 10
117.3806043543354
 20
20.6330213707098
 10
117.7612874054555
 20
20.6330213707098
 10
117.7612874054555
 20
20.6330213707098
 10
117.7612874054555
 20
20.6330213707098
 10
117.7809244497214
 20
20.24751518591035
 10
117.7809244497214
 20
20.24751518591035
 10
117.7809244497214
 20
20.24751518591035
 10
117.795738360308
 20
20.24751518591035
 10
117.795738360308
 20
20.24751518591035
 10
117.9294080651357
 20
20.47489148793683
 10
118.1516167239343
 20
20.68745387937675
 10
118.547113685641
 20
20.68745387937675
 10
118.8730197185456
 20
20.68745387937675
 10
119.120033064838
 20
20.48970539852341
 10
119.2240749484926
 20
20.2082410973785
 10
119.2240749484926
 20
20.2082410973785
 10
119.2337212158513
 20
20.2082410973785
 10
119.2337212158513
 20
20.2082410973785
 10
119.3081352783327
 20
20.34156629265766
 10
119.4018418755315
 20
20.44526366676369
 10
119.5007161159581
 20
20.51933321969656
 10
119.6440320881445
 20
20.62819823703045
 10
119.8021619709175
 20
20.68745387937675
 10
120.029538272944
 20
20.68745387937675
 10
120.3457980384899
 20
20.68745387937675
 10
120.815020043581
 20
20.47971462161618
 10
120.815020043581
 20
19.6497911192195
 10
120.815020043581
 20
19.6497911192195
 10
120.815020043581
 20
18.24143608484936
 10
120.815020043581
 20
18.24143608484936
 10
120.815020043581
 20
18.24143608484936
 10
120.3902397702496
 20
18.24143608484936
 10
120.3902397702496
 20
18.24143608484936
 10
120.3902397702496
 20
18.24143608484936
 10
120.3902397702496
 20
19.59535861055255
 10
120.3902397702496
 20
19.59535861055255
 10
120.3902397702496
 20
20.05493434828488
 10
120.2221191105695
 20
20.33157551575044
 10
119.871408390171
 20
20.33157551575044
 10
119.6243950438786
 20
20.33157551575044
 10
119.4314696967046
 20
20.14864094548368
 10
119.3574001437717
 20
19.93642306359228
 10
119.3377630995058
 20
19.87716742124598
 10
119.3229491889193
 20
19.79793022508524
 10
119.3229491889193
 20
19.71903753847302
 10
119.3229491889193
 20
19.71903753847302
 10
119.3229491889193
 20
18.24143608484936
 10
119.3229491889193
 20
18.24143608484936
 10
119.3229491889193
 20
18.24143608484936
 10
118.8978244060394
 20
18.24143608484936
 10
118.8978244060394
 20
18.24143608484936
 10
118.8978244060394
 20
18.24143608484936
 10
118.8978244060394
 20
19.67425129716477
 10
118.8978244060394
 20
19.67425129716477
 10
118.8978244060394
 20
20.05493434828488
 10
118.7297037463592
 20
20.33157551575044
 10
118.3986300702267
 20
20.33157551575044
 10
118.1268120364405
 20
20.33157551575044
 10
117.9294080651357
 20
20.11418999063117
 10
117.8601616458822
 20
19.89680446551191
 10
117.8353569583884
 20
19.83238117993774
 10
117.8253661814811
 20
19.75831162700487
 10
117.8253661814811
 20
19.68424207407199
 10
117.8253661814811
 20
19.68424207407199
 10
117.8253661814811
 20
18.24143608484936
 10
117.8253661814811
 20
18.24143608484936
 10
117.8253661814811
 20
18.24143608484936
 10
117.4005859081498
 20
18.24143608484936
 10
117.4005859081498
 20
18.24143608484936
 10
117.4005859081498
 20
18.24143608484936
 10
117.4005859081498
 20
19.98568792903135
 10
117.4005859081498
 20
19.98568792903135
 97
        1
330
9A
 75
     2
 76
     1
 98
        1
 10
0.0
 20
0.0
450
        0
451
        0
460
0.0
461
0.0
452
        0
462
0.0
453
        0
470

  0
SPLINE
  5
9C
330
8F
100
AcDbEntity
  8
Livello 3
100
AcDbSpline
210
0.0
220
0.0
230
1.0
 70
     9
 71
     3
 72
    80
 73
    76
 74
     0
 42
0.000000001
 43
0.0000000001
 40
0.0
 40
0.0
 40
0.0
 40
0.0
 40
1.0
 40
1.0
 40
1.0
 40
2.0
 40
2.0
 40
2.0
 40
3.0
 40
3.0
 40
3.0
 40
4.0
 40
4.0
 40
4.0
 40
5.0
 40
5.0
 40
5.0
 40
6.0
 40
6.0
 40
6.0
 40
7.0
 40
7.0
 40
7.0
 40
8.0
 40
8.0
 40
8.0
 40
9.0
 40
9.0
 40
9.0
 40
10.0
 40
10.0
 40
10.0
 40
11.0
 40
11.0
 40
11.0
 40
12.0
 40
12.0
 40
12.0
 40
13.0
 40
13.0
 40
13.0
 40
14.0
 40
14.0
 40
14.0
 40
15.0
 40
15.0
 40
15.0
 40
16.0
 40
16.0
 40
16.0
 40
17.0
 40
17.0
 40
17.0
 40
18.0
 40
18.0
 40
18.0
 40
19.0
 40
19.0
 40
19.0
 40
20.0
 40
20.0
 40
20.0
 40
21.0
 40
21.0
 40
21.0
 40
22.0
 40
22.0
 40
22.0
 40
23.0
 40
23.0
 40
23.0
 40
24.0
 40
24.0
 40
24.0
 40
25.0
 40
25.0
 40
25.0
 40
25.0
 10
121.5195420703145
 20
19.98568792903135
 30
0.0
 10
121.5195420703145
 20
20.23270127532377
 30
0.0
 10
121.5147189366352
 20
20.43527288985646
 30
0.0
 10
121.4999050260486
 20
20.6330213707098
 30
0.0
 10
121.4999050260486
 20
20.6330213707098
 30
0.0
 10
121.8802435676202
 20
20.6330213707098
 30
0.0
 10
121.8802435676202
 20
20.6330213707098
 30
0.0
 10
121.8802435676202
 20
20.6330213707098
 30
0.0
 10
121.9002251214347
 20
20.24751518591035
 30
0.0
 10
121.9002251214347
 20
20.24751518591035
 30
0.0
 10
121.9002251214347
 20
20.24751518591035
 30
0.0
 10
121.9150390320212
 20
20.24751518591035
 30
0.0
 10
121.9150390320212
 20
20.24751518591035
 30
0.0
 10
122.0483642273004
 20
20.47489148793683
 30
0.0
 10
122.2709173956475
 20
20.68745387937675
 30
0.0
 10
122.6660698478057
 20
20.68745387937675
 30
0.0
 10
122.9923203902588
 20
20.68745387937675
 30
0.0
 10
123.2393337365513
 20
20.48970539852341
 30
0.0
 10
123.3430311106573
 20
20.2082410973785
 30
0.0
 10
123.3430311106573
 20
20.2082410973785
 30
0.0
 10
123.3530218875645
 20
20.2082410973785
 30
0.0
 10
123.3530218875645
 20
20.2082410973785
 30
0.0
 10
123.4270914404974
 20
20.34156629265766
 30
0.0
 10
123.5211425472447
 20
20.44526366676369
 30
0.0
 10
123.6196722781228
 20
20.51933321969656
 30
0.0
 10
123.7629882503092
 20
20.62819823703045
 30
0.0
 10
123.9211181330822
 20
20.68745387937675
 30
0.0
 10
124.1484944351087
 20
20.68745387937675
 30
0.0
 10
124.4647542006546
 20
20.68745387937675
 30
0.0
 10
124.9343207152942
 20
20.47971462161618
 30
0.0
 10
124.9343207152942
 20
19.6497911192195
 30
0.0
 10
124.9343207152942
 20
19.6497911192195
 30
0.0
 10
124.9343207152942
 20
18.24143608484936
 30
0.0
 10
124.9343207152942
 20
18.24143608484936
 30
0.0
 10
124.9343207152942
 20
18.24143608484936
 30
0.0
 10
124.5091959324144
 20
18.24143608484936
 30
0.0
 10
124.5091959324144
 20
18.24143608484936
 30
0.0
 10
124.5091959324144
 20
18.24143608484936
 30
0.0
 10
124.5091959324144
 20
19.59535861055255
 30
0.0
 10
124.5091959324144
 20
19.59535861055255
 30
0.0
 10
124.5091959324144
 20
20.05493434828488
 30
0.0
 10
124.3414197822827
 20
20.33157551575044
 30
0.0
 10
123.9903645523357
 20
20.33157551575044
 30
0.0
 10
123.7433512060433
 20
20.33157551575044
 30
0.0
 10
123.5507703684179
 20
20.14864094548368
 30
0.0
 10
123.4763563059364
 20
19.93642306359228
 30
0.0
 10
123.4567192616705
 20
19.87716742124598
 30
0.0
 10
123.4419053510839
 20
19.79793022508524
 30
0.0
 10
123.4419053510839
 20
19.71903753847302
 30
0.0
 10
123.4419053510839
 20
19.71903753847302
 30
0.0
 10
123.4419053510839
 20
18.24143608484936
 30
0.0
 10
123.4419053510839
 20
18.24143608484936
 30
0.0
 10
123.4419053510839
 20
18.24143608484936
 30
0.0
 10
123.0171250777526
 20
18.24143608484936
 30
0.0
 10
123.0171250777526
 20
18.24143608484936
 30
0.0
 10
123.0171250777526
 20
18.24143608484936
 30
0.0
 10
123.0171250777526
 20
19.67425129716477
 30
0.0
 10
123.0171250777526
 20
19.67425129716477
 30
0.0
 10
123.0171250777526
 20
20.05493434828488
 30
0.0
 10
122.8490044180725
 20
20.33157551575044
 30
0.0
 10
122.5179307419399
 20
20.33157551575044
 30
0.0
 10
122.2461127081537
 20
20.33157551575044
 30
0.0
 10
122.0483642273004
 20
20.11418999063117
 30
0.0
 10
121.9791178080469
 20
19.89680446551191
 30
0.0
 10
121.9546576301016
 20
19.83238117993774
 30
0.0
 10
121.9446668531944
 20
19.75831162700487
 30
0.0
 10
121.9446668531944
 20
19.68424207407199
 30
0.0
 10
121.9446668531944
 20
19.68424207407199
 30
0.0
 10
121.9446668531944
 20
18.24143608484936
 30
0.0
 10
121.9446668531944
 20
18.24143608484936
 30
0.0
 10
121.9446668531944
 20
18.24143608484936
 30
0.0
 10
121.5195420703145
 20
18.24143608484936
 30
0.0
 10
121.5195420703145
 20
18.24143608484936
 30
0.0
 10
121.5195420703145
 20
18.24143608484936
 30
0.0
 10
121.5195420703145
 20
19.98568792903135
 30
0.0
 10
121.5195420703145
 20
19.98568792903135
 30
0.0
  0
HATCH
  5
9D
330
8F
100
AcDbEntity
  8
Livello 3
 62
   250
420
  1907995
440
 33554687
100
AcDbHatch
 10
0.0
 20
0.0
 30
0.0
210
0.0
220
0.0
230
1.0
  2
SOLID
 70
     1
 71
     1
 91
        1
 92
        1
 93
        1
 72
     4
 94
        3
 73
     0
 74
     0
 95
       80
 96
       76
 40
0.0
 40
0.0
 40
0.0
 40
0.0
 40
1.0
 40
1.0
 40
1.0
 40
2.0
 40
2.0
 40
2.0
 40
3.0
 40
3.0
 40
3.0
 40
4.0
 40
4.0
 40
4.0
 40
5.0
 40
5.0
 40
5.0
 40
6.0
 40
6.0
 40
6.0
 40
7.0
 40
7.0
 40
7.0
 40
8.0
 40
8.0
 40
8.0
 40
9.0
 40
9.0
 40
9.0
 40
10.0
 40
10.0
 40
10.0
 40
11.0
 40
11.0
 40
11.0
 40
12.0
 40
12.0
 40
12.0
 40
13.0
 40
13.0
 40
13.0
 40
14.0
 40
14.0
 40
14.0
 40
15.0
 40
15.0
 40
15.0
 40
16.0
 40
16.0
 40
16.0
 40
17.0
 40
17.0
 40
17.0
 40
18.0
 40
18.0
 40
18.0
 40
19.0
 40
19.0
 40
19.0
 40
20.0
 40
20.0
 40
20.0
 40
21.0
 40
21.0
 40
21.0
 40
22.0
 40
22.0
 40
22.0
 40
23.0
 40
23.0
 40
23.0
 40
24.0
 40
24.0
 40
24.0
 40
25.0
 40
25.0
 40
25.0
 40
25.0
 10
121.5195420703145
 20
19.98568792903135
 10
121.5195420703145
 20
20.23270127532377
 10
121.5147189366352
 20
20.43527288985646
 10
121.4999050260486
 20
20.6330213707098
 10
121.4999050260486
 20
20.6330213707098
 10
121.8802435676202
 20
20.6330213707098
 10
121.8802435676202
 20
20.6330213707098
 10
121.8802435676202
 20
20.6330213707098
 10
121.9002251214347
 20
20.24751518591035
 10
121.9002251214347
 20
20.24751518591035
 10
121.9002251214347
 20
20.24751518591035
 10
121.9150390320212
 20
20.24751518591035
 10
121.9150390320212
 20
20.24751518591035
 10
122.0483642273004
 20
20.47489148793683
 10
122.2709173956475
 20
20.68745387937675
 10
122.6660698478057
 20
20.68745387937675
 10
122.9923203902588
 20
20.68745387937675
 10
123.2393337365513
 20
20.48970539852341
 10
123.3430311106573
 20
20.2082410973785
 10
123.3430311106573
 20
20.2082410973785
 10
123.3530218875645
 20
20.2082410973785
 10
123.3530218875645
 20
20.2082410973785
 10
123.4270914404974
 20
20.34156629265766
 10
123.5211425472447
 20
20.44526366676369
 10
123.6196722781228
 20
20.51933321969656
 10
123.7629882503092
 20
20.62819823703045
 10
123.9211181330822
 20
20.68745387937675
 10
124.1484944351087
 20
20.68745387937675
 10
124.4647542006546
 20
20.68745387937675
 10
124.9343207152942
 20
20.47971462161618
 10
124.9343207152942
 20
19.6497911192195
 10
124.9343207152942
 20
19.6497911192195
 10
124.9343207152942
 20
18.24143608484936
 10
124.9343207152942
 20
18.24143608484936
 10
124.9343207152942
 20
18.24143608484936
 10
124.5091959324144
 20
18.24143608484936
 10
124.5091959324144
 20
18.24143608484936
 10
124.5091959324144
 20
18.24143608484936
 10
124.5091959324144
 20
19.59535861055255
 10
124.5091959324144
 20
19.59535861055255
 10
124.5091959324144
 20
20.05493434828488
 10
124.3414197822827
 20
20.33157551575044
 10
123.9903645523357
 20
20.33157551575044
 10
123.7433512060433
 20
20.33157551575044
 10
123.5507703684179
 20
20.14864094548368
 10
123.4763563059364
 20
19.93642306359228
 10
123.4567192616705
 20
19.87716742124598
 10
123.4419053510839
 20
19.79793022508524
 10
123.4419053510839
 20
19.71903753847302
 10
123.4419053510839
 20
19.71903753847302
 10
123.4419053510839
 20
18.24143608484936
 10
123.4419053510839
 20
18.24143608484936
 10
123.4419053510839
 20
18.24143608484936
 10
123.0171250777526
 20
18.24143608484936
 10
123.0171250777526
 20
18.24143608484936
 10
123.0171250777526
 20
18.24143608484936
 10
123.0171250777526
 20
19.67425129716477
 10
123.0171250777526
 20
19.67425129716477
 10
123.0171250777526
 20
20.05493434828488
 10
122.8490044180725
 20
20.33157551575044
 10
122.5179307419399
 20
20.33157551575044
 10
122.2461127081537
 20
20.33157551575044
 10
122.0483642273004
 20
20.11418999063117
 10
121.9791178080469
 20
19.89680446551191
 10
121.9546576301016
 20
19.83238117993774
 10
121.9446668531944
 20
19.75831162700487
 10
121.9446668531944
 20
19.68424207407199
 10
121.9446668531944
 20
19.68424207407199
 10
121.9446668531944
 20
18.24143608484936
 10
121.9446668531944
 20
18.24143608484936
 10
121.9446668531944
 20
18.24143608484936
 10
121.5195420703145
 20
18.24143608484936
 10
121.5195420703145
 20
18.24143608484936
 10
121.5195420703145
 20
18.24143608484936
 10
121.5195420703145
 20
19.98568792903135
 10
121.5195420703145
 20
19.98568792903135
 97
        1
330
9C
 75
     2
 76
     1
 98
        1
 10
0.0
 20
0.0
450
        0
451
        0
460
0.0
461
0.0
452
        0
462
0.0
453
        0
470

  0
ENDBLK
  5
92
330
8F
100
AcDbEntity
  8
0
100
AcDbBlockEnd
  0
BLOCK
  5
A0
330
9E
100
AcDbEntity
  8
0
100
AcDbBlockBegin
  2
Block_2
 70
     0
 10
0.0
 20
0.0
 30
0.0
  3
Block_2
  1

  0
INSERT
  5
A3
330
9E
100
AcDbEntity
  8
Livello 3
100
AcDbBlockReference
  2
Block_3
 10
0.0
 20
0.0
 30
0.0
  0
ENDBLK
  5
A1
330
9E
100
AcDbEntity
  8
0
100
AcDbBlockEnd
  0
BLOCK
  5
A4
330
A2
100
AcDbEntity
  8
0
100
AcDbBlockBegin
  2
Block_3
 70
     0
 10
0.0
 20
0.0
 30
0.0
  3
Block_3
  1

  0
ENDBLK
  5
A5
330
A2
100
AcDbEntity
  8
0
100
AcDbBlockEnd
  0
BLOCK
  5
A8
330
A6
100
AcDbEntity
  8
0
100
AcDbBlockBegin
  2
Block_4
 70
     0
 10
0.0
 20
0.0
 30
0.0
  3
Block_4
  1

  0
INSERT
  5
AB
330
A6
100
AcDbEntity
  8
Livello 3
100
AcDbBlockReference
  2
Block_5
 10
0.0
 20
0.0
 30
0.0
  0
ENDBLK
  5
A9
330
A6
100
AcDbEntity
  8
0
100
AcDbBlockEnd
  0
BLOCK
  5
AC
330
AA
100
AcDbEntity
  8
0
100
AcDbBlockBegin
  2
Block_5
 70
     0
 10
0.0
 20
0.0
 30
0.0
  3
Block_5
  1

  0
SPLINE
  5
AE
330
AA
100
AcDbEntity
  8
Livello 3
100
AcDbSpline
210
0.0
220
0.0
230
1.0
 70
    11
 71
     3
 72
    47
 73
    43
 74
     0
 42
0.000000001
 43
0.0000000001
 40
0.0
 40
0.0
 40
0.0
 40
0.0
 40
1.0
 40
1.0
 40
1.0
 40
2.0
 40
2.0
 40
2.0
 40
3.0
 40
3.0
 40
3.0
 40
4.0
 40
4.0
 40
4.0
 40
5.0
 40
5.0
 40
5.0
 40
6.0
 40
6.0
 40
6.0
 40
7.0
 40
7.0
 40
7.0
 40
8.0
 40
8.0
 40
8.0
 40
9.0
 40
9.0
 40
9.0
 40
10.0
 40
10.0
 40
10.0
 40
11.0
 40
11.0
 40
11.0
 40
12.0
 40
12.0
 40
12.0
 40
13.0
 40
13.0
 40
13.0
 40
14.0
 40
14.0
 40
14.0
 40
14.0
 10
71.43371037710685
 20
28.43375107796101
 30
0.0
 10
71.43371037710685
 20
28.43375107796101
 30
0.0
 10
71.43371037710685
 20
28.70040146851934
 30
0.0
 10
71.43371037710685
 20
28.70040146851934
 30
0.0
 10
71.43371037710685
 20
28.70040146851934
 30
0.0
 10
71.77460257537233
 20
29.03147514465186
 30
0.0
 10
71.77460257537233
 20
29.03147514465186
 30
0.0
 10
72.59505206518458
 20
29.812478291158
 30
0.0
 10
72.96557208462319
 20
30.22761229713061
 30
0.0
 10
72.97056747307681
 20
30.7116482128082
 30
0.0
 10
72.97056747307681
 20
31.03789875526136
 30
0.0
 10
72.81243759030385
 20
31.33934461022072
 30
0.0
 10
72.33305255353132
 20
31.33934461022072
 30
0.0
 10
72.04142522070492
 20
31.33934461022072
 30
0.0
 10
71.79940726286613
 20
31.19120550435499
 30
0.0
 10
71.65109590222612
 20
31.06752657643451
 30
0.0
 10
71.65109590222612
 20
31.06752657643451
 30
0.0
 10
71.51277531849335
 20
31.37379556507322
 30
0.0
 10
71.51277531849335
 20
31.37379556507322
 30
0.0
 10
71.73515623206622
 20
31.56155326901934
 30
0.0
 10
72.05141599761216
 20
31.70004610752638
 30
0.0
 10
72.42193601705077
 20
31.70004610752638
 30
0.0
 10
73.1138834452632
 20
31.70004610752638
 30
0.0
 10
73.40533852331532
 20
31.22565645920748
 30
0.0
 10
73.40533852331532
 20
30.76608072147515
 30
0.0
 10
73.40533852331532
 20
30.17317978846365
 30
0.0
 10
72.97539060675615
 20
29.69362249691688
 30
0.0
 10
72.29842934390456
 20
29.04146592155908
 30
0.0
 10
72.29842934390456
 20
29.04146592155908
 30
0.0
 10
72.04142522070492
 20
28.80444335217389
 30
0.0
 10
72.04142522070492
 20
28.80444335217389
 30
0.0
 10
72.04142522070492
 20
28.80444335217389
 30
0.0
 10
72.04142522070492
 20
28.79445257526667
 30
0.0
 10
72.04142522070492
 20
28.79445257526667
 30
0.0
 10
72.04142522070492
 20
28.79445257526667
 30
0.0
 10
73.48440346470181
 20
28.79445257526667
 30
0.0
 10
73.48440346470181
 20
28.79445257526667
 30
0.0
 10
73.48440346470181
 20
28.79445257526667
 30
0.0
 10
73.48440346470181
 20
28.43375107796101
 30
0.0
 10
73.48440346470181
 20
28.43375107796101
 30
0.0
 10
73.48440346470181
 20
28.43375107796101
 30
0.0
 10
71.43371037710685
 20
28.43375107796101
 30
0.0
 10
71.43371037710685
 20
28.43375107796101
 30
0.0
  0
HATCH
  5
AF
330
AA
100
AcDbEntity
  8
Livello 3
 62
   250
420
  1907995
440
 33554687
100
AcDbHatch
 10
0.0
 20
0.0
 30
0.0
210
0.0
220
0.0
230
1.0
  2
SOLID
 70
     1
 71
     1
 91
        1
 92
        1
 93
        1
 72
     4
 94
        3
 73
     0
 74
     0
 95
       47
 96
       43
 40
0.0
 40
0.0
 40
0.0
 40
0.0
 40
1.0
 40
1.0
 40
1.0
 40
2.0
 40
2.0
 40
2.0
 40
3.0
 40
3.0
 40
3.0
 40
4.0
 40
4.0
 40
4.0
 40
5.0
 40
5.0
 40
5.0
 40
6.0
 40
6.0
 40
6.0
 40
7.0
 40
7.0
 40
7.0
 40
8.0
 40
8.0
 40
8.0
 40
9.0
 40
9.0
 40
9.0
 40
10.0
 40
10.0
 40
10.0
 40
11.0
 40
11.0
 40
11.0
 40
12.0
 40
12.0
 40
12.0
 40
13.0
 40
13.0
 40
13.0
 40
14.0
 40
14.0
 40
14.0
 40
14.0
 10
71.43371037710685
 20
28.43375107796101
 10
71.43371037710685
 20
28.43375107796101
 10
71.43371037710685
 20
28.70040146851934
 10
71.43371037710685
 20
28.70040146851934
 10
71.43371037710685
 20
28.70040146851934
 10
71.77460257537233
 20
29.03147514465186
 10
71.77460257537233
 20
29.03147514465186
 10
72.59505206518458
 20
29.812478291158
 10
72.96557208462319
 20
30.22761229713061
 10
72.97056747307681
 20
30.7116482128082
 10
72.97056747307681
 20
31.03789875526136
 10
72.81243759030385
 20
31.33934461022072
 10
72.33305255353132
 20
31.33934461022072
 10
72.04142522070492
 20
31.33934461022072
 10
71.79940726286613
 20
31.19120550435499
 10
71.65109590222612
 20
31.06752657643451
 10
71.65109590222612
 20
31.06752657643451
 10
71.51277531849335
 20
31.37379556507322
 10
71.51277531849335
 20
31.37379556507322
 10
71.73515623206622
 20
31.56155326901934
 10
72.05141599761216
 20
31.70004610752638
 10
72.42193601705077
 20
31.70004610752638
 10
73.1138834452632
 20
31.70004610752638
 10
73.40533852331532
 20
31.22565645920748
 10
73.40533852331532
 20
30.76608072147515
 10
73.40533852331532
 20
30.17317978846365
 10
72.97539060675615
 20
29.69362249691688
 10
72.29842934390456
 20
29.04146592155908
 10
72.29842934390456
 20
29.04146592155908
 10
72.04142522070492
 20
28.80444335217389
 10
72.04142522070492
 20
28.80444335217389
 10
72.04142522070492
 20
28.80444335217389
 10
72.04142522070492
 20
28.79445257526667
 10
72.04142522070492
 20
28.79445257526667
 10
72.04142522070492
 20
28.79445257526667
 10
73.48440346470181
 20
28.79445257526667
 10
73.48440346470181
 20
28.79445257526667
 10
73.48440346470181
 20
28.79445257526667
 10
73.48440346470181
 20
28.43375107796101
 10
73.48440346470181
 20
28.43375107796101
 10
73.48440346470181
 20
28.43375107796101
 10
71.43371037710685
 20
28.43375107796101
 10
71.43371037710685
 20
28.43375107796101
 97
        1
330
AE
 75
     2
 76
     1
 98
        1
 10
0.0
 20
0.0
450
        0
451
        0
460
0.0
461
0.0
452
        0
462
0.0
453
        0
470

  0
SPLINE
  5
B0
330
AA
100
AcDbEntity
  8
Livello 3
100
AcDbSpline
210
0.0
220
0.0
230
1.0
 70
    11
 71
     3
 72
    50
 73
    46
 74
     0
 42
0.000000001
 43
0.0000000001
 40
0.0
 40
0.0
 40
0.0
 40
0.0
 40
1.0
 40
1.0
 40
1.0
 40
2.0
 40
2.0
 40
2.0
 40
3.0
 40
3.0
 40
3.0
 40
4.0
 40
4.0
 40
4.0
 40
5.0
 40
5.0
 40
5.0
 40
6.0
 40
6.0
 40
6.0
 40
7.0
 40
7.0
 40
7.0
 40
8.0
 40
8.0
 40
8.0
 40
9.0
 40
9.0
 40
9.0
 40
10.0
 40
10.0
 40
10.0
 40
11.0
 40
11.0
 40
11.0
 40
12.0
 40
12.0
 40
12.0
 40
13.0
 40
13.0
 40
13.0
 40
14.0
 40
14.0
 40
14.0
 40
15.0
 40
15.0
 40
15.0
 40
15.0
 10
75.88460148927538
 20
31.28008896787442
 30
0.0
 10
75.88460148927538
 20
31.28008896787442
 30
0.0
 10
74.65900877039775
 20
31.28008896787442
 30
0.0
 10
74.65900877039775
 20
31.28008896787442
 30
0.0
 10
74.65900877039775
 20
31.28008896787442
 30
0.0
 10
74.53550209725155
 20
30.45464408960857
 30
0.0
 10
74.53550209725155
 20
30.45464408960857
 30
0.0
 10
74.60957165018442
 20
30.46463486651579
 30
0.0
 10
74.67881806943793
 20
30.47462564342302
 30
0.0
 10
74.79732935413053
 20
30.47462564342302
 30
0.0
 10
75.0445149551972
 20
30.47462564342302
 30
0.0
 10
75.29152830148963
 20
30.42019313475607
 30
0.0
 10
75.48927678234296
 20
30.30168185006347
 30
0.0
 10
75.74128551708898
 20
30.15836587787708
 30
0.0
 10
75.94885252007529
 20
29.88138020086299
 30
0.0
 10
75.94885252007529
 20
29.47623697179761
 30
0.0
 10
75.94885252007529
 20
28.84888508393361
 30
0.0
 10
75.44965818426259
 20
28.37931856929406
 30
0.0
 10
74.75288762237082
 20
28.37931856929406
 30
0.0
 10
74.40200464719811
 20
28.37931856929406
 30
0.0
 10
74.10555418069235
 20
28.47819280972073
 30
0.0
 10
73.95241968637299
 20
28.5770670501474
 30
0.0
 10
73.95241968637299
 20
28.5770670501474
 30
0.0
 10
74.06111244893264
 20
28.90814072627991
 30
0.0
 10
74.06111244893264
 20
28.90814072627991
 30
0.0
 10
74.19460989898606
 20
28.82890353011916
 30
0.0
 10
74.45643715586506
 20
28.73002928969249
 30
0.0
 10
74.74806448869145
 20
28.73002928969249
 30
0.0
 10
75.15820310621045
 20
28.73002928969249
 30
0.0
 10
75.50891382660889
 20
28.99702418979936
 30
0.0
 10
75.50891382660889
 20
29.42697210635854
 30
0.0
 10
75.50409069292953
 20
29.84210611233114
 30
0.0
 10
75.22727727068971
 20
30.13838432406263
 30
0.0
 10
74.58493921746487
 20
30.13838432406263
 30
0.0
 10
74.40200464719811
 20
30.13838432406263
 30
0.0
 10
74.25868867501172
 20
30.1187472797967
 30
0.0
 10
74.14017739031912
 20
30.10393336921013
 30
0.0
 10
74.14017739031912
 20
30.10393336921013
 30
0.0
 10
74.34774439330543
 20
31.64561359885943
 30
0.0
 10
74.34774439330543
 20
31.64561359885943
 30
0.0
 10
74.34774439330543
 20
31.64561359885943
 30
0.0
 10
75.88460148927538
 20
31.64561359885943
 30
0.0
 10
75.88460148927538
 20
31.64561359885943
 30
0.0
 10
75.88460148927538
 20
31.64561359885943
 30
0.0
 10
75.88460148927538
 20
31.28008896787442
 30
0.0
 10
75.88460148927538
 20
31.28008896787442
 30
0.0
  0
HATCH
  5
B1
330
AA
100
AcDbEntity
  8
Livello 3
 62
   250
420
  1907995
440
 33554687
100
AcDbHatch
 10
0.0
 20
0.0
 30
0.0
210
0.0
220
0.0
230
1.0
  2
SOLID
 70
     1
 71
     1
 91
        1
 92
        1
 93
        1
 72
     4
 94
        3
 73
     0
 74
     0
 95
       50
 96
       46
 40
0.0
 40
0.0
 40
0.0
 40
0.0
 40
1.0
 40
1.0
 40
1.0
 40
2.0
 40
2.0
 40
2.0
 40
3.0
 40
3.0
 40
3.0
 40
4.0
 40
4.0
 40
4.0
 40
5.0
 40
5.0
 40
5.0
 40
6.0
 40
6.0
 40
6.0
 40
7.0
 40
7.0
 40
7.0
 40
8.0
 40
8.0
 40
8.0
 40
9.0
 40
9.0
 40
9.0
 40
10.0
 40
10.0
 40
10.0
 40
11.0
 40
11.0
 40
11.0
 40
12.0
 40
12.0
 40
12.0
 40
13.0
 40
13.0
 40
13.0
 40
14.0
 40
14.0
 40
14.0
 40
15.0
 40
15.0
 40
15.0
 40
15.0
 10
75.88460148927538
 20
31.28008896787442
 10
75.88460148927538
 20
31.28008896787442
 10
74.65900877039775
 20
31.28008896787442
 10
74.65900877039775
 20
31.28008896787442
 10
74.65900877039775
 20
31.28008896787442
 10
74.53550209725155
 20
30.45464408960857
 10
74.53550209725155
 20
30.45464408960857
 10
74.60957165018442
 20
30.46463486651579
 10
74.67881806943793
 20
30.47462564342302
 10
74.79732935413053
 20
30.47462564342302
 10
75.0445149551972
 20
30.47462564342302
 10
75.29152830148963
 20
30.42019313475607
 10
75.48927678234296
 20
30.30168185006347
 10
75.74128551708898
 20
30.15836587787708
 10
75.94885252007529
 20
29.88138020086299
 10
75.94885252007529
 20
29.47623697179761
 10
75.94885252007529
 20
28.84888508393361
 10
75.44965818426259
 20
28.37931856929406
 10
74.75288762237082
 20
28.37931856929406
 10
74.40200464719811
 20
28.37931856929406
 10
74.10555418069235
 20
28.47819280972073
 10
73.95241968637299
 20
28.5770670501474
 10
73.95241968637299
 20
28.5770670501474
 10
74.06111244893264
 20
28.90814072627991
 10
74.06111244893264
 20
28.90814072627991
 10
74.19460989898606
 20
28.82890353011916
 10
74.45643715586506
 20
28.73002928969249
 10
74.74806448869145
 20
28.73002928969249
 10
75.15820310621045
 20
28.73002928969249
 10
75.50891382660889
 20
28.99702418979936
 10
75.50891382660889
 20
29.42697210635854
 10
75.50409069292953
 20
29.84210611233114
 10
75.22727727068971
 20
30.13838432406263
 10
74.58493921746487
 20
30.13838432406263
 10
74.40200464719811
 20
30.13838432406263
 10
74.25868867501172
 20
30.1187472797967
 10
74.14017739031912
 20
30.10393336921013
 10
74.14017739031912
 20
30.10393336921013
 10
74.34774439330543
 20
31.64561359885943
 10
74.34774439330543
 20
31.64561359885943
 10
74.34774439330543
 20
31.64561359885943
 10
75.88460148927538
 20
31.64561359885943
 10
75.88460148927538
 20
31.64561359885943
 10
75.88460148927538
 20
31.64561359885943
 10
75.88460148927538
 20
31.28008896787442
 10
75.88460148927538
 20
31.28008896787442
 97
        1
330
B0
 75
     2
 76
     1
 98
        1
 10
0.0
 20
0.0
450
        0
451
        0
460
0.0
461
0.0
452
        0
462
0.0
453
        0
470

  0
SPLINE
  5
B2
330
AA
100
AcDbEntity
  8
Livello 3
100
AcDbSpline
210
0.0
220
0.0
230
1.0
 70
     9
 71
     3
 72
    17
 73
    13
 74
     0
 42
0.000000001
 43
0.0000000001
 40
0.0
 40
0.0
 40
0.0
 40
0.0
 40
1.0
 40
1.0
 40
1.0
 40
2.0
 40
2.0
 40
2.0
 40
3.0
 40
3.0
 40
3.0
 40
4.0
 40
4.0
 40
4.0
 40
4.0
 10
76.89125839006539
 20
30.02469617304938
 30
0.0
 10
76.89125839006539
 20
29.18960502742482
 30
0.0
 10
77.14826251326503
 20
28.71521537910592
 30
0.0
 10
77.54358722019744
 20
28.71521537910592
 30
0.0
 10
77.98834904734319
 20
28.71521537910592
 30
0.0
 10
78.20073918400885
 20
29.23404675918455
 30
0.0
 10
78.20073918400885
 20
30.05432399422253
 30
0.0
 10
78.20073918400885
 20
30.84497340808737
 30
0.0
 10
77.99816756947615
 20
31.36414929771452
 30
0.0
 10
77.54858260865105
 20
31.36414929771452
 30
0.0
 10
77.1680718123052
 20
31.36414929771452
 30
0.0
 10
76.89125839006539
 20
30.89940591675433
 30
0.0
 10
76.89125839006539
 20
30.02469617304938
 30
0.0
  0
SPLINE
  5
B3
330
AA
100
AcDbEntity
  8
Livello 3
100
AcDbSpline
210
0.0
220
0.0
230
1.0
 70
     9
 71
     3
 72
    17
 73
    13
 74
     0
 42
0.000000001
 43
0.0000000001
 40
0.0
 40
0.0
 40
0.0
 40
0.0
 40
1.0
 40
1.0
 40
1.0
 40
2.0
 40
2.0
 40
2.0
 40
3.0
 40
3.0
 40
3.0
 40
4.0
 40
4.0
 40
4.0
 40
4.0
 10
78.63568248902161
 20
30.07430554803698
 30
0.0
 10
78.63568248902161
 20
28.98221027921279
 30
0.0
 10
78.23053925995626
 20
28.37931856929406
 30
0.0
 10
77.5189547874779
 20
28.37931856929406
 30
0.0
 10
76.89125839006539
 20
28.37931856929406
 30
0.0
 10
76.46630586195981
 20
28.96739636862621
 30
0.0
 10
76.45648733982683
 20
30.02986381627726
 30
0.0
 10
76.45648733982683
 20
31.10714517451488
 30
0.0
 10
76.92088621123855
 20
31.70004610752638
 30
0.0
 10
77.57321504137059
 20
31.70004610752638
 30
0.0
 10
78.25017630422218
 20
31.70004610752638
 30
0.0
 10
78.63568248902161
 20
31.09715439760766
 30
0.0
 10
78.63568248902161
 20
30.07430554803698
 30
0.0
  0
HATCH
  5
B4
330
AA
100
AcDbEntity
  8
Livello 3
 62
   250
420
  1907995
440
 33554687
100
AcDbHatch
 10
0.0
 20
0.0
 30
0.0
210
0.0
220
0.0
230
1.0
  2
SOLID
 70
     1
 71
     1
 91
        2
 92
        1
 93
        1
 72
     4
 94
        3
 73
     0
 74
     0
 95
       17
 96
       13
 40
0.0
 40
0.0
 40
0.0
 40
0.0
 40
1.0
 40
1.0
 40
1.0
 40
2.0
 40
2.0
 40
2.0
 40
3.0
 40
3.0
 40
3.0
 40
4.0
 40
4.0
 40
4.0
 40
4.0
 10
76.89125839006539
 20
30.02469617304938
 10
76.89125839006539
 20
29.18960502742482
 10
77.14826251326503
 20
28.71521537910592
 10
77.54358722019744
 20
28.71521537910592
 10
77.98834904734319
 20
28.71521537910592
 10
78.20073918400885
 20
29.23404675918455
 10
78.20073918400885
 20
30.05432399422253
 10
78.20073918400885
 20
30.84497340808737
 10
77.99816756947615
 20
31.36414929771452
 10
77.54858260865105
 20
31.36414929771452
 10
77.1680718123052
 20
31.36414929771452
 10
76.89125839006539
 20
30.89940591675433
 10
76.89125839006539
 20
30.02469617304938
 97
        1
330
B2
 92
        1
 93
        1
 72
     4
 94
        3
 73
     0
 74
     0
 95
       17
 96
       13
 40
0.0
 40
0.0
 40
0.0
 40
0.0
 40
1.0
 40
1.0
 40
1.0
 40
2.0
 40
2.0
 40
2.0
 40
3.0
 40
3.0
 40
3.0
 40
4.0
 40
4.0
 40
4.0
 40
4.0
 10
78.63568248902161
 20
30.07430554803698
 10
78.63568248902161
 20
28.98221027921279
 10
78.23053925995626
 20
28.37931856929406
 10
77.5189547874779
 20
28.37931856929406
 10
76.89125839006539
 20
28.37931856929406
 10
76.46630586195981
 20
28.96739636862621
 10
76.45648733982683
 20
30.02986381627726
 10
76.45648733982683
 20
31.10714517451488
 10
76.92088621123855
 20
31.70004610752638
 10
77.57321504137059
 20
31.70004610752638
 10
78.25017630422218
 20
31.70004610752638
 10
78.63568248902161
 20
31.09715439760766
 10
78.63568248902161
 20
30.07430554803698
 97
        1
330
B3
 75
     2
 76
     1
 98
        1
 10
0.0
 20
0.0
450
        0
451
        0
460
0.0
461
0.0
452
        0
462
0.0
453
        0
470

  0
SPLINE
  5
B5
330
AA
100
AcDbEntity
  8
Livello 3
100
AcDbSpline
210
0.0
220
0.0
230
1.0
 70
     9
 71
     3
 72
    80
 73
    76
 74
     0
 42
0.000000001
 43
0.0000000001
 40
0.0
 40
0.0
 40
0.0
 40
0.0
 40
1.0
 40
1.0
 40
1.0
 40
2.0
 40
2.0
 40
2.0
 40
3.0
 40
3.0
 40
3.0
 40
4.0
 40
4.0
 40
4.0
 40
5.0
 40
5.0
 40
5.0
 40
6.0
 40
6.0
 40
6.0
 40
7.0
 40
7.0
 40
7.0
 40
8.0
 40
8.0
 40
8.0
 40
9.0
 40
9.0
 40
9.0
 40
10.0
 40
10.0
 40
10.0
 40
11.0
 40
11.0
 40
11.0
 40
12.0
 40
12.0
 40
12.0
 40
13.0
 40
13.0
 40
13.0
 40
14.0
 40
14.0
 40
14.0
 40
15.0
 40
15.0
 40
15.0
 40
16.0
 40
16.0
 40
16.0
 40
17.0
 40
17.0
 40
17.0
 40
18.0
 40
18.0
 40
18.0
 40
19.0
 40
19.0
 40
19.0
 40
20.0
 40
20.0
 40
20.0
 40
21.0
 40
21.0
 40
21.0
 40
22.0
 40
22.0
 40
22.0
 40
23.0
 40
23.0
 40
23.0
 40
24.0
 40
24.0
 40
24.0
 40
25.0
 40
25.0
 40
25.0
 40
25.0
 10
80.21973739313951
 20
30.178002922143
 30
0.0
 10
80.21973739313951
 20
30.42501626843542
 30
0.0
 10
80.21491425946015
 20
30.62758788296811
 30
0.0
 10
80.19992809409933
 20
30.82533636382145
 30
0.0
 10
80.19992809409933
 20
30.82533636382145
 30
0.0
 10
80.58043889044517
 20
30.82533636382145
 30
0.0
 10
80.58043889044517
 20
30.82533636382145
 30
0.0
 10
80.58043889044517
 20
30.82533636382145
 30
0.0
 10
80.60024818948534
 20
30.43983017902199
 30
0.0
 10
80.60024818948534
 20
30.43983017902199
 30
0.0
 10
80.60024818948534
 20
30.43983017902199
 30
0.0
 10
80.61506210007193
 20
30.43983017902199
 30
0.0
 10
80.61506210007193
 20
30.43983017902199
 30
0.0
 10
80.74855955012536
 20
30.66720648104848
 30
0.0
 10
80.97094046369823
 20
30.87976887248839
 30
0.0
 10
81.36626517063065
 20
30.87976887248839
 30
0.0
 10
81.69234345830956
 20
30.87976887248839
 30
0.0
 10
81.93935680460198
 20
30.68202039163506
 30
0.0
 10
82.04322643348225
 20
30.40055609049014
 30
0.0
 10
82.04322643348225
 20
30.40055609049014
 30
0.0
 10
82.05304495561522
 20
30.40055609049014
 30
0.0
 10
82.05304495561522
 20
30.40055609049014
 30
0.0
 10
82.12728676332234
 20
30.53388128576931
 30
0.0
 10
82.2211656152954
 20
30.63757865987533
 30
0.0
 10
82.31986760094782
 20
30.7116482128082
 30
0.0
 10
82.4631835731342
 20
30.82051323014209
 30
0.0
 10
82.62131345590717
 20
30.87976887248839
 30
0.0
 10
82.84868975793367
 20
30.87976887248839
 30
0.0
 10
83.16494952347959
 20
30.87976887248839
 30
0.0
 10
83.63434378334487
 20
30.67202961472783
 30
0.0
 10
83.63434378334487
 20
29.84210611233114
 30
0.0
 10
83.63434378334487
 20
29.84210611233114
 30
0.0
 10
83.63434378334487
 20
28.43375107796101
 30
0.0
 10
83.63434378334487
 20
28.43375107796101
 30
0.0
 10
83.63434378334487
 20
28.43375107796101
 30
0.0
 10
83.20939125523933
 20
28.43375107796101
 30
0.0
 10
83.20939125523933
 20
28.43375107796101
 30
0.0
 10
83.20939125523933
 20
28.43375107796101
 30
0.0
 10
83.20939125523933
 20
29.7876736036642
 30
0.0
 10
83.20939125523933
 20
29.7876736036642
 30
0.0
 10
83.20939125523933
 20
30.24724934139652
 30
0.0
 10
83.04144285033341
 20
30.52389050886209
 30
0.0
 10
82.6905598751607
 20
30.52389050886209
 30
0.0
 10
82.44354652886828
 20
30.52389050886209
 30
0.0
 10
82.25079343646854
 20
30.34095593859532
 30
0.0
 10
82.17655162876139
 20
30.12873805670393
 30
0.0
 10
82.15691458449548
 20
30.06948241435763
 30
0.0
 10
82.14210067390892
 20
29.9902452181969
 30
0.0
 10
82.14210067390892
 20
29.91135253158466
 30
0.0
 10
82.14210067390892
 20
29.91135253158466
 30
0.0
 10
82.14210067390892
 20
28.43375107796101
 30
0.0
 10
82.14210067390892
 20
28.43375107796101
 30
0.0
 10
82.14210067390892
 20
28.43375107796101
 30
0.0
 10
81.7169758910291
 20
28.43375107796101
 30
0.0
 10
81.7169758910291
 20
28.43375107796101
 30
0.0
 10
81.7169758910291
 20
28.43375107796101
 30
0.0
 10
81.7169758910291
 20
29.86656629027642
 30
0.0
 10
81.7169758910291
 20
29.86656629027642
 30
0.0
 10
81.7169758910291
 20
30.24724934139652
 30
0.0
 10
81.54902748612315
 20
30.52389050886209
 30
0.0
 10
81.21795380999065
 20
30.52389050886209
 30
0.0
 10
80.94613577620442
 20
30.52389050886209
 30
0.0
 10
80.74855955012536
 20
30.30650498374282
 30
0.0
 10
80.67931313087184
 20
30.08911945862355
 30
0.0
 10
80.6546806981523
 20
30.02469617304938
 30
0.0
 10
80.64468992124508
 20
29.95062662011651
 30
0.0
 10
80.64468992124508
 20
29.87655706718364
 30
0.0
 10
80.64468992124508
 20
29.87655706718364
 30
0.0
 10
80.64468992124508
 20
28.43375107796101
 30
0.0
 10
80.64468992124508
 20
28.43375107796101
 30
0.0
 10
80.64468992124508
 20
28.43375107796101
 30
0.0
 10
80.21973739313951
 20
28.43375107796101
 30
0.0
 10
80.21973739313951
 20
28.43375107796101
 30
0.0
 10
80.21973739313951
 20
28.43375107796101
 30
0.0
 10
80.21973739313951
 20
30.178002922143
 30
0.0
 10
80.21973739313951
 20
30.178002922143
 30
0.0
  0
HATCH
  5
B6
330
AA
100
AcDbEntity
  8
Livello 3
 62
   250
420
  1907995
440
 33554687
100
AcDbHatch
 10
0.0
 20
0.0
 30
0.0
210
0.0
220
0.0
230
1.0
  2
SOLID
 70
     1
 71
     1
 91
        1
 92
        1
 93
        1
 72
     4
 94
        3
 73
     0
 74
     0
 95
       80
 96
       76
 40
0.0
 40
0.0
 40
0.0
 40
0.0
 40
1.0
 40
1.0
 40
1.0
 40
2.0
 40
2.0
 40
2.0
 40
3.0
 40
3.0
 40
3.0
 40
4.0
 40
4.0
 40
4.0
 40
5.0
 40
5.0
 40
5.0
 40
6.0
 40
6.0
 40
6.0
 40
7.0
 40
7.0
 40
7.0
 40
8.0
 40
8.0
 40
8.0
 40
9.0
 40
9.0
 40
9.0
 40
10.0
 40
10.0
 40
10.0
 40
11.0
 40
11.0
 40
11.0
 40
12.0
 40
12.0
 40
12.0
 40
13.0
 40
13.0
 40
13.0
 40
14.0
 40
14.0
 40
14.0
 40
15.0
 40
15.0
 40
15.0
 40
16.0
 40
16.0
 40
16.0
 40
17.0
 40
17.0
 40
17.0
 40
18.0
 40
18.0
 40
18.0
 40
19.0
 40
19.0
 40
19.0
 40
20.0
 40
20.0
 40
20.0
 40
21.0
 40
21.0
 40
21.0
 40
22.0
 40
22.0
 40
22.0
 40
23.0
 40
23.0
 40
23.0
 40
24.0
 40
24.0
 40
24.0
 40
25.0
 40
25.0
 40
25.0
 40
25.0
 10
80.21973739313951
 20
30.178002922143
 10
80.21973739313951
 20
30.42501626843542
 10
80.21491425946015
 20
30.62758788296811
 10
80.19992809409933
 20
30.82533636382145
 10
80.19992809409933
 20
30.82533636382145
 10
80.58043889044517
 20
30.82533636382145
 10
80.58043889044517
 20
30.82533636382145
 10
80.58043889044517
 20
30.82533636382145
 10
80.60024818948534
 20
30.43983017902199
 10
80.60024818948534
 20
30.43983017902199
 10
80.60024818948534
 20
30.43983017902199
 10
80.61506210007193
 20
30.43983017902199
 10
80.61506210007193
 20
30.43983017902199
 10
80.74855955012536
 20
30.66720648104848
 10
80.97094046369823
 20
30.87976887248839
 10
81.36626517063065
 20
30.87976887248839
 10
81.69234345830956
 20
30.87976887248839
 10
81.93935680460198
 20
30.68202039163506
 10
82.04322643348225
 20
30.40055609049014
 10
82.04322643348225
 20
30.40055609049014
 10
82.05304495561522
 20
30.40055609049014
 10
82.05304495561522
 20
30.40055609049014
 10
82.12728676332234
 20
30.53388128576931
 10
82.2211656152954
 20
30.63757865987533
 10
82.31986760094782
 20
30.7116482128082
 10
82.4631835731342
 20
30.82051323014209
 10
82.62131345590717
 20
30.87976887248839
 10
82.84868975793367
 20
30.87976887248839
 10
83.16494952347959
 20
30.87976887248839
 10
83.63434378334487
 20
30.67202961472783
 10
83.63434378334487
 20
29.84210611233114
 10
83.63434378334487
 20
29.84210611233114
 10
83.63434378334487
 20
28.43375107796101
 10
83.63434378334487
 20
28.43375107796101
 10
83.63434378334487
 20
28.43375107796101
 10
83.20939125523933
 20
28.43375107796101
 10
83.20939125523933
 20
28.43375107796101
 10
83.20939125523933
 20
28.43375107796101
 10
83.20939125523933
 20
29.7876736036642
 10
83.20939125523933
 20
29.7876736036642
 10
83.20939125523933
 20
30.24724934139652
 10
83.04144285033341
 20
30.52389050886209
 10
82.6905598751607
 20
30.52389050886209
 10
82.44354652886828
 20
30.52389050886209
 10
82.25079343646854
 20
30.34095593859532
 10
82.17655162876139
 20
30.12873805670393
 10
82.15691458449548
 20
30.06948241435763
 10
82.14210067390892
 20
29.9902452181969
 10
82.14210067390892
 20
29.91135253158466
 10
82.14210067390892
 20
29.91135253158466
 10
82.14210067390892
 20
28.43375107796101
 10
82.14210067390892
 20
28.43375107796101
 10
82.14210067390892
 20
28.43375107796101
 10
81.7169758910291
 20
28.43375107796101
 10
81.7169758910291
 20
28.43375107796101
 10
81.7169758910291
 20
28.43375107796101
 10
81.7169758910291
 20
29.86656629027642
 10
81.7169758910291
 20
29.86656629027642
 10
81.7169758910291
 20
30.24724934139652
 10
81.54902748612315
 20
30.52389050886209
 10
81.21795380999065
 20
30.52389050886209
 10
80.94613577620442
 20
30.52389050886209
 10
80.74855955012536
 20
30.30650498374282
 10
80.67931313087184
 20
30.08911945862355
 10
80.6546806981523
 20
30.02469617304938
 10
80.64468992124508
 20
29.95062662011651
 10
80.64468992124508
 20
29.87655706718364
 10
80.64468992124508
 20
29.87655706718364
 10
80.64468992124508
 20
28.43375107796101
 10
80.64468992124508
 20
28.43375107796101
 10
80.64468992124508
 20
28.43375107796101
 10
80.21973739313951
 20
28.43375107796101
 10
80.21973739313951
 20
28.43375107796101
 10
80.21973739313951
 20
28.43375107796101
 10
80.21973739313951
 20
30.178002922143
 10
80.21973739313951
 20
30.178002922143
 97
        1
330
B5
 75
     2
 76
     1
 98
        1
 10
0.0
 20
0.0
450
        0
451
        0
460
0.0
461
0.0
452
        0
462
0.0
453
        0
470

  0
SPLINE
  5
B7
330
AA
100
AcDbEntity
  8
Livello 3
100
AcDbSpline
210
0.0
220
0.0
230
1.0
 70
     9
 71
     3
 72
    80
 73
    76
 74
     0
 42
0.000000001
 43
0.0000000001
 40
0.0
 40
0.0
 40
0.0
 40
0.0
 40
1.0
 40
1.0
 40
1.0
 40
2.0
 40
2.0
 40
2.0
 40
3.0
 40
3.0
 40
3.0
 40
4.0
 40
4.0
 40
4.0
 40
5.0
 40
5.0
 40
5.0
 40
6.0
 40
6.0
 40
6.0
 40
7.0
 40
7.0
 40
7.0
 40
8.0
 40
8.0
 40
8.0
 40
9.0
 40
9.0
 40
9.0
 40
10.0
 40
10.0
 40
10.0
 40
11.0
 40
11.0
 40
11.0
 40
12.0
 40
12.0
 40
12.0
 40
13.0
 40
13.0
 40
13.0
 40
14.0
 40
14.0
 40
14.0
 40
15.0
 40
15.0
 40
15.0
 40
16.0
 40
16.0
 40
16.0
 40
17.0
 40
17.0
 40
17.0
 40
18.0
 40
18.0
 40
18.0
 40
19.0
 40
19.0
 40
19.0
 40
20.0
 40
20.0
 40
20.0
 40
21.0
 40
21.0
 40
21.0
 40
22.0
 40
22.0
 40
22.0
 40
23.0
 40
23.0
 40
23.0
 40
24.0
 40
24.0
 40
24.0
 40
25.0
 40
25.0
 40
25.0
 40
25.0
 10
84.33886581007849
 20
30.178002922143
 30
0.0
 10
84.33886581007849
 20
30.42501626843542
 30
0.0
 10
84.33387042162486
 20
30.62758788296811
 30
0.0
 10
84.3190565110383
 20
30.82533636382145
 30
0.0
 10
84.3190565110383
 20
30.82533636382145
 30
0.0
 10
84.69956730738415
 20
30.82533636382145
 30
0.0
 10
84.69956730738415
 20
30.82533636382145
 30
0.0
 10
84.69956730738415
 20
30.82533636382145
 30
0.0
 10
84.71937660642433
 20
30.43983017902199
 30
0.0
 10
84.71937660642433
 20
30.43983017902199
 30
0.0
 10
84.71937660642433
 20
30.43983017902199
 30
0.0
 10
84.73419051701091
 20
30.43983017902199
 30
0.0
 10
84.73419051701091
 20
30.43983017902199
 30
0.0
 10
84.86768796706433
 20
30.66720648104848
 30
0.0
 10
85.09006888063721
 20
30.87976887248839
 30
0.0
 10
85.48539358756963
 20
30.87976887248839
 30
0.0
 10
85.81147187524853
 20
30.87976887248839
 30
0.0
 10
86.05848522154095
 20
30.68202039163506
 30
0.0
 10
86.16235485042123
 20
30.40055609049014
 30
0.0
 10
86.16235485042123
 20
30.40055609049014
 30
0.0
 10
86.17217337255418
 20
30.40055609049014
 30
0.0
 10
86.17217337255418
 20
30.40055609049014
 30
0.0
 10
86.2464151802613
 20
30.53388128576931
 30
0.0
 10
86.34029403223436
 20
30.63757865987533
 30
0.0
 10
86.43899601788676
 20
30.7116482128082
 30
0.0
 10
86.58231199007316
 20
30.82051323014209
 30
0.0
 10
86.74044187284614
 20
30.87976887248839
 30
0.0
 10
86.96781817487263
 20
30.87976887248839
 30
0.0
 10
87.28407794041856
 20
30.87976887248839
 30
0.0
 10
87.75347220028384
 20
30.67202961472783
 30
0.0
 10
87.75347220028384
 20
29.84210611233114
 30
0.0
 10
87.75347220028384
 20
29.84210611233114
 30
0.0
 10
87.75347220028384
 20
28.43375107796101
 30
0.0
 10
87.75347220028384
 20
28.43375107796101
 30
0.0
 10
87.75347220028384
 20
28.43375107796101
 30
0.0
 10
87.32851967217829
 20
28.43375107796101
 30
0.0
 10
87.32851967217829
 20
28.43375107796101
 30
0.0
 10
87.32851967217829
 20
28.43375107796101
 30
0.0
 10
87.32851967217829
 20
29.7876736036642
 30
0.0
 10
87.32851967217829
 20
29.7876736036642
 30
0.0
 10
87.32851967217829
 20
30.24724934139652
 30
0.0
 10
87.16057126727234
 20
30.52389050886209
 30
0.0
 10
86.80968829209964
 20
30.52389050886209
 30
0.0
 10
86.56267494580722
 20
30.52389050886209
 30
0.0
 10
86.36992185340751
 20
30.34095593859532
 30
0.0
 10
86.29568004570039
 20
30.12873805670393
 30
0.0
 10
86.27604300143445
 20
30.06948241435763
 30
0.0
 10
86.2612290908479
 20
29.9902452181969
 30
0.0
 10
86.2612290908479
 20
29.91135253158466
 30
0.0
 10
86.2612290908479
 20
29.91135253158466
 30
0.0
 10
86.2612290908479
 20
28.43375107796101
 30
0.0
 10
86.2612290908479
 20
28.43375107796101
 30
0.0
 10
86.2612290908479
 20
28.43375107796101
 30
0.0
 10
85.83627656274233
 20
28.43375107796101
 30
0.0
 10
85.83627656274233
 20
28.43375107796101
 30
0.0
 10
85.83627656274233
 20
28.43375107796101
 30
0.0
 10
85.83627656274233
 20
29.86656629027642
 30
0.0
 10
85.83627656274233
 20
29.86656629027642
 30
0.0
 10
85.83627656274233
 20
30.24724934139652
 30
0.0
 10
85.66815590306212
 20
30.52389050886209
 30
0.0
 10
85.33708222692963
 20
30.52389050886209
 30
0.0
 10
85.0652641931434
 20
30.52389050886209
 30
0.0
 10
84.86768796706433
 20
30.30650498374282
 30
0.0
 10
84.79844154781082
 20
30.08911945862355
 30
0.0
 10
84.77380911509127
 20
30.02469617304938
 30
0.0
 10
84.76381833818406
 20
29.95062662011651
 30
0.0
 10
84.76381833818406
 20
29.87655706718364
 30
0.0
 10
84.76381833818406
 20
29.87655706718364
 30
0.0
 10
84.76381833818406
 20
28.43375107796101
 30
0.0
 10
84.76381833818406
 20
28.43375107796101
 30
0.0
 10
84.76381833818406
 20
28.43375107796101
 30
0.0
 10
84.33886581007849
 20
28.43375107796101
 30
0.0
 10
84.33886581007849
 20
28.43375107796101
 30
0.0
 10
84.33886581007849
 20
28.43375107796101
 30
0.0
 10
84.33886581007849
 20
30.178002922143
 30
0.0
 10
84.33886581007849
 20
30.178002922143
 30
0.0
  0
HATCH
  5
B8
330
AA
100
AcDbEntity
  8
Livello 3
 62
   250
420
  1907995
440
 33554687
100
AcDbHatch
 10
0.0
 20
0.0
 30
0.0
210
0.0
220
0.0
230
1.0
  2
SOLID
 70
     1
 71
     1
 91
        1
 92
        1
 93
        1
 72
     4
 94
        3
 73
     0
 74
     0
 95
       80
 96
       76
 40
0.0
 40
0.0
 40
0.0
 40
0.0
 40
1.0
 40
1.0
 40
1.0
 40
2.0
 40
2.0
 40
2.0
 40
3.0
 40
3.0
 40
3.0
 40
4.0
 40
4.0
 40
4.0
 40
5.0
 40
5.0
 40
5.0
 40
6.0
 40
6.0
 40
6.0
 40
7.0
 40
7.0
 40
7.0
 40
8.0
 40
8.0
 40
8.0
 40
9.0
 40
9.0
 40
9.0
 40
10.0
 40
10.0
 40
10.0
 40
11.0
 40
11.0
 40
11.0
 40
12.0
 40
12.0
 40
12.0
 40
13.0
 40
13.0
 40
13.0
 40
14.0
 40
14.0
 40
14.0
 40
15.0
 40
15.0
 40
15.0
 40
16.0
 40
16.0
 40
16.0
 40
17.0
 40
17.0
 40
17.0
 40
18.0
 40
18.0
 40
18.0
 40
19.0
 40
19.0
 40
19.0
 40
20.0
 40
20.0
 40
20.0
 40
21.0
 40
21.0
 40
21.0
 40
22.0
 40
22.0
 40
22.0
 40
23.0
 40
23.0
 40
23.0
 40
24.0
 40
24.0
 40
24.0
 40
25.0
 40
25.0
 40
25.0
 40
25.0
 10
84.33886581007849
 20
30.178002922143
 10
84.33886581007849
 20
30.42501626843542
 10
84.33387042162486
 20
30.62758788296811
 10
84.3190565110383
 20
30.82533636382145
 10
84.3190565110383
 20
30.82533636382145
 10
84.69956730738415
 20
30.82533636382145
 10
84.69956730738415
 20
30.82533636382145
 10
84.69956730738415
 20
30.82533636382145
 10
84.71937660642433
 20
30.43983017902199
 10
84.71937660642433
 20
30.43983017902199
 10
84.71937660642433
 20
30.43983017902199
 10
84.73419051701091
 20
30.43983017902199
 10
84.73419051701091
 20
30.43983017902199
 10
84.86768796706433
 20
30.66720648104848
 10
85.09006888063721
 20
30.87976887248839
 10
85.48539358756963
 20
30.87976887248839
 10
85.81147187524853
 20
30.87976887248839
 10
86.05848522154095
 20
30.68202039163506
 10
86.16235485042123
 20
30.40055609049014
 10
86.16235485042123
 20
30.40055609049014
 10
86.17217337255418
 20
30.40055609049014
 10
86.17217337255418
 20
30.40055609049014
 10
86.2464151802613
 20
30.53388128576931
 10
86.34029403223436
 20
30.63757865987533
 10
86.43899601788676
 20
30.7116482128082
 10
86.58231199007316
 20
30.82051323014209
 10
86.74044187284614
 20
30.87976887248839
 10
86.96781817487263
 20
30.87976887248839
 10
87.28407794041856
 20
30.87976887248839
 10
87.75347220028384
 20
30.67202961472783
 10
87.75347220028384
 20
29.84210611233114
 10
87.75347220028384
 20
29.84210611233114
 10
87.75347220028384
 20
28.43375107796101
 10
87.75347220028384
 20
28.43375107796101
 10
87.75347220028384
 20
28.43375107796101
 10
87.32851967217829
 20
28.43375107796101
 10
87.32851967217829
 20
28.43375107796101
 10
87.32851967217829
 20
28.43375107796101
 10
87.32851967217829
 20
29.7876736036642
 10
87.32851967217829
 20
29.7876736036642
 10
87.32851967217829
 20
30.24724934139652
 10
87.16057126727234
 20
30.52389050886209
 10
86.80968829209964
 20
30.52389050886209
 10
86.56267494580722
 20
30.52389050886209
 10
86.36992185340751
 20
30.34095593859532
 10
86.29568004570039
 20
30.12873805670393
 10
86.27604300143445
 20
30.06948241435763
 10
86.2612290908479
 20
29.9902452181969
 10
86.2612290908479
 20
29.91135253158466
 10
86.2612290908479
 20
29.91135253158466
 10
86.2612290908479
 20
28.43375107796101
 10
86.2612290908479
 20
28.43375107796101
 10
86.2612290908479
 20
28.43375107796101
 10
85.83627656274233
 20
28.43375107796101
 10
85.83627656274233
 20
28.43375107796101
 10
85.83627656274233
 20
28.43375107796101
 10
85.83627656274233
 20
29.86656629027642
 10
85.83627656274233
 20
29.86656629027642
 10
85.83627656274233
 20
30.24724934139652
 10
85.66815590306212
 20
30.52389050886209
 10
85.33708222692963
 20
30.52389050886209
 10
85.0652641931434
 20
30.52389050886209
 10
84.86768796706433
 20
30.30650498374282
 10
84.79844154781082
 20
30.08911945862355
 10
84.77380911509127
 20
30.02469617304938
 10
84.76381833818406
 20
29.95062662011651
 10
84.76381833818406
 20
29.87655706718364
 10
84.76381833818406
 20
29.87655706718364
 10
84.76381833818406
 20
28.43375107796101
 10
84.76381833818406
 20
28.43375107796101
 10
84.76381833818406
 20
28.43375107796101
 10
84.33886581007849
 20
28.43375107796101
 10
84.33886581007849
 20
28.43375107796101
 10
84.33886581007849
 20
28.43375107796101
 10
84.33886581007849
 20
30.178002922143
 10
84.33886581007849
 20
30.178002922143
 97
        1
330
B7
 75
     2
 76
     1
 98
        1
 10
0.0
 20
0.0
450
        0
451
        0
460
0.0
461
0.0
452
        0
462
0.0
453
        0
470

  0
ENDBLK
  5
AD
330
AA
100
AcDbEntity
  8
0
100
AcDbBlockEnd
  0
BLOCK
  5
BB
330
B9
100
AcDbEntity
  8
0
100
AcDbBlockBegin
  2
Block_6
 70
     0
 10
0.0
 20
0.0
 30
0.0
  3
Block_6
  1

  0
INSERT
  5
BE
330
B9
100
AcDbEntity
  8
Livello 3
100
AcDbBlockReference
  2
Block_7
 10
0.0
 20
0.0
 30
0.0
  0
ENDBLK
  5
BC
330
B9
100
AcDbEntity
  8
0
100
AcDbBlockEnd
  0
BLOCK
  5
BF
330
BD
100
AcDbEntity
  8
0
100
AcDbBlockBegin
  2
Block_7
 70
     0
 10
0.0
 20
0.0
 30
0.0
  3
Block_7
  1

  0
SPLINE
  5
C1
330
BD
100
AcDbEntity
  8
Livello 3
100
AcDbSpline
210
0.0
220
0.0
230
1.0
 70
    11
 71
     3
 72
    29
 73
    25
 74
     0
 42
0.000000001
 43
0.0000000001
 40
0.0
 40
0.0
 40
0.0
 40
0.0
 40
1.0
 40
1.0
 40
1.0
 40
2.0
 40
2.0
 40
2.0
 40
3.0
 40
3.0
 40
3.0
 40
4.0
 40
4.0
 40
4.0
 40
5.0
 40
5.0
 40
5.0
 40
6.0
 40
6.0
 40
6.0
 40
7.0
 40
7.0
 40
7.0
 40
8.0
 40
8.0
 40
8.0
 40
8.0
 10
170.7006916890956
 20
130.9181070636246
 30
0.0
 10
170.7006916890956
 20
130.9181070636246
 30
0.0
 10
170.6907009121884
 20
130.9181070636246
 30
0.0
 10
170.6907009121884
 20
130.9181070636246
 30
0.0
 10
170.6907009121884
 20
130.9181070636246
 30
0.0
 10
170.1322509340294
 20
130.6166612086653
 30
0.0
 10
170.1322509340294
 20
130.6166612086653
 30
0.0
 10
170.1322509340294
 20
130.6166612086653
 30
0.0
 10
170.0481906041893
 20
130.9477348847978
 30
0.0
 10
170.0481906041893
 20
130.9477348847978
 30
0.0
 10
170.0481906041893
 20
130.9477348847978
 30
0.0
 10
170.7499565545347
 20
131.32325029269
 30
0.0
 10
170.7499565545347
 20
131.32325029269
 30
0.0
 10
170.7499565545347
 20
131.32325029269
 30
0.0
 10
171.1206488287476
 20
131.32325029269
 30
0.0
 10
171.1206488287476
 20
131.32325029269
 30
0.0
 10
171.1206488287476
 20
131.32325029269
 30
0.0
 10
171.1206488287476
 20
128.1113877717916
 30
0.0
 10
171.1206488287476
 20
128.1113877717916
 30
0.0
 10
171.1206488287476
 20
128.1113877717916
 30
0.0
 10
170.7006916890956
 20
128.1113877717916
 30
0.0
 10
170.7006916890956
 20
128.1113877717916
 30
0.0
 10
170.7006916890956
 20
128.1113877717916
 30
0.0
 10
170.7006916890956
 20
130.9181070636246
 30
0.0
 10
170.7006916890956
 20
130.9181070636246
 30
0.0
  0
HATCH
  5
C2
330
BD
100
AcDbEntity
  8
Livello 3
 62
   250
420
  1907995
440
 33554687
100
AcDbHatch
 10
0.0
 20
0.0
 30
0.0
210
0.0
220
0.0
230
1.0
  2
SOLID
 70
     1
 71
     1
 91
        1
 92
        1
 93
        1
 72
     4
 94
        3
 73
     0
 74
     0
 95
       29
 96
       25
 40
0.0
 40
0.0
 40
0.0
 40
0.0
 40
1.0
 40
1.0
 40
1.0
 40
2.0
 40
2.0
 40
2.0
 40
3.0
 40
3.0
 40
3.0
 40
4.0
 40
4.0
 40
4.0
 40
5.0
 40
5.0
 40
5.0
 40
6.0
 40
6.0
 40
6.0
 40
7.0
 40
7.0
 40
7.0
 40
8.0
 40
8.0
 40
8.0
 40
8.0
 10
170.7006916890956
 20
130.9181070636246
 10
170.7006916890956
 20
130.9181070636246
 10
170.6907009121884
 20
130.9181070636246
 10
170.6907009121884
 20
130.9181070636246
 10
170.6907009121884
 20
130.9181070636246
 10
170.1322509340294
 20
130.6166612086653
 10
170.1322509340294
 20
130.6166612086653
 10
170.1322509340294
 20
130.6166612086653
 10
170.0481906041893
 20
130.9477348847978
 10
170.0481906041893
 20
130.9477348847978
 10
170.0481906041893
 20
130.9477348847978
 10
170.7499565545347
 20
131.32325029269
 10
170.7499565545347
 20
131.32325029269
 10
170.7499565545347
 20
131.32325029269
 10
171.1206488287476
 20
131.32325029269
 10
171.1206488287476
 20
131.32325029269
 10
171.1206488287476
 20
131.32325029269
 10
171.1206488287476
 20
128.1113877717916
 10
171.1206488287476
 20
128.1113877717916
 10
171.1206488287476
 20
128.1113877717916
 10
170.7006916890956
 20
128.1113877717916
 10
170.7006916890956
 20
128.1113877717916
 10
170.7006916890956
 20
128.1113877717916
 10
170.7006916890956
 20
130.9181070636246
 10
170.7006916890956
 20
130.9181070636246
 97
        1
330
C1
 75
     2
 76
     1
 98
        1
 10
0.0
 20
0.0
450
        0
451
        0
460
0.0
461
0.0
452
        0
462
0.0
453
        0
470

  0
SPLINE
  5
C3
330
BD
100
AcDbEntity
  8
Livello 3
100
AcDbSpline
210
0.0
220
0.0
230
1.0
 70
    11
 71
     3
 72
    26
 73
    22
 74
     0
 42
0.000000001
 43
0.0000000001
 40
0.0
 40
0.0
 40
0.0
 40
0.0
 40
1.0
 40
1.0
 40
1.0
 40
2.0
 40
2.0
 40
2.0
 40
3.0
 40
3.0
 40
3.0
 40
4.0
 40
4.0
 40
4.0
 40
5.0
 40
5.0
 40
5.0
 40
6.0
 40
6.0
 40
6.0
 40
7.0
 40
7.0
 40
7.0
 40
7.0
 10
173.6345350043344
 20
129.3268174589877
 30
0.0
 10
173.6345350043344
 20
129.3268174589877
 30
0.0
 10
173.6345350043344
 20
130.399275683546
 30
0.0
 10
173.6345350043344
 20
130.399275683546
 30
0.0
 10
173.6345350043344
 20
130.5673963432262
 30
0.0
 10
173.6393581380138
 20
130.7351724933579
 30
0.0
 10
173.649348914921
 20
130.9032931530381
 30
0.0
 10
173.649348914921
 20
130.9032931530381
 30
0.0
 10
173.6345350043344
 20
130.9032931530381
 30
0.0
 10
173.6345350043344
 20
130.9032931530381
 30
0.0
 10
173.5356607639078
 20
130.7155354490919
 30
0.0
 10
173.456423567747
 20
130.5770426105849
 30
0.0
 10
173.3675401042274
 20
130.428903504719
 30
0.0
 10
173.3675401042274
 20
130.428903504719
 30
0.0
 10
172.5817138240421
 20
129.3368082358949
 30
0.0
 10
172.5817138240421
 20
129.3368082358949
 30
0.0
 10
172.5817138240421
 20
129.3368082358949
 30
0.0
 10
172.5817138240421
 20
129.3268174589877
 30
0.0
 10
172.5817138240421
 20
129.3268174589877
 30
0.0
 10
172.5817138240421
 20
129.3268174589877
 30
0.0
 10
173.6345350043344
 20
129.3268174589877
 30
0.0
 10
173.6345350043344
 20
129.3268174589877
 30
0.0
  0
SPLINE
  5
C4
330
BD
100
AcDbEntity
  8
Livello 3
100
AcDbSpline
210
0.0
220
0.0
230
1.0
 70
    11
 71
     3
 72
    38
 73
    34
 74
     0
 42
0.000000001
 43
0.0000000001
 40
0.0
 40
0.0
 40
0.0
 40
0.0
 40
1.0
 40
1.0
 40
1.0
 40
2.0
 40
2.0
 40
2.0
 40
3.0
 40
3.0
 40
3.0
 40
4.0
 40
4.0
 40
4.0
 40
5.0
 40
5.0
 40
5.0
 40
6.0
 40
6.0
 40
6.0
 40
7.0
 40
7.0
 40
7.0
 40
8.0
 40
8.0
 40
8.0
 40
9.0
 40
9.0
 40
9.0
 40
10.0
 40
10.0
 40
10.0
 40
11.0
 40
11.0
 40
11.0
 40
11.0
 10
173.6345350043344
 20
128.1113877717916
 30
0.0
 10
173.6345350043344
 20
128.1113877717916
 30
0.0
 10
173.6345350043344
 20
128.9860975154965
 30
0.0
 10
173.6345350043344
 20
128.9860975154965
 30
0.0
 10
173.6345350043344
 20
128.9860975154965
 30
0.0
 10
172.1421196401242
 20
128.9860975154965
 30
0.0
 10
172.1421196401242
 20
128.9860975154965
 30
0.0
 10
172.1421196401242
 20
128.9860975154965
 30
0.0
 10
172.1421196401242
 20
129.2727294598693
 30
0.0
 10
172.1421196401242
 20
129.2727294598693
 30
0.0
 10
172.1421196401242
 20
129.2727294598693
 30
0.0
 10
173.5752793619881
 20
131.32325029269
 30
0.0
 10
173.5752793619881
 20
131.32325029269
 30
0.0
 10
173.5752793619881
 20
131.32325029269
 30
0.0
 10
174.044501367079
 20
131.32325029269
 30
0.0
 10
174.044501367079
 20
131.32325029269
 30
0.0
 10
174.044501367079
 20
131.32325029269
 30
0.0
 10
174.044501367079
 20
129.3268174589877
 30
0.0
 10
174.044501367079
 20
129.3268174589877
 30
0.0
 10
174.044501367079
 20
129.3268174589877
 30
0.0
 10
174.4944308374528
 20
129.3268174589877
 30
0.0
 10
174.4944308374528
 20
129.3268174589877
 30
0.0
 10
174.4944308374528
 20
129.3268174589877
 30
0.0
 10
174.4944308374528
 20
128.9860975154965
 30
0.0
 10
174.4944308374528
 20
128.9860975154965
 30
0.0
 10
174.4944308374528
 20
128.9860975154965
 30
0.0
 10
174.044501367079
 20
128.9860975154965
 30
0.0
 10
174.044501367079
 20
128.9860975154965
 30
0.0
 10
174.044501367079
 20
128.9860975154965
 30
0.0
 10
174.044501367079
 20
128.1113877717916
 30
0.0
 10
174.044501367079
 20
128.1113877717916
 30
0.0
 10
174.044501367079
 20
128.1113877717916
 30
0.0
 10
173.6345350043344
 20
128.1113877717916
 30
0.0
 10
173.6345350043344
 20
128.1113877717916
 30
0.0
  0
HATCH
  5
C5
330
BD
100
AcDbEntity
  8
Livello 3
 62
   250
420
  1907995
440
 33554687
100
AcDbHatch
 10
0.0
 20
0.0
 30
0.0
210
0.0
220
0.0
230
1.0
  2
SOLID
 70
     1
 71
     1
 91
        2
 92
        1
 93
        1
 72
     4
 94
        3
 73
     0
 74
     0
 95
       26
 96
       22
 40
0.0
 40
0.0
 40
0.0
 40
0.0
 40
1.0
 40
1.0
 40
1.0
 40
2.0
 40
2.0
 40
2.0
 40
3.0
 40
3.0
 40
3.0
 40
4.0
 40
4.0
 40
4.0
 40
5.0
 40
5.0
 40
5.0
 40
6.0
 40
6.0
 40
6.0
 40
7.0
 40
7.0
 40
7.0
 40
7.0
 10
173.6345350043344
 20
129.3268174589877
 10
173.6345350043344
 20
129.3268174589877
 10
173.6345350043344
 20
130.399275683546
 10
173.6345350043344
 20
130.399275683546
 10
173.6345350043344
 20
130.5673963432262
 10
173.6393581380138
 20
130.7351724933579
 10
173.649348914921
 20
130.9032931530381
 10
173.649348914921
 20
130.9032931530381
 10
173.6345350043344
 20
130.9032931530381
 10
173.6345350043344
 20
130.9032931530381
 10
173.5356607639078
 20
130.7155354490919
 10
173.456423567747
 20
130.5770426105849
 10
173.3675401042274
 20
130.428903504719
 10
173.3675401042274
 20
130.428903504719
 10
172.5817138240421
 20
129.3368082358949
 10
172.5817138240421
 20
129.3368082358949
 10
172.5817138240421
 20
129.3368082358949
 10
172.5817138240421
 20
129.3268174589877
 10
172.5817138240421
 20
129.3268174589877
 10
172.5817138240421
 20
129.3268174589877
 10
173.6345350043344
 20
129.3268174589877
 10
173.6345350043344
 20
129.3268174589877
 97
        1
330
C3
 92
        1
 93
        1
 72
     4
 94
        3
 73
     0
 74
     0
 95
       38
 96
       34
 40
0.0
 40
0.0
 40
0.0
 40
0.0
 40
1.0
 40
1.0
 40
1.0
 40
2.0
 40
2.0
 40
2.0
 40
3.0
 40
3.0
 40
3.0
 40
4.0
 40
4.0
 40
4.0
 40
5.0
 40
5.0
 40
5.0
 40
6.0
 40
6.0
 40
6.0
 40
7.0
 40
7.0
 40
7.0
 40
8.0
 40
8.0
 40
8.0
 40
9.0
 40
9.0
 40
9.0
 40
10.0
 40
10.0
 40
10.0
 40
11.0
 40
11.0
 40
11.0
 40
11.0
 10
173.6345350043344
 20
128.1113877717916
 10
173.6345350043344
 20
128.1113877717916
 10
173.6345350043344
 20
128.9860975154965
 10
173.6345350043344
 20
128.9860975154965
 10
173.6345350043344
 20
128.9860975154965
 10
172.1421196401242
 20
128.9860975154965
 10
172.1421196401242
 20
128.9860975154965
 10
172.1421196401242
 20
128.9860975154965
 10
172.1421196401242
 20
129.2727294598693
 10
172.1421196401242
 20
129.2727294598693
 10
172.1421196401242
 20
129.2727294598693
 10
173.5752793619881
 20
131.32325029269
 10
173.5752793619881
 20
131.32325029269
 10
173.5752793619881
 20
131.32325029269
 10
174.044501367079
 20
131.32325029269
 10
174.044501367079
 20
131.32325029269
 10
174.044501367079
 20
131.32325029269
 10
174.044501367079
 20
129.3268174589877
 10
174.044501367079
 20
129.3268174589877
 10
174.044501367079
 20
129.3268174589877
 10
174.4944308374528
 20
129.3268174589877
 10
174.4944308374528
 20
129.3268174589877
 10
174.4944308374528
 20
129.3268174589877
 10
174.4944308374528
 20
128.9860975154965
 10
174.4944308374528
 20
128.9860975154965
 10
174.4944308374528
 20
128.9860975154965
 10
174.044501367079
 20
128.9860975154965
 10
174.044501367079
 20
128.9860975154965
 10
174.044501367079
 20
128.9860975154965
 10
174.044501367079
 20
128.1113877717916
 10
174.044501367079
 20
128.1113877717916
 10
174.044501367079
 20
128.1113877717916
 10
173.6345350043344
 20
128.1113877717916
 10
173.6345350043344
 20
128.1113877717916
 97
        1
330
C4
 75
     2
 76
     1
 98
        1
 10
0.0
 20
0.0
450
        0
451
        0
460
0.0
461
0.0
452
        0
462
0.0
453
        0
470

  0
SPLINE
  5
C6
330
BD
100
AcDbEntity
  8
Livello 3
100
AcDbSpline
210
0.0
220
0.0
230
1.0
 70
    11
 71
     3
 72
    50
 73
    46
 74
     0
 42
0.000000001
 43
0.0000000001
 40
0.0
 40
0.0
 40
0.0
 40
0.0
 40
1.0
 40
1.0
 40
1.0
 40
2.0
 40
2.0
 40
2.0
 40
3.0
 40
3.0
 40
3.0
 40
4.0
 40
4.0
 40
4.0
 40
5.0
 40
5.0
 40
5.0
 40
6.0
 40
6.0
 40
6.0
 40
7.0
 40
7.0
 40
7.0
 40
8.0
 40
8.0
 40
8.0
 40
9.0
 40
9.0
 40
9.0
 40
10.0
 40
10.0
 40
10.0
 40
11.0
 40
11.0
 40
11.0
 40
12.0
 40
12.0
 40
12.0
 40
13.0
 40
13.0
 40
13.0
 40
14.0
 40
14.0
 40
14.0
 40
15.0
 40
15.0
 40
15.0
 40
15.0
 10
176.7413221129327
 20
130.957725661705
 30
0.0
 10
176.7413221129327
 20
130.957725661705
 30
0.0
 10
175.5159016488293
 20
130.957725661705
 30
0.0
 10
175.5159016488293
 20
130.957725661705
 30
0.0
 10
175.5159016488293
 20
130.957725661705
 30
0.0
 10
175.3922227209089
 20
130.1322807834391
 30
0.0
 10
175.3922227209089
 20
130.1322807834391
 30
0.0
 10
175.4662922738417
 20
130.1422715603464
 30
0.0
 10
175.5355386930953
 20
130.1522623372536
 30
0.0
 10
175.6540499777879
 20
130.1522623372536
 30
0.0
 10
175.9014078336288
 20
130.1522623372536
 30
0.0
 10
176.1484211799212
 20
130.0978298285865
 30
0.0
 10
176.3461696607745
 20
129.979318543894
 30
0.0
 10
176.5980061407463
 20
129.8360025717075
 30
0.0
 10
176.8057453985069
 20
129.5590168946936
 30
0.0
 10
176.8057453985069
 20
129.1538736656282
 30
0.0
 10
176.8057453985069
 20
128.5265217777642
 30
0.0
 10
176.3065510626942
 20
128.0569552631246
 30
0.0
 10
175.6096082460281
 20
128.0569552631246
 30
0.0
 10
175.2588975256297
 20
128.0569552631246
 30
0.0
 10
174.9622748043496
 20
128.1558295035513
 30
0.0
 10
174.8093125648046
 20
128.254703743978
 30
0.0
 10
174.8093125648046
 20
128.254703743978
 30
0.0
 10
174.91783307259
 20
128.5857774201105
 30
0.0
 10
174.91783307259
 20
128.5857774201105
 30
0.0
 10
175.0515027774176
 20
128.5065402239498
 30
0.0
 10
175.3133300342966
 20
128.4076659835231
 30
0.0
 10
175.6047851123488
 20
128.4076659835231
 30
0.0
 10
176.015095984642
 20
128.4076659835231
 30
0.0
 10
176.3658067050405
 20
128.6746608836299
 30
0.0
 10
176.3658067050405
 20
129.1046088001891
 30
0.0
 10
176.3609835713611
 20
129.5197428061617
 30
0.0
 10
176.083997894347
 20
129.8160210178932
 30
0.0
 10
175.4418320958965
 20
129.8160210178932
 30
0.0
 10
175.2588975256297
 20
129.8160210178932
 30
0.0
 10
175.1155815534433
 20
129.7963839736273
 30
0.0
 10
174.9970702687507
 20
129.7815700630407
 30
0.0
 10
174.9970702687507
 20
129.7815700630407
 30
0.0
 10
175.2044650169628
 20
131.32325029269
 30
0.0
 10
175.2044650169628
 20
131.32325029269
 30
0.0
 10
175.2044650169628
 20
131.32325029269
 30
0.0
 10
176.7413221129327
 20
131.32325029269
 30
0.0
 10
176.7413221129327
 20
131.32325029269
 30
0.0
 10
176.7413221129327
 20
131.32325029269
 30
0.0
 10
176.7413221129327
 20
130.957725661705
 30
0.0
 10
176.7413221129327
 20
130.957725661705
 30
0.0
  0
HATCH
  5
C7
330
BD
100
AcDbEntity
  8
Livello 3
 62
   250
420
  1907995
440
 33554687
100
AcDbHatch
 10
0.0
 20
0.0
 30
0.0
210
0.0
220
0.0
230
1.0
  2
SOLID
 70
     1
 71
     1
 91
        1
 92
        1
 93
        1
 72
     4
 94
        3
 73
     0
 74
     0
 95
       50
 96
       46
 40
0.0
 40
0.0
 40
0.0
 40
0.0
 40
1.0
 40
1.0
 40
1.0
 40
2.0
 40
2.0
 40
2.0
 40
3.0
 40
3.0
 40
3.0
 40
4.0
 40
4.0
 40
4.0
 40
5.0
 40
5.0
 40
5.0
 40
6.0
 40
6.0
 40
6.0
 40
7.0
 40
7.0
 40
7.0
 40
8.0
 40
8.0
 40
8.0
 40
9.0
 40
9.0
 40
9.0
 40
10.0
 40
10.0
 40
10.0
 40
11.0
 40
11.0
 40
11.0
 40
12.0
 40
12.0
 40
12.0
 40
13.0
 40
13.0
 40
13.0
 40
14.0
 40
14.0
 40
14.0
 40
15.0
 40
15.0
 40
15.0
 40
15.0
 10
176.7413221129327
 20
130.957725661705
 10
176.7413221129327
 20
130.957725661705
 10
175.5159016488293
 20
130.957725661705
 10
175.5159016488293
 20
130.957725661705
 10
175.5159016488293
 20
130.957725661705
 10
175.3922227209089
 20
130.1322807834391
 10
175.3922227209089
 20
130.1322807834391
 10
175.4662922738417
 20
130.1422715603464
 10
175.5355386930953
 20
130.1522623372536
 10
175.6540499777879
 20
130.1522623372536
 10
175.9014078336288
 20
130.1522623372536
 10
176.1484211799212
 20
130.0978298285865
 10
176.3461696607745
 20
129.979318543894
 10
176.5980061407463
 20
129.8360025717075
 10
176.8057453985069
 20
129.5590168946936
 10
176.8057453985069
 20
129.1538736656282
 10
176.8057453985069
 20
128.5265217777642
 10
176.3065510626942
 20
128.0569552631246
 10
175.6096082460281
 20
128.0569552631246
 10
175.2588975256297
 20
128.0569552631246
 10
174.9622748043496
 20
128.1558295035513
 10
174.8093125648046
 20
128.254703743978
 10
174.8093125648046
 20
128.254703743978
 10
174.91783307259
 20
128.5857774201105
 10
174.91783307259
 20
128.5857774201105
 10
175.0515027774176
 20
128.5065402239498
 10
175.3133300342966
 20
128.4076659835231
 10
175.6047851123488
 20
128.4076659835231
 10
176.015095984642
 20
128.4076659835231
 10
176.3658067050405
 20
128.6746608836299
 10
176.3658067050405
 20
129.1046088001891
 10
176.3609835713611
 20
129.5197428061617
 10
176.083997894347
 20
129.8160210178932
 10
175.4418320958965
 20
129.8160210178932
 10
175.2588975256297
 20
129.8160210178932
 10
175.1155815534433
 20
129.7963839736273
 10
174.9970702687507
 20
129.7815700630407
 10
174.9970702687507
 20
129.7815700630407
 10
175.2044650169628
 20
131.32325029269
 10
175.2044650169628
 20
131.32325029269
 10
175.2044650169628
 20
131.32325029269
 10
176.7413221129327
 20
131.32325029269
 10
176.7413221129327
 20
131.32325029269
 10
176.7413221129327
 20
131.32325029269
 10
176.7413221129327
 20
130.957725661705
 10
176.7413221129327
 20
130.957725661705
 97
        1
330
C6
 75
     2
 76
     1
 98
        1
 10
0.0
 20
0.0
450
        0
451
        0
460
0.0
461
0.0
452
        0
462
0.0
453
        0
470

  0
SPLINE
  5
C8
330
BD
100
AcDbEntity
  8
Livello 3
100
AcDbSpline
210
0.0
220
0.0
230
1.0
 70
     9
 71
     3
 72
    17
 73
    13
 74
     0
 42
0.000000001
 43
0.0000000001
 40
0.0
 40
0.0
 40
0.0
 40
0.0
 40
1.0
 40
1.0
 40
1.0
 40
2.0
 40
2.0
 40
2.0
 40
3.0
 40
3.0
 40
3.0
 40
4.0
 40
4.0
 40
4.0
 40
4.0
 10
177.7479790137227
 20
129.7023328668799
 30
0.0
 10
177.7479790137227
 20
128.8672417212554
 30
0.0
 10
178.0049831369223
 20
128.3928520729365
 30
0.0
 10
178.4001355890805
 20
128.3928520729365
 30
0.0
 10
178.8448974162262
 20
128.3928520729365
 30
0.0
 10
179.0574598076662
 20
128.9116834530151
 30
0.0
 10
179.0574598076662
 20
129.7319606880531
 30
0.0
 10
179.0574598076662
 20
130.5226101019179
 30
0.0
 10
178.8548881931335
 20
131.0417859915451
 30
0.0
 10
178.4053032323084
 20
131.0417859915451
 30
0.0
 10
178.0246201811883
 20
131.0417859915451
 30
0.0
 10
177.7479790137227
 20
130.5770426105849
 30
0.0
 10
177.7479790137227
 20
129.7023328668799
 30
0.0
  0
SPLINE
  5
C9
330
BD
100
AcDbEntity
  8
Livello 3
100
AcDbSpline
210
0.0
220
0.0
230
1.0
 70
     9
 71
     3
 72
    17
 73
    13
 74
     0
 42
0.000000001
 43
0.0000000001
 40
0.0
 40
0.0
 40
0.0
 40
0.0
 40
1.0
 40
1.0
 40
1.0
 40
2.0
 40
2.0
 40
2.0
 40
3.0
 40
3.0
 40
3.0
 40
4.0
 40
4.0
 40
4.0
 40
4.0
 10
179.4922308579047
 20
129.7519422418675
 30
0.0
 10
179.4922308579047
 20
128.6598469730434
 30
0.0
 10
179.0870876288393
 20
128.0569552631246
 30
0.0
 10
178.3756754111351
 20
128.0569552631246
 30
0.0
 10
177.7479790137227
 20
128.0569552631246
 30
0.0
 10
177.3228542308429
 20
128.6450330624568
 30
0.0
 10
177.3132079634842
 20
129.7075005101078
 30
0.0
 10
177.3132079634842
 20
130.7847818683455
 30
0.0
 10
177.7776068348959
 20
131.3776828013569
 30
0.0
 10
178.4297634102537
 20
131.3776828013569
 30
0.0
 10
179.1067246731053
 20
131.3776828013569
 30
0.0
 10
179.4922308579047
 20
130.7747910914382
 30
0.0
 10
179.4922308579047
 20
129.7519422418675
 30
0.0
  0
HATCH
  5
CA
330
BD
100
AcDbEntity
  8
Livello 3
 62
   250
420
  1907995
440
 33554687
100
AcDbHatch
 10
0.0
 20
0.0
 30
0.0
210
0.0
220
0.0
230
1.0
  2
SOLID
 70
     1
 71
     1
 91
        2
 92
        1
 93
        1
 72
     4
 94
        3
 73
     0
 74
     0
 95
       17
 96
       13
 40
0.0
 40
0.0
 40
0.0
 40
0.0
 40
1.0
 40
1.0
 40
1.0
 40
2.0
 40
2.0
 40
2.0
 40
3.0
 40
3.0
 40
3.0
 40
4.0
 40
4.0
 40
4.0
 40
4.0
 10
177.7479790137227
 20
129.7023328668799
 10
177.7479790137227
 20
128.8672417212554
 10
178.0049831369223
 20
128.3928520729365
 10
178.4001355890805
 20
128.3928520729365
 10
178.8448974162262
 20
128.3928520729365
 10
179.0574598076662
 20
128.9116834530151
 10
179.0574598076662
 20
129.7319606880531
 10
179.0574598076662
 20
130.5226101019179
 10
178.8548881931335
 20
131.0417859915451
 10
178.4053032323084
 20
131.0417859915451
 10
178.0246201811883
 20
131.0417859915451
 10
177.7479790137227
 20
130.5770426105849
 10
177.7479790137227
 20
129.7023328668799
 97
        1
330
C8
 92
        1
 93
        1
 72
     4
 94
        3
 73
     0
 74
     0
 95
       17
 96
       13
 40
0.0
 40
0.0
 40
0.0
 40
0.0
 40
1.0
 40
1.0
 40
1.0
 40
2.0
 40
2.0
 40
2.0
 40
3.0
 40
3.0
 40
3.0
 40
4.0
 40
4.0
 40
4.0
 40
4.0
 10
179.4922308579047
 20
129.7519422418675
 10
179.4922308579047
 20
128.6598469730434
 10
179.0870876288393
 20
128.0569552631246
 10
178.3756754111351
 20
128.0569552631246
 10
177.7479790137227
 20
128.0569552631246
 10
177.3228542308429
 20
128.6450330624568
 10
177.3132079634842
 20
129.7075005101078
 10
177.3132079634842
 20
130.7847818683455
 10
177.7776068348959
 20
131.3776828013569
 10
178.4297634102537
 20
131.3776828013569
 10
179.1067246731053
 20
131.3776828013569
 10
179.4922308579047
 20
130.7747910914382
 10
179.4922308579047
 20
129.7519422418675
 97
        1
330
C9
 75
     2
 76
     1
 98
        1
 10
0.0
 20
0.0
450
        0
451
        0
460
0.0
461
0.0
452
        0
462
0.0
453
        0
470

  0
SPLINE
  5
CB
330
BD
100
AcDbEntity
  8
Livello 3
100
AcDbSpline
210
0.0
220
0.0
230
1.0
 70
     9
 71
     3
 72
    80
 73
    76
 74
     0
 42
0.000000001
 43
0.0000000001
 40
0.0
 40
0.0
 40
0.0
 40
0.0
 40
1.0
 40
1.0
 40
1.0
 40
2.0
 40
2.0
 40
2.0
 40
3.0
 40
3.0
 40
3.0
 40
4.0
 40
4.0
 40
4.0
 40
5.0
 40
5.0
 40
5.0
 40
6.0
 40
6.0
 40
6.0
 40
7.0
 40
7.0
 40
7.0
 40
8.0
 40
8.0
 40
8.0
 40
9.0
 40
9.0
 40
9.0
 40
10.0
 40
10.0
 40
10.0
 40
11.0
 40
11.0
 40
11.0
 40
12.0
 40
12.0
 40
12.0
 40
13.0
 40
13.0
 40
13.0
 40
14.0
 40
14.0
 40
14.0
 40
15.0
 40
15.0
 40
15.0
 40
16.0
 40
16.0
 40
16.0
 40
17.0
 40
17.0
 40
17.0
 40
18.0
 40
18.0
 40
18.0
 40
19.0
 40
19.0
 40
19.0
 40
20.0
 40
20.0
 40
20.0
 40
21.0
 40
21.0
 40
21.0
 40
22.0
 40
22.0
 40
22.0
 40
23.0
 40
23.0
 40
23.0
 40
24.0
 40
24.0
 40
24.0
 40
25.0
 40
25.0
 40
25.0
 40
25.0
 10
181.0762857620226
 20
129.8556396159736
 30
0.0
 10
181.0762857620226
 20
130.102652962266
 30
0.0
 10
181.0714626283432
 20
130.3052245767987
 30
0.0
 10
181.0566487177567
 20
130.502973057652
 30
0.0
 10
181.0566487177567
 20
130.502973057652
 30
0.0
 10
181.4369872593282
 20
130.502973057652
 30
0.0
 10
181.4369872593282
 20
130.502973057652
 30
0.0
 10
181.4369872593282
 20
130.502973057652
 30
0.0
 10
181.4569688131427
 20
130.1174668728526
 30
0.0
 10
181.4569688131427
 20
130.1174668728526
 30
0.0
 10
181.4569688131427
 20
130.1174668728526
 30
0.0
 10
181.4717827237293
 20
130.1174668728526
 30
0.0
 10
181.4717827237293
 20
130.1174668728526
 30
0.0
 10
181.6051079190084
 20
130.344843174879
 30
0.0
 10
181.8276610873556
 20
130.557405566319
 30
0.0
 10
182.2228135395137
 20
130.557405566319
 30
0.0
 10
182.5490640819669
 20
130.557405566319
 30
0.0
 10
182.7960774282593
 20
130.3596570854656
 30
0.0
 10
182.8997748023653
 20
130.0781927843207
 30
0.0
 10
182.8997748023653
 20
130.0781927843207
 30
0.0
 10
182.9097655792726
 20
130.0781927843207
 30
0.0
 10
182.9097655792726
 20
130.0781927843207
 30
0.0
 10
182.9838351322054
 20
130.2115179795999
 30
0.0
 10
183.0778862389528
 20
130.3152153537059
 30
0.0
 10
183.1764159698309
 20
130.3892849066388
 30
0.0
 10
183.3197319420173
 20
130.4981499239727
 30
0.0
 10
183.4778618247901
 20
130.557405566319
 30
0.0
 10
183.7052381268167
 20
130.557405566319
 30
0.0
 10
184.0214978923627
 20
130.557405566319
 30
0.0
 10
184.4910644070021
 20
130.3496663085584
 30
0.0
 10
184.4910644070021
 20
129.5197428061617
 30
0.0
 10
184.4910644070021
 20
129.5197428061617
 30
0.0
 10
184.4910644070021
 20
128.1113877717916
 30
0.0
 10
184.4910644070021
 20
128.1113877717916
 30
0.0
 10
184.4910644070021
 20
128.1113877717916
 30
0.0
 10
184.0659396241224
 20
128.1113877717916
 30
0.0
 10
184.0659396241224
 20
128.1113877717916
 30
0.0
 10
184.0659396241224
 20
128.1113877717916
 30
0.0
 10
184.0659396241224
 20
129.4653102974948
 30
0.0
 10
184.0659396241224
 20
129.4653102974948
 30
0.0
 10
184.0659396241224
 20
129.924886035227
 30
0.0
 10
183.8981634739907
 20
130.2015272026927
 30
0.0
 10
183.5471082440438
 20
130.2015272026927
 30
0.0
 10
183.3000948977513
 20
130.2015272026927
 30
0.0
 10
183.1075140601259
 20
130.0185926324259
 30
0.0
 10
183.0330999976445
 20
129.8063747505345
 30
0.0
 10
183.0134629533786
 20
129.7471191081882
 30
0.0
 10
182.998649042792
 20
129.6678819120274
 30
0.0
 10
182.998649042792
 20
129.5889892254152
 30
0.0
 10
182.998649042792
 20
129.5889892254152
 30
0.0
 10
182.998649042792
 20
128.1113877717916
 30
0.0
 10
182.998649042792
 20
128.1113877717916
 30
0.0
 10
182.998649042792
 20
128.1113877717916
 30
0.0
 10
182.5735242599122
 20
128.1113877717916
 30
0.0
 10
182.5735242599122
 20
128.1113877717916
 30
0.0
 10
182.5735242599122
 20
128.1113877717916
 30
0.0
 10
182.5735242599122
 20
129.544202984107
 30
0.0
 10
182.5735242599122
 20
129.544202984107
 30
0.0
 10
182.5735242599122
 20
129.924886035227
 30
0.0
 10
182.4057481097805
 20
130.2015272026927
 30
0.0
 10
182.074674433648
 20
130.2015272026927
 30
0.0
 10
181.8028563998618
 20
130.2015272026927
 30
0.0
 10
181.6051079190084
 20
129.9841416775734
 30
0.0
 10
181.5358614997549
 20
129.7667561524541
 30
0.0
 10
181.5114013218096
 20
129.7023328668799
 30
0.0
 10
181.5014105449024
 20
129.6282633139471
 30
0.0
 10
181.5014105449024
 20
129.5541937610142
 30
0.0
 10
181.5014105449024
 20
129.5541937610142
 30
0.0
 10
181.5014105449024
 20
128.1113877717916
 30
0.0
 10
181.5014105449024
 20
128.1113877717916
 30
0.0
 10
181.5014105449024
 20
128.1113877717916
 30
0.0
 10
181.0762857620226
 20
128.1113877717916
 30
0.0
 10
181.0762857620226
 20
128.1113877717916
 30
0.0
 10
181.0762857620226
 20
128.1113877717916
 30
0.0
 10
181.0762857620226
 20
129.8556396159736
 30
0.0
 10
181.0762857620226
 20
129.8556396159736
 30
0.0
  0
HATCH
  5
CC
330
BD
100
AcDbEntity
  8
Livello 3
 62
   250
420
  1907995
440
 33554687
100
AcDbHatch
 10
0.0
 20
0.0
 30
0.0
210
0.0
220
0.0
230
1.0
  2
SOLID
 70
     1
 71
     1
 91
        1
 92
        1
 93
        1
 72
     4
 94
        3
 73
     0
 74
     0
 95
       80
 96
       76
 40
0.0
 40
0.0
 40
0.0
 40
0.0
 40
1.0
 40
1.0
 40
1.0
 40
2.0
 40
2.0
 40
2.0
 40
3.0
 40
3.0
 40
3.0
 40
4.0
 40
4.0
 40
4.0
 40
5.0
 40
5.0
 40
5.0
 40
6.0
 40
6.0
 40
6.0
 40
7.0
 40
7.0
 40
7.0
 40
8.0
 40
8.0
 40
8.0
 40
9.0
 40
9.0
 40
9.0
 40
10.0
 40
10.0
 40
10.0
 40
11.0
 40
11.0
 40
11.0
 40
12.0
 40
12.0
 40
12.0
 40
13.0
 40
13.0
 40
13.0
 40
14.0
 40
14.0
 40
14.0
 40
15.0
 40
15.0
 40
15.0
 40
16.0
 40
16.0
 40
16.0
 40
17.0
 40
17.0
 40
17.0
 40
18.0
 40
18.0
 40
18.0
 40
19.0
 40
19.0
 40
19.0
 40
20.0
 40
20.0
 40
20.0
 40
21.0
 40
21.0
 40
21.0
 40
22.0
 40
22.0
 40
22.0
 40
23.0
 40
23.0
 40
23.0
 40
24.0
 40
24.0
 40
24.0
 40
25.0
 40
25.0
 40
25.0
 40
25.0
 10
181.0762857620226
 20
129.8556396159736
 10
181.0762857620226
 20
130.102652962266
 10
181.0714626283432
 20
130.3052245767987
 10
181.0566487177567
 20
130.502973057652
 10
181.0566487177567
 20
130.502973057652
 10
181.4369872593282
 20
130.502973057652
 10
181.4369872593282
 20
130.502973057652
 10
181.4369872593282
 20
130.502973057652
 10
181.4569688131427
 20
130.1174668728526
 10
181.4569688131427
 20
130.1174668728526
 10
181.4569688131427
 20
130.1174668728526
 10
181.4717827237293
 20
130.1174668728526
 10
181.4717827237293
 20
130.1174668728526
 10
181.6051079190084
 20
130.344843174879
 10
181.8276610873556
 20
130.557405566319
 10
182.2228135395137
 20
130.557405566319
 10
182.5490640819669
 20
130.557405566319
 10
182.7960774282593
 20
130.3596570854656
 10
182.8997748023653
 20
130.0781927843207
 10
182.8997748023653
 20
130.0781927843207
 10
182.9097655792726
 20
130.0781927843207
 10
182.9097655792726
 20
130.0781927843207
 10
182.9838351322054
 20
130.2115179795999
 10
183.0778862389528
 20
130.3152153537059
 10
183.1764159698309
 20
130.3892849066388
 10
183.3197319420173
 20
130.4981499239727
 10
183.4778618247901
 20
130.557405566319
 10
183.7052381268167
 20
130.557405566319
 10
184.0214978923627
 20
130.557405566319
 10
184.4910644070021
 20
130.3496663085584
 10
184.4910644070021
 20
129.5197428061617
 10
184.4910644070021
 20
129.5197428061617
 10
184.4910644070021
 20
128.1113877717916
 10
184.4910644070021
 20
128.1113877717916
 10
184.4910644070021
 20
128.1113877717916
 10
184.0659396241224
 20
128.1113877717916
 10
184.0659396241224
 20
128.1113877717916
 10
184.0659396241224
 20
128.1113877717916
 10
184.0659396241224
 20
129.4653102974948
 10
184.0659396241224
 20
129.4653102974948
 10
184.0659396241224
 20
129.924886035227
 10
183.8981634739907
 20
130.2015272026927
 10
183.5471082440438
 20
130.2015272026927
 10
183.3000948977513
 20
130.2015272026927
 10
183.1075140601259
 20
130.0185926324259
 10
183.0330999976445
 20
129.8063747505345
 10
183.0134629533786
 20
129.7471191081882
 10
182.998649042792
 20
129.6678819120274
 10
182.998649042792
 20
129.5889892254152
 10
182.998649042792
 20
129.5889892254152
 10
182.998649042792
 20
128.1113877717916
 10
182.998649042792
 20
128.1113877717916
 10
182.998649042792
 20
128.1113877717916
 10
182.5735242599122
 20
128.1113877717916
 10
182.5735242599122
 20
128.1113877717916
 10
182.5735242599122
 20
128.1113877717916
 10
182.5735242599122
 20
129.544202984107
 10
182.5735242599122
 20
129.544202984107
 10
182.5735242599122
 20
129.924886035227
 10
182.4057481097805
 20
130.2015272026927
 10
182.074674433648
 20
130.2015272026927
 10
181.8028563998618
 20
130.2015272026927
 10
181.6051079190084
 20
129.9841416775734
 10
181.5358614997549
 20
129.7667561524541
 10
181.5114013218096
 20
129.7023328668799
 10
181.5014105449024
 20
129.6282633139471
 10
181.5014105449024
 20
129.5541937610142
 10
181.5014105449024
 20
129.5541937610142
 10
181.5014105449024
 20
128.1113877717916
 10
181.5014105449024
 20
128.1113877717916
 10
181.5014105449024
 20
128.1113877717916
 10
181.0762857620226
 20
128.1113877717916
 10
181.0762857620226
 20
128.1113877717916
 10
181.0762857620226
 20
128.1113877717916
 10
181.0762857620226
 20
129.8556396159736
 10
181.0762857620226
 20
129.8556396159736
 97
        1
330
CB
 75
     2
 76
     1
 98
        1
 10
0.0
 20
0.0
450
        0
451
        0
460
0.0
461
0.0
452
        0
462
0.0
453
        0
470

  0
SPLINE
  5
CD
330
BD
100
AcDbEntity
  8
Livello 3
100
AcDbSpline
210
0.0
220
0.0
230
1.0
 70
     9
 71
     3
 72
    80
 73
    76
 74
     0
 42
0.000000001
 43
0.0000000001
 40
0.0
 40
0.0
 40
0.0
 40
0.0
 40
1.0
 40
1.0
 40
1.0
 40
2.0
 40
2.0
 40
2.0
 40
3.0
 40
3.0
 40
3.0
 40
4.0
 40
4.0
 40
4.0
 40
5.0
 40
5.0
 40
5.0
 40
6.0
 40
6.0
 40
6.0
 40
7.0
 40
7.0
 40
7.0
 40
8.0
 40
8.0
 40
8.0
 40
9.0
 40
9.0
 40
9.0
 40
10.0
 40
10.0
 40
10.0
 40
11.0
 40
11.0
 40
11.0
 40
12.0
 40
12.0
 40
12.0
 40
13.0
 40
13.0
 40
13.0
 40
14.0
 40
14.0
 40
14.0
 40
15.0
 40
15.0
 40
15.0
 40
16.0
 40
16.0
 40
16.0
 40
17.0
 40
17.0
 40
17.0
 40
18.0
 40
18.0
 40
18.0
 40
19.0
 40
19.0
 40
19.0
 40
20.0
 40
20.0
 40
20.0
 40
21.0
 40
21.0
 40
21.0
 40
22.0
 40
22.0
 40
22.0
 40
23.0
 40
23.0
 40
23.0
 40
24.0
 40
24.0
 40
24.0
 40
25.0
 40
25.0
 40
25.0
 40
25.0
 10
185.1955864337358
 20
129.8556396159736
 30
0.0
 10
185.1955864337358
 20
130.102652962266
 30
0.0
 10
185.1904187905079
 20
130.3052245767987
 30
0.0
 10
185.1756048799214
 20
130.502973057652
 30
0.0
 10
185.1756048799214
 20
130.502973057652
 30
0.0
 10
185.5562879310415
 20
130.502973057652
 30
0.0
 10
185.5562879310415
 20
130.502973057652
 30
0.0
 10
185.5562879310415
 20
130.502973057652
 30
0.0
 10
185.5759249753074
 20
130.1174668728526
 30
0.0
 10
185.5759249753074
 20
130.1174668728526
 30
0.0
 10
185.5759249753074
 20
130.1174668728526
 30
0.0
 10
185.590738885894
 20
130.1174668728526
 30
0.0
 10
185.590738885894
 20
130.1174668728526
 30
0.0
 10
185.7244085907217
 20
130.344843174879
 30
0.0
 10
185.9466172495203
 20
130.557405566319
 30
0.0
 10
186.3421142112269
 20
130.557405566319
 30
0.0
 10
186.6680202441316
 20
130.557405566319
 30
0.0
 10
186.915033590424
 20
130.3596570854656
 30
0.0
 10
187.0190754740784
 20
130.0781927843207
 30
0.0
 10
187.0190754740784
 20
130.0781927843207
 30
0.0
 10
187.0287217414372
 20
130.0781927843207
 30
0.0
 10
187.0287217414372
 20
130.0781927843207
 30
0.0
 10
187.1031358039186
 20
130.2115179795999
 30
0.0
 10
187.1968424011175
 20
130.3152153537059
 30
0.0
 10
187.295716641544
 20
130.3892849066388
 30
0.0
 10
187.4390326137305
 20
130.4981499239727
 30
0.0
 10
187.5971624965035
 20
130.557405566319
 30
0.0
 10
187.82453879853
 20
130.557405566319
 30
0.0
 10
188.1407985640759
 20
130.557405566319
 30
0.0
 10
188.6100205691669
 20
130.3496663085584
 30
0.0
 10
188.6100205691669
 20
129.5197428061617
 30
0.0
 10
188.6100205691669
 20
129.5197428061617
 30
0.0
 10
188.6100205691669
 20
128.1113877717916
 30
0.0
 10
188.6100205691669
 20
128.1113877717916
 30
0.0
 10
188.6100205691669
 20
128.1113877717916
 30
0.0
 10
188.1852402958356
 20
128.1113877717916
 30
0.0
 10
188.1852402958356
 20
128.1113877717916
 30
0.0
 10
188.1852402958356
 20
128.1113877717916
 30
0.0
 10
188.1852402958356
 20
129.4653102974948
 30
0.0
 10
188.1852402958356
 20
129.4653102974948
 30
0.0
 10
188.1852402958356
 20
129.924886035227
 30
0.0
 10
188.0171196361554
 20
130.2015272026927
 30
0.0
 10
187.666408915757
 20
130.2015272026927
 30
0.0
 10
187.4193955694646
 20
130.2015272026927
 30
0.0
 10
187.2264702222906
 20
130.0185926324259
 30
0.0
 10
187.1524006693577
 20
129.8063747505345
 30
0.0
 10
187.1327636250918
 20
129.7471191081882
 30
0.0
 10
187.1179497145052
 20
129.6678819120274
 30
0.0
 10
187.1179497145052
 20
129.5889892254152
 30
0.0
 10
187.1179497145052
 20
129.5889892254152
 30
0.0
 10
187.1179497145052
 20
128.1113877717916
 30
0.0
 10
187.1179497145052
 20
128.1113877717916
 30
0.0
 10
187.1179497145052
 20
128.1113877717916
 30
0.0
 10
186.6928249316254
 20
128.1113877717916
 30
0.0
 10
186.6928249316254
 20
128.1113877717916
 30
0.0
 10
186.6928249316254
 20
128.1113877717916
 30
0.0
 10
186.6928249316254
 20
129.544202984107
 30
0.0
 10
186.6928249316254
 20
129.544202984107
 30
0.0
 10
186.6928249316254
 20
129.924886035227
 30
0.0
 10
186.5247042719452
 20
130.2015272026927
 30
0.0
 10
186.1936305958127
 20
130.2015272026927
 30
0.0
 10
185.9218125620264
 20
130.2015272026927
 30
0.0
 10
185.7244085907217
 20
129.9841416775734
 30
0.0
 10
185.6551621714681
 20
129.7667561524541
 30
0.0
 10
185.6303574839743
 20
129.7023328668799
 30
0.0
 10
185.6203667070671
 20
129.6282633139471
 30
0.0
 10
185.6203667070671
 20
129.5541937610142
 30
0.0
 10
185.6203667070671
 20
129.5541937610142
 30
0.0
 10
185.6203667070671
 20
128.1113877717916
 30
0.0
 10
185.6203667070671
 20
128.1113877717916
 30
0.0
 10
185.6203667070671
 20
128.1113877717916
 30
0.0
 10
185.1955864337358
 20
128.1113877717916
 30
0.0
 10
185.1955864337358
 20
128.1113877717916
 30
0.0
 10
185.1955864337358
 20
128.1113877717916
 30
0.0
 10
185.1955864337358
 20
129.8556396159736
 30
0.0
 10
185.1955864337358
 20
129.8556396159736
 30
0.0
  0
HATCH
  5
CE
330
BD
100
AcDbEntity
  8
Livello 3
 62
   250
420
  1907995
440
 33554687
100
AcDbHatch
 10
0.0
 20
0.0
 30
0.0
210
0.0
220
0.0
230
1.0
  2
SOLID
 70
     1
 71
     1
 91
        1
 92
        1
 93
        1
 72
     4
 94
        3
 73
     0
 74
     0
 95
       80
 96
       76
 40
0.0
 40
0.0
 40
0.0
 40
0.0
 40
1.0
 40
1.0
 40
1.0
 40
2.0
 40
2.0
 40
2.0
 40
3.0
 40
3.0
 40
3.0
 40
4.0
 40
4.0
 40
4.0
 40
5.0
 40
5.0
 40
5.0
 40
6.0
 40
6.0
 40
6.0
 40
7.0
 40
7.0
 40
7.0
 40
8.0
 40
8.0
 40
8.0
 40
9.0
 40
9.0
 40
9.0
 40
10.0
 40
10.0
 40
10.0
 40
11.0
 40
11.0
 40
11.0
 40
12.0
 40
12.0
 40
12.0
 40
13.0
 40
13.0
 40
13.0
 40
14.0
 40
14.0
 40
14.0
 40
15.0
 40
15.0
 40
15.0
 40
16.0
 40
16.0
 40
16.0
 40
17.0
 40
17.0
 40
17.0
 40
18.0
 40
18.0
 40
18.0
 40
19.0
 40
19.0
 40
19.0
 40
20.0
 40
20.0
 40
20.0
 40
21.0
 40
21.0
 40
21.0
 40
22.0
 40
22.0
 40
22.0
 40
23.0
 40
23.0
 40
23.0
 40
24.0
 40
24.0
 40
24.0
 40
25.0
 40
25.0
 40
25.0
 40
25.0
 10
185.1955864337358
 20
129.8556396159736
 10
185.1955864337358
 20
130.102652962266
 10
185.1904187905079
 20
130.3052245767987
 10
185.1756048799214
 20
130.502973057652
 10
185.1756048799214
 20
130.502973057652
 10
185.5562879310415
 20
130.502973057652
 10
185.5562879310415
 20
130.502973057652
 10
185.5562879310415
 20
130.502973057652
 10
185.5759249753074
 20
130.1174668728526
 10
185.5759249753074
 20
130.1174668728526
 10
185.5759249753074
 20
130.1174668728526
 10
185.590738885894
 20
130.1174668728526
 10
185.590738885894
 20
130.1174668728526
 10
185.7244085907217
 20
130.344843174879
 10
185.9466172495203
 20
130.557405566319
 10
186.3421142112269
 20
130.557405566319
 10
186.6680202441316
 20
130.557405566319
 10
186.915033590424
 20
130.3596570854656
 10
187.0190754740784
 20
130.0781927843207
 10
187.0190754740784
 20
130.0781927843207
 10
187.0287217414372
 20
130.0781927843207
 10
187.0287217414372
 20
130.0781927843207
 10
187.1031358039186
 20
130.2115179795999
 10
187.1968424011175
 20
130.3152153537059
 10
187.295716641544
 20
130.3892849066388
 10
187.4390326137305
 20
130.4981499239727
 10
187.5971624965035
 20
130.557405566319
 10
187.82453879853
 20
130.557405566319
 10
188.1407985640759
 20
130.557405566319
 10
188.6100205691669
 20
130.3496663085584
 10
188.6100205691669
 20
129.5197428061617
 10
188.6100205691669
 20
129.5197428061617
 10
188.6100205691669
 20
128.1113877717916
 10
188.6100205691669
 20
128.1113877717916
 10
188.6100205691669
 20
128.1113877717916
 10
188.1852402958356
 20
128.1113877717916
 10
188.1852402958356
 20
128.1113877717916
 10
188.1852402958356
 20
128.1113877717916
 10
188.1852402958356
 20
129.4653102974948
 10
188.1852402958356
 20
129.4653102974948
 10
188.1852402958356
 20
129.924886035227
 10
188.0171196361554
 20
130.2015272026927
 10
187.666408915757
 20
130.2015272026927
 10
187.4193955694646
 20
130.2015272026927
 10
187.2264702222906
 20
130.0185926324259
 10
187.1524006693577
 20
129.8063747505345
 10
187.1327636250918
 20
129.7471191081882
 10
187.1179497145052
 20
129.6678819120274
 10
187.1179497145052
 20
129.5889892254152
 10
187.1179497145052
 20
129.5889892254152
 10
187.1179497145052
 20
128.1113877717916
 10
187.1179497145052
 20
128.1113877717916
 10
187.1179497145052
 20
128.1113877717916
 10
186.6928249316254
 20
128.1113877717916
 10
186.6928249316254
 20
128.1113877717916
 10
186.6928249316254
 20
128.1113877717916
 10
186.6928249316254
 20
129.544202984107
 10
186.6928249316254
 20
129.544202984107
 10
186.6928249316254
 20
129.924886035227
 10
186.5247042719452
 20
130.2015272026927
 10
186.1936305958127
 20
130.2015272026927
 10
185.9218125620264
 20
130.2015272026927
 10
185.7244085907217
 20
129.9841416775734
 10
185.6551621714681
 20
129.7667561524541
 10
185.6303574839743
 20
129.7023328668799
 10
185.6203667070671
 20
129.6282633139471
 10
185.6203667070671
 20
129.5541937610142
 10
185.6203667070671
 20
129.5541937610142
 10
185.6203667070671
 20
128.1113877717916
 10
185.6203667070671
 20
128.1113877717916
 10
185.6203667070671
 20
128.1113877717916
 10
185.1955864337358
 20
128.1113877717916
 10
185.1955864337358
 20
128.1113877717916
 10
185.1955864337358
 20
128.1113877717916
 10
185.1955864337358
 20
129.8556396159736
 10
185.1955864337358
 20
129.8556396159736
 97
        1
330
CD
 75
     2
 76
     1
 98
        1
 10
0.0
 20
0.0
450
        0
451
        0
460
0.0
461
0.0
452
        0
462
0.0
453
        0
470

  0
ENDBLK
  5
C0
330
BD
100
AcDbEntity
  8
0
100
AcDbBlockEnd
  0
BLOCK
  5
D1
330
CF
100
AcDbEntity
  8
0
100
AcDbBlockBegin
  2
Block_8
 70
     0
 10
0.0
 20
0.0
 30
0.0
  3
Block_8
  1

  0
INSERT
  5
D4
330
CF
100
AcDbEntity
  8
Livello 3
100
AcDbBlockReference
  2
Block_9
 10
0.0
 20
0.0
 30
0.0
  0
ENDBLK
  5
D2
330
CF
100
AcDbEntity
  8
0
100
AcDbBlockEnd
  0
BLOCK
  5
D5
330
D3
100
AcDbEntity
  8
0
100
AcDbBlockBegin
  2
Block_9
 70
     0
 10
0.0
 20
0.0
 30
0.0
  3
Block_9
  1

  0
SPLINE
  5
D7
330
D3
100
AcDbEntity
  8
Livello 3
100
AcDbSpline
210
0.0
220
0.0
230
1.0
 70
    11
 71
     3
 72
    29
 73
    25
 74
     0
 42
0.000000001
 43
0.0000000001
 40
0.0
 40
0.0
 40
0.0
 40
0.0
 40
1.0
 40
1.0
 40
1.0
 40
2.0
 40
2.0
 40
2.0
 40
3.0
 40
3.0
 40
3.0
 40
4.0
 40
4.0
 40
4.0
 40
5.0
 40
5.0
 40
5.0
 40
6.0
 40
6.0
 40
6.0
 40
7.0
 40
7.0
 40
7.0
 40
8.0
 40
8.0
 40
8.0
 40
8.0
 10
82.18275280063487
 20
263.8143879548798
 30
0.0
 10
82.18275280063487
 20
263.8143879548798
 30
0.0
 10
82.17293427850192
 20
263.8143879548798
 30
0.0
 10
82.17293427850192
 20
263.8143879548798
 30
0.0
 10
82.17293427850192
 20
263.8143879548798
 30
0.0
 10
81.6144843003429
 20
263.5129420999204
 30
0.0
 10
81.6144843003429
 20
263.5129420999204
 30
0.0
 10
81.6144843003429
 20
263.5129420999204
 30
0.0
 10
81.53042397050281
 20
263.8440157760529
 30
0.0
 10
81.53042397050281
 20
263.8440157760529
 30
0.0
 10
81.53042397050281
 20
263.8440157760529
 30
0.0
 10
82.23218992084822
 20
264.2195311839452
 30
0.0
 10
82.23218992084822
 20
264.2195311839452
 30
0.0
 10
82.23218992084822
 20
264.2195311839452
 30
0.0
 10
82.60288219506108
 20
264.2195311839452
 30
0.0
 10
82.60288219506108
 20
264.2195311839452
 30
0.0
 10
82.60288219506108
 20
264.2195311839452
 30
0.0
 10
82.60288219506108
 20
261.0074964082725
 30
0.0
 10
82.60288219506108
 20
261.0074964082725
 30
0.0
 10
82.60288219506108
 20
261.0074964082725
 30
0.0
 10
82.18275280063487
 20
261.0074964082725
 30
0.0
 10
82.18275280063487
 20
261.0074964082725
 30
0.0
 10
82.18275280063487
 20
261.0074964082725
 30
0.0
 10
82.18275280063487
 20
263.8143879548798
 30
0.0
 10
82.18275280063487
 20
263.8143879548798
 30
0.0
  0
HATCH
  5
D8
330
D3
100
AcDbEntity
  8
Livello 3
 62
   250
420
  1907995
440
 33554687
100
AcDbHatch
 10
0.0
 20
0.0
 30
0.0
210
0.0
220
0.0
230
1.0
  2
SOLID
 70
     1
 71
     1
 91
        1
 92
        1
 93
        1
 72
     4
 94
        3
 73
     0
 74
     0
 95
       29
 96
       25
 40
0.0
 40
0.0
 40
0.0
 40
0.0
 40
1.0
 40
1.0
 40
1.0
 40
2.0
 40
2.0
 40
2.0
 40
3.0
 40
3.0
 40
3.0
 40
4.0
 40
4.0
 40
4.0
 40
5.0
 40
5.0
 40
5.0
 40
6.0
 40
6.0
 40
6.0
 40
7.0
 40
7.0
 40
7.0
 40
8.0
 40
8.0
 40
8.0
 40
8.0
 10
82.18275280063487
 20
263.8143879548798
 10
82.18275280063487
 20
263.8143879548798
 10
82.17293427850192
 20
263.8143879548798
 10
82.17293427850192
 20
263.8143879548798
 10
82.17293427850192
 20
263.8143879548798
 10
81.6144843003429
 20
263.5129420999204
 10
81.6144843003429
 20
263.5129420999204
 10
81.6144843003429
 20
263.5129420999204
 10
81.53042397050281
 20
263.8440157760529
 10
81.53042397050281
 20
263.8440157760529
 10
81.53042397050281
 20
263.8440157760529
 10
82.23218992084822
 20
264.2195311839452
 10
82.23218992084822
 20
264.2195311839452
 10
82.23218992084822
 20
264.2195311839452
 10
82.60288219506108
 20
264.2195311839452
 10
82.60288219506108
 20
264.2195311839452
 10
82.60288219506108
 20
264.2195311839452
 10
82.60288219506108
 20
261.0074964082725
 10
82.60288219506108
 20
261.0074964082725
 10
82.60288219506108
 20
261.0074964082725
 10
82.18275280063487
 20
261.0074964082725
 10
82.18275280063487
 20
261.0074964082725
 10
82.18275280063487
 20
261.0074964082725
 10
82.18275280063487
 20
263.8143879548798
 10
82.18275280063487
 20
263.8143879548798
 97
        1
330
D7
 75
     2
 76
     1
 98
        1
 10
0.0
 20
0.0
450
        0
451
        0
460
0.0
461
0.0
452
        0
462
0.0
453
        0
470

  0
SPLINE
  5
D9
330
D3
100
AcDbEntity
  8
Livello 3
100
AcDbSpline
210
0.0
220
0.0
230
1.0
 70
    11
 71
     3
 72
    47
 73
    43
 74
     0
 42
0.000000001
 43
0.0000000001
 40
0.0
 40
0.0
 40
0.0
 40
0.0
 40
1.0
 40
1.0
 40
1.0
 40
2.0
 40
2.0
 40
2.0
 40
3.0
 40
3.0
 40
3.0
 40
4.0
 40
4.0
 40
4.0
 40
5.0
 40
5.0
 40
5.0
 40
6.0
 40
6.0
 40
6.0
 40
7.0
 40
7.0
 40
7.0
 40
8.0
 40
8.0
 40
8.0
 40
9.0
 40
9.0
 40
9.0
 40
10.0
 40
10.0
 40
10.0
 40
11.0
 40
11.0
 40
11.0
 40
12.0
 40
12.0
 40
12.0
 40
13.0
 40
13.0
 40
13.0
 40
14.0
 40
14.0
 40
14.0
 40
14.0
 10
83.7724921123034
 20
261.0074964082725
 30
0.0
 10
83.7724921123034
 20
261.0074964082725
 30
0.0
 10
83.7724921123034
 20
261.274319053605
 30
0.0
 10
83.7724921123034
 20
261.274319053605
 30
0.0
 10
83.7724921123034
 20
261.274319053605
 30
0.0
 10
84.11338431056888
 20
261.6053927297376
 30
0.0
 10
84.11338431056888
 20
261.6053927297376
 30
0.0
 10
84.93383380038112
 20
262.3862236214694
 30
0.0
 10
85.30435381981975
 20
262.801357627442
 30
0.0
 10
85.30934920827336
 20
263.2855657978939
 30
0.0
 10
85.30934920827336
 20
263.6116440855728
 30
0.0
 10
85.15121932550039
 20
263.9130899405321
 30
0.0
 10
84.67183428872788
 20
263.9130899405321
 30
0.0
 10
84.38020695590148
 20
263.9130899405321
 30
0.0
 10
84.13818899806267
 20
263.7649508346664
 30
0.0
 10
83.98987763742267
 20
263.6412719067459
 30
0.0
 10
83.98987763742267
 20
263.6412719067459
 30
0.0
 10
83.85155705368989
 20
263.9477131501589
 30
0.0
 10
83.85155705368989
 20
263.9477131501589
 30
0.0
 10
84.07393796726276
 20
264.135470854105
 30
0.0
 10
84.3901977328087
 20
264.2737914378378
 30
0.0
 10
84.76071775224733
 20
264.2737914378378
 30
0.0
 10
85.45266518045975
 20
264.2737914378378
 30
0.0
 10
85.74412025851186
 20
263.7994017895189
 30
0.0
 10
85.74412025851186
 20
263.3399983065609
 30
0.0
 10
85.74412025851186
 20
262.7469251187751
 30
0.0
 10
85.31417234195272
 20
262.2675400820026
 30
0.0
 10
84.63721107910112
 20
261.6153835066448
 30
0.0
 10
84.63721107910112
 20
261.6153835066448
 30
0.0
 10
84.38020695590148
 20
261.3781886824853
 30
0.0
 10
84.38020695590148
 20
261.3781886824853
 30
0.0
 10
84.38020695590148
 20
261.3781886824853
 30
0.0
 10
84.38020695590148
 20
261.3681979055781
 30
0.0
 10
84.38020695590148
 20
261.3681979055781
 30
0.0
 10
84.38020695590148
 20
261.3681979055781
 30
0.0
 10
85.82318519989838
 20
261.3681979055781
 30
0.0
 10
85.82318519989838
 20
261.3681979055781
 30
0.0
 10
85.82318519989838
 20
261.3681979055781
 30
0.0
 10
85.82318519989838
 20
261.0074964082725
 30
0.0
 10
85.82318519989838
 20
261.0074964082725
 30
0.0
 10
85.82318519989838
 20
261.0074964082725
 30
0.0
 10
83.7724921123034
 20
261.0074964082725
 30
0.0
 10
83.7724921123034
 20
261.0074964082725
 30
0.0
  0
HATCH
  5
DA
330
D3
100
AcDbEntity
  8
Livello 3
 62
   250
420
  1907995
440
 33554687
100
AcDbHatch
 10
0.0
 20
0.0
 30
0.0
210
0.0
220
0.0
230
1.0
  2
SOLID
 70
     1
 71
     1
 91
        1
 92
        1
 93
        1
 72
     4
 94
        3
 73
     0
 74
     0
 95
       47
 96
       43
 40
0.0
 40
0.0
 40
0.0
 40
0.0
 40
1.0
 40
1.0
 40
1.0
 40
2.0
 40
2.0
 40
2.0
 40
3.0
 40
3.0
 40
3.0
 40
4.0
 40
4.0
 40
4.0
 40
5.0
 40
5.0
 40
5.0
 40
6.0
 40
6.0
 40
6.0
 40
7.0
 40
7.0
 40
7.0
 40
8.0
 40
8.0
 40
8.0
 40
9.0
 40
9.0
 40
9.0
 40
10.0
 40
10.0
 40
10.0
 40
11.0
 40
11.0
 40
11.0
 40
12.0
 40
12.0
 40
12.0
 40
13.0
 40
13.0
 40
13.0
 40
14.0
 40
14.0
 40
14.0
 40
14.0
 10
83.7724921123034
 20
261.0074964082725
 10
83.7724921123034
 20
261.0074964082725
 10
83.7724921123034
 20
261.274319053605
 10
83.7724921123034
 20
261.274319053605
 10
83.7724921123034
 20
261.274319053605
 10
84.11338431056888
 20
261.6053927297376
 10
84.11338431056888
 20
261.6053927297376
 10
84.93383380038112
 20
262.3862236214694
 10
85.30435381981975
 20
262.801357627442
 10
85.30934920827336
 20
263.2855657978939
 10
85.30934920827336
 20
263.6116440855728
 10
85.15121932550039
 20
263.9130899405321
 10
84.67183428872788
 20
263.9130899405321
 10
84.38020695590148
 20
263.9130899405321
 10
84.13818899806267
 20
263.7649508346664
 10
83.98987763742267
 20
263.6412719067459
 10
83.98987763742267
 20
263.6412719067459
 10
83.85155705368989
 20
263.9477131501589
 10
83.85155705368989
 20
263.9477131501589
 10
84.07393796726276
 20
264.135470854105
 10
84.3901977328087
 20
264.2737914378378
 10
84.76071775224733
 20
264.2737914378378
 10
85.45266518045975
 20
264.2737914378378
 10
85.74412025851186
 20
263.7994017895189
 10
85.74412025851186
 20
263.3399983065609
 10
85.74412025851186
 20
262.7469251187751
 10
85.31417234195272
 20
262.2675400820026
 10
84.63721107910112
 20
261.6153835066448
 10
84.63721107910112
 20
261.6153835066448
 10
84.38020695590148
 20
261.3781886824853
 10
84.38020695590148
 20
261.3781886824853
 10
84.38020695590148
 20
261.3781886824853
 10
84.38020695590148
 20
261.3681979055781
 10
84.38020695590148
 20
261.3681979055781
 10
84.38020695590148
 20
261.3681979055781
 10
85.82318519989838
 20
261.3681979055781
 10
85.82318519989838
 20
261.3681979055781
 10
85.82318519989838
 20
261.3681979055781
 10
85.82318519989838
 20
261.0074964082725
 10
85.82318519989838
 20
261.0074964082725
 10
85.82318519989838
 20
261.0074964082725
 10
83.7724921123034
 20
261.0074964082725
 10
83.7724921123034
 20
261.0074964082725
 97
        1
330
D9
 75
     2
 76
     1
 98
        1
 10
0.0
 20
0.0
450
        0
451
        0
460
0.0
461
0.0
452
        0
462
0.0
453
        0
470

  0
SPLINE
  5
DB
330
D3
100
AcDbEntity
  8
Livello 3
100
AcDbSpline
210
0.0
220
0.0
230
1.0
 70
     9
 71
     3
 72
    17
 73
    13
 74
     0
 42
0.000000001
 43
0.0000000001
 40
0.0
 40
0.0
 40
0.0
 40
0.0
 40
1.0
 40
1.0
 40
1.0
 40
2.0
 40
2.0
 40
2.0
 40
3.0
 40
3.0
 40
3.0
 40
4.0
 40
4.0
 40
4.0
 40
4.0
 10
86.69651690540922
 20
262.598613758135
 30
0.0
 10
86.69651690540922
 20
261.7635226125106
 30
0.0
 10
86.95352102860884
 20
261.2891329641916
 30
0.0
 10
87.34884573554126
 20
261.2891329641916
 30
0.0
 10
87.79360756268701
 20
261.2891329641916
 30
0.0
 10
88.00599769935265
 20
261.8079643442702
 30
0.0
 10
88.00599769935265
 20
262.6282415793082
 30
0.0
 10
88.00599769935265
 20
263.4188909931731
 30
0.0
 10
87.80342608481999
 20
263.937894628026
 30
0.0
 10
87.35384112399488
 20
263.937894628026
 30
0.0
 10
86.97333032764904
 20
263.937894628026
 30
0.0
 10
86.69651690540922
 20
263.47332350184
 30
0.0
 10
86.69651690540922
 20
262.598613758135
 30
0.0
  0
SPLINE
  5
DC
330
D3
100
AcDbEntity
  8
Livello 3
100
AcDbSpline
210
0.0
220
0.0
230
1.0
 70
     9
 71
     3
 72
    17
 73
    13
 74
     0
 42
0.000000001
 43
0.0000000001
 40
0.0
 40
0.0
 40
0.0
 40
0.0
 40
1.0
 40
1.0
 40
1.0
 40
2.0
 40
2.0
 40
2.0
 40
3.0
 40
3.0
 40
3.0
 40
4.0
 40
4.0
 40
4.0
 40
4.0
 10
88.44094100436548
 20
262.6480508783485
 30
0.0
 10
88.44094100436548
 20
261.5559556095242
 30
0.0
 10
88.03579777530009
 20
260.9530638996055
 30
0.0
 10
87.32421330282173
 20
260.9530638996055
 30
0.0
 10
86.69651690540922
 20
260.9530638996055
 30
0.0
 10
86.27156437730366
 20
261.5411416989376
 30
0.0
 10
86.26174585517068
 20
262.6036091465887
 30
0.0
 10
86.26174585517068
 20
263.6808905048263
 30
0.0
 10
86.72614472658237
 20
264.2737914378378
 30
0.0
 10
87.37847355671439
 20
264.2737914378378
 30
0.0
 10
88.055434819566
 20
264.2737914378378
 30
0.0
 10
88.44094100436548
 20
263.6710719826934
 30
0.0
 10
88.44094100436548
 20
262.6480508783485
 30
0.0
  0
HATCH
  5
DD
330
D3
100
AcDbEntity
  8
Livello 3
 62
   250
420
  1907995
440
 33554687
100
AcDbHatch
 10
0.0
 20
0.0
 30
0.0
210
0.0
220
0.0
230
1.0
  2
SOLID
 70
     1
 71
     1
 91
        2
 92
        1
 93
        1
 72
     4
 94
        3
 73
     0
 74
     0
 95
       17
 96
       13
 40
0.0
 40
0.0
 40
0.0
 40
0.0
 40
1.0
 40
1.0
 40
1.0
 40
2.0
 40
2.0
 40
2.0
 40
3.0
 40
3.0
 40
3.0
 40
4.0
 40
4.0
 40
4.0
 40
4.0
 10
86.69651690540922
 20
262.598613758135
 10
86.69651690540922
 20
261.7635226125106
 10
86.95352102860884
 20
261.2891329641916
 10
87.34884573554126
 20
261.2891329641916
 10
87.79360756268701
 20
261.2891329641916
 10
88.00599769935265
 20
261.8079643442702
 10
88.00599769935265
 20
262.6282415793082
 10
88.00599769935265
 20
263.4188909931731
 10
87.80342608481999
 20
263.937894628026
 10
87.35384112399488
 20
263.937894628026
 10
86.97333032764904
 20
263.937894628026
 10
86.69651690540922
 20
263.47332350184
 10
86.69651690540922
 20
262.598613758135
 97
        1
330
DB
 92
        1
 93
        1
 72
     4
 94
        3
 73
     0
 74
     0
 95
       17
 96
       13
 40
0.0
 40
0.0
 40
0.0
 40
0.0
 40
1.0
 40
1.0
 40
1.0
 40
2.0
 40
2.0
 40
2.0
 40
3.0
 40
3.0
 40
3.0
 40
4.0
 40
4.0
 40
4.0
 40
4.0
 10
88.44094100436548
 20
262.6480508783485
 10
88.44094100436548
 20
261.5559556095242
 10
88.03579777530009
 20
260.9530638996055
 10
87.32421330282173
 20
260.9530638996055
 10
86.69651690540922
 20
260.9530638996055
 10
86.27156437730366
 20
261.5411416989376
 10
86.26174585517068
 20
262.6036091465887
 10
86.26174585517068
 20
263.6808905048263
 10
86.72614472658237
 20
264.2737914378378
 10
87.37847355671439
 20
264.2737914378378
 10
88.055434819566
 20
264.2737914378378
 10
88.44094100436548
 20
263.6710719826934
 10
88.44094100436548
 20
262.6480508783485
 97
        1
330
DC
 75
     2
 76
     1
 98
        1
 10
0.0
 20
0.0
450
        0
451
        0
460
0.0
461
0.0
452
        0
462
0.0
453
        0
470

  0
SPLINE
  5
DE
330
D3
100
AcDbEntity
  8
Livello 3
100
AcDbSpline
210
0.0
220
0.0
230
1.0
 70
     9
 71
     3
 72
    80
 73
    76
 74
     0
 42
0.000000001
 43
0.0000000001
 40
0.0
 40
0.0
 40
0.0
 40
0.0
 40
1.0
 40
1.0
 40
1.0
 40
2.0
 40
2.0
 40
2.0
 40
3.0
 40
3.0
 40
3.0
 40
4.0
 40
4.0
 40
4.0
 40
5.0
 40
5.0
 40
5.0
 40
6.0
 40
6.0
 40
6.0
 40
7.0
 40
7.0
 40
7.0
 40
8.0
 40
8.0
 40
8.0
 40
9.0
 40
9.0
 40
9.0
 40
10.0
 40
10.0
 40
10.0
 40
11.0
 40
11.0
 40
11.0
 40
12.0
 40
12.0
 40
12.0
 40
13.0
 40
13.0
 40
13.0
 40
14.0
 40
14.0
 40
14.0
 40
15.0
 40
15.0
 40
15.0
 40
16.0
 40
16.0
 40
16.0
 40
17.0
 40
17.0
 40
17.0
 40
18.0
 40
18.0
 40
18.0
 40
19.0
 40
19.0
 40
19.0
 40
20.0
 40
20.0
 40
20.0
 40
21.0
 40
21.0
 40
21.0
 40
22.0
 40
22.0
 40
22.0
 40
23.0
 40
23.0
 40
23.0
 40
24.0
 40
24.0
 40
24.0
 40
25.0
 40
25.0
 40
25.0
 40
25.0
 10
90.02499590848335
 20
262.7519205072287
 30
0.0
 10
90.02499590848335
 20
262.9989338535211
 30
0.0
 10
90.02017277480398
 20
263.2015054680538
 30
0.0
 10
90.00518660944313
 20
263.3992539489071
 30
0.0
 10
90.00518660944313
 20
263.3992539489071
 30
0.0
 10
90.38569740578898
 20
263.3992539489071
 30
0.0
 10
90.38569740578898
 20
263.3992539489071
 30
0.0
 10
90.38569740578898
 20
263.3992539489071
 30
0.0
 10
90.4055067048292
 20
263.0137477641077
 30
0.0
 10
90.4055067048292
 20
263.0137477641077
 30
0.0
 10
90.4055067048292
 20
263.0137477641077
 30
0.0
 10
90.42032061541576
 20
263.0137477641077
 30
0.0
 10
90.42032061541576
 20
263.0137477641077
 30
0.0
 10
90.55381806546918
 20
263.2411240661341
 30
0.0
 10
90.77619897904204
 20
263.4535142027999
 30
0.0
 10
91.17152368597448
 20
263.4535142027999
 30
0.0
 10
91.49760197365337
 20
263.4535142027999
 30
0.0
 10
91.74461531994579
 20
263.2559379767207
 30
0.0
 10
91.84848494882608
 20
262.9743014208016
 30
0.0
 10
91.84848494882608
 20
262.9743014208016
 30
0.0
 10
91.85830347095906
 20
262.9743014208016
 30
0.0
 10
91.85830347095906
 20
262.9743014208016
 30
0.0
 10
91.93254527866615
 20
263.1076266160807
 30
0.0
 10
92.02642413063923
 20
263.211496244961
 30
0.0
 10
92.12512611629163
 20
263.2855657978939
 30
0.0
 10
92.26844208847806
 20
263.3942585604535
 30
0.0
 10
92.42657197125099
 20
263.4535142027999
 30
0.0
 10
92.65394827327749
 20
263.4535142027999
 30
0.0
 10
92.97020803882343
 20
263.4535142027999
 30
0.0
 10
93.43960229868871
 20
263.2459471998136
 30
0.0
 10
93.43960229868871
 20
262.4158514426426
 30
0.0
 10
93.43960229868871
 20
262.4158514426426
 30
0.0
 10
93.43960229868871
 20
261.0074964082725
 30
0.0
 10
93.43960229868871
 20
261.0074964082725
 30
0.0
 10
93.43960229868871
 20
261.0074964082725
 30
0.0
 10
93.01464977058314
 20
261.0074964082725
 30
0.0
 10
93.01464977058314
 20
261.0074964082725
 30
0.0
 10
93.01464977058314
 20
261.0074964082725
 30
0.0
 10
93.01464977058314
 20
262.3614189339757
 30
0.0
 10
93.01464977058314
 20
262.3614189339757
 30
0.0
 10
93.01464977058314
 20
262.820994671708
 30
0.0
 10
92.84670136567722
 20
263.0978080939478
 30
0.0
 10
92.49581839050451
 20
263.0978080939478
 30
0.0
 10
92.24880504421212
 20
263.0978080939478
 30
0.0
 10
92.05605195181238
 20
262.914873523681
 30
0.0
 10
91.98181014410524
 20
262.7024833870154
 30
0.0
 10
91.9621730998393
 20
262.643227744669
 30
0.0
 10
91.94735918925276
 20
262.5641628032826
 30
0.0
 10
91.94735918925276
 20
262.4850978618961
 30
0.0
 10
91.94735918925276
 20
262.4850978618961
 30
0.0
 10
91.94735918925276
 20
261.0074964082725
 30
0.0
 10
91.94735918925276
 20
261.0074964082725
 30
0.0
 10
91.94735918925276
 20
261.0074964082725
 30
0.0
 10
91.52223440637293
 20
261.0074964082725
 30
0.0
 10
91.52223440637293
 20
261.0074964082725
 30
0.0
 10
91.52223440637293
 20
261.0074964082725
 30
0.0
 10
91.52223440637293
 20
262.4404838753621
 30
0.0
 10
91.52223440637293
 20
262.4404838753621
 30
0.0
 10
91.52223440637293
 20
262.820994671708
 30
0.0
 10
91.35428600146701
 20
263.0978080939478
 30
0.0
 10
91.0232123253345
 20
263.0978080939478
 30
0.0
 10
90.75139429154829
 20
263.0978080939478
 30
0.0
 10
90.55381806546918
 20
262.8804225688285
 30
0.0
 10
90.48457164621568
 20
262.662864788935
 30
0.0
 10
90.45993921349612
 20
262.598613758135
 30
0.0
 10
90.44994843658891
 20
262.5245442052023
 30
0.0
 10
90.44994843658891
 20
262.4504746522693
 30
0.0
 10
90.44994843658891
 20
262.4504746522693
 30
0.0
 10
90.44994843658891
 20
261.0074964082725
 30
0.0
 10
90.44994843658891
 20
261.0074964082725
 30
0.0
 10
90.44994843658891
 20
261.0074964082725
 30
0.0
 10
90.02499590848335
 20
261.0074964082725
 30
0.0
 10
90.02499590848335
 20
261.0074964082725
 30
0.0
 10
90.02499590848335
 20
261.0074964082725
 30
0.0
 10
90.02499590848335
 20
262.7519205072287
 30
0.0
 10
90.02499590848335
 20
262.7519205072287
 30
0.0
  0
HATCH
  5
DF
330
D3
100
AcDbEntity
  8
Livello 3
 62
   250
420
  1907995
440
 33554687
100
AcDbHatch
 10
0.0
 20
0.0
 30
0.0
210
0.0
220
0.0
230
1.0
  2
SOLID
 70
     1
 71
     1
 91
        1
 92
        1
 93
        1
 72
     4
 94
        3
 73
     0
 74
     0
 95
       80
 96
       76
 40
0.0
 40
0.0
 40
0.0
 40
0.0
 40
1.0
 40
1.0
 40
1.0
 40
2.0
 40
2.0
 40
2.0
 40
3.0
 40
3.0
 40
3.0
 40
4.0
 40
4.0
 40
4.0
 40
5.0
 40
5.0
 40
5.0
 40
6.0
 40
6.0
 40
6.0
 40
7.0
 40
7.0
 40
7.0
 40
8.0
 40
8.0
 40
8.0
 40
9.0
 40
9.0
 40
9.0
 40
10.0
 40
10.0
 40
10.0
 40
11.0
 40
11.0
 40
11.0
 40
12.0
 40
12.0
 40
12.0
 40
13.0
 40
13.0
 40
13.0
 40
14.0
 40
14.0
 40
14.0
 40
15.0
 40
15.0
 40
15.0
 40
16.0
 40
16.0
 40
16.0
 40
17.0
 40
17.0
 40
17.0
 40
18.0
 40
18.0
 40
18.0
 40
19.0
 40
19.0
 40
19.0
 40
20.0
 40
20.0
 40
20.0
 40
21.0
 40
21.0
 40
21.0
 40
22.0
 40
22.0
 40
22.0
 40
23.0
 40
23.0
 40
23.0
 40
24.0
 40
24.0
 40
24.0
 40
25.0
 40
25.0
 40
25.0
 40
25.0
 10
90.02499590848335
 20
262.7519205072287
 10
90.02499590848335
 20
262.9989338535211
 10
90.02017277480398
 20
263.2015054680538
 10
90.00518660944313
 20
263.3992539489071
 10
90.00518660944313
 20
263.3992539489071
 10
90.38569740578898
 20
263.3992539489071
 10
90.38569740578898
 20
263.3992539489071
 10
90.38569740578898
 20
263.3992539489071
 10
90.4055067048292
 20
263.0137477641077
 10
90.4055067048292
 20
263.0137477641077
 10
90.4055067048292
 20
263.0137477641077
 10
90.42032061541576
 20
263.0137477641077
 10
90.42032061541576
 20
263.0137477641077
 10
90.55381806546918
 20
263.2411240661341
 10
90.77619897904204
 20
263.4535142027999
 10
91.17152368597448
 20
263.4535142027999
 10
91.49760197365337
 20
263.4535142027999
 10
91.74461531994579
 20
263.2559379767207
 10
91.84848494882608
 20
262.9743014208016
 10
91.84848494882608
 20
262.9743014208016
 10
91.85830347095906
 20
262.9743014208016
 10
91.85830347095906
 20
262.9743014208016
 10
91.93254527866615
 20
263.1076266160807
 10
92.02642413063923
 20
263.211496244961
 10
92.12512611629163
 20
263.2855657978939
 10
92.26844208847806
 20
263.3942585604535
 10
92.42657197125099
 20
263.4535142027999
 10
92.65394827327749
 20
263.4535142027999
 10
92.97020803882343
 20
263.4535142027999
 10
93.43960229868871
 20
263.2459471998136
 10
93.43960229868871
 20
262.4158514426426
 10
93.43960229868871
 20
262.4158514426426
 10
93.43960229868871
 20
261.0074964082725
 10
93.43960229868871
 20
261.0074964082725
 10
93.43960229868871
 20
261.0074964082725
 10
93.01464977058314
 20
261.0074964082725
 10
93.01464977058314
 20
261.0074964082725
 10
93.01464977058314
 20
261.0074964082725
 10
93.01464977058314
 20
262.3614189339757
 10
93.01464977058314
 20
262.3614189339757
 10
93.01464977058314
 20
262.820994671708
 10
92.84670136567722
 20
263.0978080939478
 10
92.49581839050451
 20
263.0978080939478
 10
92.24880504421212
 20
263.0978080939478
 10
92.05605195181238
 20
262.914873523681
 10
91.98181014410524
 20
262.7024833870154
 10
91.9621730998393
 20
262.643227744669
 10
91.94735918925276
 20
262.5641628032826
 10
91.94735918925276
 20
262.4850978618961
 10
91.94735918925276
 20
262.4850978618961
 10
91.94735918925276
 20
261.0074964082725
 10
91.94735918925276
 20
261.0074964082725
 10
91.94735918925276
 20
261.0074964082725
 10
91.52223440637293
 20
261.0074964082725
 10
91.52223440637293
 20
261.0074964082725
 10
91.52223440637293
 20
261.0074964082725
 10
91.52223440637293
 20
262.4404838753621
 10
91.52223440637293
 20
262.4404838753621
 10
91.52223440637293
 20
262.820994671708
 10
91.35428600146701
 20
263.0978080939478
 10
91.0232123253345
 20
263.0978080939478
 10
90.75139429154829
 20
263.0978080939478
 10
90.55381806546918
 20
262.8804225688285
 10
90.48457164621568
 20
262.662864788935
 10
90.45993921349612
 20
262.598613758135
 10
90.44994843658891
 20
262.5245442052023
 10
90.44994843658891
 20
262.4504746522693
 10
90.44994843658891
 20
262.4504746522693
 10
90.44994843658891
 20
261.0074964082725
 10
90.44994843658891
 20
261.0074964082725
 10
90.44994843658891
 20
261.0074964082725
 10
90.02499590848335
 20
261.0074964082725
 10
90.02499590848335
 20
261.0074964082725
 10
90.02499590848335
 20
261.0074964082725
 10
90.02499590848335
 20
262.7519205072287
 10
90.02499590848335
 20
262.7519205072287
 97
        1
330
DE
 75
     2
 76
     1
 98
        1
 10
0.0
 20
0.0
450
        0
451
        0
460
0.0
461
0.0
452
        0
462
0.0
453
        0
470

  0
SPLINE
  5
E0
330
D3
100
AcDbEntity
  8
Livello 3
100
AcDbSpline
210
0.0
220
0.0
230
1.0
 70
     9
 71
     3
 72
    80
 73
    76
 74
     0
 42
0.000000001
 43
0.0000000001
 40
0.0
 40
0.0
 40
0.0
 40
0.0
 40
1.0
 40
1.0
 40
1.0
 40
2.0
 40
2.0
 40
2.0
 40
3.0
 40
3.0
 40
3.0
 40
4.0
 40
4.0
 40
4.0
 40
5.0
 40
5.0
 40
5.0
 40
6.0
 40
6.0
 40
6.0
 40
7.0
 40
7.0
 40
7.0
 40
8.0
 40
8.0
 40
8.0
 40
9.0
 40
9.0
 40
9.0
 40
10.0
 40
10.0
 40
10.0
 40
11.0
 40
11.0
 40
11.0
 40
12.0
 40
12.0
 40
12.0
 40
13.0
 40
13.0
 40
13.0
 40
14.0
 40
14.0
 40
14.0
 40
15.0
 40
15.0
 40
15.0
 40
16.0
 40
16.0
 40
16.0
 40
17.0
 40
17.0
 40
17.0
 40
18.0
 40
18.0
 40
18.0
 40
19.0
 40
19.0
 40
19.0
 40
20.0
 40
20.0
 40
20.0
 40
21.0
 40
21.0
 40
21.0
 40
22.0
 40
22.0
 40
22.0
 40
23.0
 40
23.0
 40
23.0
 40
24.0
 40
24.0
 40
24.0
 40
25.0
 40
25.0
 40
25.0
 40
25.0
 10
94.14412432542231
 20
262.7519205072287
 30
0.0
 10
94.14412432542231
 20
262.9989338535211
 30
0.0
 10
94.13912893696869
 20
263.2015054680538
 30
0.0
 10
94.12431502638211
 20
263.3992539489071
 30
0.0
 10
94.12431502638211
 20
263.3992539489071
 30
0.0
 10
94.50482582272796
 20
263.3992539489071
 30
0.0
 10
94.50482582272796
 20
263.3992539489071
 30
0.0
 10
94.50482582272796
 20
263.3992539489071
 30
0.0
 10
94.52463512176816
 20
263.0137477641077
 30
0.0
 10
94.52463512176816
 20
263.0137477641077
 30
0.0
 10
94.52463512176816
 20
263.0137477641077
 30
0.0
 10
94.53944903235472
 20
263.0137477641077
 30
0.0
 10
94.53944903235472
 20
263.0137477641077
 30
0.0
 10
94.67294648240814
 20
263.2411240661341
 30
0.0
 10
94.89532739598102
 20
263.4535142027999
 30
0.0
 10
95.29065210291346
 20
263.4535142027999
 30
0.0
 10
95.61673039059234
 20
263.4535142027999
 30
0.0
 10
95.86374373688476
 20
263.2559379767207
 30
0.0
 10
95.96761336576504
 20
262.9743014208016
 30
0.0
 10
95.96761336576504
 20
262.9743014208016
 30
0.0
 10
95.97743188789801
 20
262.9743014208016
 30
0.0
 10
95.97743188789801
 20
262.9743014208016
 30
0.0
 10
96.05167369560517
 20
263.1076266160807
 30
0.0
 10
96.14555254757821
 20
263.211496244961
 30
0.0
 10
96.24425453323059
 20
263.2855657978939
 30
0.0
 10
96.387570505417
 20
263.3942585604535
 30
0.0
 10
96.54570038818995
 20
263.4535142027999
 30
0.0
 10
96.77307669021644
 20
263.4535142027999
 30
0.0
 10
97.08933645576241
 20
263.4535142027999
 30
0.0
 10
97.55873071562769
 20
263.2459471998136
 30
0.0
 10
97.55873071562769
 20
262.4158514426426
 30
0.0
 10
97.55873071562769
 20
262.4158514426426
 30
0.0
 10
97.55873071562769
 20
261.0074964082725
 30
0.0
 10
97.55873071562769
 20
261.0074964082725
 30
0.0
 10
97.55873071562769
 20
261.0074964082725
 30
0.0
 10
97.13377818752213
 20
261.0074964082725
 30
0.0
 10
97.13377818752213
 20
261.0074964082725
 30
0.0
 10
97.13377818752213
 20
261.0074964082725
 30
0.0
 10
97.13377818752213
 20
262.3614189339757
 30
0.0
 10
97.13377818752213
 20
262.3614189339757
 30
0.0
 10
97.13377818752213
 20
262.820994671708
 30
0.0
 10
96.9658297826162
 20
263.0978080939478
 30
0.0
 10
96.61494680744349
 20
263.0978080939478
 30
0.0
 10
96.36793346115108
 20
263.0978080939478
 30
0.0
 10
96.17518036875134
 20
262.914873523681
 30
0.0
 10
96.10093856104422
 20
262.7024833870154
 30
0.0
 10
96.0813015167783
 20
262.643227744669
 30
0.0
 10
96.06648760619172
 20
262.5641628032826
 30
0.0
 10
96.06648760619172
 20
262.4850978618961
 30
0.0
 10
96.06648760619172
 20
262.4850978618961
 30
0.0
 10
96.06648760619172
 20
261.0074964082725
 30
0.0
 10
96.06648760619172
 20
261.0074964082725
 30
0.0
 10
96.06648760619172
 20
261.0074964082725
 30
0.0
 10
95.64153507808615
 20
261.0074964082725
 30
0.0
 10
95.64153507808615
 20
261.0074964082725
 30
0.0
 10
95.64153507808615
 20
261.0074964082725
 30
0.0
 10
95.64153507808615
 20
262.4404838753621
 30
0.0
 10
95.64153507808615
 20
262.4404838753621
 30
0.0
 10
95.64153507808615
 20
262.820994671708
 30
0.0
 10
95.47341441840595
 20
263.0978080939478
 30
0.0
 10
95.14234074227344
 20
263.0978080939478
 30
0.0
 10
94.87052270848725
 20
263.0978080939478
 30
0.0
 10
94.67294648240814
 20
262.8804225688285
 30
0.0
 10
94.60370006315462
 20
262.662864788935
 30
0.0
 10
94.57906763043508
 20
262.598613758135
 30
0.0
 10
94.56907685352787
 20
262.5245442052023
 30
0.0
 10
94.56907685352787
 20
262.4504746522693
 30
0.0
 10
94.56907685352787
 20
262.4504746522693
 30
0.0
 10
94.56907685352787
 20
261.0074964082725
 30
0.0
 10
94.56907685352787
 20
261.0074964082725
 30
0.0
 10
94.56907685352787
 20
261.0074964082725
 30
0.0
 10
94.14412432542231
 20
261.0074964082725
 30
0.0
 10
94.14412432542231
 20
261.0074964082725
 30
0.0
 10
94.14412432542231
 20
261.0074964082725
 30
0.0
 10
94.14412432542231
 20
262.7519205072287
 30
0.0
 10
94.14412432542231
 20
262.7519205072287
 30
0.0
  0
HATCH
  5
E1
330
D3
100
AcDbEntity
  8
Livello 3
 62
   250
420
  1907995
440
 33554687
100
AcDbHatch
 10
0.0
 20
0.0
 30
0.0
210
0.0
220
0.0
230
1.0
  2
SOLID
 70
     1
 71
     1
 91
        1
 92
        1
 93
        1
 72
     4
 94
        3
 73
     0
 74
     0
 95
       80
 96
       76
 40
0.0
 40
0.0
 40
0.0
 40
0.0
 40
1.0
 40
1.0
 40
1.0
 40
2.0
 40
2.0
 40
2.0
 40
3.0
 40
3.0
 40
3.0
 40
4.0
 40
4.0
 40
4.0
 40
5.0
 40
5.0
 40
5.0
 40
6.0
 40
6.0
 40
6.0
 40
7.0
 40
7.0
 40
7.0
 40
8.0
 40
8.0
 40
8.0
 40
9.0
 40
9.0
 40
9.0
 40
10.0
 40
10.0
 40
10.0
 40
11.0
 40
11.0
 40
11.0
 40
12.0
 40
12.0
 40
12.0
 40
13.0
 40
13.0
 40
13.0
 40
14.0
 40
14.0
 40
14.0
 40
15.0
 40
15.0
 40
15.0
 40
16.0
 40
16.0
 40
16.0
 40
17.0
 40
17.0
 40
17.0
 40
18.0
 40
18.0
 40
18.0
 40
19.0
 40
19.0
 40
19.0
 40
20.0
 40
20.0
 40
20.0
 40
21.0
 40
21.0
 40
21.0
 40
22.0
 40
22.0
 40
22.0
 40
23.0
 40
23.0
 40
23.0
 40
24.0
 40
24.0
 40
24.0
 40
25.0
 40
25.0
 40
25.0
 40
25.0
 10
94.14412432542231
 20
262.7519205072287
 10
94.14412432542231
 20
262.9989338535211
 10
94.13912893696869
 20
263.2015054680538
 10
94.12431502638211
 20
263.3992539489071
 10
94.12431502638211
 20
263.3992539489071
 10
94.50482582272796
 20
263.3992539489071
 10
94.50482582272796
 20
263.3992539489071
 10
94.50482582272796
 20
263.3992539489071
 10
94.52463512176816
 20
263.0137477641077
 10
94.52463512176816
 20
263.0137477641077
 10
94.52463512176816
 20
263.0137477641077
 10
94.53944903235472
 20
263.0137477641077
 10
94.53944903235472
 20
263.0137477641077
 10
94.67294648240814
 20
263.2411240661341
 10
94.89532739598102
 20
263.4535142027999
 10
95.29065210291346
 20
263.4535142027999
 10
95.61673039059234
 20
263.4535142027999
 10
95.86374373688476
 20
263.2559379767207
 10
95.96761336576504
 20
262.9743014208016
 10
95.96761336576504
 20
262.9743014208016
 10
95.97743188789801
 20
262.9743014208016
 10
95.97743188789801
 20
262.9743014208016
 10
96.05167369560517
 20
263.1076266160807
 10
96.14555254757821
 20
263.211496244961
 10
96.24425453323059
 20
263.2855657978939
 10
96.387570505417
 20
263.3942585604535
 10
96.54570038818995
 20
263.4535142027999
 10
96.77307669021644
 20
263.4535142027999
 10
97.08933645576241
 20
263.4535142027999
 10
97.55873071562769
 20
263.2459471998136
 10
97.55873071562769
 20
262.4158514426426
 10
97.55873071562769
 20
262.4158514426426
 10
97.55873071562769
 20
261.0074964082725
 10
97.55873071562769
 20
261.0074964082725
 10
97.55873071562769
 20
261.0074964082725
 10
97.13377818752213
 20
261.0074964082725
 10
97.13377818752213
 20
261.0074964082725
 10
97.13377818752213
 20
261.0074964082725
 10
97.13377818752213
 20
262.3614189339757
 10
97.13377818752213
 20
262.3614189339757
 10
97.13377818752213
 20
262.820994671708
 10
96.9658297826162
 20
263.0978080939478
 10
96.61494680744349
 20
263.0978080939478
 10
96.36793346115108
 20
263.0978080939478
 10
96.17518036875134
 20
262.914873523681
 10
96.10093856104422
 20
262.7024833870154
 10
96.0813015167783
 20
262.643227744669
 10
96.06648760619172
 20
262.5641628032826
 10
96.06648760619172
 20
262.4850978618961
 10
96.06648760619172
 20
262.4850978618961
 10
96.06648760619172
 20
261.0074964082725
 10
96.06648760619172
 20
261.0074964082725
 10
96.06648760619172
 20
261.0074964082725
 10
95.64153507808615
 20
261.0074964082725
 10
95.64153507808615
 20
261.0074964082725
 10
95.64153507808615
 20
261.0074964082725
 10
95.64153507808615
 20
262.4404838753621
 10
95.64153507808615
 20
262.4404838753621
 10
95.64153507808615
 20
262.820994671708
 10
95.47341441840595
 20
263.0978080939478
 10
95.14234074227344
 20
263.0978080939478
 10
94.87052270848725
 20
263.0978080939478
 10
94.67294648240814
 20
262.8804225688285
 10
94.60370006315462
 20
262.662864788935
 10
94.57906763043508
 20
262.598613758135
 10
94.56907685352787
 20
262.5245442052023
 10
94.56907685352787
 20
262.4504746522693
 10
94.56907685352787
 20
262.4504746522693
 10
94.56907685352787
 20
261.0074964082725
 10
94.56907685352787
 20
261.0074964082725
 10
94.56907685352787
 20
261.0074964082725
 10
94.14412432542231
 20
261.0074964082725
 10
94.14412432542231
 20
261.0074964082725
 10
94.14412432542231
 20
261.0074964082725
 10
94.14412432542231
 20
262.7519205072287
 10
94.14412432542231
 20
262.7519205072287
 97
        1
330
E0
 75
     2
 76
     1
 98
        1
 10
0.0
 20
0.0
450
        0
451
        0
460
0.0
461
0.0
452
        0
462
0.0
453
        0
470

  0
ENDBLK
  5
D6
330
D3
100
AcDbEntity
  8
0
100
AcDbBlockEnd
  0
BLOCK
  5
E4
330
E2
100
AcDbEntity
  8
0
100
AcDbBlockBegin
  2
Block_10
 70
     0
 10
0.0
 20
0.0
 30
0.0
  3
Block_10
  1

  0
INSERT
  5
E7
330
E2
100
AcDbEntity
  8
Livello 3
100
AcDbBlockReference
  2
Block_11
 10
0.0
 20
0.0
 30
0.0
  0
ENDBLK
  5
E5
330
E2
100
AcDbEntity
  8
0
100
AcDbBlockEnd
  0
BLOCK
  5
E8
330
E6
100
AcDbEntity
  8
0
100
AcDbBlockBegin
  2
Block_11
 70
     0
 10
0.0
 20
0.0
 30
0.0
  3
Block_11
  1

  0
SPLINE
  5
EA
330
E6
100
AcDbEntity
  8
Livello 3
100
AcDbSpline
210
0.0
220
0.0
230
1.0
 70
    11
 71
     3
 72
    29
 73
    25
 74
     0
 42
0.000000001
 43
0.0000000001
 40
0.0
 40
0.0
 40
0.0
 40
0.0
 40
1.0
 40
1.0
 40
1.0
 40
2.0
 40
2.0
 40
2.0
 40
3.0
 40
3.0
 40
3.0
 40
4.0
 40
4.0
 40
4.0
 40
5.0
 40
5.0
 40
5.0
 40
6.0
 40
6.0
 40
6.0
 40
7.0
 40
7.0
 40
7.0
 40
8.0
 40
8.0
 40
8.0
 40
8.0
 10
43.37581921658659
 20
249.9036091497637
 30
0.0
 10
43.37581921658659
 20
249.9036091497637
 30
0.0
 10
43.36600069445363
 20
249.9036091497637
 30
0.0
 10
43.36600069445363
 20
249.9036091497637
 30
0.0
 10
43.36600069445363
 20
249.9036091497637
 30
0.0
 10
42.80755071629464
 20
249.6021632948044
 30
0.0
 10
42.80755071629464
 20
249.6021632948044
 30
0.0
 10
42.80755071629464
 20
249.6021632948044
 30
0.0
 10
42.72349038645454
 20
249.9332369709368
 30
0.0
 10
42.72349038645454
 20
249.9332369709368
 30
0.0
 10
42.72349038645454
 20
249.9332369709368
 30
0.0
 10
43.42525633679993
 20
250.3087523788291
 30
0.0
 10
43.42525633679993
 20
250.3087523788291
 30
0.0
 10
43.42525633679993
 20
250.3087523788291
 30
0.0
 10
43.7959486110128
 20
250.3087523788291
 30
0.0
 10
43.7959486110128
 20
250.3087523788291
 30
0.0
 10
43.7959486110128
 20
250.3087523788291
 30
0.0
 10
43.7959486110128
 20
247.0967176031564
 30
0.0
 10
43.7959486110128
 20
247.0967176031564
 30
0.0
 10
43.7959486110128
 20
247.0967176031564
 30
0.0
 10
43.37581921658659
 20
247.0967176031564
 30
0.0
 10
43.37581921658659
 20
247.0967176031564
 30
0.0
 10
43.37581921658659
 20
247.0967176031564
 30
0.0
 10
43.37581921658659
 20
249.9036091497637
 30
0.0
 10
43.37581921658659
 20
249.9036091497637
 30
0.0
  0
HATCH
  5
EB
330
E6
100
AcDbEntity
  8
Livello 3
 62
   250
420
  1907995
440
 33554687
100
AcDbHatch
 10
0.0
 20
0.0
 30
0.0
210
0.0
220
0.0
230
1.0
  2
SOLID
 70
     1
 71
     1
 91
        1
 92
        1
 93
        1
 72
     4
 94
        3
 73
     0
 74
     0
 95
       29
 96
       25
 40
0.0
 40
0.0
 40
0.0
 40
0.0
 40
1.0
 40
1.0
 40
1.0
 40
2.0
 40
2.0
 40
2.0
 40
3.0
 40
3.0
 40
3.0
 40
4.0
 40
4.0
 40
4.0
 40
5.0
 40
5.0
 40
5.0
 40
6.0
 40
6.0
 40
6.0
 40
7.0
 40
7.0
 40
7.0
 40
8.0
 40
8.0
 40
8.0
 40
8.0
 10
43.37581921658659
 20
249.9036091497637
 10
43.37581921658659
 20
249.9036091497637
 10
43.36600069445363
 20
249.9036091497637
 10
43.36600069445363
 20
249.9036091497637
 10
43.36600069445363
 20
249.9036091497637
 10
42.80755071629464
 20
249.6021632948044
 10
42.80755071629464
 20
249.6021632948044
 10
42.80755071629464
 20
249.6021632948044
 10
42.72349038645454
 20
249.9332369709368
 10
42.72349038645454
 20
249.9332369709368
 10
42.72349038645454
 20
249.9332369709368
 10
43.42525633679993
 20
250.3087523788291
 10
43.42525633679993
 20
250.3087523788291
 10
43.42525633679993
 20
250.3087523788291
 10
43.7959486110128
 20
250.3087523788291
 10
43.7959486110128
 20
250.3087523788291
 10
43.7959486110128
 20
250.3087523788291
 10
43.7959486110128
 20
247.0967176031564
 10
43.7959486110128
 20
247.0967176031564
 10
43.7959486110128
 20
247.0967176031564
 10
43.37581921658659
 20
247.0967176031564
 10
43.37581921658659
 20
247.0967176031564
 10
43.37581921658659
 20
247.0967176031564
 10
43.37581921658659
 20
249.9036091497637
 10
43.37581921658659
 20
249.9036091497637
 97
        1
330
EA
 75
     2
 76
     1
 98
        1
 10
0.0
 20
0.0
450
        0
451
        0
460
0.0
461
0.0
452
        0
462
0.0
453
        0
470

  0
SPLINE
  5
EC
330
E6
100
AcDbEntity
  8
Livello 3
100
AcDbSpline
210
0.0
220
0.0
230
1.0
 70
    11
 71
     3
 72
    50
 73
    46
 74
     0
 42
0.000000001
 43
0.0000000001
 40
0.0
 40
0.0
 40
0.0
 40
0.0
 40
1.0
 40
1.0
 40
1.0
 40
2.0
 40
2.0
 40
2.0
 40
3.0
 40
3.0
 40
3.0
 40
4.0
 40
4.0
 40
4.0
 40
5.0
 40
5.0
 40
5.0
 40
6.0
 40
6.0
 40
6.0
 40
7.0
 40
7.0
 40
7.0
 40
8.0
 40
8.0
 40
8.0
 40
9.0
 40
9.0
 40
9.0
 40
10.0
 40
10.0
 40
10.0
 40
11.0
 40
11.0
 40
11.0
 40
12.0
 40
12.0
 40
12.0
 40
13.0
 40
13.0
 40
13.0
 40
14.0
 40
14.0
 40
14.0
 40
15.0
 40
15.0
 40
15.0
 40
15.0
 10
46.88292642057094
 20
249.9430554930698
 30
0.0
 10
46.88292642057094
 20
249.9430554930698
 30
0.0
 10
45.65733370169332
 20
249.9430554930698
 30
0.0
 10
45.65733370169332
 20
249.9430554930698
 30
0.0
 10
45.65733370169332
 20
249.9430554930698
 30
0.0
 10
45.53382702854711
 20
249.1177828695782
 30
0.0
 10
45.53382702854711
 20
249.1177828695782
 30
0.0
 10
45.60789658147997
 20
249.1277736464854
 30
0.0
 10
45.67714300073348
 20
249.1375921686184
 30
0.0
 10
45.79565428542609
 20
249.1375921686184
 30
0.0
 10
46.04283988649275
 20
249.1375921686184
 30
0.0
 10
46.28985323278516
 20
249.0831596599514
 30
0.0
 10
46.48760171363853
 20
248.9646483752589
 30
0.0
 10
46.73961044838454
 20
248.8213324030724
 30
0.0
 10
46.94717745137085
 20
248.5445189808326
 30
0.0
 10
46.94717745137085
 20
248.1393757517673
 30
0.0
 10
46.94717745137085
 20
247.511851609129
 30
0.0
 10
46.44798311555813
 20
247.0422850944895
 30
0.0
 10
45.75121255366636
 20
247.0422850944895
 30
0.0
 10
45.40032957849367
 20
247.0422850944895
 30
0.0
 10
45.10387911198792
 20
247.1411593349161
 30
0.0
 10
44.95074461766857
 20
247.2400335753428
 30
0.0
 10
44.95074461766857
 20
247.2400335753428
 30
0.0
 10
45.05943738022818
 20
247.5711072514753
 30
0.0
 10
45.05943738022818
 20
247.5711072514753
 30
0.0
 10
45.19293483028163
 20
247.4920423100888
 30
0.0
 10
45.45476208716062
 20
247.3931680696621
 30
0.0
 10
45.74638941998702
 20
247.3931680696621
 30
0.0
 10
46.15652803750601
 20
247.3931680696621
 30
0.0
 10
46.50723875790442
 20
247.6599907149947
 30
0.0
 10
46.50723875790442
 20
248.0899386315539
 30
0.0
 10
46.50241562422509
 20
248.5050726375265
 30
0.0
 10
46.22560220198525
 20
248.8015231040323
 30
0.0
 10
45.58326414876043
 20
248.8015231040323
 30
0.0
 10
45.40032957849367
 20
248.8015231040323
 30
0.0
 10
45.25701360630727
 20
248.7817138049921
 30
0.0
 10
45.13850232161467
 20
248.7668998944055
 30
0.0
 10
45.13850232161467
 20
248.7668998944055
 30
0.0
 10
45.34606932460097
 20
250.3087523788291
 30
0.0
 10
45.34606932460097
 20
250.3087523788291
 30
0.0
 10
45.34606932460097
 20
250.3087523788291
 30
0.0
 10
46.88292642057094
 20
250.3087523788291
 30
0.0
 10
46.88292642057094
 20
250.3087523788291
 30
0.0
 10
46.88292642057094
 20
250.3087523788291
 30
0.0
 10
46.88292642057094
 20
249.9430554930698
 30
0.0
 10
46.88292642057094
 20
249.9430554930698
 30
0.0
  0
HATCH
  5
ED
330
E6
100
AcDbEntity
  8
Livello 3
 62
   250
420
  1907995
440
 33554687
100
AcDbHatch
 10
0.0
 20
0.0
 30
0.0
210
0.0
220
0.0
230
1.0
  2
SOLID
 70
     1
 71
     1
 91
        1
 92
        1
 93
        1
 72
     4
 94
        3
 73
     0
 74
     0
 95
       50
 96
       46
 40
0.0
 40
0.0
 40
0.0
 40
0.0
 40
1.0
 40
1.0
 40
1.0
 40
2.0
 40
2.0
 40
2.0
 40
3.0
 40
3.0
 40
3.0
 40
4.0
 40
4.0
 40
4.0
 40
5.0
 40
5.0
 40
5.0
 40
6.0
 40
6.0
 40
6.0
 40
7.0
 40
7.0
 40
7.0
 40
8.0
 40
8.0
 40
8.0
 40
9.0
 40
9.0
 40
9.0
 40
10.0
 40
10.0
 40
10.0
 40
11.0
 40
11.0
 40
11.0
 40
12.0
 40
12.0
 40
12.0
 40
13.0
 40
13.0
 40
13.0
 40
14.0
 40
14.0
 40
14.0
 40
15.0
 40
15.0
 40
15.0
 40
15.0
 10
46.88292642057094
 20
249.9430554930698
 10
46.88292642057094
 20
249.9430554930698
 10
45.65733370169332
 20
249.9430554930698
 10
45.65733370169332
 20
249.9430554930698
 10
45.65733370169332
 20
249.9430554930698
 10
45.53382702854711
 20
249.1177828695782
 10
45.53382702854711
 20
249.1177828695782
 10
45.60789658147997
 20
249.1277736464854
 10
45.67714300073348
 20
249.1375921686184
 10
45.79565428542609
 20
249.1375921686184
 10
46.04283988649275
 20
249.1375921686184
 10
46.28985323278516
 20
249.0831596599514
 10
46.48760171363853
 20
248.9646483752589
 10
46.73961044838454
 20
248.8213324030724
 10
46.94717745137085
 20
248.5445189808326
 10
46.94717745137085
 20
248.1393757517673
 10
46.94717745137085
 20
247.511851609129
 10
46.44798311555813
 20
247.0422850944895
 10
45.75121255366636
 20
247.0422850944895
 10
45.40032957849367
 20
247.0422850944895
 10
45.10387911198792
 20
247.1411593349161
 10
44.95074461766857
 20
247.2400335753428
 10
44.95074461766857
 20
247.2400335753428
 10
45.05943738022818
 20
247.5711072514753
 10
45.05943738022818
 20
247.5711072514753
 10
45.19293483028163
 20
247.4920423100888
 10
45.45476208716062
 20
247.3931680696621
 10
45.74638941998702
 20
247.3931680696621
 10
46.15652803750601
 20
247.3931680696621
 10
46.50723875790442
 20
247.6599907149947
 10
46.50723875790442
 20
248.0899386315539
 10
46.50241562422509
 20
248.5050726375265
 10
46.22560220198525
 20
248.8015231040323
 10
45.58326414876043
 20
248.8015231040323
 10
45.40032957849367
 20
248.8015231040323
 10
45.25701360630727
 20
248.7817138049921
 10
45.13850232161467
 20
248.7668998944055
 10
45.13850232161467
 20
248.7668998944055
 10
45.34606932460097
 20
250.3087523788291
 10
45.34606932460097
 20
250.3087523788291
 10
45.34606932460097
 20
250.3087523788291
 10
46.88292642057094
 20
250.3087523788291
 10
46.88292642057094
 20
250.3087523788291
 10
46.88292642057094
 20
250.3087523788291
 10
46.88292642057094
 20
249.9430554930698
 10
46.88292642057094
 20
249.9430554930698
 97
        1
330
EC
 75
     2
 76
     1
 98
        1
 10
0.0
 20
0.0
450
        0
451
        0
460
0.0
461
0.0
452
        0
462
0.0
453
        0
470

  0
SPLINE
  5
EE
330
E6
100
AcDbEntity
  8
Livello 3
100
AcDbSpline
210
0.0
220
0.0
230
1.0
 70
     9
 71
     3
 72
    80
 73
    76
 74
     0
 42
0.000000001
 43
0.0000000001
 40
0.0
 40
0.0
 40
0.0
 40
0.0
 40
1.0
 40
1.0
 40
1.0
 40
2.0
 40
2.0
 40
2.0
 40
3.0
 40
3.0
 40
3.0
 40
4.0
 40
4.0
 40
4.0
 40
5.0
 40
5.0
 40
5.0
 40
6.0
 40
6.0
 40
6.0
 40
7.0
 40
7.0
 40
7.0
 40
8.0
 40
8.0
 40
8.0
 40
9.0
 40
9.0
 40
9.0
 40
10.0
 40
10.0
 40
10.0
 40
11.0
 40
11.0
 40
11.0
 40
12.0
 40
12.0
 40
12.0
 40
13.0
 40
13.0
 40
13.0
 40
14.0
 40
14.0
 40
14.0
 40
15.0
 40
15.0
 40
15.0
 40
16.0
 40
16.0
 40
16.0
 40
17.0
 40
17.0
 40
17.0
 40
18.0
 40
18.0
 40
18.0
 40
19.0
 40
19.0
 40
19.0
 40
20.0
 40
20.0
 40
20.0
 40
21.0
 40
21.0
 40
21.0
 40
22.0
 40
22.0
 40
22.0
 40
23.0
 40
23.0
 40
23.0
 40
24.0
 40
24.0
 40
24.0
 40
25.0
 40
25.0
 40
25.0
 40
25.0
 10
48.68453910458235
 20
248.8411417021127
 30
0.0
 10
48.68453910458235
 20
249.0881550484051
 30
0.0
 10
48.67971597090299
 20
249.2907266629377
 30
0.0
 10
48.66472980554214
 20
249.4884751437911
 30
0.0
 10
48.66472980554214
 20
249.4884751437911
 30
0.0
 10
49.045240601888
 20
249.4884751437911
 30
0.0
 10
49.045240601888
 20
249.4884751437911
 30
0.0
 10
49.045240601888
 20
249.4884751437911
 30
0.0
 10
49.0650499009282
 20
249.1029689589916
 30
0.0
 10
49.0650499009282
 20
249.1029689589916
 30
0.0
 10
49.0650499009282
 20
249.1029689589916
 30
0.0
 10
49.07986381151475
 20
249.1029689589916
 30
0.0
 10
49.07986381151475
 20
249.1029689589916
 30
0.0
 10
49.21336126156818
 20
249.3303452610181
 30
0.0
 10
49.43574217514107
 20
249.5427353976838
 30
0.0
 10
49.83106688207349
 20
249.5427353976838
 30
0.0
 10
50.15714516975237
 20
249.5427353976838
 30
0.0
 10
50.40415851604478
 20
249.3451591716047
 30
0.0
 10
50.50802814492508
 20
249.0635226156855
 30
0.0
 10
50.50802814492508
 20
249.0635226156855
 30
0.0
 10
50.51784666705803
 20
249.0635226156855
 30
0.0
 10
50.51784666705803
 20
249.0635226156855
 30
0.0
 10
50.59208847476518
 20
249.1968478109647
 30
0.0
 10
50.68596732673825
 20
249.3007174398449
 30
0.0
 10
50.78466931239064
 20
249.3747869927779
 30
0.0
 10
50.92798528457703
 20
249.4834797553375
 30
0.0
 10
51.08611516734999
 20
249.5427353976838
 30
0.0
 10
51.31349146937648
 20
249.5427353976838
 30
0.0
 10
51.62975123492241
 20
249.5427353976838
 30
0.0
 10
52.09914549478771
 20
249.3351683946975
 30
0.0
 10
52.09914549478771
 20
248.5050726375265
 30
0.0
 10
52.09914549478771
 20
248.5050726375265
 30
0.0
 10
52.09914549478771
 20
247.0967176031564
 30
0.0
 10
52.09914549478771
 20
247.0967176031564
 30
0.0
 10
52.09914549478771
 20
247.0967176031564
 30
0.0
 10
51.67419296668215
 20
247.0967176031564
 30
0.0
 10
51.67419296668215
 20
247.0967176031564
 30
0.0
 10
51.67419296668215
 20
247.0967176031564
 30
0.0
 10
51.67419296668215
 20
248.4506401288596
 30
0.0
 10
51.67419296668215
 20
248.4506401288596
 30
0.0
 10
51.67419296668215
 20
248.9102158665919
 30
0.0
 10
51.50624456177622
 20
249.1870292888317
 30
0.0
 10
51.15536158660352
 20
249.1870292888317
 30
0.0
 10
50.9083482403111
 20
249.1870292888317
 30
0.0
 10
50.71559514791139
 20
249.004094718565
 30
0.0
 10
50.64135334020424
 20
248.7917045818993
 30
0.0
 10
50.62171629593832
 20
248.732448939553
 30
0.0
 10
50.60690238535175
 20
248.6533839981665
 30
0.0
 10
50.60690238535175
 20
248.57431905678
 30
0.0
 10
50.60690238535175
 20
248.57431905678
 30
0.0
 10
50.60690238535175
 20
247.0967176031564
 30
0.0
 10
50.60690238535175
 20
247.0967176031564
 30
0.0
 10
50.60690238535175
 20
247.0967176031564
 30
0.0
 10
50.18177760247191
 20
247.0967176031564
 30
0.0
 10
50.18177760247191
 20
247.0967176031564
 30
0.0
 10
50.18177760247191
 20
247.0967176031564
 30
0.0
 10
50.18177760247191
 20
248.529705070246
 30
0.0
 10
50.18177760247191
 20
248.529705070246
 30
0.0
 10
50.18177760247191
 20
248.9102158665919
 30
0.0
 10
50.013829197566
 20
249.1870292888317
 30
0.0
 10
49.68275552143348
 20
249.1870292888317
 30
0.0
 10
49.41093748764727
 20
249.1870292888317
 30
0.0
 10
49.21336126156818
 20
248.9696437637125
 30
0.0
 10
49.14411484231467
 20
248.7520859838189
 30
0.0
 10
49.11948240959514
 20
248.687834953019
 30
0.0
 10
49.1094916326879
 20
248.6137654000862
 30
0.0
 10
49.1094916326879
 20
248.5396958471532
 30
0.0
 10
49.1094916326879
 20
248.5396958471532
 30
0.0
 10
49.1094916326879
 20
247.0967176031564
 30
0.0
 10
49.1094916326879
 20
247.0967176031564
 30
0.0
 10
49.1094916326879
 20
247.0967176031564
 30
0.0
 10
48.68453910458235
 20
247.0967176031564
 30
0.0
 10
48.68453910458235
 20
247.0967176031564
 30
0.0
 10
48.68453910458235
 20
247.0967176031564
 30
0.0
 10
48.68453910458235
 20
248.8411417021127
 30
0.0
 10
48.68453910458235
 20
248.8411417021127
 30
0.0
  0
HATCH
  5
EF
330
E6
100
AcDbEntity
  8
Livello 3
 62
   250
420
  1907995
440
 33554687
100
AcDbHatch
 10
0.0
 20
0.0
 30
0.0
210
0.0
220
0.0
230
1.0
  2
SOLID
 70
     1
 71
     1
 91
        1
 92
        1
 93
        1
 72
     4
 94
        3
 73
     0
 74
     0
 95
       80
 96
       76
 40
0.0
 40
0.0
 40
0.0
 40
0.0
 40
1.0
 40
1.0
 40
1.0
 40
2.0
 40
2.0
 40
2.0
 40
3.0
 40
3.0
 40
3.0
 40
4.0
 40
4.0
 40
4.0
 40
5.0
 40
5.0
 40
5.0
 40
6.0
 40
6.0
 40
6.0
 40
7.0
 40
7.0
 40
7.0
 40
8.0
 40
8.0
 40
8.0
 40
9.0
 40
9.0
 40
9.0
 40
10.0
 40
10.0
 40
10.0
 40
11.0
 40
11.0
 40
11.0
 40
12.0
 40
12.0
 40
12.0
 40
13.0
 40
13.0
 40
13.0
 40
14.0
 40
14.0
 40
14.0
 40
15.0
 40
15.0
 40
15.0
 40
16.0
 40
16.0
 40
16.0
 40
17.0
 40
17.0
 40
17.0
 40
18.0
 40
18.0
 40
18.0
 40
19.0
 40
19.0
 40
19.0
 40
20.0
 40
20.0
 40
20.0
 40
21.0
 40
21.0
 40
21.0
 40
22.0
 40
22.0
 40
22.0
 40
23.0
 40
23.0
 40
23.0
 40
24.0
 40
24.0
 40
24.0
 40
25.0
 40
25.0
 40
25.0
 40
25.0
 10
48.68453910458235
 20
248.8411417021127
 10
48.68453910458235
 20
249.0881550484051
 10
48.67971597090299
 20
249.2907266629377
 10
48.66472980554214
 20
249.4884751437911
 10
48.66472980554214
 20
249.4884751437911
 10
49.045240601888
 20
249.4884751437911
 10
49.045240601888
 20
249.4884751437911
 10
49.045240601888
 20
249.4884751437911
 10
49.0650499009282
 20
249.1029689589916
 10
49.0650499009282
 20
249.1029689589916
 10
49.0650499009282
 20
249.1029689589916
 10
49.07986381151475
 20
249.1029689589916
 10
49.07986381151475
 20
249.1029689589916
 10
49.21336126156818
 20
249.3303452610181
 10
49.43574217514107
 20
249.5427353976838
 10
49.83106688207349
 20
249.5427353976838
 10
50.15714516975237
 20
249.5427353976838
 10
50.40415851604478
 20
249.3451591716047
 10
50.50802814492508
 20
249.0635226156855
 10
50.50802814492508
 20
249.0635226156855
 10
50.51784666705803
 20
249.0635226156855
 10
50.51784666705803
 20
249.0635226156855
 10
50.59208847476518
 20
249.1968478109647
 10
50.68596732673825
 20
249.3007174398449
 10
50.78466931239064
 20
249.3747869927779
 10
50.92798528457703
 20
249.4834797553375
 10
51.08611516734999
 20
249.5427353976838
 10
51.31349146937648
 20
249.5427353976838
 10
51.62975123492241
 20
249.5427353976838
 10
52.09914549478771
 20
249.3351683946975
 10
52.09914549478771
 20
248.5050726375265
 10
52.09914549478771
 20
248.5050726375265
 10
52.09914549478771
 20
247.0967176031564
 10
52.09914549478771
 20
247.0967176031564
 10
52.09914549478771
 20
247.0967176031564
 10
51.67419296668215
 20
247.0967176031564
 10
51.67419296668215
 20
247.0967176031564
 10
51.67419296668215
 20
247.0967176031564
 10
51.67419296668215
 20
248.4506401288596
 10
51.67419296668215
 20
248.4506401288596
 10
51.67419296668215
 20
248.9102158665919
 10
51.50624456177622
 20
249.1870292888317
 10
51.15536158660352
 20
249.1870292888317
 10
50.9083482403111
 20
249.1870292888317
 10
50.71559514791139
 20
249.004094718565
 10
50.64135334020424
 20
248.7917045818993
 10
50.62171629593832
 20
248.732448939553
 10
50.60690238535175
 20
248.6533839981665
 10
50.60690238535175
 20
248.57431905678
 10
50.60690238535175
 20
248.57431905678
 10
50.60690238535175
 20
247.0967176031564
 10
50.60690238535175
 20
247.0967176031564
 10
50.60690238535175
 20
247.0967176031564
 10
50.18177760247191
 20
247.0967176031564
 10
50.18177760247191
 20
247.0967176031564
 10
50.18177760247191
 20
247.0967176031564
 10
50.18177760247191
 20
248.529705070246
 10
50.18177760247191
 20
248.529705070246
 10
50.18177760247191
 20
248.9102158665919
 10
50.013829197566
 20
249.1870292888317
 10
49.68275552143348
 20
249.1870292888317
 10
49.41093748764727
 20
249.1870292888317
 10
49.21336126156818
 20
248.9696437637125
 10
49.14411484231467
 20
248.7520859838189
 10
49.11948240959514
 20
248.687834953019
 10
49.1094916326879
 20
248.6137654000862
 10
49.1094916326879
 20
248.5396958471532
 10
49.1094916326879
 20
248.5396958471532
 10
49.1094916326879
 20
247.0967176031564
 10
49.1094916326879
 20
247.0967176031564
 10
49.1094916326879
 20
247.0967176031564
 10
48.68453910458235
 20
247.0967176031564
 10
48.68453910458235
 20
247.0967176031564
 10
48.68453910458235
 20
247.0967176031564
 10
48.68453910458235
 20
248.8411417021127
 10
48.68453910458235
 20
248.8411417021127
 97
        1
330
EE
 75
     2
 76
     1
 98
        1
 10
0.0
 20
0.0
450
        0
451
        0
460
0.0
461
0.0
452
        0
462
0.0
453
        0
470

  0
SPLINE
  5
F0
330
E6
100
AcDbEntity
  8
Livello 3
100
AcDbSpline
210
0.0
220
0.0
230
1.0
 70
     9
 71
     3
 72
    80
 73
    76
 74
     0
 42
0.000000001
 43
0.0000000001
 40
0.0
 40
0.0
 40
0.0
 40
0.0
 40
1.0
 40
1.0
 40
1.0
 40
2.0
 40
2.0
 40
2.0
 40
3.0
 40
3.0
 40
3.0
 40
4.0
 40
4.0
 40
4.0
 40
5.0
 40
5.0
 40
5.0
 40
6.0
 40
6.0
 40
6.0
 40
7.0
 40
7.0
 40
7.0
 40
8.0
 40
8.0
 40
8.0
 40
9.0
 40
9.0
 40
9.0
 40
10.0
 40
10.0
 40
10.0
 40
11.0
 40
11.0
 40
11.0
 40
12.0
 40
12.0
 40
12.0
 40
13.0
 40
13.0
 40
13.0
 40
14.0
 40
14.0
 40
14.0
 40
15.0
 40
15.0
 40
15.0
 40
16.0
 40
16.0
 40
16.0
 40
17.0
 40
17.0
 40
17.0
 40
18.0
 40
18.0
 40
18.0
 40
19.0
 40
19.0
 40
19.0
 40
20.0
 40
20.0
 40
20.0
 40
21.0
 40
21.0
 40
21.0
 40
22.0
 40
22.0
 40
22.0
 40
23.0
 40
23.0
 40
23.0
 40
24.0
 40
24.0
 40
24.0
 40
25.0
 40
25.0
 40
25.0
 40
25.0
 10
52.80349526674704
 20
248.8411417021127
 30
0.0
 10
52.80349526674704
 20
249.0881550484051
 30
0.0
 10
52.79867213306769
 20
249.2907266629377
 30
0.0
 10
52.78368596770686
 20
249.4884751437911
 30
0.0
 10
52.78368596770686
 20
249.4884751437911
 30
0.0
 10
53.16419676405272
 20
249.4884751437911
 30
0.0
 10
53.16419676405272
 20
249.4884751437911
 30
0.0
 10
53.16419676405272
 20
249.4884751437911
 30
0.0
 10
53.18400606309289
 20
249.1029689589916
 30
0.0
 10
53.18400606309289
 20
249.1029689589916
 30
0.0
 10
53.18400606309289
 20
249.1029689589916
 30
0.0
 10
53.19881997367946
 20
249.1029689589916
 30
0.0
 10
53.19881997367946
 20
249.1029689589916
 30
0.0
 10
53.33231742373289
 20
249.3303452610181
 30
0.0
 10
53.55469833730577
 20
249.5427353976838
 30
0.0
 10
53.95002304423819
 20
249.5427353976838
 30
0.0
 10
54.27610133191709
 20
249.5427353976838
 30
0.0
 10
54.52311467820949
 20
249.3451591716047
 30
0.0
 10
54.62698430708979
 20
249.0635226156855
 30
0.0
 10
54.62698430708979
 20
249.0635226156855
 30
0.0
 10
54.63680282922275
 20
249.0635226156855
 30
0.0
 10
54.63680282922275
 20
249.0635226156855
 30
0.0
 10
54.71104463692988
 20
249.1968478109647
 30
0.0
 10
54.80492348890294
 20
249.3007174398449
 30
0.0
 10
54.90362547455535
 20
249.3747869927779
 30
0.0
 10
55.04694144674174
 20
249.4834797553375
 30
0.0
 10
55.20507132951472
 20
249.5427353976838
 30
0.0
 10
55.43244763154119
 20
249.5427353976838
 30
0.0
 10
55.74870739708714
 20
249.5427353976838
 30
0.0
 10
56.21810165695242
 20
249.3351683946975
 30
0.0
 10
56.21810165695242
 20
248.5050726375265
 30
0.0
 10
56.21810165695242
 20
248.5050726375265
 30
0.0
 10
56.21810165695242
 20
247.0967176031564
 30
0.0
 10
56.21810165695242
 20
247.0967176031564
 30
0.0
 10
56.21810165695242
 20
247.0967176031564
 30
0.0
 10
55.79314912884686
 20
247.0967176031564
 30
0.0
 10
55.79314912884686
 20
247.0967176031564
 30
0.0
 10
55.79314912884686
 20
247.0967176031564
 30
0.0
 10
55.79314912884686
 20
248.4506401288596
 30
0.0
 10
55.79314912884686
 20
248.4506401288596
 30
0.0
 10
55.79314912884686
 20
248.9102158665919
 30
0.0
 10
55.62520072394093
 20
249.1870292888317
 30
0.0
 10
55.27431774876823
 20
249.1870292888317
 30
0.0
 10
55.02730440247582
 20
249.1870292888317
 30
0.0
 10
54.83455131007609
 20
249.004094718565
 30
0.0
 10
54.76030950236896
 20
248.7917045818993
 30
0.0
 10
54.74067245810303
 20
248.732448939553
 30
0.0
 10
54.72585854751645
 20
248.6533839981665
 30
0.0
 10
54.72585854751645
 20
248.57431905678
 30
0.0
 10
54.72585854751645
 20
248.57431905678
 30
0.0
 10
54.72585854751645
 20
247.0967176031564
 30
0.0
 10
54.72585854751645
 20
247.0967176031564
 30
0.0
 10
54.72585854751645
 20
247.0967176031564
 30
0.0
 10
54.30073376463663
 20
247.0967176031564
 30
0.0
 10
54.30073376463663
 20
247.0967176031564
 30
0.0
 10
54.30073376463663
 20
247.0967176031564
 30
0.0
 10
54.30073376463663
 20
248.529705070246
 30
0.0
 10
54.30073376463663
 20
248.529705070246
 30
0.0
 10
54.30073376463663
 20
248.9102158665919
 30
0.0
 10
54.1327853597307
 20
249.1870292888317
 30
0.0
 10
53.80171168359819
 20
249.1870292888317
 30
0.0
 10
53.52989364981198
 20
249.1870292888317
 30
0.0
 10
53.33231742373289
 20
248.9696437637125
 30
0.0
 10
53.26307100447937
 20
248.7520859838189
 30
0.0
 10
53.23843857175982
 20
248.687834953019
 30
0.0
 10
53.22844779485262
 20
248.6137654000862
 30
0.0
 10
53.22844779485262
 20
248.5396958471532
 30
0.0
 10
53.22844779485262
 20
248.5396958471532
 30
0.0
 10
53.22844779485262
 20
247.0967176031564
 30
0.0
 10
53.22844779485262
 20
247.0967176031564
 30
0.0
 10
53.22844779485262
 20
247.0967176031564
 30
0.0
 10
52.80349526674704
 20
247.0967176031564
 30
0.0
 10
52.80349526674704
 20
247.0967176031564
 30
0.0
 10
52.80349526674704
 20
247.0967176031564
 30
0.0
 10
52.80349526674704
 20
248.8411417021127
 30
0.0
 10
52.80349526674704
 20
248.8411417021127
 30
0.0
  0
HATCH
  5
F1
330
E6
100
AcDbEntity
  8
Livello 3
 62
   250
420
  1907995
440
 33554687
100
AcDbHatch
 10
0.0
 20
0.0
 30
0.0
210
0.0
220
0.0
230
1.0
  2
SOLID
 70
     1
 71
     1
 91
        1
 92
        1
 93
        1
 72
     4
 94
        3
 73
     0
 74
     0
 95
       80
 96
       76
 40
0.0
 40
0.0
 40
0.0
 40
0.0
 40
1.0
 40
1.0
 40
1.0
 40
2.0
 40
2.0
 40
2.0
 40
3.0
 40
3.0
 40
3.0
 40
4.0
 40
4.0
 40
4.0
 40
5.0
 40
5.0
 40
5.0
 40
6.0
 40
6.0
 40
6.0
 40
7.0
 40
7.0
 40
7.0
 40
8.0
 40
8.0
 40
8.0
 40
9.0
 40
9.0
 40
9.0
 40
10.0
 40
10.0
 40
10.0
 40
11.0
 40
11.0
 40
11.0
 40
12.0
 40
12.0
 40
12.0
 40
13.0
 40
13.0
 40
13.0
 40
14.0
 40
14.0
 40
14.0
 40
15.0
 40
15.0
 40
15.0
 40
16.0
 40
16.0
 40
16.0
 40
17.0
 40
17.0
 40
17.0
 40
18.0
 40
18.0
 40
18.0
 40
19.0
 40
19.0
 40
19.0
 40
20.0
 40
20.0
 40
20.0
 40
21.0
 40
21.0
 40
21.0
 40
22.0
 40
22.0
 40
22.0
 40
23.0
 40
23.0
 40
23.0
 40
24.0
 40
24.0
 40
24.0
 40
25.0
 40
25.0
 40
25.0
 40
25.0
 10
52.80349526674704
 20
248.8411417021127
 10
52.80349526674704
 20
249.0881550484051
 10
52.79867213306769
 20
249.2907266629377
 10
52.78368596770686
 20
249.4884751437911
 10
52.78368596770686
 20
249.4884751437911
 10
53.16419676405272
 20
249.4884751437911
 10
53.16419676405272
 20
249.4884751437911
 10
53.16419676405272
 20
249.4884751437911
 10
53.18400606309289
 20
249.1029689589916
 10
53.18400606309289
 20
249.1029689589916
 10
53.18400606309289
 20
249.1029689589916
 10
53.19881997367946
 20
249.1029689589916
 10
53.19881997367946
 20
249.1029689589916
 10
53.33231742373289
 20
249.3303452610181
 10
53.55469833730577
 20
249.5427353976838
 10
53.95002304423819
 20
249.5427353976838
 10
54.27610133191709
 20
249.5427353976838
 10
54.52311467820949
 20
249.3451591716047
 10
54.62698430708979
 20
249.0635226156855
 10
54.62698430708979
 20
249.0635226156855
 10
54.63680282922275
 20
249.0635226156855
 10
54.63680282922275
 20
249.0635226156855
 10
54.71104463692988
 20
249.1968478109647
 10
54.80492348890294
 20
249.3007174398449
 10
54.90362547455535
 20
249.3747869927779
 10
55.04694144674174
 20
249.4834797553375
 10
55.20507132951472
 20
249.5427353976838
 10
55.43244763154119
 20
249.5427353976838
 10
55.74870739708714
 20
249.5427353976838
 10
56.21810165695242
 20
249.3351683946975
 10
56.21810165695242
 20
248.5050726375265
 10
56.21810165695242
 20
248.5050726375265
 10
56.21810165695242
 20
247.0967176031564
 10
56.21810165695242
 20
247.0967176031564
 10
56.21810165695242
 20
247.0967176031564
 10
55.79314912884686
 20
247.0967176031564
 10
55.79314912884686
 20
247.0967176031564
 10
55.79314912884686
 20
247.0967176031564
 10
55.79314912884686
 20
248.4506401288596
 10
55.79314912884686
 20
248.4506401288596
 10
55.79314912884686
 20
248.9102158665919
 10
55.62520072394093
 20
249.1870292888317
 10
55.27431774876823
 20
249.1870292888317
 10
55.02730440247582
 20
249.1870292888317
 10
54.83455131007609
 20
249.004094718565
 10
54.76030950236896
 20
248.7917045818993
 10
54.74067245810303
 20
248.732448939553
 10
54.72585854751645
 20
248.6533839981665
 10
54.72585854751645
 20
248.57431905678
 10
54.72585854751645
 20
248.57431905678
 10
54.72585854751645
 20
247.0967176031564
 10
54.72585854751645
 20
247.0967176031564
 10
54.72585854751645
 20
247.0967176031564
 10
54.30073376463663
 20
247.0967176031564
 10
54.30073376463663
 20
247.0967176031564
 10
54.30073376463663
 20
247.0967176031564
 10
54.30073376463663
 20
248.529705070246
 10
54.30073376463663
 20
248.529705070246
 10
54.30073376463663
 20
248.9102158665919
 10
54.1327853597307
 20
249.1870292888317
 10
53.80171168359819
 20
249.1870292888317
 10
53.52989364981198
 20
249.1870292888317
 10
53.33231742373289
 20
248.9696437637125
 10
53.26307100447937
 20
248.7520859838189
 10
53.23843857175982
 20
248.687834953019
 10
53.22844779485262
 20
248.6137654000862
 10
53.22844779485262
 20
248.5396958471532
 10
53.22844779485262
 20
248.5396958471532
 10
53.22844779485262
 20
247.0967176031564
 10
53.22844779485262
 20
247.0967176031564
 10
53.22844779485262
 20
247.0967176031564
 10
52.80349526674704
 20
247.0967176031564
 10
52.80349526674704
 20
247.0967176031564
 10
52.80349526674704
 20
247.0967176031564
 10
52.80349526674704
 20
248.8411417021127
 10
52.80349526674704
 20
248.8411417021127
 97
        1
330
F0
 75
     2
 76
     1
 98
        1
 10
0.0
 20
0.0
450
        0
451
        0
460
0.0
461
0.0
452
        0
462
0.0
453
        0
470

  0
ENDBLK
  5
E9
330
E6
100
AcDbEntity
  8
0
100
AcDbBlockEnd
  0
ENDSEC
  0
SECTION
  2
ENTITIES
  0
LWPOLYLINE
  5
79
330
70
100
AcDbEntity
  8
0
100
AcDbPolyline
 90
        4
 70
     1
 43
0.0
 10
125.5041395085545
 20
155.839982914513
 10
124.8054741441458
 20
155.9454039138642
 10
126.3368190873394
 20
167.5225463881051
 10
127.0354844517481
 20
167.4171253887533
  0
SPLINE
  5
7A
330
70
100
AcDbEntity
  8
0
100
AcDbSpline
210
0.0
220
0.0
230
1.0
 70
     8
 71
     3
 72
    14
 73
    10
 74
     0
 42
0.000000001
 43
0.0000000001
 40
0.0
 40
0.0
 40
0.0
 40
0.0
 40
1.0
 40
1.0
 40
1.0
 40
2.0
 40
2.0
 40
2.0
 40
3.0
 40
3.0
 40
3.0
 40
3.0
 10
100.6298610859536
 20
247.112520326541
 30
0.0
 10
100.6298610859536
 20
247.112520326541
 30
0.0
 10
149.7238636215559
 20
211.4819647798931
 30
0.0
 10
149.7238636215559
 20
211.4819647798931
 30
0.0
 10
149.7238636215559
 20
211.4819647798931
 30
0.0
 10
152.2478865174681
 20
212.0943897440394
 30
0.0
 10
150.7243055178745
 20
214.0396036681426
 30
0.0
 10
150.7243055178745
 20
214.0396036681426
 30
0.0
 10
100.6298610859536
 20
250.2875203257473
 30
0.0
 10
100.6298610859536
 20
250.2875203257473
 30
0.0
  0
LWPOLYLINE
  5
7B
330
70
100
AcDbEntity
  8
0
100
AcDbPolyline
 90
        4
 70
     1
 43
0.0
 10
119.8562499700359
 20
34.09353889831437
 10
117.2411385504551
 20
34.09353889831437
 10
117.2411385504551
 20
150.8603563903644
 10
119.8562499700359
 20
150.8603563903644
  0
SPLINE
  5
7C
330
70
100
AcDbEntity
  8
0
100
AcDbSpline
210
0.0
220
0.0
230
1.0
 70
     9
 71
     3
 72
    26
 73
    22
 74
     0
 42
0.000000001
 43
0.0000000001
 40
0.0
 40
0.0
 40
0.0
 40
0.0
 40
1.0
 40
1.0
 40
1.0
 40
2.0
 40
2.0
 40
2.0
 40
3.0
 40
3.0
 40
3.0
 40
4.0
 40
4.0
 40
4.0
 40
5.0
 40
5.0
 40
5.0
 40
6.0
 40
6.0
 40
6.0
 40
7.0
 40
7.0
 40
7.0
 40
7.0
 10
118.6636734509127
 20
150.7911488325465
 30
0.0
 10
118.5041595636276
 20
150.1353775846956
 30
0.0
 10
117.2411385504551
 20
150.7614783411305
 30
0.0
 10
117.2411385504551
 20
150.8603563903644
 30
0.0
 10
116.0546019596478
 20
151.3547466365344
 30
0.0
 10
116.4501141565834
 20
152.3435271288733
 30
0.0
 10
116.4501141565834
 20
152.3435271288733
 30
0.0
 10
116.4501141565834
 20
152.3435271288733
 30
0.0
 10
147.3938156262873
 20
217.8219757663065
 30
0.0
 10
147.3938156262873
 20
217.8219757663065
 30
0.0
 10
147.3938156262873
 20
217.8219757663065
 30
0.0
 10
147.7802954052454
 20
218.9068919455769
 30
0.0
 10
149.0297194580067
 20
218.4525559263912
 30
0.0
 10
149.0297194580067
 20
218.4667539269911
 30
0.0
 10
150.1180055386838
 20
217.9612421154064
 30
0.0
 10
149.5692434807902
 20
216.7788489725457
 30
0.0
 10
149.5692434807902
 20
216.7788489725457
 30
0.0
 10
122.9014483483392
 20
159.318939625205
 30
0.0
 10
122.9014483483392
 20
159.318939625205
 30
0.0
 10
122.9014483483392
 20
159.318939625205
 30
0.0
 10
118.6636734509127
 20
150.7911488325465
 30
0.0
 10
118.6636734509127
 20
150.7911488325465
 30
0.0
  0
LWPOLYLINE
  5
7D
330
70
100
AcDbEntity
  8
0
100
AcDbPolyline
 90
        4
 70
     1
 43
0.0
 10
135.6430555216448
 20
30.50696482513651
 10
101.0708333080656
 20
30.50696482513651
 10
101.0708333080656
 20
34.09353889831437
 10
135.6430555216448
 20
34.09353889831437
  0
LWPOLYLINE
  5
7E
330
70
100
AcDbEntity
  8
0
100
AcDbPolyline
 90
        4
 70
     1
 43
0.0
 10
100.6298610859536
 20
247.0968579433395
 10
73.28958331501095
 20
247.0968579433395
 10
73.28958331501095
 20
250.2875203257473
 10
100.6298610859536
 20
250.2875203257473
  0
LINE
  5
7F
330
70
100
AcDbEntity
  8
0
100
AcDbLine
 10
95.5145833094547
 20
250.2875203257473
 30
0.0
 11
95.5145833094547
 21
247.0968579433395
 31
0.0
  0
SPLINE
  5
80
330
70
100
AcDbEntity
  8
0
100
AcDbSpline
210
0.0
220
0.0
230
1.0
 70
     9
 71
     3
 72
    23
 73
    19
 74
     0
 42
0.000000001
 43
0.0000000001
 40
0.0
 40
0.0
 40
0.0
 40
0.0
 40
1.0
 40
1.0
 40
1.0
 40
2.0
 40
2.0
 40
2.0
 40
3.0
 40
3.0
 40
3.0
 40
4.0
 40
4.0
 40
4.0
 40
5.0
 40
5.0
 40
5.0
 40
6.0
 40
6.0
 40
6.0
 40
6.0
 10
144.5221692568576
 20
213.3356795194088
 30
0.0
 10
144.4451447189392
 20
213.304057297829
 30
0.0
 10
144.2134372141389
 20
213.3749075020376
 30
0.0
 10
144.1415046304929
 20
213.5501189115992
 30
0.0
 10
144.0695720468469
 20
213.7253303211608
 30
0.0
 10
144.1846537904019
 20
213.9385539397338
 30
0.0
 10
144.261678328321
 20
213.9701761613145
 30
0.0
 10
144.261678328321
 20
213.9701761613145
 30
0.0
 10
149.8974233955243
 20
216.9658356623034
 30
0.0
 10
149.8974233955243
 20
216.9658356623034
 30
0.0
 10
149.8974233955243
 20
216.9658356623034
 30
0.0
 10
150.324128231907
 20
217.2395103899021
 30
0.0
 10
150.5093347142573
 20
217.0021387055525
 30
0.0
 10
150.535195300665
 20
217.000219392572
 30
0.0
 10
150.7705639681534
 20
216.7322708253852
 30
0.0
 10
150.262890379195
 20
216.4115327896253
 30
0.0
 10
150.327892017331
 20
216.5111711390076
 30
0.0
 10
144.5221692568576
 20
213.3356795194088
 30
0.0
 10
144.5221692568576
 20
213.3356795194088
 30
0.0
  0
SPLINE
  5
81
330
70
100
AcDbEntity
  8
0
100
AcDbSpline
210
0.0
220
0.0
230
1.0
 70
     9
 71
     3
 72
    41
 73
    37
 74
     0
 42
0.000000001
 43
0.0000000001
 40
0.0
 40
0.0
 40
0.0
 40
0.0
 40
1.0
 40
1.0
 40
1.0
 40
2.0
 40
2.0
 40
2.0
 40
3.0
 40
3.0
 40
3.0
 40
4.0
 40
4.0
 40
4.0
 40
5.0
 40
5.0
 40
5.0
 40
6.0
 40
6.0
 40
6.0
 40
7.0
 40
7.0
 40
7.0
 40
8.0
 40
8.0
 40
8.0
 40
9.0
 40
9.0
 40
9.0
 40
10.0
 40
10.0
 40
10.0
 40
11.0
 40
11.0
 40
11.0
 40
12.0
 40
12.0
 40
12.0
 40
12.0
 10
103.4371186739562
 20
248.7711830797613
 30
0.0
 10
103.4371186739562
 20
249.3779720539477
 30
0.0
 10
103.0503851738902
 20
249.890193157064
 30
0.0
 10
102.5116583673842
 20
250.0869081092718
 30
0.0
 10
102.6173366713942
 20
251.0657243321716
 30
0.0
 10
102.702322870646
 20
251.7935007534306
 30
0.0
 10
102.717718141096
 20
251.7563798495771
 30
0.0
 10
102.7394222426531
 20
252.3564939512608
 30
0.0
 10
102.3853956178498
 20
252.3133871940017
 30
0.0
 10
102.3692036690691
 20
252.293125726179
 30
0.0
 10
102.068726747215
 20
252.2741777010101
 30
0.0
 10
102.0538697729349
 20
251.7674687506703
 30
0.0
 10
102.0538697729349
 20
251.7674687506703
 30
0.0
 10
102.0538697729349
 20
251.7674687506703
 30
0.0
 10
101.8747248077019
 20
250.1606762163497
 30
0.0
 10
101.8747248077019
 20
250.1606762163497
 30
0.0
 10
101.1734971535261
 20
250.0816543386568
 30
0.0
 10
100.6264375223152
 20
249.4935334756311
 30
0.0
 10
100.6264375223152
 20
248.7711830797613
 30
0.0
 10
100.6264375223152
 20
248.1568364273541
 30
0.0
 10
101.0231402674417
 20
247.640136700107
 30
0.0
 10
101.5723961470247
 20
247.4490846236031
 30
0.0
 10
101.5723961470247
 20
247.4490846236031
 30
0.0
 10
101.3466562653537
 20
245.4243374113814
 30
0.0
 10
101.3466562653537
 20
245.4243374113814
 30
0.0
 10
101.3293015968465
 20
245.3429039668489
 30
0.0
 10
101.440384394399
 20
245.1275639671739
 30
0.0
 10
101.6256228722719
 20
245.0880745601743
 30
0.0
 10
101.810861350144
 20
245.0485851531746
 30
0.0
 10
102.0001047515185
 20
245.1998894405174
 30
0.0
 10
102.0174594200251
 20
245.28132288505
 30
0.0
 10
102.0174594200251
 20
245.28132288505
 30
0.0
 10
102.1109722306029
 20
246.22185548437
 30
0.0
 10
102.2297418974569
 20
247.3858025259084
 30
0.0
 10
102.9112894436732
 20
247.4827819638182
 30
0.0
 10
103.4371186739562
 20
248.0628283843004
 30
0.0
 10
103.4371186739562
 20
248.7711830797613
 30
0.0
  0
LWPOLYLINE
  5
82
330
70
100
AcDbEntity
  8
0
100
AcDbPolyline
 90
        6
 70
     1
 43
0.0
 10
117.9566095344698
 20
148.8277686272243
 10
119.8562499700359
 20
148.8277686272243
 10
119.8562499700359
 20
152.5076769761968
 10
120.4858109078679
 20
154.4578860718972
 10
117.2411385504551
 20
151.6034180557103
 10
117.2411385504551
 20
148.8277686272243
  0
SPLINE
  5
83
330
70
100
AcDbEntity
  8
0
100
AcDbSpline
210
0.0
220
0.0
230
1.0
 70
     8
 71
     3
 72
    20
 73
    16
 74
     0
 42
0.000000001
 43
0.0000000001
 40
0.0
 40
0.0
 40
0.0
 40
0.0
 40
1.0
 40
1.0
 40
1.0
 40
2.0
 40
2.0
 40
2.0
 40
3.0
 40
3.0
 40
3.0
 40
4.0
 40
4.0
 40
4.0
 40
5.0
 40
5.0
 40
5.0
 40
5.0
 10
119.6924404204038
 20
151.1522562228401
 30
0.0
 10
119.6924404204038
 20
151.1522562228401
 30
0.0
 10
118.785293896053
 20
151.9812647478013
 30
0.0
 10
118.785293896053
 20
151.9812647478013
 30
0.0
 10
118.785293896053
 20
151.9812647478013
 30
0.0
 10
126.4052831508087
 20
157.5699977532499
 30
0.0
 10
126.4052831508087
 20
157.5699977532499
 30
0.0
 10
126.4052831508087
 20
157.5699977532499
 30
0.0
 10
127.6649010605803
 20
158.2655841715826
 30
0.0
 10
127.1173271132414
 20
157.0192369907624
 30
0.0
 10
127.0921545862699
 20
156.9619411530442
 30
0.0
 10
126.880589087449
 20
156.7265031571494
 30
0.0
 10
126.880589087449
 20
156.7265031571494
 30
0.0
 10
126.880589087449
 20
156.7265031571494
 30
0.0
 10
119.420399073491
 20
151.322049745357
 30
0.0
 10
119.420399073491
 20
151.322049745357
 30
0.0
  0
CIRCLE
  5
84
330
70
100
AcDbEntity
  8
0
100
AcDbCircle
 10
118.7852938960525
 20
152.1574133098344
 30
0.0
 40
1.302326416490711
  0
LINE
  5
86
330
70
100
AcDbEntity
  8
0
100
AcDbLine
 10
99.13055553077292
 20
23.2833333275125
 30
0.0
 11
135.6430555216448
 21
23.2833333275125
 31
0.0
  0
LINE
  5
87
330
70
100
AcDbEntity
  8
0
100
AcDbLine
 10
88.67246340422671
 20
23.02855098854163
 30
0.0
 11
96.81984951980542
 21
33.8387565593435
 31
0.0
  0
LINE
  5
88
330
70
100
AcDbEntity
  8
0
100
AcDbLine
 10
166.7062647337378
 20
250.2875203257473
 30
0.0
 11
166.7062647337378
 21
30.50696482513651
 31
0.0
  0
LINE
  5
89
330
70
100
AcDbEntity
  8
0
100
AcDbLine
 10
73.28958331501095
 20
258.9839242851366
 30
0.0
 11
102.0317780981357
 21
258.9839242851366
 31
0.0
  0
LINE
  5
8A
330
70
100
AcDbEntity
  8
0
100
AcDbLine
 10
66.9377068390576
 20
250.2875203257473
 30
0.0
 11
66.9377068390576
 21
247.0968579433395
 31
0.0
  0
INSERT
  5
9F
330
70
100
AcDbEntity
  8
Livello 3
100
AcDbBlockReference
  2
Block_2
 10
0.0
 20
0.0
 30
0.0
  0
MTEXT
  5
138
330
70
100
AcDbEntity
  8
0
100
AcDbMText
 10
111.8695159694362
 20
22.35229112129912
 30
0.0
 40
4.0
 41
245.7411632621209
 46
0.0
 71
     1
 72
     5
  1
250 mm
 73
     1
 44
1.0
1001
ACAD
1000
ACAD_MTEXT_COLUMN_INFO_BEGIN
1070
    75
1070
     2
1070
    79
1070
     0
1070
    76
1070
     1
1070
    78
1070
     0
1070
    48
1040
245.7411632621209
1070
    49
1040
10.0
1070
    50
1070
     1
1040
0.0
1000
ACAD_MTEXT_COLUMN_INFO_END
  0
MTEXT
  5
13F
330
70
100
AcDbEntity
  8
0
100
AcDbMText
 10
66.26627436820793
 20
28.88673058454219
 30
0.0
 40
4.0
 41
245.7411632621209
 46
0.0
 71
     1
 72
     5
  1
250 mm
 73
     1
 44
1.0
1001
ACAD
1000
ACAD_MTEXT_COLUMN_INFO_BEGIN
1070
    75
1070
     2
1070
    79
1070
     0
1070
    76
1070
     1
1070
    78
1070
     0
1070
    48
1040
245.7411632621209
1070
    49
1040
10.0
1070
    50
1070
     1
1040
0.0
1000
ACAD_MTEXT_COLUMN_INFO_END
  0
MTEXT
  5
145
330
70
100
AcDbEntity
  8
0
100
AcDbMText
 10
172.1066409066875
 20
125.3941704659175
 30
0.0
 40
4.0
 41
245.7411632621209
 46
0.0
 71
     1
 72
     5
  1
1450 mm
 73
     1
 44
1.0
1001
ACAD
1000
ACAD_MTEXT_COLUMN_INFO_BEGIN
1070
    75
1070
     2
1070
    79
1070
     0
1070
    76
1070
     1
1070
    78
1070
     0
1070
    48
1040
245.7411632621209
1070
    49
1040
10.0
1070
    50
1070
     1
1040
0.0
1000
ACAD_MTEXT_COLUMN_INFO_END
  0
MTEXT
  5
14B
330
70
100
AcDbEntity
  8
0
100
AcDbMText
 10
76.1783527266751
 20
265.1367527643383
 30
0.0
 40
4.0
 41
245.7411632621209
 46
0.0
 71
     1
 72
     5
  1
120 mm
 73
     1
 44
1.0
1001
ACAD
1000
ACAD_MTEXT_COLUMN_INFO_BEGIN
1070
    75
1070
     2
1070
    79
1070
     0
1070
    76
1070
     1
1070
    78
1070
     0
1070
    48
1040
245.7411632621209
1070
    49
1040
10.0
1070
    50
1070
     1
1040
0.0
1000
ACAD_MTEXT_COLUMN_INFO_END
  0
MTEXT
  5
151
330
70
100
AcDbEntity
  8
0
100
AcDbMText
 10
46.63164706016717
 20
251.5108881327322
 30
0.0
 40
4.0
 41
245.7411632621209
 46
0.0
 71
     1
 72
     5
  1
15 mm
 73
     1
 44
1.0
1001
ACAD
1000
ACAD_MTEXT_COLUMN_INFO_BEGIN
1070
    75
1070
     2
1070
    79
1070
     0
1070
    76
1070
     1
1070
    78
1070
     0
1070
    48
1040
245.7411632621209
1070
    49
1040
10.0
1070
    50
1070
     1
1040
0.0
1000
ACAD_MTEXT_COLUMN_INFO_END
  0
ENDSEC
  0
SECTION
  2
OBJECTS
  0
DICTIONARY
  5
C
330
0
100
AcDbDictionary
281
     1
  3
ACAD_CIP_PREVIOUS_PRODUCT_INFO
350
135
  3
ACAD_COLOR
350
63
  3
ACAD_DETAILVIEWSTYLE
350
6A
  3
ACAD_GROUP
350
D
  3
ACAD_LAYOUT
350
62
  3
ACAD_MATERIAL
350
10
  3
ACAD_MLEADERSTYLE
350
66
  3
ACAD_MLINESTYLE
350
5F
  3
ACAD_PLOTSETTINGS
350
61
  3
ACAD_PLOTSTYLENAME
350
E
  3
ACAD_SCALELIST
350
42
  3
ACAD_SECTIONVIEWSTYLE
350
68
  3
ACAD_TABLESTYLE
350
64
  3
ACAD_VISUALSTYLE
350
29
  3
ACDB_RECOMPOSE_DATA
350
154
  3
AcDbVariableDictionary
350
F2
  0
XRECORD
  5
135
102
{ACAD_REACTORS
330
C
102
}
330
C
100
AcDbXrecord
280
     1
300
ACD
300
2019
300
ACD_F_S
  0
DICTIONARY
  5
63
102
{ACAD_REACTORS
330
C
102
}
330
C
100
AcDbDictionary
281
     1
  0
DICTIONARY
  5
6A
102
{ACAD_REACTORS
330
C
102
}
330
C
100
AcDbDictionary
281
     1
  3
Imperial24
350
6B
  0
DICTIONARY
  5
D
102
{ACAD_REACTORS
330
C
102
}
330
C
100
AcDbDictionary
281
     1
  0
DICTIONARY
  5
62
102
{ACAD_REACTORS
330
C
102
}
330
C
100
AcDbDictionary
281
     1
  3
Layout1
350
6F
  3
Layout2
350
77
  3
Model
350
73
  0
DICTIONARY
  5
10
102
{ACAD_REACTORS
330
C
102
}
330
C
100
AcDbDictionary
281
     1
  3
ByBlock
350
19
  3
ByLayer
350
11
  3
Global
350
21
  0
DICTIONARY
  5
66
102
{ACAD_REACTORS
330
C
102
}
330
C
100
AcDbDictionary
281
     1
  3
Standard
350
67
  0
DICTIONARY
  5
5F
102
{ACAD_REACTORS
330
C
102
}
330
C
100
AcDbDictionary
281
     1
  3
Standard
350
60
  0
DICTIONARY
  5
61
102
{ACAD_REACTORS
330
C
102
}
330
C
100
AcDbDictionary
281
     1
  0
ACDBDICTIONARYWDFLT
  5
E
102
{ACAD_REACTORS
330
C
102
}
330
C
100
AcDbDictionary
281
     1
  3
Normal
350
F
100
AcDbDictionaryWithDefault
340
F
  0
DICTIONARY
  5
42
102
{ACAD_REACTORS
330
C
102
}
330
C
100
AcDbDictionary
281
     1
  3
A0
350
43
  3
A1
350
44
  3
A2
350
45
  3
A3
350
46
  3
A4
350
47
  3
A5
350
48
  3
A6
350
49
  3
A7
350
4A
  3
A8
350
4B
  3
A9
350
4C
  3
B0
350
4D
  3
B1
350
4E
  3
B2
350
4F
  3
B3
350
50
  3
B4
350
51
  3
B5
350
52
  3
B6
350
53
  0
DICTIONARY
  5
68
102
{ACAD_REACTORS
330
C
102
}
330
C
100
AcDbDictionary
281
     1
  3
Imperial24
350
69
  0
DICTIONARY
  5
64
102
{ACAD_REACTORS
330
C
102
}
330
C
100
AcDbDictionary
281
     1
  3
Standard
350
65
  0
DICTIONARY
  5
29
102
{ACAD_REACTORS
330
C
102
}
330
C
100
AcDbDictionary
281
     1
  3
2dWireframe
350
2F
  3
Basic
350
2E
  3
Brighten
350
35
  3
ColorChange
350
39
  3
Conceptual
350
32
  3
Dim
350
34
  3
EdgeColorOff
350
41
  3
Facepattern
350
38
  3
Flat
350
2A
  3
FlatWithEdges
350
2B
  3
Gouraud
350
2C
  3
GouraudWithEdges
350
2D
  3
Hidden
350
31
  3
JitterOff
350
3F
  3
Linepattern
350
37
  3
OverhangOff
350
40
  3
Realistic
350
33
  3
Shaded
350
3E
  3
Shaded with edges
350
3D
  3
Shades of Gray
350
3A
  3
Sketchy
350
3B
  3
Thicken
350
36
  3
Wireframe
350
30
  3
X-Ray
350
3C
  0
XRECORD
  5
154
102
{ACAD_REACTORS
330
C
102
}
330
C
100
AcDbXrecord
280
     1
 90
        1
330
65
330
138
330
13F
330
145
330
14B
330
151
  0
DICTIONARY
  5
F2
102
{ACAD_REACTORS
330
C
102
}
330
C
100
AcDbDictionary
281
     1
  3
CANNOSCALE
350
F7
  3
CMLEADERSTYLE
350
F4
  3
CTABLESTYLE
350
F3
  3
CVIEWDETAILSTYLE
350
F5
  3
CVIEWSECTIONSTYLE
350
F6
  3
XCLIPFRAME
350
152
  0
ACDBDETAILVIEWSTYLE
  5
6B
102
{ACAD_XDICTIONARY
360
18A
102
}
102
{ACAD_REACTORS
330
6A
102
}
330
6A
100
AcDbModelDocViewStyle
 70
     0
  3
Imperial24
290
     0
100
AcDbDetailViewStyle
 70
     0
 71
     0
 90
        3
 71
     1
340
55
 62
   256
 40
0.24
340
0
 62
   256
 40
0.24
300

 40
0.36
280
     3
 71
     2
340
5D
 90
       25
 62
   256
 71
     3
340
55
 62
   256
 40
0.24
 90
        1
 40
0.75
 90
        1
300
%<\AcVar ViewType \f "%tc1">% %<\AcVar ViewDetailId>%\PSCALE %<\AcVar ViewScale \f "%sn">%
 71
     4
340
5D
 90
       25
 62
   256
340
5D
 90
       25
 62
   256
280
     0
  0
LAYOUT
  5
6F
102
{ACAD_REACTORS
330
62
102
}
330
62
100
AcDbPlotSettings
  1

  2

  4

  6

 40
0.0
 41
0.0
 42
0.0
 43
0.0
 44
0.0
 45
0.0
 46
0.0
 47
0.0
 48
0.0
 49
0.0
140
0.0
141
0.0
142
1.0
143
1.0
 70
   688
 72
     0
 73
     0
 74
     5
  7

 75
    16
147
1.0
 76
     0
 77
     2
 78
   300
148
0.0
149
0.0
100
AcDbLayout
  1
Layout1
 70
     1
 71
     1
 10
0.0
 20
0.0
 11
12.0
 21
9.0
 12
0.0
 22
0.0
 32
0.0
 14
1.000000000000000E+20
 24
1.000000000000000E+20
 34
1.000000000000000E+20
 15
-1.000000000000000E+20
 25
-1.000000000000000E+20
 35
-1.000000000000000E+20
146
0.0
 13
0.0
 23
0.0
 33
0.0
 16
1.0
 26
0.0
 36
0.0
 17
0.0
 27
1.0
 37
0.0
 76
     0
330
6C
  0
LAYOUT
  5
77
102
{ACAD_REACTORS
330
62
102
}
330
62
100
AcDbPlotSettings
  1

  2

  4

  6

 40
0.0
 41
0.0
 42
0.0
 43
0.0
 44
0.0
 45
0.0
 46
0.0
 47
0.0
 48
0.0
 49
0.0
140
0.0
141
0.0
142
1.0
143
1.0
 70
   688
 72
     0
 73
     0
 74
     5
  7

 75
    16
147
1.0
 76
     0
 77
     2
 78
   300
148
0.0
149
0.0
100
AcDbLayout
  1
Layout2
 70
     1
 71
     2
 10
0.0
 20
0.0
 11
12.0
 21
9.0
 12
0.0
 22
0.0
 32
0.0
 14
0.0
 24
0.0
 34
0.0
 15
0.0
 25
0.0
 35
0.0
146
0.0
 13
0.0
 23
0.0
 33
0.0
 16
1.0
 26
0.0
 36
0.0
 17
0.0
 27
1.0
 37
0.0
 76
     0
330
74
  0
LAYOUT
  5
73
102
{ACAD_REACTORS
330
62
102
}
330
62
100
AcDbPlotSettings
  1

  2

  4

  6

 40
0.0
 41
0.0
 42
0.0
 43
0.0
 44
0.0
 45
0.0
 46
0.0
 47
0.0
 48
0.0
 49
0.0
140
0.0
141
0.0
142
1.0
143
1.0
 70
  1712
 72
     0
 73
     0
 74
     0
  7

 75
     0
147
1.0
 76
     0
 77
     2
 78
   300
148
0.0
149
0.0
100
AcDbLayout
  1
Model
 70
     1
 71
     0
 10
0.0
 20
0.0
 11
12.0
 21
9.0
 12
0.0
 22
0.0
 32
0.0
 14
0.0
 24
0.0
 34
0.0
 15
0.0
 25
0.0
 35
0.0
146
0.0
 13
0.0
 23
0.0
 33
0.0
 16
1.0
 26
0.0
 36
0.0
 17
0.0
 27
1.0
 37
0.0
 76
     0
330
70
331
57
  0
MATERIAL
  5
19
102
{ACAD_XDICTIONARY
360
1A
102
}
102
{ACAD_REACTORS
330
10
102
}
330
10
100
AcDbMaterial
  1
ByBlock
 72
     0
 43
0.0208333333333333
 43
0.0
 43
0.0
 43
0.0
 43
0.0
 43
0.0208333333333333
 43
0.0
 43
0.0
 43
0.0
 43
0.0
 43
1.0
 43
0.0
 43
0.0
 43
0.0
 43
0.0
 43
1.0
 77
     0
 47
0.0208333333333333
 47
0.0
 47
0.0
 47
0.0
 47
0.0
 47
0.0208333333333333
 47
0.0
 47
0.0
 47
0.0
 47
0.0
 47
1.0
 47
0.0
 47
0.0
 47
0.0
 47
0.0
 47
1.0
171
     0
 49
0.0208333333333333
 49
0.0
 49
0.0
 49
0.0
 49
0.0
 49
0.0208333333333333
 49
0.0
 49
0.0
 49
0.0
 49
0.0
 49
1.0
 49
0.0
 49
0.0
 49
0.0
 49
0.0
 49
1.0
175
     0
142
0.0208333333333333
142
0.0
142
0.0
142
0.0
142
0.0
142
0.0208333333333333
142
0.0
142
0.0
142
0.0
142
0.0
142
1.0
142
0.0
142
0.0
142
0.0
142
0.0
142
1.0
179
     0
144
0.0208333333333333
144
0.0
144
0.0
144
0.0
144
0.0
144
0.0208333333333333
144
0.0
144
0.0
144
0.0
144
0.0
144
1.0
144
0.0
144
0.0
144
0.0
144
0.0
144
1.0
147
0.0208333333333333
147
0.0
147
0.0
147
0.0
147
0.0
147
0.0208333333333333
147
0.0
147
0.0
147
0.0
147
0.0
147
1.0
147
0.0
147
0.0
147
0.0
147
0.0
147
1.0
  0
MATERIAL
  5
11
102
{ACAD_XDICTIONARY
360
12
102
}
102
{ACAD_REACTORS
330
10
102
}
330
10
100
AcDbMaterial
  1
ByLayer
 72
     0
 43
0.0208333333333333
 43
0.0
 43
0.0
 43
0.0
 43
0.0
 43
0.0208333333333333
 43
0.0
 43
0.0
 43
0.0
 43
0.0
 43
1.0
 43
0.0
 43
0.0
 43
0.0
 43
0.0
 43
1.0
 77
     0
 47
0.0208333333333333
 47
0.0
 47
0.0
 47
0.0
 47
0.0
 47
0.0208333333333333
 47
0.0
 47
0.0
 47
0.0
 47
0.0
 47
1.0
 47
0.0
 47
0.0
 47
0.0
 47
0.0
 47
1.0
171
     0
 49
0.0208333333333333
 49
0.0
 49
0.0
 49
0.0
 49
0.0
 49
0.0208333333333333
 49
0.0
 49
0.0
 49
0.0
 49
0.0
 49
1.0
 49
0.0
 49
0.0
 49
0.0
 49
0.0
 49
1.0
175
     0
142
0.0208333333333333
142
0.0
142
0.0
142
0.0
142
0.0
142
0.0208333333333333
142
0.0
142
0.0
142
0.0
142
0.0
142
1.0
142
0.0
142
0.0
142
0.0
142
0.0
142
1.0
179
     0
144
0.0208333333333333
144
0.0
144
0.0
144
0.0
144
0.0
144
0.0208333333333333
144
0.0
144
0.0
144
0.0
144
0.0
144
1.0
144
0.0
144
0.0
144
0.0
144
0.0
144
1.0
147
0.0208333333333333
147
0.0
147
0.0
147
0.0
147
0.0
147
0.0208333333333333
147
0.0
147
0.0
147
0.0
147
0.0
147
1.0
147
0.0
147
0.0
147
0.0
147
0.0
147
1.0
  0
MATERIAL
  5
21
102
{ACAD_XDICTIONARY
360
22
102
}
102
{ACAD_REACTORS
330
10
102
}
330
10
100
AcDbMaterial
  1
Global
 72
     0
 43
0.0208333333333333
 43
0.0
 43
0.0
 43
0.0
 43
0.0
 43
0.0208333333333333
 43
0.0
 43
0.0
 43
0.0
 43
0.0
 43
1.0
 43
0.0
 43
0.0
 43
0.0
 43
0.0
 43
1.0
 77
     0
 47
0.0208333333333333
 47
0.0
 47
0.0
 47
0.0
 47
0.0
 47
0.0208333333333333
 47
0.0
 47
0.0
 47
0.0
 47
0.0
 47
1.0
 47
0.0
 47
0.0
 47
0.0
 47
0.0
 47
1.0
171
     0
 49
0.0208333333333333
 49
0.0
 49
0.0
 49
0.0
 49
0.0
 49
0.0208333333333333
 49
0.0
 49
0.0
 49
0.0
 49
0.0
 49
1.0
 49
0.0
 49
0.0
 49
0.0
 49
0.0
 49
1.0
175
     0
142
0.0208333333333333
142
0.0
142
0.0
142
0.0
142
0.0
142
0.0208333333333333
142
0.0
142
0.0
142
0.0
142
0.0
142
1.0
142
0.0
142
0.0
142
0.0
142
0.0
142
1.0
179
     0
144
0.0208333333333333
144
0.0
144
0.0
144
0.0
144
0.0
144
0.0208333333333333
144
0.0
144
0.0
144
0.0
144
0.0
144
1.0
144
0.0
144
0.0
144
0.0
144
0.0
144
1.0
147
0.0208333333333333
147
0.0
147
0.0
147
0.0
147
0.0
147
0.0208333333333333
147
0.0
147
0.0
147
0.0
147
0.0
147
1.0
147
0.0
147
0.0
147
0.0
147
0.0
147
1.0
  0
MLEADERSTYLE
  5
67
102
{ACAD_XDICTIONARY
360
186
102
}
102
{ACAD_REACTORS
330
66
102
}
330
66
100
AcDbMLeaderStyle
170
     2
171
     1
172
     0
 90
        2
 40
0.0
 41
0.0
173
     1
 91
-1056964608
340
5B
 92
       -2
290
     1
 42
0.09
291
     1
 43
0.36
  3
Standard
 44
0.18
300

342
55
174
     1
178
     6
175
     1
176
     0
 93
-1056964608
 45
0.18
292
     0
297
     0
 46
0.18
 94
-1056964608
 47
1.0
 49
1.0
140
1.0
293
     1
141
0.0
294
     1
177
     0
142
1.0
295
     0
296
     0
143
0.125
1001
ACAD_MLEADERVER
1070
     2
  0
MLINESTYLE
  5
60
102
{ACAD_REACTORS
330
5F
102
}
330
5F
100
AcDbMlineStyle
  2
STANDARD
 70
     0
  3

 62
   256
 51
90.0
 52
90.0
 71
     2
 49
0.5
 62
   256
  6
BYLAYER
 49
-0.5
 62
   256
  6
BYLAYER
  0
ACDBPLACEHOLDER
  5
F
102
{ACAD_REACTORS
330
E
102
}
330
E
  0
SCALE
  5
43
102
{ACAD_REACTORS
330
42
102
}
330
42
100
AcDbScale
 70
     0
300
1:1
140
1.0
141
1.0
290
     1
  0
SCALE
  5
44
102
{ACAD_REACTORS
330
42
102
}
330
42
100
AcDbScale
 70
     0
300
1/128" = 1'-0"
140
0.0078125
141
12.0
290
     0
  0
SCALE
  5
45
102
{ACAD_REACTORS
330
42
102
}
330
42
100
AcDbScale
 70
     0
300
1/64" = 1'-0"
140
0.015625
141
12.0
290
     0
  0
SCALE
  5
46
102
{ACAD_REACTORS
330
42
102
}
330
42
100
AcDbScale
 70
     0
300
1/32" = 1'-0"
140
0.03125
141
12.0
290
     0
  0
SCALE
  5
47
102
{ACAD_REACTORS
330
42
102
}
330
42
100
AcDbScale
 70
     0
300
1/16" = 1'-0"
140
0.0625
141
12.0
290
     0
  0
SCALE
  5
48
102
{ACAD_REACTORS
330
42
102
}
330
42
100
AcDbScale
 70
     0
300
3/32" = 1'-0"
140
0.09375
141
12.0
290
     0
  0
SCALE
  5
49
102
{ACAD_REACTORS
330
42
102
}
330
42
100
AcDbScale
 70
     0
300
1/8" = 1'-0"
140
0.125
141
12.0
290
     0
  0
SCALE
  5
4A
102
{ACAD_REACTORS
330
42
102
}
330
42
100
AcDbScale
 70
     0
300
3/16" = 1'-0"
140
0.1875
141
12.0
290
     0
  0
SCALE
  5
4B
102
{ACAD_REACTORS
330
42
102
}
330
42
100
AcDbScale
 70
     0
300
1/4" = 1'-0"
140
0.25
141
12.0
290
     0
  0
SCALE
  5
4C
102
{ACAD_REACTORS
330
42
102
}
330
42
100
AcDbScale
 70
     0
300
3/8" = 1'-0"
140
0.375
141
12.0
290
     0
  0
SCALE
  5
4D
102
{ACAD_REACTORS
330
42
102
}
330
42
100
AcDbScale
 70
     0
300
1/2" = 1'-0"
140
0.5
141
12.0
290
     0
  0
SCALE
  5
4E
102
{ACAD_REACTORS
330
42
102
}
330
42
100
AcDbScale
 70
     0
300
3/4" = 1'-0"
140
0.75
141
12.0
290
     0
  0
SCALE
  5
4F
102
{ACAD_REACTORS
330
42
102
}
330
42
100
AcDbScale
 70
     0
300
1" = 1'-0"
140
1.0
141
12.0
290
     0
  0
SCALE
  5
50
102
{ACAD_REACTORS
330
42
102
}
330
42
100
AcDbScale
 70
     0
300
1-1/2" = 1'-0"
140
1.5
141
12.0
290
     0
  0
SCALE
  5
51
102
{ACAD_REACTORS
330
42
102
}
330
42
100
AcDbScale
 70
     0
300
3" = 1'-0"
140
3.0
141
12.0
290
     0
  0
SCALE
  5
52
102
{ACAD_REACTORS
330
42
102
}
330
42
100
AcDbScale
 70
     0
300
6" = 1'-0"
140
6.0
141
12.0
290
     0
  0
SCALE
  5
53
102
{ACAD_REACTORS
330
42
102
}
330
42
100
AcDbScale
 70
     0
300
1'-0" = 1'-0"
140
12.0
141
12.0
290
     0
  0
ACDBSECTIONVIEWSTYLE
  5
69
102
{ACAD_XDICTIONARY
360
188
102
}
102
{ACAD_REACTORS
330
68
102
}
330
68
100
AcDbModelDocViewStyle
 70
     0
  3
Imperial24
290
     0
100
AcDbSectionViewStyle
 70
     0
 71
     0
 90
       78
 71
     1
340
55
 62
   256
 40
0.24
340
0
340
0
 62
   256
 40
0.24
300
I, O, Q, S, X, Z
 40
0.48
 90
        3
 40
0.18
 90
        1
 71
     2
340
5D
 90
       25
 62
   256
340
5D
 90
       50
 62
   256
 40
0.24
 40
0.0
 40
0.24
 71
     3
340
55
 62
   256
 40
0.24
 90
        1
 40
0.75
 90
        1
300
%<\AcVar ViewType \f "%tc1">% %<\AcVar ViewSectionStartId>%-%<\AcVar ViewSectionEndId>%\PSCALE %<\AcVar ViewScale \f "%sn">%
 71
     4
 62
   256
 62
   257
300
ANSI31
 40
1.0
 90
        0
290
     0
290
     0
 90
        6
 40
0.0
 40
1.570796326794896
 40
0.2617993877991494
 40
1.308996938995747
 40
-0.2617993877991494
 40
1.832595714594045
  0
TABLESTYLE
  5
65
102
{ACAD_XDICTIONARY
360
F8
102
}
102
{ACAD_REACTORS
330
64
102
}
330
64
100
AcDbTableStyle
  3
Standard
 70
     0
 71
     0
 40
0.06
 41
0.06
280
     0
281
     0
  7
Standard
140
0.18
170
     2
 62
     0
 63
     7
283
     0
 90
      512
 91
        0
  1

274
    -2
284
     1
 64
     0
275
    -2
285
     1
 65
     0
276
    -2
286
     1
 66
     0
277
    -2
287
     1
 67
     0
278
    -2
288
     1
 68
     0
279
    -2
289
     1
 69
     0
  7
Standard
140
0.25
170
     5
 62
     0
 63
     7
283
     0
 90
      512
 91
        0
  1

274
    -2
284
     1
 64
     0
275
    -2
285
     1
 65
     0
276
    -2
286
     1
 66
     0
277
    -2
287
     1
 67
     0
278
    -2
288
     1
 68
     0
279
    -2
289
     1
 69
     0
  7
Standard
140
0.18
170
     5
 62
     0
 63
     7
283
     0
 90
      512
 91
        0
  1

274
    -2
284
     1
 64
     0
275
    -2
285
     1
 65
     0
276
    -2
286
     1
 66
     0
277
    -2
287
     1
 67
     0
278
    -2
288
     1
 68
     0
279
    -2
289
     1
 69
     0
  0
VISUALSTYLE
  5
2F
102
{ACAD_XDICTIONARY
360
15F
102
}
102
{ACAD_REACTORS
330
29
102
}
330
29
100
AcDbVisualStyle
  2
2dWireframe
 70
     4
 71
     0
 72
     2
 73
     0
 90
        0
 40
-0.6
 41
-30.0
 62
     5
 63
     7
421
 16777215
 74
     1
 91
        4
 64
     7
 65
   257
 75
     1
175
     1
 42
1.0
 92
        0
 66
   257
 43
1.0
 76
     1
 77
     6
 78
     2
 67
     7
 79
     5
170
     0
171
     0
290
     0
174
     0
 93
        1
 44
0.0
173
     0
291
     0
 45
0.0
1001
ACAD
1000
AcDbSavedByObjectVersion
1070
     0
  0
VISUALSTYLE
  5
2E
102
{ACAD_XDICTIONARY
360
15D
102
}
102
{ACAD_REACTORS
330
29
102
}
330
29
100
AcDbVisualStyle
  2
Basic
 70
     7
 71
     1
 72
     0
 73
     1
 90
        0
 40
-0.6
 41
-30.0
 62
     5
 63
     7
421
 16777215
 74
     0
 91
        4
 64
     7
 65
   257
 75
     1
175
     1
 42
1.0
 92
        8
 66
     7
 43
1.0
 76
     1
 77
     6
 78
     2
 67
     7
 79
     5
170
     0
171
     0
290
     0
174
     0
 93
        1
 44
0.0
173
     0
291
     1
 45
0.0
1001
ACAD
1000
AcDbSavedByObjectVersion
1070
     0
  0
VISUALSTYLE
  5
35
102
{ACAD_XDICTIONARY
360
16B
102
}
102
{ACAD_REACTORS
330
29
102
}
330
29
100
AcDbVisualStyle
  2
Brighten
 70
    12
 71
     2
 72
     2
 73
     0
 90
        0
 40
-0.6
 41
-30.0
 62
     5
 63
     7
421
 16777215
 74
     1
 91
        4
 64
     7
 65
   257
 75
     1
175
     1
 42
1.0
 92
        8
 66
     7
 43
1.0
 76
     1
 77
     6
 78
     2
 67
     7
 79
     5
170
     0
171
     0
290
     0
174
     0
 93
        1
 44
50.0
173
     0
291
     1
 45
0.0
1001
ACAD
1000
AcDbSavedByObjectVersion
1070
     0
  0
VISUALSTYLE
  5
39
102
{ACAD_XDICTIONARY
360
173
102
}
102
{ACAD_REACTORS
330
29
102
}
330
29
100
AcDbVisualStyle
  2
ColorChange
 70
    16
 71
     2
 72
     2
 73
     3
 90
        0
 40
-0.6
 41
-30.0
 62
     5
 63
     8
421
  8421504
 74
     1
 91
        4
 64
     7
 65
   257
 75
     1
175
     1
 42
1.0
 92
        8
 66
     8
424
  8421504
 43
1.0
 76
     1
 77
     6
 78
     2
 67
     7
 79
     5
170
     0
171
     0
290
     0
174
     0
 93
        1
 44
0.0
173
     0
291
     1
 45
0.0
1001
ACAD
1000
AcDbSavedByObjectVersion
1070
     0
  0
VISUALSTYLE
  5
32
102
{ACAD_XDICTIONARY
360
165
102
}
102
{ACAD_REACTORS
330
29
102
}
330
29
100
AcDbVisualStyle
  2
Conceptual
 70
     9
 71
     3
 72
     2
 73
     0
 90
        0
 40
-0.6
 41
-30.0
 62
     5
 63
     7
421
 16777215
 74
     2
 91
        2
 64
     7
 65
   257
 75
     1
175
     1
 42
179.0
 92
        8
 66
     7
 43
1.0
 76
     1
 77
     6
 78
     2
 67
     7
 79
     3
170
     0
171
     0
290
     0
174
     0
 93
        1
 44
0.0
173
     0
291
     0
 45
0.0
1001
ACAD
1000
AcDbSavedByObjectVersion
1070
     0
  0
VISUALSTYLE
  5
34
102
{ACAD_XDICTIONARY
360
169
102
}
102
{ACAD_REACTORS
330
29
102
}
330
29
100
AcDbVisualStyle
  2
Dim
 70
    11
 71
     2
 72
     2
 73
     0
 90
        0
 40
-0.6
 41
-30.0
 62
     5
 63
     7
421
 16777215
 74
     1
 91
        4
 64
     7
 65
   257
 75
     1
175
     1
 42
1.0
 92
        8
 66
     7
 43
1.0
 76
     1
 77
     6
 78
     2
 67
     7
 79
     5
170
     0
171
     0
290
     0
174
     0
 93
        1
 44
-50.0
173
     0
291
     1
 45
0.0
1001
ACAD
1000
AcDbSavedByObjectVersion
1070
     0
  0
VISUALSTYLE
  5
41
102
{ACAD_XDICTIONARY
360
183
102
}
102
{ACAD_REACTORS
330
29
102
}
330
29
100
AcDbVisualStyle
  2
EdgeColorOff
 70
    22
 71
     2
 72
     2
 73
     0
 90
        0
 40
-0.6
 41
-30.0
 62
     5
 63
     7
421
 16777215
 74
     1
 91
        4
 64
     7
 65
   257
 75
     1
175
     1
 42
1.0
 92
        8
 66
     7
 43
1.0
 76
     1
 77
     6
 78
     2
 67
     7
 79
     5
170
     0
171
     0
290
     0
174
     0
 93
        1
 44
0.0
173
     0
291
     1
 45
0.0
1001
ACAD
1000
AcDbSavedByObjectVersion
1070
     0
  0
VISUALSTYLE
  5
38
102
{ACAD_XDICTIONARY
360
171
102
}
102
{ACAD_REACTORS
330
29
102
}
330
29
100
AcDbVisualStyle
  2
Facepattern
 70
    15
 71
     2
 72
     2
 73
     0
 90
        0
 40
-0.6
 41
-30.0
 62
     5
 63
     7
421
 16777215
 74
     1
 91
        4
 64
     7
 65
   257
 75
     1
175
     1
 42
1.0
 92
        8
 66
     7
 43
1.0
 76
     1
 77
     6
 78
     2
 67
     7
 79
     5
170
     0
171
     0
290
     0
174
     0
 93
        1
 44
0.0
173
     0
291
     1
 45
0.0
1001
ACAD
1000
AcDbSavedByObjectVersion
1070
     0
  0
VISUALSTYLE
  5
2A
102
{ACAD_XDICTIONARY
360
155
102
}
102
{ACAD_REACTORS
330
29
102
}
330
29
100
AcDbVisualStyle
  2
Flat
 70
     0
 71
     2
 72
     1
 73
     1
 90
        2
 40
-0.6
 41
30.0
 62
     5
 63
     7
421
 16777215
 74
     0
 91
        0
 64
     7
 65
   257
 75
     1
175
     1
 42
1.0
 92
        8
 66
     7
 43
1.0
 76
     1
 77
     6
 78
     2
 67
     7
 79
     5
170
     0
171
     0
290
     0
174
     0
 93
       13
 44
0.0
173
     0
291
     1
 45
0.0
1001
ACAD
1000
AcDbSavedByObjectVersion
1070
     0
  0
VISUALSTYLE
  5
2B
102
{ACAD_XDICTIONARY
360
157
102
}
102
{ACAD_REACTORS
330
29
102
}
330
29
100
AcDbVisualStyle
  2
FlatWithEdges
 70
     1
 71
     2
 72
     1
 73
     1
 90
        2
 40
-0.6
 41
30.0
 62
     5
 63
     7
421
 16777215
 74
     1
 91
        0
 64
     7
 65
   257
 75
     1
175
     1
 42
1.0
 92
        0
 66
   257
 43
1.0
 76
     1
 77
     6
 78
     2
 67
     7
 79
     5
170
     0
171
     0
290
     0
174
     0
 93
       13
 44
0.0
173
     0
291
     1
 45
0.0
1001
ACAD
1000
AcDbSavedByObjectVersion
1070
     0
  0
VISUALSTYLE
  5
2C
102
{ACAD_XDICTIONARY
360
159
102
}
102
{ACAD_REACTORS
330
29
102
}
330
29
100
AcDbVisualStyle
  2
Gouraud
 70
     2
 71
     2
 72
     2
 73
     1
 90
        2
 40
-0.6
 41
30.0
 62
     5
 63
     7
421
 16777215
 74
     0
 91
        0
 64
     7
 65
   257
 75
     1
175
     1
 42
1.0
 92
        0
 66
     7
 43
1.0
 76
     1
 77
     6
 78
     2
 67
     7
 79
     5
170
     0
171
     0
290
     0
174
     0
 93
       13
 44
0.0
173
     0
291
     1
 45
0.0
1001
ACAD
1000
AcDbSavedByObjectVersion
1070
     0
  0
VISUALSTYLE
  5
2D
102
{ACAD_XDICTIONARY
360
15B
102
}
102
{ACAD_REACTORS
330
29
102
}
330
29
100
AcDbVisualStyle
  2
GouraudWithEdges
 70
     3
 71
     2
 72
     2
 73
     1
 90
        2
 40
-0.6
 41
30.0
 62
     5
 63
     7
421
 16777215
 74
     1
 91
        0
 64
     7
 65
   257
 75
     1
175
     1
 42
1.0
 92
        0
 66
   257
 43
1.0
 76
     1
 77
     6
 78
     2
 67
     7
 79
     5
170
     0
171
     0
290
     0
174
     0
 93
       13
 44
0.0
173
     0
291
     1
 45
0.0
1001
ACAD
1000
AcDbSavedByObjectVersion
1070
     0
  0
VISUALSTYLE
  5
31
102
{ACAD_XDICTIONARY
360
163
102
}
102
{ACAD_REACTORS
330
29
102
}
330
29
100
AcDbVisualStyle
  2
Hidden
 70
     6
 71
     1
 72
     2
 73
     2
 90
        0
 40
-0.6
 41
-30.0
 62
     5
 63
     7
421
 16777215
 74
     2
 91
        2
 64
     7
 65
   257
 75
     2
175
     1
 42
40.0
 92
        0
 66
   257
 43
1.0
 76
     1
 77
     6
 78
     2
 67
     7
 79
     3
170
     0
171
     0
290
     0
174
     0
 93
        1
 44
0.0
173
     0
291
     0
 45
0.0
1001
ACAD
1000
AcDbSavedByObjectVersion
1070
     0
  0
VISUALSTYLE
  5
3F
102
{ACAD_XDICTIONARY
360
17F
102
}
102
{ACAD_REACTORS
330
29
102
}
330
29
100
AcDbVisualStyle
  2
JitterOff
 70
    20
 71
     2
 72
     2
 73
     0
 90
        0
 40
-0.6
 41
-30.0
 62
     5
 63
     7
421
 16777215
 74
     1
 91
        4
 64
     7
 65
   257
 75
     1
175
     1
 42
1.0
 92
       10
 66
     7
 43
1.0
 76
     1
 77
     6
 78
     2
 67
     7
 79
     5
170
     0
171
     0
290
     0
174
     0
 93
        1
 44
0.0
173
     0
291
     1
 45
0.0
1001
ACAD
1000
AcDbSavedByObjectVersion
1070
     0
  0
VISUALSTYLE
  5
37
102
{ACAD_XDICTIONARY
360
16F
102
}
102
{ACAD_REACTORS
330
29
102
}
330
29
100
AcDbVisualStyle
  2
Linepattern
 70
    14
 71
     2
 72
     2
 73
     0
 90
        0
 40
-0.6
 41
-30.0
 62
     5
 63
     7
421
 16777215
 74
     1
 91
        4
 64
     7
 65
   257
 75
     7
175
     7
 42
1.0
 92
        8
 66
     7
 43
1.0
 76
     1
 77
     6
 78
     2
 67
     7
 79
     5
170
     0
171
     0
290
     0
174
     0
 93
        1
 44
0.0
173
     0
291
     1
 45
0.0
1001
ACAD
1000
AcDbSavedByObjectVersion
1070
     0
  0
VISUALSTYLE
  5
40
102
{ACAD_XDICTIONARY
360
181
102
}
102
{ACAD_REACTORS
330
29
102
}
330
29
100
AcDbVisualStyle
  2
OverhangOff
 70
    21
 71
     2
 72
     2
 73
     0
 90
        0
 40
-0.6
 41
-30.0
 62
     5
 63
     7
421
 16777215
 74
     1
 91
        4
 64
     7
 65
   257
 75
     1
175
     1
 42
1.0
 92
        9
 66
     7
 43
1.0
 76
     1
 77
     6
 78
     2
 67
     7
 79
     5
170
     0
171
     0
290
     0
174
     0
 93
        1
 44
0.0
173
     0
291
     1
 45
0.0
1001
ACAD
1000
AcDbSavedByObjectVersion
1070
     0
  0
VISUALSTYLE
  5
33
102
{ACAD_XDICTIONARY
360
167
102
}
102
{ACAD_REACTORS
330
29
102
}
330
29
100
AcDbVisualStyle
  2
Realistic
 70
     8
 71
     2
 72
     3
 73
     0
 90
        2
 40
-0.6
 41
30.0
 62
     5
 63
     7
421
 16777215
 74
     0
 91
        0
 64
     7
 65
   257
 75
     1
175
     1
 42
1.0
 92
        8
 66
   257
 43
1.0
 76
     1
 77
     6
 78
     2
 67
     7
 79
     3
170
     0
171
     0
290
     0
174
     0
 93
       13
 44
0.0
173
     0
291
     0
 45
0.0
1001
ACAD
1000
AcDbSavedByObjectVersion
1070
     0
  0
VISUALSTYLE
  5
3E
102
{ACAD_XDICTIONARY
360
17D
102
}
102
{ACAD_REACTORS
330
29
102
}
330
29
100
AcDbVisualStyle
  2
Shaded
 70
    27
 71
     2
 72
     2
 73
     1
 90
        2
 40
-0.6
 41
30.0
 62
     5
 63
     7
421
 16777215
 74
     0
 91
        4
 64
     7
 65
   257
 75
     1
175
     1
 42
1.0
 92
        8
 66
   257
 43
1.0
 76
     1
 77
     6
 78
     2
 67
     8
425
  7895160
 79
     3
170
     0
171
     0
290
     0
174
     0
 93
        5
 44
0.0
173
     0
291
     0
 45
0.0
1001
ACAD
1000
AcDbSavedByObjectVersion
1070
     0
  0
VISUALSTYLE
  5
3D
102
{ACAD_XDICTIONARY
360
17B
102
}
102
{ACAD_REACTORS
330
29
102
}
330
29
100
AcDbVisualStyle
  2
Shaded with edges
 70
    26
 71
     2
 72
     2
 73
     1
 90
        2
 40
-0.6
 41
30.0
 62
     5
 63
     7
421
 16777215
 74
     1
 91
        2
 64
     7
 65
   257
 75
     2
175
     1
 42
1.0
 92
        8
 66
   257
 43
1.0
 76
     1
 77
     6
 78
     2
 67
     7
 79
     3
170
     0
171
     0
290
     0
174
     0
 93
        5
 44
0.0
173
     0
291
     0
 45
0.0
1001
ACAD
1000
AcDbSavedByObjectVersion
1070
     0
  0
VISUALSTYLE
  5
3A
102
{ACAD_XDICTIONARY
360
175
102
}
102
{ACAD_REACTORS
330
29
102
}
330
29
100
AcDbVisualStyle
  2
Shades of Gray
 70
    23
 71
     2
 72
     2
 73
     3
 90
        0
 40
-0.6
 41
-30.0
 62
     5
 63
     7
421
 16777215
 74
     2
 91
        2
 64
     7
 65
     7
 75
     1
175
     1
 42
40.0
 92
        8
 66
     7
 43
1.0
 76
     1
 77
     6
 78
     2
 67
     7
 79
     3
170
     0
171
     0
290
     0
174
     0
 93
        1
 44
0.0
173
     0
291
     0
 45
0.0
1001
ACAD
1000
AcDbSavedByObjectVersion
1070
     0
  0
VISUALSTYLE
  5
3B
102
{ACAD_XDICTIONARY
360
177
102
}
102
{ACAD_REACTORS
330
29
102
}
330
29
100
AcDbVisualStyle
  2
Sketchy
 70
    24
 71
     1
 72
     2
 73
     2
 90
        0
 40
-0.6
 41
-30.0
 62
     5
 63
     7
421
 16777215
 74
     2
 91
        2
 64
     7
 65
     7
 75
     1
175
     1
 42
40.0
 92
       11
 66
     7
 43
1.0
 76
     1
 77
     6
 78
     2
 67
     7
 79
     6
170
     0
171
     0
290
     0
174
     0
 93
        1
 44
0.0
173
     0
291
     0
 45
0.0
1001
ACAD
1000
AcDbSavedByObjectVersion
1070
     0
  0
VISUALSTYLE
  5
36
102
{ACAD_XDICTIONARY
360
16D
102
}
102
{ACAD_REACTORS
330
29
102
}
330
29
100
AcDbVisualStyle
  2
Thicken
 70
    13
 71
     2
 72
     2
 73
     0
 90
        0
 40
-0.6
 41
-30.0
 62
     5
 63
     7
421
 16777215
 74
     1
 91
        4
 64
     7
 65
   257
 75
     1
175
     1
 42
1.0
 92
       12
 66
     7
 43
1.0
 76
     1
 77
     6
 78
     2
 67
     7
 79
     5
170
     0
171
     0
290
     0
174
     0
 93
        1
 44
0.0
173
     0
291
     1
 45
0.0
1001
ACAD
1000
AcDbSavedByObjectVersion
1070
     0
  0
VISUALSTYLE
  5
30
102
{ACAD_XDICTIONARY
360
161
102
}
102
{ACAD_REACTORS
330
29
102
}
330
29
100
AcDbVisualStyle
  2
Wireframe
 70
     5
 71
     0
 72
     2
 73
     0
 90
        0
 40
-0.6
 41
-30.0
 62
     5
 63
     7
421
 16777215
 74
     1
 91
        4
 64
     7
 65
   257
 75
     1
175
     1
 42
1.0
 92
        0
 66
   257
 43
1.0
 76
     1
 77
     6
 78
     2
 67
     7
 79
     3
170
     0
171
     0
290
     0
174
     0
 93
        1
 44
0.0
173
     0
291
     0
 45
0.0
1001
ACAD
1000
AcDbSavedByObjectVersion
1070
     0
  0
VISUALSTYLE
  5
3C
102
{ACAD_XDICTIONARY
360
179
102
}
102
{ACAD_REACTORS
330
29
102
}
330
29
100
AcDbVisualStyle
  2
X-Ray
 70
    25
 71
     2
 72
     2
 73
     1
 90
        1
 40
0.5
 41
-30.0
 62
     5
 63
     7
421
 16777215
 74
     1
 91
        0
 64
     7
 65
   257
 75
     1
175
     1
 42
1.0
 92
        8
 66
     7
 43
1.0
 76
     1
 77
     6
 78
     2
 67
     7
 79
     3
170
     0
171
     0
290
     0
174
     0
 93
       13
 44
0.0
173
     0
291
     0
 45
0.0
1001
ACAD
1000
AcDbSavedByObjectVersion
1070
     0
  0
DICTIONARYVAR
  5
F7
102
{ACAD_REACTORS
330
F2
102
}
330
F2
100
DictionaryVariables
280
     0
  1
1:1
  0
DICTIONARYVAR
  5
F4
102
{ACAD_REACTORS
330
F2
102
}
330
F2
100
DictionaryVariables
280
     0
  1
STANDARD
  0
DICTIONARYVAR
  5
F3
102
{ACAD_REACTORS
330
F2
102
}
330
F2
100
DictionaryVariables
280
     0
  1
STANDARD
  0
DICTIONARYVAR
  5
F5
102
{ACAD_REACTORS
330
F2
102
}
330
F2
100
DictionaryVariables
280
     0
  1
Imperial24
  0
DICTIONARYVAR
  5
F6
102
{ACAD_REACTORS
330
F2
102
}
330
F2
100
DictionaryVariables
280
     0
  1
Imperial24
  0
DICTIONARYVAR
  5
152
102
{ACAD_REACTORS
330
F2
102
}
330
F2
100
DictionaryVariables
280
     0
  1
2
  0
DICTIONARY
  5
18A
330
6B
100
AcDbDictionary
280
     1
281
     1
  3
ACAD_XREC_ROUNDTRIP
360
18B
  0
DICTIONARY
  5
1A
330
19
100
AcDbDictionary
280
     1
281
     1
  3
BUMPTILE
360
1C
  3
DIFFUSETILE
360
1B
  3
OPACITYTILE
360
1F
  3
REFLECTIONTILE
360
1E
  3
REFRACTIONTILE
360
20
  3
SPECULARTILE
360
1D
  0
DICTIONARY
  5
12
330
11
100
AcDbDictionary
280
     1
281
     1
  3
BUMPTILE
360
14
  3
DIFFUSETILE
360
13
  3
OPACITYTILE
360
17
  3
REFLECTIONTILE
360
16
  3
REFRACTIONTILE
360
18
  3
SPECULARTILE
360
15
  0
DICTIONARY
  5
22
330
21
100
AcDbDictionary
280
     1
281
     1
  3
BUMPTILE
360
24
  3
DIFFUSETILE
360
23
  3
OPACITYTILE
360
27
  3
REFLECTIONTILE
360
26
  3
REFRACTIONTILE
360
28
  3
SPECULARTILE
360
25
  0
DICTIONARY
  5
186
330
67
100
AcDbDictionary
280
     1
281
     1
  3
ACAD_XREC_ROUNDTRIP
360
187
  0
DICTIONARY
  5
188
330
69
100
AcDbDictionary
280
     1
281
     1
  3
ACAD_XREC_ROUNDTRIP
360
189
  0
DICTIONARY
  5
F8
330
65
100
AcDbDictionary
280
     1
281
     1
  3
ACAD_ROUNDTRIP_2008_TABLESTYLE_CELLSTYLEMAP
360
153
  0
DICTIONARY
  5
15F
330
2F
100
AcDbDictionary
280
     1
281
     1
  3
ACAD_XREC_ROUNDTRIP
360
160
  0
DICTIONARY
  5
15D
330
2E
100
AcDbDictionary
280
     1
281
     1
  3
ACAD_XREC_ROUNDTRIP
360
15E
  0
DICTIONARY
  5
16B
330
35
100
AcDbDictionary
280
     1
281
     1
  3
ACAD_XREC_ROUNDTRIP
360
16C
  0
DICTIONARY
  5
173
330
39
100
AcDbDictionary
280
     1
281
     1
  3
ACAD_XREC_ROUNDTRIP
360
174
  0
DICTIONARY
  5
165
330
32
100
AcDbDictionary
280
     1
281
     1
  3
ACAD_XREC_ROUNDTRIP
360
166
  0
DICTIONARY
  5
169
330
34
100
AcDbDictionary
280
     1
281
     1
  3
ACAD_XREC_ROUNDTRIP
360
16A
  0
DICTIONARY
  5
183
330
41
100
AcDbDictionary
280
     1
281
     1
  3
ACAD_XREC_ROUNDTRIP
360
184
  0
DICTIONARY
  5
171
330
38
100
AcDbDictionary
280
     1
281
     1
  3
ACAD_XREC_ROUNDTRIP
360
172
  0
DICTIONARY
  5
155
330
2A
100
AcDbDictionary
280
     1
281
     1
  3
ACAD_XREC_ROUNDTRIP
360
156
  0
DICTIONARY
  5
157
330
2B
100
AcDbDictionary
280
     1
281
     1
  3
ACAD_XREC_ROUNDTRIP
360
158
  0
DICTIONARY
  5
159
330
2C
100
AcDbDictionary
280
     1
281
     1
  3
ACAD_XREC_ROUNDTRIP
360
15A
  0
DICTIONARY
  5
15B
330
2D
100
AcDbDictionary
280
     1
281
     1
  3
ACAD_XREC_ROUNDTRIP
360
15C
  0
DICTIONARY
  5
163
330
31
100
AcDbDictionary
280
     1
281
     1
  3
ACAD_XREC_ROUNDTRIP
360
164
  0
DICTIONARY
  5
17F
330
3F
100
AcDbDictionary
280
     1
281
     1
  3
ACAD_XREC_ROUNDTRIP
360
180
  0
DICTIONARY
  5
16F
330
37
100
AcDbDictionary
280
     1
281
     1
  3
ACAD_XREC_ROUNDTRIP
360
170
  0
DICTIONARY
  5
181
330
40
100
AcDbDictionary
280
     1
281
     1
  3
ACAD_XREC_ROUNDTRIP
360
182
  0
DICTIONARY
  5
167
330
33
100
AcDbDictionary
280
     1
281
     1
  3
ACAD_XREC_ROUNDTRIP
360
168
  0
DICTIONARY
  5
17D
330
3E
100
AcDbDictionary
280
     1
281
     1
  3
ACAD_XREC_ROUNDTRIP
360
17E
  0
DICTIONARY
  5
17B
330
3D
100
AcDbDictionary
280
     1
281
     1
  3
ACAD_XREC_ROUNDTRIP
360
17C
  0
DICTIONARY
  5
175
330
3A
100
AcDbDictionary
280
     1
281
     1
  3
ACAD_XREC_ROUNDTRIP
360
176
  0
DICTIONARY
  5
177
330
3B
100
AcDbDictionary
280
     1
281
     1
  3
ACAD_XREC_ROUNDTRIP
360
178
  0
DICTIONARY
  5
16D
330
36
100
AcDbDictionary
280
     1
281
     1
  3
ACAD_XREC_ROUNDTRIP
360
16E
  0
DICTIONARY
  5
161
330
30
100
AcDbDictionary
280
     1
281
     1
  3
ACAD_XREC_ROUNDTRIP
360
162
  0
DICTIONARY
  5
179
330
3C
100
AcDbDictionary
280
     1
281
     1
  3
ACAD_XREC_ROUNDTRIP
360
17A
  0
XRECORD
  5
18B
102
{ACAD_REACTORS
330
18A
102
}
330
18A
100
AcDbXrecord
280
     1
102
DISPLAYNAME
  1
Imperial24
102
FLAGS
 90
        0
  0
XRECORD
  5
1C
102
{ACAD_REACTORS
330
1A
102
}
330
1A
100
AcDbXrecord
280
     1
270
     1
271
     1
  0
XRECORD
  5
1B
102
{ACAD_REACTORS
330
1A
102
}
330
1A
100
AcDbXrecord
280
     1
270
     1
271
     1
  0
XRECORD
  5
1F
102
{ACAD_REACTORS
330
1A
102
}
330
1A
100
AcDbXrecord
280
     1
270
     1
271
     1
  0
XRECORD
  5
1E
102
{ACAD_REACTORS
330
1A
102
}
330
1A
100
AcDbXrecord
280
     1
270
     1
271
     1
  0
XRECORD
  5
20
102
{ACAD_REACTORS
330
1A
102
}
330
1A
100
AcDbXrecord
280
     1
270
     1
271
     1
  0
XRECORD
  5
1D
102
{ACAD_REACTORS
330
1A
102
}
330
1A
100
AcDbXrecord
280
     1
270
     1
271
     1
  0
XRECORD
  5
14
102
{ACAD_REACTORS
330
12
102
}
330
12
100
AcDbXrecord
280
     1
270
     1
271
     1
  0
XRECORD
  5
13
102
{ACAD_REACTORS
330
12
102
}
330
12
100
AcDbXrecord
280
     1
270
     1
271
     1
  0
XRECORD
  5
17
102
{ACAD_REACTORS
330
12
102
}
330
12
100
AcDbXrecord
280
     1
270
     1
271
     1
  0
XRECORD
  5
16
102
{ACAD_REACTORS
330
12
102
}
330
12
100
AcDbXrecord
280
     1
270
     1
271
     1
  0
XRECORD
  5
18
102
{ACAD_REACTORS
330
12
102
}
330
12
100
AcDbXrecord
280
     1
270
     1
271
     1
  0
XRECORD
  5
15
102
{ACAD_REACTORS
330
12
102
}
330
12
100
AcDbXrecord
280
     1
270
     1
271
     1
  0
XRECORD
  5
24
102
{ACAD_REACTORS
330
22
102
}
330
22
100
AcDbXrecord
280
     1
270
     1
271
     1
  0
XRECORD
  5
23
102
{ACAD_REACTORS
330
22
102
}
330
22
100
AcDbXrecord
280
     1
270
     1
271
     1
  0
XRECORD
  5
27
102
{ACAD_REACTORS
330
22
102
}
330
22
100
AcDbXrecord
280
     1
270
     1
271
     1
  0
XRECORD
  5
26
102
{ACAD_REACTORS
330
22
102
}
330
22
100
AcDbXrecord
280
     1
270
     1
271
     1
  0
XRECORD
  5
28
102
{ACAD_REACTORS
330
22
102
}
330
22
100
AcDbXrecord
280
     1
270
     1
271
     1
  0
XRECORD
  5
25
102
{ACAD_REACTORS
330
22
102
}
330
22
100
AcDbXrecord
280
     1
270
     1
271
     1
  0
XRECORD
  5
187
102
{ACAD_REACTORS
330
186
102
}
330
186
100
AcDbXrecord
280
     1
102
ACAD_ROUNDTRIP_2012_MLEADER_STYLE
298
     1
  0
XRECORD
  5
189
102
{ACAD_REACTORS
330
188
102
}
330
188
100
AcDbXrecord
280
     1
102
DISPLAYNAME
  1
Imperial24
102
FLAGS
 90
        0
  0
CELLSTYLEMAP
  5
153
102
{ACAD_REACTORS
330
F8
102
}
330
F8
100
AcDbCellStyleMap
 90
        3
300
CELLSTYLE
  1
TABLEFORMAT_BEGIN
 90
        5
170
     1
 91
        0
 92
    32768
 62
   257
 93
        1
300
CONTENTFORMAT
  1
CONTENTFORMAT_BEGIN
 90
        0
 91
        0
 92
      512
 93
        0
300

 40
0.0
140
1.0
 94
        5
 62
     0
340
55
144
0.25
309
CONTENTFORMAT_END
171
     1
301
MARGIN
  1
CELLMARGIN_BEGIN
 40
0.06
 40
0.06
 40
0.06
 40
0.06
 40
0.18
 40
0.18
309
CELLMARGIN_END
 94
        6
 95
        1
302
GRIDFORMAT
  1
GRIDFORMAT_BEGIN
 90
        0
 91
        1
 62
     0
 92
       -2
340
0
 93
        0
 40
0.045
309
GRIDFORMAT_END
 95
        2
302
GRIDFORMAT
  1
GRIDFORMAT_BEGIN
 90
        0
 91
        1
 62
     0
 92
       -2
340
0
 93
        0
 40
0.045
309
GRIDFORMAT_END
 95
        4
302
GRIDFORMAT
  1
GRIDFORMAT_BEGIN
 90
        0
 91
        1
 62
     0
 92
       -2
340
0
 93
        0
 40
0.045
309
GRIDFORMAT_END
 95
        8
302
GRIDFORMAT
  1
GRIDFORMAT_BEGIN
 90
        0
 91
        1
 62
     0
 92
       -2
340
0
 93
        0
 40
0.045
309
GRIDFORMAT_END
 95
       16
302
GRIDFORMAT
  1
GRIDFORMAT_BEGIN
 90
        0
 91
        1
 62
     0
 92
       -2
340
0
 93
        0
 40
0.045
309
GRIDFORMAT_END
 95
       32
302
GRIDFORMAT
  1
GRIDFORMAT_BEGIN
 90
        0
 91
        1
 62
     0
 92
       -2
340
0
 93
        0
 40
0.045
309
GRIDFORMAT_END
309
TABLEFORMAT_END
  1
CELLSTYLE_BEGIN
 90
        1
 91
        1
300
_TITLE
309
CELLSTYLE_END
300
CELLSTYLE
  1
TABLEFORMAT_BEGIN
 90
        5
170
     1
 91
        0
 92
        0
 62
   257
 93
        1
300
CONTENTFORMAT
  1
CONTENTFORMAT_BEGIN
 90
        0
 91
        0
 92
      512
 93
        0
300

 40
0.0
140
1.0
 94
        5
 62
     0
340
55
144
0.18
309
CONTENTFORMAT_END
171
     1
301
MARGIN
  1
CELLMARGIN_BEGIN
 40
0.06
 40
0.06
 40
0.06
 40
0.06
 40
0.18
 40
0.18
309
CELLMARGIN_END
 94
        6
 95
        1
302
GRIDFORMAT
  1
GRIDFORMAT_BEGIN
 90
        0
 91
        1
 62
     0
 92
       -2
340
0
 93
        0
 40
0.045
309
GRIDFORMAT_END
 95
        2
302
GRIDFORMAT
  1
GRIDFORMAT_BEGIN
 90
        0
 91
        1
 62
     0
 92
       -2
340
0
 93
        0
 40
0.045
309
GRIDFORMAT_END
 95
        4
302
GRIDFORMAT
  1
GRIDFORMAT_BEGIN
 90
        0
 91
        1
 62
     0
 92
       -2
340
0
 93
        0
 40
0.045
309
GRIDFORMAT_END
 95
        8
302
GRIDFORMAT
  1
GRIDFORMAT_BEGIN
 90
        0
 91
        1
 62
     0
 92
       -2
340
0
 93
        0
 40
0.045
309
GRIDFORMAT_END
 95
       16
302
GRIDFORMAT
  1
GRIDFORMAT_BEGIN
 90
        0
 91
        1
 62
     0
 92
       -2
340
0
 93
        0
 40
0.045
309
GRIDFORMAT_END
 95
       32
302
GRIDFORMAT
  1
GRIDFORMAT_BEGIN
 90
        0
 91
        1
 62
     0
 92
       -2
340
0
 93
        0
 40
0.045
309
GRIDFORMAT_END
309
TABLEFORMAT_END
  1
CELLSTYLE_BEGIN
 90
        2
 91
        1
300
_HEADER
309
CELLSTYLE_END
300
CELLSTYLE
  1
TABLEFORMAT_BEGIN
 90
        5
170
     1
 91
        0
 92
        0
 62
   257
 93
        1
300
CONTENTFORMAT
  1
CONTENTFORMAT_BEGIN
 90
        0
 91
        0
 92
      512
 93
        0
300

 40
0.0
140
1.0
 94
        2
 62
     0
340
55
144
0.18
309
CONTENTFORMAT_END
171
     1
301
MARGIN
  1
CELLMARGIN_BEGIN
 40
0.06
 40
0.06
 40
0.06
 40
0.06
 40
0.18
 40
0.18
309
CELLMARGIN_END
 94
        6
 95
        1
302
GRIDFORMAT
  1
GRIDFORMAT_BEGIN
 90
        0
 91
        1
 62
     0
 92
       -2
340
0
 93
        0
 40
0.045
309
GRIDFORMAT_END
 95
        2
302
GRIDFORMAT
  1
GRIDFORMAT_BEGIN
 90
        0
 91
        1
 62
     0
 92
       -2
340
0
 93
        0
 40
0.045
309
GRIDFORMAT_END
 95
        4
302
GRIDFORMAT
  1
GRIDFORMAT_BEGIN
 90
        0
 91
        1
 62
     0
 92
       -2
340
0
 93
        0
 40
0.045
309
GRIDFORMAT_END
 95
        8
302
GRIDFORMAT
  1
GRIDFORMAT_BEGIN
 90
        0
 91
        1
 62
     0
 92
       -2
340
0
 93
        0
 40
0.045
309
GRIDFORMAT_END
 95
       16
302
GRIDFORMAT
  1
GRIDFORMAT_BEGIN
 90
        0
 91
        1
 62
     0
 92
       -2
340
0
 93
        0
 40
0.045
309
GRIDFORMAT_END
 95
       32
302
GRIDFORMAT
  1
GRIDFORMAT_BEGIN
 90
        0
 91
        1
 62
     0
 92
       -2
340
0
 93
        0
 40
0.045
309
GRIDFORMAT_END
309
TABLEFORMAT_END
  1
CELLSTYLE_BEGIN
 90
        3
 91
        2
300
_DATA
309
CELLSTYLE_END
  0
XRECORD
  5
160
102
{ACAD_REACTORS
330
15F
102
}
330
15F
100
AcDbXrecord
280
     1
102
RTVSPost2010Prop28
280
     1
102
RTVSPost2010PropOp28
 70
     1
102
RTVSPost2010Prop29
280
     1
102
RTVSPost2010PropOp29
 70
     1
102
RTVSPost2010Prop30
280
     0
102
RTVSPost2010PropOp30
 70
     1
102
RTVSPost2010Prop31
280
     0
102
RTVSPost2010PropOp31
 70
     1
102
RTVSPost2010Prop32
280
     0
102
RTVSPost2010PropOp32
 70
     1
102
RTVSPost2010Prop33
280
     0
102
RTVSPost2010PropOp33
 70
     1
102
RTVSPost2010Prop34
280
     0
102
RTVSPost2010PropOp34
 70
     1
102
RTVSPost2010Prop35
280
     0
102
RTVSPost2010PropOp35
 70
     1
102
RTVSPost2010Prop36
280
     0
102
RTVSPost2010PropOp36
 70
     1
102
RTVSPost2010Prop37
 90
       50
102
RTVSPost2010PropOp37
 70
     1
102
RTVSPost2010Prop38
140
0.0
102
RTVSPost2010PropOp38
 70
     1
102
RTVSPost2010Prop39
140
1.0
102
RTVSPost2010PropOp39
 70
     1
102
RTVSPost2010Prop40
 90
        0
102
RTVSPost2010PropOp40
 70
     1
102
RTVSPost2010Prop41ColorIndex
 90
       18
102
RTVSPost2010Prop41ColorRGB
 90
        0
102
RTVSPost2010PropOp41
 70
     1
102
RTVSPost2010Prop42
 90
       50
102
RTVSPost2010PropOp42
 70
     1
102
RTVSPost2010Prop43
 90
        3
102
RTVSPost2010PropOp43
 70
     1
102
RTVSPost2010Prop44ColorIndex
 90
        5
102
RTVSPost2010Prop44ColorRGB
 90
      255
102
RTVSPost2010PropOp44
 70
     1
102
RTVSPost2010Prop45
280
     0
102
RTVSPost2010PropOp45
 70
     1
102
RTVSPost2010Prop46
 90
       50
102
RTVSPost2010PropOp46
 70
     1
102
RTVSPost2010Prop47
 90
       50
102
RTVSPost2010PropOp47
 70
     1
102
RTVSPost2010Prop48
 90
       50
102
RTVSPost2010PropOp48
 70
     1
102
RTVSPost2010Prop49
280
     0
102
RTVSPost2010PropOp49
 70
     1
102
RTVSPost2010Prop50
 90
       50
102
RTVSPost2010PropOp50
 70
     1
102
RTVSPost2010Prop51ColorIndex
 90
      256
102
RTVSPost2010Prop51ColorRGB
 90
-16777216
102
RTVSPost2010PropOp51
 70
     0
102
RTVSPost2010Prop52
140
1.0
102
RTVSPost2010PropOp52
 70
     0
102
RTVSPost2010Prop53
 90
        2
102
RTVSPost2010PropOp53
 70
     1
102
RTVSPost2010Prop54
  1
strokes_ogs.tif
102
RTVSPost2010PropOp54
 70
     1
102
RTVSPost2010Prop55
280
     0
102
RTVSPost2010PropOp55
 70
     1
102
RTVSPost2010Prop56
140
1.0
102
RTVSPost2010PropOp56
 70
     1
102
RTVSPost2010Prop57
140
1.0
102
RTVSPost2010PropOp57
 70
     1
102
RTVSPropertyOp0
 70
     1
102
RTVSPropertyOp1
 70
     1
102
RTVSPropertyOp2
 70
     1
102
RTVSPropertyOp3
 70
     1
102
RTVSPropertyOp4
 70
     1
102
RTVSPropertyOp5
 70
     1
102
RTVSPropertyOp6
 70
     1
102
RTVSPropertyOp7
 70
     1
102
RTVSPropertyOp8
 70
     1
102
RTVSPropertyOp9
 70
     1
102
RTVSPropertyOp10
 70
     1
102
RTVSPropertyOp11
 70
     1
102
RTVSPropertyOp12
 70
     1
102
RTVSPropertyOp13
 70
     1
102
RTVSPropertyOp14
 70
     1
102
RTVSPropertyOp15
 70
     1
102
RTVSPropertyOp16
 70
     1
102
RTVSPropertyOp17
 70
     1
102
RTVSPropertyOp18
 70
     1
102
RTVSPropertyOp19
 70
     1
102
RTVSPropertyOp20
 70
     1
102
RTVSPropertyOp21
 70
     1
102
RTVSPropertyOp22
 70
     1
102
RTVSPropertyOp23
 70
     1
102
RTVSPropertyOp24
 70
     1
102
RTVSPropertyOp25
 70
     1
102
RTVSPropertyOp26
 70
     1
102
RTVSPropertyOp27
 70
     1
102
RTVSPropertyOp28
 70
     1
102
RTVSPropertyOp29
 70
     1
102
RTVSPropertyOp30
 70
     1
102
RTVSPropertyOp31
 70
     1
102
RTVSPropertyOp32
 70
     1
102
RTVSPropertyOp33
 70
     1
102
RTVSPropertyOp34
 70
     1
102
RTVSPropertyOp35
 70
     1
102
RTVSPropertyOp36
 70
     1
102
RTVSPropertyOp37
 70
     1
102
RTVSPropertyOp38
 70
     1
102
RTVSPropertyOp39
 70
     1
102
RTVSPropertyOp40
 70
     1
102
RTVSPropertyOp41
 70
     1
102
RTVSPropertyOp42
 70
     1
102
RTVSPropertyOp43
 70
     1
102
RTVSPropertyOp44
 70
     1
102
RTVSPropertyOp45
 70
     1
102
RTVSPropertyOp46
 70
     1
102
RTVSPropertyOp47
 70
     1
102
RTVSPropertyOp48
 70
     1
102
RTVSPropertyOp49
 70
     1
102
RTVSPropertyOp50
 70
     1
102
RTVSPropertyOp51
 70
     0
102
RTVSPropertyOp52
 70
     0
102
RTVSPropertyOp53
 70
     1
102
RTVSPropertyOp54
 70
     1
102
RTVSPropertyOp55
 70
     1
102
RTVSPropertyOp56
 70
     1
102
RTVSPropertyOp57
 70
     1
102
RTVSPropertyOp58
 70
     1
102
RTVSPropertyOp59
 70
     1
102
RTVSPropertyOp60
 70
     1
102
RTVSPropertyOp61
 70
     1
102
RTVSPropertyOp62
 70
     1
  0
XRECORD
  5
15E
102
{ACAD_REACTORS
330
15D
102
}
330
15D
100
AcDbXrecord
280
     1
102
RTVSPost2010Prop28
280
     0
102
RTVSPost2010PropOp28
 70
     1
102
RTVSPost2010Prop29
280
     1
102
RTVSPost2010PropOp29
 70
     1
102
RTVSPost2010Prop30
280
     1
102
RTVSPost2010PropOp30
 70
     1
102
RTVSPost2010Prop31
280
     0
102
RTVSPost2010PropOp31
 70
     1
102
RTVSPost2010Prop32
280
     0
102
RTVSPost2010PropOp32
 70
     1
102
RTVSPost2010Prop33
280
     0
102
RTVSPost2010PropOp33
 70
     1
102
RTVSPost2010Prop34
280
     0
102
RTVSPost2010PropOp34
 70
     1
102
RTVSPost2010Prop35
280
     0
102
RTVSPost2010PropOp35
 70
     1
102
RTVSPost2010Prop36
280
     0
102
RTVSPost2010PropOp36
 70
     1
102
RTVSPost2010Prop37
 90
       50
102
RTVSPost2010PropOp37
 70
     1
102
RTVSPost2010Prop38
140
0.0
102
RTVSPost2010PropOp38
 70
     1
102
RTVSPost2010Prop39
140
1.0
102
RTVSPost2010PropOp39
 70
     1
102
RTVSPost2010Prop40
 90
        0
102
RTVSPost2010PropOp40
 70
     1
102
RTVSPost2010Prop41ColorIndex
 90
       18
102
RTVSPost2010Prop41ColorRGB
 90
        0
102
RTVSPost2010PropOp41
 70
     1
102
RTVSPost2010Prop42
 90
       50
102
RTVSPost2010PropOp42
 70
     1
102
RTVSPost2010Prop43
 90
        3
102
RTVSPost2010PropOp43
 70
     1
102
RTVSPost2010Prop44ColorIndex
 90
        5
102
RTVSPost2010Prop44ColorRGB
 90
      255
102
RTVSPost2010PropOp44
 70
     1
102
RTVSPost2010Prop45
280
     0
102
RTVSPost2010PropOp45
 70
     1
102
RTVSPost2010Prop46
 90
       50
102
RTVSPost2010PropOp46
 70
     1
102
RTVSPost2010Prop47
 90
       50
102
RTVSPost2010PropOp47
 70
     1
102
RTVSPost2010Prop48
 90
       50
102
RTVSPost2010PropOp48
 70
     1
102
RTVSPost2010Prop49
280
     0
102
RTVSPost2010PropOp49
 70
     1
102
RTVSPost2010Prop50
 90
       50
102
RTVSPost2010PropOp50
 70
     1
102
RTVSPost2010Prop51ColorIndex
 90
      256
102
RTVSPost2010Prop51ColorRGB
 90
-16777216
102
RTVSPost2010PropOp51
 70
     0
102
RTVSPost2010Prop52
140
1.0
102
RTVSPost2010PropOp52
 70
     0
102
RTVSPost2010Prop53
 90
        2
102
RTVSPost2010PropOp53
 70
     1
102
RTVSPost2010Prop54
  1
strokes_ogs.tif
102
RTVSPost2010PropOp54
 70
     1
102
RTVSPost2010Prop55
280
     0
102
RTVSPost2010PropOp55
 70
     1
102
RTVSPost2010Prop56
140
1.0
102
RTVSPost2010PropOp56
 70
     1
102
RTVSPost2010Prop57
140
1.0
102
RTVSPost2010PropOp57
 70
     1
102
RTVSPropertyOp0
 70
     1
102
RTVSPropertyOp1
 70
     1
102
RTVSPropertyOp2
 70
     1
102
RTVSPropertyOp3
 70
     1
102
RTVSPropertyOp4
 70
     1
102
RTVSPropertyOp5
 70
     1
102
RTVSPropertyOp6
 70
     1
102
RTVSPropertyOp7
 70
     1
102
RTVSPropertyOp8
 70
     1
102
RTVSPropertyOp9
 70
     1
102
RTVSPropertyOp10
 70
     1
102
RTVSPropertyOp11
 70
     1
102
RTVSPropertyOp12
 70
     1
102
RTVSPropertyOp13
 70
     1
102
RTVSPropertyOp14
 70
     1
102
RTVSPropertyOp15
 70
     1
102
RTVSPropertyOp16
 70
     1
102
RTVSPropertyOp17
 70
     1
102
RTVSPropertyOp18
 70
     1
102
RTVSPropertyOp19
 70
     1
102
RTVSPropertyOp20
 70
     1
102
RTVSPropertyOp21
 70
     1
102
RTVSPropertyOp22
 70
     1
102
RTVSPropertyOp23
 70
     1
102
RTVSPropertyOp24
 70
     1
102
RTVSPropertyOp25
 70
     1
102
RTVSPropertyOp26
 70
     1
102
RTVSPropertyOp27
 70
     1
102
RTVSPropertyOp28
 70
     1
102
RTVSPropertyOp29
 70
     1
102
RTVSPropertyOp30
 70
     1
102
RTVSPropertyOp31
 70
     1
102
RTVSPropertyOp32
 70
     1
102
RTVSPropertyOp33
 70
     1
102
RTVSPropertyOp34
 70
     1
102
RTVSPropertyOp35
 70
     1
102
RTVSPropertyOp36
 70
     1
102
RTVSPropertyOp37
 70
     1
102
RTVSPropertyOp38
 70
     1
102
RTVSPropertyOp39
 70
     1
102
RTVSPropertyOp40
 70
     1
102
RTVSPropertyOp41
 70
     1
102
RTVSPropertyOp42
 70
     1
102
RTVSPropertyOp43
 70
     1
102
RTVSPropertyOp44
 70
     1
102
RTVSPropertyOp45
 70
     1
102
RTVSPropertyOp46
 70
     1
102
RTVSPropertyOp47
 70
     1
102
RTVSPropertyOp48
 70
     1
102
RTVSPropertyOp49
 70
     1
102
RTVSPropertyOp50
 70
     1
102
RTVSPropertyOp51
 70
     0
102
RTVSPropertyOp52
 70
     0
102
RTVSPropertyOp53
 70
     1
102
RTVSPropertyOp54
 70
     1
102
RTVSPropertyOp55
 70
     1
102
RTVSPropertyOp56
 70
     1
102
RTVSPropertyOp57
 70
     1
102
RTVSPropertyOp58
 70
     1
102
RTVSPropertyOp59
 70
     1
102
RTVSPropertyOp60
 70
     1
102
RTVSPropertyOp61
 70
     1
102
RTVSPropertyOp62
 70
     1
  0
XRECORD
  5
16C
102
{ACAD_REACTORS
330
16B
102
}
330
16B
100
AcDbXrecord
280
     1
102
RTVSPost2010Prop28
280
     0
102
RTVSPost2010PropOp28
 70
     1
102
RTVSPost2010Prop29
280
     1
102
RTVSPost2010PropOp29
 70
     1
102
RTVSPost2010Prop30
280
     1
102
RTVSPost2010PropOp30
 70
     1
102
RTVSPost2010Prop31
280
     0
102
RTVSPost2010PropOp31
 70
     1
102
RTVSPost2010Prop32
280
     0
102
RTVSPost2010PropOp32
 70
     1
102
RTVSPost2010Prop33
280
     0
102
RTVSPost2010PropOp33
 70
     1
102
RTVSPost2010Prop34
280
     0
102
RTVSPost2010PropOp34
 70
     1
102
RTVSPost2010Prop35
280
     0
102
RTVSPost2010PropOp35
 70
     1
102
RTVSPost2010Prop36
280
     0
102
RTVSPost2010PropOp36
 70
     1
102
RTVSPost2010Prop37
 90
       50
102
RTVSPost2010PropOp37
 70
     1
102
RTVSPost2010Prop38
140
0.0
102
RTVSPost2010PropOp38
 70
     1
102
RTVSPost2010Prop39
140
1.0
102
RTVSPost2010PropOp39
 70
     1
102
RTVSPost2010Prop40
 90
        0
102
RTVSPost2010PropOp40
 70
     1
102
RTVSPost2010Prop41ColorIndex
 90
       18
102
RTVSPost2010Prop41ColorRGB
 90
        0
102
RTVSPost2010PropOp41
 70
     1
102
RTVSPost2010Prop42
 90
       50
102
RTVSPost2010PropOp42
 70
     1
102
RTVSPost2010Prop43
 90
        3
102
RTVSPost2010PropOp43
 70
     1
102
RTVSPost2010Prop44ColorIndex
 90
        5
102
RTVSPost2010Prop44ColorRGB
 90
      255
102
RTVSPost2010PropOp44
 70
     1
102
RTVSPost2010Prop45
280
     0
102
RTVSPost2010PropOp45
 70
     1
102
RTVSPost2010Prop46
 90
       50
102
RTVSPost2010PropOp46
 70
     1
102
RTVSPost2010Prop47
 90
       50
102
RTVSPost2010PropOp47
 70
     1
102
RTVSPost2010Prop48
 90
       50
102
RTVSPost2010PropOp48
 70
     1
102
RTVSPost2010Prop49
280
     0
102
RTVSPost2010PropOp49
 70
     1
102
RTVSPost2010Prop50
 90
       50
102
RTVSPost2010PropOp50
 70
     1
102
RTVSPost2010Prop51ColorIndex
 90
      256
102
RTVSPost2010Prop51ColorRGB
 90
-16777216
102
RTVSPost2010PropOp51
 70
     0
102
RTVSPost2010Prop52
140
1.0
102
RTVSPost2010PropOp52
 70
     0
102
RTVSPost2010Prop53
 90
        2
102
RTVSPost2010PropOp53
 70
     1
102
RTVSPost2010Prop54
  1
strokes_ogs.tif
102
RTVSPost2010PropOp54
 70
     1
102
RTVSPost2010Prop55
280
     0
102
RTVSPost2010PropOp55
 70
     1
102
RTVSPost2010Prop56
140
1.0
102
RTVSPost2010PropOp56
 70
     1
102
RTVSPost2010Prop57
140
1.0
102
RTVSPost2010PropOp57
 70
     1
102
RTVSPropertyOp0
 70
     1
102
RTVSPropertyOp1
 70
     1
102
RTVSPropertyOp2
 70
     1
102
RTVSPropertyOp3
 70
     1
102
RTVSPropertyOp4
 70
     1
102
RTVSPropertyOp5
 70
     1
102
RTVSPropertyOp6
 70
     1
102
RTVSPropertyOp7
 70
     1
102
RTVSPropertyOp8
 70
     1
102
RTVSPropertyOp9
 70
     1
102
RTVSPropertyOp10
 70
     1
102
RTVSPropertyOp11
 70
     1
102
RTVSPropertyOp12
 70
     1
102
RTVSPropertyOp13
 70
     1
102
RTVSPropertyOp14
 70
     1
102
RTVSPropertyOp15
 70
     1
102
RTVSPropertyOp16
 70
     1
102
RTVSPropertyOp17
 70
     1
102
RTVSPropertyOp18
 70
     1
102
RTVSPropertyOp19
 70
     1
102
RTVSPropertyOp20
 70
     1
102
RTVSPropertyOp21
 70
     1
102
RTVSPropertyOp22
 70
     1
102
RTVSPropertyOp23
 70
     1
102
RTVSPropertyOp24
 70
     1
102
RTVSPropertyOp25
 70
     1
102
RTVSPropertyOp26
 70
     1
102
RTVSPropertyOp27
 70
     1
102
RTVSPropertyOp28
 70
     1
102
RTVSPropertyOp29
 70
     1
102
RTVSPropertyOp30
 70
     1
102
RTVSPropertyOp31
 70
     1
102
RTVSPropertyOp32
 70
     1
102
RTVSPropertyOp33
 70
     1
102
RTVSPropertyOp34
 70
     1
102
RTVSPropertyOp35
 70
     1
102
RTVSPropertyOp36
 70
     1
102
RTVSPropertyOp37
 70
     1
102
RTVSPropertyOp38
 70
     1
102
RTVSPropertyOp39
 70
     1
102
RTVSPropertyOp40
 70
     1
102
RTVSPropertyOp41
 70
     1
102
RTVSPropertyOp42
 70
     1
102
RTVSPropertyOp43
 70
     1
102
RTVSPropertyOp44
 70
     1
102
RTVSPropertyOp45
 70
     1
102
RTVSPropertyOp46
 70
     1
102
RTVSPropertyOp47
 70
     1
102
RTVSPropertyOp48
 70
     1
102
RTVSPropertyOp49
 70
     1
102
RTVSPropertyOp50
 70
     1
102
RTVSPropertyOp51
 70
     0
102
RTVSPropertyOp52
 70
     0
102
RTVSPropertyOp53
 70
     1
102
RTVSPropertyOp54
 70
     1
102
RTVSPropertyOp55
 70
     1
102
RTVSPropertyOp56
 70
     1
102
RTVSPropertyOp57
 70
     1
102
RTVSPropertyOp58
 70
     1
102
RTVSPropertyOp59
 70
     1
102
RTVSPropertyOp60
 70
     1
102
RTVSPropertyOp61
 70
     1
102
RTVSPropertyOp62
 70
     1
  0
XRECORD
  5
174
102
{ACAD_REACTORS
330
173
102
}
330
173
100
AcDbXrecord
280
     1
102
RTVSPost2010Prop28
280
     0
102
RTVSPost2010PropOp28
 70
     1
102
RTVSPost2010Prop29
280
     1
102
RTVSPost2010PropOp29
 70
     1
102
RTVSPost2010Prop30
280
     1
102
RTVSPost2010PropOp30
 70
     1
102
RTVSPost2010Prop31
280
     0
102
RTVSPost2010PropOp31
 70
     1
102
RTVSPost2010Prop32
280
     0
102
RTVSPost2010PropOp32
 70
     1
102
RTVSPost2010Prop33
280
     0
102
RTVSPost2010PropOp33
 70
     1
102
RTVSPost2010Prop34
280
     0
102
RTVSPost2010PropOp34
 70
     1
102
RTVSPost2010Prop35
280
     0
102
RTVSPost2010PropOp35
 70
     1
102
RTVSPost2010Prop36
280
     0
102
RTVSPost2010PropOp36
 70
     1
102
RTVSPost2010Prop37
 90
       50
102
RTVSPost2010PropOp37
 70
     1
102
RTVSPost2010Prop38
140
0.0
102
RTVSPost2010PropOp38
 70
     1
102
RTVSPost2010Prop39
140
1.0
102
RTVSPost2010PropOp39
 70
     1
102
RTVSPost2010Prop40
 90
        0
102
RTVSPost2010PropOp40
 70
     1
102
RTVSPost2010Prop41ColorIndex
 90
       18
102
RTVSPost2010Prop41ColorRGB
 90
        0
102
RTVSPost2010PropOp41
 70
     1
102
RTVSPost2010Prop42
 90
       50
102
RTVSPost2010PropOp42
 70
     1
102
RTVSPost2010Prop43
 90
        3
102
RTVSPost2010PropOp43
 70
     1
102
RTVSPost2010Prop44ColorIndex
 90
        5
102
RTVSPost2010Prop44ColorRGB
 90
      255
102
RTVSPost2010PropOp44
 70
     1
102
RTVSPost2010Prop45
280
     0
102
RTVSPost2010PropOp45
 70
     1
102
RTVSPost2010Prop46
 90
       50
102
RTVSPost2010PropOp46
 70
     1
102
RTVSPost2010Prop47
 90
       50
102
RTVSPost2010PropOp47
 70
     1
102
RTVSPost2010Prop48
 90
       50
102
RTVSPost2010PropOp48
 70
     1
102
RTVSPost2010Prop49
280
     0
102
RTVSPost2010PropOp49
 70
     1
102
RTVSPost2010Prop50
 90
       50
102
RTVSPost2010PropOp50
 70
     1
102
RTVSPost2010Prop51ColorIndex
 90
      256
102
RTVSPost2010Prop51ColorRGB
 90
-16777216
102
RTVSPost2010PropOp51
 70
     0
102
RTVSPost2010Prop52
140
1.0
102
RTVSPost2010PropOp52
 70
     0
102
RTVSPost2010Prop53
 90
        2
102
RTVSPost2010PropOp53
 70
     1
102
RTVSPost2010Prop54
  1
strokes_ogs.tif
102
RTVSPost2010PropOp54
 70
     1
102
RTVSPost2010Prop55
280
     0
102
RTVSPost2010PropOp55
 70
     1
102
RTVSPost2010Prop56
140
1.0
102
RTVSPost2010PropOp56
 70
     1
102
RTVSPost2010Prop57
140
1.0
102
RTVSPost2010PropOp57
 70
     1
102
RTVSPropertyOp0
 70
     1
102
RTVSPropertyOp1
 70
     1
102
RTVSPropertyOp2
 70
     1
102
RTVSPropertyOp3
 70
     1
102
RTVSPropertyOp4
 70
     1
102
RTVSPropertyOp5
 70
     1
102
RTVSPropertyOp6
 70
     1
102
RTVSPropertyOp7
 70
     1
102
RTVSPropertyOp8
 70
     1
102
RTVSPropertyOp9
 70
     1
102
RTVSPropertyOp10
 70
     1
102
RTVSPropertyOp11
 70
     1
102
RTVSPropertyOp12
 70
     1
102
RTVSPropertyOp13
 70
     1
102
RTVSPropertyOp14
 70
     1
102
RTVSPropertyOp15
 70
     1
102
RTVSPropertyOp16
 70
     1
102
RTVSPropertyOp17
 70
     1
102
RTVSPropertyOp18
 70
     1
102
RTVSPropertyOp19
 70
     1
102
RTVSPropertyOp20
 70
     1
102
RTVSPropertyOp21
 70
     1
102
RTVSPropertyOp22
 70
     1
102
RTVSPropertyOp23
 70
     1
102
RTVSPropertyOp24
 70
     1
102
RTVSPropertyOp25
 70
     1
102
RTVSPropertyOp26
 70
     1
102
RTVSPropertyOp27
 70
     1
102
RTVSPropertyOp28
 70
     1
102
RTVSPropertyOp29
 70
     1
102
RTVSPropertyOp30
 70
     1
102
RTVSPropertyOp31
 70
     1
102
RTVSPropertyOp32
 70
     1
102
RTVSPropertyOp33
 70
     1
102
RTVSPropertyOp34
 70
     1
102
RTVSPropertyOp35
 70
     1
102
RTVSPropertyOp36
 70
     1
102
RTVSPropertyOp37
 70
     1
102
RTVSPropertyOp38
 70
     1
102
RTVSPropertyOp39
 70
     1
102
RTVSPropertyOp40
 70
     1
102
RTVSPropertyOp41
 70
     1
102
RTVSPropertyOp42
 70
     1
102
RTVSPropertyOp43
 70
     1
102
RTVSPropertyOp44
 70
     1
102
RTVSPropertyOp45
 70
     1
102
RTVSPropertyOp46
 70
     1
102
RTVSPropertyOp47
 70
     1
102
RTVSPropertyOp48
 70
     1
102
RTVSPropertyOp49
 70
     1
102
RTVSPropertyOp50
 70
     1
102
RTVSPropertyOp51
 70
     0
102
RTVSPropertyOp52
 70
     0
102
RTVSPropertyOp53
 70
     1
102
RTVSPropertyOp54
 70
     1
102
RTVSPropertyOp55
 70
     1
102
RTVSPropertyOp56
 70
     1
102
RTVSPropertyOp57
 70
     1
102
RTVSPropertyOp58
 70
     1
102
RTVSPropertyOp59
 70
     1
102
RTVSPropertyOp60
 70
     1
102
RTVSPropertyOp61
 70
     1
102
RTVSPropertyOp62
 70
     1
  0
XRECORD
  5
166
102
{ACAD_REACTORS
330
165
102
}
330
165
100
AcDbXrecord
280
     1
102
RTVSPost2010Prop28
280
     0
102
RTVSPost2010PropOp28
 70
     1
102
RTVSPost2010Prop29
280
     1
102
RTVSPost2010PropOp29
 70
     1
102
RTVSPost2010Prop30
280
     1
102
RTVSPost2010PropOp30
 70
     1
102
RTVSPost2010Prop31
280
     0
102
RTVSPost2010PropOp31
 70
     1
102
RTVSPost2010Prop32
280
     0
102
RTVSPost2010PropOp32
 70
     1
102
RTVSPost2010Prop33
280
     0
102
RTVSPost2010PropOp33
 70
     1
102
RTVSPost2010Prop34
280
     0
102
RTVSPost2010PropOp34
 70
     1
102
RTVSPost2010Prop35
280
     0
102
RTVSPost2010PropOp35
 70
     1
102
RTVSPost2010Prop36
280
     0
102
RTVSPost2010PropOp36
 70
     1
102
RTVSPost2010Prop37
 90
       50
102
RTVSPost2010PropOp37
 70
     1
102
RTVSPost2010Prop38
140
0.0
102
RTVSPost2010PropOp38
 70
     1
102
RTVSPost2010Prop39
140
1.0
102
RTVSPost2010PropOp39
 70
     1
102
RTVSPost2010Prop40
 90
        0
102
RTVSPost2010PropOp40
 70
     1
102
RTVSPost2010Prop41ColorIndex
 90
       18
102
RTVSPost2010Prop41ColorRGB
 90
        0
102
RTVSPost2010PropOp41
 70
     1
102
RTVSPost2010Prop42
 90
       50
102
RTVSPost2010PropOp42
 70
     1
102
RTVSPost2010Prop43
 90
        3
102
RTVSPost2010PropOp43
 70
     1
102
RTVSPost2010Prop44ColorIndex
 90
        5
102
RTVSPost2010Prop44ColorRGB
 90
      255
102
RTVSPost2010PropOp44
 70
     1
102
RTVSPost2010Prop45
280
     0
102
RTVSPost2010PropOp45
 70
     1
102
RTVSPost2010Prop46
 90
       50
102
RTVSPost2010PropOp46
 70
     1
102
RTVSPost2010Prop47
 90
       50
102
RTVSPost2010PropOp47
 70
     1
102
RTVSPost2010Prop48
 90
       50
102
RTVSPost2010PropOp48
 70
     1
102
RTVSPost2010Prop49
280
     0
102
RTVSPost2010PropOp49
 70
     1
102
RTVSPost2010Prop50
 90
       50
102
RTVSPost2010PropOp50
 70
     1
102
RTVSPost2010Prop51ColorIndex
 90
      256
102
RTVSPost2010Prop51ColorRGB
 90
-16777216
102
RTVSPost2010PropOp51
 70
     0
102
RTVSPost2010Prop52
140
1.0
102
RTVSPost2010PropOp52
 70
     0
102
RTVSPost2010Prop53
 90
        2
102
RTVSPost2010PropOp53
 70
     1
102
RTVSPost2010Prop54
  1
strokes_ogs.tif
102
RTVSPost2010PropOp54
 70
     1
102
RTVSPost2010Prop55
280
     0
102
RTVSPost2010PropOp55
 70
     1
102
RTVSPost2010Prop56
140
1.0
102
RTVSPost2010PropOp56
 70
     1
102
RTVSPost2010Prop57
140
1.0
102
RTVSPost2010PropOp57
 70
     1
102
RTVSPropertyOp0
 70
     1
102
RTVSPropertyOp1
 70
     1
102
RTVSPropertyOp2
 70
     1
102
RTVSPropertyOp3
 70
     1
102
RTVSPropertyOp4
 70
     1
102
RTVSPropertyOp5
 70
     1
102
RTVSPropertyOp6
 70
     1
102
RTVSPropertyOp7
 70
     1
102
RTVSPropertyOp8
 70
     1
102
RTVSPropertyOp9
 70
     1
102
RTVSPropertyOp10
 70
     1
102
RTVSPropertyOp11
 70
     1
102
RTVSPropertyOp12
 70
     1
102
RTVSPropertyOp13
 70
     1
102
RTVSPropertyOp14
 70
     1
102
RTVSPropertyOp15
 70
     1
102
RTVSPropertyOp16
 70
     1
102
RTVSPropertyOp17
 70
     1
102
RTVSPropertyOp18
 70
     1
102
RTVSPropertyOp19
 70
     1
102
RTVSPropertyOp20
 70
     1
102
RTVSPropertyOp21
 70
     1
102
RTVSPropertyOp22
 70
     1
102
RTVSPropertyOp23
 70
     1
102
RTVSPropertyOp24
 70
     1
102
RTVSPropertyOp25
 70
     1
102
RTVSPropertyOp26
 70
     1
102
RTVSPropertyOp27
 70
     1
102
RTVSPropertyOp28
 70
     1
102
RTVSPropertyOp29
 70
     1
102
RTVSPropertyOp30
 70
     1
102
RTVSPropertyOp31
 70
     1
102
RTVSPropertyOp32
 70
     1
102
RTVSPropertyOp33
 70
     1
102
RTVSPropertyOp34
 70
     1
102
RTVSPropertyOp35
 70
     1
102
RTVSPropertyOp36
 70
     1
102
RTVSPropertyOp37
 70
     1
102
RTVSPropertyOp38
 70
     1
102
RTVSPropertyOp39
 70
     1
102
RTVSPropertyOp40
 70
     1
102
RTVSPropertyOp41
 70
     1
102
RTVSPropertyOp42
 70
     1
102
RTVSPropertyOp43
 70
     1
102
RTVSPropertyOp44
 70
     1
102
RTVSPropertyOp45
 70
     1
102
RTVSPropertyOp46
 70
     1
102
RTVSPropertyOp47
 70
     1
102
RTVSPropertyOp48
 70
     1
102
RTVSPropertyOp49
 70
     1
102
RTVSPropertyOp50
 70
     1
102
RTVSPropertyOp51
 70
     0
102
RTVSPropertyOp52
 70
     0
102
RTVSPropertyOp53
 70
     1
102
RTVSPropertyOp54
 70
     1
102
RTVSPropertyOp55
 70
     1
102
RTVSPropertyOp56
 70
     1
102
RTVSPropertyOp57
 70
     1
102
RTVSPropertyOp58
 70
     1
102
RTVSPropertyOp59
 70
     1
102
RTVSPropertyOp60
 70
     1
102
RTVSPropertyOp61
 70
     1
102
RTVSPropertyOp62
 70
     1
  0
XRECORD
  5
16A
102
{ACAD_REACTORS
330
169
102
}
330
169
100
AcDbXrecord
280
     1
102
RTVSPost2010Prop28
280
     0
102
RTVSPost2010PropOp28
 70
     1
102
RTVSPost2010Prop29
280
     1
102
RTVSPost2010PropOp29
 70
     1
102
RTVSPost2010Prop30
280
     1
102
RTVSPost2010PropOp30
 70
     1
102
RTVSPost2010Prop31
280
     0
102
RTVSPost2010PropOp31
 70
     1
102
RTVSPost2010Prop32
280
     0
102
RTVSPost2010PropOp32
 70
     1
102
RTVSPost2010Prop33
280
     0
102
RTVSPost2010PropOp33
 70
     1
102
RTVSPost2010Prop34
280
     0
102
RTVSPost2010PropOp34
 70
     1
102
RTVSPost2010Prop35
280
     0
102
RTVSPost2010PropOp35
 70
     1
102
RTVSPost2010Prop36
280
     0
102
RTVSPost2010PropOp36
 70
     1
102
RTVSPost2010Prop37
 90
       50
102
RTVSPost2010PropOp37
 70
     1
102
RTVSPost2010Prop38
140
0.0
102
RTVSPost2010PropOp38
 70
     1
102
RTVSPost2010Prop39
140
1.0
102
RTVSPost2010PropOp39
 70
     1
102
RTVSPost2010Prop40
 90
        0
102
RTVSPost2010PropOp40
 70
     1
102
RTVSPost2010Prop41ColorIndex
 90
       18
102
RTVSPost2010Prop41ColorRGB
 90
        0
102
RTVSPost2010PropOp41
 70
     1
102
RTVSPost2010Prop42
 90
       50
102
RTVSPost2010PropOp42
 70
     1
102
RTVSPost2010Prop43
 90
        3
102
RTVSPost2010PropOp43
 70
     1
102
RTVSPost2010Prop44ColorIndex
 90
        5
102
RTVSPost2010Prop44ColorRGB
 90
      255
102
RTVSPost2010PropOp44
 70
     1
102
RTVSPost2010Prop45
280
     0
102
RTVSPost2010PropOp45
 70
     1
102
RTVSPost2010Prop46
 90
       50
102
RTVSPost2010PropOp46
 70
     1
102
RTVSPost2010Prop47
 90
       50
102
RTVSPost2010PropOp47
 70
     1
102
RTVSPost2010Prop48
 90
       50
102
RTVSPost2010PropOp48
 70
     1
102
RTVSPost2010Prop49
280
     0
102
RTVSPost2010PropOp49
 70
     1
102
RTVSPost2010Prop50
 90
       50
102
RTVSPost2010PropOp50
 70
     1
102
RTVSPost2010Prop51ColorIndex
 90
      256
102
RTVSPost2010Prop51ColorRGB
 90
-16777216
102
RTVSPost2010PropOp51
 70
     0
102
RTVSPost2010Prop52
140
1.0
102
RTVSPost2010PropOp52
 70
     0
102
RTVSPost2010Prop53
 90
        2
102
RTVSPost2010PropOp53
 70
     1
102
RTVSPost2010Prop54
  1
strokes_ogs.tif
102
RTVSPost2010PropOp54
 70
     1
102
RTVSPost2010Prop55
280
     0
102
RTVSPost2010PropOp55
 70
     1
102
RTVSPost2010Prop56
140
1.0
102
RTVSPost2010PropOp56
 70
     1
102
RTVSPost2010Prop57
140
1.0
102
RTVSPost2010PropOp57
 70
     1
102
RTVSPropertyOp0
 70
     1
102
RTVSPropertyOp1
 70
     1
102
RTVSPropertyOp2
 70
     1
102
RTVSPropertyOp3
 70
     1
102
RTVSPropertyOp4
 70
     1
102
RTVSPropertyOp5
 70
     1
102
RTVSPropertyOp6
 70
     1
102
RTVSPropertyOp7
 70
     1
102
RTVSPropertyOp8
 70
     1
102
RTVSPropertyOp9
 70
     1
102
RTVSPropertyOp10
 70
     1
102
RTVSPropertyOp11
 70
     1
102
RTVSPropertyOp12
 70
     1
102
RTVSPropertyOp13
 70
     1
102
RTVSPropertyOp14
 70
     1
102
RTVSPropertyOp15
 70
     1
102
RTVSPropertyOp16
 70
     1
102
RTVSPropertyOp17
 70
     1
102
RTVSPropertyOp18
 70
     1
102
RTVSPropertyOp19
 70
     1
102
RTVSPropertyOp20
 70
     1
102
RTVSPropertyOp21
 70
     1
102
RTVSPropertyOp22
 70
     1
102
RTVSPropertyOp23
 70
     1
102
RTVSPropertyOp24
 70
     1
102
RTVSPropertyOp25
 70
     1
102
RTVSPropertyOp26
 70
     1
102
RTVSPropertyOp27
 70
     1
102
RTVSPropertyOp28
 70
     1
102
RTVSPropertyOp29
 70
     1
102
RTVSPropertyOp30
 70
     1
102
RTVSPropertyOp31
 70
     1
102
RTVSPropertyOp32
 70
     1
102
RTVSPropertyOp33
 70
     1
102
RTVSPropertyOp34
 70
     1
102
RTVSPropertyOp35
 70
     1
102
RTVSPropertyOp36
 70
     1
102
RTVSPropertyOp37
 70
     1
102
RTVSPropertyOp38
 70
     1
102
RTVSPropertyOp39
 70
     1
102
RTVSPropertyOp40
 70
     1
102
RTVSPropertyOp41
 70
     1
102
RTVSPropertyOp42
 70
     1
102
RTVSPropertyOp43
 70
     1
102
RTVSPropertyOp44
 70
     1
102
RTVSPropertyOp45
 70
     1
102
RTVSPropertyOp46
 70
     1
102
RTVSPropertyOp47
 70
     1
102
RTVSPropertyOp48
 70
     1
102
RTVSPropertyOp49
 70
     1
102
RTVSPropertyOp50
 70
     1
102
RTVSPropertyOp51
 70
     0
102
RTVSPropertyOp52
 70
     0
102
RTVSPropertyOp53
 70
     1
102
RTVSPropertyOp54
 70
     1
102
RTVSPropertyOp55
 70
     1
102
RTVSPropertyOp56
 70
     1
102
RTVSPropertyOp57
 70
     1
102
RTVSPropertyOp58
 70
     1
102
RTVSPropertyOp59
 70
     1
102
RTVSPropertyOp60
 70
     1
102
RTVSPropertyOp61
 70
     1
102
RTVSPropertyOp62
 70
     1
  0
XRECORD
  5
184
102
{ACAD_REACTORS
330
183
102
}
330
183
100
AcDbXrecord
280
     1
102
RTVSPost2010Prop28
280
     0
102
RTVSPost2010PropOp28
 70
     0
102
RTVSPost2010Prop29
280
     1
102
RTVSPost2010PropOp29
 70
     0
102
RTVSPost2010Prop30
280
     1
102
RTVSPost2010PropOp30
 70
     0
102
RTVSPost2010Prop31
280
     0
102
RTVSPost2010PropOp31
 70
     0
102
RTVSPost2010Prop32
280
     0
102
RTVSPost2010PropOp32
 70
     0
102
RTVSPost2010Prop33
280
     0
102
RTVSPost2010PropOp33
 70
     0
102
RTVSPost2010Prop34
280
     0
102
RTVSPost2010PropOp34
 70
     0
102
RTVSPost2010Prop35
280
     0
102
RTVSPost2010PropOp35
 70
     0
102
RTVSPost2010Prop36
280
     0
102
RTVSPost2010PropOp36
 70
     0
102
RTVSPost2010Prop37
 90
       50
102
RTVSPost2010PropOp37
 70
     0
102
RTVSPost2010Prop38
140
0.0
102
RTVSPost2010PropOp38
 70
     0
102
RTVSPost2010Prop39
140
1.0
102
RTVSPost2010PropOp39
 70
     0
102
RTVSPost2010Prop40
 90
        0
102
RTVSPost2010PropOp40
 70
     0
102
RTVSPost2010Prop41ColorIndex
 90
       18
102
RTVSPost2010Prop41ColorRGB
 90
        0
102
RTVSPost2010PropOp41
 70
     0
102
RTVSPost2010Prop42
 90
       50
102
RTVSPost2010PropOp42
 70
     0
102
RTVSPost2010Prop43
 90
        3
102
RTVSPost2010PropOp43
 70
     0
102
RTVSPost2010Prop44ColorIndex
 90
        5
102
RTVSPost2010Prop44ColorRGB
 90
      255
102
RTVSPost2010PropOp44
 70
     0
102
RTVSPost2010Prop45
280
     0
102
RTVSPost2010PropOp45
 70
     0
102
RTVSPost2010Prop46
 90
       50
102
RTVSPost2010PropOp46
 70
     0
102
RTVSPost2010Prop47
 90
       50
102
RTVSPost2010PropOp47
 70
     0
102
RTVSPost2010Prop48
 90
       50
102
RTVSPost2010PropOp48
 70
     0
102
RTVSPost2010Prop49
280
     0
102
RTVSPost2010PropOp49
 70
     0
102
RTVSPost2010Prop50
 90
       50
102
RTVSPost2010PropOp50
 70
     0
102
RTVSPost2010Prop51ColorIndex
 90
      256
102
RTVSPost2010Prop51ColorRGB
 90
-16777216
102
RTVSPost2010PropOp51
 70
     0
102
RTVSPost2010Prop52
140
1.0
102
RTVSPost2010PropOp52
 70
     0
102
RTVSPost2010Prop53
 90
        2
102
RTVSPost2010PropOp53
 70
     0
102
RTVSPost2010Prop54
  1
strokes_ogs.tif
102
RTVSPost2010PropOp54
 70
     0
102
RTVSPost2010Prop55
280
     0
102
RTVSPost2010PropOp55
 70
     0
102
RTVSPost2010Prop56
140
1.0
102
RTVSPost2010PropOp56
 70
     0
102
RTVSPost2010Prop57
140
1.0
102
RTVSPost2010PropOp57
 70
     0
102
RTVSPropertyOp0
 70
     0
102
RTVSPropertyOp1
 70
     0
102
RTVSPropertyOp2
 70
     0
102
RTVSPropertyOp3
 70
     0
102
RTVSPropertyOp4
 70
     0
102
RTVSPropertyOp5
 70
     0
102
RTVSPropertyOp6
 70
     0
102
RTVSPropertyOp7
 70
     0
102
RTVSPropertyOp8
 70
     0
102
RTVSPropertyOp9
 70
     0
102
RTVSPropertyOp10
 70
     0
102
RTVSPropertyOp11
 70
     0
102
RTVSPropertyOp12
 70
     0
102
RTVSPropertyOp13
 70
     0
102
RTVSPropertyOp14
 70
     2
102
RTVSPropertyOp15
 70
     0
102
RTVSPropertyOp16
 70
     0
102
RTVSPropertyOp17
 70
     0
102
RTVSPropertyOp18
 70
     0
102
RTVSPropertyOp19
 70
     0
102
RTVSPropertyOp20
 70
     0
102
RTVSPropertyOp21
 70
     0
102
RTVSPropertyOp22
 70
     0
102
RTVSPropertyOp23
 70
     0
102
RTVSPropertyOp24
 70
     0
102
RTVSPropertyOp25
 70
     0
102
RTVSPropertyOp26
 70
     0
102
RTVSPropertyOp27
 70
     0
102
RTVSPropertyOp28
 70
     0
102
RTVSPropertyOp29
 70
     0
102
RTVSPropertyOp30
 70
     0
102
RTVSPropertyOp31
 70
     0
102
RTVSPropertyOp32
 70
     0
102
RTVSPropertyOp33
 70
     0
102
RTVSPropertyOp34
 70
     0
102
RTVSPropertyOp35
 70
     0
102
RTVSPropertyOp36
 70
     0
102
RTVSPropertyOp37
 70
     0
102
RTVSPropertyOp38
 70
     0
102
RTVSPropertyOp39
 70
     0
102
RTVSPropertyOp40
 70
     0
102
RTVSPropertyOp41
 70
     0
102
RTVSPropertyOp42
 70
     0
102
RTVSPropertyOp43
 70
     0
102
RTVSPropertyOp44
 70
     0
102
RTVSPropertyOp45
 70
     0
102
RTVSPropertyOp46
 70
     0
102
RTVSPropertyOp47
 70
     0
102
RTVSPropertyOp48
 70
     0
102
RTVSPropertyOp49
 70
     0
102
RTVSPropertyOp50
 70
     0
102
RTVSPropertyOp51
 70
     0
102
RTVSPropertyOp52
 70
     0
102
RTVSPropertyOp53
 70
     0
102
RTVSPropertyOp54
 70
     0
102
RTVSPropertyOp55
 70
     0
102
RTVSPropertyOp56
 70
     0
102
RTVSPropertyOp57
 70
     0
102
RTVSPropertyOp58
 70
     1
102
RTVSPropertyOp59
 70
     1
102
RTVSPropertyOp60
 70
     1
102
RTVSPropertyOp61
 70
     1
102
RTVSPropertyOp62
 70
     1
  0
XRECORD
  5
172
102
{ACAD_REACTORS
330
171
102
}
330
171
100
AcDbXrecord
280
     1
102
RTVSPost2010Prop28
280
     0
102
RTVSPost2010PropOp28
 70
     1
102
RTVSPost2010Prop29
280
     1
102
RTVSPost2010PropOp29
 70
     1
102
RTVSPost2010Prop30
280
     1
102
RTVSPost2010PropOp30
 70
     1
102
RTVSPost2010Prop31
280
     0
102
RTVSPost2010PropOp31
 70
     1
102
RTVSPost2010Prop32
280
     0
102
RTVSPost2010PropOp32
 70
     1
102
RTVSPost2010Prop33
280
     0
102
RTVSPost2010PropOp33
 70
     1
102
RTVSPost2010Prop34
280
     0
102
RTVSPost2010PropOp34
 70
     1
102
RTVSPost2010Prop35
280
     0
102
RTVSPost2010PropOp35
 70
     1
102
RTVSPost2010Prop36
280
     0
102
RTVSPost2010PropOp36
 70
     1
102
RTVSPost2010Prop37
 90
       50
102
RTVSPost2010PropOp37
 70
     1
102
RTVSPost2010Prop38
140
0.0
102
RTVSPost2010PropOp38
 70
     1
102
RTVSPost2010Prop39
140
1.0
102
RTVSPost2010PropOp39
 70
     1
102
RTVSPost2010Prop40
 90
        0
102
RTVSPost2010PropOp40
 70
     1
102
RTVSPost2010Prop41ColorIndex
 90
       18
102
RTVSPost2010Prop41ColorRGB
 90
        0
102
RTVSPost2010PropOp41
 70
     1
102
RTVSPost2010Prop42
 90
       50
102
RTVSPost2010PropOp42
 70
     1
102
RTVSPost2010Prop43
 90
        3
102
RTVSPost2010PropOp43
 70
     1
102
RTVSPost2010Prop44ColorIndex
 90
        5
102
RTVSPost2010Prop44ColorRGB
 90
      255
102
RTVSPost2010PropOp44
 70
     1
102
RTVSPost2010Prop45
280
     0
102
RTVSPost2010PropOp45
 70
     1
102
RTVSPost2010Prop46
 90
       50
102
RTVSPost2010PropOp46
 70
     1
102
RTVSPost2010Prop47
 90
       50
102
RTVSPost2010PropOp47
 70
     1
102
RTVSPost2010Prop48
 90
       50
102
RTVSPost2010PropOp48
 70
     1
102
RTVSPost2010Prop49
280
     0
102
RTVSPost2010PropOp49
 70
     1
102
RTVSPost2010Prop50
 90
       50
102
RTVSPost2010PropOp50
 70
     1
102
RTVSPost2010Prop51ColorIndex
 90
      256
102
RTVSPost2010Prop51ColorRGB
 90
-16777216
102
RTVSPost2010PropOp51
 70
     0
102
RTVSPost2010Prop52
140
1.0
102
RTVSPost2010PropOp52
 70
     0
102
RTVSPost2010Prop53
 90
        2
102
RTVSPost2010PropOp53
 70
     1
102
RTVSPost2010Prop54
  1
strokes_ogs.tif
102
RTVSPost2010PropOp54
 70
     1
102
RTVSPost2010Prop55
280
     0
102
RTVSPost2010PropOp55
 70
     1
102
RTVSPost2010Prop56
140
1.0
102
RTVSPost2010PropOp56
 70
     1
102
RTVSPost2010Prop57
140
1.0
102
RTVSPost2010PropOp57
 70
     1
102
RTVSPropertyOp0
 70
     1
102
RTVSPropertyOp1
 70
     1
102
RTVSPropertyOp2
 70
     1
102
RTVSPropertyOp3
 70
     1
102
RTVSPropertyOp4
 70
     1
102
RTVSPropertyOp5
 70
     1
102
RTVSPropertyOp6
 70
     1
102
RTVSPropertyOp7
 70
     1
102
RTVSPropertyOp8
 70
     1
102
RTVSPropertyOp9
 70
     1
102
RTVSPropertyOp10
 70
     1
102
RTVSPropertyOp11
 70
     1
102
RTVSPropertyOp12
 70
     1
102
RTVSPropertyOp13
 70
     1
102
RTVSPropertyOp14
 70
     1
102
RTVSPropertyOp15
 70
     1
102
RTVSPropertyOp16
 70
     1
102
RTVSPropertyOp17
 70
     1
102
RTVSPropertyOp18
 70
     1
102
RTVSPropertyOp19
 70
     1
102
RTVSPropertyOp20
 70
     1
102
RTVSPropertyOp21
 70
     1
102
RTVSPropertyOp22
 70
     1
102
RTVSPropertyOp23
 70
     1
102
RTVSPropertyOp24
 70
     1
102
RTVSPropertyOp25
 70
     1
102
RTVSPropertyOp26
 70
     1
102
RTVSPropertyOp27
 70
     1
102
RTVSPropertyOp28
 70
     1
102
RTVSPropertyOp29
 70
     1
102
RTVSPropertyOp30
 70
     1
102
RTVSPropertyOp31
 70
     1
102
RTVSPropertyOp32
 70
     1
102
RTVSPropertyOp33
 70
     1
102
RTVSPropertyOp34
 70
     1
102
RTVSPropertyOp35
 70
     1
102
RTVSPropertyOp36
 70
     1
102
RTVSPropertyOp37
 70
     1
102
RTVSPropertyOp38
 70
     1
102
RTVSPropertyOp39
 70
     1
102
RTVSPropertyOp40
 70
     1
102
RTVSPropertyOp41
 70
     1
102
RTVSPropertyOp42
 70
     1
102
RTVSPropertyOp43
 70
     1
102
RTVSPropertyOp44
 70
     1
102
RTVSPropertyOp45
 70
     1
102
RTVSPropertyOp46
 70
     1
102
RTVSPropertyOp47
 70
     1
102
RTVSPropertyOp48
 70
     1
102
RTVSPropertyOp49
 70
     1
102
RTVSPropertyOp50
 70
     1
102
RTVSPropertyOp51
 70
     0
102
RTVSPropertyOp52
 70
     0
102
RTVSPropertyOp53
 70
     1
102
RTVSPropertyOp54
 70
     1
102
RTVSPropertyOp55
 70
     1
102
RTVSPropertyOp56
 70
     1
102
RTVSPropertyOp57
 70
     1
102
RTVSPropertyOp58
 70
     1
102
RTVSPropertyOp59
 70
     1
102
RTVSPropertyOp60
 70
     1
102
RTVSPropertyOp61
 70
     1
102
RTVSPropertyOp62
 70
     1
  0
XRECORD
  5
156
102
{ACAD_REACTORS
330
155
102
}
330
155
100
AcDbXrecord
280
     1
102
RTVSPost2010Prop28
280
     0
102
RTVSPost2010PropOp28
 70
     1
102
RTVSPost2010Prop29
280
     1
102
RTVSPost2010PropOp29
 70
     1
102
RTVSPost2010Prop30
280
     1
102
RTVSPost2010PropOp30
 70
     1
102
RTVSPost2010Prop31
280
     0
102
RTVSPost2010PropOp31
 70
     1
102
RTVSPost2010Prop32
280
     0
102
RTVSPost2010PropOp32
 70
     1
102
RTVSPost2010Prop33
280
     0
102
RTVSPost2010PropOp33
 70
     1
102
RTVSPost2010Prop34
280
     0
102
RTVSPost2010PropOp34
 70
     1
102
RTVSPost2010Prop35
280
     0
102
RTVSPost2010PropOp35
 70
     1
102
RTVSPost2010Prop36
280
     0
102
RTVSPost2010PropOp36
 70
     1
102
RTVSPost2010Prop37
 90
       50
102
RTVSPost2010PropOp37
 70
     1
102
RTVSPost2010Prop38
140
0.0
102
RTVSPost2010PropOp38
 70
     1
102
RTVSPost2010Prop39
140
1.0
102
RTVSPost2010PropOp39
 70
     1
102
RTVSPost2010Prop40
 90
        0
102
RTVSPost2010PropOp40
 70
     1
102
RTVSPost2010Prop41ColorIndex
 90
       18
102
RTVSPost2010Prop41ColorRGB
 90
        0
102
RTVSPost2010PropOp41
 70
     1
102
RTVSPost2010Prop42
 90
       50
102
RTVSPost2010PropOp42
 70
     1
102
RTVSPost2010Prop43
 90
        3
102
RTVSPost2010PropOp43
 70
     1
102
RTVSPost2010Prop44ColorIndex
 90
        5
102
RTVSPost2010Prop44ColorRGB
 90
      255
102
RTVSPost2010PropOp44
 70
     1
102
RTVSPost2010Prop45
280
     0
102
RTVSPost2010PropOp45
 70
     1
102
RTVSPost2010Prop46
 90
       50
102
RTVSPost2010PropOp46
 70
     1
102
RTVSPost2010Prop47
 90
       50
102
RTVSPost2010PropOp47
 70
     1
102
RTVSPost2010Prop48
 90
       50
102
RTVSPost2010PropOp48
 70
     1
102
RTVSPost2010Prop49
280
     0
102
RTVSPost2010PropOp49
 70
     1
102
RTVSPost2010Prop50
 90
       50
102
RTVSPost2010PropOp50
 70
     1
102
RTVSPost2010Prop51ColorIndex
 90
      256
102
RTVSPost2010Prop51ColorRGB
 90
-16777216
102
RTVSPost2010PropOp51
 70
     0
102
RTVSPost2010Prop52
140
1.0
102
RTVSPost2010PropOp52
 70
     0
102
RTVSPost2010Prop53
 90
        2
102
RTVSPost2010PropOp53
 70
     1
102
RTVSPost2010Prop54
  1
strokes_ogs.tif
102
RTVSPost2010PropOp54
 70
     1
102
RTVSPost2010Prop55
280
     0
102
RTVSPost2010PropOp55
 70
     1
102
RTVSPost2010Prop56
140
1.0
102
RTVSPost2010PropOp56
 70
     1
102
RTVSPost2010Prop57
140
1.0
102
RTVSPost2010PropOp57
 70
     1
102
RTVSPropertyOp0
 70
     1
102
RTVSPropertyOp1
 70
     1
102
RTVSPropertyOp2
 70
     1
102
RTVSPropertyOp3
 70
     1
102
RTVSPropertyOp4
 70
     1
102
RTVSPropertyOp5
 70
     1
102
RTVSPropertyOp6
 70
     1
102
RTVSPropertyOp7
 70
     1
102
RTVSPropertyOp8
 70
     1
102
RTVSPropertyOp9
 70
     1
102
RTVSPropertyOp10
 70
     1
102
RTVSPropertyOp11
 70
     1
102
RTVSPropertyOp12
 70
     1
102
RTVSPropertyOp13
 70
     1
102
RTVSPropertyOp14
 70
     1
102
RTVSPropertyOp15
 70
     1
102
RTVSPropertyOp16
 70
     1
102
RTVSPropertyOp17
 70
     1
102
RTVSPropertyOp18
 70
     1
102
RTVSPropertyOp19
 70
     1
102
RTVSPropertyOp20
 70
     1
102
RTVSPropertyOp21
 70
     1
102
RTVSPropertyOp22
 70
     1
102
RTVSPropertyOp23
 70
     1
102
RTVSPropertyOp24
 70
     1
102
RTVSPropertyOp25
 70
     1
102
RTVSPropertyOp26
 70
     1
102
RTVSPropertyOp27
 70
     1
102
RTVSPropertyOp28
 70
     1
102
RTVSPropertyOp29
 70
     1
102
RTVSPropertyOp30
 70
     1
102
RTVSPropertyOp31
 70
     1
102
RTVSPropertyOp32
 70
     1
102
RTVSPropertyOp33
 70
     1
102
RTVSPropertyOp34
 70
     1
102
RTVSPropertyOp35
 70
     1
102
RTVSPropertyOp36
 70
     1
102
RTVSPropertyOp37
 70
     1
102
RTVSPropertyOp38
 70
     1
102
RTVSPropertyOp39
 70
     1
102
RTVSPropertyOp40
 70
     1
102
RTVSPropertyOp41
 70
     1
102
RTVSPropertyOp42
 70
     1
102
RTVSPropertyOp43
 70
     1
102
RTVSPropertyOp44
 70
     1
102
RTVSPropertyOp45
 70
     1
102
RTVSPropertyOp46
 70
     1
102
RTVSPropertyOp47
 70
     1
102
RTVSPropertyOp48
 70
     1
102
RTVSPropertyOp49
 70
     1
102
RTVSPropertyOp50
 70
     1
102
RTVSPropertyOp51
 70
     0
102
RTVSPropertyOp52
 70
     0
102
RTVSPropertyOp53
 70
     1
102
RTVSPropertyOp54
 70
     1
102
RTVSPropertyOp55
 70
     1
102
RTVSPropertyOp56
 70
     1
102
RTVSPropertyOp57
 70
     1
102
RTVSPropertyOp58
 70
     1
102
RTVSPropertyOp59
 70
     1
102
RTVSPropertyOp60
 70
     1
102
RTVSPropertyOp61
 70
     1
102
RTVSPropertyOp62
 70
     1
  0
XRECORD
  5
158
102
{ACAD_REACTORS
330
157
102
}
330
157
100
AcDbXrecord
280
     1
102
RTVSPost2010Prop28
280
     0
102
RTVSPost2010PropOp28
 70
     1
102
RTVSPost2010Prop29
280
     1
102
RTVSPost2010PropOp29
 70
     1
102
RTVSPost2010Prop30
280
     1
102
RTVSPost2010PropOp30
 70
     1
102
RTVSPost2010Prop31
280
     0
102
RTVSPost2010PropOp31
 70
     1
102
RTVSPost2010Prop32
280
     0
102
RTVSPost2010PropOp32
 70
     1
102
RTVSPost2010Prop33
280
     0
102
RTVSPost2010PropOp33
 70
     1
102
RTVSPost2010Prop34
280
     0
102
RTVSPost2010PropOp34
 70
     1
102
RTVSPost2010Prop35
280
     0
102
RTVSPost2010PropOp35
 70
     1
102
RTVSPost2010Prop36
280
     0
102
RTVSPost2010PropOp36
 70
     1
102
RTVSPost2010Prop37
 90
       50
102
RTVSPost2010PropOp37
 70
     1
102
RTVSPost2010Prop38
140
0.0
102
RTVSPost2010PropOp38
 70
     1
102
RTVSPost2010Prop39
140
1.0
102
RTVSPost2010PropOp39
 70
     1
102
RTVSPost2010Prop40
 90
        0
102
RTVSPost2010PropOp40
 70
     1
102
RTVSPost2010Prop41ColorIndex
 90
       18
102
RTVSPost2010Prop41ColorRGB
 90
        0
102
RTVSPost2010PropOp41
 70
     1
102
RTVSPost2010Prop42
 90
       50
102
RTVSPost2010PropOp42
 70
     1
102
RTVSPost2010Prop43
 90
        3
102
RTVSPost2010PropOp43
 70
     1
102
RTVSPost2010Prop44ColorIndex
 90
        5
102
RTVSPost2010Prop44ColorRGB
 90
      255
102
RTVSPost2010PropOp44
 70
     1
102
RTVSPost2010Prop45
280
     0
102
RTVSPost2010PropOp45
 70
     1
102
RTVSPost2010Prop46
 90
       50
102
RTVSPost2010PropOp46
 70
     1
102
RTVSPost2010Prop47
 90
       50
102
RTVSPost2010PropOp47
 70
     1
102
RTVSPost2010Prop48
 90
       50
102
RTVSPost2010PropOp48
 70
     1
102
RTVSPost2010Prop49
280
     0
102
RTVSPost2010PropOp49
 70
     1
102
RTVSPost2010Prop50
 90
       50
102
RTVSPost2010PropOp50
 70
     1
102
RTVSPost2010Prop51ColorIndex
 90
      256
102
RTVSPost2010Prop51ColorRGB
 90
-16777216
102
RTVSPost2010PropOp51
 70
     0
102
RTVSPost2010Prop52
140
1.0
102
RTVSPost2010PropOp52
 70
     0
102
RTVSPost2010Prop53
 90
        2
102
RTVSPost2010PropOp53
 70
     1
102
RTVSPost2010Prop54
  1
strokes_ogs.tif
102
RTVSPost2010PropOp54
 70
     1
102
RTVSPost2010Prop55
280
     0
102
RTVSPost2010PropOp55
 70
     1
102
RTVSPost2010Prop56
140
1.0
102
RTVSPost2010PropOp56
 70
     1
102
RTVSPost2010Prop57
140
1.0
102
RTVSPost2010PropOp57
 70
     1
102
RTVSPropertyOp0
 70
     1
102
RTVSPropertyOp1
 70
     1
102
RTVSPropertyOp2
 70
     1
102
RTVSPropertyOp3
 70
     1
102
RTVSPropertyOp4
 70
     1
102
RTVSPropertyOp5
 70
     1
102
RTVSPropertyOp6
 70
     1
102
RTVSPropertyOp7
 70
     1
102
RTVSPropertyOp8
 70
     1
102
RTVSPropertyOp9
 70
     1
102
RTVSPropertyOp10
 70
     1
102
RTVSPropertyOp11
 70
     1
102
RTVSPropertyOp12
 70
     1
102
RTVSPropertyOp13
 70
     1
102
RTVSPropertyOp14
 70
     1
102
RTVSPropertyOp15
 70
     1
102
RTVSPropertyOp16
 70
     1
102
RTVSPropertyOp17
 70
     1
102
RTVSPropertyOp18
 70
     1
102
RTVSPropertyOp19
 70
     1
102
RTVSPropertyOp20
 70
     1
102
RTVSPropertyOp21
 70
     1
102
RTVSPropertyOp22
 70
     1
102
RTVSPropertyOp23
 70
     1
102
RTVSPropertyOp24
 70
     1
102
RTVSPropertyOp25
 70
     1
102
RTVSPropertyOp26
 70
     1
102
RTVSPropertyOp27
 70
     1
102
RTVSPropertyOp28
 70
     1
102
RTVSPropertyOp29
 70
     1
102
RTVSPropertyOp30
 70
     1
102
RTVSPropertyOp31
 70
     1
102
RTVSPropertyOp32
 70
     1
102
RTVSPropertyOp33
 70
     1
102
RTVSPropertyOp34
 70
     1
102
RTVSPropertyOp35
 70
     1
102
RTVSPropertyOp36
 70
     1
102
RTVSPropertyOp37
 70
     1
102
RTVSPropertyOp38
 70
     1
102
RTVSPropertyOp39
 70
     1
102
RTVSPropertyOp40
 70
     1
102
RTVSPropertyOp41
 70
     1
102
RTVSPropertyOp42
 70
     1
102
RTVSPropertyOp43
 70
     1
102
RTVSPropertyOp44
 70
     1
102
RTVSPropertyOp45
 70
     1
102
RTVSPropertyOp46
 70
     1
102
RTVSPropertyOp47
 70
     1
102
RTVSPropertyOp48
 70
     1
102
RTVSPropertyOp49
 70
     1
102
RTVSPropertyOp50
 70
     1
102
RTVSPropertyOp51
 70
     0
102
RTVSPropertyOp52
 70
     0
102
RTVSPropertyOp53
 70
     1
102
RTVSPropertyOp54
 70
     1
102
RTVSPropertyOp55
 70
     1
102
RTVSPropertyOp56
 70
     1
102
RTVSPropertyOp57
 70
     1
102
RTVSPropertyOp58
 70
     1
102
RTVSPropertyOp59
 70
     1
102
RTVSPropertyOp60
 70
     1
102
RTVSPropertyOp61
 70
     1
102
RTVSPropertyOp62
 70
     1
  0
XRECORD
  5
15A
102
{ACAD_REACTORS
330
159
102
}
330
159
100
AcDbXrecord
280
     1
102
RTVSPost2010Prop28
280
     0
102
RTVSPost2010PropOp28
 70
     1
102
RTVSPost2010Prop29
280
     1
102
RTVSPost2010PropOp29
 70
     1
102
RTVSPost2010Prop30
280
     1
102
RTVSPost2010PropOp30
 70
     1
102
RTVSPost2010Prop31
280
     0
102
RTVSPost2010PropOp31
 70
     1
102
RTVSPost2010Prop32
280
     0
102
RTVSPost2010PropOp32
 70
     1
102
RTVSPost2010Prop33
280
     0
102
RTVSPost2010PropOp33
 70
     1
102
RTVSPost2010Prop34
280
     0
102
RTVSPost2010PropOp34
 70
     1
102
RTVSPost2010Prop35
280
     0
102
RTVSPost2010PropOp35
 70
     1
102
RTVSPost2010Prop36
280
     0
102
RTVSPost2010PropOp36
 70
     1
102
RTVSPost2010Prop37
 90
       50
102
RTVSPost2010PropOp37
 70
     1
102
RTVSPost2010Prop38
140
0.0
102
RTVSPost2010PropOp38
 70
     1
102
RTVSPost2010Prop39
140
1.0
102
RTVSPost2010PropOp39
 70
     1
102
RTVSPost2010Prop40
 90
        0
102
RTVSPost2010PropOp40
 70
     1
102
RTVSPost2010Prop41ColorIndex
 90
       18
102
RTVSPost2010Prop41ColorRGB
 90
        0
102
RTVSPost2010PropOp41
 70
     1
102
RTVSPost2010Prop42
 90
       50
102
RTVSPost2010PropOp42
 70
     1
102
RTVSPost2010Prop43
 90
        3
102
RTVSPost2010PropOp43
 70
     1
102
RTVSPost2010Prop44ColorIndex
 90
        5
102
RTVSPost2010Prop44ColorRGB
 90
      255
102
RTVSPost2010PropOp44
 70
     1
102
RTVSPost2010Prop45
280
     0
102
RTVSPost2010PropOp45
 70
     1
102
RTVSPost2010Prop46
 90
       50
102
RTVSPost2010PropOp46
 70
     1
102
RTVSPost2010Prop47
 90
       50
102
RTVSPost2010PropOp47
 70
     1
102
RTVSPost2010Prop48
 90
       50
102
RTVSPost2010PropOp48
 70
     1
102
RTVSPost2010Prop49
280
     0
102
RTVSPost2010PropOp49
 70
     1
102
RTVSPost2010Prop50
 90
       50
102
RTVSPost2010PropOp50
 70
     1
102
RTVSPost2010Prop51ColorIndex
 90
      256
102
RTVSPost2010Prop51ColorRGB
 90
-16777216
102
RTVSPost2010PropOp51
 70
     0
102
RTVSPost2010Prop52
140
1.0
102
RTVSPost2010PropOp52
 70
     0
102
RTVSPost2010Prop53
 90
        2
102
RTVSPost2010PropOp53
 70
     1
102
RTVSPost2010Prop54
  1
strokes_ogs.tif
102
RTVSPost2010PropOp54
 70
     1
102
RTVSPost2010Prop55
280
     0
102
RTVSPost2010PropOp55
 70
     1
102
RTVSPost2010Prop56
140
1.0
102
RTVSPost2010PropOp56
 70
     1
102
RTVSPost2010Prop57
140
1.0
102
RTVSPost2010PropOp57
 70
     1
102
RTVSPropertyOp0
 70
     1
102
RTVSPropertyOp1
 70
     1
102
RTVSPropertyOp2
 70
     1
102
RTVSPropertyOp3
 70
     1
102
RTVSPropertyOp4
 70
     1
102
RTVSPropertyOp5
 70
     1
102
RTVSPropertyOp6
 70
     1
102
RTVSPropertyOp7
 70
     1
102
RTVSPropertyOp8
 70
     1
102
RTVSPropertyOp9
 70
     1
102
RTVSPropertyOp10
 70
     1
102
RTVSPropertyOp11
 70
     1
102
RTVSPropertyOp12
 70
     1
102
RTVSPropertyOp13
 70
     1
102
RTVSPropertyOp14
 70
     1
102
RTVSPropertyOp15
 70
     1
102
RTVSPropertyOp16
 70
     1
102
RTVSPropertyOp17
 70
     1
102
RTVSPropertyOp18
 70
     1
102
RTVSPropertyOp19
 70
     1
102
RTVSPropertyOp20
 70
     1
102
RTVSPropertyOp21
 70
     1
102
RTVSPropertyOp22
 70
     1
102
RTVSPropertyOp23
 70
     1
102
RTVSPropertyOp24
 70
     1
102
RTVSPropertyOp25
 70
     1
102
RTVSPropertyOp26
 70
     1
102
RTVSPropertyOp27
 70
     1
102
RTVSPropertyOp28
 70
     1
102
RTVSPropertyOp29
 70
     1
102
RTVSPropertyOp30
 70
     1
102
RTVSPropertyOp31
 70
     1
102
RTVSPropertyOp32
 70
     1
102
RTVSPropertyOp33
 70
     1
102
RTVSPropertyOp34
 70
     1
102
RTVSPropertyOp35
 70
     1
102
RTVSPropertyOp36
 70
     1
102
RTVSPropertyOp37
 70
     1
102
RTVSPropertyOp38
 70
     1
102
RTVSPropertyOp39
 70
     1
102
RTVSPropertyOp40
 70
     1
102
RTVSPropertyOp41
 70
     1
102
RTVSPropertyOp42
 70
     1
102
RTVSPropertyOp43
 70
     1
102
RTVSPropertyOp44
 70
     1
102
RTVSPropertyOp45
 70
     1
102
RTVSPropertyOp46
 70
     1
102
RTVSPropertyOp47
 70
     1
102
RTVSPropertyOp48
 70
     1
102
RTVSPropertyOp49
 70
     1
102
RTVSPropertyOp50
 70
     1
102
RTVSPropertyOp51
 70
     0
102
RTVSPropertyOp52
 70
     0
102
RTVSPropertyOp53
 70
     1
102
RTVSPropertyOp54
 70
     1
102
RTVSPropertyOp55
 70
     1
102
RTVSPropertyOp56
 70
     1
102
RTVSPropertyOp57
 70
     1
102
RTVSPropertyOp58
 70
     1
102
RTVSPropertyOp59
 70
     1
102
RTVSPropertyOp60
 70
     1
102
RTVSPropertyOp61
 70
     1
102
RTVSPropertyOp62
 70
     1
  0
XRECORD
  5
15C
102
{ACAD_REACTORS
330
15B
102
}
330
15B
100
AcDbXrecord
280
     1
102
RTVSPost2010Prop28
280
     0
102
RTVSPost2010PropOp28
 70
     1
102
RTVSPost2010Prop29
280
     1
102
RTVSPost2010PropOp29
 70
     1
102
RTVSPost2010Prop30
280
     1
102
RTVSPost2010PropOp30
 70
     1
102
RTVSPost2010Prop31
280
     0
102
RTVSPost2010PropOp31
 70
     1
102
RTVSPost2010Prop32
280
     0
102
RTVSPost2010PropOp32
 70
     1
102
RTVSPost2010Prop33
280
     0
102
RTVSPost2010PropOp33
 70
     1
102
RTVSPost2010Prop34
280
     0
102
RTVSPost2010PropOp34
 70
     1
102
RTVSPost2010Prop35
280
     0
102
RTVSPost2010PropOp35
 70
     1
102
RTVSPost2010Prop36
280
     0
102
RTVSPost2010PropOp36
 70
     1
102
RTVSPost2010Prop37
 90
       50
102
RTVSPost2010PropOp37
 70
     1
102
RTVSPost2010Prop38
140
0.0
102
RTVSPost2010PropOp38
 70
     1
102
RTVSPost2010Prop39
140
1.0
102
RTVSPost2010PropOp39
 70
     1
102
RTVSPost2010Prop40
 90
        0
102
RTVSPost2010PropOp40
 70
     1
102
RTVSPost2010Prop41ColorIndex
 90
       18
102
RTVSPost2010Prop41ColorRGB
 90
        0
102
RTVSPost2010PropOp41
 70
     1
102
RTVSPost2010Prop42
 90
       50
102
RTVSPost2010PropOp42
 70
     1
102
RTVSPost2010Prop43
 90
        3
102
RTVSPost2010PropOp43
 70
     1
102
RTVSPost2010Prop44ColorIndex
 90
        5
102
RTVSPost2010Prop44ColorRGB
 90
      255
102
RTVSPost2010PropOp44
 70
     1
102
RTVSPost2010Prop45
280
     0
102
RTVSPost2010PropOp45
 70
     1
102
RTVSPost2010Prop46
 90
       50
102
RTVSPost2010PropOp46
 70
     1
102
RTVSPost2010Prop47
 90
       50
102
RTVSPost2010PropOp47
 70
     1
102
RTVSPost2010Prop48
 90
       50
102
RTVSPost2010PropOp48
 70
     1
102
RTVSPost2010Prop49
280
     0
102
RTVSPost2010PropOp49
 70
     1
102
RTVSPost2010Prop50
 90
       50
102
RTVSPost2010PropOp50
 70
     1
102
RTVSPost2010Prop51ColorIndex
 90
      256
102
RTVSPost2010Prop51ColorRGB
 90
-16777216
102
RTVSPost2010PropOp51
 70
     0
102
RTVSPost2010Prop52
140
1.0
102
RTVSPost2010PropOp52
 70
     0
102
RTVSPost2010Prop53
 90
        2
102
RTVSPost2010PropOp53
 70
     1
102
RTVSPost2010Prop54
  1
strokes_ogs.tif
102
RTVSPost2010PropOp54
 70
     1
102
RTVSPost2010Prop55
280
     0
102
RTVSPost2010PropOp55
 70
     1
102
RTVSPost2010Prop56
140
1.0
102
RTVSPost2010PropOp56
 70
     1
102
RTVSPost2010Prop57
140
1.0
102
RTVSPost2010PropOp57
 70
     1
102
RTVSPropertyOp0
 70
     1
102
RTVSPropertyOp1
 70
     1
102
RTVSPropertyOp2
 70
     1
102
RTVSPropertyOp3
 70
     1
102
RTVSPropertyOp4
 70
     1
102
RTVSPropertyOp5
 70
     1
102
RTVSPropertyOp6
 70
     1
102
RTVSPropertyOp7
 70
     1
102
RTVSPropertyOp8
 70
     1
102
RTVSPropertyOp9
 70
     1
102
RTVSPropertyOp10
 70
     1
102
RTVSPropertyOp11
 70
     1
102
RTVSPropertyOp12
 70
     1
102
RTVSPropertyOp13
 70
     1
102
RTVSPropertyOp14
 70
     1
102
RTVSPropertyOp15
 70
     1
102
RTVSPropertyOp16
 70
     1
102
RTVSPropertyOp17
 70
     1
102
RTVSPropertyOp18
 70
     1
102
RTVSPropertyOp19
 70
     1
102
RTVSPropertyOp20
 70
     1
102
RTVSPropertyOp21
 70
     1
102
RTVSPropertyOp22
 70
     1
102
RTVSPropertyOp23
 70
     1
102
RTVSPropertyOp24
 70
     1
102
RTVSPropertyOp25
 70
     1
102
RTVSPropertyOp26
 70
     1
102
RTVSPropertyOp27
 70
     1
102
RTVSPropertyOp28
 70
     1
102
RTVSPropertyOp29
 70
     1
102
RTVSPropertyOp30
 70
     1
102
RTVSPropertyOp31
 70
     1
102
RTVSPropertyOp32
 70
     1
102
RTVSPropertyOp33
 70
     1
102
RTVSPropertyOp34
 70
     1
102
RTVSPropertyOp35
 70
     1
102
RTVSPropertyOp36
 70
     1
102
RTVSPropertyOp37
 70
     1
102
RTVSPropertyOp38
 70
     1
102
RTVSPropertyOp39
 70
     1
102
RTVSPropertyOp40
 70
     1
102
RTVSPropertyOp41
 70
     1
102
RTVSPropertyOp42
 70
     1
102
RTVSPropertyOp43
 70
     1
102
RTVSPropertyOp44
 70
     1
102
RTVSPropertyOp45
 70
     1
102
RTVSPropertyOp46
 70
     1
102
RTVSPropertyOp47
 70
     1
102
RTVSPropertyOp48
 70
     1
102
RTVSPropertyOp49
 70
     1
102
RTVSPropertyOp50
 70
     1
102
RTVSPropertyOp51
 70
     0
102
RTVSPropertyOp52
 70
     0
102
RTVSPropertyOp53
 70
     1
102
RTVSPropertyOp54
 70
     1
102
RTVSPropertyOp55
 70
     1
102
RTVSPropertyOp56
 70
     1
102
RTVSPropertyOp57
 70
     1
102
RTVSPropertyOp58
 70
     1
102
RTVSPropertyOp59
 70
     1
102
RTVSPropertyOp60
 70
     1
102
RTVSPropertyOp61
 70
     1
102
RTVSPropertyOp62
 70
     1
  0
XRECORD
  5
164
102
{ACAD_REACTORS
330
163
102
}
330
163
100
AcDbXrecord
280
     1
102
RTVSPost2010Prop28
280
     0
102
RTVSPost2010PropOp28
 70
     1
102
RTVSPost2010Prop29
280
     1
102
RTVSPost2010PropOp29
 70
     1
102
RTVSPost2010Prop30
280
     1
102
RTVSPost2010PropOp30
 70
     1
102
RTVSPost2010Prop31
280
     0
102
RTVSPost2010PropOp31
 70
     1
102
RTVSPost2010Prop32
280
     0
102
RTVSPost2010PropOp32
 70
     1
102
RTVSPost2010Prop33
280
     0
102
RTVSPost2010PropOp33
 70
     1
102
RTVSPost2010Prop34
280
     0
102
RTVSPost2010PropOp34
 70
     1
102
RTVSPost2010Prop35
280
     0
102
RTVSPost2010PropOp35
 70
     1
102
RTVSPost2010Prop36
280
     0
102
RTVSPost2010PropOp36
 70
     1
102
RTVSPost2010Prop37
 90
       50
102
RTVSPost2010PropOp37
 70
     1
102
RTVSPost2010Prop38
140
0.0
102
RTVSPost2010PropOp38
 70
     1
102
RTVSPost2010Prop39
140
1.0
102
RTVSPost2010PropOp39
 70
     1
102
RTVSPost2010Prop40
 90
        0
102
RTVSPost2010PropOp40
 70
     1
102
RTVSPost2010Prop41ColorIndex
 90
       18
102
RTVSPost2010Prop41ColorRGB
 90
        0
102
RTVSPost2010PropOp41
 70
     1
102
RTVSPost2010Prop42
 90
       50
102
RTVSPost2010PropOp42
 70
     1
102
RTVSPost2010Prop43
 90
        3
102
RTVSPost2010PropOp43
 70
     1
102
RTVSPost2010Prop44ColorIndex
 90
        5
102
RTVSPost2010Prop44ColorRGB
 90
      255
102
RTVSPost2010PropOp44
 70
     1
102
RTVSPost2010Prop45
280
     0
102
RTVSPost2010PropOp45
 70
     1
102
RTVSPost2010Prop46
 90
       50
102
RTVSPost2010PropOp46
 70
     1
102
RTVSPost2010Prop47
 90
       50
102
RTVSPost2010PropOp47
 70
     1
102
RTVSPost2010Prop48
 90
       50
102
RTVSPost2010PropOp48
 70
     1
102
RTVSPost2010Prop49
280
     0
102
RTVSPost2010PropOp49
 70
     1
102
RTVSPost2010Prop50
 90
       50
102
RTVSPost2010PropOp50
 70
     1
102
RTVSPost2010Prop51ColorIndex
 90
      256
102
RTVSPost2010Prop51ColorRGB
 90
-16777216
102
RTVSPost2010PropOp51
 70
     0
102
RTVSPost2010Prop52
140
1.0
102
RTVSPost2010PropOp52
 70
     0
102
RTVSPost2010Prop53
 90
        2
102
RTVSPost2010PropOp53
 70
     1
102
RTVSPost2010Prop54
  1
strokes_ogs.tif
102
RTVSPost2010PropOp54
 70
     1
102
RTVSPost2010Prop55
280
     0
102
RTVSPost2010PropOp55
 70
     1
102
RTVSPost2010Prop56
140
1.0
102
RTVSPost2010PropOp56
 70
     1
102
RTVSPost2010Prop57
140
1.0
102
RTVSPost2010PropOp57
 70
     1
102
RTVSPropertyOp0
 70
     1
102
RTVSPropertyOp1
 70
     1
102
RTVSPropertyOp2
 70
     1
102
RTVSPropertyOp3
 70
     1
102
RTVSPropertyOp4
 70
     1
102
RTVSPropertyOp5
 70
     1
102
RTVSPropertyOp6
 70
     1
102
RTVSPropertyOp7
 70
     1
102
RTVSPropertyOp8
 70
     1
102
RTVSPropertyOp9
 70
     1
102
RTVSPropertyOp10
 70
     1
102
RTVSPropertyOp11
 70
     1
102
RTVSPropertyOp12
 70
     1
102
RTVSPropertyOp13
 70
     1
102
RTVSPropertyOp14
 70
     1
102
RTVSPropertyOp15
 70
     1
102
RTVSPropertyOp16
 70
     1
102
RTVSPropertyOp17
 70
     1
102
RTVSPropertyOp18
 70
     1
102
RTVSPropertyOp19
 70
     1
102
RTVSPropertyOp20
 70
     1
102
RTVSPropertyOp21
 70
     1
102
RTVSPropertyOp22
 70
     1
102
RTVSPropertyOp23
 70
     1
102
RTVSPropertyOp24
 70
     1
102
RTVSPropertyOp25
 70
     1
102
RTVSPropertyOp26
 70
     1
102
RTVSPropertyOp27
 70
     1
102
RTVSPropertyOp28
 70
     1
102
RTVSPropertyOp29
 70
     1
102
RTVSPropertyOp30
 70
     1
102
RTVSPropertyOp31
 70
     1
102
RTVSPropertyOp32
 70
     1
102
RTVSPropertyOp33
 70
     1
102
RTVSPropertyOp34
 70
     1
102
RTVSPropertyOp35
 70
     1
102
RTVSPropertyOp36
 70
     1
102
RTVSPropertyOp37
 70
     1
102
RTVSPropertyOp38
 70
     1
102
RTVSPropertyOp39
 70
     1
102
RTVSPropertyOp40
 70
     1
102
RTVSPropertyOp41
 70
     1
102
RTVSPropertyOp42
 70
     1
102
RTVSPropertyOp43
 70
     1
102
RTVSPropertyOp44
 70
     1
102
RTVSPropertyOp45
 70
     1
102
RTVSPropertyOp46
 70
     1
102
RTVSPropertyOp47
 70
     1
102
RTVSPropertyOp48
 70
     1
102
RTVSPropertyOp49
 70
     1
102
RTVSPropertyOp50
 70
     1
102
RTVSPropertyOp51
 70
     0
102
RTVSPropertyOp52
 70
     0
102
RTVSPropertyOp53
 70
     1
102
RTVSPropertyOp54
 70
     1
102
RTVSPropertyOp55
 70
     1
102
RTVSPropertyOp56
 70
     1
102
RTVSPropertyOp57
 70
     1
102
RTVSPropertyOp58
 70
     1
102
RTVSPropertyOp59
 70
     1
102
RTVSPropertyOp60
 70
     1
102
RTVSPropertyOp61
 70
     1
102
RTVSPropertyOp62
 70
     1
  0
XRECORD
  5
180
102
{ACAD_REACTORS
330
17F
102
}
330
17F
100
AcDbXrecord
280
     1
102
RTVSPost2010Prop28
280
     0
102
RTVSPost2010PropOp28
 70
     0
102
RTVSPost2010Prop29
280
     1
102
RTVSPost2010PropOp29
 70
     0
102
RTVSPost2010Prop30
280
     1
102
RTVSPost2010PropOp30
 70
     0
102
RTVSPost2010Prop31
280
     0
102
RTVSPost2010PropOp31
 70
     0
102
RTVSPost2010Prop32
280
     0
102
RTVSPost2010PropOp32
 70
     0
102
RTVSPost2010Prop33
280
     0
102
RTVSPost2010PropOp33
 70
     0
102
RTVSPost2010Prop34
280
     0
102
RTVSPost2010PropOp34
 70
     0
102
RTVSPost2010Prop35
280
     0
102
RTVSPost2010PropOp35
 70
     0
102
RTVSPost2010Prop36
280
     0
102
RTVSPost2010PropOp36
 70
     0
102
RTVSPost2010Prop37
 90
       50
102
RTVSPost2010PropOp37
 70
     0
102
RTVSPost2010Prop38
140
0.0
102
RTVSPost2010PropOp38
 70
     0
102
RTVSPost2010Prop39
140
1.0
102
RTVSPost2010PropOp39
 70
     0
102
RTVSPost2010Prop40
 90
        0
102
RTVSPost2010PropOp40
 70
     0
102
RTVSPost2010Prop41ColorIndex
 90
       18
102
RTVSPost2010Prop41ColorRGB
 90
        0
102
RTVSPost2010PropOp41
 70
     0
102
RTVSPost2010Prop42
 90
       50
102
RTVSPost2010PropOp42
 70
     0
102
RTVSPost2010Prop43
 90
        3
102
RTVSPost2010PropOp43
 70
     0
102
RTVSPost2010Prop44ColorIndex
 90
        5
102
RTVSPost2010Prop44ColorRGB
 90
      255
102
RTVSPost2010PropOp44
 70
     0
102
RTVSPost2010Prop45
280
     0
102
RTVSPost2010PropOp45
 70
     0
102
RTVSPost2010Prop46
 90
       50
102
RTVSPost2010PropOp46
 70
     0
102
RTVSPost2010Prop47
 90
       50
102
RTVSPost2010PropOp47
 70
     0
102
RTVSPost2010Prop48
 90
       50
102
RTVSPost2010PropOp48
 70
     0
102
RTVSPost2010Prop49
280
     0
102
RTVSPost2010PropOp49
 70
     0
102
RTVSPost2010Prop50
 90
       50
102
RTVSPost2010PropOp50
 70
     0
102
RTVSPost2010Prop51ColorIndex
 90
      256
102
RTVSPost2010Prop51ColorRGB
 90
-16777216
102
RTVSPost2010PropOp51
 70
     0
102
RTVSPost2010Prop52
140
1.0
102
RTVSPost2010PropOp52
 70
     0
102
RTVSPost2010Prop53
 90
        2
102
RTVSPost2010PropOp53
 70
     0
102
RTVSPost2010Prop54
  1
strokes_ogs.tif
102
RTVSPost2010PropOp54
 70
     0
102
RTVSPost2010Prop55
280
     0
102
RTVSPost2010PropOp55
 70
     0
102
RTVSPost2010Prop56
140
1.0
102
RTVSPost2010PropOp56
 70
     0
102
RTVSPost2010Prop57
140
1.0
102
RTVSPost2010PropOp57
 70
     0
102
RTVSPropertyOp0
 70
     0
102
RTVSPropertyOp1
 70
     0
102
RTVSPropertyOp2
 70
     0
102
RTVSPropertyOp3
 70
     0
102
RTVSPropertyOp4
 70
     0
102
RTVSPropertyOp5
 70
     0
102
RTVSPropertyOp6
 70
     0
102
RTVSPropertyOp7
 70
     0
102
RTVSPropertyOp8
 70
     0
102
RTVSPropertyOp9
 70
     0
102
RTVSPropertyOp10
 70
     0
102
RTVSPropertyOp11
 70
     0
102
RTVSPropertyOp12
 70
     0
102
RTVSPropertyOp13
 70
     0
102
RTVSPropertyOp14
 70
     2
102
RTVSPropertyOp15
 70
     0
102
RTVSPropertyOp16
 70
     0
102
RTVSPropertyOp17
 70
     0
102
RTVSPropertyOp18
 70
     0
102
RTVSPropertyOp19
 70
     0
102
RTVSPropertyOp20
 70
     0
102
RTVSPropertyOp21
 70
     0
102
RTVSPropertyOp22
 70
     0
102
RTVSPropertyOp23
 70
     0
102
RTVSPropertyOp24
 70
     0
102
RTVSPropertyOp25
 70
     0
102
RTVSPropertyOp26
 70
     0
102
RTVSPropertyOp27
 70
     0
102
RTVSPropertyOp28
 70
     0
102
RTVSPropertyOp29
 70
     0
102
RTVSPropertyOp30
 70
     0
102
RTVSPropertyOp31
 70
     0
102
RTVSPropertyOp32
 70
     0
102
RTVSPropertyOp33
 70
     0
102
RTVSPropertyOp34
 70
     0
102
RTVSPropertyOp35
 70
     0
102
RTVSPropertyOp36
 70
     0
102
RTVSPropertyOp37
 70
     0
102
RTVSPropertyOp38
 70
     0
102
RTVSPropertyOp39
 70
     0
102
RTVSPropertyOp40
 70
     0
102
RTVSPropertyOp41
 70
     0
102
RTVSPropertyOp42
 70
     0
102
RTVSPropertyOp43
 70
     0
102
RTVSPropertyOp44
 70
     0
102
RTVSPropertyOp45
 70
     0
102
RTVSPropertyOp46
 70
     0
102
RTVSPropertyOp47
 70
     0
102
RTVSPropertyOp48
 70
     0
102
RTVSPropertyOp49
 70
     0
102
RTVSPropertyOp50
 70
     0
102
RTVSPropertyOp51
 70
     0
102
RTVSPropertyOp52
 70
     0
102
RTVSPropertyOp53
 70
     0
102
RTVSPropertyOp54
 70
     0
102
RTVSPropertyOp55
 70
     0
102
RTVSPropertyOp56
 70
     0
102
RTVSPropertyOp57
 70
     0
102
RTVSPropertyOp58
 70
     1
102
RTVSPropertyOp59
 70
     1
102
RTVSPropertyOp60
 70
     1
102
RTVSPropertyOp61
 70
     1
102
RTVSPropertyOp62
 70
     1
  0
XRECORD
  5
170
102
{ACAD_REACTORS
330
16F
102
}
330
16F
100
AcDbXrecord
280
     1
102
RTVSPost2010Prop28
280
     0
102
RTVSPost2010PropOp28
 70
     1
102
RTVSPost2010Prop29
280
     1
102
RTVSPost2010PropOp29
 70
     1
102
RTVSPost2010Prop30
280
     1
102
RTVSPost2010PropOp30
 70
     1
102
RTVSPost2010Prop31
280
     0
102
RTVSPost2010PropOp31
 70
     1
102
RTVSPost2010Prop32
280
     0
102
RTVSPost2010PropOp32
 70
     1
102
RTVSPost2010Prop33
280
     0
102
RTVSPost2010PropOp33
 70
     1
102
RTVSPost2010Prop34
280
     0
102
RTVSPost2010PropOp34
 70
     1
102
RTVSPost2010Prop35
280
     0
102
RTVSPost2010PropOp35
 70
     1
102
RTVSPost2010Prop36
280
     0
102
RTVSPost2010PropOp36
 70
     1
102
RTVSPost2010Prop37
 90
       50
102
RTVSPost2010PropOp37
 70
     1
102
RTVSPost2010Prop38
140
0.0
102
RTVSPost2010PropOp38
 70
     1
102
RTVSPost2010Prop39
140
1.0
102
RTVSPost2010PropOp39
 70
     1
102
RTVSPost2010Prop40
 90
        0
102
RTVSPost2010PropOp40
 70
     1
102
RTVSPost2010Prop41ColorIndex
 90
       18
102
RTVSPost2010Prop41ColorRGB
 90
        0
102
RTVSPost2010PropOp41
 70
     1
102
RTVSPost2010Prop42
 90
       50
102
RTVSPost2010PropOp42
 70
     1
102
RTVSPost2010Prop43
 90
        3
102
RTVSPost2010PropOp43
 70
     1
102
RTVSPost2010Prop44ColorIndex
 90
        5
102
RTVSPost2010Prop44ColorRGB
 90
      255
102
RTVSPost2010PropOp44
 70
     1
102
RTVSPost2010Prop45
280
     0
102
RTVSPost2010PropOp45
 70
     1
102
RTVSPost2010Prop46
 90
       50
102
RTVSPost2010PropOp46
 70
     1
102
RTVSPost2010Prop47
 90
       50
102
RTVSPost2010PropOp47
 70
     1
102
RTVSPost2010Prop48
 90
       50
102
RTVSPost2010PropOp48
 70
     1
102
RTVSPost2010Prop49
280
     0
102
RTVSPost2010PropOp49
 70
     1
102
RTVSPost2010Prop50
 90
       50
102
RTVSPost2010PropOp50
 70
     1
102
RTVSPost2010Prop51ColorIndex
 90
      256
102
RTVSPost2010Prop51ColorRGB
 90
-16777216
102
RTVSPost2010PropOp51
 70
     0
102
RTVSPost2010Prop52
140
1.0
102
RTVSPost2010PropOp52
 70
     0
102
RTVSPost2010Prop53
 90
        2
102
RTVSPost2010PropOp53
 70
     1
102
RTVSPost2010Prop54
  1
strokes_ogs.tif
102
RTVSPost2010PropOp54
 70
     1
102
RTVSPost2010Prop55
280
     0
102
RTVSPost2010PropOp55
 70
     1
102
RTVSPost2010Prop56
140
1.0
102
RTVSPost2010PropOp56
 70
     1
102
RTVSPost2010Prop57
140
1.0
102
RTVSPost2010PropOp57
 70
     1
102
RTVSPropertyOp0
 70
     1
102
RTVSPropertyOp1
 70
     1
102
RTVSPropertyOp2
 70
     1
102
RTVSPropertyOp3
 70
     1
102
RTVSPropertyOp4
 70
     1
102
RTVSPropertyOp5
 70
     1
102
RTVSPropertyOp6
 70
     1
102
RTVSPropertyOp7
 70
     1
102
RTVSPropertyOp8
 70
     1
102
RTVSPropertyOp9
 70
     1
102
RTVSPropertyOp10
 70
     1
102
RTVSPropertyOp11
 70
     1
102
RTVSPropertyOp12
 70
     1
102
RTVSPropertyOp13
 70
     1
102
RTVSPropertyOp14
 70
     1
102
RTVSPropertyOp15
 70
     1
102
RTVSPropertyOp16
 70
     1
102
RTVSPropertyOp17
 70
     1
102
RTVSPropertyOp18
 70
     1
102
RTVSPropertyOp19
 70
     1
102
RTVSPropertyOp20
 70
     1
102
RTVSPropertyOp21
 70
     1
102
RTVSPropertyOp22
 70
     1
102
RTVSPropertyOp23
 70
     1
102
RTVSPropertyOp24
 70
     1
102
RTVSPropertyOp25
 70
     1
102
RTVSPropertyOp26
 70
     1
102
RTVSPropertyOp27
 70
     1
102
RTVSPropertyOp28
 70
     1
102
RTVSPropertyOp29
 70
     1
102
RTVSPropertyOp30
 70
     1
102
RTVSPropertyOp31
 70
     1
102
RTVSPropertyOp32
 70
     1
102
RTVSPropertyOp33
 70
     1
102
RTVSPropertyOp34
 70
     1
102
RTVSPropertyOp35
 70
     1
102
RTVSPropertyOp36
 70
     1
102
RTVSPropertyOp37
 70
     1
102
RTVSPropertyOp38
 70
     1
102
RTVSPropertyOp39
 70
     1
102
RTVSPropertyOp40
 70
     1
102
RTVSPropertyOp41
 70
     1
102
RTVSPropertyOp42
 70
     1
102
RTVSPropertyOp43
 70
     1
102
RTVSPropertyOp44
 70
     1
102
RTVSPropertyOp45
 70
     1
102
RTVSPropertyOp46
 70
     1
102
RTVSPropertyOp47
 70
     1
102
RTVSPropertyOp48
 70
     1
102
RTVSPropertyOp49
 70
     1
102
RTVSPropertyOp50
 70
     1
102
RTVSPropertyOp51
 70
     0
102
RTVSPropertyOp52
 70
     0
102
RTVSPropertyOp53
 70
     1
102
RTVSPropertyOp54
 70
     1
102
RTVSPropertyOp55
 70
     1
102
RTVSPropertyOp56
 70
     1
102
RTVSPropertyOp57
 70
     1
102
RTVSPropertyOp58
 70
     1
102
RTVSPropertyOp59
 70
     1
102
RTVSPropertyOp60
 70
     1
102
RTVSPropertyOp61
 70
     1
102
RTVSPropertyOp62
 70
     1
  0
XRECORD
  5
182
102
{ACAD_REACTORS
330
181
102
}
330
181
100
AcDbXrecord
280
     1
102
RTVSPost2010Prop28
280
     0
102
RTVSPost2010PropOp28
 70
     0
102
RTVSPost2010Prop29
280
     1
102
RTVSPost2010PropOp29
 70
     0
102
RTVSPost2010Prop30
280
     1
102
RTVSPost2010PropOp30
 70
     0
102
RTVSPost2010Prop31
280
     0
102
RTVSPost2010PropOp31
 70
     0
102
RTVSPost2010Prop32
280
     0
102
RTVSPost2010PropOp32
 70
     0
102
RTVSPost2010Prop33
280
     0
102
RTVSPost2010PropOp33
 70
     0
102
RTVSPost2010Prop34
280
     0
102
RTVSPost2010PropOp34
 70
     0
102
RTVSPost2010Prop35
280
     0
102
RTVSPost2010PropOp35
 70
     0
102
RTVSPost2010Prop36
280
     0
102
RTVSPost2010PropOp36
 70
     0
102
RTVSPost2010Prop37
 90
       50
102
RTVSPost2010PropOp37
 70
     0
102
RTVSPost2010Prop38
140
0.0
102
RTVSPost2010PropOp38
 70
     0
102
RTVSPost2010Prop39
140
1.0
102
RTVSPost2010PropOp39
 70
     0
102
RTVSPost2010Prop40
 90
        0
102
RTVSPost2010PropOp40
 70
     0
102
RTVSPost2010Prop41ColorIndex
 90
       18
102
RTVSPost2010Prop41ColorRGB
 90
        0
102
RTVSPost2010PropOp41
 70
     0
102
RTVSPost2010Prop42
 90
       50
102
RTVSPost2010PropOp42
 70
     0
102
RTVSPost2010Prop43
 90
        3
102
RTVSPost2010PropOp43
 70
     0
102
RTVSPost2010Prop44ColorIndex
 90
        5
102
RTVSPost2010Prop44ColorRGB
 90
      255
102
RTVSPost2010PropOp44
 70
     0
102
RTVSPost2010Prop45
280
     0
102
RTVSPost2010PropOp45
 70
     0
102
RTVSPost2010Prop46
 90
       50
102
RTVSPost2010PropOp46
 70
     0
102
RTVSPost2010Prop47
 90
       50
102
RTVSPost2010PropOp47
 70
     0
102
RTVSPost2010Prop48
 90
       50
102
RTVSPost2010PropOp48
 70
     0
102
RTVSPost2010Prop49
280
     0
102
RTVSPost2010PropOp49
 70
     0
102
RTVSPost2010Prop50
 90
       50
102
RTVSPost2010PropOp50
 70
     0
102
RTVSPost2010Prop51ColorIndex
 90
      256
102
RTVSPost2010Prop51ColorRGB
 90
-16777216
102
RTVSPost2010PropOp51
 70
     0
102
RTVSPost2010Prop52
140
1.0
102
RTVSPost2010PropOp52
 70
     0
102
RTVSPost2010Prop53
 90
        2
102
RTVSPost2010PropOp53
 70
     0
102
RTVSPost2010Prop54
  1
strokes_ogs.tif
102
RTVSPost2010PropOp54
 70
     0
102
RTVSPost2010Prop55
280
     0
102
RTVSPost2010PropOp55
 70
     0
102
RTVSPost2010Prop56
140
1.0
102
RTVSPost2010PropOp56
 70
     0
102
RTVSPost2010Prop57
140
1.0
102
RTVSPost2010PropOp57
 70
     0
102
RTVSPropertyOp0
 70
     0
102
RTVSPropertyOp1
 70
     0
102
RTVSPropertyOp2
 70
     0
102
RTVSPropertyOp3
 70
     0
102
RTVSPropertyOp4
 70
     0
102
RTVSPropertyOp5
 70
     0
102
RTVSPropertyOp6
 70
     0
102
RTVSPropertyOp7
 70
     0
102
RTVSPropertyOp8
 70
     0
102
RTVSPropertyOp9
 70
     0
102
RTVSPropertyOp10
 70
     0
102
RTVSPropertyOp11
 70
     0
102
RTVSPropertyOp12
 70
     0
102
RTVSPropertyOp13
 70
     0
102
RTVSPropertyOp14
 70
     2
102
RTVSPropertyOp15
 70
     0
102
RTVSPropertyOp16
 70
     0
102
RTVSPropertyOp17
 70
     0
102
RTVSPropertyOp18
 70
     0
102
RTVSPropertyOp19
 70
     0
102
RTVSPropertyOp20
 70
     0
102
RTVSPropertyOp21
 70
     0
102
RTVSPropertyOp22
 70
     0
102
RTVSPropertyOp23
 70
     0
102
RTVSPropertyOp24
 70
     0
102
RTVSPropertyOp25
 70
     0
102
RTVSPropertyOp26
 70
     0
102
RTVSPropertyOp27
 70
     0
102
RTVSPropertyOp28
 70
     0
102
RTVSPropertyOp29
 70
     0
102
RTVSPropertyOp30
 70
     0
102
RTVSPropertyOp31
 70
     0
102
RTVSPropertyOp32
 70
     0
102
RTVSPropertyOp33
 70
     0
102
RTVSPropertyOp34
 70
     0
102
RTVSPropertyOp35
 70
     0
102
RTVSPropertyOp36
 70
     0
102
RTVSPropertyOp37
 70
     0
102
RTVSPropertyOp38
 70
     0
102
RTVSPropertyOp39
 70
     0
102
RTVSPropertyOp40
 70
     0
102
RTVSPropertyOp41
 70
     0
102
RTVSPropertyOp42
 70
     0
102
RTVSPropertyOp43
 70
     0
102
RTVSPropertyOp44
 70
     0
102
RTVSPropertyOp45
 70
     0
102
RTVSPropertyOp46
 70
     0
102
RTVSPropertyOp47
 70
     0
102
RTVSPropertyOp48
 70
     0
102
RTVSPropertyOp49
 70
     0
102
RTVSPropertyOp50
 70
     0
102
RTVSPropertyOp51
 70
     0
102
RTVSPropertyOp52
 70
     0
102
RTVSPropertyOp53
 70
     0
102
RTVSPropertyOp54
 70
     0
102
RTVSPropertyOp55
 70
     0
102
RTVSPropertyOp56
 70
     0
102
RTVSPropertyOp57
 70
     0
102
RTVSPropertyOp58
 70
     1
102
RTVSPropertyOp59
 70
     1
102
RTVSPropertyOp60
 70
     1
102
RTVSPropertyOp61
 70
     1
102
RTVSPropertyOp62
 70
     1
  0
XRECORD
  5
168
102
{ACAD_REACTORS
330
167
102
}
330
167
100
AcDbXrecord
280
     1
102
RTVSPost2010Prop28
280
     0
102
RTVSPost2010PropOp28
 70
     1
102
RTVSPost2010Prop29
280
     1
102
RTVSPost2010PropOp29
 70
     1
102
RTVSPost2010Prop30
280
     1
102
RTVSPost2010PropOp30
 70
     1
102
RTVSPost2010Prop31
280
     0
102
RTVSPost2010PropOp31
 70
     1
102
RTVSPost2010Prop32
280
     0
102
RTVSPost2010PropOp32
 70
     1
102
RTVSPost2010Prop33
280
     0
102
RTVSPost2010PropOp33
 70
     1
102
RTVSPost2010Prop34
280
     0
102
RTVSPost2010PropOp34
 70
     1
102
RTVSPost2010Prop35
280
     0
102
RTVSPost2010PropOp35
 70
     1
102
RTVSPost2010Prop36
280
     0
102
RTVSPost2010PropOp36
 70
     1
102
RTVSPost2010Prop37
 90
       50
102
RTVSPost2010PropOp37
 70
     1
102
RTVSPost2010Prop38
140
0.0
102
RTVSPost2010PropOp38
 70
     1
102
RTVSPost2010Prop39
140
1.0
102
RTVSPost2010PropOp39
 70
     1
102
RTVSPost2010Prop40
 90
        0
102
RTVSPost2010PropOp40
 70
     1
102
RTVSPost2010Prop41ColorIndex
 90
       18
102
RTVSPost2010Prop41ColorRGB
 90
        0
102
RTVSPost2010PropOp41
 70
     1
102
RTVSPost2010Prop42
 90
       50
102
RTVSPost2010PropOp42
 70
     1
102
RTVSPost2010Prop43
 90
        3
102
RTVSPost2010PropOp43
 70
     1
102
RTVSPost2010Prop44ColorIndex
 90
        5
102
RTVSPost2010Prop44ColorRGB
 90
      255
102
RTVSPost2010PropOp44
 70
     1
102
RTVSPost2010Prop45
280
     0
102
RTVSPost2010PropOp45
 70
     1
102
RTVSPost2010Prop46
 90
       50
102
RTVSPost2010PropOp46
 70
     1
102
RTVSPost2010Prop47
 90
       50
102
RTVSPost2010PropOp47
 70
     1
102
RTVSPost2010Prop48
 90
       50
102
RTVSPost2010PropOp48
 70
     1
102
RTVSPost2010Prop49
280
     0
102
RTVSPost2010PropOp49
 70
     1
102
RTVSPost2010Prop50
 90
       50
102
RTVSPost2010PropOp50
 70
     1
102
RTVSPost2010Prop51ColorIndex
 90
      256
102
RTVSPost2010Prop51ColorRGB
 90
-16777216
102
RTVSPost2010PropOp51
 70
     0
102
RTVSPost2010Prop52
140
1.0
102
RTVSPost2010PropOp52
 70
     0
102
RTVSPost2010Prop53
 90
        2
102
RTVSPost2010PropOp53
 70
     1
102
RTVSPost2010Prop54
  1
strokes_ogs.tif
102
RTVSPost2010PropOp54
 70
     1
102
RTVSPost2010Prop55
280
     0
102
RTVSPost2010PropOp55
 70
     1
102
RTVSPost2010Prop56
140
1.0
102
RTVSPost2010PropOp56
 70
     1
102
RTVSPost2010Prop57
140
1.0
102
RTVSPost2010PropOp57
 70
     1
102
RTVSPropertyOp0
 70
     1
102
RTVSPropertyOp1
 70
     1
102
RTVSPropertyOp2
 70
     1
102
RTVSPropertyOp3
 70
     1
102
RTVSPropertyOp4
 70
     1
102
RTVSPropertyOp5
 70
     1
102
RTVSPropertyOp6
 70
     1
102
RTVSPropertyOp7
 70
     1
102
RTVSPropertyOp8
 70
     1
102
RTVSPropertyOp9
 70
     1
102
RTVSPropertyOp10
 70
     1
102
RTVSPropertyOp11
 70
     1
102
RTVSPropertyOp12
 70
     1
102
RTVSPropertyOp13
 70
     1
102
RTVSPropertyOp14
 70
     1
102
RTVSPropertyOp15
 70
     1
102
RTVSPropertyOp16
 70
     1
102
RTVSPropertyOp17
 70
     1
102
RTVSPropertyOp18
 70
     1
102
RTVSPropertyOp19
 70
     1
102
RTVSPropertyOp20
 70
     1
102
RTVSPropertyOp21
 70
     1
102
RTVSPropertyOp22
 70
     1
102
RTVSPropertyOp23
 70
     1
102
RTVSPropertyOp24
 70
     1
102
RTVSPropertyOp25
 70
     1
102
RTVSPropertyOp26
 70
     1
102
RTVSPropertyOp27
 70
     1
102
RTVSPropertyOp28
 70
     1
102
RTVSPropertyOp29
 70
     1
102
RTVSPropertyOp30
 70
     1
102
RTVSPropertyOp31
 70
     1
102
RTVSPropertyOp32
 70
     1
102
RTVSPropertyOp33
 70
     1
102
RTVSPropertyOp34
 70
     1
102
RTVSPropertyOp35
 70
     1
102
RTVSPropertyOp36
 70
     1
102
RTVSPropertyOp37
 70
     1
102
RTVSPropertyOp38
 70
     1
102
RTVSPropertyOp39
 70
     1
102
RTVSPropertyOp40
 70
     1
102
RTVSPropertyOp41
 70
     1
102
RTVSPropertyOp42
 70
     1
102
RTVSPropertyOp43
 70
     1
102
RTVSPropertyOp44
 70
     1
102
RTVSPropertyOp45
 70
     1
102
RTVSPropertyOp46
 70
     1
102
RTVSPropertyOp47
 70
     1
102
RTVSPropertyOp48
 70
     1
102
RTVSPropertyOp49
 70
     1
102
RTVSPropertyOp50
 70
     1
102
RTVSPropertyOp51
 70
     0
102
RTVSPropertyOp52
 70
     0
102
RTVSPropertyOp53
 70
     1
102
RTVSPropertyOp54
 70
     1
102
RTVSPropertyOp55
 70
     1
102
RTVSPropertyOp56
 70
     1
102
RTVSPropertyOp57
 70
     1
102
RTVSPropertyOp58
 70
     1
102
RTVSPropertyOp59
 70
     1
102
RTVSPropertyOp60
 70
     1
102
RTVSPropertyOp61
 70
     1
102
RTVSPropertyOp62
 70
     1
  0
XRECORD
  5
17E
102
{ACAD_REACTORS
330
17D
102
}
330
17D
100
AcDbXrecord
280
     1
102
RTVSPost2010Prop28
280
     0
102
RTVSPost2010PropOp28
 70
     1
102
RTVSPost2010Prop29
280
     1
102
RTVSPost2010PropOp29
 70
     1
102
RTVSPost2010Prop30
280
     1
102
RTVSPost2010PropOp30
 70
     1
102
RTVSPost2010Prop31
280
     0
102
RTVSPost2010PropOp31
 70
     1
102
RTVSPost2010Prop32
280
     0
102
RTVSPost2010PropOp32
 70
     1
102
RTVSPost2010Prop33
280
     0
102
RTVSPost2010PropOp33
 70
     1
102
RTVSPost2010Prop34
280
     0
102
RTVSPost2010PropOp34
 70
     1
102
RTVSPost2010Prop35
280
     0
102
RTVSPost2010PropOp35
 70
     1
102
RTVSPost2010Prop36
280
     0
102
RTVSPost2010PropOp36
 70
     1
102
RTVSPost2010Prop37
 90
       50
102
RTVSPost2010PropOp37
 70
     1
102
RTVSPost2010Prop38
140
0.0
102
RTVSPost2010PropOp38
 70
     1
102
RTVSPost2010Prop39
140
1.0
102
RTVSPost2010PropOp39
 70
     1
102
RTVSPost2010Prop40
 90
        0
102
RTVSPost2010PropOp40
 70
     1
102
RTVSPost2010Prop41ColorIndex
 90
       18
102
RTVSPost2010Prop41ColorRGB
 90
        0
102
RTVSPost2010PropOp41
 70
     1
102
RTVSPost2010Prop42
 90
       50
102
RTVSPost2010PropOp42
 70
     1
102
RTVSPost2010Prop43
 90
        3
102
RTVSPost2010PropOp43
 70
     1
102
RTVSPost2010Prop44ColorIndex
 90
        5
102
RTVSPost2010Prop44ColorRGB
 90
      255
102
RTVSPost2010PropOp44
 70
     1
102
RTVSPost2010Prop45
280
     0
102
RTVSPost2010PropOp45
 70
     1
102
RTVSPost2010Prop46
 90
       50
102
RTVSPost2010PropOp46
 70
     1
102
RTVSPost2010Prop47
 90
       50
102
RTVSPost2010PropOp47
 70
     1
102
RTVSPost2010Prop48
 90
       50
102
RTVSPost2010PropOp48
 70
     1
102
RTVSPost2010Prop49
280
     0
102
RTVSPost2010PropOp49
 70
     1
102
RTVSPost2010Prop50
 90
       50
102
RTVSPost2010PropOp50
 70
     1
102
RTVSPost2010Prop51ColorIndex
 90
      256
102
RTVSPost2010Prop51ColorRGB
 90
-16777216
102
RTVSPost2010PropOp51
 70
     0
102
RTVSPost2010Prop52
140
1.0
102
RTVSPost2010PropOp52
 70
     0
102
RTVSPost2010Prop53
 90
        2
102
RTVSPost2010PropOp53
 70
     1
102
RTVSPost2010Prop54
  1
strokes_ogs.tif
102
RTVSPost2010PropOp54
 70
     1
102
RTVSPost2010Prop55
280
     0
102
RTVSPost2010PropOp55
 70
     1
102
RTVSPost2010Prop56
140
1.0
102
RTVSPost2010PropOp56
 70
     1
102
RTVSPost2010Prop57
140
1.0
102
RTVSPost2010PropOp57
 70
     1
102
RTVSPropertyOp0
 70
     1
102
RTVSPropertyOp1
 70
     1
102
RTVSPropertyOp2
 70
     1
102
RTVSPropertyOp3
 70
     1
102
RTVSPropertyOp4
 70
     1
102
RTVSPropertyOp5
 70
     1
102
RTVSPropertyOp6
 70
     1
102
RTVSPropertyOp7
 70
     1
102
RTVSPropertyOp8
 70
     1
102
RTVSPropertyOp9
 70
     1
102
RTVSPropertyOp10
 70
     1
102
RTVSPropertyOp11
 70
     1
102
RTVSPropertyOp12
 70
     1
102
RTVSPropertyOp13
 70
     1
102
RTVSPropertyOp14
 70
     1
102
RTVSPropertyOp15
 70
     1
102
RTVSPropertyOp16
 70
     1
102
RTVSPropertyOp17
 70
     1
102
RTVSPropertyOp18
 70
     1
102
RTVSPropertyOp19
 70
     1
102
RTVSPropertyOp20
 70
     1
102
RTVSPropertyOp21
 70
     1
102
RTVSPropertyOp22
 70
     1
102
RTVSPropertyOp23
 70
     1
102
RTVSPropertyOp24
 70
     1
102
RTVSPropertyOp25
 70
     1
102
RTVSPropertyOp26
 70
     1
102
RTVSPropertyOp27
 70
     1
102
RTVSPropertyOp28
 70
     1
102
RTVSPropertyOp29
 70
     1
102
RTVSPropertyOp30
 70
     1
102
RTVSPropertyOp31
 70
     1
102
RTVSPropertyOp32
 70
     1
102
RTVSPropertyOp33
 70
     1
102
RTVSPropertyOp34
 70
     1
102
RTVSPropertyOp35
 70
     1
102
RTVSPropertyOp36
 70
     1
102
RTVSPropertyOp37
 70
     1
102
RTVSPropertyOp38
 70
     1
102
RTVSPropertyOp39
 70
     1
102
RTVSPropertyOp40
 70
     1
102
RTVSPropertyOp41
 70
     1
102
RTVSPropertyOp42
 70
     1
102
RTVSPropertyOp43
 70
     1
102
RTVSPropertyOp44
 70
     1
102
RTVSPropertyOp45
 70
     1
102
RTVSPropertyOp46
 70
     1
102
RTVSPropertyOp47
 70
     1
102
RTVSPropertyOp48
 70
     1
102
RTVSPropertyOp49
 70
     1
102
RTVSPropertyOp50
 70
     1
102
RTVSPropertyOp51
 70
     0
102
RTVSPropertyOp52
 70
     0
102
RTVSPropertyOp53
 70
     1
102
RTVSPropertyOp54
 70
     1
102
RTVSPropertyOp55
 70
     1
102
RTVSPropertyOp56
 70
     1
102
RTVSPropertyOp57
 70
     1
102
RTVSPropertyOp58
 70
     1
102
RTVSPropertyOp59
 70
     1
102
RTVSPropertyOp60
 70
     1
102
RTVSPropertyOp61
 70
     1
102
RTVSPropertyOp62
 70
     1
  0
XRECORD
  5
17C
102
{ACAD_REACTORS
330
17B
102
}
330
17B
100
AcDbXrecord
280
     1
102
RTVSPost2010Prop28
280
     0
102
RTVSPost2010PropOp28
 70
     1
102
RTVSPost2010Prop29
280
     1
102
RTVSPost2010PropOp29
 70
     1
102
RTVSPost2010Prop30
280
     1
102
RTVSPost2010PropOp30
 70
     1
102
RTVSPost2010Prop31
280
     0
102
RTVSPost2010PropOp31
 70
     1
102
RTVSPost2010Prop32
280
     0
102
RTVSPost2010PropOp32
 70
     1
102
RTVSPost2010Prop33
280
     0
102
RTVSPost2010PropOp33
 70
     1
102
RTVSPost2010Prop34
280
     0
102
RTVSPost2010PropOp34
 70
     1
102
RTVSPost2010Prop35
280
     0
102
RTVSPost2010PropOp35
 70
     1
102
RTVSPost2010Prop36
280
     0
102
RTVSPost2010PropOp36
 70
     1
102
RTVSPost2010Prop37
 90
       50
102
RTVSPost2010PropOp37
 70
     1
102
RTVSPost2010Prop38
140
0.0
102
RTVSPost2010PropOp38
 70
     1
102
RTVSPost2010Prop39
140
1.0
102
RTVSPost2010PropOp39
 70
     1
102
RTVSPost2010Prop40
 90
        0
102
RTVSPost2010PropOp40
 70
     1
102
RTVSPost2010Prop41ColorIndex
 90
       18
102
RTVSPost2010Prop41ColorRGB
 90
        0
102
RTVSPost2010PropOp41
 70
     1
102
RTVSPost2010Prop42
 90
       50
102
RTVSPost2010PropOp42
 70
     1
102
RTVSPost2010Prop43
 90
        3
102
RTVSPost2010PropOp43
 70
     1
102
RTVSPost2010Prop44ColorIndex
 90
        5
102
RTVSPost2010Prop44ColorRGB
 90
      255
102
RTVSPost2010PropOp44
 70
     1
102
RTVSPost2010Prop45
280
     0
102
RTVSPost2010PropOp45
 70
     1
102
RTVSPost2010Prop46
 90
       50
102
RTVSPost2010PropOp46
 70
     1
102
RTVSPost2010Prop47
 90
       50
102
RTVSPost2010PropOp47
 70
     1
102
RTVSPost2010Prop48
 90
       50
102
RTVSPost2010PropOp48
 70
     1
102
RTVSPost2010Prop49
280
     0
102
RTVSPost2010PropOp49
 70
     1
102
RTVSPost2010Prop50
 90
       50
102
RTVSPost2010PropOp50
 70
     1
102
RTVSPost2010Prop51ColorIndex
 90
      256
102
RTVSPost2010Prop51ColorRGB
 90
-16777216
102
RTVSPost2010PropOp51
 70
     0
102
RTVSPost2010Prop52
140
1.0
102
RTVSPost2010PropOp52
 70
     0
102
RTVSPost2010Prop53
 90
        2
102
RTVSPost2010PropOp53
 70
     1
102
RTVSPost2010Prop54
  1
strokes_ogs.tif
102
RTVSPost2010PropOp54
 70
     1
102
RTVSPost2010Prop55
280
     0
102
RTVSPost2010PropOp55
 70
     1
102
RTVSPost2010Prop56
140
1.0
102
RTVSPost2010PropOp56
 70
     1
102
RTVSPost2010Prop57
140
1.0
102
RTVSPost2010PropOp57
 70
     1
102
RTVSPropertyOp0
 70
     1
102
RTVSPropertyOp1
 70
     1
102
RTVSPropertyOp2
 70
     1
102
RTVSPropertyOp3
 70
     1
102
RTVSPropertyOp4
 70
     1
102
RTVSPropertyOp5
 70
     1
102
RTVSPropertyOp6
 70
     1
102
RTVSPropertyOp7
 70
     1
102
RTVSPropertyOp8
 70
     1
102
RTVSPropertyOp9
 70
     1
102
RTVSPropertyOp10
 70
     1
102
RTVSPropertyOp11
 70
     1
102
RTVSPropertyOp12
 70
     1
102
RTVSPropertyOp13
 70
     1
102
RTVSPropertyOp14
 70
     1
102
RTVSPropertyOp15
 70
     1
102
RTVSPropertyOp16
 70
     1
102
RTVSPropertyOp17
 70
     1
102
RTVSPropertyOp18
 70
     1
102
RTVSPropertyOp19
 70
     1
102
RTVSPropertyOp20
 70
     1
102
RTVSPropertyOp21
 70
     1
102
RTVSPropertyOp22
 70
     1
102
RTVSPropertyOp23
 70
     1
102
RTVSPropertyOp24
 70
     1
102
RTVSPropertyOp25
 70
     1
102
RTVSPropertyOp26
 70
     1
102
RTVSPropertyOp27
 70
     1
102
RTVSPropertyOp28
 70
     1
102
RTVSPropertyOp29
 70
     1
102
RTVSPropertyOp30
 70
     1
102
RTVSPropertyOp31
 70
     1
102
RTVSPropertyOp32
 70
     1
102
RTVSPropertyOp33
 70
     1
102
RTVSPropertyOp34
 70
     1
102
RTVSPropertyOp35
 70
     1
102
RTVSPropertyOp36
 70
     1
102
RTVSPropertyOp37
 70
     1
102
RTVSPropertyOp38
 70
     1
102
RTVSPropertyOp39
 70
     1
102
RTVSPropertyOp40
 70
     1
102
RTVSPropertyOp41
 70
     1
102
RTVSPropertyOp42
 70
     1
102
RTVSPropertyOp43
 70
     1
102
RTVSPropertyOp44
 70
     1
102
RTVSPropertyOp45
 70
     1
102
RTVSPropertyOp46
 70
     1
102
RTVSPropertyOp47
 70
     1
102
RTVSPropertyOp48
 70
     1
102
RTVSPropertyOp49
 70
     1
102
RTVSPropertyOp50
 70
     1
102
RTVSPropertyOp51
 70
     0
102
RTVSPropertyOp52
 70
     0
102
RTVSPropertyOp53
 70
     1
102
RTVSPropertyOp54
 70
     1
102
RTVSPropertyOp55
 70
     1
102
RTVSPropertyOp56
 70
     1
102
RTVSPropertyOp57
 70
     1
102
RTVSPropertyOp58
 70
     1
102
RTVSPropertyOp59
 70
     1
102
RTVSPropertyOp60
 70
     1
102
RTVSPropertyOp61
 70
     1
102
RTVSPropertyOp62
 70
     1
  0
XRECORD
  5
176
102
{ACAD_REACTORS
330
175
102
}
330
175
100
AcDbXrecord
280
     1
102
RTVSPost2010Prop28
280
     0
102
RTVSPost2010PropOp28
 70
     1
102
RTVSPost2010Prop29
280
     1
102
RTVSPost2010PropOp29
 70
     1
102
RTVSPost2010Prop30
280
     1
102
RTVSPost2010PropOp30
 70
     1
102
RTVSPost2010Prop31
280
     0
102
RTVSPost2010PropOp31
 70
     1
102
RTVSPost2010Prop32
280
     0
102
RTVSPost2010PropOp32
 70
     1
102
RTVSPost2010Prop33
280
     0
102
RTVSPost2010PropOp33
 70
     1
102
RTVSPost2010Prop34
280
     0
102
RTVSPost2010PropOp34
 70
     1
102
RTVSPost2010Prop35
280
     0
102
RTVSPost2010PropOp35
 70
     1
102
RTVSPost2010Prop36
280
     0
102
RTVSPost2010PropOp36
 70
     1
102
RTVSPost2010Prop37
 90
       50
102
RTVSPost2010PropOp37
 70
     1
102
RTVSPost2010Prop38
140
0.0
102
RTVSPost2010PropOp38
 70
     1
102
RTVSPost2010Prop39
140
1.0
102
RTVSPost2010PropOp39
 70
     1
102
RTVSPost2010Prop40
 90
        0
102
RTVSPost2010PropOp40
 70
     1
102
RTVSPost2010Prop41ColorIndex
 90
       18
102
RTVSPost2010Prop41ColorRGB
 90
        0
102
RTVSPost2010PropOp41
 70
     1
102
RTVSPost2010Prop42
 90
       50
102
RTVSPost2010PropOp42
 70
     1
102
RTVSPost2010Prop43
 90
        3
102
RTVSPost2010PropOp43
 70
     1
102
RTVSPost2010Prop44ColorIndex
 90
        5
102
RTVSPost2010Prop44ColorRGB
 90
      255
102
RTVSPost2010PropOp44
 70
     1
102
RTVSPost2010Prop45
280
     0
102
RTVSPost2010PropOp45
 70
     1
102
RTVSPost2010Prop46
 90
       50
102
RTVSPost2010PropOp46
 70
     1
102
RTVSPost2010Prop47
 90
       50
102
RTVSPost2010PropOp47
 70
     1
102
RTVSPost2010Prop48
 90
       50
102
RTVSPost2010PropOp48
 70
     1
102
RTVSPost2010Prop49
280
     0
102
RTVSPost2010PropOp49
 70
     1
102
RTVSPost2010Prop50
 90
       50
102
RTVSPost2010PropOp50
 70
     1
102
RTVSPost2010Prop51ColorIndex
 90
      256
102
RTVSPost2010Prop51ColorRGB
 90
-16777216
102
RTVSPost2010PropOp51
 70
     0
102
RTVSPost2010Prop52
140
1.0
102
RTVSPost2010PropOp52
 70
     0
102
RTVSPost2010Prop53
 90
        2
102
RTVSPost2010PropOp53
 70
     1
102
RTVSPost2010Prop54
  1
strokes_ogs.tif
102
RTVSPost2010PropOp54
 70
     1
102
RTVSPost2010Prop55
280
     0
102
RTVSPost2010PropOp55
 70
     1
102
RTVSPost2010Prop56
140
1.0
102
RTVSPost2010PropOp56
 70
     1
102
RTVSPost2010Prop57
140
1.0
102
RTVSPost2010PropOp57
 70
     1
102
RTVSPropertyOp0
 70
     1
102
RTVSPropertyOp1
 70
     1
102
RTVSPropertyOp2
 70
     1
102
RTVSPropertyOp3
 70
     1
102
RTVSPropertyOp4
 70
     1
102
RTVSPropertyOp5
 70
     1
102
RTVSPropertyOp6
 70
     1
102
RTVSPropertyOp7
 70
     1
102
RTVSPropertyOp8
 70
     1
102
RTVSPropertyOp9
 70
     1
102
RTVSPropertyOp10
 70
     1
102
RTVSPropertyOp11
 70
     1
102
RTVSPropertyOp12
 70
     1
102
RTVSPropertyOp13
 70
     1
102
RTVSPropertyOp14
 70
     1
102
RTVSPropertyOp15
 70
     1
102
RTVSPropertyOp16
 70
     1
102
RTVSPropertyOp17
 70
     1
102
RTVSPropertyOp18
 70
     1
102
RTVSPropertyOp19
 70
     1
102
RTVSPropertyOp20
 70
     1
102
RTVSPropertyOp21
 70
     1
102
RTVSPropertyOp22
 70
     1
102
RTVSPropertyOp23
 70
     1
102
RTVSPropertyOp24
 70
     1
102
RTVSPropertyOp25
 70
     1
102
RTVSPropertyOp26
 70
     1
102
RTVSPropertyOp27
 70
     1
102
RTVSPropertyOp28
 70
     1
102
RTVSPropertyOp29
 70
     1
102
RTVSPropertyOp30
 70
     1
102
RTVSPropertyOp31
 70
     1
102
RTVSPropertyOp32
 70
     1
102
RTVSPropertyOp33
 70
     1
102
RTVSPropertyOp34
 70
     1
102
RTVSPropertyOp35
 70
     1
102
RTVSPropertyOp36
 70
     1
102
RTVSPropertyOp37
 70
     1
102
RTVSPropertyOp38
 70
     1
102
RTVSPropertyOp39
 70
     1
102
RTVSPropertyOp40
 70
     1
102
RTVSPropertyOp41
 70
     1
102
RTVSPropertyOp42
 70
     1
102
RTVSPropertyOp43
 70
     1
102
RTVSPropertyOp44
 70
     1
102
RTVSPropertyOp45
 70
     1
102
RTVSPropertyOp46
 70
     1
102
RTVSPropertyOp47
 70
     1
102
RTVSPropertyOp48
 70
     1
102
RTVSPropertyOp49
 70
     1
102
RTVSPropertyOp50
 70
     1
102
RTVSPropertyOp51
 70
     0
102
RTVSPropertyOp52
 70
     0
102
RTVSPropertyOp53
 70
     1
102
RTVSPropertyOp54
 70
     1
102
RTVSPropertyOp55
 70
     1
102
RTVSPropertyOp56
 70
     1
102
RTVSPropertyOp57
 70
     1
102
RTVSPropertyOp58
 70
     1
102
RTVSPropertyOp59
 70
     1
102
RTVSPropertyOp60
 70
     1
102
RTVSPropertyOp61
 70
     1
102
RTVSPropertyOp62
 70
     1
  0
XRECORD
  5
178
102
{ACAD_REACTORS
330
177
102
}
330
177
100
AcDbXrecord
280
     1
102
RTVSPost2010Prop28
280
     0
102
RTVSPost2010PropOp28
 70
     1
102
RTVSPost2010Prop29
280
     1
102
RTVSPost2010PropOp29
 70
     1
102
RTVSPost2010Prop30
280
     1
102
RTVSPost2010PropOp30
 70
     1
102
RTVSPost2010Prop31
280
     0
102
RTVSPost2010PropOp31
 70
     1
102
RTVSPost2010Prop32
280
     0
102
RTVSPost2010PropOp32
 70
     1
102
RTVSPost2010Prop33
280
     0
102
RTVSPost2010PropOp33
 70
     1
102
RTVSPost2010Prop34
280
     0
102
RTVSPost2010PropOp34
 70
     1
102
RTVSPost2010Prop35
280
     0
102
RTVSPost2010PropOp35
 70
     1
102
RTVSPost2010Prop36
280
     0
102
RTVSPost2010PropOp36
 70
     1
102
RTVSPost2010Prop37
 90
       50
102
RTVSPost2010PropOp37
 70
     1
102
RTVSPost2010Prop38
140
0.0
102
RTVSPost2010PropOp38
 70
     1
102
RTVSPost2010Prop39
140
1.0
102
RTVSPost2010PropOp39
 70
     1
102
RTVSPost2010Prop40
 90
        0
102
RTVSPost2010PropOp40
 70
     1
102
RTVSPost2010Prop41ColorIndex
 90
       18
102
RTVSPost2010Prop41ColorRGB
 90
        0
102
RTVSPost2010PropOp41
 70
     1
102
RTVSPost2010Prop42
 90
       50
102
RTVSPost2010PropOp42
 70
     1
102
RTVSPost2010Prop43
 90
        3
102
RTVSPost2010PropOp43
 70
     1
102
RTVSPost2010Prop44ColorIndex
 90
        5
102
RTVSPost2010Prop44ColorRGB
 90
      255
102
RTVSPost2010PropOp44
 70
     1
102
RTVSPost2010Prop45
280
     0
102
RTVSPost2010PropOp45
 70
     1
102
RTVSPost2010Prop46
 90
       50
102
RTVSPost2010PropOp46
 70
     1
102
RTVSPost2010Prop47
 90
       50
102
RTVSPost2010PropOp47
 70
     1
102
RTVSPost2010Prop48
 90
       50
102
RTVSPost2010PropOp48
 70
     1
102
RTVSPost2010Prop49
280
     0
102
RTVSPost2010PropOp49
 70
     1
102
RTVSPost2010Prop50
 90
       50
102
RTVSPost2010PropOp50
 70
     1
102
RTVSPost2010Prop51ColorIndex
 90
      256
102
RTVSPost2010Prop51ColorRGB
 90
-16777216
102
RTVSPost2010PropOp51
 70
     0
102
RTVSPost2010Prop52
140
1.0
102
RTVSPost2010PropOp52
 70
     0
102
RTVSPost2010Prop53
 90
        2
102
RTVSPost2010PropOp53
 70
     1
102
RTVSPost2010Prop54
  1
strokes_ogs.tif
102
RTVSPost2010PropOp54
 70
     1
102
RTVSPost2010Prop55
280
     0
102
RTVSPost2010PropOp55
 70
     1
102
RTVSPost2010Prop56
140
1.0
102
RTVSPost2010PropOp56
 70
     1
102
RTVSPost2010Prop57
140
1.0
102
RTVSPost2010PropOp57
 70
     1
102
RTVSPropertyOp0
 70
     1
102
RTVSPropertyOp1
 70
     1
102
RTVSPropertyOp2
 70
     1
102
RTVSPropertyOp3
 70
     1
102
RTVSPropertyOp4
 70
     1
102
RTVSPropertyOp5
 70
     1
102
RTVSPropertyOp6
 70
     1
102
RTVSPropertyOp7
 70
     1
102
RTVSPropertyOp8
 70
     1
102
RTVSPropertyOp9
 70
     1
102
RTVSPropertyOp10
 70
     1
102
RTVSPropertyOp11
 70
     1
102
RTVSPropertyOp12
 70
     1
102
RTVSPropertyOp13
 70
     1
102
RTVSPropertyOp14
 70
     1
102
RTVSPropertyOp15
 70
     1
102
RTVSPropertyOp16
 70
     1
102
RTVSPropertyOp17
 70
     1
102
RTVSPropertyOp18
 70
     1
102
RTVSPropertyOp19
 70
     1
102
RTVSPropertyOp20
 70
     1
102
RTVSPropertyOp21
 70
     1
102
RTVSPropertyOp22
 70
     1
102
RTVSPropertyOp23
 70
     1
102
RTVSPropertyOp24
 70
     1
102
RTVSPropertyOp25
 70
     1
102
RTVSPropertyOp26
 70
     1
102
RTVSPropertyOp27
 70
     1
102
RTVSPropertyOp28
 70
     1
102
RTVSPropertyOp29
 70
     1
102
RTVSPropertyOp30
 70
     1
102
RTVSPropertyOp31
 70
     1
102
RTVSPropertyOp32
 70
     1
102
RTVSPropertyOp33
 70
     1
102
RTVSPropertyOp34
 70
     1
102
RTVSPropertyOp35
 70
     1
102
RTVSPropertyOp36
 70
     1
102
RTVSPropertyOp37
 70
     1
102
RTVSPropertyOp38
 70
     1
102
RTVSPropertyOp39
 70
     1
102
RTVSPropertyOp40
 70
     1
102
RTVSPropertyOp41
 70
     1
102
RTVSPropertyOp42
 70
     1
102
RTVSPropertyOp43
 70
     1
102
RTVSPropertyOp44
 70
     1
102
RTVSPropertyOp45
 70
     1
102
RTVSPropertyOp46
 70
     1
102
RTVSPropertyOp47
 70
     1
102
RTVSPropertyOp48
 70
     1
102
RTVSPropertyOp49
 70
     1
102
RTVSPropertyOp50
 70
     1
102
RTVSPropertyOp51
 70
     0
102
RTVSPropertyOp52
 70
     0
102
RTVSPropertyOp53
 70
     1
102
RTVSPropertyOp54
 70
     1
102
RTVSPropertyOp55
 70
     1
102
RTVSPropertyOp56
 70
     1
102
RTVSPropertyOp57
 70
     1
102
RTVSPropertyOp58
 70
     1
102
RTVSPropertyOp59
 70
     1
102
RTVSPropertyOp60
 70
     1
102
RTVSPropertyOp61
 70
     1
102
RTVSPropertyOp62
 70
     1
  0
XRECORD
  5
16E
102
{ACAD_REACTORS
330
16D
102
}
330
16D
100
AcDbXrecord
280
     1
102
RTVSPost2010Prop28
280
     0
102
RTVSPost2010PropOp28
 70
     1
102
RTVSPost2010Prop29
280
     1
102
RTVSPost2010PropOp29
 70
     1
102
RTVSPost2010Prop30
280
     1
102
RTVSPost2010PropOp30
 70
     1
102
RTVSPost2010Prop31
280
     0
102
RTVSPost2010PropOp31
 70
     1
102
RTVSPost2010Prop32
280
     0
102
RTVSPost2010PropOp32
 70
     1
102
RTVSPost2010Prop33
280
     0
102
RTVSPost2010PropOp33
 70
     1
102
RTVSPost2010Prop34
280
     0
102
RTVSPost2010PropOp34
 70
     1
102
RTVSPost2010Prop35
280
     0
102
RTVSPost2010PropOp35
 70
     1
102
RTVSPost2010Prop36
280
     0
102
RTVSPost2010PropOp36
 70
     1
102
RTVSPost2010Prop37
 90
       50
102
RTVSPost2010PropOp37
 70
     1
102
RTVSPost2010Prop38
140
0.0
102
RTVSPost2010PropOp38
 70
     1
102
RTVSPost2010Prop39
140
1.0
102
RTVSPost2010PropOp39
 70
     1
102
RTVSPost2010Prop40
 90
        0
102
RTVSPost2010PropOp40
 70
     1
102
RTVSPost2010Prop41ColorIndex
 90
       18
102
RTVSPost2010Prop41ColorRGB
 90
        0
102
RTVSPost2010PropOp41
 70
     1
102
RTVSPost2010Prop42
 90
       50
102
RTVSPost2010PropOp42
 70
     1
102
RTVSPost2010Prop43
 90
        3
102
RTVSPost2010PropOp43
 70
     1
102
RTVSPost2010Prop44ColorIndex
 90
        5
102
RTVSPost2010Prop44ColorRGB
 90
      255
102
RTVSPost2010PropOp44
 70
     1
102
RTVSPost2010Prop45
280
     0
102
RTVSPost2010PropOp45
 70
     1
102
RTVSPost2010Prop46
 90
       50
102
RTVSPost2010PropOp46
 70
     1
102
RTVSPost2010Prop47
 90
       50
102
RTVSPost2010PropOp47
 70
     1
102
RTVSPost2010Prop48
 90
       50
102
RTVSPost2010PropOp48
 70
     1
102
RTVSPost2010Prop49
280
     0
102
RTVSPost2010PropOp49
 70
     1
102
RTVSPost2010Prop50
 90
       50
102
RTVSPost2010PropOp50
 70
     1
102
RTVSPost2010Prop51ColorIndex
 90
      256
102
RTVSPost2010Prop51ColorRGB
 90
-16777216
102
RTVSPost2010PropOp51
 70
     0
102
RTVSPost2010Prop52
140
1.0
102
RTVSPost2010PropOp52
 70
     0
102
RTVSPost2010Prop53
 90
        2
102
RTVSPost2010PropOp53
 70
     1
102
RTVSPost2010Prop54
  1
strokes_ogs.tif
102
RTVSPost2010PropOp54
 70
     1
102
RTVSPost2010Prop55
280
     0
102
RTVSPost2010PropOp55
 70
     1
102
RTVSPost2010Prop56
140
1.0
102
RTVSPost2010PropOp56
 70
     1
102
RTVSPost2010Prop57
140
1.0
102
RTVSPost2010PropOp57
 70
     1
102
RTVSPropertyOp0
 70
     1
102
RTVSPropertyOp1
 70
     1
102
RTVSPropertyOp2
 70
     1
102
RTVSPropertyOp3
 70
     1
102
RTVSPropertyOp4
 70
     1
102
RTVSPropertyOp5
 70
     1
102
RTVSPropertyOp6
 70
     1
102
RTVSPropertyOp7
 70
     1
102
RTVSPropertyOp8
 70
     1
102
RTVSPropertyOp9
 70
     1
102
RTVSPropertyOp10
 70
     1
102
RTVSPropertyOp11
 70
     1
102
RTVSPropertyOp12
 70
     1
102
RTVSPropertyOp13
 70
     1
102
RTVSPropertyOp14
 70
     1
102
RTVSPropertyOp15
 70
     1
102
RTVSPropertyOp16
 70
     1
102
RTVSPropertyOp17
 70
     1
102
RTVSPropertyOp18
 70
     1
102
RTVSPropertyOp19
 70
     1
102
RTVSPropertyOp20
 70
     1
102
RTVSPropertyOp21
 70
     1
102
RTVSPropertyOp22
 70
     1
102
RTVSPropertyOp23
 70
     1
102
RTVSPropertyOp24
 70
     1
102
RTVSPropertyOp25
 70
     1
102
RTVSPropertyOp26
 70
     1
102
RTVSPropertyOp27
 70
     1
102
RTVSPropertyOp28
 70
     1
102
RTVSPropertyOp29
 70
     1
102
RTVSPropertyOp30
 70
     1
102
RTVSPropertyOp31
 70
     1
102
RTVSPropertyOp32
 70
     1
102
RTVSPropertyOp33
 70
     1
102
RTVSPropertyOp34
 70
     1
102
RTVSPropertyOp35
 70
     1
102
RTVSPropertyOp36
 70
     1
102
RTVSPropertyOp37
 70
     1
102
RTVSPropertyOp38
 70
     1
102
RTVSPropertyOp39
 70
     1
102
RTVSPropertyOp40
 70
     1
102
RTVSPropertyOp41
 70
     1
102
RTVSPropertyOp42
 70
     1
102
RTVSPropertyOp43
 70
     1
102
RTVSPropertyOp44
 70
     1
102
RTVSPropertyOp45
 70
     1
102
RTVSPropertyOp46
 70
     1
102
RTVSPropertyOp47
 70
     1
102
RTVSPropertyOp48
 70
     1
102
RTVSPropertyOp49
 70
     1
102
RTVSPropertyOp50
 70
     1
102
RTVSPropertyOp51
 70
     0
102
RTVSPropertyOp52
 70
     0
102
RTVSPropertyOp53
 70
     1
102
RTVSPropertyOp54
 70
     1
102
RTVSPropertyOp55
 70
     1
102
RTVSPropertyOp56
 70
     1
102
RTVSPropertyOp57
 70
     1
102
RTVSPropertyOp58
 70
     1
102
RTVSPropertyOp59
 70
     1
102
RTVSPropertyOp60
 70
     1
102
RTVSPropertyOp61
 70
     1
102
RTVSPropertyOp62
 70
     1
  0
XRECORD
  5
162
102
{ACAD_REACTORS
330
161
102
}
330
161
100
AcDbXrecord
280
     1
102
RTVSPost2010Prop28
280
     0
102
RTVSPost2010PropOp28
 70
     1
102
RTVSPost2010Prop29
280
     1
102
RTVSPost2010PropOp29
 70
     1
102
RTVSPost2010Prop30
280
     1
102
RTVSPost2010PropOp30
 70
     1
102
RTVSPost2010Prop31
280
     0
102
RTVSPost2010PropOp31
 70
     1
102
RTVSPost2010Prop32
280
     0
102
RTVSPost2010PropOp32
 70
     1
102
RTVSPost2010Prop33
280
     0
102
RTVSPost2010PropOp33
 70
     1
102
RTVSPost2010Prop34
280
     0
102
RTVSPost2010PropOp34
 70
     1
102
RTVSPost2010Prop35
280
     0
102
RTVSPost2010PropOp35
 70
     1
102
RTVSPost2010Prop36
280
     0
102
RTVSPost2010PropOp36
 70
     1
102
RTVSPost2010Prop37
 90
       50
102
RTVSPost2010PropOp37
 70
     1
102
RTVSPost2010Prop38
140
0.0
102
RTVSPost2010PropOp38
 70
     1
102
RTVSPost2010Prop39
140
1.0
102
RTVSPost2010PropOp39
 70
     1
102
RTVSPost2010Prop40
 90
        0
102
RTVSPost2010PropOp40
 70
     1
102
RTVSPost2010Prop41ColorIndex
 90
       18
102
RTVSPost2010Prop41ColorRGB
 90
        0
102
RTVSPost2010PropOp41
 70
     1
102
RTVSPost2010Prop42
 90
       50
102
RTVSPost2010PropOp42
 70
     1
102
RTVSPost2010Prop43
 90
        3
102
RTVSPost2010PropOp43
 70
     1
102
RTVSPost2010Prop44ColorIndex
 90
        5
102
RTVSPost2010Prop44ColorRGB
 90
      255
102
RTVSPost2010PropOp44
 70
     1
102
RTVSPost2010Prop45
280
     0
102
RTVSPost2010PropOp45
 70
     1
102
RTVSPost2010Prop46
 90
       50
102
RTVSPost2010PropOp46
 70
     1
102
RTVSPost2010Prop47
 90
       50
102
RTVSPost2010PropOp47
 70
     1
102
RTVSPost2010Prop48
 90
       50
102
RTVSPost2010PropOp48
 70
     1
102
RTVSPost2010Prop49
280
     0
102
RTVSPost2010PropOp49
 70
     1
102
RTVSPost2010Prop50
 90
       50
102
RTVSPost2010PropOp50
 70
     1
102
RTVSPost2010Prop51ColorIndex
 90
      256
102
RTVSPost2010Prop51ColorRGB
 90
-16777216
102
RTVSPost2010PropOp51
 70
     0
102
RTVSPost2010Prop52
140
1.0
102
RTVSPost2010PropOp52
 70
     0
102
RTVSPost2010Prop53
 90
        2
102
RTVSPost2010PropOp53
 70
     1
102
RTVSPost2010Prop54
  1
strokes_ogs.tif
102
RTVSPost2010PropOp54
 70
     1
102
RTVSPost2010Prop55
280
     0
102
RTVSPost2010PropOp55
 70
     1
102
RTVSPost2010Prop56
140
1.0
102
RTVSPost2010PropOp56
 70
     1
102
RTVSPost2010Prop57
140
1.0
102
RTVSPost2010PropOp57
 70
     1
102
RTVSPropertyOp0
 70
     1
102
RTVSPropertyOp1
 70
     1
102
RTVSPropertyOp2
 70
     1
102
RTVSPropertyOp3
 70
     1
102
RTVSPropertyOp4
 70
     1
102
RTVSPropertyOp5
 70
     1
102
RTVSPropertyOp6
 70
     1
102
RTVSPropertyOp7
 70
     1
102
RTVSPropertyOp8
 70
     1
102
RTVSPropertyOp9
 70
     1
102
RTVSPropertyOp10
 70
     1
102
RTVSPropertyOp11
 70
     1
102
RTVSPropertyOp12
 70
     1
102
RTVSPropertyOp13
 70
     1
102
RTVSPropertyOp14
 70
     1
102
RTVSPropertyOp15
 70
     1
102
RTVSPropertyOp16
 70
     1
102
RTVSPropertyOp17
 70
     1
102
RTVSPropertyOp18
 70
     1
102
RTVSPropertyOp19
 70
     1
102
RTVSPropertyOp20
 70
     1
102
RTVSPropertyOp21
 70
     1
102
RTVSPropertyOp22
 70
     1
102
RTVSPropertyOp23
 70
     1
102
RTVSPropertyOp24
 70
     1
102
RTVSPropertyOp25
 70
     1
102
RTVSPropertyOp26
 70
     1
102
RTVSPropertyOp27
 70
     1
102
RTVSPropertyOp28
 70
     1
102
RTVSPropertyOp29
 70
     1
102
RTVSPropertyOp30
 70
     1
102
RTVSPropertyOp31
 70
     1
102
RTVSPropertyOp32
 70
     1
102
RTVSPropertyOp33
 70
     1
102
RTVSPropertyOp34
 70
     1
102
RTVSPropertyOp35
 70
     1
102
RTVSPropertyOp36
 70
     1
102
RTVSPropertyOp37
 70
     1
102
RTVSPropertyOp38
 70
     1
102
RTVSPropertyOp39
 70
     1
102
RTVSPropertyOp40
 70
     1
102
RTVSPropertyOp41
 70
     1
102
RTVSPropertyOp42
 70
     1
102
RTVSPropertyOp43
 70
     1
102
RTVSPropertyOp44
 70
     1
102
RTVSPropertyOp45
 70
     1
102
RTVSPropertyOp46
 70
     1
102
RTVSPropertyOp47
 70
     1
102
RTVSPropertyOp48
 70
     1
102
RTVSPropertyOp49
 70
     1
102
RTVSPropertyOp50
 70
     1
102
RTVSPropertyOp51
 70
     0
102
RTVSPropertyOp52
 70
     0
102
RTVSPropertyOp53
 70
     1
102
RTVSPropertyOp54
 70
     1
102
RTVSPropertyOp55
 70
     1
102
RTVSPropertyOp56
 70
     1
102
RTVSPropertyOp57
 70
     1
102
RTVSPropertyOp58
 70
     1
102
RTVSPropertyOp59
 70
     1
102
RTVSPropertyOp60
 70
     1
102
RTVSPropertyOp61
 70
     1
102
RTVSPropertyOp62
 70
     1
  0
XRECORD
  5
17A
102
{ACAD_REACTORS
330
179
102
}
330
179
100
AcDbXrecord
280
     1
102
RTVSPost2010Prop28
280
     0
102
RTVSPost2010PropOp28
 70
     1
102
RTVSPost2010Prop29
280
     1
102
RTVSPost2010PropOp29
 70
     1
102
RTVSPost2010Prop30
280
     1
102
RTVSPost2010PropOp30
 70
     1
102
RTVSPost2010Prop31
280
     0
102
RTVSPost2010PropOp31
 70
     1
102
RTVSPost2010Prop32
280
     0
102
RTVSPost2010PropOp32
 70
     1
102
RTVSPost2010Prop33
280
     0
102
RTVSPost2010PropOp33
 70
     1
102
RTVSPost2010Prop34
280
     0
102
RTVSPost2010PropOp34
 70
     1
102
RTVSPost2010Prop35
280
     0
102
RTVSPost2010PropOp35
 70
     1
102
RTVSPost2010Prop36
280
     0
102
RTVSPost2010PropOp36
 70
     1
102
RTVSPost2010Prop37
 90
       50
102
RTVSPost2010PropOp37
 70
     1
102
RTVSPost2010Prop38
140
0.0
102
RTVSPost2010PropOp38
 70
     1
102
RTVSPost2010Prop39
140
1.0
102
RTVSPost2010PropOp39
 70
     1
102
RTVSPost2010Prop40
 90
        0
102
RTVSPost2010PropOp40
 70
     1
102
RTVSPost2010Prop41ColorIndex
 90
       18
102
RTVSPost2010Prop41ColorRGB
 90
        0
102
RTVSPost2010PropOp41
 70
     1
102
RTVSPost2010Prop42
 90
       50
102
RTVSPost2010PropOp42
 70
     1
102
RTVSPost2010Prop43
 90
        3
102
RTVSPost2010PropOp43
 70
     1
102
RTVSPost2010Prop44ColorIndex
 90
        5
102
RTVSPost2010Prop44ColorRGB
 90
      255
102
RTVSPost2010PropOp44
 70
     1
102
RTVSPost2010Prop45
280
     0
102
RTVSPost2010PropOp45
 70
     1
102
RTVSPost2010Prop46
 90
       50
102
RTVSPost2010PropOp46
 70
     1
102
RTVSPost2010Prop47
 90
       50
102
RTVSPost2010PropOp47
 70
     1
102
RTVSPost2010Prop48
 90
       50
102
RTVSPost2010PropOp48
 70
     1
102
RTVSPost2010Prop49
280
     0
102
RTVSPost2010PropOp49
 70
     1
102
RTVSPost2010Prop50
 90
       50
102
RTVSPost2010PropOp50
 70
     1
102
RTVSPost2010Prop51ColorIndex
 90
      256
102
RTVSPost2010Prop51ColorRGB
 90
-16777216
102
RTVSPost2010PropOp51
 70
     0
102
RTVSPost2010Prop52
140
1.0
102
RTVSPost2010PropOp52
 70
     0
102
RTVSPost2010Prop53
 90
        2
102
RTVSPost2010PropOp53
 70
     1
102
RTVSPost2010Prop54
  1
strokes_ogs.tif
102
RTVSPost2010PropOp54
 70
     1
102
RTVSPost2010Prop55
280
     0
102
RTVSPost2010PropOp55
 70
     1
102
RTVSPost2010Prop56
140
1.0
102
RTVSPost2010PropOp56
 70
     1
102
RTVSPost2010Prop57
140
1.0
102
RTVSPost2010PropOp57
 70
     1
102
RTVSPropertyOp0
 70
     1
102
RTVSPropertyOp1
 70
     1
102
RTVSPropertyOp2
 70
     1
102
RTVSPropertyOp3
 70
     1
102
RTVSPropertyOp4
 70
     1
102
RTVSPropertyOp5
 70
     1
102
RTVSPropertyOp6
 70
     1
102
RTVSPropertyOp7
 70
     1
102
RTVSPropertyOp8
 70
     1
102
RTVSPropertyOp9
 70
     1
102
RTVSPropertyOp10
 70
     1
102
RTVSPropertyOp11
 70
     1
102
RTVSPropertyOp12
 70
     1
102
RTVSPropertyOp13
 70
     1
102
RTVSPropertyOp14
 70
     1
102
RTVSPropertyOp15
 70
     1
102
RTVSPropertyOp16
 70
     1
102
RTVSPropertyOp17
 70
     1
102
RTVSPropertyOp18
 70
     1
102
RTVSPropertyOp19
 70
     1
102
RTVSPropertyOp20
 70
     1
102
RTVSPropertyOp21
 70
     1
102
RTVSPropertyOp22
 70
     1
102
RTVSPropertyOp23
 70
     1
102
RTVSPropertyOp24
 70
     1
102
RTVSPropertyOp25
 70
     1
102
RTVSPropertyOp26
 70
     1
102
RTVSPropertyOp27
 70
     1
102
RTVSPropertyOp28
 70
     1
102
RTVSPropertyOp29
 70
     1
102
RTVSPropertyOp30
 70
     1
102
RTVSPropertyOp31
 70
     1
102
RTVSPropertyOp32
 70
     1
102
RTVSPropertyOp33
 70
     1
102
RTVSPropertyOp34
 70
     1
102
RTVSPropertyOp35
 70
     1
102
RTVSPropertyOp36
 70
     1
102
RTVSPropertyOp37
 70
     1
102
RTVSPropertyOp38
 70
     1
102
RTVSPropertyOp39
 70
     1
102
RTVSPropertyOp40
 70
     1
102
RTVSPropertyOp41
 70
     1
102
RTVSPropertyOp42
 70
     1
102
RTVSPropertyOp43
 70
     1
102
RTVSPropertyOp44
 70
     1
102
RTVSPropertyOp45
 70
     1
102
RTVSPropertyOp46
 70
     1
102
RTVSPropertyOp47
 70
     1
102
RTVSPropertyOp48
 70
     1
102
RTVSPropertyOp49
 70
     1
102
RTVSPropertyOp50
 70
     1
102
RTVSPropertyOp51
 70
     0
102
RTVSPropertyOp52
 70
     0
102
RTVSPropertyOp53
 70
     1
102
RTVSPropertyOp54
 70
     1
102
RTVSPropertyOp55
 70
     1
102
RTVSPropertyOp56
 70
     1
102
RTVSPropertyOp57
 70
     1
102
RTVSPropertyOp58
 70
     1
102
RTVSPropertyOp59
 70
     1
102
RTVSPropertyOp60
 70
     1
102
RTVSPropertyOp61
 70
     1
102
RTVSPropertyOp62
 70
     1
  0
ENDSEC
  0
EOF
