  0
SECTION
  2
HEADER
  9
$ACADVER
  1
AC1027
  9
$ACADMAINTVER
 70
   125
  9
$DWGCODEPAGE
  3
ANSI_1252
  9
$LASTSAVEDBY
  1
andrea.ragusa
  9
$REQUIREDVERSIONS
160
                 0
  9
$INSBASE
 10
0.0
 20
0.0
 30
0.0
  9
$EXTMIN
 10
-0.0128164049386896
 20
0.0135962725775016
 30
-0.0015258207003583
  9
$EXTMAX
 10
14.31060841576038
 20
21.0640872843378
 30
0.0000000349246037
  9
$LIMMIN
 10
0.0
 20
0.0
  9
$LIMMAX
 10
420.0
 20
297.0
  9
$ORTHOMODE
 70
     0
  9
$REGENMODE
 70
     1
  9
$FILLMODE
 70
     1
  9
$QTEXTMODE
 70
     0
  9
$MIRRTEXT
 70
     0
  9
$LTSCALE
 40
1.0
  9
$ATTMODE
 70
     1
  9
$TEXTSIZE
 40
2.5
  9
$TRACEWID
 40
1.0
  9
$TEXTSTYLE
  7
Standard
  9
$CLAYER
  8
0
  9
$CELTYPE
  6
ByLayer
  9
$CECOLOR
 62
   256
  9
$CELTSCALE
 40
1.0
  9
$DISPSILH
 70
     0
  9
$DIMSCALE
 40
1.0
  9
$DIMASZ
 40
2.5
  9
$DIMEXO
 40
0.625
  9
$DIMDLI
 40
3.75
  9
$DIMRND
 40
0.0
  9
$DIMDLE
 40
0.0
  9
$DIMEXE
 40
1.25
  9
$DIMTP
 40
0.0
  9
$DIMTM
 40
0.0
  9
$DIMTXT
 40
2.5
  9
$DIMCEN
 40
2.5
  9
$DIMTSZ
 40
0.0
  9
$DIMTOL
 70
     0
  9
$DIMLIM
 70
     0
  9
$DIMTIH
 70
     0
  9
$DIMTOH
 70
     0
  9
$DIMSE1
 70
     0
  9
$DIMSE2
 70
     0
  9
$DIMTAD
 70
     1
  9
$DIMZIN
 70
     8
  9
$DIMBLK
  1

  9
$DIMASO
 70
     1
  9
$DIMSHO
 70
     1
  9
$DIMPOST
  1

  9
$DIMAPOST
  1

  9
$DIMALT
 70
     0
  9
$DIMALTD
 70
     3
  9
$DIMALTF
 40
0.03937007874016
  9
$DIMLFAC
 40
1.0
  9
$DIMTOFL
 70
     1
  9
$DIMTVP
 40
0.0
  9
$DIMTIX
 70
     0
  9
$DIMSOXD
 70
     0
  9
$DIMSAH
 70
     0
  9
$DIMBLK1
  1

  9
$DIMBLK2
  1

  9
$DIMSTYLE
  2
ISO-25
  9
$DIMCLRD
 70
     0
  9
$DIMCLRE
 70
     0
  9
$DIMCLRT
 70
     0
  9
$DIMTFAC
 40
1.0
  9
$DIMGAP
 40
0.625
  9
$DIMJUST
 70
     0
  9
$DIMSD1
 70
     0
  9
$DIMSD2
 70
     0
  9
$DIMTOLJ
 70
     0
  9
$DIMTZIN
 70
     8
  9
$DIMALTZ
 70
     0
  9
$DIMALTTZ
 70
     0
  9
$DIMUPT
 70
     0
  9
$DIMDEC
 70
     2
  9
$DIMTDEC
 70
     2
  9
$DIMALTU
 70
     2
  9
$DIMALTTD
 70
     3
  9
$DIMTXSTY
  7
Standard
  9
$DIMAUNIT
 70
     0
  9
$DIMADEC
 70
     0
  9
$DIMALTRND
 40
0.0
  9
$DIMAZIN
 70
     0
  9
$DIMDSEP
 70
    44
  9
$DIMATFIT
 70
     3
  9
$DIMFRAC
 70
     0
  9
$DIMLDRBLK
  1

  9
$DIMLUNIT
 70
     2
  9
$DIMLWD
 70
    -2
  9
$DIMLWE
 70
    -2
  9
$DIMTMOVE
 70
     0
  9
$DIMFXL
 40
1.0
  9
$DIMFXLON
 70
     0
  9
$DIMJOGANG
 40
0.7853981633974483
  9
$DIMTFILL
 70
     0
  9
$DIMTFILLCLR
 70
     0
  9
$DIMARCSYM
 70
     0
  9
$DIMLTYPE
  6

  9
$DIMLTEX1
  6

  9
$DIMLTEX2
  6

  9
$DIMTXTDIRECTION
 70
     0
  9
$LUNITS
 70
     2
  9
$LUPREC
 70
     4
  9
$SKETCHINC
 40
1.0
  9
$FILLETRAD
 40
0.0
  9
$AUNITS
 70
     0
  9
$AUPREC
 70
     0
  9
$MENU
  1
.
  9
$ELEVATION
 40
0.0
  9
$PELEVATION
 40
0.0
  9
$THICKNESS
 40
0.0
  9
$LIMCHECK
 70
     0
  9
$CHAMFERA
 40
0.0
  9
$CHAMFERB
 40
0.0
  9
$CHAMFERC
 40
0.0
  9
$CHAMFERD
 40
0.0
  9
$SKPOLY
 70
     0
  9
$TDCREATE
 40
2459020.596342593
  9
$TDUCREATE
 40
2459020.513009260
  9
$TDUPDATE
 40
2459020.596770833
  9
$TDUUPDATE
 40
2459020.513437500
  9
$TDINDWG
 40
0.0004282407
  9
$TDUSRTIMER
 40
0.0004282407
  9
$USRTIMER
 70
     1
  9
$ANGBASE
 50
0.0
  9
$ANGDIR
 70
     0
  9
$PDMODE
 70
     0
  9
$PDSIZE
 40
0.0
  9
$PLINEWID
 40
0.0
  9
$SPLFRAME
 70
     0
  9
$SPLINETYPE
 70
     6
  9
$SPLINESEGS
 70
     8
  9
$HANDSEED
  5
D1F
  9
$SURFTAB1
 70
     6
  9
$SURFTAB2
 70
     6
  9
$SURFTYPE
 70
     6
  9
$SURFU
 70
     6
  9
$SURFV
 70
     6
  9
$UCSBASE
  2

  9
$UCSNAME
  2

  9
$UCSORG
 10
0.0
 20
0.0
 30
0.0
  9
$UCSXDIR
 10
1.0
 20
0.0
 30
0.0
  9
$UCSYDIR
 10
0.0
 20
1.0
 30
0.0
  9
$UCSORTHOREF
  2

  9
$UCSORTHOVIEW
 70
     0
  9
$UCSORGTOP
 10
0.0
 20
0.0
 30
0.0
  9
$UCSORGBOTTOM
 10
0.0
 20
0.0
 30
0.0
  9
$UCSORGLEFT
 10
0.0
 20
0.0
 30
0.0
  9
$UCSORGRIGHT
 10
0.0
 20
0.0
 30
0.0
  9
$UCSORGFRONT
 10
0.0
 20
0.0
 30
0.0
  9
$UCSORGBACK
 10
0.0
 20
0.0
 30
0.0
  9
$PUCSBASE
  2

  9
$PUCSNAME
  2

  9
$PUCSORG
 10
0.0
 20
0.0
 30
0.0
  9
$PUCSXDIR
 10
1.0
 20
0.0
 30
0.0
  9
$PUCSYDIR
 10
0.0
 20
1.0
 30
0.0
  9
$PUCSORTHOREF
  2

  9
$PUCSORTHOVIEW
 70
     0
  9
$PUCSORGTOP
 10
0.0
 20
0.0
 30
0.0
  9
$PUCSORGBOTTOM
 10
0.0
 20
0.0
 30
0.0
  9
$PUCSORGLEFT
 10
0.0
 20
0.0
 30
0.0
  9
$PUCSORGRIGHT
 10
0.0
 20
0.0
 30
0.0
  9
$PUCSORGFRONT
 10
0.0
 20
0.0
 30
0.0
  9
$PUCSORGBACK
 10
0.0
 20
0.0
 30
0.0
  9
$USERI1
 70
     0
  9
$USERI2
 70
     0
  9
$USERI3
 70
     0
  9
$USERI4
 70
     0
  9
$USERI5
 70
     0
  9
$USERR1
 40
0.0
  9
$USERR2
 40
0.0
  9
$USERR3
 40
0.0
  9
$USERR4
 40
0.0
  9
$USERR5
 40
0.0
  9
$WORLDVIEW
 70
     1
  9
$SHADEDGE
 70
     3
  9
$SHADEDIF
 70
    70
  9
$TILEMODE
 70
     1
  9
$MAXACTVP
 70
    64
  9
$PINSBASE
 10
0.0
 20
0.0
 30
0.0
  9
$PLIMCHECK
 70
     0
  9
$PEXTMIN
 10
0.0
 20
0.0
 30
0.0
  9
$PEXTMAX
 10
0.0
 20
0.0
 30
0.0
  9
$PLIMMIN
 10
0.0
 20
0.0
  9
$PLIMMAX
 10
12.0
 20
9.0
  9
$UNITMODE
 70
     0
  9
$VISRETAIN
 70
     1
  9
$PLINEGEN
 70
     0
  9
$PSLTSCALE
 70
     1
  9
$TREEDEPTH
 70
  3020
  9
$CMLSTYLE
  2
Standard
  9
$CMLJUST
 70
     0
  9
$CMLSCALE
 40
20.0
  9
$PROXYGRAPHICS
 70
     1
  9
$MEASUREMENT
 70
     1
  9
$CELWEIGHT
370
    -1
  9
$ENDCAPS
280
     0
  9
$JOINSTYLE
280
     0
  9
$LWDISPLAY
290
     0
  9
$INSUNITS
 70
     4
  9
$HYPERLINKBASE
  1

  9
$STYLESHEET
  1

  9
$XEDIT
290
     1
  9
$CEPSNTYPE
380
     0
  9
$PSTYLEMODE
290
     1
  9
$FINGERPRINTGUID
  2
{004152FF-0D3F-4A4F-9E8E-BC9656FB5BBC}
  9
$VERSIONGUID
  2
{B22C3DFD-C370-E748-B3E4-7040C5B82F4C}
  9
$EXTNAMES
290
     1
  9
$PSVPSCALE
 40
0.0
  9
$OLESTARTUP
290
     0
  9
$SORTENTS
280
   127
  9
$INDEXCTL
280
     0
  9
$HIDETEXT
280
     1
  9
$XCLIPFRAME
280
     2
  9
$HALOGAP
280
     0
  9
$OBSCOLOR
 70
   257
  9
$OBSLTYPE
280
     0
  9
$INTERSECTIONDISPLAY
280
     0
  9
$INTERSECTIONCOLOR
 70
   257
  9
$DIMASSOC
280
     2
  9
$PROJECTNAME
  1

  9
$CAMERADISPLAY
290
     0
  9
$LENSLENGTH
 40
50.0
  9
$CAMERAHEIGHT
 40
0.0
  9
$STEPSPERSEC
 40
2.0
  9
$STEPSIZE
 40
6.0
  9
$3DDWFPREC
 40
2.0
  9
$PSOLWIDTH
 40
5.0
  9
$PSOLHEIGHT
 40
80.0
  9
$LOFTANG1
 40
1.570796326794896
  9
$LOFTANG2
 40
1.570796326794896
  9
$LOFTMAG1
 40
0.0
  9
$LOFTMAG2
 40
0.0
  9
$LOFTPARAM
 70
     7
  9
$LOFTNORMALS
280
     1
  9
$LATITUDE
 40
37.795
  9
$LONGITUDE
 40
-122.394
  9
$NORTHDIRECTION
 40
0.0
  9
$TIMEZONE
 70
 -8000
  9
$LIGHTGLYPHDISPLAY
280
     1
  9
$TILEMODELIGHTSYNCH
280
     1
  9
$CMATERIAL
347
EC
  9
$SOLIDHIST
280
     0
  9
$SHOWHIST
280
     1
  9
$DWFFRAME
280
     2
  9
$DGNFRAME
280
     0
  9
$REALWORLDSCALE
290
     1
  9
$INTERFERECOLOR
 62
     1
  9
$INTERFEREOBJVS
345
F9
  9
$INTERFEREVPVS
346
F6
  9
$CSHADOW
280
     0
  9
$SHADOWPLANELOCATION
 40
0.0
  0
ENDSEC
  0
SECTION
  2
CLASSES
  0
CLASS
  1
ACDBDICTIONARYWDFLT
  2
AcDbDictionaryWithDefault
  3
ObjectDBX Classes
 90
        0
 91
        1
280
     0
281
     0
  0
CLASS
  1
DICTIONARYVAR
  2
AcDbDictionaryVar
  3
ObjectDBX Classes
 90
        0
 91
       11
280
     0
281
     0
  0
CLASS
  1
TABLESTYLE
  2
AcDbTableStyle
  3
ObjectDBX Classes
 90
     4095
 91
        1
280
     0
281
     0
  0
CLASS
  1
MATERIAL
  2
AcDbMaterial
  3
ObjectDBX Classes
 90
     1153
 91
        3
280
     0
281
     0
  0
CLASS
  1
VISUALSTYLE
  2
AcDbVisualStyle
  3
ObjectDBX Classes
 90
     4095
 91
       24
280
     0
281
     0
  0
CLASS
  1
SCALE
  2
AcDbScale
  3
ObjectDBX Classes
 90
     1153
 91
       17
280
     0
281
     0
  0
CLASS
  1
MLEADERSTYLE
  2
AcDbMLeaderStyle
  3
ACDB_MLEADERSTYLE_CLASS
 90
     4095
 91
        2
280
     0
281
     0
  0
CLASS
  1
CELLSTYLEMAP
  2
AcDbCellStyleMap
  3
ObjectDBX Classes
 90
     1152
 91
        1
280
     0
281
     0
  0
CLASS
  1
EXACXREFPANELOBJECT
  2
ExAcXREFPanelObject
  3
EXAC_ESW
 90
     1025
 91
        0
280
     0
281
     0
  0
CLASS
  1
NPOCOLLECTION
  2
AcDbImpNonPersistentObjectsCollection
  3
ObjectDBX Classes
 90
     1153
 91
        0
280
     0
281
     0
  0
CLASS
  1
LAYER_INDEX
  2
AcDbLayerIndex
  3
ObjectDBX Classes
 90
        0
 91
        0
280
     0
281
     0
  0
CLASS
  1
SPATIAL_INDEX
  2
AcDbSpatialIndex
  3
ObjectDBX Classes
 90
        0
 91
        0
280
     0
281
     0
  0
CLASS
  1
IDBUFFER
  2
AcDbIdBuffer
  3
ObjectDBX Classes
 90
        0
 91
        0
280
     0
281
     0
  0
CLASS
  1
ACDBSECTIONVIEWSTYLE
  2
AcDbSectionViewStyle
  3
ObjectDBX Classes
 90
     1025
 91
        2
280
     0
281
     0
  0
CLASS
  1
ACDBDETAILVIEWSTYLE
  2
AcDbDetailViewStyle
  3
ObjectDBX Classes
 90
     1025
 91
        2
280
     0
281
     0
  0
CLASS
  1
SORTENTSTABLE
  2
AcDbSortentsTable
  3
ObjectDBX Classes
 90
        0
 91
        1
280
     0
281
     0
  0
ENDSEC
  0
SECTION
  2
TABLES
  0
TABLE
  2
VPORT
  5
8
330
0
100
AcDbSymbolTable
 70
     1
1001
ACAD
1000
DbSaveVer
1071
      208
  0
VPORT
  5
EA
330
8
100
AcDbSymbolTableRecord
100
AcDbViewportTableRecord
  2
*Active
 70
     0
 10
0.0
 20
0.0
 11
1.0
 21
1.0
 12
9.66386275015138
 22
5.606320366602322
 13
0.0
 23
0.0
 14
10.0
 24
10.0
 15
10.0
 25
10.0
 16
0.0
 26
0.0
 36
1.0
 17
0.0
 27
0.0
 37
0.0
 40
54.94039628152313
 41
2.452859350850077
 42
50.0
 43
0.0
 44
0.0
 50
0.0
 51
0.0
 71
     0
 72
  1000
 73
     1
 74
     3
 75
     1
 76
     1
 77
     0
 78
     0
281
     0
 65
     1
110
0.0
120
0.0
130
0.0
111
1.0
121
0.0
131
0.0
112
0.0
122
1.0
132
0.0
 79
     0
146
0.0
348
F5
 60
     3
 61
     5
292
     1
282
     1
141
0.0
142
0.0
 63
   250
421
  3355443
1001
ACAD_NAV_VCDISPLAY
1070
     3
  0
ENDTAB
  0
TABLE
  2
LTYPE
  5
5
330
0
100
AcDbSymbolTable
 70
     1
  0
LTYPE
  5
14
330
5
100
AcDbSymbolTableRecord
100
AcDbLinetypeTableRecord
  2
ByBlock
 70
     0
  3

 72
    65
 73
     0
 40
0.0
  0
LTYPE
  5
15
330
5
100
AcDbSymbolTableRecord
100
AcDbLinetypeTableRecord
  2
ByLayer
 70
     0
  3

 72
    65
 73
     0
 40
0.0
  0
LTYPE
  5
16
330
5
100
AcDbSymbolTableRecord
100
AcDbLinetypeTableRecord
  2
Continuous
 70
     0
  3
Solid line
 72
    65
 73
     0
 40
0.0
  0
ENDTAB
  0
TABLE
  2
LAYER
  5
2
102
{ACAD_XDICTIONARY
360
1FF
102
}
330
0
100
AcDbSymbolTable
 70
     2
  0
LAYER
  5
10
102
{ACAD_XDICTIONARY
360
13C
102
}
330
2
100
AcDbSymbolTableRecord
100
AcDbLayerTableRecord
  2
0
 70
     0
 62
     7
  6
Continuous
370
    -3
390
F
347
EE
348
0
  0
LAYER
  5
28C
330
2
100
AcDbSymbolTableRecord
100
AcDbLayerTableRecord
  2
Livello 1
 70
     0
 62
     7
  6
Continuous
370
    -3
390
F
347
EE
348
0
  0
ENDTAB
  0
TABLE
  2
STYLE
  5
3
330
0
100
AcDbSymbolTable
 70
     3
  0
STYLE
  5
11
330
3
100
AcDbSymbolTableRecord
100
AcDbTextStyleTableRecord
  2
Standard
 70
     0
 40
0.0
 41
1.0
 50
0.0
 71
     0
 42
2.5
  3
arial.ttf
  4

1001
ACAD
1000
Arial
1071
       34
  0
STYLE
  5
132
330
3
100
AcDbSymbolTableRecord
100
AcDbTextStyleTableRecord
  2
Annotativa
 70
     0
 40
0.0
 41
1.0
 50
0.0
 71
     0
 42
2.5
  3
arial.ttf
  4

1001
AcadAnnotative
1000
AnnotativeData
1002
{
1070
     1
1070
     1
1002
}
1001
ACAD
1000
Arial
1071
       34
  0
STYLE
  5
28D
330
3
100
AcDbSymbolTableRecord
100
AcDbTextStyleTableRecord
  2
MtXpl_Source_Sans_Pr
 70
     0
 40
0.0
 41
1.0
 50
0.0
 71
     0
 42
0.2
  3

  4

1001
ACAD
1000
Source Sans Pro Light
1071
       34
  0
ENDTAB
  0
TABLE
  2
VIEW
  5
6
330
0
100
AcDbSymbolTable
 70
     0
  0
ENDTAB
  0
TABLE
  2
UCS
  5
7
330
0
100
AcDbSymbolTable
 70
     0
  0
ENDTAB
  0
TABLE
  2
APPID
  5
9
330
0
100
AcDbSymbolTable
 70
     8
  0
APPID
  5
12
330
9
100
AcDbSymbolTableRecord
100
AcDbRegAppTableRecord
  2
ACAD
 70
     0
  0
APPID
  5
9E
330
9
100
AcDbSymbolTableRecord
100
AcDbRegAppTableRecord
  2
ACAD_PSEXT
 70
     0
  0
APPID
  5
133
330
9
100
AcDbSymbolTableRecord
100
AcDbRegAppTableRecord
  2
AcadAnnoPO
 70
     0
  0
APPID
  5
134
330
9
100
AcDbSymbolTableRecord
100
AcDbRegAppTableRecord
  2
AcadAnnotative
 70
     0
  0
APPID
  5
135
330
9
100
AcDbSymbolTableRecord
100
AcDbRegAppTableRecord
  2
ACAD_DSTYLE_DIMJAG
 70
     0
  0
APPID
  5
136
330
9
100
AcDbSymbolTableRecord
100
AcDbRegAppTableRecord
  2
ACAD_DSTYLE_DIMTALN
 70
     0
  0
APPID
  5
165
330
9
100
AcDbSymbolTableRecord
100
AcDbRegAppTableRecord
  2
ACAD_MLEADERVER
 70
     0
  0
APPID
  5
217
330
9
100
AcDbSymbolTableRecord
100
AcDbRegAppTableRecord
  2
ACAD_NAV_VCDISPLAY
 70
     0
  0
ENDTAB
  0
TABLE
  2
DIMSTYLE
  5
A
330
0
100
AcDbSymbolTable
 70
     3
100
AcDbDimStyleTable
 71
     2
340
27
340
137
  0
DIMSTYLE
105
1B0
330
A
100
AcDbSymbolTableRecord
100
AcDbDimStyleTableRecord
  2
Standard
 70
     0
340
11
  0
DIMSTYLE
105
137
330
A
100
AcDbSymbolTableRecord
100
AcDbDimStyleTableRecord
  2
Annotativa
 70
     0
 40
0.0
 41
2.5
 42
0.625
 43
3.75
 44
1.25
 73
     0
 74
     0
 77
     1
 78
     8
140
2.5
141
2.5
143
0.03937007874016
147
0.625
171
     3
172
     1
271
     2
272
     2
274
     3
278
    44
283
     0
284
     8
340
11
1001
AcadAnnotative
1000
AnnotativeData
1002
{
1070
     1
1070
     1
1002
}
1001
ACAD_DSTYLE_DIMJAG
1070
   388
1040
1.5
1001
ACAD_DSTYLE_DIMTALN
1070
   392
1070
     0
  0
DIMSTYLE
105
27
330
A
100
AcDbSymbolTableRecord
100
AcDbDimStyleTableRecord
  2
ISO-25
 70
     0
 41
2.5
 42
0.625
 43
3.75
 44
1.25
 73
     0
 74
     0
 77
     1
 78
     8
140
2.5
141
2.5
143
0.03937007874016
147
0.625
171
     3
172
     1
271
     2
272
     2
274
     3
278
    44
283
     0
284
     8
340
11
  0
ENDTAB
  0
TABLE
  2
BLOCK_RECORD
  5
1
330
0
100
AcDbSymbolTable
 70
     2
  0
BLOCK_RECORD
  5
1F
102
{ACAD_XDICTIONARY
360
1CE
102
}
330
1
100
AcDbSymbolTableRecord
100
AcDbBlockTableRecord
  2
*Model_Space
340
22
 70
     0
280
     1
281
     0
  0
BLOCK_RECORD
  5
D2
330
1
100
AcDbSymbolTableRecord
100
AcDbBlockTableRecord
  2
*Paper_Space
340
D3
 70
     0
280
     1
281
     0
  0
BLOCK_RECORD
  5
D6
330
1
100
AcDbSymbolTableRecord
100
AcDbBlockTableRecord
  2
*Paper_Space0
340
D7
 70
     0
280
     1
281
     0
  0
ENDTAB
  0
ENDSEC
  0
SECTION
  2
BLOCKS
  0
BLOCK
  5
20
330
1F
100
AcDbEntity
  8
0
100
AcDbBlockBegin
  2
*Model_Space
 70
     0
 10
0.0
 20
0.0
 30
0.0
  3
*Model_Space
  1

  0
ENDBLK
  5
21
330
1F
100
AcDbEntity
  8
0
100
AcDbBlockEnd
  0
BLOCK
  5
D4
330
D2
100
AcDbEntity
 67
     1
  8
0
100
AcDbBlockBegin
  2
*Paper_Space
 70
     0
 10
0.0
 20
0.0
 30
0.0
  3
*Paper_Space
  1

  0
ENDBLK
  5
D5
330
D2
100
AcDbEntity
 67
     1
  8
0
100
AcDbBlockEnd
  0
BLOCK
  5
D8
330
D6
100
AcDbEntity
 67
     1
  8
0
100
AcDbBlockBegin
  2
*Paper_Space0
 70
     0
 10
0.0
 20
0.0
 30
0.0
  3
*Paper_Space0
  1

  0
ENDBLK
  5
D9
330
D6
100
AcDbEntity
 67
     1
  8
0
100
AcDbBlockEnd
  0
ENDSEC
  0
SECTION
  2
ENTITIES
  0
LINE
  5
7D2
330
1F
100
AcDbEntity
  8
Livello 1
100
AcDbLine
 10
10.37205639791844
 20
6.219346288695987
 30
0.0
 11
10.37205639791844
 21
2.351490486491186
 31
0.0
  0
LINE
  5
7D3
330
1F
100
AcDbEntity
  8
Livello 1
100
AcDbLine
 10
8.813906996961122
 20
11.43908178264048
 30
0.0
 11
0.6919032953444458
 21
11.43908178264048
 31
0.0
  0
TEXT
  5
7D4
330
1F
100
AcDbEntity
  8
Livello 1
100
AcDbText
 10
13.42227820735915
 20
0.033018780182033
 30
0.0
 40
2.123016666135912
  1
38 mm
 50
90.00000000000003
  7
MtXpl_Source_Sans_Pr
100
AcDbText
  0
TEXT
  5
7D5
330
1F
100
AcDbEntity
  8
Livello 1
100
AcDbText
 10
0.4792926421486925
 20
8.374302883505421
 30
0.0
 40
2.123016666135912
  1
95 mm
  7
MtXpl_Source_Sans_Pr
100
AcDbText
  0
POLYLINE
  5
7D6
330
1F
100
AcDbEntity
  8
Livello 1
100
AcDb2dPolyline
 66
     1
 10
0.0
 20
0.0
 30
0.0
  0
VERTEX
  5
7D7
330
7D6
100
AcDbEntity
  8
Livello 1
100
AcDbVertex
100
AcDb2dVertex
 10
0.4180424275947275
 20
16.02124045297999
 30
0.0
  0
VERTEX
  5
7D8
330
7D6
100
AcDbEntity
  8
Livello 1
100
AcDbVertex
100
AcDb2dVertex
 10
0.3707706037234715
 20
16.02124045297999
 30
0.0
  0
VERTEX
  5
7D9
330
7D6
100
AcDbEntity
  8
Livello 1
100
AcDbVertex
100
AcDb2dVertex
 10
0.3707706037234715
 20
17.41048059036868
 30
0.0
  0
VERTEX
  5
7DA
330
7D6
100
AcDbEntity
  8
Livello 1
100
AcDbVertex
100
AcDb2dVertex
 10
0.4180424275947275
 20
17.41048059036868
 30
0.0
  0
VERTEX
  5
7DB
330
7D6
100
AcDbEntity
  8
Livello 1
100
AcDbVertex
100
AcDb2dVertex
 10
0.4180424275947275
 20
16.02124045297999
 30
0.0
  0
SEQEND
  5
7DC
330
7D6
100
AcDbEntity
  8
Livello 1
  0
POLYLINE
  5
7DD
330
1F
100
AcDbEntity
  8
Livello 1
100
AcDb2dPolyline
 66
     1
 10
0.0
 20
0.0
 30
0.0
  0
VERTEX
  5
7DE
330
7DD
100
AcDbEntity
  8
Livello 1
100
AcDbVertex
100
AcDb2dVertex
 10
9.439980431422412
 20
17.28418554306408
 30
0.0
  0
VERTEX
  5
7DF
330
7DD
100
AcDbEntity
  8
Livello 1
100
AcDbVertex
100
AcDb2dVertex
 10
9.392707261810727
 20
17.28418554306408
 30
0.0
  0
VERTEX
  5
7E0
330
7DD
100
AcDbEntity
  8
Livello 1
100
AcDbVertex
100
AcDb2dVertex
 10
9.392707261810727
 20
17.50079053873747
 30
0.0
  0
VERTEX
  5
7E1
330
7DD
100
AcDbEntity
  8
Livello 1
100
AcDbVertex
100
AcDb2dVertex
 10
9.439980431422412
 20
17.50079053873747
 30
0.0
  0
VERTEX
  5
7E2
330
7DD
100
AcDbEntity
  8
Livello 1
100
AcDbVertex
100
AcDb2dVertex
 10
9.439980431422412
 20
17.28418554306408
 30
0.0
  0
SEQEND
  5
7E3
330
7DD
100
AcDbEntity
  8
Livello 1
  0
POLYLINE
  5
7E4
330
1F
100
AcDbEntity
  8
Livello 1
100
AcDb2dPolyline
 66
     1
 10
0.0
 20
0.0
 30
0.0
  0
VERTEX
  5
7E5
330
7E4
100
AcDbEntity
  8
Livello 1
100
AcDbVertex
100
AcDb2dVertex
 10
9.439980431422412
 20
16.87813797643389
 30
0.0
  0
VERTEX
  5
7E6
330
7E4
100
AcDbEntity
  8
Livello 1
100
AcDbVertex
100
AcDb2dVertex
 10
9.392707261810727
 20
16.87813797643389
 30
0.0
  0
VERTEX
  5
7E7
330
7E4
100
AcDbEntity
  8
Livello 1
100
AcDbVertex
100
AcDb2dVertex
 10
9.392707261810727
 20
17.04958799792278
 30
0.0
  0
VERTEX
  5
7E8
330
7E4
100
AcDbEntity
  8
Livello 1
100
AcDbVertex
100
AcDb2dVertex
 10
9.439980431422412
 20
17.04958799792278
 30
0.0
  0
VERTEX
  5
7E9
330
7E4
100
AcDbEntity
  8
Livello 1
100
AcDbVertex
100
AcDb2dVertex
 10
9.439980431422412
 20
16.87813797643389
 30
0.0
  0
SEQEND
  5
7EA
330
7E4
100
AcDbEntity
  8
Livello 1
  0
POLYLINE
  5
7EB
330
1F
100
AcDbEntity
  8
Livello 1
100
AcDb2dPolyline
 66
     1
 10
0.0
 20
0.0
 30
0.0
  0
VERTEX
  5
7EC
330
7EB
100
AcDbEntity
  8
Livello 1
100
AcDbVertex
100
AcDb2dVertex
 10
9.439980431422412
 20
16.47209040980358
 30
0.0
  0
VERTEX
  5
7ED
330
7EB
100
AcDbEntity
  8
Livello 1
100
AcDbVertex
100
AcDb2dVertex
 10
9.392707261810727
 20
16.47209040980358
 30
0.0
  0
VERTEX
  5
7EE
330
7EB
100
AcDbEntity
  8
Livello 1
100
AcDbVertex
100
AcDb2dVertex
 10
9.392707261810727
 20
16.64354043129259
 30
0.0
  0
VERTEX
  5
7EF
330
7EB
100
AcDbEntity
  8
Livello 1
100
AcDbVertex
100
AcDb2dVertex
 10
9.439980431422412
 20
16.64354043129259
 30
0.0
  0
VERTEX
  5
7F0
330
7EB
100
AcDbEntity
  8
Livello 1
100
AcDbVertex
100
AcDb2dVertex
 10
9.439980431422412
 20
16.47209040980358
 30
0.0
  0
SEQEND
  5
7F1
330
7EB
100
AcDbEntity
  8
Livello 1
  0
POLYLINE
  5
7F2
330
1F
100
AcDbEntity
  8
Livello 1
100
AcDb2dPolyline
 66
     1
 10
0.0
 20
0.0
 30
0.0
  0
VERTEX
  5
7F3
330
7F2
100
AcDbEntity
  8
Livello 1
100
AcDbVertex
100
AcDb2dVertex
 10
9.439980431422412
 20
16.0392330024479
 30
0.0
  0
VERTEX
  5
7F4
330
7F2
100
AcDbEntity
  8
Livello 1
100
AcDbVertex
100
AcDb2dVertex
 10
9.392707261810727
 20
16.0392330024479
 30
0.0
  0
VERTEX
  5
7F5
330
7F2
100
AcDbEntity
  8
Livello 1
100
AcDbVertex
100
AcDb2dVertex
 10
9.392707261810727
 20
16.23784814013419
 30
0.0
  0
VERTEX
  5
7F6
330
7F2
100
AcDbEntity
  8
Livello 1
100
AcDbVertex
100
AcDb2dVertex
 10
9.439980431422412
 20
16.23784814013419
 30
0.0
  0
VERTEX
  5
7F7
330
7F2
100
AcDbEntity
  8
Livello 1
100
AcDbVertex
100
AcDb2dVertex
 10
9.439980431422412
 20
16.0392330024479
 30
0.0
  0
SEQEND
  5
7F8
330
7F2
100
AcDbEntity
  8
Livello 1
  0
SPLINE
  5
7F9
330
1F
100
AcDbEntity
  8
Livello 1
100
AcDbSpline
210
0.0
220
0.0
230
1.0
 70
     9
 71
     3
 72
    17
 73
    13
 74
     0
 42
0.000000001
 43
0.0000000001
 40
0.0
 40
0.0
 40
0.0
 40
0.0
 40
1.0
 40
1.0
 40
1.0
 40
2.0
 40
2.0
 40
2.0
 40
3.0
 40
3.0
 40
3.0
 40
4.0
 40
4.0
 40
4.0
 40
4.0
 10
9.439910452920358
 20
17.5005106247293
 30
0.0
 10
9.439910452920358
 20
17.5005106247293
 30
0.0
 10
9.392637283308687
 20
17.5005106247293
 30
0.0
 10
9.392637283308687
 20
17.5005106247293
 30
0.0
 10
9.392637283308687
 20
17.51074094343197
 30
0.0
 10
9.390166503890355
 20
17.51603239477889
 30
0.0
 10
9.382759548597078
 20
17.52308676608109
 30
0.0
 10
9.382759548597078
 20
17.52308676608109
 30
0.0
 10
9.414860840669405
 20
17.55765883757179
 30
0.0
 10
9.414860840669405
 20
17.55765883757179
 30
0.0
 10
9.432148222155149
 20
17.5417844835311
 30
0.0
 10
9.439910452920358
 20
17.5241445180543
 30
0.0
 10
9.439910452920358
 20
17.5005106247293
 30
0.0
  0
SPLINE
  5
7FA
330
1F
100
AcDbEntity
  8
Livello 1
100
AcDbSpline
210
0.0
220
0.0
230
1.0
 70
     9
 71
     3
 72
    17
 73
    13
 74
     0
 42
0.000000001
 43
0.0000000001
 40
0.0
 40
0.0
 40
0.0
 40
0.0
 40
1.0
 40
1.0
 40
1.0
 40
2.0
 40
2.0
 40
2.0
 40
3.0
 40
3.0
 40
3.0
 40
4.0
 40
4.0
 40
4.0
 40
4.0
 10
9.414828542899229
 20
15.98194214112048
 30
0.0
 10
9.414828542899229
 20
15.98194214112048
 30
0.0
 10
9.382724559346058
 20
16.0168667966023
 30
0.0
 10
9.382724559346058
 20
16.0168667966023
 30
0.0
 10
9.390131514639335
 20
16.02356858391338
 30
0.0
 10
9.392602294057667
 20
16.02886003526031
 30
0.0
 10
9.392602294057667
 20
16.03909035396297
 30
0.0
 10
9.392602294057667
 20
16.03909035396297
 30
0.0
 10
9.439875463669324
 20
16.03909035396297
 30
0.0
 10
9.439875463669324
 20
16.03909035396297
 30
0.0
 10
9.439875463669324
 20
16.01545376915709
 30
0.0
 10
9.432113232904114
 20
15.99781649516117
 30
0.0
 10
9.414828542899229
 20
15.98194214112048
 30
0.0
  0
POLYLINE
  5
7FB
330
1F
100
AcDbEntity
  8
Livello 1
100
AcDb2dPolyline
 66
     1
 10
0.0
 20
0.0
 30
0.0
  0
VERTEX
  5
7FC
330
7FB
100
AcDbEntity
  8
Livello 1
100
AcDbVertex
100
AcDb2dVertex
 10
9.412818006705876
 20
17.04958799792278
 30
0.0
  0
VERTEX
  5
7FD
330
7FB
100
AcDbEntity
  8
Livello 1
100
AcDbVertex
100
AcDb2dVertex
 10
9.365544837094219
 20
17.04958799792278
 30
0.0
  0
VERTEX
  5
7FE
330
7FB
100
AcDbEntity
  8
Livello 1
100
AcDbVertex
100
AcDb2dVertex
 10
9.365544837094219
 20
17.28418554306408
 30
0.0
  0
VERTEX
  5
7FF
330
7FB
100
AcDbEntity
  8
Livello 1
100
AcDbVertex
100
AcDb2dVertex
 10
9.412818006705876
 20
17.28418554306408
 30
0.0
  0
VERTEX
  5
800
330
7FB
100
AcDbEntity
  8
Livello 1
100
AcDbVertex
100
AcDb2dVertex
 10
9.412818006705876
 20
17.04958799792278
 30
0.0
  0
SEQEND
  5
801
330
7FB
100
AcDbEntity
  8
Livello 1
  0
POLYLINE
  5
802
330
1F
100
AcDbEntity
  8
Livello 1
100
AcDb2dPolyline
 66
     1
 10
0.0
 20
0.0
 30
0.0
  0
VERTEX
  5
803
330
802
100
AcDbEntity
  8
Livello 1
100
AcDbVertex
100
AcDb2dVertex
 10
9.412818006705876
 20
16.64354043129259
 30
0.0
  0
VERTEX
  5
804
330
802
100
AcDbEntity
  8
Livello 1
100
AcDbVertex
100
AcDb2dVertex
 10
9.365544837094219
 20
16.64354043129259
 30
0.0
  0
VERTEX
  5
805
330
802
100
AcDbEntity
  8
Livello 1
100
AcDbVertex
100
AcDb2dVertex
 10
9.365544837094219
 20
16.87813797643389
 30
0.0
  0
VERTEX
  5
806
330
802
100
AcDbEntity
  8
Livello 1
100
AcDbVertex
100
AcDb2dVertex
 10
9.412818006705876
 20
16.87813797643389
 30
0.0
  0
VERTEX
  5
807
330
802
100
AcDbEntity
  8
Livello 1
100
AcDbVertex
100
AcDb2dVertex
 10
9.412818006705876
 20
16.64354043129259
 30
0.0
  0
SEQEND
  5
808
330
802
100
AcDbEntity
  8
Livello 1
  0
POLYLINE
  5
809
330
1F
100
AcDbEntity
  8
Livello 1
100
AcDb2dPolyline
 66
     1
 10
0.0
 20
0.0
 30
0.0
  0
VERTEX
  5
80A
330
809
100
AcDbEntity
  8
Livello 1
100
AcDbVertex
100
AcDb2dVertex
 10
9.412818006705876
 20
16.2374955561432
 30
0.0
  0
VERTEX
  5
80B
330
809
100
AcDbEntity
  8
Livello 1
100
AcDbVertex
100
AcDb2dVertex
 10
9.365544837094219
 20
16.2374955561432
 30
0.0
  0
VERTEX
  5
80C
330
809
100
AcDbEntity
  8
Livello 1
100
AcDbVertex
100
AcDb2dVertex
 10
9.365544837094219
 20
16.47209310128448
 30
0.0
  0
VERTEX
  5
80D
330
809
100
AcDbEntity
  8
Livello 1
100
AcDbVertex
100
AcDb2dVertex
 10
9.412818006705876
 20
16.47209310128448
 30
0.0
  0
VERTEX
  5
80E
330
809
100
AcDbEntity
  8
Livello 1
100
AcDbVertex
100
AcDb2dVertex
 10
9.412818006705876
 20
16.2374955561432
 30
0.0
  0
SEQEND
  5
80F
330
809
100
AcDbEntity
  8
Livello 1
  0
POLYLINE
  5
810
330
1F
100
AcDbEntity
  8
Livello 1
100
AcDb2dPolyline
 66
     1
 10
0.0
 20
0.0
 30
0.0
  0
VERTEX
  5
811
330
810
100
AcDbEntity
  8
Livello 1
100
AcDbVertex
100
AcDb2dVertex
 10
9.042047679548403
 20
16.07521540990278
 30
0.0
  0
VERTEX
  5
812
330
810
100
AcDbEntity
  8
Livello 1
100
AcDbVertex
100
AcDb2dVertex
 10
8.994774509936746
 20
16.07521540990278
 30
0.0
  0
VERTEX
  5
813
330
810
100
AcDbEntity
  8
Livello 1
100
AcDbVertex
100
AcDb2dVertex
 10
8.994774509936746
 20
17.46445554729148
 30
0.0
  0
VERTEX
  5
814
330
810
100
AcDbEntity
  8
Livello 1
100
AcDbVertex
100
AcDb2dVertex
 10
9.042047679548403
 20
17.46445554729148
 30
0.0
  0
VERTEX
  5
815
330
810
100
AcDbEntity
  8
Livello 1
100
AcDbVertex
100
AcDb2dVertex
 10
9.042047679548403
 20
16.07521540990278
 30
0.0
  0
SEQEND
  5
816
330
810
100
AcDbEntity
  8
Livello 1
  0
POLYLINE
  5
817
330
1F
100
AcDbEntity
  8
Livello 1
100
AcDb2dPolyline
 66
     1
 10
0.0
 20
0.0
 30
0.0
  0
VERTEX
  5
818
330
817
100
AcDbEntity
  8
Livello 1
100
AcDbVertex
100
AcDb2dVertex
 10
0.116063659427482
 20
16.17787387240159
 30
0.0
  0
VERTEX
  5
819
330
817
100
AcDbEntity
  8
Livello 1
100
AcDbVertex
100
AcDb2dVertex
 10
0.0236355156313977
 20
16.17787387240159
 30
0.0
  0
VERTEX
  5
81A
330
817
100
AcDbEntity
  8
Livello 1
100
AcDbVertex
100
AcDb2dVertex
 10
0.0236355156313977
 20
16.22514704201319
 30
0.0
  0
VERTEX
  5
81B
330
817
100
AcDbEntity
  8
Livello 1
100
AcDbVertex
100
AcDb2dVertex
 10
0.116063659427482
 20
16.22514704201319
 30
0.0
  0
VERTEX
  5
81C
330
817
100
AcDbEntity
  8
Livello 1
100
AcDbVertex
100
AcDb2dVertex
 10
0.116063659427482
 20
16.17787387240159
 30
0.0
  0
SEQEND
  5
81D
330
817
100
AcDbEntity
  8
Livello 1
  0
POLYLINE
  5
81E
330
1F
100
AcDbEntity
  8
Livello 1
100
AcDb2dPolyline
 66
     1
 10
0.0
 20
0.0
 30
0.0
  0
VERTEX
  5
81F
330
81E
100
AcDbEntity
  8
Livello 1
100
AcDbVertex
100
AcDb2dVertex
 10
0.1400528282243698
 20
17.01325300647688
 30
0.0
  0
VERTEX
  5
820
330
81E
100
AcDbEntity
  8
Livello 1
100
AcDbVertex
100
AcDb2dVertex
 10
0.0927810043531423
 20
17.01325300647688
 30
0.0
  0
VERTEX
  5
821
330
81E
100
AcDbEntity
  8
Livello 1
100
AcDbVertex
100
AcDb2dVertex
 10
0.0927810043531423
 20
17.24785055161808
 30
0.0
  0
VERTEX
  5
822
330
81E
100
AcDbEntity
  8
Livello 1
100
AcDbVertex
100
AcDb2dVertex
 10
0.1400528282243698
 20
17.24785055161808
 30
0.0
  0
VERTEX
  5
823
330
81E
100
AcDbEntity
  8
Livello 1
100
AcDbVertex
100
AcDb2dVertex
 10
0.1400528282243698
 20
17.01325300647688
 30
0.0
  0
SEQEND
  5
824
330
81E
100
AcDbEntity
  8
Livello 1
  0
POLYLINE
  5
825
330
1F
100
AcDbEntity
  8
Livello 1
100
AcDb2dPolyline
 66
     1
 10
0.0
 20
0.0
 30
0.0
  0
VERTEX
  5
826
330
825
100
AcDbEntity
  8
Livello 1
100
AcDbVertex
100
AcDb2dVertex
 10
0.1400528282243698
 20
16.60755802383768
 30
0.0
  0
VERTEX
  5
827
330
825
100
AcDbEntity
  8
Livello 1
100
AcDbVertex
100
AcDb2dVertex
 10
0.0927810043531423
 20
16.60755802383768
 30
0.0
  0
VERTEX
  5
828
330
825
100
AcDbEntity
  8
Livello 1
100
AcDbVertex
100
AcDb2dVertex
 10
0.0927810043531423
 20
16.84215556897888
 30
0.0
  0
VERTEX
  5
829
330
825
100
AcDbEntity
  8
Livello 1
100
AcDbVertex
100
AcDb2dVertex
 10
0.1400528282243698
 20
16.84215556897888
 30
0.0
  0
VERTEX
  5
82A
330
825
100
AcDbEntity
  8
Livello 1
100
AcDbVertex
100
AcDb2dVertex
 10
0.1400528282243698
 20
16.60755802383768
 30
0.0
  0
SEQEND
  5
82B
330
825
100
AcDbEntity
  8
Livello 1
  0
POLYLINE
  5
82C
330
1F
100
AcDbEntity
  8
Livello 1
100
AcDb2dPolyline
 66
     1
 10
0.0
 20
0.0
 30
0.0
  0
VERTEX
  5
82D
330
82C
100
AcDbEntity
  8
Livello 1
100
AcDbVertex
100
AcDb2dVertex
 10
0.1400528282243698
 20
16.2015104572074
 30
0.0
  0
VERTEX
  5
82E
330
82C
100
AcDbEntity
  8
Livello 1
100
AcDbVertex
100
AcDb2dVertex
 10
0.0927810043531423
 20
16.2015104572074
 30
0.0
  0
VERTEX
  5
82F
330
82C
100
AcDbEntity
  8
Livello 1
100
AcDbVertex
100
AcDb2dVertex
 10
0.0927810043531423
 20
16.43610800234867
 30
0.0
  0
VERTEX
  5
830
330
82C
100
AcDbEntity
  8
Livello 1
100
AcDbVertex
100
AcDb2dVertex
 10
0.1400528282243698
 20
16.43610800234867
 30
0.0
  0
VERTEX
  5
831
330
82C
100
AcDbEntity
  8
Livello 1
100
AcDbVertex
100
AcDb2dVertex
 10
0.1400528282243698
 20
16.2015104572074
 30
0.0
  0
SEQEND
  5
832
330
82C
100
AcDbEntity
  8
Livello 1
  0
POLYLINE
  5
833
330
1F
100
AcDbEntity
  8
Livello 1
100
AcDb2dPolyline
 66
     1
 10
0.0
 20
0.0
 30
0.0
  0
VERTEX
  5
834
330
833
100
AcDbEntity
  8
Livello 1
100
AcDbVertex
100
AcDb2dVertex
 10
0.116063659427482
 20
16.98961642167097
 30
0.0
  0
VERTEX
  5
835
330
833
100
AcDbEntity
  8
Livello 1
100
AcDbVertex
100
AcDb2dVertex
 10
0.0236355156313977
 20
16.98961642167097
 30
0.0
  0
VERTEX
  5
836
330
833
100
AcDbEntity
  8
Livello 1
100
AcDbVertex
100
AcDb2dVertex
 10
0.0236355156313977
 20
17.03688959128267
 30
0.0
  0
VERTEX
  5
837
330
833
100
AcDbEntity
  8
Livello 1
100
AcDbVertex
100
AcDb2dVertex
 10
0.116063659427482
 20
17.03688959128267
 30
0.0
  0
VERTEX
  5
838
330
833
100
AcDbEntity
  8
Livello 1
100
AcDbVertex
100
AcDb2dVertex
 10
0.116063659427482
 20
16.98961642167097
 30
0.0
  0
SEQEND
  5
839
330
833
100
AcDbEntity
  8
Livello 1
  0
POLYLINE
  5
83A
330
1F
100
AcDbEntity
  8
Livello 1
100
AcDb2dPolyline
 66
     1
 10
0.0
 20
0.0
 30
0.0
  0
VERTEX
  5
83B
330
83A
100
AcDbEntity
  8
Livello 1
100
AcDbVertex
100
AcDb2dVertex
 10
0.1654536787259673
 20
17.47680406142147
 30
0.0
  0
VERTEX
  5
83C
330
83A
100
AcDbEntity
  8
Livello 1
100
AcDbVertex
100
AcDb2dVertex
 10
0.0776118182946419
 20
17.47680406142147
 30
0.0
  0
VERTEX
  5
83D
330
83A
100
AcDbEntity
  8
Livello 1
100
AcDbVertex
100
AcDb2dVertex
 10
0.0776118182946419
 20
17.52407723103309
 30
0.0
  0
VERTEX
  5
83E
330
83A
100
AcDbEntity
  8
Livello 1
100
AcDbVertex
100
AcDb2dVertex
 10
0.1654536787259673
 20
17.52407723103309
 30
0.0
  0
VERTEX
  5
83F
330
83A
100
AcDbEntity
  8
Livello 1
100
AcDbVertex
100
AcDb2dVertex
 10
0.1654536787259673
 20
17.47680406142147
 30
0.0
  0
SEQEND
  5
840
330
83A
100
AcDbEntity
  8
Livello 1
  0
POLYLINE
  5
841
330
1F
100
AcDbEntity
  8
Livello 1
100
AcDb2dPolyline
 66
     1
 10
0.0
 20
0.0
 30
0.0
  0
VERTEX
  5
842
330
841
100
AcDbEntity
  8
Livello 1
100
AcDbVertex
100
AcDb2dVertex
 10
0.1654536787259673
 20
15.90729391980538
 30
0.0
  0
VERTEX
  5
843
330
841
100
AcDbEntity
  8
Livello 1
100
AcDbVertex
100
AcDb2dVertex
 10
0.0776118182946419
 20
15.90729391980538
 30
0.0
  0
VERTEX
  5
844
330
841
100
AcDbEntity
  8
Livello 1
100
AcDbVertex
100
AcDb2dVertex
 10
0.0776118182946419
 20
15.95456708941698
 30
0.0
  0
VERTEX
  5
845
330
841
100
AcDbEntity
  8
Livello 1
100
AcDbVertex
100
AcDb2dVertex
 10
0.1654536787259673
 20
15.95456708941698
 30
0.0
  0
VERTEX
  5
846
330
841
100
AcDbEntity
  8
Livello 1
100
AcDbVertex
100
AcDb2dVertex
 10
0.1654536787259673
 20
15.90729391980538
 30
0.0
  0
SEQEND
  5
847
330
841
100
AcDbEntity
  8
Livello 1
  0
POLYLINE
  5
848
330
1F
100
AcDbEntity
  8
Livello 1
100
AcDb2dPolyline
 66
     1
 10
0.0
 20
0.0
 30
0.0
  0
VERTEX
  5
849
330
848
100
AcDbEntity
  8
Livello 1
100
AcDbVertex
100
AcDb2dVertex
 10
0.5415141114898887
 20
15.90729391980538
 30
0.0
  0
VERTEX
  5
84A
330
848
100
AcDbEntity
  8
Livello 1
100
AcDbVertex
100
AcDb2dVertex
 10
0.3467814349265836
 20
15.90729391980538
 30
0.0
  0
VERTEX
  5
84B
330
848
100
AcDbEntity
  8
Livello 1
100
AcDbVertex
100
AcDb2dVertex
 10
0.3467814349265836
 20
15.95456708941698
 30
0.0
  0
VERTEX
  5
84C
330
848
100
AcDbEntity
  8
Livello 1
100
AcDbVertex
100
AcDb2dVertex
 10
0.5415141114898887
 20
15.95456708941698
 30
0.0
  0
VERTEX
  5
84D
330
848
100
AcDbEntity
  8
Livello 1
100
AcDbVertex
100
AcDb2dVertex
 10
0.5415141114898887
 20
15.90729391980538
 30
0.0
  0
SEQEND
  5
84E
330
848
100
AcDbEntity
  8
Livello 1
  0
POLYLINE
  5
84F
330
1F
100
AcDbEntity
  8
Livello 1
100
AcDb2dPolyline
 66
     1
 10
0.0
 20
0.0
 30
0.0
  0
VERTEX
  5
850
330
84F
100
AcDbEntity
  8
Livello 1
100
AcDbVertex
100
AcDb2dVertex
 10
0.116063659427482
 20
16.41247141754279
 30
0.0
  0
VERTEX
  5
851
330
84F
100
AcDbEntity
  8
Livello 1
100
AcDbVertex
100
AcDb2dVertex
 10
0.0236355156313977
 20
16.41247141754279
 30
0.0
  0
VERTEX
  5
852
330
84F
100
AcDbEntity
  8
Livello 1
100
AcDbVertex
100
AcDb2dVertex
 10
0.0236355156313977
 20
16.45974458715449
 30
0.0
  0
VERTEX
  5
853
330
84F
100
AcDbEntity
  8
Livello 1
100
AcDbVertex
100
AcDb2dVertex
 10
0.116063659427482
 20
16.45974458715449
 30
0.0
  0
VERTEX
  5
854
330
84F
100
AcDbEntity
  8
Livello 1
100
AcDbVertex
100
AcDb2dVertex
 10
0.116063659427482
 20
16.41247141754279
 30
0.0
  0
SEQEND
  5
855
330
84F
100
AcDbEntity
  8
Livello 1
  0
POLYLINE
  5
856
330
1F
100
AcDbEntity
  8
Livello 1
100
AcDb2dPolyline
 66
     1
 10
0.0
 20
0.0
 30
0.0
  0
VERTEX
  5
857
330
856
100
AcDbEntity
  8
Livello 1
100
AcDbVertex
100
AcDb2dVertex
 10
0.116063659427482
 20
16.5839214390318
 30
0.0
  0
VERTEX
  5
858
330
856
100
AcDbEntity
  8
Livello 1
100
AcDbVertex
100
AcDb2dVertex
 10
0.0236355156313977
 20
16.5839214390318
 30
0.0
  0
VERTEX
  5
859
330
856
100
AcDbEntity
  8
Livello 1
100
AcDbVertex
100
AcDb2dVertex
 10
0.0236355156313977
 20
16.63119460864348
 30
0.0
  0
VERTEX
  5
85A
330
856
100
AcDbEntity
  8
Livello 1
100
AcDbVertex
100
AcDb2dVertex
 10
0.116063659427482
 20
16.63119460864348
 30
0.0
  0
VERTEX
  5
85B
330
856
100
AcDbEntity
  8
Livello 1
100
AcDbVertex
100
AcDb2dVertex
 10
0.116063659427482
 20
16.5839214390318
 30
0.0
  0
SEQEND
  5
85C
330
856
100
AcDbEntity
  8
Livello 1
  0
POLYLINE
  5
85D
330
1F
100
AcDbEntity
  8
Livello 1
100
AcDb2dPolyline
 66
     1
 10
0.0
 20
0.0
 30
0.0
  0
VERTEX
  5
85E
330
85D
100
AcDbEntity
  8
Livello 1
100
AcDbVertex
100
AcDb2dVertex
 10
0.116063659427482
 20
16.81851898417309
 30
0.0
  0
VERTEX
  5
85F
330
85D
100
AcDbEntity
  8
Livello 1
100
AcDbVertex
100
AcDb2dVertex
 10
0.0236355156313977
 20
16.81851898417309
 30
0.0
  0
VERTEX
  5
860
330
85D
100
AcDbEntity
  8
Livello 1
100
AcDbVertex
100
AcDb2dVertex
 10
0.0236355156313977
 20
16.86579215378479
 30
0.0
  0
VERTEX
  5
861
330
85D
100
AcDbEntity
  8
Livello 1
100
AcDbVertex
100
AcDb2dVertex
 10
0.116063659427482
 20
16.86579215378479
 30
0.0
  0
VERTEX
  5
862
330
85D
100
AcDbEntity
  8
Livello 1
100
AcDbVertex
100
AcDb2dVertex
 10
0.116063659427482
 20
16.81851898417309
 30
0.0
  0
SEQEND
  5
863
330
85D
100
AcDbEntity
  8
Livello 1
  0
POLYLINE
  5
864
330
1F
100
AcDbEntity
  8
Livello 1
100
AcDb2dPolyline
 66
     1
 10
0.0
 20
0.0
 30
0.0
  0
VERTEX
  5
865
330
864
100
AcDbEntity
  8
Livello 1
100
AcDbVertex
100
AcDb2dVertex
 10
0.116063659427482
 20
17.22421396681228
 30
0.0
  0
VERTEX
  5
866
330
864
100
AcDbEntity
  8
Livello 1
100
AcDbVertex
100
AcDb2dVertex
 10
0.0236355156313977
 20
17.22421396681228
 30
0.0
  0
VERTEX
  5
867
330
864
100
AcDbEntity
  8
Livello 1
100
AcDbVertex
100
AcDb2dVertex
 10
0.0236355156313977
 20
17.27148713642397
 30
0.0
  0
VERTEX
  5
868
330
864
100
AcDbEntity
  8
Livello 1
100
AcDbVertex
100
AcDb2dVertex
 10
0.116063659427482
 20
17.27148713642397
 30
0.0
  0
VERTEX
  5
869
330
864
100
AcDbEntity
  8
Livello 1
100
AcDbVertex
100
AcDb2dVertex
 10
0.116063659427482
 20
17.22421396681228
 30
0.0
  0
SEQEND
  5
86A
330
864
100
AcDbEntity
  8
Livello 1
  0
POLYLINE
  5
86B
330
1F
100
AcDbEntity
  8
Livello 1
100
AcDb2dPolyline
 66
     1
 10
0.0
 20
0.0
 30
0.0
  0
VERTEX
  5
86C
330
86B
100
AcDbEntity
  8
Livello 1
100
AcDbVertex
100
AcDb2dVertex
 10
0.3369037002149753
 20
15.90729391980538
 30
0.0
  0
VERTEX
  5
86D
330
86B
100
AcDbEntity
  8
Livello 1
100
AcDbVertex
100
AcDb2dVertex
 10
0.1767430951422995
 20
15.90729391980538
 30
0.0
  0
VERTEX
  5
86E
330
86B
100
AcDbEntity
  8
Livello 1
100
AcDbVertex
100
AcDb2dVertex
 10
0.1767430951422995
 20
15.95456708941698
 30
0.0
  0
VERTEX
  5
86F
330
86B
100
AcDbEntity
  8
Livello 1
100
AcDbVertex
100
AcDb2dVertex
 10
0.3369037002149753
 20
15.95456708941698
 30
0.0
  0
VERTEX
  5
870
330
86B
100
AcDbEntity
  8
Livello 1
100
AcDbVertex
100
AcDb2dVertex
 10
0.3369037002149753
 20
15.90729391980538
 30
0.0
  0
SEQEND
  5
871
330
86B
100
AcDbEntity
  8
Livello 1
  0
POLYLINE
  5
872
330
1F
100
AcDbEntity
  8
Livello 1
100
AcDb2dPolyline
 66
     1
 10
0.0
 20
0.0
 30
0.0
  0
VERTEX
  5
873
330
872
100
AcDbEntity
  8
Livello 1
100
AcDbVertex
100
AcDb2dVertex
 10
0.3369037002149753
 20
17.47680406142147
 30
0.0
  0
VERTEX
  5
874
330
872
100
AcDbEntity
  8
Livello 1
100
AcDbVertex
100
AcDb2dVertex
 10
0.1753314134376041
 20
17.47680406142147
 30
0.0
  0
VERTEX
  5
875
330
872
100
AcDbEntity
  8
Livello 1
100
AcDbVertex
100
AcDb2dVertex
 10
0.1753314134376041
 20
17.52407723103309
 30
0.0
  0
VERTEX
  5
876
330
872
100
AcDbEntity
  8
Livello 1
100
AcDbVertex
100
AcDb2dVertex
 10
0.3369037002149753
 20
17.52407723103309
 30
0.0
  0
VERTEX
  5
877
330
872
100
AcDbEntity
  8
Livello 1
100
AcDbVertex
100
AcDb2dVertex
 10
0.3369037002149753
 20
17.47680406142147
 30
0.0
  0
SEQEND
  5
878
330
872
100
AcDbEntity
  8
Livello 1
  0
POLYLINE
  5
879
330
1F
100
AcDbEntity
  8
Livello 1
100
AcDb2dPolyline
 66
     1
 10
0.0
 20
0.0
 30
0.0
  0
VERTEX
  5
87A
330
879
100
AcDbEntity
  8
Livello 1
100
AcDbVertex
100
AcDb2dVertex
 10
0.5316363767782804
 20
17.47680406142147
 30
0.0
  0
VERTEX
  5
87B
330
879
100
AcDbEntity
  8
Livello 1
100
AcDbVertex
100
AcDb2dVertex
 10
0.3467814349265836
 20
17.47680406142147
 30
0.0
  0
VERTEX
  5
87C
330
879
100
AcDbEntity
  8
Livello 1
100
AcDbVertex
100
AcDb2dVertex
 10
0.3467814349265836
 20
17.52407723103309
 30
0.0
  0
VERTEX
  5
87D
330
879
100
AcDbEntity
  8
Livello 1
100
AcDbVertex
100
AcDb2dVertex
 10
0.5316363767782804
 20
17.52407723103309
 30
0.0
  0
VERTEX
  5
87E
330
879
100
AcDbEntity
  8
Livello 1
100
AcDbVertex
100
AcDb2dVertex
 10
0.5316363767782804
 20
17.47680406142147
 30
0.0
  0
SEQEND
  5
87F
330
879
100
AcDbEntity
  8
Livello 1
  0
POLYLINE
  5
880
330
1F
100
AcDbEntity
  8
Livello 1
100
AcDb2dPolyline
 66
     1
 10
0.0
 20
0.0
 30
0.0
  0
VERTEX
  5
881
330
880
100
AcDbEntity
  8
Livello 1
100
AcDbVertex
100
AcDb2dVertex
 10
9.413523174688023
 20
17.26019637426718
 30
0.0
  0
VERTEX
  5
882
330
880
100
AcDbEntity
  8
Livello 1
100
AcDbVertex
100
AcDb2dVertex
 10
9.298163614068258
 20
17.26019637426718
 30
0.0
  0
VERTEX
  5
883
330
880
100
AcDbEntity
  8
Livello 1
100
AcDbVertex
100
AcDb2dVertex
 10
9.298163614068258
 20
17.30746954387888
 30
0.0
  0
VERTEX
  5
884
330
880
100
AcDbEntity
  8
Livello 1
100
AcDbVertex
100
AcDb2dVertex
 10
9.413523174688023
 20
17.30746954387888
 30
0.0
  0
VERTEX
  5
885
330
880
100
AcDbEntity
  8
Livello 1
100
AcDbVertex
100
AcDb2dVertex
 10
9.413523174688023
 20
17.26019637426718
 30
0.0
  0
SEQEND
  5
886
330
880
100
AcDbEntity
  8
Livello 1
  0
POLYLINE
  5
887
330
1F
100
AcDbEntity
  8
Livello 1
100
AcDb2dPolyline
 66
     1
 10
0.0
 20
0.0
 30
0.0
  0
VERTEX
  5
888
330
887
100
AcDbEntity
  8
Livello 1
100
AcDbVertex
100
AcDb2dVertex
 10
9.3218001988741
 20
16.2374955561432
 30
0.0
  0
VERTEX
  5
889
330
887
100
AcDbEntity
  8
Livello 1
100
AcDbVertex
100
AcDb2dVertex
 10
9.274527029262443
 20
16.2374955561432
 30
0.0
  0
VERTEX
  5
88A
330
887
100
AcDbEntity
  8
Livello 1
100
AcDbVertex
100
AcDb2dVertex
 10
9.274527029262443
 20
16.47209310128448
 30
0.0
  0
VERTEX
  5
88B
330
887
100
AcDbEntity
  8
Livello 1
100
AcDbVertex
100
AcDb2dVertex
 10
9.3218001988741
 20
16.47209310128448
 30
0.0
  0
VERTEX
  5
88C
330
887
100
AcDbEntity
  8
Livello 1
100
AcDbVertex
100
AcDb2dVertex
 10
9.3218001988741
 20
16.2374955561432
 30
0.0
  0
SEQEND
  5
88D
330
887
100
AcDbEntity
  8
Livello 1
  0
POLYLINE
  5
88E
330
1F
100
AcDbEntity
  8
Livello 1
100
AcDb2dPolyline
 66
     1
 10
0.0
 20
0.0
 30
0.0
  0
VERTEX
  5
88F
330
88E
100
AcDbEntity
  8
Livello 1
100
AcDbVertex
100
AcDb2dVertex
 10
9.3218001988741
 20
16.64354043129259
 30
0.0
  0
VERTEX
  5
890
330
88E
100
AcDbEntity
  8
Livello 1
100
AcDbVertex
100
AcDb2dVertex
 10
9.274527029262443
 20
16.64354043129259
 30
0.0
  0
VERTEX
  5
891
330
88E
100
AcDbEntity
  8
Livello 1
100
AcDbVertex
100
AcDb2dVertex
 10
9.274527029262443
 20
16.87813797643389
 30
0.0
  0
VERTEX
  5
892
330
88E
100
AcDbEntity
  8
Livello 1
100
AcDbVertex
100
AcDb2dVertex
 10
9.3218001988741
 20
16.87813797643389
 30
0.0
  0
VERTEX
  5
893
330
88E
100
AcDbEntity
  8
Livello 1
100
AcDbVertex
100
AcDb2dVertex
 10
9.3218001988741
 20
16.64354043129259
 30
0.0
  0
SEQEND
  5
894
330
88E
100
AcDbEntity
  8
Livello 1
  0
POLYLINE
  5
895
330
1F
100
AcDbEntity
  8
Livello 1
100
AcDb2dPolyline
 66
     1
 10
0.0
 20
0.0
 30
0.0
  0
VERTEX
  5
896
330
895
100
AcDbEntity
  8
Livello 1
100
AcDbVertex
100
AcDb2dVertex
 10
9.3218001988741
 20
17.04958799792278
 30
0.0
  0
VERTEX
  5
897
330
895
100
AcDbEntity
  8
Livello 1
100
AcDbVertex
100
AcDb2dVertex
 10
9.274527029262443
 20
17.04958799792278
 30
0.0
  0
VERTEX
  5
898
330
895
100
AcDbEntity
  8
Livello 1
100
AcDbVertex
100
AcDb2dVertex
 10
9.274527029262443
 20
17.28418554306408
 30
0.0
  0
VERTEX
  5
899
330
895
100
AcDbEntity
  8
Livello 1
100
AcDbVertex
100
AcDb2dVertex
 10
9.3218001988741
 20
17.28418554306408
 30
0.0
  0
VERTEX
  5
89A
330
895
100
AcDbEntity
  8
Livello 1
100
AcDbVertex
100
AcDb2dVertex
 10
9.3218001988741
 20
17.04958799792278
 30
0.0
  0
SEQEND
  5
89B
330
895
100
AcDbEntity
  8
Livello 1
  0
POLYLINE
  5
89C
330
1F
100
AcDbEntity
  8
Livello 1
100
AcDb2dPolyline
 66
     1
 10
0.0
 20
0.0
 30
0.0
  0
VERTEX
  5
89D
330
89C
100
AcDbEntity
  8
Livello 1
100
AcDbVertex
100
AcDb2dVertex
 10
9.413523174688023
 20
16.44845651647858
 30
0.0
  0
VERTEX
  5
89E
330
89C
100
AcDbEntity
  8
Livello 1
100
AcDbVertex
100
AcDb2dVertex
 10
9.298163614068258
 20
16.44845651647858
 30
0.0
  0
VERTEX
  5
89F
330
89C
100
AcDbEntity
  8
Livello 1
100
AcDbVertex
100
AcDb2dVertex
 10
9.298163614068258
 20
16.4957296860903
 30
0.0
  0
VERTEX
  5
8A0
330
89C
100
AcDbEntity
  8
Livello 1
100
AcDbVertex
100
AcDb2dVertex
 10
9.413523174688023
 20
16.4957296860903
 30
0.0
  0
VERTEX
  5
8A1
330
89C
100
AcDbEntity
  8
Livello 1
100
AcDbVertex
100
AcDb2dVertex
 10
9.413523174688023
 20
16.44845651647858
 30
0.0
  0
SEQEND
  5
8A2
330
89C
100
AcDbEntity
  8
Livello 1
  0
POLYLINE
  5
8A3
330
1F
100
AcDbEntity
  8
Livello 1
100
AcDb2dPolyline
 66
     1
 10
0.0
 20
0.0
 30
0.0
  0
VERTEX
  5
8A4
330
8A3
100
AcDbEntity
  8
Livello 1
100
AcDbVertex
100
AcDb2dVertex
 10
9.416238878863495
 20
17.26033902275218
 30
0.0
  0
VERTEX
  5
8A5
330
8A3
100
AcDbEntity
  8
Livello 1
100
AcDbVertex
100
AcDb2dVertex
 10
9.41341551545409
 20
17.30760950088297
 30
0.0
  0
VERTEX
  5
8A6
330
8A3
100
AcDbEntity
  8
Livello 1
100
AcDbVertex
100
AcDb2dVertex
 10
9.41482585141837
 20
17.30760950088297
 30
0.0
  0
VERTEX
  5
8A7
330
8A3
100
AcDbEntity
  8
Livello 1
100
AcDbVertex
100
AcDb2dVertex
 10
9.416238878863495
 20
17.26033902275218
 30
0.0
  0
SEQEND
  5
8A8
330
8A3
100
AcDbEntity
  8
Livello 1
  0
POLYLINE
  5
8A9
330
1F
100
AcDbEntity
  8
Livello 1
100
AcDb2dPolyline
 66
     1
 10
0.0
 20
0.0
 30
0.0
  0
VERTEX
  5
8AA
330
8A9
100
AcDbEntity
  8
Livello 1
100
AcDbVertex
100
AcDb2dVertex
 10
9.416238878863495
 20
16.44845651647858
 30
0.0
  0
VERTEX
  5
8AB
330
8A9
100
AcDbEntity
  8
Livello 1
100
AcDbVertex
100
AcDb2dVertex
 10
9.41341551545409
 20
16.49572699460938
 30
0.0
  0
VERTEX
  5
8AC
330
8A9
100
AcDbEntity
  8
Livello 1
100
AcDbVertex
100
AcDb2dVertex
 10
9.41482585141837
 20
16.49572699460938
 30
0.0
  0
VERTEX
  5
8AD
330
8A9
100
AcDbEntity
  8
Livello 1
100
AcDbVertex
100
AcDb2dVertex
 10
9.416238878863495
 20
16.44845651647858
 30
0.0
  0
SEQEND
  5
8AE
330
8A9
100
AcDbEntity
  8
Livello 1
  0
POLYLINE
  5
8AF
330
1F
100
AcDbEntity
  8
Livello 1
100
AcDb2dPolyline
 66
     1
 10
0.0
 20
0.0
 30
0.0
  0
VERTEX
  5
8B0
330
8AF
100
AcDbEntity
  8
Livello 1
100
AcDbVertex
100
AcDb2dVertex
 10
9.359548217765222
 20
15.96126887672818
 30
0.0
  0
VERTEX
  5
8B1
330
8AF
100
AcDbEntity
  8
Livello 1
100
AcDbVertex
100
AcDb2dVertex
 10
9.247717188536981
 20
15.96126887672818
 30
0.0
  0
VERTEX
  5
8B2
330
8AF
100
AcDbEntity
  8
Livello 1
100
AcDbVertex
100
AcDb2dVertex
 10
9.247717188536981
 20
16.0085420463398
 30
0.0
  0
VERTEX
  5
8B3
330
8AF
100
AcDbEntity
  8
Livello 1
100
AcDbVertex
100
AcDb2dVertex
 10
9.359548217765222
 20
16.0085420463398
 30
0.0
  0
VERTEX
  5
8B4
330
8AF
100
AcDbEntity
  8
Livello 1
100
AcDbVertex
100
AcDb2dVertex
 10
9.359548217765222
 20
15.96126887672818
 30
0.0
  0
SEQEND
  5
8B5
330
8AF
100
AcDbEntity
  8
Livello 1
  0
POLYLINE
  5
8B6
330
1F
100
AcDbEntity
  8
Livello 1
100
AcDb2dPolyline
 66
     1
 10
0.0
 20
0.0
 30
0.0
  0
VERTEX
  5
8B7
330
8B6
100
AcDbEntity
  8
Livello 1
100
AcDbVertex
100
AcDb2dVertex
 10
9.018411094742575
 20
16.21385897133729
 30
0.0
  0
VERTEX
  5
8B8
330
8B6
100
AcDbEntity
  8
Livello 1
100
AcDbVertex
100
AcDb2dVertex
 10
9.003947076666207
 20
16.21385897133729
 30
0.0
  0
VERTEX
  5
8B9
330
8B6
100
AcDbEntity
  8
Livello 1
100
AcDbVertex
100
AcDb2dVertex
 10
9.003947076666207
 20
16.26113214094899
 30
0.0
  0
VERTEX
  5
8BA
330
8B6
100
AcDbEntity
  8
Livello 1
100
AcDbVertex
100
AcDb2dVertex
 10
9.018411094742575
 20
16.26113214094899
 30
0.0
  0
VERTEX
  5
8BB
330
8B6
100
AcDbEntity
  8
Livello 1
100
AcDbVertex
100
AcDb2dVertex
 10
9.018411094742575
 20
16.21385897133729
 30
0.0
  0
SEQEND
  5
8BC
330
8B6
100
AcDbEntity
  8
Livello 1
  0
POLYLINE
  5
8BD
330
1F
100
AcDbEntity
  8
Livello 1
100
AcDb2dPolyline
 66
     1
 10
0.0
 20
0.0
 30
0.0
  0
VERTEX
  5
8BE
330
8BD
100
AcDbEntity
  8
Livello 1
100
AcDbVertex
100
AcDb2dVertex
 10
9.018411094742575
 20
17.26019637426718
 30
0.0
  0
VERTEX
  5
8BF
330
8BD
100
AcDbEntity
  8
Livello 1
100
AcDbVertex
100
AcDb2dVertex
 10
8.999360793301477
 20
17.26019637426718
 30
0.0
  0
VERTEX
  5
8C0
330
8BD
100
AcDbEntity
  8
Livello 1
100
AcDbVertex
100
AcDb2dVertex
 10
8.999360793301477
 20
17.30746954387888
 30
0.0
  0
VERTEX
  5
8C1
330
8BD
100
AcDbEntity
  8
Livello 1
100
AcDbVertex
100
AcDb2dVertex
 10
9.018411094742575
 20
17.30746954387888
 30
0.0
  0
VERTEX
  5
8C2
330
8BD
100
AcDbEntity
  8
Livello 1
100
AcDbVertex
100
AcDb2dVertex
 10
9.018411094742575
 20
17.26019637426718
 30
0.0
  0
SEQEND
  5
8C3
330
8BD
100
AcDbEntity
  8
Livello 1
  0
POLYLINE
  5
8C4
330
1F
100
AcDbEntity
  8
Livello 1
100
AcDb2dPolyline
 66
     1
 10
0.0
 20
0.0
 30
0.0
  0
VERTEX
  5
8C5
330
8C4
100
AcDbEntity
  8
Livello 1
100
AcDbVertex
100
AcDb2dVertex
 10
9.359548217765222
 20
17.53113160233529
 30
0.0
  0
VERTEX
  5
8C6
330
8C4
100
AcDbEntity
  8
Livello 1
100
AcDbVertex
100
AcDb2dVertex
 10
9.247717188536981
 20
17.53113160233529
 30
0.0
  0
VERTEX
  5
8C7
330
8C4
100
AcDbEntity
  8
Livello 1
100
AcDbVertex
100
AcDb2dVertex
 10
9.247717188536981
 20
17.57840477194699
 30
0.0
  0
VERTEX
  5
8C8
330
8C4
100
AcDbEntity
  8
Livello 1
100
AcDbVertex
100
AcDb2dVertex
 10
9.359548217765222
 20
17.57840477194699
 30
0.0
  0
VERTEX
  5
8C9
330
8C4
100
AcDbEntity
  8
Livello 1
100
AcDbVertex
100
AcDb2dVertex
 10
9.359548217765222
 20
17.53113160233529
 30
0.0
  0
SEQEND
  5
8CA
330
8C4
100
AcDbEntity
  8
Livello 1
  0
POLYLINE
  5
8CB
330
1F
100
AcDbEntity
  8
Livello 1
100
AcDb2dPolyline
 66
     1
 10
0.0
 20
0.0
 30
0.0
  0
VERTEX
  5
8CC
330
8CB
100
AcDbEntity
  8
Livello 1
100
AcDbVertex
100
AcDb2dVertex
 10
9.067094600318512
 20
17.53113160233529
 30
0.0
  0
VERTEX
  5
8CD
330
8CB
100
AcDbEntity
  8
Livello 1
100
AcDbVertex
100
AcDb2dVertex
 10
8.956321323063477
 20
17.53113160233529
 30
0.0
  0
VERTEX
  5
8CE
330
8CB
100
AcDbEntity
  8
Livello 1
100
AcDbVertex
100
AcDb2dVertex
 10
8.956321323063477
 20
17.57840477194699
 30
0.0
  0
VERTEX
  5
8CF
330
8CB
100
AcDbEntity
  8
Livello 1
100
AcDbVertex
100
AcDb2dVertex
 10
9.067094600318512
 20
17.57840477194699
 30
0.0
  0
VERTEX
  5
8D0
330
8CB
100
AcDbEntity
  8
Livello 1
100
AcDbVertex
100
AcDb2dVertex
 10
9.067094600318512
 20
17.53113160233529
 30
0.0
  0
SEQEND
  5
8D1
330
8CB
100
AcDbEntity
  8
Livello 1
  0
POLYLINE
  5
8D2
330
1F
100
AcDbEntity
  8
Livello 1
100
AcDb2dPolyline
 66
     1
 10
0.0
 20
0.0
 30
0.0
  0
VERTEX
  5
8D3
330
8D2
100
AcDbEntity
  8
Livello 1
100
AcDbVertex
100
AcDb2dVertex
 10
9.416238878863495
 20
17.02584644536389
 30
0.0
  0
VERTEX
  5
8D4
330
8D2
100
AcDbEntity
  8
Livello 1
100
AcDbVertex
100
AcDb2dVertex
 10
9.415883603391577
 20
17.02584644536389
 30
0.0
  0
VERTEX
  5
8D5
330
8D2
100
AcDbEntity
  8
Livello 1
100
AcDbVertex
100
AcDb2dVertex
 10
9.41341551545409
 20
17.07311692349481
 30
0.0
  0
VERTEX
  5
8D6
330
8D2
100
AcDbEntity
  8
Livello 1
100
AcDbVertex
100
AcDb2dVertex
 10
9.416238878863495
 20
17.02584644536389
 30
0.0
  0
SEQEND
  5
8D7
330
8D2
100
AcDbEntity
  8
Livello 1
  0
POLYLINE
  5
8D8
330
1F
100
AcDbEntity
  8
Livello 1
100
AcDb2dPolyline
 66
     1
 10
0.0
 20
0.0
 30
0.0
  0
VERTEX
  5
8D9
330
8D8
100
AcDbEntity
  8
Livello 1
100
AcDbVertex
100
AcDb2dVertex
 10
9.413523174688023
 20
17.02595410459788
 30
0.0
  0
VERTEX
  5
8DA
330
8D8
100
AcDbEntity
  8
Livello 1
100
AcDbVertex
100
AcDb2dVertex
 10
9.298163614068258
 20
17.02595410459788
 30
0.0
  0
VERTEX
  5
8DB
330
8D8
100
AcDbEntity
  8
Livello 1
100
AcDbVertex
100
AcDb2dVertex
 10
9.298163614068258
 20
17.07322727420948
 30
0.0
  0
VERTEX
  5
8DC
330
8D8
100
AcDbEntity
  8
Livello 1
100
AcDbVertex
100
AcDb2dVertex
 10
9.413523174688023
 20
17.07322727420948
 30
0.0
  0
VERTEX
  5
8DD
330
8D8
100
AcDbEntity
  8
Livello 1
100
AcDbVertex
100
AcDb2dVertex
 10
9.413523174688023
 20
17.02595410459788
 30
0.0
  0
SEQEND
  5
8DE
330
8D8
100
AcDbEntity
  8
Livello 1
  0
POLYLINE
  5
8DF
330
1F
100
AcDbEntity
  8
Livello 1
100
AcDb2dPolyline
 66
     1
 10
0.0
 20
0.0
 30
0.0
  0
VERTEX
  5
8E0
330
8DF
100
AcDbEntity
  8
Livello 1
100
AcDbVertex
100
AcDb2dVertex
 10
9.416238878863495
 20
16.85443141312598
 30
0.0
  0
VERTEX
  5
8E1
330
8DF
100
AcDbEntity
  8
Livello 1
100
AcDbVertex
100
AcDb2dVertex
 10
9.41341551545409
 20
16.90170189125679
 30
0.0
  0
VERTEX
  5
8E2
330
8DF
100
AcDbEntity
  8
Livello 1
100
AcDbVertex
100
AcDb2dVertex
 10
9.41482585141837
 20
16.90170189125679
 30
0.0
  0
VERTEX
  5
8E3
330
8DF
100
AcDbEntity
  8
Livello 1
100
AcDbVertex
100
AcDb2dVertex
 10
9.416238878863495
 20
16.85443141312598
 30
0.0
  0
SEQEND
  5
8E4
330
8DF
100
AcDbEntity
  8
Livello 1
  0
POLYLINE
  5
8E5
330
1F
100
AcDbEntity
  8
Livello 1
100
AcDb2dPolyline
 66
     1
 10
0.0
 20
0.0
 30
0.0
  0
VERTEX
  5
8E6
330
8E5
100
AcDbEntity
  8
Livello 1
100
AcDbVertex
100
AcDb2dVertex
 10
9.413523174688023
 20
16.85450408310889
 30
0.0
  0
VERTEX
  5
8E7
330
8E5
100
AcDbEntity
  8
Livello 1
100
AcDbVertex
100
AcDb2dVertex
 10
9.298163614068258
 20
16.85450408310889
 30
0.0
  0
VERTEX
  5
8E8
330
8E5
100
AcDbEntity
  8
Livello 1
100
AcDbVertex
100
AcDb2dVertex
 10
9.298163614068258
 20
16.90177725272048
 30
0.0
  0
VERTEX
  5
8E9
330
8E5
100
AcDbEntity
  8
Livello 1
100
AcDbVertex
100
AcDb2dVertex
 10
9.413523174688023
 20
16.90177725272048
 30
0.0
  0
VERTEX
  5
8EA
330
8E5
100
AcDbEntity
  8
Livello 1
100
AcDbVertex
100
AcDb2dVertex
 10
9.413523174688023
 20
16.85450408310889
 30
0.0
  0
SEQEND
  5
8EB
330
8E5
100
AcDbEntity
  8
Livello 1
  0
POLYLINE
  5
8EC
330
1F
100
AcDbEntity
  8
Livello 1
100
AcDb2dPolyline
 66
     1
 10
0.0
 20
0.0
 30
0.0
  0
VERTEX
  5
8ED
330
8EC
100
AcDbEntity
  8
Livello 1
100
AcDbVertex
100
AcDb2dVertex
 10
9.416238878863495
 20
16.61990653796759
 30
0.0
  0
VERTEX
  5
8EE
330
8EC
100
AcDbEntity
  8
Livello 1
100
AcDbVertex
100
AcDb2dVertex
 10
9.415883603391577
 20
16.61990653796759
 30
0.0
  0
VERTEX
  5
8EF
330
8EC
100
AcDbEntity
  8
Livello 1
100
AcDbVertex
100
AcDb2dVertex
 10
9.41341551545409
 20
16.66717701609839
 30
0.0
  0
VERTEX
  5
8F0
330
8EC
100
AcDbEntity
  8
Livello 1
100
AcDbVertex
100
AcDb2dVertex
 10
9.416238878863495
 20
16.61990653796759
 30
0.0
  0
SEQEND
  5
8F1
330
8EC
100
AcDbEntity
  8
Livello 1
  0
POLYLINE
  5
8F2
330
1F
100
AcDbEntity
  8
Livello 1
100
AcDb2dPolyline
 66
     1
 10
0.0
 20
0.0
 30
0.0
  0
VERTEX
  5
8F3
330
8F2
100
AcDbEntity
  8
Livello 1
100
AcDbVertex
100
AcDb2dVertex
 10
9.413523174688023
 20
16.61990653796759
 30
0.0
  0
VERTEX
  5
8F4
330
8F2
100
AcDbEntity
  8
Livello 1
100
AcDbVertex
100
AcDb2dVertex
 10
9.298163614068258
 20
16.61990653796759
 30
0.0
  0
VERTEX
  5
8F5
330
8F2
100
AcDbEntity
  8
Livello 1
100
AcDbVertex
100
AcDb2dVertex
 10
9.298163614068258
 20
16.66717970757929
 30
0.0
  0
VERTEX
  5
8F6
330
8F2
100
AcDbEntity
  8
Livello 1
100
AcDbVertex
100
AcDb2dVertex
 10
9.413523174688023
 20
16.66717970757929
 30
0.0
  0
VERTEX
  5
8F7
330
8F2
100
AcDbEntity
  8
Livello 1
100
AcDbVertex
100
AcDb2dVertex
 10
9.413523174688023
 20
16.61990653796759
 30
0.0
  0
SEQEND
  5
8F8
330
8F2
100
AcDbEntity
  8
Livello 1
  0
POLYLINE
  5
8F9
330
1F
100
AcDbEntity
  8
Livello 1
100
AcDb2dPolyline
 66
     1
 10
0.0
 20
0.0
 30
0.0
  0
VERTEX
  5
8FA
330
8F9
100
AcDbEntity
  8
Livello 1
100
AcDbVertex
100
AcDb2dVertex
 10
9.416238878863495
 20
16.21396393909039
 30
0.0
  0
VERTEX
  5
8FB
330
8F9
100
AcDbEntity
  8
Livello 1
100
AcDbVertex
100
AcDb2dVertex
 10
9.415883603391577
 20
16.21396393909039
 30
0.0
  0
VERTEX
  5
8FC
330
8F9
100
AcDbEntity
  8
Livello 1
100
AcDbVertex
100
AcDb2dVertex
 10
9.41341551545409
 20
16.26123441722119
 30
0.0
  0
VERTEX
  5
8FD
330
8F9
100
AcDbEntity
  8
Livello 1
100
AcDbVertex
100
AcDb2dVertex
 10
9.416238878863495
 20
16.21396393909039
 30
0.0
  0
SEQEND
  5
8FE
330
8F9
100
AcDbEntity
  8
Livello 1
  0
POLYLINE
  5
8FF
330
1F
100
AcDbEntity
  8
Livello 1
100
AcDb2dPolyline
 66
     1
 10
0.0
 20
0.0
 30
0.0
  0
VERTEX
  5
900
330
8FF
100
AcDbEntity
  8
Livello 1
100
AcDbVertex
100
AcDb2dVertex
 10
9.413523174688023
 20
16.21385897133729
 30
0.0
  0
VERTEX
  5
901
330
8FF
100
AcDbEntity
  8
Livello 1
100
AcDbVertex
100
AcDb2dVertex
 10
9.298163614068258
 20
16.21385897133729
 30
0.0
  0
VERTEX
  5
902
330
8FF
100
AcDbEntity
  8
Livello 1
100
AcDbVertex
100
AcDb2dVertex
 10
9.298163614068258
 20
16.26113214094899
 30
0.0
  0
VERTEX
  5
903
330
8FF
100
AcDbEntity
  8
Livello 1
100
AcDbVertex
100
AcDb2dVertex
 10
9.413523174688023
 20
16.26113214094899
 30
0.0
  0
VERTEX
  5
904
330
8FF
100
AcDbEntity
  8
Livello 1
100
AcDbVertex
100
AcDb2dVertex
 10
9.413523174688023
 20
16.21385897133729
 30
0.0
  0
SEQEND
  5
905
330
8FF
100
AcDbEntity
  8
Livello 1
  0
POLYLINE
  5
906
330
1F
100
AcDbEntity
  8
Livello 1
100
AcDb2dPolyline
 66
     1
 10
0.0
 20
0.0
 30
0.0
  0
VERTEX
  5
907
330
906
100
AcDbEntity
  8
Livello 1
100
AcDbVertex
100
AcDb2dVertex
 10
9.236076533870019
 20
17.53113160233529
 30
0.0
  0
VERTEX
  5
908
330
906
100
AcDbEntity
  8
Livello 1
100
AcDbVertex
100
AcDb2dVertex
 10
9.076619751039061
 20
17.53113160233529
 30
0.0
  0
VERTEX
  5
909
330
906
100
AcDbEntity
  8
Livello 1
100
AcDbVertex
100
AcDb2dVertex
 10
9.076619751039061
 20
17.57840477194699
 30
0.0
  0
VERTEX
  5
90A
330
906
100
AcDbEntity
  8
Livello 1
100
AcDbVertex
100
AcDb2dVertex
 10
9.236076533870019
 20
17.57840477194699
 30
0.0
  0
VERTEX
  5
90B
330
906
100
AcDbEntity
  8
Livello 1
100
AcDbVertex
100
AcDb2dVertex
 10
9.236076533870019
 20
17.53113160233529
 30
0.0
  0
SEQEND
  5
90C
330
906
100
AcDbEntity
  8
Livello 1
  0
POLYLINE
  5
90D
330
1F
100
AcDbEntity
  8
Livello 1
100
AcDb2dPolyline
 66
     1
 10
0.0
 20
0.0
 30
0.0
  0
VERTEX
  5
90E
330
90D
100
AcDbEntity
  8
Livello 1
100
AcDbVertex
100
AcDb2dVertex
 10
9.236076533870019
 20
15.96126887672818
 30
0.0
  0
VERTEX
  5
90F
330
90D
100
AcDbEntity
  8
Livello 1
100
AcDbVertex
100
AcDb2dVertex
 10
9.076619751039061
 20
15.96126887672818
 30
0.0
  0
VERTEX
  5
910
330
90D
100
AcDbEntity
  8
Livello 1
100
AcDbVertex
100
AcDb2dVertex
 10
9.076619751039061
 20
16.0085420463398
 30
0.0
  0
VERTEX
  5
911
330
90D
100
AcDbEntity
  8
Livello 1
100
AcDbVertex
100
AcDb2dVertex
 10
9.236076533870019
 20
16.0085420463398
 30
0.0
  0
VERTEX
  5
912
330
90D
100
AcDbEntity
  8
Livello 1
100
AcDbVertex
100
AcDb2dVertex
 10
9.236076533870019
 20
15.96126887672818
 30
0.0
  0
SEQEND
  5
913
330
90D
100
AcDbEntity
  8
Livello 1
  0
POLYLINE
  5
914
330
1F
100
AcDbEntity
  8
Livello 1
100
AcDb2dPolyline
 66
     1
 10
0.0
 20
0.0
 30
0.0
  0
VERTEX
  5
915
330
914
100
AcDbEntity
  8
Livello 1
100
AcDbVertex
100
AcDb2dVertex
 10
9.067094600318512
 20
15.96126887672818
 30
0.0
  0
VERTEX
  5
916
330
914
100
AcDbEntity
  8
Livello 1
100
AcDbVertex
100
AcDb2dVertex
 10
8.966199057775114
 20
15.96126887672818
 30
0.0
  0
VERTEX
  5
917
330
914
100
AcDbEntity
  8
Livello 1
100
AcDbVertex
100
AcDb2dVertex
 10
8.966199057775114
 20
16.0085420463398
 30
0.0
  0
VERTEX
  5
918
330
914
100
AcDbEntity
  8
Livello 1
100
AcDbVertex
100
AcDb2dVertex
 10
9.067094600318512
 20
16.0085420463398
 30
0.0
  0
VERTEX
  5
919
330
914
100
AcDbEntity
  8
Livello 1
100
AcDbVertex
100
AcDb2dVertex
 10
9.067094600318512
 20
15.96126887672818
 30
0.0
  0
SEQEND
  5
91A
330
914
100
AcDbEntity
  8
Livello 1
  0
SPLINE
  5
91B
330
1F
100
AcDbEntity
  8
Livello 1
100
AcDbSpline
210
0.0
220
0.0
230
1.0
 70
     9
 71
     3
 72
    23
 73
    19
 74
     0
 42
0.000000001
 43
0.0000000001
 40
0.0
 40
0.0
 40
0.0
 40
0.0
 40
1.0
 40
1.0
 40
1.0
 40
2.0
 40
2.0
 40
2.0
 40
3.0
 40
3.0
 40
3.0
 40
4.0
 40
4.0
 40
4.0
 40
5.0
 40
5.0
 40
5.0
 40
6.0
 40
6.0
 40
6.0
 40
6.0
 10
4.748882728025691
 20
12.43423125706548
 30
0.0
 10
2.373276763958926
 20
12.43423125706548
 30
0.0
 10
0.4404072876999408
 20
14.3670993875841
 30
0.0
 10
0.4404072876999408
 20
16.7427053516508
 30
0.0
 10
0.4404072876999408
 20
19.1186638997086
 30
0.0
 10
2.373276763958926
 20
21.05117944623608
 30
0.0
 10
4.748882728025691
 20
21.05117944623608
 30
0.0
 10
4.748882728025691
 20
21.05117944623608
 30
0.0
 10
4.748882728025691
 20
21.00390896810531
 30
0.0
 10
4.748882728025691
 20
21.00390896810531
 30
0.0
 10
2.399382782442671
 20
21.00390896810531
 30
0.0
 10
0.4876791115711683
 20
19.0925592269653
 30
0.0
 10
0.4876791115711683
 20
16.7427053516508
 30
0.0
 10
0.4876791115711683
 20
14.39320406032738
 30
0.0
 10
2.399382782442671
 20
12.48150173519629
 30
0.0
 10
4.748882728025691
 20
12.48150173519629
 30
0.0
 10
4.748882728025691
 20
12.48150173519629
 30
0.0
 10
4.748882728025691
 20
12.43423125706548
 30
0.0
 10
4.748882728025691
 20
12.43423125706548
 30
0.0
  0
SPLINE
  5
91C
330
1F
100
AcDbEntity
  8
Livello 1
100
AcDbSpline
210
0.0
220
0.0
230
1.0
 70
     9
 71
     3
 72
    20
 73
    16
 74
     0
 42
0.000000001
 43
0.0000000001
 40
0.0
 40
0.0
 40
0.0
 40
0.0
 40
1.0
 40
1.0
 40
1.0
 40
2.0
 40
2.0
 40
2.0
 40
3.0
 40
3.0
 40
3.0
 40
4.0
 40
4.0
 40
4.0
 40
5.0
 40
5.0
 40
5.0
 40
5.0
 10
8.994882169170665
 20
17.10285778686348
 30
0.0
 10
8.806144766195941
 20
19.32676650738368
 30
0.0
 10
6.980872619791483
 20
21.0038739788543
 30
0.0
 10
4.748847738774657
 20
21.0038739788543
 30
0.0
 10
4.748847738774657
 20
21.0038739788543
 30
0.0
 10
4.748847738774657
 20
21.05149704097619
 30
0.0
 10
4.748847738774657
 20
21.05149704097619
 30
0.0
 10
5.831522824631363
 20
21.05149704097619
 30
0.0
 10
6.866573502625783
 20
20.6479202537643
 30
0.0
 10
7.663850688078454
 20
19.9155548576596
 30
0.0
 10
8.461129219271541
 20
19.18318677007419
 30
0.0
 10
8.95042967148754
 20
18.18553018123938
 30
0.0
 10
9.042152647301477
 20
17.10673621076529
 30
0.0
 10
9.042152647301477
 20
17.10673621076529
 30
0.0
 10
8.994882169170665
 20
17.10285778686348
 30
0.0
 10
8.994882169170665
 20
17.10285778686348
 30
0.0
  0
SPLINE
  5
91D
330
1F
100
AcDbEntity
  8
Livello 1
100
AcDbSpline
210
0.0
220
0.0
230
1.0
 70
     9
 71
     3
 72
    20
 73
    16
 74
     0
 42
0.000000001
 43
0.0000000001
 40
0.0
 40
0.0
 40
0.0
 40
0.0
 40
1.0
 40
1.0
 40
1.0
 40
2.0
 40
2.0
 40
2.0
 40
3.0
 40
3.0
 40
3.0
 40
4.0
 40
4.0
 40
4.0
 40
5.0
 40
5.0
 40
5.0
 40
5.0
 10
4.748882728025691
 20
12.43423125706548
 30
0.0
 10
4.748882728025691
 20
12.43423125706548
 30
0.0
 10
4.748882728025691
 20
12.48150173519629
 30
0.0
 10
4.748882728025691
 20
12.48150173519629
 30
0.0
 10
6.980907609042503
 20
12.48150173519629
 30
0.0
 10
8.806179755446947
 20
14.15860651518609
 30
0.0
 10
8.994914466940841
 20
16.3828705111782
 30
0.0
 10
8.994914466940841
 20
16.3828705111782
 30
0.0
 10
9.042187636552498
 20
16.3786395032854
 30
0.0
 10
9.042187636552498
 20
16.3786395032854
 30
0.0
 10
8.950464660738575
 20
15.29984284133039
 30
0.0
 10
8.461161517041716
 20
14.30254152796748
 30
0.0
 10
7.663882985848616
 20
13.57017344038199
 30
0.0
 10
6.866607146136374
 20
12.83745546028639
 30
0.0
 10
5.831556468141968
 20
12.43423125706548
 30
0.0
 10
4.748882728025691
 20
12.43423125706548
 30
0.0
  0
SPLINE
  5
91E
330
1F
100
AcDbEntity
  8
Livello 1
100
AcDbSpline
210
0.0
220
0.0
230
1.0
 70
     9
 71
     3
 72
    23
 73
    19
 74
     0
 42
0.000000001
 43
0.0000000001
 40
0.0
 40
0.0
 40
0.0
 40
0.0
 40
1.0
 40
1.0
 40
1.0
 40
2.0
 40
2.0
 40
2.0
 40
3.0
 40
3.0
 40
3.0
 40
4.0
 40
4.0
 40
4.0
 40
5.0
 40
5.0
 40
5.0
 40
6.0
 40
6.0
 40
6.0
 40
6.0
 10
4.748882728025691
 20
13.74222635358097
 30
0.0
 10
3.09435408938765
 20
13.74222635358097
 30
0.0
 10
1.748507351968427
 20
15.08807174525969
 30
0.0
 10
1.748507351968427
 20
16.7429529678888
 30
0.0
 10
1.748507351968427
 20
18.39712902253579
 30
0.0
 10
3.09435408938765
 20
19.74332699820559
 30
0.0
 10
4.748882728025691
 20
19.74332699820559
 30
0.0
 10
4.748882728025691
 20
19.74332699820559
 30
0.0
 10
4.748882728025691
 20
19.69605652007479
 30
0.0
 10
4.748882728025691
 20
19.69605652007479
 30
0.0
 10
3.120460107871394
 20
19.69605652007479
 30
0.0
 10
1.795779175839683
 20
18.37137424230269
 30
0.0
 10
1.795779175839683
 20
16.7429529678888
 30
0.0
 10
1.795779175839683
 20
15.11453169347499
 30
0.0
 10
3.120460107871394
 20
13.7894968317118
 30
0.0
 10
4.748882728025691
 20
13.7894968317118
 30
0.0
 10
4.748882728025691
 20
13.7894968317118
 30
0.0
 10
4.748882728025691
 20
13.74222635358097
 30
0.0
 10
4.748882728025691
 20
13.74222635358097
 30
0.0
  0
SPLINE
  5
91F
330
1F
100
AcDbEntity
  8
Livello 1
100
AcDbSpline
210
0.0
220
0.0
230
1.0
 70
     9
 71
     3
 72
    23
 73
    19
 74
     0
 42
0.000000001
 43
0.0000000001
 40
0.0
 40
0.0
 40
0.0
 40
0.0
 40
1.0
 40
1.0
 40
1.0
 40
2.0
 40
2.0
 40
2.0
 40
3.0
 40
3.0
 40
3.0
 40
4.0
 40
4.0
 40
4.0
 40
5.0
 40
5.0
 40
5.0
 40
6.0
 40
6.0
 40
6.0
 40
6.0
 10
4.748882728025691
 20
13.74222635358097
 30
0.0
 10
4.748882728025691
 20
13.74222635358097
 30
0.0
 10
4.748882728025691
 20
13.7894968317118
 30
0.0
 10
4.748882728025691
 20
13.7894968317118
 30
0.0
 10
6.377304002439529
 20
13.7894968317118
 30
0.0
 10
7.701983588730811
 20
15.11453169347499
 30
0.0
 10
7.701983588730811
 20
16.7429529678888
 30
0.0
 10
7.701983588730811
 20
18.37137424230269
 30
0.0
 10
6.377304002439529
 20
19.69605652007479
 30
0.0
 10
4.748882728025691
 20
19.69605652007479
 30
0.0
 10
4.748882728025691
 20
19.69605652007479
 30
0.0
 10
4.748882728025691
 20
19.74332699820559
 30
0.0
 10
4.748882728025691
 20
19.74332699820559
 30
0.0
 10
6.40341002092326
 20
19.74332699820559
 30
0.0
 10
7.749609342333542
 20
18.39712902253579
 30
0.0
 10
7.749609342333542
 20
16.7429529678888
 30
0.0
 10
7.749609342333542
 20
15.08807174525969
 30
0.0
 10
6.40341002092326
 20
13.74222635358097
 30
0.0
 10
4.748882728025691
 20
13.74222635358097
 30
0.0
  0
POLYLINE
  5
920
330
1F
100
AcDbEntity
  8
Livello 1
100
AcDb2dPolyline
 66
     1
 10
0.0
 20
0.0
 30
0.0
  0
VERTEX
  5
921
330
920
100
AcDbEntity
  8
Livello 1
100
AcDbVertex
100
AcDb2dVertex
 10
9.066389432336364
 20
16.0515815165778
 30
0.0
  0
VERTEX
  5
922
330
920
100
AcDbEntity
  8
Livello 1
100
AcDbVertex
100
AcDb2dVertex
 10
9.018058510751515
 20
16.0515815165778
 30
0.0
  0
VERTEX
  5
923
330
920
100
AcDbEntity
  8
Livello 1
100
AcDbVertex
100
AcDb2dVertex
 10
9.018058510751515
 20
16.09885468618948
 30
0.0
  0
VERTEX
  5
924
330
920
100
AcDbEntity
  8
Livello 1
100
AcDbVertex
100
AcDb2dVertex
 10
9.066389432336364
 20
16.09885468618948
 30
0.0
  0
VERTEX
  5
925
330
920
100
AcDbEntity
  8
Livello 1
100
AcDbVertex
100
AcDb2dVertex
 10
9.066389432336364
 20
16.0515815165778
 30
0.0
  0
SEQEND
  5
926
330
920
100
AcDbEntity
  8
Livello 1
  0
POLYLINE
  5
927
330
1F
100
AcDbEntity
  8
Livello 1
100
AcDb2dPolyline
 66
     1
 10
0.0
 20
0.0
 30
0.0
  0
VERTEX
  5
928
330
927
100
AcDbEntity
  8
Livello 1
100
AcDbVertex
100
AcDb2dVertex
 10
9.227609135122676
 20
16.0515815165778
 30
0.0
  0
VERTEX
  5
929
330
927
100
AcDbEntity
  8
Livello 1
100
AcDbVertex
100
AcDb2dVertex
 10
9.066389432336364
 20
16.0515815165778
 30
0.0
  0
VERTEX
  5
92A
330
927
100
AcDbEntity
  8
Livello 1
100
AcDbVertex
100
AcDb2dVertex
 10
9.066389432336364
 20
16.09885468618948
 30
0.0
  0
VERTEX
  5
92B
330
927
100
AcDbEntity
  8
Livello 1
100
AcDbVertex
100
AcDb2dVertex
 10
9.227609135122676
 20
16.09885468618948
 30
0.0
  0
VERTEX
  5
92C
330
927
100
AcDbEntity
  8
Livello 1
100
AcDbVertex
100
AcDb2dVertex
 10
9.227609135122676
 20
16.0515815165778
 30
0.0
  0
SEQEND
  5
92D
330
927
100
AcDbEntity
  8
Livello 1
  0
POLYLINE
  5
92E
330
1F
100
AcDbEntity
  8
Livello 1
100
AcDb2dPolyline
 66
     1
 10
0.0
 20
0.0
 30
0.0
  0
VERTEX
  5
92F
330
92E
100
AcDbEntity
  8
Livello 1
100
AcDbVertex
100
AcDb2dVertex
 10
9.227609135122676
 20
17.44081896248568
 30
0.0
  0
VERTEX
  5
930
330
92E
100
AcDbEntity
  8
Livello 1
100
AcDbVertex
100
AcDb2dVertex
 10
9.066389432336364
 20
17.44081896248568
 30
0.0
  0
VERTEX
  5
931
330
92E
100
AcDbEntity
  8
Livello 1
100
AcDbVertex
100
AcDb2dVertex
 10
9.066389432336364
 20
17.48809213209729
 30
0.0
  0
VERTEX
  5
932
330
92E
100
AcDbEntity
  8
Livello 1
100
AcDbVertex
100
AcDb2dVertex
 10
9.227609135122676
 20
17.48809213209729
 30
0.0
  0
VERTEX
  5
933
330
92E
100
AcDbEntity
  8
Livello 1
100
AcDbVertex
100
AcDb2dVertex
 10
9.227609135122676
 20
17.44081896248568
 30
0.0
  0
SEQEND
  5
934
330
92E
100
AcDbEntity
  8
Livello 1
  0
POLYLINE
  5
935
330
1F
100
AcDbEntity
  8
Livello 1
100
AcDb2dPolyline
 66
     1
 10
0.0
 20
0.0
 30
0.0
  0
VERTEX
  5
936
330
935
100
AcDbEntity
  8
Livello 1
100
AcDbVertex
100
AcDb2dVertex
 10
9.066389432336364
 20
17.44081896248568
 30
0.0
  0
VERTEX
  5
937
330
935
100
AcDbEntity
  8
Livello 1
100
AcDbVertex
100
AcDb2dVertex
 10
9.018058510751515
 20
17.44081896248568
 30
0.0
  0
VERTEX
  5
938
330
935
100
AcDbEntity
  8
Livello 1
100
AcDbVertex
100
AcDb2dVertex
 10
9.018058510751515
 20
17.48809213209729
 30
0.0
  0
VERTEX
  5
939
330
935
100
AcDbEntity
  8
Livello 1
100
AcDbVertex
100
AcDb2dVertex
 10
9.066389432336364
 20
17.48809213209729
 30
0.0
  0
VERTEX
  5
93A
330
935
100
AcDbEntity
  8
Livello 1
100
AcDbVertex
100
AcDb2dVertex
 10
9.066389432336364
 20
17.44081896248568
 30
0.0
  0
SEQEND
  5
93B
330
935
100
AcDbEntity
  8
Livello 1
  0
POLYLINE
  5
93C
330
1F
100
AcDbEntity
  8
Livello 1
100
AcDb2dPolyline
 66
     1
 10
0.0
 20
0.0
 30
0.0
  0
VERTEX
  5
93D
330
93C
100
AcDbEntity
  8
Livello 1
100
AcDbVertex
100
AcDb2dVertex
 10
9.410347227287559
 20
16.2374955561432
 30
0.0
  0
VERTEX
  5
93E
330
93C
100
AcDbEntity
  8
Livello 1
100
AcDbVertex
100
AcDb2dVertex
 10
9.363074057675888
 20
16.2374955561432
 30
0.0
  0
VERTEX
  5
93F
330
93C
100
AcDbEntity
  8
Livello 1
100
AcDbVertex
100
AcDb2dVertex
 10
9.363074057675888
 20
16.47209310128448
 30
0.0
  0
VERTEX
  5
940
330
93C
100
AcDbEntity
  8
Livello 1
100
AcDbVertex
100
AcDb2dVertex
 10
9.410347227287559
 20
16.47209310128448
 30
0.0
  0
VERTEX
  5
941
330
93C
100
AcDbEntity
  8
Livello 1
100
AcDbVertex
100
AcDb2dVertex
 10
9.410347227287559
 20
16.2374955561432
 30
0.0
  0
SEQEND
  5
942
330
93C
100
AcDbEntity
  8
Livello 1
  0
POLYLINE
  5
943
330
1F
100
AcDbEntity
  8
Livello 1
100
AcDb2dPolyline
 66
     1
 10
0.0
 20
0.0
 30
0.0
  0
VERTEX
  5
944
330
943
100
AcDbEntity
  8
Livello 1
100
AcDbVertex
100
AcDb2dVertex
 10
9.410347227287559
 20
16.64354043129259
 30
0.0
  0
VERTEX
  5
945
330
943
100
AcDbEntity
  8
Livello 1
100
AcDbVertex
100
AcDb2dVertex
 10
9.363074057675888
 20
16.64354043129259
 30
0.0
  0
VERTEX
  5
946
330
943
100
AcDbEntity
  8
Livello 1
100
AcDbVertex
100
AcDb2dVertex
 10
9.363074057675888
 20
16.87813797643389
 30
0.0
  0
VERTEX
  5
947
330
943
100
AcDbEntity
  8
Livello 1
100
AcDbVertex
100
AcDb2dVertex
 10
9.410347227287559
 20
16.87813797643389
 30
0.0
  0
VERTEX
  5
948
330
943
100
AcDbEntity
  8
Livello 1
100
AcDbVertex
100
AcDb2dVertex
 10
9.410347227287559
 20
16.64354043129259
 30
0.0
  0
SEQEND
  5
949
330
943
100
AcDbEntity
  8
Livello 1
  0
POLYLINE
  5
94A
330
1F
100
AcDbEntity
  8
Livello 1
100
AcDb2dPolyline
 66
     1
 10
0.0
 20
0.0
 30
0.0
  0
VERTEX
  5
94B
330
94A
100
AcDbEntity
  8
Livello 1
100
AcDbVertex
100
AcDb2dVertex
 10
9.410347227287559
 20
17.04958799792278
 30
0.0
  0
VERTEX
  5
94C
330
94A
100
AcDbEntity
  8
Livello 1
100
AcDbVertex
100
AcDb2dVertex
 10
9.363074057675888
 20
17.04958799792278
 30
0.0
  0
VERTEX
  5
94D
330
94A
100
AcDbEntity
  8
Livello 1
100
AcDbVertex
100
AcDb2dVertex
 10
9.363074057675888
 20
17.28418554306408
 30
0.0
  0
VERTEX
  5
94E
330
94A
100
AcDbEntity
  8
Livello 1
100
AcDbVertex
100
AcDb2dVertex
 10
9.410347227287559
 20
17.28418554306408
 30
0.0
  0
VERTEX
  5
94F
330
94A
100
AcDbEntity
  8
Livello 1
100
AcDbVertex
100
AcDb2dVertex
 10
9.410347227287559
 20
17.04958799792278
 30
0.0
  0
SEQEND
  5
950
330
94A
100
AcDbEntity
  8
Livello 1
  0
POLYLINE
  5
951
330
1F
100
AcDbEntity
  8
Livello 1
100
AcDb2dPolyline
 66
     1
 10
0.0
 20
0.0
 30
0.0
  0
VERTEX
  5
952
330
951
100
AcDbEntity
  8
Livello 1
100
AcDbVertex
100
AcDb2dVertex
 10
9.416238878863495
 20
16.01549144988898
 30
0.0
  0
VERTEX
  5
953
330
951
100
AcDbEntity
  8
Livello 1
100
AcDbVertex
100
AcDb2dVertex
 10
9.41341551545409
 20
16.06276192801979
 30
0.0
  0
VERTEX
  5
954
330
951
100
AcDbEntity
  8
Livello 1
100
AcDbVertex
100
AcDb2dVertex
 10
9.41482585141837
 20
16.06276192801979
 30
0.0
  0
VERTEX
  5
955
330
951
100
AcDbEntity
  8
Livello 1
100
AcDbVertex
100
AcDb2dVertex
 10
9.416238878863495
 20
16.01549144988898
 30
0.0
  0
SEQEND
  5
956
330
951
100
AcDbEntity
  8
Livello 1
  0
SPLINE
  5
957
330
1F
100
AcDbEntity
  8
Livello 1
100
AcDbSpline
210
0.0
220
0.0
230
1.0
 70
     9
 71
     3
 72
    17
 73
    13
 74
     0
 42
0.000000001
 43
0.0000000001
 40
0.0
 40
0.0
 40
0.0
 40
0.0
 40
1.0
 40
1.0
 40
1.0
 40
2.0
 40
2.0
 40
2.0
 40
3.0
 40
3.0
 40
3.0
 40
4.0
 40
4.0
 40
4.0
 40
4.0
 10
9.359795834003222
 20
15.96137653596209
 30
0.0
 10
9.359795834003222
 20
15.96137653596209
 30
0.0
 10
9.359795834003222
 20
16.00864701409288
 30
0.0
 10
9.359795834003222
 20
16.00864701409288
 30
0.0
 10
9.37637535602596
 20
16.00864701409288
 30
0.0
 10
9.38978162212912
 20
16.02240586418709
 30
0.0
 10
9.38978162212912
 20
16.0389853862099
 30
0.0
 10
9.38978162212912
 20
16.0389853862099
 30
0.0
 10
9.437052100259933
 20
16.03933797020099
 30
0.0
 10
9.437052100259933
 20
16.03933797020099
 30
0.0
 10
9.437404684251021
 20
15.99630119144379
 30
0.0
 10
9.402480028769289
 20
15.96137653596209
 30
0.0
 10
9.359795834003222
 20
15.96137653596209
 30
0.0
  0
POLYLINE
  5
958
330
1F
100
AcDbEntity
  8
Livello 1
100
AcDb2dPolyline
 66
     1
 10
0.0
 20
0.0
 30
0.0
  0
VERTEX
  5
959
330
958
100
AcDbEntity
  8
Livello 1
100
AcDbVertex
100
AcDb2dVertex
 10
9.413523174688023
 20
16.01559641764209
 30
0.0
  0
VERTEX
  5
95A
330
958
100
AcDbEntity
  8
Livello 1
100
AcDbVertex
100
AcDb2dVertex
 10
9.291814410748173
 20
16.01559641764209
 30
0.0
  0
VERTEX
  5
95B
330
958
100
AcDbEntity
  8
Livello 1
100
AcDbVertex
100
AcDb2dVertex
 10
9.291814410748173
 20
16.06286958725369
 30
0.0
  0
VERTEX
  5
95C
330
958
100
AcDbEntity
  8
Livello 1
100
AcDbVertex
100
AcDb2dVertex
 10
9.413523174688023
 20
16.06286958725369
 30
0.0
  0
VERTEX
  5
95D
330
958
100
AcDbEntity
  8
Livello 1
100
AcDbVertex
100
AcDb2dVertex
 10
9.413523174688023
 20
16.01559641764209
 30
0.0
  0
SEQEND
  5
95E
330
958
100
AcDbEntity
  8
Livello 1
  0
POLYLINE
  5
95F
330
1F
100
AcDbEntity
  8
Livello 1
100
AcDb2dPolyline
 66
     1
 10
0.0
 20
0.0
 30
0.0
  0
VERTEX
  5
960
330
95F
100
AcDbEntity
  8
Livello 1
100
AcDbVertex
100
AcDb2dVertex
 10
9.287580711374488
 20
16.0515815165778
 30
0.0
  0
VERTEX
  5
961
330
95F
100
AcDbEntity
  8
Livello 1
100
AcDbVertex
100
AcDb2dVertex
 10
9.227609135122676
 20
16.0515815165778
 30
0.0
  0
VERTEX
  5
962
330
95F
100
AcDbEntity
  8
Livello 1
100
AcDbVertex
100
AcDb2dVertex
 10
9.227609135122676
 20
16.09885468618948
 30
0.0
  0
VERTEX
  5
963
330
95F
100
AcDbEntity
  8
Livello 1
100
AcDbVertex
100
AcDb2dVertex
 10
9.287580711374488
 20
16.09885468618948
 30
0.0
  0
VERTEX
  5
964
330
95F
100
AcDbEntity
  8
Livello 1
100
AcDbVertex
100
AcDb2dVertex
 10
9.287580711374488
 20
16.0515815165778
 30
0.0
  0
SEQEND
  5
965
330
95F
100
AcDbEntity
  8
Livello 1
  0
POLYLINE
  5
966
330
1F
100
AcDbEntity
  8
Livello 1
100
AcDb2dPolyline
 66
     1
 10
0.0
 20
0.0
 30
0.0
  0
VERTEX
  5
967
330
966
100
AcDbEntity
  8
Livello 1
100
AcDbVertex
100
AcDb2dVertex
 10
9.311217296180331
 20
16.07521540990278
 30
0.0
  0
VERTEX
  5
968
330
966
100
AcDbEntity
  8
Livello 1
100
AcDbVertex
100
AcDb2dVertex
 10
9.263944126568674
 20
16.07521540990278
 30
0.0
  0
VERTEX
  5
969
330
966
100
AcDbEntity
  8
Livello 1
100
AcDbVertex
100
AcDb2dVertex
 10
9.263944126568674
 20
17.46445554729148
 30
0.0
  0
VERTEX
  5
96A
330
966
100
AcDbEntity
  8
Livello 1
100
AcDbVertex
100
AcDb2dVertex
 10
9.311217296180331
 20
17.46445554729148
 30
0.0
  0
VERTEX
  5
96B
330
966
100
AcDbEntity
  8
Livello 1
100
AcDbVertex
100
AcDb2dVertex
 10
9.311217296180331
 20
16.07521540990278
 30
0.0
  0
SEQEND
  5
96C
330
966
100
AcDbEntity
  8
Livello 1
  0
POLYLINE
  5
96D
330
1F
100
AcDbEntity
  8
Livello 1
100
AcDb2dPolyline
 66
     1
 10
0.0
 20
0.0
 30
0.0
  0
VERTEX
  5
96E
330
96D
100
AcDbEntity
  8
Livello 1
100
AcDbVertex
100
AcDb2dVertex
 10
9.287580711374488
 20
17.44081896248568
 30
0.0
  0
VERTEX
  5
96F
330
96D
100
AcDbEntity
  8
Livello 1
100
AcDbVertex
100
AcDb2dVertex
 10
9.227609135122676
 20
17.44081896248568
 30
0.0
  0
VERTEX
  5
970
330
96D
100
AcDbEntity
  8
Livello 1
100
AcDbVertex
100
AcDb2dVertex
 10
9.227609135122676
 20
17.48809213209729
 30
0.0
  0
VERTEX
  5
971
330
96D
100
AcDbEntity
  8
Livello 1
100
AcDbVertex
100
AcDb2dVertex
 10
9.287580711374488
 20
17.48809213209729
 30
0.0
  0
VERTEX
  5
972
330
96D
100
AcDbEntity
  8
Livello 1
100
AcDbVertex
100
AcDb2dVertex
 10
9.287580711374488
 20
17.44081896248568
 30
0.0
  0
SEQEND
  5
973
330
96D
100
AcDbEntity
  8
Livello 1
  0
SPLINE
  5
974
330
1F
100
AcDbEntity
  8
Livello 1
100
AcDbSpline
210
0.0
220
0.0
230
1.0
 70
     9
 71
     3
 72
    17
 73
    13
 74
     0
 42
0.000000001
 43
0.0000000001
 40
0.0
 40
0.0
 40
0.0
 40
0.0
 40
1.0
 40
1.0
 40
1.0
 40
2.0
 40
2.0
 40
2.0
 40
3.0
 40
3.0
 40
3.0
 40
4.0
 40
4.0
 40
4.0
 40
4.0
 10
9.264086775053613
 20
17.46180982161809
 30
0.0
 10
9.2623211636174
 20
17.4780367596498
 30
0.0
 10
9.264086775053613
 20
17.4932059457083
 30
0.0
 10
9.269378226400476
 20
17.5083751317668
 30
0.0
 10
9.269378226400476
 20
17.5083751317668
 30
0.0
 10
9.31418061659383
 20
17.49250077772608
 30
0.0
 10
9.31418061659383
 20
17.49250077772608
 30
0.0
 10
9.311004669193351
 20
17.48403337897879
 30
0.0
 10
9.310299501211218
 20
17.47627114821358
 30
0.0
 10
9.311004669193351
 20
17.46710127296488
 30
0.0
 10
9.311004669193351
 20
17.46710127296488
 30
0.0
 10
9.264086775053613
 20
17.46180982161809
 30
0.0
 10
9.264086775053613
 20
17.46180982161809
 30
0.0
  0
POLYLINE
  5
975
330
1F
100
AcDbEntity
  8
Livello 1
100
AcDb2dPolyline
 66
     1
 10
0.0
 20
0.0
 30
0.0
  0
VERTEX
  5
976
330
975
100
AcDbEntity
  8
Livello 1
100
AcDbVertex
100
AcDb2dVertex
 10
9.413523174688023
 20
17.47680406142147
 30
0.0
  0
VERTEX
  5
977
330
975
100
AcDbEntity
  8
Livello 1
100
AcDbVertex
100
AcDb2dVertex
 10
9.291814410748173
 20
17.47680406142147
 30
0.0
  0
VERTEX
  5
978
330
975
100
AcDbEntity
  8
Livello 1
100
AcDbVertex
100
AcDb2dVertex
 10
9.291814410748173
 20
17.52407723103309
 30
0.0
  0
VERTEX
  5
979
330
975
100
AcDbEntity
  8
Livello 1
100
AcDbVertex
100
AcDb2dVertex
 10
9.413523174688023
 20
17.52407723103309
 30
0.0
  0
VERTEX
  5
97A
330
975
100
AcDbEntity
  8
Livello 1
100
AcDbVertex
100
AcDb2dVertex
 10
9.413523174688023
 20
17.47680406142147
 30
0.0
  0
SEQEND
  5
97B
330
975
100
AcDbEntity
  8
Livello 1
  0
SPLINE
  5
97C
330
1F
100
AcDbEntity
  8
Livello 1
100
AcDbSpline
210
0.0
220
0.0
230
1.0
 70
     9
 71
     3
 72
    17
 73
    13
 74
     0
 42
0.000000001
 43
0.0000000001
 40
0.0
 40
0.0
 40
0.0
 40
0.0
 40
1.0
 40
1.0
 40
1.0
 40
2.0
 40
2.0
 40
2.0
 40
3.0
 40
3.0
 40
3.0
 40
4.0
 40
4.0
 40
4.0
 40
4.0
 10
9.437159759493837
 20
17.50040296549538
 30
0.0
 10
9.437159759493837
 20
17.50040296549538
 30
0.0
 10
9.389886589882181
 20
17.50075554948648
 30
0.0
 10
9.389886589882181
 20
17.50075554948648
 30
0.0
 10
9.389886589882181
 20
17.51733507150918
 30
0.0
 10
9.376480323779034
 20
17.53109392160347
 30
0.0
 10
9.359548217765222
 20
17.53109392160347
 30
0.0
 10
9.359548217765222
 20
17.53109392160347
 30
0.0
 10
9.359900801756253
 20
17.5783643997343
 30
0.0
 10
9.359900801756253
 20
17.5783643997343
 30
0.0
 10
9.402584996522335
 20
17.57801181574318
 30
0.0
 10
9.437159759493837
 20
17.54308716026148
 30
0.0
 10
9.437159759493837
 20
17.50040296549538
 30
0.0
  0
POLYLINE
  5
97D
330
1F
100
AcDbEntity
  8
Livello 1
100
AcDb2dPolyline
 66
     1
 10
0.0
 20
0.0
 30
0.0
  0
VERTEX
  5
97E
330
97D
100
AcDbEntity
  8
Livello 1
100
AcDbVertex
100
AcDb2dVertex
 10
9.416238878863495
 20
17.47683905067248
 30
0.0
  0
VERTEX
  5
97F
330
97D
100
AcDbEntity
  8
Livello 1
100
AcDbVertex
100
AcDb2dVertex
 10
9.415883603391577
 20
17.47683905067248
 30
0.0
  0
VERTEX
  5
980
330
97D
100
AcDbEntity
  8
Livello 1
100
AcDbVertex
100
AcDb2dVertex
 10
9.41341551545409
 20
17.52410952880329
 30
0.0
  0
VERTEX
  5
981
330
97D
100
AcDbEntity
  8
Livello 1
100
AcDbVertex
100
AcDb2dVertex
 10
9.416238878863495
 20
17.47683905067248
 30
0.0
  0
SEQEND
  5
982
330
97D
100
AcDbEntity
  8
Livello 1
  0
POLYLINE
  5
983
330
1F
100
AcDbEntity
  8
Livello 1
100
AcDb2dPolyline
 66
     1
 10
0.0
 20
0.0
 30
0.0
  0
VERTEX
  5
984
330
983
100
AcDbEntity
  8
Livello 1
100
AcDbVertex
100
AcDb2dVertex
 10
9.437159759493837
 20
16.0392330024479
 30
0.0
  0
VERTEX
  5
985
330
983
100
AcDbEntity
  8
Livello 1
100
AcDbVertex
100
AcDb2dVertex
 10
9.389886589882181
 20
16.0392330024479
 30
0.0
  0
VERTEX
  5
986
330
983
100
AcDbEntity
  8
Livello 1
100
AcDbVertex
100
AcDb2dVertex
 10
9.389886589882181
 20
16.23784814013419
 30
0.0
  0
VERTEX
  5
987
330
983
100
AcDbEntity
  8
Livello 1
100
AcDbVertex
100
AcDb2dVertex
 10
9.437159759493837
 20
16.23784814013419
 30
0.0
  0
VERTEX
  5
988
330
983
100
AcDbEntity
  8
Livello 1
100
AcDbVertex
100
AcDb2dVertex
 10
9.437159759493837
 20
16.0392330024479
 30
0.0
  0
SEQEND
  5
989
330
983
100
AcDbEntity
  8
Livello 1
  0
POLYLINE
  5
98A
330
1F
100
AcDbEntity
  8
Livello 1
100
AcDb2dPolyline
 66
     1
 10
0.0
 20
0.0
 30
0.0
  0
VERTEX
  5
98B
330
98A
100
AcDbEntity
  8
Livello 1
100
AcDbVertex
100
AcDb2dVertex
 10
9.437159759493837
 20
16.47209040980358
 30
0.0
  0
VERTEX
  5
98C
330
98A
100
AcDbEntity
  8
Livello 1
100
AcDbVertex
100
AcDb2dVertex
 10
9.389886589882181
 20
16.47209040980358
 30
0.0
  0
VERTEX
  5
98D
330
98A
100
AcDbEntity
  8
Livello 1
100
AcDbVertex
100
AcDb2dVertex
 10
9.389886589882181
 20
16.64354043129259
 30
0.0
  0
VERTEX
  5
98E
330
98A
100
AcDbEntity
  8
Livello 1
100
AcDbVertex
100
AcDb2dVertex
 10
9.437159759493837
 20
16.64354043129259
 30
0.0
  0
VERTEX
  5
98F
330
98A
100
AcDbEntity
  8
Livello 1
100
AcDbVertex
100
AcDb2dVertex
 10
9.437159759493837
 20
16.47209040980358
 30
0.0
  0
SEQEND
  5
990
330
98A
100
AcDbEntity
  8
Livello 1
  0
POLYLINE
  5
991
330
1F
100
AcDbEntity
  8
Livello 1
100
AcDb2dPolyline
 66
     1
 10
0.0
 20
0.0
 30
0.0
  0
VERTEX
  5
992
330
991
100
AcDbEntity
  8
Livello 1
100
AcDbVertex
100
AcDb2dVertex
 10
9.437159759493837
 20
16.87813797643389
 30
0.0
  0
VERTEX
  5
993
330
991
100
AcDbEntity
  8
Livello 1
100
AcDbVertex
100
AcDb2dVertex
 10
9.389886589882181
 20
16.87813797643389
 30
0.0
  0
VERTEX
  5
994
330
991
100
AcDbEntity
  8
Livello 1
100
AcDbVertex
100
AcDb2dVertex
 10
9.389886589882181
 20
17.04958799792278
 30
0.0
  0
VERTEX
  5
995
330
991
100
AcDbEntity
  8
Livello 1
100
AcDbVertex
100
AcDb2dVertex
 10
9.437159759493837
 20
17.04958799792278
 30
0.0
  0
VERTEX
  5
996
330
991
100
AcDbEntity
  8
Livello 1
100
AcDbVertex
100
AcDb2dVertex
 10
9.437159759493837
 20
16.87813797643389
 30
0.0
  0
SEQEND
  5
997
330
991
100
AcDbEntity
  8
Livello 1
  0
POLYLINE
  5
998
330
1F
100
AcDbEntity
  8
Livello 1
100
AcDb2dPolyline
 66
     1
 10
0.0
 20
0.0
 30
0.0
  0
VERTEX
  5
999
330
998
100
AcDbEntity
  8
Livello 1
100
AcDbVertex
100
AcDb2dVertex
 10
9.437159759493837
 20
17.28418554306408
 30
0.0
  0
VERTEX
  5
99A
330
998
100
AcDbEntity
  8
Livello 1
100
AcDbVertex
100
AcDb2dVertex
 10
9.389886589882181
 20
17.28418554306408
 30
0.0
  0
VERTEX
  5
99B
330
998
100
AcDbEntity
  8
Livello 1
100
AcDbVertex
100
AcDb2dVertex
 10
9.389886589882181
 20
17.50079053873747
 30
0.0
  0
VERTEX
  5
99C
330
998
100
AcDbEntity
  8
Livello 1
100
AcDbVertex
100
AcDb2dVertex
 10
9.437159759493837
 20
17.50079053873747
 30
0.0
  0
VERTEX
  5
99D
330
998
100
AcDbEntity
  8
Livello 1
100
AcDbVertex
100
AcDb2dVertex
 10
9.437159759493837
 20
17.28418554306408
 30
0.0
  0
SEQEND
  5
99E
330
998
100
AcDbEntity
  8
Livello 1
  0
POLYLINE
  5
99F
330
1F
100
AcDbEntity
  8
Livello 1
100
AcDb2dPolyline
 66
     1
 10
0.0
 20
0.0
 30
0.0
  0
VERTEX
  5
9A0
330
99F
100
AcDbEntity
  8
Livello 1
100
AcDbVertex
100
AcDb2dVertex
 10
0.3951110107710178
 20
17.38649142157179
 30
0.0
  0
VERTEX
  5
9A1
330
99F
100
AcDbEntity
  8
Livello 1
100
AcDbVertex
100
AcDb2dVertex
 10
0.345369753221874
 20
17.38649142157179
 30
0.0
  0
VERTEX
  5
9A2
330
99F
100
AcDbEntity
  8
Livello 1
100
AcDbVertex
100
AcDb2dVertex
 10
0.345369753221874
 20
17.43376459118347
 30
0.0
  0
VERTEX
  5
9A3
330
99F
100
AcDbEntity
  8
Livello 1
100
AcDbVertex
100
AcDb2dVertex
 10
0.3951110107710178
 20
17.43376459118347
 30
0.0
  0
VERTEX
  5
9A4
330
99F
100
AcDbEntity
  8
Livello 1
100
AcDbVertex
100
AcDb2dVertex
 10
0.3951110107710178
 20
17.38649142157179
 30
0.0
  0
SEQEND
  5
9A5
330
99F
100
AcDbEntity
  8
Livello 1
  0
POLYLINE
  5
9A6
330
1F
100
AcDbEntity
  8
Livello 1
100
AcDb2dPolyline
 66
     1
 10
0.0
 20
0.0
 30
0.0
  0
VERTEX
  5
9A7
330
9A6
100
AcDbEntity
  8
Livello 1
100
AcDbVertex
100
AcDb2dVertex
 10
0.345369753221874
 20
17.38649142157179
 30
0.0
  0
VERTEX
  5
9A8
330
9A6
100
AcDbEntity
  8
Livello 1
100
AcDbVertex
100
AcDb2dVertex
 10
0.1837974664444886
 20
17.38649142157179
 30
0.0
  0
VERTEX
  5
9A9
330
9A6
100
AcDbEntity
  8
Livello 1
100
AcDbVertex
100
AcDb2dVertex
 10
0.1837974664444886
 20
17.43376459118347
 30
0.0
  0
VERTEX
  5
9AA
330
9A6
100
AcDbEntity
  8
Livello 1
100
AcDbVertex
100
AcDb2dVertex
 10
0.345369753221874
 20
17.43376459118347
 30
0.0
  0
VERTEX
  5
9AB
330
9A6
100
AcDbEntity
  8
Livello 1
100
AcDbVertex
100
AcDb2dVertex
 10
0.345369753221874
 20
17.38649142157179
 30
0.0
  0
SEQEND
  5
9AC
330
9A6
100
AcDbEntity
  8
Livello 1
  0
POLYLINE
  5
9AD
330
1F
100
AcDbEntity
  8
Livello 1
100
AcDb2dPolyline
 66
     1
 10
0.0
 20
0.0
 30
0.0
  0
VERTEX
  5
9AE
330
9AD
100
AcDbEntity
  8
Livello 1
100
AcDbVertex
100
AcDb2dVertex
 10
0.345369753221874
 20
15.99760655965498
 30
0.0
  0
VERTEX
  5
9AF
330
9AD
100
AcDbEntity
  8
Livello 1
100
AcDbVertex
100
AcDb2dVertex
 10
0.1837974664444886
 20
15.99760655965498
 30
0.0
  0
VERTEX
  5
9B0
330
9AD
100
AcDbEntity
  8
Livello 1
100
AcDbVertex
100
AcDb2dVertex
 10
0.1837974664444886
 20
16.04487972926668
 30
0.0
  0
VERTEX
  5
9B1
330
9AD
100
AcDbEntity
  8
Livello 1
100
AcDbVertex
100
AcDb2dVertex
 10
0.345369753221874
 20
16.04487972926668
 30
0.0
  0
VERTEX
  5
9B2
330
9AD
100
AcDbEntity
  8
Livello 1
100
AcDbVertex
100
AcDb2dVertex
 10
0.345369753221874
 20
15.99760655965498
 30
0.0
  0
SEQEND
  5
9B3
330
9AD
100
AcDbEntity
  8
Livello 1
  0
POLYLINE
  5
9B4
330
1F
100
AcDbEntity
  8
Livello 1
100
AcDb2dPolyline
 66
     1
 10
0.0
 20
0.0
 30
0.0
  0
VERTEX
  5
9B5
330
9B4
100
AcDbEntity
  8
Livello 1
100
AcDbVertex
100
AcDb2dVertex
 10
0.3951110107710178
 20
15.99760655965498
 30
0.0
  0
VERTEX
  5
9B6
330
9B4
100
AcDbEntity
  8
Livello 1
100
AcDbVertex
100
AcDb2dVertex
 10
0.345369753221874
 20
15.99760655965498
 30
0.0
  0
VERTEX
  5
9B7
330
9B4
100
AcDbEntity
  8
Livello 1
100
AcDbVertex
100
AcDb2dVertex
 10
0.345369753221874
 20
16.04487972926668
 30
0.0
  0
VERTEX
  5
9B8
330
9B4
100
AcDbEntity
  8
Livello 1
100
AcDbVertex
100
AcDb2dVertex
 10
0.3951110107710178
 20
16.04487972926668
 30
0.0
  0
VERTEX
  5
9B9
330
9B4
100
AcDbEntity
  8
Livello 1
100
AcDbVertex
100
AcDb2dVertex
 10
0.3951110107710178
 20
15.99760655965498
 30
0.0
  0
SEQEND
  5
9BA
330
9B4
100
AcDbEntity
  8
Livello 1
  0
POLYLINE
  5
9BB
330
1F
100
AcDbEntity
  8
Livello 1
100
AcDb2dPolyline
 66
     1
 10
0.0
 20
0.0
 30
0.0
  0
VERTEX
  5
9BC
330
9BB
100
AcDbEntity
  8
Livello 1
100
AcDbVertex
100
AcDb2dVertex
 10
0.0744358708941917
 20
17.01325300647688
 30
0.0
  0
VERTEX
  5
9BD
330
9BB
100
AcDbEntity
  8
Livello 1
100
AcDbVertex
100
AcDb2dVertex
 10
0.0271640470229357
 20
17.01325300647688
 30
0.0
  0
VERTEX
  5
9BE
330
9BB
100
AcDbEntity
  8
Livello 1
100
AcDbVertex
100
AcDb2dVertex
 10
0.0271640470229357
 20
17.24785055161808
 30
0.0
  0
VERTEX
  5
9BF
330
9BB
100
AcDbEntity
  8
Livello 1
100
AcDbVertex
100
AcDb2dVertex
 10
0.0744358708941917
 20
17.24785055161808
 30
0.0
  0
VERTEX
  5
9C0
330
9BB
100
AcDbEntity
  8
Livello 1
100
AcDbVertex
100
AcDb2dVertex
 10
0.0744358708941917
 20
17.01325300647688
 30
0.0
  0
SEQEND
  5
9C1
330
9BB
100
AcDbEntity
  8
Livello 1
  0
POLYLINE
  5
9C2
330
1F
100
AcDbEntity
  8
Livello 1
100
AcDb2dPolyline
 66
     1
 10
0.0
 20
0.0
 30
0.0
  0
VERTEX
  5
9C3
330
9C2
100
AcDbEntity
  8
Livello 1
100
AcDbVertex
100
AcDb2dVertex
 10
0.0744358708941917
 20
16.60755802383768
 30
0.0
  0
VERTEX
  5
9C4
330
9C2
100
AcDbEntity
  8
Livello 1
100
AcDbVertex
100
AcDb2dVertex
 10
0.0271640470229357
 20
16.60755802383768
 30
0.0
  0
VERTEX
  5
9C5
330
9C2
100
AcDbEntity
  8
Livello 1
100
AcDbVertex
100
AcDb2dVertex
 10
0.0271640470229357
 20
16.84215556897888
 30
0.0
  0
VERTEX
  5
9C6
330
9C2
100
AcDbEntity
  8
Livello 1
100
AcDbVertex
100
AcDb2dVertex
 10
0.0744358708941917
 20
16.84215556897888
 30
0.0
  0
VERTEX
  5
9C7
330
9C2
100
AcDbEntity
  8
Livello 1
100
AcDbVertex
100
AcDb2dVertex
 10
0.0744358708941917
 20
16.60755802383768
 30
0.0
  0
SEQEND
  5
9C8
330
9C2
100
AcDbEntity
  8
Livello 1
  0
POLYLINE
  5
9C9
330
1F
100
AcDbEntity
  8
Livello 1
100
AcDb2dPolyline
 66
     1
 10
0.0
 20
0.0
 30
0.0
  0
VERTEX
  5
9CA
330
9C9
100
AcDbEntity
  8
Livello 1
100
AcDbVertex
100
AcDb2dVertex
 10
0.0744358708941917
 20
16.2015104572074
 30
0.0
  0
VERTEX
  5
9CB
330
9C9
100
AcDbEntity
  8
Livello 1
100
AcDbVertex
100
AcDb2dVertex
 10
0.0271640470229357
 20
16.2015104572074
 30
0.0
  0
VERTEX
  5
9CC
330
9C9
100
AcDbEntity
  8
Livello 1
100
AcDbVertex
100
AcDb2dVertex
 10
0.0271640470229357
 20
16.43610800234867
 30
0.0
  0
VERTEX
  5
9CD
330
9C9
100
AcDbEntity
  8
Livello 1
100
AcDbVertex
100
AcDb2dVertex
 10
0.0744358708941917
 20
16.43610800234867
 30
0.0
  0
VERTEX
  5
9CE
330
9C9
100
AcDbEntity
  8
Livello 1
100
AcDbVertex
100
AcDb2dVertex
 10
0.0744358708941917
 20
16.2015104572074
 30
0.0
  0
SEQEND
  5
9CF
330
9C9
100
AcDbEntity
  8
Livello 1
  0
SPLINE
  5
9D0
330
1F
100
AcDbEntity
  8
Livello 1
100
AcDbSpline
210
0.0
220
0.0
230
1.0
 70
     9
 71
     3
 72
    23
 73
    19
 74
     0
 42
0.000000001
 43
0.0000000001
 40
0.0
 40
0.0
 40
0.0
 40
0.0
 40
1.0
 40
1.0
 40
1.0
 40
2.0
 40
2.0
 40
2.0
 40
3.0
 40
3.0
 40
3.0
 40
4.0
 40
4.0
 40
4.0
 40
5.0
 40
5.0
 40
5.0
 40
6.0
 40
6.0
 40
6.0
 40
6.0
 10
0.0000002765659985
 20
17.44632304081948
 30
0.0
 10
0.0000002765659985
 20
17.46713626221598
 30
0.0
 10
0.0081137455818379
 20
17.48653914764808
 30
0.0
 10
0.0225777636582194
 20
17.5013557497156
 30
0.0
 10
0.0373943657256177
 20
17.51617235178297
 30
0.0
 10
0.0567972511577892
 20
17.52428447505839
 30
0.0
 10
0.077610472554241
 20
17.52428447505839
 30
0.0
 10
0.077610472554241
 20
17.52428447505839
 30
0.0
 10
0.077610472554241
 20
17.47701399692759
 30
0.0
 10
0.077610472554241
 20
17.47701399692759
 30
0.0
 10
0.0694970035383733
 20
17.47701399692759
 30
0.0
 10
0.0617361185135934
 20
17.47348546553608
 30
0.0
 10
0.0560907374352411
 20
17.46784143019808
 30
0.0
 10
0.0504467020972896
 20
17.46219739486018
 30
0.0
 10
0.0472721004372261
 20
17.45443516409499
 30
0.0
 10
0.0472721004372261
 20
17.44632304081948
 30
0.0
 10
0.0472721004372261
 20
17.44632304081948
 30
0.0
 10
0.0000002765659985
 20
17.44632304081948
 30
0.0
 10
0.0000002765659985
 20
17.44632304081948
 30
0.0
  0
POLYLINE
  5
9D1
330
1F
100
AcDbEntity
  8
Livello 1
100
AcDb2dPolyline
 66
     1
 10
0.0
 20
0.0
 30
0.0
  0
VERTEX
  5
9D2
330
9D1
100
AcDbEntity
  8
Livello 1
100
AcDbVertex
100
AcDb2dVertex
 10
0.1213564565147607
 20
17.42282910449859
 30
0.0
  0
VERTEX
  5
9D3
330
9D1
100
AcDbEntity
  8
Livello 1
100
AcDbVertex
100
AcDb2dVertex
 10
0.023636861371827
 20
17.42282910449859
 30
0.0
  0
VERTEX
  5
9D4
330
9D1
100
AcDbEntity
  8
Livello 1
100
AcDbVertex
100
AcDb2dVertex
 10
0.023636861371827
 20
17.4701022741103
 30
0.0
  0
VERTEX
  5
9D5
330
9D1
100
AcDbEntity
  8
Livello 1
100
AcDbVertex
100
AcDb2dVertex
 10
0.1213564565147607
 20
17.4701022741103
 30
0.0
  0
VERTEX
  5
9D6
330
9D1
100
AcDbEntity
  8
Livello 1
100
AcDbVertex
100
AcDb2dVertex
 10
0.1213564565147607
 20
17.42282910449859
 30
0.0
  0
SEQEND
  5
9D7
330
9D1
100
AcDbEntity
  8
Livello 1
  0
SPLINE
  5
9D8
330
1F
100
AcDbEntity
  8
Livello 1
100
AcDbSpline
210
0.0
220
0.0
230
1.0
 70
     9
 71
     3
 72
    17
 73
    13
 74
     0
 42
0.000000001
 43
0.0000000001
 40
0.0
 40
0.0
 40
0.0
 40
0.0
 40
1.0
 40
1.0
 40
1.0
 40
2.0
 40
2.0
 40
2.0
 40
3.0
 40
3.0
 40
3.0
 40
4.0
 40
4.0
 40
4.0
 40
4.0
 10
0.148307599984733
 20
17.40822243793738
 30
0.0
 10
0.148307599984733
 20
17.40822243793738
 30
0.0
 10
0.1010344303730761
 20
17.41245344583018
 30
0.0
 10
0.1010344303730761
 20
17.41245344583018
 30
0.0
 10
0.1020935280866979
 20
17.42197859655069
 30
0.0
 10
0.1013870143641213
 20
17.4307985792891
 30
0.0
 10
0.0985649966951741
 20
17.43997114601859
 30
0.0
 10
0.0985649966951741
 20
17.43997114601859
 30
0.0
 10
0.1440739006110618
 20
17.45302482813069
 30
0.0
 10
0.1440739006110618
 20
17.45302482813069
 30
0.0
 10
0.148307599984733
 20
17.43820822606329
 30
0.0
 10
0.1497179359490133
 20
17.42339162399578
 30
0.0
 10
0.148307599984733
 20
17.40822243793738
 30
0.0
  0
POLYLINE
  5
9D9
330
1F
100
AcDbEntity
  8
Livello 1
100
AcDb2dPolyline
 66
     1
 10
0.0
 20
0.0
 30
0.0
  0
VERTEX
  5
9DA
330
9D9
100
AcDbEntity
  8
Livello 1
100
AcDbVertex
100
AcDb2dVertex
 10
0.1837974664444886
 20
17.38649142157179
 30
0.0
  0
VERTEX
  5
9DB
330
9D9
100
AcDbEntity
  8
Livello 1
100
AcDbVertex
100
AcDb2dVertex
 10
0.1248836421658694
 20
17.38649142157179
 30
0.0
  0
VERTEX
  5
9DC
330
9D9
100
AcDbEntity
  8
Livello 1
100
AcDbVertex
100
AcDb2dVertex
 10
0.1248836421658694
 20
17.43376459118347
 30
0.0
  0
VERTEX
  5
9DD
330
9D9
100
AcDbEntity
  8
Livello 1
100
AcDbVertex
100
AcDb2dVertex
 10
0.1837974664444886
 20
17.43376459118347
 30
0.0
  0
VERTEX
  5
9DE
330
9D9
100
AcDbEntity
  8
Livello 1
100
AcDbVertex
100
AcDb2dVertex
 10
0.1837974664444886
 20
17.38649142157179
 30
0.0
  0
SEQEND
  5
9DF
330
9D9
100
AcDbEntity
  8
Livello 1
  0
POLYLINE
  5
9E0
330
1F
100
AcDbEntity
  8
Livello 1
100
AcDb2dPolyline
 66
     1
 10
0.0
 20
0.0
 30
0.0
  0
VERTEX
  5
9E1
330
9E0
100
AcDbEntity
  8
Livello 1
100
AcDbVertex
100
AcDb2dVertex
 10
0.1485202269717121
 20
16.02124045297999
 30
0.0
  0
VERTEX
  5
9E2
330
9E0
100
AcDbEntity
  8
Livello 1
100
AcDbVertex
100
AcDb2dVertex
 10
0.1012484031004703
 20
16.02124045297999
 30
0.0
  0
VERTEX
  5
9E3
330
9E0
100
AcDbEntity
  8
Livello 1
100
AcDbVertex
100
AcDb2dVertex
 10
0.1012484031004703
 20
17.41048059036868
 30
0.0
  0
VERTEX
  5
9E4
330
9E0
100
AcDbEntity
  8
Livello 1
100
AcDbVertex
100
AcDb2dVertex
 10
0.1485202269717121
 20
17.41048059036868
 30
0.0
  0
VERTEX
  5
9E5
330
9E0
100
AcDbEntity
  8
Livello 1
100
AcDbVertex
100
AcDb2dVertex
 10
0.1485202269717121
 20
16.02124045297999
 30
0.0
  0
SEQEND
  5
9E6
330
9E0
100
AcDbEntity
  8
Livello 1
  0
POLYLINE
  5
9E7
330
1F
100
AcDbEntity
  8
Livello 1
100
AcDb2dPolyline
 66
     1
 10
0.0
 20
0.0
 30
0.0
  0
VERTEX
  5
9E8
330
9E7
100
AcDbEntity
  8
Livello 1
100
AcDbVertex
100
AcDb2dVertex
 10
0.1837974664444886
 20
15.99760655965498
 30
0.0
  0
VERTEX
  5
9E9
330
9E7
100
AcDbEntity
  8
Livello 1
100
AcDbVertex
100
AcDb2dVertex
 10
0.1248836421658694
 20
15.99760655965498
 30
0.0
  0
VERTEX
  5
9EA
330
9E7
100
AcDbEntity
  8
Livello 1
100
AcDbVertex
100
AcDb2dVertex
 10
0.1248836421658694
 20
16.04487972926668
 30
0.0
  0
VERTEX
  5
9EB
330
9E7
100
AcDbEntity
  8
Livello 1
100
AcDbVertex
100
AcDb2dVertex
 10
0.1837974664444886
 20
16.04487972926668
 30
0.0
  0
VERTEX
  5
9EC
330
9E7
100
AcDbEntity
  8
Livello 1
100
AcDbVertex
100
AcDb2dVertex
 10
0.1837974664444886
 20
15.99760655965498
 30
0.0
  0
SEQEND
  5
9ED
330
9E7
100
AcDbEntity
  8
Livello 1
  0
SPLINE
  5
9EE
330
1F
100
AcDbEntity
  8
Livello 1
100
AcDbSpline
210
0.0
220
0.0
230
1.0
 70
     9
 71
     3
 72
    17
 73
    13
 74
     0
 42
0.000000001
 43
0.0000000001
 40
0.0
 40
0.0
 40
0.0
 40
0.0
 40
1.0
 40
1.0
 40
1.0
 40
2.0
 40
2.0
 40
2.0
 40
3.0
 40
3.0
 40
3.0
 40
4.0
 40
4.0
 40
4.0
 40
4.0
 10
0.1441102356025112
 20
15.97862623671599
 30
0.0
 10
0.1441102356025112
 20
15.97862623671599
 30
0.0
 10
0.0986013316866092
 20
15.99132464335609
 30
0.0
 10
0.0986013316866092
 20
15.99132464335609
 30
0.0
 10
0.1010707653645397
 20
16.00084979407667
 30
0.0
 10
0.102128517337718
 20
16.00931719282398
 30
0.0
 10
0.1010707653645397
 20
16.01884234354459
 30
0.0
 10
0.1010707653645397
 20
16.01884234354459
 30
0.0
 10
0.148342589235753
 20
16.02307604291819
 30
0.0
 10
0.148342589235753
 20
16.02307604291819
 30
0.0
 10
0.1497542709404627
 20
16.00790416537889
 30
0.0
 10
0.148342589235753
 20
15.99344283878338
 30
0.0
 10
0.1441102356025112
 20
15.97862623671599
 30
0.0
  0
POLYLINE
  5
9EF
330
1F
100
AcDbEntity
  8
Livello 1
100
AcDb2dPolyline
 66
     1
 10
0.0
 20
0.0
 30
0.0
  0
VERTEX
  5
9F0
330
9EF
100
AcDbEntity
  8
Livello 1
100
AcDbVertex
100
AcDb2dVertex
 10
0.1213564565147607
 20
15.96126887672818
 30
0.0
  0
VERTEX
  5
9F1
330
9EF
100
AcDbEntity
  8
Livello 1
100
AcDbVertex
100
AcDb2dVertex
 10
0.023636861371827
 20
15.96126887672818
 30
0.0
  0
VERTEX
  5
9F2
330
9EF
100
AcDbEntity
  8
Livello 1
100
AcDbVertex
100
AcDb2dVertex
 10
0.023636861371827
 20
16.0085420463398
 30
0.0
  0
VERTEX
  5
9F3
330
9EF
100
AcDbEntity
  8
Livello 1
100
AcDbVertex
100
AcDb2dVertex
 10
0.1213564565147607
 20
16.0085420463398
 30
0.0
  0
VERTEX
  5
9F4
330
9EF
100
AcDbEntity
  8
Livello 1
100
AcDbVertex
100
AcDb2dVertex
 10
0.1213564565147607
 20
15.96126887672818
 30
0.0
  0
SEQEND
  5
9F5
330
9EF
100
AcDbEntity
  8
Livello 1
  0
SPLINE
  5
9F6
330
1F
100
AcDbEntity
  8
Livello 1
100
AcDbSpline
210
0.0
220
0.0
230
1.0
 70
     9
 71
     3
 72
    23
 73
    19
 74
     0
 42
0.000000001
 43
0.0000000001
 40
0.0
 40
0.0
 40
0.0
 40
0.0
 40
1.0
 40
1.0
 40
1.0
 40
2.0
 40
2.0
 40
2.0
 40
3.0
 40
3.0
 40
3.0
 40
4.0
 40
4.0
 40
4.0
 40
5.0
 40
5.0
 40
5.0
 40
6.0
 40
6.0
 40
6.0
 40
6.0
 10
0.0775055048011524
 20
15.9072589305543
 30
0.0
 10
0.0566909376642855
 20
15.9072589305543
 30
0.0
 10
0.0372880522321424
 20
15.91537105382978
 30
0.0
 10
0.0224714501647156
 20
15.93018765589718
 30
0.0
 10
0.0080074320883625
 20
15.9450042579646
 30
0.0
 10
-0.000106036927491
 20
15.9644071433968
 30
0.0
 10
-0.000106036927491
 20
15.98522036479319
 30
0.0
 10
-0.000106036927491
 20
15.98522036479319
 30
0.0
 10
0.0471657869437507
 20
15.98486778080209
 30
0.0
 10
0.0471657869437507
 20
15.98486778080209
 30
0.0
 10
0.0471657869437507
 20
15.97675565752669
 30
0.0
 10
0.0503403886038001
 20
15.96934601075259
 30
0.0
 10
0.0559857696821666
 20
15.96334939142359
 30
0.0
 10
0.0619823890111775
 20
15.9577053560856
 30
0.0
 10
0.0693906900448695
 20
15.95452940868519
 30
0.0
 10
0.0775055048011524
 20
15.95452940868519
 30
0.0
 10
0.0775055048011524
 20
15.95452940868519
 30
0.0
 10
0.0775055048011524
 20
15.9072589305543
 30
0.0
 10
0.0775055048011524
 20
15.9072589305543
 30
0.0
  0
POLYLINE
  5
9F7
330
1F
100
AcDbEntity
  8
Livello 1
100
AcDb2dPolyline
 66
     1
 10
0.0
 20
0.0
 30
0.0
  0
VERTEX
  5
9F8
330
9F7
100
AcDbEntity
  8
Livello 1
100
AcDbVertex
100
AcDb2dVertex
 10
0.0472721004372261
 20
17.24785055161808
 30
0.0
  0
VERTEX
  5
9F9
330
9F7
100
AcDbEntity
  8
Livello 1
100
AcDbVertex
100
AcDb2dVertex
 10
0.0000002765659985
 20
17.24785055161808
 30
0.0
  0
VERTEX
  5
9FA
330
9F7
100
AcDbEntity
  8
Livello 1
100
AcDbVertex
100
AcDb2dVertex
 10
0.0000002765659985
 20
17.44646568930449
 30
0.0
  0
VERTEX
  5
9FB
330
9F7
100
AcDbEntity
  8
Livello 1
100
AcDbVertex
100
AcDb2dVertex
 10
0.0472721004372261
 20
17.44646568930449
 30
0.0
  0
VERTEX
  5
9FC
330
9F7
100
AcDbEntity
  8
Livello 1
100
AcDbVertex
100
AcDb2dVertex
 10
0.0472721004372261
 20
17.24785055161808
 30
0.0
  0
SEQEND
  5
9FD
330
9F7
100
AcDbEntity
  8
Livello 1
  0
POLYLINE
  5
9FE
330
1F
100
AcDbEntity
  8
Livello 1
100
AcDb2dPolyline
 66
     1
 10
0.0
 20
0.0
 30
0.0
  0
VERTEX
  5
9FF
330
9FE
100
AcDbEntity
  8
Livello 1
100
AcDbVertex
100
AcDb2dVertex
 10
0.0472721004372261
 20
16.84215556897888
 30
0.0
  0
VERTEX
  5
A00
330
9FE
100
AcDbEntity
  8
Livello 1
100
AcDbVertex
100
AcDb2dVertex
 10
0.0000002765659985
 20
16.84215556897888
 30
0.0
  0
VERTEX
  5
A01
330
9FE
100
AcDbEntity
  8
Livello 1
100
AcDbVertex
100
AcDb2dVertex
 10
0.0000002765659985
 20
17.0136055904679
 30
0.0
  0
VERTEX
  5
A02
330
9FE
100
AcDbEntity
  8
Livello 1
100
AcDbVertex
100
AcDb2dVertex
 10
0.0472721004372261
 20
17.0136055904679
 30
0.0
  0
VERTEX
  5
A03
330
9FE
100
AcDbEntity
  8
Livello 1
100
AcDbVertex
100
AcDb2dVertex
 10
0.0472721004372261
 20
16.84215556897888
 30
0.0
  0
SEQEND
  5
A04
330
9FE
100
AcDbEntity
  8
Livello 1
  0
POLYLINE
  5
A05
330
1F
100
AcDbEntity
  8
Livello 1
100
AcDb2dPolyline
 66
     1
 10
0.0
 20
0.0
 30
0.0
  0
VERTEX
  5
A06
330
A05
100
AcDbEntity
  8
Livello 1
100
AcDbVertex
100
AcDb2dVertex
 10
0.0472721004372261
 20
16.43610800234867
 30
0.0
  0
VERTEX
  5
A07
330
A05
100
AcDbEntity
  8
Livello 1
100
AcDbVertex
100
AcDb2dVertex
 10
0.0000002765659985
 20
16.43610800234867
 30
0.0
  0
VERTEX
  5
A08
330
A05
100
AcDbEntity
  8
Livello 1
100
AcDbVertex
100
AcDb2dVertex
 10
0.0000002765659985
 20
16.60755802383768
 30
0.0
  0
VERTEX
  5
A09
330
A05
100
AcDbEntity
  8
Livello 1
100
AcDbVertex
100
AcDb2dVertex
 10
0.0472721004372261
 20
16.60755802383768
 30
0.0
  0
VERTEX
  5
A0A
330
A05
100
AcDbEntity
  8
Livello 1
100
AcDbVertex
100
AcDb2dVertex
 10
0.0472721004372261
 20
16.43610800234867
 30
0.0
  0
SEQEND
  5
A0B
330
A05
100
AcDbEntity
  8
Livello 1
  0
POLYLINE
  5
A0C
330
1F
100
AcDbEntity
  8
Livello 1
100
AcDb2dPolyline
 66
     1
 10
0.0
 20
0.0
 30
0.0
  0
VERTEX
  5
A0D
330
A0C
100
AcDbEntity
  8
Livello 1
100
AcDbVertex
100
AcDb2dVertex
 10
0.0472721004372261
 20
15.98490546153399
 30
0.0
  0
VERTEX
  5
A0E
330
A0C
100
AcDbEntity
  8
Livello 1
100
AcDbVertex
100
AcDb2dVertex
 10
0.0000002765659985
 20
15.98490546153399
 30
0.0
  0
VERTEX
  5
A0F
330
A0C
100
AcDbEntity
  8
Livello 1
100
AcDbVertex
100
AcDb2dVertex
 10
0.0000002765659985
 20
16.2015104572074
 30
0.0
  0
VERTEX
  5
A10
330
A0C
100
AcDbEntity
  8
Livello 1
100
AcDbVertex
100
AcDb2dVertex
 10
0.0472721004372261
 20
16.2015104572074
 30
0.0
  0
VERTEX
  5
A11
330
A0C
100
AcDbEntity
  8
Livello 1
100
AcDbVertex
100
AcDb2dVertex
 10
0.0472721004372261
 20
15.98490546153399
 30
0.0
  0
SEQEND
  5
A12
330
A0C
100
AcDbEntity
  8
Livello 1
  0
SPLINE
  5
A14
330
1F
100
AcDbEntity
  8
Livello 1
100
AcDbSpline
210
0.0
220
0.0
230
1.0
 70
     8
 71
     3
 72
     8
 73
     4
 74
     0
 42
0.000000001
 43
0.0000000001
 40
0.0
 40
0.0
 40
0.0
 40
0.0
 40
1.0
 40
1.0
 40
1.0
 40
1.0
 10
9.443613930566996
 20
16.91578102757189
 30
0.0
 10
9.443613930566996
 20
16.89884623007718
 30
0.0
 10
9.438672371730334
 20
16.88720557541029
 30
0.0
 10
9.425973965090193
 20
16.87591481325348
 30
0.0
  0
SPLINE
  5
A15
330
1F
100
AcDbEntity
  8
Livello 1
100
AcDbSpline
210
0.0
220
0.0
230
1.0
 70
     8
 71
     3
 72
     8
 73
     4
 74
     0
 42
0.000000001
 43
0.0000000001
 40
0.0
 40
0.0
 40
0.0
 40
0.0
 40
1.0
 40
1.0
 40
1.0
 40
1.0
 10
9.38709821572381
 20
16.86166342216418
 30
0.0
 10
9.416731419858663
 20
16.86166342216418
 30
0.0
 10
9.441073172646625
 20
16.8860024834713
 30
0.0
 10
9.440717897174707
 20
16.91563837908697
 30
0.0
  0
SPLINE
  5
A1A
330
1F
100
AcDbEntity
  8
Livello 1
100
AcDbSpline
210
0.0
220
0.0
230
1.0
 70
     8
 71
     3
 72
     8
 73
     4
 74
     0
 42
0.000000001
 43
0.0000000001
 40
0.0
 40
0.0
 40
0.0
 40
0.0
 40
1.0
 40
1.0
 40
1.0
 40
1.0
 10
0.1520824018738409
 20
16.89775348885298
 30
0.0
 10
0.1531401538470476
 20
16.8854049747231
 30
0.0
 10
0.1520824018738409
 20
16.87376432005609
 30
0.0
 10
0.148553870482317
 20
16.86176838991719
 30
0.0
  0
SPLINE
  5
A1B
330
1F
100
AcDbEntity
  8
Livello 1
100
AcDbSpline
210
0.0
220
0.0
230
1.0
 70
     8
 71
     3
 72
     8
 73
     4
 74
     0
 42
0.000000001
 43
0.0000000001
 40
0.0
 40
0.0
 40
0.0
 40
0.0
 40
1.0
 40
1.0
 40
1.0
 40
1.0
 10
0.1049168914960887
 20
16.80754850823729
 30
0.0
 10
0.074929757629775
 20
16.80754850823729
 30
0.0
 10
0.0509405888328587
 20
16.83188756954439
 30
0.0
 10
0.0509405888328587
 20
16.86152346516009
 30
0.0
  0
POLYLINE
  5
A1C
330
1F
100
AcDbEntity
  8
Livello 1
100
AcDb2dPolyline
 66
     1
 10
0.0
 20
0.0
 30
0.0
  0
VERTEX
  5
A1D
330
A1C
100
AcDbEntity
  8
Livello 1
100
AcDbVertex
100
AcDb2dVertex
 10
7.403747324682512
 20
3.441538884130594
 30
0.0
  0
VERTEX
  5
A1E
330
A1C
100
AcDbEntity
  8
Livello 1
100
AcDbVertex
100
AcDb2dVertex
 10
6.955014217545752
 20
3.441538884130594
 30
0.0
  0
VERTEX
  5
A1F
330
A1C
100
AcDbEntity
  8
Livello 1
100
AcDbVertex
100
AcDb2dVertex
 10
6.955014217545752
 20
3.488810708001793
 30
0.0
  0
VERTEX
  5
A20
330
A1C
100
AcDbEntity
  8
Livello 1
100
AcDbVertex
100
AcDb2dVertex
 10
7.403747324682512
 20
3.488810708001793
 30
0.0
  0
VERTEX
  5
A21
330
A1C
100
AcDbEntity
  8
Livello 1
100
AcDbVertex
100
AcDb2dVertex
 10
7.403747324682512
 20
3.441538884130594
 30
0.0
  0
SEQEND
  5
A22
330
A1C
100
AcDbEntity
  8
Livello 1
  0
POLYLINE
  5
A23
330
1F
100
AcDbEntity
  8
Livello 1
100
AcDb2dPolyline
 66
     1
 10
0.0
 20
0.0
 30
0.0
  0
VERTEX
  5
A24
330
A23
100
AcDbEntity
  8
Livello 1
100
AcDbVertex
100
AcDb2dVertex
 10
7.360496573197963
 20
3.480203352250384
 30
0.0
  0
VERTEX
  5
A25
330
A23
100
AcDbEntity
  8
Livello 1
100
AcDbVertex
100
AcDb2dVertex
 10
7.214446056470151
 20
3.726088968067486
 30
0.0
  0
VERTEX
  5
A26
330
A23
100
AcDbEntity
  8
Livello 1
100
AcDbVertex
100
AcDb2dVertex
 10
7.255368677021309
 20
3.75043072085549
 30
0.0
  0
VERTEX
  5
A27
330
A23
100
AcDbEntity
  8
Livello 1
100
AcDbVertex
100
AcDb2dVertex
 10
7.401065264017617
 20
3.504191175306885
 30
0.0
  0
VERTEX
  5
A28
330
A23
100
AcDbEntity
  8
Livello 1
100
AcDbVertex
100
AcDb2dVertex
 10
7.360496573197963
 20
3.480203352250384
 30
0.0
  0
SEQEND
  5
A29
330
A23
100
AcDbEntity
  8
Livello 1
  0
SPLINE
  5
A2A
330
1F
100
AcDbEntity
  8
Livello 1
100
AcDbSpline
210
0.0
220
0.0
230
1.0
 70
     9
 71
     3
 72
    17
 73
    13
 74
     0
 42
0.000000001
 43
0.0000000001
 40
0.0
 40
0.0
 40
0.0
 40
0.0
 40
1.0
 40
1.0
 40
1.0
 40
2.0
 40
2.0
 40
2.0
 40
3.0
 40
3.0
 40
3.0
 40
4.0
 40
4.0
 40
4.0
 40
4.0
 10
7.214234775223587
 20
3.726724157547593
 30
0.0
 10
7.187069659026235
 20
3.775053733392098
 30
0.0
 10
7.190950774408833
 20
3.83467407139328
 30
0.0
 10
7.223758580203721
 20
3.879476461586591
 30
0.0
 10
7.223758580203721
 20
3.879476461586591
 30
0.0
 10
7.261859183085903
 20
3.851253593415989
 30
0.0
 10
7.261859183085903
 20
3.851253593415989
 30
0.0
 10
7.239986863975843
 20
3.821620389281179
 30
0.0
 10
7.237517430297941
 20
3.781756866443672
 30
0.0
 10
7.255508634025403
 20
3.749654228630888
 30
0.0
 10
7.255508634025403
 20
3.749654228630888
 30
0.0
 10
7.214234775223587
 20
3.726724157547593
 30
0.0
 10
7.214234775223587
 20
3.726724157547593
 30
0.0
  0
POLYLINE
  5
A2B
330
1F
100
AcDbEntity
  8
Livello 1
100
AcDb2dPolyline
 66
     1
 10
0.0
 20
0.0
 30
0.0
  0
VERTEX
  5
A2C
330
A2B
100
AcDbEntity
  8
Livello 1
100
AcDbVertex
100
AcDb2dVertex
 10
7.26083776610416
 20
3.850125862940799
 30
0.0
  0
VERTEX
  5
A2D
330
A2B
100
AcDbEntity
  8
Livello 1
100
AcDbVertex
100
AcDb2dVertex
 10
7.224501428917733
 20
3.880816819048789
 30
0.0
  0
VERTEX
  5
A2E
330
A2B
100
AcDbEntity
  8
Livello 1
100
AcDbVertex
100
AcDb2dVertex
 10
7.448514725624832
 20
4.146457904289192
 30
0.0
  0
VERTEX
  5
A2F
330
A2B
100
AcDbEntity
  8
Livello 1
100
AcDbVertex
100
AcDb2dVertex
 10
7.48485106281123
 20
4.115766948181175
 30
0.0
  0
VERTEX
  5
A30
330
A2B
100
AcDbEntity
  8
Livello 1
100
AcDbVertex
100
AcDb2dVertex
 10
7.26083776610416
 20
3.850125862940799
 30
0.0
  0
SEQEND
  5
A31
330
A2B
100
AcDbEntity
  8
Livello 1
  0
POLYLINE
  5
A32
330
1F
100
AcDbEntity
  8
Livello 1
100
AcDb2dPolyline
 66
     1
 10
0.0
 20
0.0
 30
0.0
  0
VERTEX
  5
A33
330
A32
100
AcDbEntity
  8
Livello 1
100
AcDbVertex
100
AcDb2dVertex
 10
7.466894848334789
 20
4.107583500663281
 30
0.0
  0
VERTEX
  5
A34
330
A32
100
AcDbEntity
  8
Livello 1
100
AcDbVertex
100
AcDb2dVertex
 10
6.956425899250447
 20
4.107583500663281
 30
0.0
  0
VERTEX
  5
A35
330
A32
100
AcDbEntity
  8
Livello 1
100
AcDbVertex
100
AcDb2dVertex
 10
6.956425899250447
 20
4.15485532453448
 30
0.0
  0
VERTEX
  5
A36
330
A32
100
AcDbEntity
  8
Livello 1
100
AcDbVertex
100
AcDb2dVertex
 10
7.466894848334789
 20
4.15485532453448
 30
0.0
  0
VERTEX
  5
A37
330
A32
100
AcDbEntity
  8
Livello 1
100
AcDbVertex
100
AcDb2dVertex
 10
7.466894848334789
 20
4.107583500663281
 30
0.0
  0
SEQEND
  5
A38
330
A32
100
AcDbEntity
  8
Livello 1
  0
POLYLINE
  5
A39
330
1F
100
AcDbEntity
  8
Livello 1
100
AcDb2dPolyline
 66
     1
 10
0.0
 20
0.0
 30
0.0
  0
VERTEX
  5
A3A
330
A39
100
AcDbEntity
  8
Livello 1
100
AcDbVertex
100
AcDb2dVertex
 10
7.339189465065942
 20
4.841714508204091
 30
0.0
  0
VERTEX
  5
A3B
330
A39
100
AcDbEntity
  8
Livello 1
100
AcDbVertex
100
AcDb2dVertex
 10
7.084131282519308
 20
4.841714508204091
 30
0.0
  0
VERTEX
  5
A3C
330
A39
100
AcDbEntity
  8
Livello 1
100
AcDbVertex
100
AcDb2dVertex
 10
7.084131282519308
 20
4.88898633207529
 30
0.0
  0
VERTEX
  5
A3D
330
A39
100
AcDbEntity
  8
Livello 1
100
AcDbVertex
100
AcDb2dVertex
 10
7.339189465065942
 20
4.88898633207529
 30
0.0
  0
VERTEX
  5
A3E
330
A39
100
AcDbEntity
  8
Livello 1
100
AcDbVertex
100
AcDb2dVertex
 10
7.339189465065942
 20
4.841714508204091
 30
0.0
  0
SEQEND
  5
A3F
330
A39
100
AcDbEntity
  8
Livello 1
  0
SPLINE
  5
A40
330
1F
100
AcDbEntity
  8
Livello 1
100
AcDbSpline
210
0.0
220
0.0
230
1.0
 70
     9
 71
     3
 72
    17
 73
    13
 74
     0
 42
0.000000001
 43
0.0000000001
 40
0.0
 40
0.0
 40
0.0
 40
0.0
 40
1.0
 40
1.0
 40
1.0
 40
2.0
 40
2.0
 40
2.0
 40
3.0
 40
3.0
 40
3.0
 40
4.0
 40
4.0
 40
4.0
 40
4.0
 10
7.490390130396122
 20
4.685009764540083
 30
0.0
 10
7.490390130396122
 20
4.685009764540083
 30
0.0
 10
7.443116960784465
 20
4.685009764540083
 30
0.0
 10
7.443116960784465
 20
4.685009764540083
 30
0.0
 10
7.443116960784465
 20
4.749920208147685
 30
0.0
 10
7.410661738980664
 20
4.841641838221192
 30
0.0
 10
7.339048162321432
 20
4.841641838221192
 30
0.0
 10
7.339048162321432
 20
4.841641838221192
 30
0.0
 10
7.339048162321432
 20
4.888915007832892
 30
0.0
 10
7.339048162321432
 20
4.888915007832892
 30
0.0
 10
7.449467509844964
 20
4.888915007832892
 30
0.0
 10
7.490390130396122
 20
4.764031642232978
 30
0.0
 10
7.490390130396122
 20
4.685009764540083
 30
0.0
  0
POLYLINE
  5
A41
330
1F
100
AcDbEntity
  8
Livello 1
100
AcDb2dPolyline
 66
     1
 10
0.0
 20
0.0
 30
0.0
  0
VERTEX
  5
A42
330
A41
100
AcDbEntity
  8
Livello 1
100
AcDbVertex
100
AcDb2dVertex
 10
7.084131282519308
 20
4.841714508204091
 30
0.0
  0
VERTEX
  5
A43
330
A41
100
AcDbEntity
  8
Livello 1
100
AcDbVertex
100
AcDb2dVertex
 10
7.06508098107821
 20
4.841714508204091
 30
0.0
  0
VERTEX
  5
A44
330
A41
100
AcDbEntity
  8
Livello 1
100
AcDbVertex
100
AcDb2dVertex
 10
7.06508098107821
 20
4.88898633207529
 30
0.0
  0
VERTEX
  5
A45
330
A41
100
AcDbEntity
  8
Livello 1
100
AcDbVertex
100
AcDb2dVertex
 10
7.084131282519308
 20
4.88898633207529
 30
0.0
  0
VERTEX
  5
A46
330
A41
100
AcDbEntity
  8
Livello 1
100
AcDbVertex
100
AcDb2dVertex
 10
7.084131282519308
 20
4.841714508204091
 30
0.0
  0
SEQEND
  5
A47
330
A41
100
AcDbEntity
  8
Livello 1
  0
SPLINE
  5
A48
330
1F
100
AcDbEntity
  8
Livello 1
100
AcDbSpline
210
0.0
220
0.0
230
1.0
 70
     9
 71
     3
 72
    17
 73
    13
 74
     0
 42
0.000000001
 43
0.0000000001
 40
0.0
 40
0.0
 40
0.0
 40
0.0
 40
1.0
 40
1.0
 40
1.0
 40
2.0
 40
2.0
 40
2.0
 40
3.0
 40
3.0
 40
3.0
 40
4.0
 40
4.0
 40
4.0
 40
4.0
 10
6.976745233911302
 20
4.767383881628973
 30
0.0
 10
6.976745233911302
 20
4.767383881628973
 30
0.0
 10
6.933000595691183
 20
4.78572766934748
 30
0.0
 10
6.933000595691183
 20
4.78572766934748
 30
0.0
 10
6.953813817087606
 20
4.835468926896595
 30
0.0
 10
6.999322721003508
 20
4.889091299828379
 30
0.0
 10
7.064939678333701
 20
4.889091299828379
 30
0.0
 10
7.064939678333701
 20
4.889091299828379
 30
0.0
 10
7.064939678333701
 20
4.841819475957095
 30
0.0
 10
7.064939678333701
 20
4.841819475957095
 30
0.0
 10
7.022605376077848
 20
4.841819475957095
 30
0.0
 10
6.991561835978728
 20
4.803366289083882
 30
0.0
 10
6.976745233911302
 20
4.767383881628973
 30
0.0
  0
SPLINE
  5
A49
330
1F
100
AcDbEntity
  8
Livello 1
100
AcDbSpline
210
0.0
220
0.0
230
1.0
 70
     9
 71
     3
 72
    17
 73
    13
 74
     0
 42
0.000000001
 43
0.0000000001
 40
0.0
 40
0.0
 40
0.0
 40
0.0
 40
1.0
 40
1.0
 40
1.0
 40
2.0
 40
2.0
 40
2.0
 40
3.0
 40
3.0
 40
3.0
 40
4.0
 40
4.0
 40
4.0
 40
4.0
 10
6.980096127566866
 20
4.685009764540083
 30
0.0
 10
6.980096127566866
 20
4.685009764540083
 30
0.0
 10
6.932822957955224
 20
4.685009764540083
 30
0.0
 10
6.932822957955224
 20
4.685009764540083
 30
0.0
 10
6.932822957955224
 20
4.764031642232978
 30
0.0
 10
6.973745578506381
 20
4.888915007832892
 30
0.0
 10
7.083812342038839
 20
4.888915007832892
 30
0.0
 10
7.083812342038839
 20
4.888915007832892
 30
0.0
 10
7.083812342038839
 20
4.841641838221192
 30
0.0
 10
7.083812342038839
 20
4.841641838221192
 30
0.0
 10
7.012198765379622
 20
4.841641838221192
 30
0.0
 10
6.980096127566866
 20
4.749920208147685
 30
0.0
 10
6.980096127566866
 20
4.685009764540083
 30
0.0
  0
POLYLINE
  5
A4A
330
1F
100
AcDbEntity
  8
Livello 1
100
AcDb2dPolyline
 66
     1
 10
0.0
 20
0.0
 30
0.0
  0
VERTEX
  5
A4B
330
A4A
100
AcDbEntity
  8
Livello 1
100
AcDbVertex
100
AcDb2dVertex
 10
2.48002762308684
 20
3.441538884130594
 30
0.0
  0
VERTEX
  5
A4C
330
A4A
100
AcDbEntity
  8
Livello 1
100
AcDbVertex
100
AcDb2dVertex
 10
2.031294515950079
 20
3.441538884130594
 30
0.0
  0
VERTEX
  5
A4D
330
A4A
100
AcDbEntity
  8
Livello 1
100
AcDbVertex
100
AcDb2dVertex
 10
2.031294515950079
 20
3.488810708001793
 30
0.0
  0
VERTEX
  5
A4E
330
A4A
100
AcDbEntity
  8
Livello 1
100
AcDbVertex
100
AcDb2dVertex
 10
2.48002762308684
 20
3.488810708001793
 30
0.0
  0
VERTEX
  5
A4F
330
A4A
100
AcDbEntity
  8
Livello 1
100
AcDbVertex
100
AcDb2dVertex
 10
2.48002762308684
 20
3.441538884130594
 30
0.0
  0
SEQEND
  5
A50
330
A4A
100
AcDbEntity
  8
Livello 1
  0
POLYLINE
  5
A51
330
1F
100
AcDbEntity
  8
Livello 1
100
AcDb2dPolyline
 66
     1
 10
0.0
 20
0.0
 30
0.0
  0
VERTEX
  5
A52
330
A51
100
AcDbEntity
  8
Livello 1
100
AcDbVertex
100
AcDb2dVertex
 10
2.074510278183609
 20
3.480203352250384
 30
0.0
  0
VERTEX
  5
A53
330
A51
100
AcDbEntity
  8
Livello 1
100
AcDbVertex
100
AcDb2dVertex
 10
2.033940241623511
 20
3.504191175306885
 30
0.0
  0
VERTEX
  5
A54
330
A51
100
AcDbEntity
  8
Livello 1
100
AcDbVertex
100
AcDb2dVertex
 10
2.17963682861982
 20
3.75043072085549
 30
0.0
  0
VERTEX
  5
A55
330
A51
100
AcDbEntity
  8
Livello 1
100
AcDbVertex
100
AcDb2dVertex
 10
2.220559449170977
 20
3.726088968067486
 30
0.0
  0
VERTEX
  5
A56
330
A51
100
AcDbEntity
  8
Livello 1
100
AcDbVertex
100
AcDb2dVertex
 10
2.074510278183609
 20
3.480203352250384
 30
0.0
  0
SEQEND
  5
A57
330
A51
100
AcDbEntity
  8
Livello 1
  0
SPLINE
  5
A58
330
1F
100
AcDbEntity
  8
Livello 1
100
AcDbSpline
210
0.0
220
0.0
230
1.0
 70
     9
 71
     3
 72
    17
 73
    13
 74
     0
 42
0.000000001
 43
0.0000000001
 40
0.0
 40
0.0
 40
0.0
 40
0.0
 40
1.0
 40
1.0
 40
1.0
 40
2.0
 40
2.0
 40
2.0
 40
3.0
 40
3.0
 40
3.0
 40
4.0
 40
4.0
 40
4.0
 40
4.0
 10
2.22077207615797
 20
3.726724157547593
 30
0.0
 10
2.22077207615797
 20
3.726724157547593
 30
0.0
 10
2.179496871615739
 20
3.749654228630888
 30
0.0
 10
2.179496871615739
 20
3.749654228630888
 30
0.0
 10
2.197488075343201
 20
3.781756866443672
 30
0.0
 10
2.195018641665299
 20
3.821620389281179
 30
0.0
 10
2.173146322555226
 20
3.851253593415989
 30
0.0
 10
2.173146322555226
 20
3.851253593415989
 30
0.0
 10
2.211246925437421
 20
3.879476461586591
 30
0.0
 10
2.211246925437421
 20
3.879476461586591
 30
0.0
 10
2.24405473123231
 20
3.83467407139328
 30
0.0
 10
2.247935846614907
 20
3.775053733392098
 30
0.0
 10
2.22077207615797
 20
3.726724157547593
 30
0.0
  0
POLYLINE
  5
A59
330
1F
100
AcDbEntity
  8
Livello 1
100
AcDb2dPolyline
 66
     1
 10
0.0
 20
0.0
 30
0.0
  0
VERTEX
  5
A5A
330
A59
100
AcDbEntity
  8
Livello 1
100
AcDbVertex
100
AcDb2dVertex
 10
2.47861728712256
 20
4.107583500663281
 30
0.0
  0
VERTEX
  5
A5B
330
A59
100
AcDbEntity
  8
Livello 1
100
AcDbVertex
100
AcDb2dVertex
 10
1.968148338038218
 20
4.107583500663281
 30
0.0
  0
VERTEX
  5
A5C
330
A59
100
AcDbEntity
  8
Livello 1
100
AcDbVertex
100
AcDb2dVertex
 10
1.968148338038218
 20
4.15485532453448
 30
0.0
  0
VERTEX
  5
A5D
330
A59
100
AcDbEntity
  8
Livello 1
100
AcDbVertex
100
AcDb2dVertex
 10
2.47861728712256
 20
4.15485532453448
 30
0.0
  0
VERTEX
  5
A5E
330
A59
100
AcDbEntity
  8
Livello 1
100
AcDbVertex
100
AcDb2dVertex
 10
2.47861728712256
 20
4.107583500663281
 30
0.0
  0
SEQEND
  5
A5F
330
A59
100
AcDbEntity
  8
Livello 1
  0
POLYLINE
  5
A60
330
1F
100
AcDbEntity
  8
Livello 1
100
AcDb2dPolyline
 66
     1
 10
0.0
 20
0.0
 30
0.0
  0
VERTEX
  5
A61
330
A60
100
AcDbEntity
  8
Livello 1
100
AcDbVertex
100
AcDb2dVertex
 10
2.174170431017842
 20
3.850125862940799
 30
0.0
  0
VERTEX
  5
A62
330
A60
100
AcDbEntity
  8
Livello 1
100
AcDbVertex
100
AcDb2dVertex
 10
1.950155788570327
 20
4.115766948181175
 30
0.0
  0
VERTEX
  5
A63
330
A60
100
AcDbEntity
  8
Livello 1
100
AcDbVertex
100
AcDb2dVertex
 10
1.986492125756726
 20
4.146457904289192
 30
0.0
  0
VERTEX
  5
A64
330
A60
100
AcDbEntity
  8
Livello 1
100
AcDbVertex
100
AcDb2dVertex
 10
2.210505422463839
 20
3.880816819048789
 30
0.0
  0
VERTEX
  5
A65
330
A60
100
AcDbEntity
  8
Livello 1
100
AcDbVertex
100
AcDb2dVertex
 10
2.174170431017842
 20
3.850125862940799
 30
0.0
  0
SEQEND
  5
A66
330
A60
100
AcDbEntity
  8
Livello 1
  0
POLYLINE
  5
A67
330
1F
100
AcDbEntity
  8
Livello 1
100
AcDb2dPolyline
 66
     1
 10
0.0
 20
0.0
 30
0.0
  0
VERTEX
  5
A68
330
A67
100
AcDbEntity
  8
Livello 1
100
AcDbVertex
100
AcDb2dVertex
 10
2.350911903853713
 20
4.841714508204091
 30
0.0
  0
VERTEX
  5
A69
330
A67
100
AcDbEntity
  8
Livello 1
100
AcDbVertex
100
AcDb2dVertex
 10
2.095853721307079
 20
4.841714508204091
 30
0.0
  0
VERTEX
  5
A6A
330
A67
100
AcDbEntity
  8
Livello 1
100
AcDbVertex
100
AcDb2dVertex
 10
2.095853721307079
 20
4.88898633207529
 30
0.0
  0
VERTEX
  5
A6B
330
A67
100
AcDbEntity
  8
Livello 1
100
AcDbVertex
100
AcDb2dVertex
 10
2.350911903853713
 20
4.88898633207529
 30
0.0
  0
VERTEX
  5
A6C
330
A67
100
AcDbEntity
  8
Livello 1
100
AcDbVertex
100
AcDb2dVertex
 10
2.350911903853713
 20
4.841714508204091
 30
0.0
  0
SEQEND
  5
A6D
330
A67
100
AcDbEntity
  8
Livello 1
  0
SPLINE
  5
A6E
330
1F
100
AcDbEntity
  8
Livello 1
100
AcDbSpline
210
0.0
220
0.0
230
1.0
 70
     9
 71
     3
 72
    17
 73
    13
 74
     0
 42
0.000000001
 43
0.0000000001
 40
0.0
 40
0.0
 40
0.0
 40
0.0
 40
1.0
 40
1.0
 40
1.0
 40
2.0
 40
2.0
 40
2.0
 40
3.0
 40
3.0
 40
3.0
 40
4.0
 40
4.0
 40
4.0
 40
4.0
 10
2.502252526187959
 20
4.685009764540083
 30
0.0
 10
2.502252526187959
 20
4.685009764540083
 30
0.0
 10
2.454979356576288
 20
4.685009764540083
 30
0.0
 10
2.454979356576288
 20
4.685009764540083
 30
0.0
 10
2.454979356576288
 20
4.749920208147685
 30
0.0
 10
2.422524134772487
 20
4.841641838221192
 30
0.0
 10
2.350910558113284
 20
4.841641838221192
 30
0.0
 10
2.350910558113284
 20
4.841641838221192
 30
0.0
 10
2.350910558113284
 20
4.888915007832892
 30
0.0
 10
2.350910558113284
 20
4.888915007832892
 30
0.0
 10
2.46132990563683
 20
4.888915007832892
 30
0.0
 10
2.502252526187959
 20
4.764031642232978
 30
0.0
 10
2.502252526187959
 20
4.685009764540083
 30
0.0
  0
SPLINE
  5
A6F
330
1F
100
AcDbEntity
  8
Livello 1
100
AcDbSpline
210
0.0
220
0.0
230
1.0
 70
     9
 71
     3
 72
    17
 73
    13
 74
     0
 42
0.000000001
 43
0.0000000001
 40
0.0
 40
0.0
 40
0.0
 40
0.0
 40
1.0
 40
1.0
 40
1.0
 40
2.0
 40
2.0
 40
2.0
 40
3.0
 40
3.0
 40
3.0
 40
4.0
 40
4.0
 40
4.0
 40
4.0
 10
2.45826161747027
 20
4.767383881628973
 30
0.0
 10
2.4434436696624
 20
4.803366289083882
 30
0.0
 10
2.412400129563295
 20
4.841819475957095
 30
0.0
 10
2.370067173047871
 20
4.841819475957095
 30
0.0
 10
2.370067173047871
 20
4.841819475957095
 30
0.0
 10
2.370067173047871
 20
4.889091299828379
 30
0.0
 10
2.370067173047871
 20
4.889091299828379
 30
0.0
 10
2.43568278463762
 20
4.889091299828379
 30
0.0
 10
2.481191688553522
 20
4.835468926896595
 30
0.0
 10
2.502004909949974
 20
4.78572766934748
 30
0.0
 10
2.502004909949974
 20
4.78572766934748
 30
0.0
 10
2.45826161747027
 20
4.767383881628973
 30
0.0
 10
2.45826161747027
 20
4.767383881628973
 30
0.0
  0
POLYLINE
  5
A70
330
1F
100
AcDbEntity
  8
Livello 1
100
AcDb2dPolyline
 66
     1
 10
0.0
 20
0.0
 30
0.0
  0
VERTEX
  5
A71
330
A70
100
AcDbEntity
  8
Livello 1
100
AcDbVertex
100
AcDb2dVertex
 10
2.37031478928587
 20
4.841714508204091
 30
0.0
  0
VERTEX
  5
A72
330
A70
100
AcDbEntity
  8
Livello 1
100
AcDbVertex
100
AcDb2dVertex
 10
2.351264487844758
 20
4.841714508204091
 30
0.0
  0
VERTEX
  5
A73
330
A70
100
AcDbEntity
  8
Livello 1
100
AcDbVertex
100
AcDb2dVertex
 10
2.351264487844758
 20
4.88898633207529
 30
0.0
  0
VERTEX
  5
A74
330
A70
100
AcDbEntity
  8
Livello 1
100
AcDbVertex
100
AcDb2dVertex
 10
2.37031478928587
 20
4.88898633207529
 30
0.0
  0
VERTEX
  5
A75
330
A70
100
AcDbEntity
  8
Livello 1
100
AcDbVertex
100
AcDb2dVertex
 10
2.37031478928587
 20
4.841714508204091
 30
0.0
  0
SEQEND
  5
A76
330
A70
100
AcDbEntity
  8
Livello 1
  0
SPLINE
  5
A77
330
1F
100
AcDbEntity
  8
Livello 1
100
AcDbSpline
210
0.0
220
0.0
230
1.0
 70
     9
 71
     3
 72
    17
 73
    13
 74
     0
 42
0.000000001
 43
0.0000000001
 40
0.0
 40
0.0
 40
0.0
 40
0.0
 40
1.0
 40
1.0
 40
1.0
 40
2.0
 40
2.0
 40
2.0
 40
3.0
 40
3.0
 40
3.0
 40
4.0
 40
4.0
 40
4.0
 40
4.0
 10
1.991959869099147
 20
4.685009764540083
 30
0.0
 10
1.991959869099147
 20
4.685009764540083
 30
0.0
 10
1.94468669948749
 20
4.685009764540083
 30
0.0
 10
1.94468669948749
 20
4.685009764540083
 30
0.0
 10
1.94468669948749
 20
4.764031642232978
 30
0.0
 10
1.985609320038648
 20
4.888915007832892
 30
0.0
 10
2.095676083571106
 20
4.888915007832892
 30
0.0
 10
2.095676083571106
 20
4.888915007832892
 30
0.0
 10
2.095676083571106
 20
4.841641838221192
 30
0.0
 10
2.095676083571106
 20
4.841641838221192
 30
0.0
 10
2.024062506911903
 20
4.841641838221192
 30
0.0
 10
1.991959869099147
 20
4.749920208147685
 30
0.0
 10
1.991959869099147
 20
4.685009764540083
 30
0.0
  0
SPLINE
  5
A78
330
1F
100
AcDbEntity
  8
Livello 1
100
AcDbSpline
210
0.0
220
0.0
230
1.0
 70
     9
 71
     3
 72
    17
 73
    13
 74
     0
 42
0.000000001
 43
0.0000000001
 40
0.0
 40
0.0
 40
0.0
 40
0.0
 40
1.0
 40
1.0
 40
1.0
 40
2.0
 40
2.0
 40
2.0
 40
3.0
 40
3.0
 40
3.0
 40
4.0
 40
4.0
 40
4.0
 40
4.0
 10
7.181461958679733
 20
4.249541620761903
 30
0.0
 10
7.059753194739911
 20
4.274941125523099
 30
0.0
 10
7.015655972528691
 20
4.42134422624197
 30
0.0
 10
7.015655972528691
 20
4.513418440306594
 30
0.0
 10
7.015655972528691
 20
4.513418440306594
 30
0.0
 10
7.062927796399932
 20
4.513418440306594
 30
0.0
 10
7.062927796399932
 20
4.513418440306594
 30
0.0
 10
7.062927796399932
 20
4.436865996291487
 30
0.0
 10
7.097147283899516
 20
4.315509816342796
 30
0.0
 10
7.190985763659838
 20
4.29575434691948
 30
0.0
 10
7.190985763659838
 20
4.29575434691948
 30
0.0
 10
7.181461958679733
 20
4.249541620761903
 30
0.0
 10
7.181461958679733
 20
4.249541620761903
 30
0.0
  0
SPLINE
  5
A79
330
1F
100
AcDbEntity
  8
Livello 1
100
AcDbSpline
210
0.0
220
0.0
230
1.0
 70
     9
 71
     3
 72
    17
 73
    13
 74
     0
 42
0.000000001
 43
0.0000000001
 40
0.0
 40
0.0
 40
0.0
 40
0.0
 40
1.0
 40
1.0
 40
1.0
 40
2.0
 40
2.0
 40
2.0
 40
3.0
 40
3.0
 40
3.0
 40
4.0
 40
4.0
 40
4.0
 40
4.0
 10
7.063035455633837
 20
4.513594732302095
 30
0.0
 10
7.063035455633837
 20
4.513594732302095
 30
0.0
 10
7.015762286022194
 20
4.513594732302095
 30
0.0
 10
7.015762286022194
 20
4.513594732302095
 30
0.0
 10
7.015762286022194
 20
4.605668946366677
 30
0.0
 10
7.059859508233387
 20
4.752072047085476
 30
0.0
 10
7.181568272173237
 20
4.777824135837789
 30
0.0
 10
7.181568272173237
 20
4.777824135837789
 30
0.0
 10
7.191093422893757
 20
4.731257479948681
 30
0.0
 10
7.191093422893757
 20
4.731257479948681
 30
0.0
 10
7.09725359739302
 20
4.711854594516481
 30
0.0
 10
7.063035455633837
 20
4.590499760308176
 30
0.0
 10
7.063035455633837
 20
4.513594732302095
 30
0.0
  0
SPLINE
  5
A7A
330
1F
100
AcDbEntity
  8
Livello 1
100
AcDbSpline
210
0.0
220
0.0
230
1.0
 70
     9
 71
     3
 72
    17
 73
    13
 74
     0
 42
0.000000001
 43
0.0000000001
 40
0.0
 40
0.0
 40
0.0
 40
0.0
 40
1.0
 40
1.0
 40
1.0
 40
2.0
 40
2.0
 40
2.0
 40
3.0
 40
3.0
 40
3.0
 40
4.0
 40
4.0
 40
4.0
 40
4.0
 10
2.253544892701853
 20
4.249541620761903
 30
0.0
 10
2.253544892701853
 20
4.249541620761903
 30
0.0
 10
2.243665812249801
 20
4.29575434691948
 30
0.0
 10
2.243665812249801
 20
4.29575434691948
 30
0.0
 10
2.337858221741626
 20
4.315509816342796
 30
0.0
 10
2.372077709241224
 20
4.436865996291487
 30
0.0
 10
2.372077709241224
 20
4.513418440306594
 30
0.0
 10
2.372077709241224
 20
4.513418440306594
 30
0.0
 10
2.419349533112452
 20
4.513418440306594
 30
0.0
 10
2.419349533112452
 20
4.513418440306594
 30
0.0
 10
2.419349533112452
 20
4.42134422624197
 30
0.0
 10
2.375252310901245
 20
4.274941125523099
 30
0.0
 10
2.253544892701853
 20
4.249541620761903
 30
0.0
  0
SPLINE
  5
A7B
330
1F
100
AcDbEntity
  8
Livello 1
100
AcDbSpline
210
0.0
220
0.0
230
1.0
 70
     9
 71
     3
 72
    17
 73
    13
 74
     0
 42
0.000000001
 43
0.0000000001
 40
0.0
 40
0.0
 40
0.0
 40
0.0
 40
1.0
 40
1.0
 40
1.0
 40
2.0
 40
2.0
 40
2.0
 40
3.0
 40
3.0
 40
3.0
 40
4.0
 40
4.0
 40
4.0
 40
4.0
 10
2.419314543861432
 20
4.513594732302095
 30
0.0
 10
2.419314543861432
 20
4.513594732302095
 30
0.0
 10
2.372041374249761
 20
4.513594732302095
 30
0.0
 10
2.372041374249761
 20
4.513594732302095
 30
0.0
 10
2.372041374249761
 20
4.590499760308176
 30
0.0
 10
2.337821886750191
 20
4.711854594516481
 30
0.0
 10
2.243983406989841
 20
4.731257479948681
 30
0.0
 10
2.243983406989841
 20
4.731257479948681
 30
0.0
 10
2.253508557710389
 20
4.777824135837789
 30
0.0
 10
2.253508557710389
 20
4.777824135837789
 30
0.0
 10
2.375217321650225
 20
4.752072047085476
 30
0.0
 10
2.419314543861432
 20
4.605668946366677
 30
0.0
 10
2.419314543861432
 20
4.513594732302095
 30
0.0
  0
POLYLINE
  5
A7C
330
1F
100
AcDbEntity
  8
Livello 1
100
AcDb2dPolyline
 66
     1
 10
0.0
 20
0.0
 30
0.0
  0
VERTEX
  5
A7D
330
A7C
100
AcDbEntity
  8
Livello 1
100
AcDbVertex
100
AcDb2dVertex
 10
7.330369482327554
 20
3.569949435381587
 30
0.0
  0
VERTEX
  5
A7E
330
A7C
100
AcDbEntity
  8
Livello 1
100
AcDbVertex
100
AcDb2dVertex
 10
7.320844331606977
 20
3.569949435381587
 30
0.0
  0
VERTEX
  5
A7F
330
A7C
100
AcDbEntity
  8
Livello 1
100
AcDbVertex
100
AcDb2dVertex
 10
7.320844331606977
 20
3.617221259252801
 30
0.0
  0
VERTEX
  5
A80
330
A7C
100
AcDbEntity
  8
Livello 1
100
AcDbVertex
100
AcDb2dVertex
 10
7.330369482327554
 20
3.617221259252801
 30
0.0
  0
VERTEX
  5
A81
330
A7C
100
AcDbEntity
  8
Livello 1
100
AcDbVertex
100
AcDb2dVertex
 10
7.330369482327554
 20
3.569949435381587
 30
0.0
  0
SEQEND
  5
A82
330
A7C
100
AcDbEntity
  8
Livello 1
  0
POLYLINE
  5
A83
330
1F
100
AcDbEntity
  8
Livello 1
100
AcDb2dPolyline
 66
     1
 10
0.0
 20
0.0
 30
0.0
  0
VERTEX
  5
A84
330
A83
100
AcDbEntity
  8
Livello 1
100
AcDbVertex
100
AcDb2dVertex
 10
2.114197509025601
 20
3.569949435381587
 30
0.0
  0
VERTEX
  5
A85
330
A83
100
AcDbEntity
  8
Livello 1
100
AcDbVertex
100
AcDb2dVertex
 10
2.104672358305052
 20
3.569949435381587
 30
0.0
  0
VERTEX
  5
A86
330
A83
100
AcDbEntity
  8
Livello 1
100
AcDbVertex
100
AcDb2dVertex
 10
2.104672358305052
 20
3.617221259252801
 30
0.0
  0
VERTEX
  5
A87
330
A83
100
AcDbEntity
  8
Livello 1
100
AcDbVertex
100
AcDb2dVertex
 10
2.114197509025601
 20
3.617221259252801
 30
0.0
  0
VERTEX
  5
A88
330
A83
100
AcDbEntity
  8
Livello 1
100
AcDbVertex
100
AcDb2dVertex
 10
2.114197509025601
 20
3.569949435381587
 30
0.0
  0
SEQEND
  5
A89
330
A83
100
AcDbEntity
  8
Livello 1
  0
POLYLINE
  5
A8A
330
1F
100
AcDbEntity
  8
Livello 1
100
AcDb2dPolyline
 66
     1
 10
0.0
 20
0.0
 30
0.0
  0
VERTEX
  5
A8B
330
A8A
100
AcDbEntity
  8
Livello 1
100
AcDbVertex
100
AcDb2dVertex
 10
8.890988316962747
 20
4.52999930806969
 30
0.0
  0
VERTEX
  5
A8C
330
A8A
100
AcDbEntity
  8
Livello 1
100
AcDbVertex
100
AcDb2dVertex
 10
8.430257933946691
 20
5.534356338475291
 30
0.0
  0
VERTEX
  5
A8D
330
A8A
100
AcDbEntity
  8
Livello 1
100
AcDbVertex
100
AcDb2dVertex
 10
8.473297404184691
 20
5.55411315363888
 30
0.0
  0
VERTEX
  5
A8E
330
A8A
100
AcDbEntity
  8
Livello 1
100
AcDbVertex
100
AcDb2dVertex
 10
8.934025095719889
 20
4.549754777492992
 30
0.0
  0
VERTEX
  5
A8F
330
A8A
100
AcDbEntity
  8
Livello 1
100
AcDbVertex
100
AcDb2dVertex
 10
8.890988316962747
 20
4.52999930806969
 30
0.0
  0
SEQEND
  5
A90
330
A8A
100
AcDbEntity
  8
Livello 1
  0
POLYLINE
  5
A91
330
1F
100
AcDbEntity
  8
Livello 1
100
AcDb2dPolyline
 66
     1
 10
0.0
 20
0.0
 30
0.0
  0
VERTEX
  5
A92
330
A91
100
AcDbEntity
  8
Livello 1
100
AcDbVertex
100
AcDb2dVertex
 10
8.792633532339721
 20
4.484844333885291
 30
0.0
  0
VERTEX
  5
A93
330
A91
100
AcDbEntity
  8
Livello 1
100
AcDbVertex
100
AcDb2dVertex
 10
8.33190314932365
 20
5.489201364290892
 30
0.0
  0
VERTEX
  5
A94
330
A91
100
AcDbEntity
  8
Livello 1
100
AcDbVertex
100
AcDb2dVertex
 10
8.37494261956165
 20
5.508958179454481
 30
0.0
  0
VERTEX
  5
A95
330
A91
100
AcDbEntity
  8
Livello 1
100
AcDbVertex
100
AcDb2dVertex
 10
8.835670311096862
 20
4.504599803308593
 30
0.0
  0
VERTEX
  5
A96
330
A91
100
AcDbEntity
  8
Livello 1
100
AcDbVertex
100
AcDb2dVertex
 10
8.792633532339721
 20
4.484844333885291
 30
0.0
  0
SEQEND
  5
A97
330
A91
100
AcDbEntity
  8
Livello 1
  0
POLYLINE
  5
A98
330
1F
100
AcDbEntity
  8
Livello 1
100
AcDb2dPolyline
 66
     1
 10
0.0
 20
0.0
 30
0.0
  0
VERTEX
  5
A99
330
A98
100
AcDbEntity
  8
Livello 1
100
AcDbVertex
100
AcDb2dVertex
 10
8.603333609867789
 20
5.389331275950482
 30
0.0
  0
VERTEX
  5
A9A
330
A98
100
AcDbEntity
  8
Livello 1
100
AcDbVertex
100
AcDb2dVertex
 10
8.583575448963699
 20
5.432369400447981
 30
0.0
  0
VERTEX
  5
A9B
330
A98
100
AcDbEntity
  8
Livello 1
100
AcDbVertex
100
AcDb2dVertex
 10
8.680942460115574
 20
5.477171790641392
 30
0.0
  0
VERTEX
  5
A9C
330
A98
100
AcDbEntity
  8
Livello 1
100
AcDbVertex
100
AcDb2dVertex
 10
8.70069792953879
 20
5.434133666143779
 30
0.0
  0
VERTEX
  5
A9D
330
A98
100
AcDbEntity
  8
Livello 1
100
AcDbVertex
100
AcDb2dVertex
 10
8.603333609867789
 20
5.389331275950482
 30
0.0
  0
SEQEND
  5
A9E
330
A98
100
AcDbEntity
  8
Livello 1
  0
POLYLINE
  5
A9F
330
1F
100
AcDbEntity
  8
Livello 1
100
AcDb2dPolyline
 66
     1
 10
0.0
 20
0.0
 30
0.0
  0
VERTEX
  5
AA0
330
A9F
100
AcDbEntity
  8
Livello 1
100
AcDbVertex
100
AcDb2dVertex
 10
8.570947020825585
 20
5.400478043881875
 30
0.0
  0
VERTEX
  5
AA1
330
A9F
100
AcDbEntity
  8
Livello 1
100
AcDbVertex
100
AcDb2dVertex
 10
8.420310220733028
 20
5.728914068783481
 30
0.0
  0
VERTEX
  5
AA2
330
A9F
100
AcDbEntity
  8
Livello 1
100
AcDbVertex
100
AcDb2dVertex
 10
8.463349690971028
 20
5.748669538206684
 30
0.0
  0
VERTEX
  5
AA3
330
A9F
100
AcDbEntity
  8
Livello 1
100
AcDbVertex
100
AcDb2dVertex
 10
8.613983799582726
 20
5.420233513305092
 30
0.0
  0
VERTEX
  5
AA4
330
A9F
100
AcDbEntity
  8
Livello 1
100
AcDbVertex
100
AcDb2dVertex
 10
8.570947020825585
 20
5.400478043881875
 30
0.0
  0
SEQEND
  5
AA5
330
A9F
100
AcDbEntity
  8
Livello 1
  0
POLYLINE
  5
AA6
330
1F
100
AcDbEntity
  8
Livello 1
100
AcDb2dPolyline
 66
     1
 10
0.0
 20
0.0
 30
0.0
  0
VERTEX
  5
AA7
330
AA6
100
AcDbEntity
  8
Livello 1
100
AcDbVertex
100
AcDb2dVertex
 10
8.66937178395068
 20
5.445634363806689
 30
0.0
  0
VERTEX
  5
AA8
330
AA6
100
AcDbEntity
  8
Livello 1
100
AcDbVertex
100
AcDb2dVertex
 10
8.514501284484438
 20
5.783594193688387
 30
0.0
  0
VERTEX
  5
AA9
330
AA6
100
AcDbEntity
  8
Livello 1
100
AcDbVertex
100
AcDb2dVertex
 10
8.557188170731379
 20
5.803351008852089
 30
0.0
  0
VERTEX
  5
AAA
330
AA6
100
AcDbEntity
  8
Livello 1
100
AcDbVertex
100
AcDb2dVertex
 10
8.712408562707807
 20
5.465389833229892
 30
0.0
  0
VERTEX
  5
AAB
330
AA6
100
AcDbEntity
  8
Livello 1
100
AcDbVertex
100
AcDb2dVertex
 10
8.66937178395068
 20
5.445634363806689
 30
0.0
  0
SEQEND
  5
AAC
330
AA6
100
AcDbEntity
  8
Livello 1
  0
SPLINE
  5
AAD
330
1F
100
AcDbEntity
  8
Livello 1
100
AcDbSpline
210
0.0
220
0.0
230
1.0
 70
     9
 71
     3
 72
    17
 73
    13
 74
     0
 42
0.000000001
 43
0.0000000001
 40
0.0
 40
0.0
 40
0.0
 40
0.0
 40
1.0
 40
1.0
 40
1.0
 40
2.0
 40
2.0
 40
2.0
 40
3.0
 40
3.0
 40
3.0
 40
4.0
 40
4.0
 40
4.0
 40
4.0
 10
8.514291348978289
 20
5.783630528679893
 30
0.0
 10
8.498061719465766
 20
5.818907768152683
 30
0.0
 10
8.495946215519339
 20
5.851010405965396
 30
0.0
 10
8.506529118213109
 20
5.888051911133985
 30
0.0
 10
8.506529118213109
 20
5.888051911133985
 30
0.0
 10
8.552036676388581
 20
5.874999574762298
 30
0.0
 10
8.552036676388581
 20
5.874999574762298
 30
0.0
 10
8.54462972109529
 20
5.848893556278596
 30
0.0
 10
8.54604005705957
 20
5.828080334882088
 30
0.0
 10
8.557328127735459
 20
5.803385998103095
 30
0.0
 10
8.557328127735459
 20
5.803385998103095
 30
0.0
 10
8.514291348978289
 20
5.783630528679893
 30
0.0
 10
8.514291348978289
 20
5.783630528679893
 30
0.0
  0
POLYLINE
  5
AAE
330
1F
100
AcDbEntity
  8
Livello 1
100
AcDb2dPolyline
 66
     1
 10
0.0
 20
0.0
 30
0.0
  0
VERTEX
  5
AAF
330
AAE
100
AcDbEntity
  8
Livello 1
100
AcDbVertex
100
AcDb2dVertex
 10
8.190689223679441
 20
5.796719200042986
 30
0.0
  0
VERTEX
  5
AB0
330
AAE
100
AcDbEntity
  8
Livello 1
100
AcDbVertex
100
AcDb2dVertex
 10
8.185395080851719
 20
5.808359854709877
 30
0.0
  0
VERTEX
  5
AB1
330
AAE
100
AcDbEntity
  8
Livello 1
100
AcDbVertex
100
AcDb2dVertex
 10
8.228434551089719
 20
5.828115324133193
 30
0.0
  0
VERTEX
  5
AB2
330
AAE
100
AcDbEntity
  8
Livello 1
100
AcDbVertex
100
AcDb2dVertex
 10
8.233726002436569
 20
5.816474669466174
 30
0.0
  0
VERTEX
  5
AB3
330
AAE
100
AcDbEntity
  8
Livello 1
100
AcDbVertex
100
AcDb2dVertex
 10
8.190689223679441
 20
5.796719200042986
 30
0.0
  0
SEQEND
  5
AB4
330
AAE
100
AcDbEntity
  8
Livello 1
  0
POLYLINE
  5
AB5
330
1F
100
AcDbEntity
  8
Livello 1
100
AcDb2dPolyline
 66
     1
 10
0.0
 20
0.0
 30
0.0
  0
VERTEX
  5
AB6
330
AB5
100
AcDbEntity
  8
Livello 1
100
AcDbVertex
100
AcDb2dVertex
 10
8.218346880871962
 20
5.736393694059685
 30
0.0
  0
VERTEX
  5
AB7
330
AB5
100
AcDbEntity
  8
Livello 1
100
AcDbVertex
100
AcDb2dVertex
 10
8.190829180683522
 20
5.796717854302585
 30
0.0
  0
VERTEX
  5
AB8
330
AB5
100
AcDbEntity
  8
Livello 1
100
AcDbVertex
100
AcDb2dVertex
 10
8.233868650921522
 20
5.816473323725801
 30
0.0
  0
VERTEX
  5
AB9
330
AB5
100
AcDbEntity
  8
Livello 1
100
AcDbVertex
100
AcDb2dVertex
 10
8.261383659629089
 20
5.756149163482888
 30
0.0
  0
VERTEX
  5
ABA
330
AB5
100
AcDbEntity
  8
Livello 1
100
AcDbVertex
100
AcDb2dVertex
 10
8.218346880871962
 20
5.736393694059685
 30
0.0
  0
SEQEND
  5
ABB
330
AB5
100
AcDbEntity
  8
Livello 1
  0
POLYLINE
  5
ABC
330
1F
100
AcDbEntity
  8
Livello 1
100
AcDb2dPolyline
 66
     1
 10
0.0
 20
0.0
 30
0.0
  0
VERTEX
  5
ABD
330
ABC
100
AcDbEntity
  8
Livello 1
100
AcDbVertex
100
AcDb2dVertex
 10
9.280526340072299
 20
2.297656832312895
 30
0.0
  0
VERTEX
  5
ABE
330
ABC
100
AcDbEntity
  8
Livello 1
100
AcDbVertex
100
AcDb2dVertex
 10
9.118954053294913
 20
2.312826018371396
 30
0.0
  0
VERTEX
  5
ABF
330
ABC
100
AcDbEntity
  8
Livello 1
100
AcDbVertex
100
AcDb2dVertex
 10
9.12318506118774
 20
2.360097842242595
 30
0.0
  0
VERTEX
  5
AC0
330
ABC
100
AcDbEntity
  8
Livello 1
100
AcDbVertex
100
AcDb2dVertex
 10
9.285109931956171
 20
2.344928656184094
 30
0.0
  0
VERTEX
  5
AC1
330
ABC
100
AcDbEntity
  8
Livello 1
100
AcDbVertex
100
AcDb2dVertex
 10
9.280526340072299
 20
2.297656832312895
 30
0.0
  0
SEQEND
  5
AC2
330
ABC
100
AcDbEntity
  8
Livello 1
  0
SPLINE
  5
AC3
330
1F
100
AcDbEntity
  8
Livello 1
100
AcDbSpline
210
0.0
220
0.0
230
1.0
 70
     9
 71
     3
 72
    23
 73
    19
 74
     0
 42
0.000000001
 43
0.0000000001
 40
0.0
 40
0.0
 40
0.0
 40
0.0
 40
1.0
 40
1.0
 40
1.0
 40
2.0
 40
2.0
 40
2.0
 40
3.0
 40
3.0
 40
3.0
 40
4.0
 40
4.0
 40
4.0
 40
5.0
 40
5.0
 40
5.0
 40
6.0
 40
6.0
 40
6.0
 40
6.0
 10
9.118881383312029
 20
2.312826018371396
 30
0.0
 10
9.098065470434747
 20
2.314941522317795
 30
0.0
 10
9.079367752984737
 20
2.324466673038301
 30
0.0
 10
9.06631676235348
 20
2.340694956810381
 30
0.0
 10
9.052910496250319
 20
2.356569310851085
 30
0.0
 10
9.046561292930263
 20
2.377031293996793
 30
0.0
 10
9.048676796876648
 20
2.3974919314022
 30
0.0
 10
9.048676796876648
 20
2.3974919314022
 30
0.0
 10
9.095949966488319
 20
2.393258232028586
 30
0.0
 10
9.095949966488319
 20
2.393258232028586
 30
0.0
 10
9.094892214515127
 20
2.385144763012689
 30
0.0
 10
9.097360302452599
 20
2.377031293996793
 30
0.0
 10
9.102651753799491
 20
2.370680744936294
 30
0.0
 10
9.107943205146355
 20
2.364684125607283
 30
0.0
 10
9.115352851920476
 20
2.360803010224685
 30
0.0
 10
9.123112391204841
 20
2.360097842242595
 30
0.0
 10
9.123112391204841
 20
2.360097842242595
 30
0.0
 10
9.118881383312029
 20
2.312826018371396
 30
0.0
 10
9.118881383312029
 20
2.312826018371396
 30
0.0
  0
SPLINE
  5
AC4
330
1F
100
AcDbEntity
  8
Livello 1
100
AcDbSpline
210
0.0
220
0.0
230
1.0
 70
     9
 71
     3
 72
    17
 73
    13
 74
     0
 42
0.000000001
 43
0.0000000001
 40
0.0
 40
0.0
 40
0.0
 40
0.0
 40
1.0
 40
1.0
 40
1.0
 40
2.0
 40
2.0
 40
2.0
 40
3.0
 40
3.0
 40
3.0
 40
4.0
 40
4.0
 40
4.0
 40
4.0
 10
9.196845509031732
 20
3.471630985749982
 30
0.0
 10
9.196845509031732
 20
3.471630985749982
 30
0.0
 10
9.149572339420075
 20
3.476215923374297
 30
0.0
 10
9.149572339420075
 20
3.476215923374297
 30
0.0
 10
9.151687843366488
 20
3.496677906520091
 30
0.0
 10
9.148514587446868
 20
3.514316526256493
 30
0.0
 10
9.140047188699526
 20
3.533014243706475
 30
0.0
 10
9.140047188699526
 20
3.533014243706475
 30
0.0
 10
9.183086658937526
 20
3.552769713129677
 30
0.0
 10
9.183086658937526
 20
3.552769713129677
 30
0.0
 10
9.195079897595547
 20
3.526311110654887
 30
0.0
 10
9.199666180960292
 20
3.500557676162287
 30
0.0
 10
9.196845509031732
 20
3.471630985749982
 30
0.0
  0
POLYLINE
  5
AC5
330
1F
100
AcDbEntity
  8
Livello 1
100
AcDb2dPolyline
 66
     1
 10
0.0
 20
0.0
 30
0.0
  0
VERTEX
  5
AC6
330
AC5
100
AcDbEntity
  8
Livello 1
100
AcDbVertex
100
AcDb2dVertex
 10
9.099163594620662
 20
2.42903204971779
 30
0.0
  0
VERTEX
  5
AC7
330
AC5
100
AcDbEntity
  8
Livello 1
100
AcDbVertex
100
AcDb2dVertex
 10
9.05189042500902
 20
2.433616987342091
 30
0.0
  0
VERTEX
  5
AC8
330
AC5
100
AcDbEntity
  8
Livello 1
100
AcDbVertex
100
AcDb2dVertex
 10
9.149610020151925
 20
3.476075966370189
 30
0.0
  0
VERTEX
  5
AC9
330
AC5
100
AcDbEntity
  8
Livello 1
100
AcDbVertex
100
AcDb2dVertex
 10
9.196880498282766
 20
3.471489683005486
 30
0.0
  0
VERTEX
  5
ACA
330
AC5
100
AcDbEntity
  8
Livello 1
100
AcDbVertex
100
AcDb2dVertex
 10
9.099163594620662
 20
2.42903204971779
 30
0.0
  0
SEQEND
  5
ACB
330
AC5
100
AcDbEntity
  8
Livello 1
  0
POLYLINE
  5
ACC
330
1F
100
AcDbEntity
  8
Livello 1
100
AcDb2dPolyline
 66
     1
 10
0.0
 20
0.0
 30
0.0
  0
VERTEX
  5
ACD
330
ACC
100
AcDbEntity
  8
Livello 1
100
AcDbVertex
100
AcDb2dVertex
 10
9.095810009484239
 20
2.393118275024477
 30
0.0
  0
VERTEX
  5
ACE
330
ACC
100
AcDbEntity
  8
Livello 1
100
AcDbVertex
100
AcDb2dVertex
 10
9.048536839872582
 20
2.397703212648792
 30
0.0
  0
VERTEX
  5
ACF
330
ACC
100
AcDbEntity
  8
Livello 1
100
AcDbVertex
100
AcDb2dVertex
 10
9.052065371264106
 20
2.433334381853086
 30
0.0
  0
VERTEX
  5
AD0
330
ACC
100
AcDbEntity
  8
Livello 1
100
AcDbVertex
100
AcDb2dVertex
 10
9.099335849394933
 20
2.429100682479386
 30
0.0
  0
VERTEX
  5
AD1
330
ACC
100
AcDbEntity
  8
Livello 1
100
AcDbVertex
100
AcDb2dVertex
 10
9.095810009484239
 20
2.393118275024477
 30
0.0
  0
SEQEND
  5
AD2
330
ACC
100
AcDbEntity
  8
Livello 1
  0
POLYLINE
  5
AD3
330
1F
100
AcDbEntity
  8
Livello 1
100
AcDb2dPolyline
 66
     1
 10
0.0
 20
0.0
 30
0.0
  0
VERTEX
  5
AD4
330
AD3
100
AcDbEntity
  8
Livello 1
100
AcDbVertex
100
AcDb2dVertex
 10
9.385970485248563
 20
3.645868035656903
 30
0.0
  0
VERTEX
  5
AD5
330
AD3
100
AcDbEntity
  8
Livello 1
100
AcDbVertex
100
AcDb2dVertex
 10
8.964753732559813
 20
4.563794887335802
 30
0.0
  0
VERTEX
  5
AD6
330
AD3
100
AcDbEntity
  8
Livello 1
100
AcDbVertex
100
AcDb2dVertex
 10
9.007790511316954
 20
4.583550356758976
 30
0.0
  0
VERTEX
  5
AD7
330
AD3
100
AcDbEntity
  8
Livello 1
100
AcDbVertex
100
AcDb2dVertex
 10
9.429007264005704
 20
3.665623505080091
 30
0.0
  0
VERTEX
  5
AD8
330
AD3
100
AcDbEntity
  8
Livello 1
100
AcDbVertex
100
AcDb2dVertex
 10
9.385970485248563
 20
3.645868035656903
 30
0.0
  0
SEQEND
  5
AD9
330
AD3
100
AcDbEntity
  8
Livello 1
  0
POLYLINE
  5
ADA
330
1F
100
AcDbEntity
  8
Livello 1
100
AcDb2dPolyline
 66
     1
 10
0.0
 20
0.0
 30
0.0
  0
VERTEX
  5
ADB
330
ADA
100
AcDbEntity
  8
Livello 1
100
AcDbVertex
100
AcDb2dVertex
 10
8.946973810078915
 20
4.529681713329679
 30
0.0
  0
VERTEX
  5
ADC
330
ADA
100
AcDbEntity
  8
Livello 1
100
AcDbVertex
100
AcDb2dVertex
 10
8.927215649174826
 20
4.572719837827293
 30
0.0
  0
VERTEX
  5
ADD
330
ADA
100
AcDbEntity
  8
Livello 1
100
AcDbVertex
100
AcDb2dVertex
 10
8.976607014213769
 20
4.595297324919471
 30
0.0
  0
VERTEX
  5
ADE
330
ADA
100
AcDbEntity
  8
Livello 1
100
AcDbVertex
100
AcDb2dVertex
 10
8.996362483636985
 20
4.552259200421886
 30
0.0
  0
VERTEX
  5
ADF
330
ADA
100
AcDbEntity
  8
Livello 1
100
AcDbVertex
100
AcDb2dVertex
 10
8.946973810078915
 20
4.529681713329679
 30
0.0
  0
SEQEND
  5
AE0
330
ADA
100
AcDbEntity
  8
Livello 1
  0
POLYLINE
  5
AE1
330
1F
100
AcDbEntity
  8
Livello 1
100
AcDb2dPolyline
 66
     1
 10
0.0
 20
0.0
 30
0.0
  0
VERTEX
  5
AE2
330
AE1
100
AcDbEntity
  8
Livello 1
100
AcDbVertex
100
AcDb2dVertex
 10
8.799407989633749
 20
4.461949252053102
 30
0.0
  0
VERTEX
  5
AE3
330
AE1
100
AcDbEntity
  8
Livello 1
100
AcDbVertex
100
AcDb2dVertex
 10
8.779649828729674
 20
4.504987376550687
 30
0.0
  0
VERTEX
  5
AE4
330
AE1
100
AcDbEntity
  8
Livello 1
100
AcDbVertex
100
AcDb2dVertex
 10
8.92711337290261
 20
4.572721183567679
 30
0.0
  0
VERTEX
  5
AE5
330
AE1
100
AcDbEntity
  8
Livello 1
100
AcDbVertex
100
AcDb2dVertex
 10
8.946868842325841
 20
4.529681713329679
 30
0.0
  0
VERTEX
  5
AE6
330
AE1
100
AcDbEntity
  8
Livello 1
100
AcDbVertex
100
AcDb2dVertex
 10
8.799407989633749
 20
4.461949252053102
 30
0.0
  0
SEQEND
  5
AE7
330
AE1
100
AcDbEntity
  8
Livello 1
  0
POLYLINE
  5
AE8
330
1F
100
AcDbEntity
  8
Livello 1
100
AcDb2dPolyline
 66
     1
 10
0.0
 20
0.0
 30
0.0
  0
VERTEX
  5
AE9
330
AE8
100
AcDbEntity
  8
Livello 1
100
AcDbVertex
100
AcDb2dVertex
 10
8.75104207879788
 20
4.439794327453981
 30
0.0
  0
VERTEX
  5
AEA
330
AE8
100
AcDbEntity
  8
Livello 1
100
AcDbVertex
100
AcDb2dVertex
 10
8.73128391789379
 20
4.48283245195158
 30
0.0
  0
VERTEX
  5
AEB
330
AE8
100
AcDbEntity
  8
Livello 1
100
AcDbVertex
100
AcDb2dVertex
 10
8.779614839478654
 20
4.505057355052684
 30
0.0
  0
VERTEX
  5
AEC
330
AE8
100
AcDbEntity
  8
Livello 1
100
AcDbVertex
100
AcDb2dVertex
 10
8.799370308901899
 20
4.462019230555085
 30
0.0
  0
VERTEX
  5
AED
330
AE8
100
AcDbEntity
  8
Livello 1
100
AcDbVertex
100
AcDb2dVertex
 10
8.75104207879788
 20
4.439794327453981
 30
0.0
  0
SEQEND
  5
AEE
330
AE8
100
AcDbEntity
  8
Livello 1
  0
POLYLINE
  5
AEF
330
1F
100
AcDbEntity
  8
Livello 1
100
AcDb2dPolyline
 66
     1
 10
0.0
 20
0.0
 30
0.0
  0
VERTEX
  5
AF0
330
AEF
100
AcDbEntity
  8
Livello 1
100
AcDbVertex
100
AcDb2dVertex
 10
9.140014890929336
 20
3.533014243706475
 30
0.0
  0
VERTEX
  5
AF1
330
AEF
100
AcDbEntity
  8
Livello 1
100
AcDbVertex
100
AcDb2dVertex
 10
8.7187981382406
 20
4.450941095385388
 30
0.0
  0
VERTEX
  5
AF2
330
AEF
100
AcDbEntity
  8
Livello 1
100
AcDbVertex
100
AcDb2dVertex
 10
8.76183491699777
 20
4.470696564808591
 30
0.0
  0
VERTEX
  5
AF3
330
AEF
100
AcDbEntity
  8
Livello 1
100
AcDbVertex
100
AcDb2dVertex
 10
9.183051669686506
 20
3.552769713129677
 30
0.0
  0
VERTEX
  5
AF4
330
AEF
100
AcDbEntity
  8
Livello 1
100
AcDbVertex
100
AcDb2dVertex
 10
9.140014890929336
 20
3.533014243706475
 30
0.0
  0
SEQEND
  5
AF5
330
AEF
100
AcDbEntity
  8
Livello 1
  0
SPLINE
  5
AF6
330
1F
100
AcDbEntity
  8
Livello 1
100
AcDbSpline
210
0.0
220
0.0
230
1.0
 70
     9
 71
     3
 72
    20
 73
    16
 74
     0
 42
0.000000001
 43
0.0000000001
 40
0.0
 40
0.0
 40
0.0
 40
0.0
 40
1.0
 40
1.0
 40
1.0
 40
2.0
 40
2.0
 40
2.0
 40
3.0
 40
3.0
 40
3.0
 40
4.0
 40
4.0
 40
4.0
 40
5.0
 40
5.0
 40
5.0
 40
5.0
 10
9.287828327612501
 20
2.297339237572785
 30
0.0
 10
9.285357548194184
 20
2.297339237572785
 30
0.0
 10
9.282886768775853
 20
2.297339237572785
 30
0.0
 10
9.28041868083838
 20
2.297691821563873
 30
0.0
 10
9.28041868083838
 20
2.297691821563873
 30
0.0
 10
9.28500496420311
 20
2.344963645435086
 30
0.0
 10
9.28500496420311
 20
2.344963645435086
 30
0.0
 10
9.301584486225877
 20
2.343199379739388
 30
0.0
 10
9.316401088293289
 20
2.355546548128899
 30
0.0
 10
9.318166699729488
 20
2.372127415892094
 30
0.0
 10
9.318166699729488
 20
2.372127415892094
 30
0.0
 10
9.365084593869227
 20
2.367893716518395
 30
0.0
 10
9.365084593869227
 20
2.367893716518395
 30
0.0
 10
9.361558753958547
 20
2.3276776096898
 30
0.0
 10
9.327339266458977
 20
2.297339237572785
 30
0.0
 10
9.287828327612501
 20
2.297339237572785
 30
0.0
  0
POLYLINE
  5
AF7
330
1F
100
AcDbEntity
  8
Livello 1
100
AcDb2dPolyline
 66
     1
 10
0.0
 20
0.0
 30
0.0
  0
VERTEX
  5
AF8
330
AF7
100
AcDbEntity
  8
Livello 1
100
AcDbVertex
100
AcDb2dVertex
 10
9.3652622316052
 20
2.367895062258796
 30
0.0
  0
VERTEX
  5
AF9
330
AF7
100
AcDbEntity
  8
Livello 1
100
AcDbVertex
100
AcDb2dVertex
 10
9.317989061993529
 20
2.372479999883083
 30
0.0
  0
VERTEX
  5
AFA
330
AF7
100
AcDbEntity
  8
Livello 1
100
AcDbVertex
100
AcDb2dVertex
 10
9.321517593385081
 20
2.408111169087391
 30
0.0
  0
VERTEX
  5
AFB
330
AF7
100
AcDbEntity
  8
Livello 1
100
AcDbVertex
100
AcDb2dVertex
 10
9.368788071515879
 20
2.403877469713691
 30
0.0
  0
VERTEX
  5
AFC
330
AF7
100
AcDbEntity
  8
Livello 1
100
AcDbVertex
100
AcDb2dVertex
 10
9.3652622316052
 20
2.367895062258796
 30
0.0
  0
SEQEND
  5
AFD
330
AF7
100
AcDbEntity
  8
Livello 1
  0
POLYLINE
  5
AFE
330
1F
100
AcDbEntity
  8
Livello 1
100
AcDb2dPolyline
 66
     1
 10
0.0
 20
0.0
 30
0.0
  0
VERTEX
  5
AFF
330
AFE
100
AcDbEntity
  8
Livello 1
100
AcDbVertex
100
AcDb2dVertex
 10
9.368613125260765
 20
2.403772501960688
 30
0.0
  0
VERTEX
  5
B00
330
AFE
100
AcDbEntity
  8
Livello 1
100
AcDbVertex
100
AcDb2dVertex
 10
9.321339955649108
 20
2.408357439584989
 30
0.0
  0
VERTEX
  5
B01
330
AFE
100
AcDbEntity
  8
Livello 1
100
AcDbVertex
100
AcDb2dVertex
 10
9.419059550792042
 20
3.450816418613101
 30
0.0
  0
VERTEX
  5
B02
330
AFE
100
AcDbEntity
  8
Livello 1
100
AcDbVertex
100
AcDb2dVertex
 10
9.466330028922868
 20
3.446230135248384
 30
0.0
  0
VERTEX
  5
B03
330
AFE
100
AcDbEntity
  8
Livello 1
100
AcDbVertex
100
AcDb2dVertex
 10
9.368613125260765
 20
2.403772501960688
 30
0.0
  0
SEQEND
  5
B04
330
AFE
100
AcDbEntity
  8
Livello 1
  0
SPLINE
  5
B05
330
1F
100
AcDbEntity
  8
Livello 1
100
AcDbSpline
210
0.0
220
0.0
230
1.0
 70
     9
 71
     3
 72
    17
 73
    13
 74
     0
 42
0.000000001
 43
0.0000000001
 40
0.0
 40
0.0
 40
0.0
 40
0.0
 40
1.0
 40
1.0
 40
1.0
 40
2.0
 40
2.0
 40
2.0
 40
3.0
 40
3.0
 40
3.0
 40
4.0
 40
4.0
 40
4.0
 40
4.0
 10
9.466297731152693
 20
3.446407772984301
 30
0.0
 10
9.466297731152693
 20
3.446407772984301
 30
0.0
 10
9.419024561541021
 20
3.450992710608673
 30
0.0
 10
9.419024561541021
 20
3.450992710608673
 30
0.0
 10
9.425726348852194
 20
3.521195951303582
 30
0.0
 10
9.415496030149498
 20
3.581521457286896
 30
0.0
 10
9.38586282601463
 20
3.645726732912393
 30
0.0
 10
9.38586282601463
 20
3.645726732912393
 30
0.0
 10
9.428902296252644
 20
3.665834786326684
 30
0.0
 10
9.428902296252644
 20
3.665834786326684
 30
0.0
 10
9.461711447787948
 20
3.59422120966748
 30
0.0
 10
9.473704686445969
 20
3.52472313695469
 30
0.0
 10
9.466297731152693
 20
3.446407772984301
 30
0.0
  0
SPLINE
  5
B06
330
1F
100
AcDbEntity
  8
Livello 1
100
AcDbSpline
210
0.0
220
0.0
230
1.0
 70
     9
 71
     3
 72
    17
 73
    13
 74
     0
 42
0.000000001
 43
0.0000000001
 40
0.0
 40
0.0
 40
0.0
 40
0.0
 40
1.0
 40
1.0
 40
1.0
 40
2.0
 40
2.0
 40
2.0
 40
3.0
 40
3.0
 40
3.0
 40
4.0
 40
4.0
 40
4.0
 40
4.0
 10
0.2982028971037209
 20
3.369818993977901
 30
0.0
 10
0.2946743657121686
 20
3.398745684390192
 30
0.0
 10
0.2985554810947661
 20
3.424499118882792
 30
0.0
 10
0.3101961357617284
 20
3.451310305348684
 30
0.0
 10
0.3101961357617284
 20
3.451310305348684
 30
0.0
 10
0.353588189990802
 20
3.432612587898674
 30
0.0
 10
0.353588189990802
 20
3.432612587898674
 30
0.0
 10
0.3454747209749343
 20
3.413562286457576
 30
0.0
 10
0.3426527033059727
 20
3.395923666721174
 30
0.0
 10
0.3451221369838748
 20
3.375110445324693
 30
0.0
 10
0.3451221369838748
 20
3.375110445324693
 30
0.0
 10
0.2982028971037209
 20
3.369818993977901
 30
0.0
 10
0.2982028971037209
 20
3.369818993977901
 30
0.0
  0
POLYLINE
  5
B07
330
1F
100
AcDbEntity
  8
Livello 1
100
AcDb2dPolyline
 66
     1
 10
0.0
 20
0.0
 30
0.0
  0
VERTEX
  5
B08
330
B07
100
AcDbEntity
  8
Livello 1
100
AcDbVertex
100
AcDb2dVertex
 10
0.7215364994792708
 20
4.347895059644471
 30
0.0
  0
VERTEX
  5
B09
330
B07
100
AcDbEntity
  8
Livello 1
100
AcDbVertex
100
AcDb2dVertex
 10
0.6728529939033479
 20
4.369060865032082
 30
0.0
  0
VERTEX
  5
B0A
330
B07
100
AcDbEntity
  8
Livello 1
100
AcDbVertex
100
AcDb2dVertex
 10
0.6915493656129428
 20
4.412452919261099
 30
0.0
  0
VERTEX
  5
B0B
330
B07
100
AcDbEntity
  8
Livello 1
100
AcDbVertex
100
AcDb2dVertex
 10
0.7402328711888658
 20
4.391285768133187
 30
0.0
  0
VERTEX
  5
B0C
330
B07
100
AcDbEntity
  8
Livello 1
100
AcDbVertex
100
AcDb2dVertex
 10
0.7215364994792708
 20
4.347895059644471
 30
0.0
  0
SEQEND
  5
B0D
330
B07
100
AcDbEntity
  8
Livello 1
  0
POLYLINE
  5
B0E
330
1F
100
AcDbEntity
  8
Livello 1
100
AcDb2dPolyline
 66
     1
 10
0.0
 20
0.0
 30
0.0
  0
VERTEX
  5
B0F
330
B0E
100
AcDbEntity
  8
Livello 1
100
AcDbVertex
100
AcDb2dVertex
 10
0.353554546480197
 20
3.432472630894594
 30
0.0
  0
VERTEX
  5
B10
330
B0E
100
AcDbEntity
  8
Livello 1
100
AcDbVertex
100
AcDb2dVertex
 10
0.3101624922511235
 20
3.451169002604189
 30
0.0
  0
VERTEX
  5
B11
330
B0E
100
AcDbEntity
  8
Livello 1
100
AcDbVertex
100
AcDb2dVertex
 10
0.7098595098208876
 20
4.378622350743981
 30
0.0
  0
VERTEX
  5
B12
330
B0E
100
AcDbEntity
  8
Livello 1
100
AcDbVertex
100
AcDb2dVertex
 10
0.7536041480410063
 20
4.359924633293985
 30
0.0
  0
VERTEX
  5
B13
330
B0E
100
AcDbEntity
  8
Livello 1
100
AcDbVertex
100
AcDb2dVertex
 10
0.353554546480197
 20
3.432472630894594
 30
0.0
  0
SEQEND
  5
B14
330
B0E
100
AcDbEntity
  8
Livello 1
  0
POLYLINE
  5
B15
330
1F
100
AcDbEntity
  8
Livello 1
100
AcDb2dPolyline
 66
     1
 10
0.0
 20
0.0
 30
0.0
  0
VERTEX
  5
B16
330
B15
100
AcDbEntity
  8
Livello 1
100
AcDbVertex
100
AcDb2dVertex
 10
0.4240740361747442
 20
2.293847041172682
 30
0.0
  0
VERTEX
  5
B17
330
B15
100
AcDbEntity
  8
Livello 1
100
AcDbVertex
100
AcDb2dVertex
 10
0.4198403368010731
 20
2.329829448627691
 30
0.0
  0
VERTEX
  5
B18
330
B15
100
AcDbEntity
  8
Livello 1
100
AcDbVertex
100
AcDb2dVertex
 10
0.4667595766812412
 20
2.335120899974484
 30
0.0
  0
VERTEX
  5
B19
330
B15
100
AcDbEntity
  8
Livello 1
100
AcDbVertex
100
AcDb2dVertex
 10
0.4709932760549123
 20
2.29949107651069
 30
0.0
  0
VERTEX
  5
B1A
330
B15
100
AcDbEntity
  8
Livello 1
100
AcDbVertex
100
AcDb2dVertex
 10
0.4240740361747442
 20
2.293847041172682
 30
0.0
  0
SEQEND
  5
B1B
330
B15
100
AcDbEntity
  8
Livello 1
  0
SPLINE
  5
B1C
330
1F
100
AcDbEntity
  8
Livello 1
100
AcDbSpline
210
0.0
220
0.0
230
1.0
 70
     9
 71
     3
 72
    20
 73
    16
 74
     0
 42
0.000000001
 43
0.0000000001
 40
0.0
 40
0.0
 40
0.0
 40
0.0
 40
1.0
 40
1.0
 40
1.0
 40
2.0
 40
2.0
 40
2.0
 40
3.0
 40
3.0
 40
3.0
 40
4.0
 40
4.0
 40
4.0
 40
5.0
 40
5.0
 40
5.0
 40
5.0
 10
0.4028369065447777
 20
2.213060897783989
 30
0.0
 10
0.4028369065447777
 20
2.213060897783989
 30
0.0
 10
0.3971915254664111
 20
2.259980137664186
 30
0.0
 10
0.3971915254664111
 20
2.259980137664186
 30
0.0
 10
0.4141249772206664
 20
2.2620969873511
 30
0.0
 10
0.4261195616191174
 20
2.277266173409486
 30
0.0
 10
0.4240027119322605
 20
2.293845695432281
 30
0.0
 10
0.4240027119322605
 20
2.293845695432281
 30
0.0
 10
0.4709219518124428
 20
2.29949107651069
 30
0.0
 10
0.4709219518124428
 20
2.29949107651069
 30
0.0
 10
0.4733913854903449
 20
2.278676509373809
 30
0.0
 10
0.4677473501524077
 20
2.258568455959476
 30
0.0
 10
0.45469501378075
 20
2.241987588196309
 30
0.0
 10
0.4419939156597366
 20
2.225760650164588
 30
0.0
 10
0.4236501279412153
 20
2.215530331461891
 30
0.0
 10
0.4028369065447777
 20
2.213060897783989
 30
0.0
  0
POLYLINE
  5
B1D
330
1F
100
AcDbEntity
  8
Livello 1
100
AcDb2dPolyline
 66
     1
 10
0.0
 20
0.0
 30
0.0
  0
VERTEX
  5
B1E
330
B1D
100
AcDbEntity
  8
Livello 1
100
AcDbVertex
100
AcDb2dVertex
 10
0.2415822145074458
 20
2.194186888338478
 30
0.0
  0
VERTEX
  5
B1F
330
B1D
100
AcDbEntity
  8
Livello 1
100
AcDbVertex
100
AcDb2dVertex
 10
0.2359368334290792
 20
2.241106128218689
 30
0.0
  0
VERTEX
  5
B20
330
B1D
100
AcDbEntity
  8
Livello 1
100
AcDbVertex
100
AcDb2dVertex
 10
0.3975091202064504
 20
2.2601550839193
 30
0.0
  0
VERTEX
  5
B21
330
B1D
100
AcDbEntity
  8
Livello 1
100
AcDbVertex
100
AcDb2dVertex
 10
0.4028005715533283
 20
2.212883260048087
 30
0.0
  0
VERTEX
  5
B22
330
B1D
100
AcDbEntity
  8
Livello 1
100
AcDbVertex
100
AcDb2dVertex
 10
0.2415822145074458
 20
2.194186888338478
 30
0.0
  0
SEQEND
  5
B23
330
B1D
100
AcDbEntity
  8
Livello 1
  0
POLYLINE
  5
B24
330
1F
100
AcDbEntity
  8
Livello 1
100
AcDb2dPolyline
 66
     1
 10
0.0
 20
0.0
 30
0.0
  0
VERTEX
  5
B25
330
B24
100
AcDbEntity
  8
Livello 1
100
AcDbVertex
100
AcDb2dVertex
 10
0.1050581942406126
 20
3.539611063264587
 30
0.0
  0
VERTEX
  5
B26
330
B24
100
AcDbEntity
  8
Livello 1
100
AcDbVertex
100
AcDb2dVertex
 10
0.061666140011539
 20
3.558307434974182
 30
0.0
  0
VERTEX
  5
B27
330
B24
100
AcDbEntity
  8
Livello 1
100
AcDbVertex
100
AcDb2dVertex
 10
0.4613631575812889
 20
4.485760783113988
 30
0.0
  0
VERTEX
  5
B28
330
B24
100
AcDbEntity
  8
Livello 1
100
AcDbVertex
100
AcDb2dVertex
 10
0.5051077958014361
 20
4.467063065663978
 30
0.0
  0
VERTEX
  5
B29
330
B24
100
AcDbEntity
  8
Livello 1
100
AcDbVertex
100
AcDb2dVertex
 10
0.1050581942406126
 20
3.539611063264587
 30
0.0
  0
SEQEND
  5
B2A
330
B24
100
AcDbEntity
  8
Livello 1
  0
POLYLINE
  5
B2B
330
1F
100
AcDbEntity
  8
Livello 1
100
AcDb2dPolyline
 66
     1
 10
0.0
 20
0.0
 30
0.0
  0
VERTEX
  5
B2C
330
B2B
100
AcDbEntity
  8
Livello 1
100
AcDbVertex
100
AcDb2dVertex
 10
0.4198766717925225
 20
2.32975947012558
 30
0.0
  0
VERTEX
  5
B2D
330
B2B
100
AcDbEntity
  8
Livello 1
100
AcDbVertex
100
AcDb2dVertex
 10
0.2981679078526866
 20
3.369747669735374
 30
0.0
  0
VERTEX
  5
B2E
330
B2B
100
AcDbEntity
  8
Livello 1
100
AcDbVertex
100
AcDb2dVertex
 10
0.3450871477328405
 20
3.375391705073383
 30
0.0
  0
VERTEX
  5
B2F
330
B2B
100
AcDbEntity
  8
Livello 1
100
AcDbVertex
100
AcDb2dVertex
 10
0.4667959116726906
 20
2.335050921472486
 30
0.0
  0
VERTEX
  5
B30
330
B2B
100
AcDbEntity
  8
Livello 1
100
AcDbVertex
100
AcDb2dVertex
 10
0.4198766717925225
 20
2.32975947012558
 30
0.0
  0
SEQEND
  5
B31
330
B2B
100
AcDbEntity
  8
Livello 1
  0
POLYLINE
  5
B32
330
1F
100
AcDbEntity
  8
Livello 1
100
AcDb2dPolyline
 66
     1
 10
0.0
 20
0.0
 30
0.0
  0
VERTEX
  5
B33
330
B32
100
AcDbEntity
  8
Livello 1
100
AcDbVertex
100
AcDb2dVertex
 10
0.6727116911588383
 20
4.368955897278979
 30
0.0
  0
VERTEX
  5
B34
330
B32
100
AcDbEntity
  8
Livello 1
100
AcDbVertex
100
AcDb2dVertex
 10
0.5234865727709775
 20
4.433161172904476
 30
0.0
  0
VERTEX
  5
B35
330
B32
100
AcDbEntity
  8
Livello 1
100
AcDbVertex
100
AcDb2dVertex
 10
0.542535528471646
 20
4.476551881393092
 30
0.0
  0
VERTEX
  5
B36
330
B32
100
AcDbEntity
  8
Livello 1
100
AcDbVertex
100
AcDb2dVertex
 10
0.6914080628684332
 20
4.412346605767595
 30
0.0
  0
VERTEX
  5
B37
330
B32
100
AcDbEntity
  8
Livello 1
100
AcDbVertex
100
AcDb2dVertex
 10
0.6727116911588383
 20
4.368955897278979
 30
0.0
  0
SEQEND
  5
B38
330
B32
100
AcDbEntity
  8
Livello 1
  0
POLYLINE
  5
B39
330
1F
100
AcDbEntity
  8
Livello 1
100
AcDb2dPolyline
 66
     1
 10
0.0
 20
0.0
 30
0.0
  0
VERTEX
  5
B3A
330
B39
100
AcDbEntity
  8
Livello 1
100
AcDbVertex
100
AcDb2dVertex
 10
0.5236278755155013
 20
4.433302475648986
 30
0.0
  0
VERTEX
  5
B3B
330
B39
100
AcDbEntity
  8
Livello 1
100
AcDbVertex
100
AcDb2dVertex
 10
0.4738852722259282
 20
4.454820865027585
 30
0.0
  0
VERTEX
  5
B3C
330
B39
100
AcDbEntity
  8
Livello 1
100
AcDbVertex
100
AcDb2dVertex
 10
0.4925829896759524
 20
4.498212919256602
 30
0.0
  0
VERTEX
  5
B3D
330
B39
100
AcDbEntity
  8
Livello 1
100
AcDbVertex
100
AcDb2dVertex
 10
0.5423242472250962
 20
4.476693184137602
 30
0.0
  0
VERTEX
  5
B3E
330
B39
100
AcDbEntity
  8
Livello 1
100
AcDbVertex
100
AcDb2dVertex
 10
0.5236278755155013
 20
4.433302475648986
 30
0.0
  0
SEQEND
  5
B3F
330
B39
100
AcDbEntity
  8
Livello 1
  0
SPLINE
  5
B40
330
1F
100
AcDbEntity
  8
Livello 1
100
AcDbSpline
210
0.0
220
0.0
230
1.0
 70
     9
 71
     3
 72
    17
 73
    13
 74
     0
 42
0.000000001
 43
0.0000000001
 40
0.0
 40
0.0
 40
0.0
 40
0.0
 40
1.0
 40
1.0
 40
1.0
 40
2.0
 40
2.0
 40
2.0
 40
3.0
 40
3.0
 40
3.0
 40
4.0
 40
4.0
 40
4.0
 40
4.0
 10
0.029387210203268
 20
3.338351545645181
 30
0.0
 10
0.0202146434737927
 20
3.416314325624497
 30
0.0
 10
0.0304449621764746
 20
3.486164982328389
 30
0.0
 10
0.0614898480160093
 20
3.558483726969683
 30
0.0
 10
0.0614898480160093
 20
3.558483726969683
 30
0.0
 10
0.1052331404957272
 20
3.539787355260088
 30
0.0
 10
0.1052331404957272
 20
3.539787355260088
 30
0.0
 10
0.0770116180655833
 20
3.474522981920969
 30
0.0
 10
0.0681916353271674
 20
3.414197475937683
 30
0.0
 10
0.0763064500834361
 20
3.34399558098319
 30
0.0
 10
0.0763064500834361
 20
3.34399558098319
 30
0.0
 10
0.029387210203268
 20
3.338351545645181
 30
0.0
 10
0.029387210203268
 20
3.338351545645181
 30
0.0
  0
POLYLINE
  5
B41
330
1F
100
AcDbEntity
  8
Livello 1
100
AcDb2dPolyline
 66
     1
 10
0.0
 20
0.0
 30
0.0
  0
VERTEX
  5
B42
330
B41
100
AcDbEntity
  8
Livello 1
100
AcDbVertex
100
AcDb2dVertex
 10
0.1510596391516685
 20
2.298257032541897
 30
0.0
  0
VERTEX
  5
B43
330
B41
100
AcDbEntity
  8
Livello 1
100
AcDbVertex
100
AcDb2dVertex
 10
0.0293508752118186
 20
3.338245232151692
 30
0.0
  0
VERTEX
  5
B44
330
B41
100
AcDbEntity
  8
Livello 1
100
AcDbVertex
100
AcDb2dVertex
 10
0.0762701150919867
 20
3.343889267489686
 30
0.0
  0
VERTEX
  5
B45
330
B41
100
AcDbEntity
  8
Livello 1
100
AcDbVertex
100
AcDb2dVertex
 10
0.1979788790318366
 20
2.303548483888803
 30
0.0
  0
VERTEX
  5
B46
330
B41
100
AcDbEntity
  8
Livello 1
100
AcDbVertex
100
AcDb2dVertex
 10
0.1510596391516685
 20
2.298257032541897
 30
0.0
  0
SEQEND
  5
B47
330
B41
100
AcDbEntity
  8
Livello 1
  0
POLYLINE
  5
B48
330
1F
100
AcDbEntity
  8
Livello 1
100
AcDb2dPolyline
 66
     1
 10
0.0
 20
0.0
 30
0.0
  0
VERTEX
  5
B49
330
B48
100
AcDbEntity
  8
Livello 1
100
AcDbVertex
100
AcDb2dVertex
 10
0.1552933385253397
 20
2.262414582091096
 30
0.0
  0
VERTEX
  5
B4A
330
B48
100
AcDbEntity
  8
Livello 1
100
AcDbVertex
100
AcDb2dVertex
 10
0.1510596391516685
 20
2.298396989545977
 30
0.0
  0
VERTEX
  5
B4B
330
B48
100
AcDbEntity
  8
Livello 1
100
AcDbVertex
100
AcDb2dVertex
 10
0.1979788790318366
 20
2.303688440892898
 30
0.0
  0
VERTEX
  5
B4C
330
B48
100
AcDbEntity
  8
Livello 1
100
AcDbVertex
100
AcDb2dVertex
 10
0.202212578405522
 20
2.268058617428977
 30
0.0
  0
VERTEX
  5
B4D
330
B48
100
AcDbEntity
  8
Livello 1
100
AcDbVertex
100
AcDb2dVertex
 10
0.1552933385253397
 20
2.262414582091096
 30
0.0
  0
SEQEND
  5
B4E
330
B48
100
AcDbEntity
  8
Livello 1
  0
SPLINE
  5
B4F
330
1F
100
AcDbEntity
  8
Livello 1
100
AcDbSpline
210
0.0
220
0.0
230
1.0
 70
     9
 71
     3
 72
    20
 73
    16
 74
     0
 42
0.000000001
 43
0.0000000001
 40
0.0
 40
0.0
 40
0.0
 40
0.0
 40
1.0
 40
1.0
 40
1.0
 40
2.0
 40
2.0
 40
2.0
 40
3.0
 40
3.0
 40
3.0
 40
4.0
 40
4.0
 40
4.0
 40
5.0
 40
5.0
 40
5.0
 40
5.0
 10
0.2324809720204399
 20
2.193693001602881
 30
0.0
 10
0.1936752011561253
 20
2.193693001602881
 30
0.0
 10
0.1598082976475865
 20
2.222972276006302
 30
0.0
 10
0.1552220142828702
 20
2.262484560593094
 30
0.0
 10
0.1552220142828702
 20
2.262484560593094
 30
0.0
 10
0.2021412541630525
 20
2.267776011939986
 30
0.0
 10
0.2021412541630525
 20
2.267776011939986
 30
0.0
 10
0.2042581038498668
 20
2.25119514417679
 30
0.0
 10
0.2194272899083671
 20
2.239553143769484
 30
0.0
 10
0.2360081576715487
 20
2.241317409465182
 30
0.0
 10
0.2360081576715487
 20
2.241317409465182
 30
0.0
 10
0.2416521930095001
 20
2.194045585593968
 30
0.0
 10
0.2416521930095001
 20
2.194045585593968
 30
0.0
 10
0.2384775913494508
 20
2.194045585593968
 30
0.0
 10
0.2353029896894156
 20
2.193693001602881
 30
0.0
 10
0.2324809720204399
 20
2.193693001602881
 30
0.0
  0
POLYLINE
  5
B50
330
1F
100
AcDbEntity
  8
Livello 1
100
AcDb2dPolyline
 66
     1
 10
0.0
 20
0.0
 30
0.0
  0
VERTEX
  5
B51
330
B50
100
AcDbEntity
  8
Livello 1
100
AcDbVertex
100
AcDb2dVertex
 10
1.151079348170867
 20
5.760241560111992
 30
0.0
  0
VERTEX
  5
B52
330
B50
100
AcDbEntity
  8
Livello 1
100
AcDbVertex
100
AcDb2dVertex
 10
1.107687293941808
 20
5.778937931821602
 30
0.0
  0
VERTEX
  5
B53
330
B50
100
AcDbEntity
  8
Livello 1
100
AcDbVertex
100
AcDb2dVertex
 10
1.174714587236266
 20
5.934866183261092
 30
0.0
  0
VERTEX
  5
B54
330
B50
100
AcDbEntity
  8
Livello 1
100
AcDbVertex
100
AcDb2dVertex
 10
1.218459225456399
 20
5.916168465810997
 30
0.0
  0
VERTEX
  5
B55
330
B50
100
AcDbEntity
  8
Livello 1
100
AcDbVertex
100
AcDb2dVertex
 10
1.151079348170867
 20
5.760241560111992
 30
0.0
  0
SEQEND
  5
B56
330
B50
100
AcDbEntity
  8
Livello 1
  0
POLYLINE
  5
B57
330
1F
100
AcDbEntity
  8
Livello 1
100
AcDb2dPolyline
 66
     1
 10
0.0
 20
0.0
 30
0.0
  0
VERTEX
  5
B58
330
B57
100
AcDbEntity
  8
Livello 1
100
AcDbVertex
100
AcDb2dVertex
 10
0.6789559267258483
 20
4.392028616847184
 30
0.0
  0
VERTEX
  5
B59
330
B57
100
AcDbEntity
  8
Livello 1
100
AcDbVertex
100
AcDb2dVertex
 10
0.6355638724968032
 20
4.410724988556793
 30
0.0
  0
VERTEX
  5
B5A
330
B57
100
AcDbEntity
  8
Livello 1
100
AcDbVertex
100
AcDb2dVertex
 10
1.207063495546591
 20
5.736111088570595
 30
0.0
  0
VERTEX
  5
B5B
330
B57
100
AcDbEntity
  8
Livello 1
100
AcDbVertex
100
AcDb2dVertex
 10
1.250455549775665
 20
5.717414716860986
 30
0.0
  0
VERTEX
  5
B5C
330
B57
100
AcDbEntity
  8
Livello 1
100
AcDbVertex
100
AcDb2dVertex
 10
0.6789559267258483
 20
4.392028616847184
 30
0.0
  0
SEQEND
  5
B5D
330
B57
100
AcDbEntity
  8
Livello 1
  0
POLYLINE
  5
B5E
330
1F
100
AcDbEntity
  8
Livello 1
100
AcDb2dPolyline
 66
     1
 10
0.0
 20
0.0
 30
0.0
  0
VERTEX
  5
B5F
330
B5E
100
AcDbEntity
  8
Livello 1
100
AcDbVertex
100
AcDb2dVertex
 10
0.5795433901296008
 20
4.434925438600188
 30
0.0
  0
VERTEX
  5
B60
330
B5E
100
AcDbEntity
  8
Livello 1
100
AcDbVertex
100
AcDb2dVertex
 10
0.5361513359005699
 20
4.453621810309897
 30
0.0
  0
VERTEX
  5
B61
330
B5E
100
AcDbEntity
  8
Livello 1
100
AcDbVertex
100
AcDb2dVertex
 10
1.107650958950358
 20
5.779007910323684
 30
0.0
  0
VERTEX
  5
B62
330
B5E
100
AcDbEntity
  8
Livello 1
100
AcDbVertex
100
AcDb2dVertex
 10
1.151043013179418
 20
5.760311538614089
 30
0.0
  0
VERTEX
  5
B63
330
B5E
100
AcDbEntity
  8
Livello 1
100
AcDbVertex
100
AcDb2dVertex
 10
0.5795433901296008
 20
4.434925438600188
 30
0.0
  0
SEQEND
  5
B64
330
B5E
100
AcDbEntity
  8
Livello 1
  0
POLYLINE
  5
B65
330
1F
100
AcDbEntity
  8
Livello 1
100
AcDb2dPolyline
 66
     1
 10
0.0
 20
0.0
 30
0.0
  0
VERTEX
  5
B66
330
B65
100
AcDbEntity
  8
Livello 1
100
AcDbVertex
100
AcDb2dVertex
 10
0.8473726492993023
 20
5.300642944792485
 30
0.0
  0
VERTEX
  5
B67
330
B65
100
AcDbEntity
  8
Livello 1
100
AcDbVertex
100
AcDb2dVertex
 10
0.7489465404338063
 20
5.342975901307895
 30
0.0
  0
VERTEX
  5
B68
330
B65
100
AcDbEntity
  8
Livello 1
100
AcDbVertex
100
AcDb2dVertex
 10
0.7676442578838305
 20
5.386366609796581
 30
0.0
  0
VERTEX
  5
B69
330
B65
100
AcDbEntity
  8
Livello 1
100
AcDbVertex
100
AcDb2dVertex
 10
0.8660690210088972
 20
5.344033653281087
 30
0.0
  0
VERTEX
  5
B6A
330
B65
100
AcDbEntity
  8
Livello 1
100
AcDbVertex
100
AcDb2dVertex
 10
0.8473726492993023
 20
5.300642944792485
 30
0.0
  0
SEQEND
  5
B6B
330
B65
100
AcDbEntity
  8
Livello 1
  0
POLYLINE
  5
B6C
330
1F
100
AcDbEntity
  8
Livello 1
100
AcDb2dPolyline
 66
     1
 10
0.0
 20
0.0
 30
0.0
  0
VERTEX
  5
B6D
330
B6C
100
AcDbEntity
  8
Livello 1
100
AcDbVertex
100
AcDb2dVertex
 10
0.8794402978610378
 20
5.312566204948495
 30
0.0
  0
VERTEX
  5
B6E
330
B6C
100
AcDbEntity
  8
Livello 1
100
AcDbVertex
100
AcDb2dVertex
 10
0.8360482436319784
 20
5.33126257665809
 30
0.0
  0
VERTEX
  5
B6F
330
B6C
100
AcDbEntity
  8
Livello 1
100
AcDbVertex
100
AcDb2dVertex
 10
0.9831565123329966
 20
5.672752283671783
 30
0.0
  0
VERTEX
  5
B70
330
B6C
100
AcDbEntity
  8
Livello 1
100
AcDbVertex
100
AcDb2dVertex
 10
1.026548566562055
 20
5.654054566221802
 30
0.0
  0
VERTEX
  5
B71
330
B6C
100
AcDbEntity
  8
Livello 1
100
AcDbVertex
100
AcDb2dVertex
 10
0.8794402978610378
 20
5.312566204948495
 30
0.0
  0
SEQEND
  5
B72
330
B6C
100
AcDbEntity
  8
Livello 1
  0
POLYLINE
  5
B73
330
1F
100
AcDbEntity
  8
Livello 1
100
AcDb2dPolyline
 66
     1
 10
0.0
 20
0.0
 30
0.0
  0
VERTEX
  5
B74
330
B73
100
AcDbEntity
  8
Livello 1
100
AcDbVertex
100
AcDb2dVertex
 10
0.7800277612647904
 20
5.35542938319088
 30
0.0
  0
VERTEX
  5
B75
330
B73
100
AcDbEntity
  8
Livello 1
100
AcDbVertex
100
AcDb2dVertex
 10
0.736635707035731
 20
5.374125754900475
 30
0.0
  0
VERTEX
  5
B76
330
B73
100
AcDbEntity
  8
Livello 1
100
AcDbVertex
100
AcDb2dVertex
 10
0.8837439757367491
 20
5.715615461914183
 30
0.0
  0
VERTEX
  5
B77
330
B73
100
AcDbEntity
  8
Livello 1
100
AcDbVertex
100
AcDb2dVertex
 10
0.9271360299658084
 20
5.696917744464187
 30
0.0
  0
VERTEX
  5
B78
330
B73
100
AcDbEntity
  8
Livello 1
100
AcDbVertex
100
AcDb2dVertex
 10
0.7800277612647904
 20
5.35542938319088
 30
0.0
  0
SEQEND
  5
B79
330
B73
100
AcDbEntity
  8
Livello 1
  0
SPLINE
  5
B7A
330
1F
100
AcDbEntity
  8
Livello 1
100
AcDbSpline
210
0.0
220
0.0
230
1.0
 70
     9
 71
     3
 72
    17
 73
    13
 74
     0
 42
0.000000001
 43
0.0000000001
 40
0.0
 40
0.0
 40
0.0
 40
0.0
 40
1.0
 40
1.0
 40
1.0
 40
2.0
 40
2.0
 40
2.0
 40
3.0
 40
3.0
 40
3.0
 40
4.0
 40
4.0
 40
4.0
 40
4.0
 10
0.927277332710318
 20
5.696847765962189
 30
0.0
 10
0.927277332710318
 20
5.696847765962189
 30
0.0
 10
0.8838852784812587
 20
5.715544137671798
 30
0.0
 10
0.8838852784812587
 20
5.715544137671798
 30
0.0
 10
0.8951733491571474
 20
5.741650156155472
 30
0.0
 10
0.8958798628797097
 20
5.762463377551881
 30
0.0
 10
0.8867072961502344
 20
5.789627148008889
 30
0.0
 10
0.8867072961502344
 20
5.789627148008889
 30
0.0
 10
0.9315096863435741
 20
5.804797679807805
 30
0.0
 10
0.9315096863435741
 20
5.804797679807805
 30
0.0
 10
0.9445633684556611
 20
5.767049660916683
 30
0.0
 10
0.9431516867509515
 20
5.733535341399175
 30
0.0
 10
0.927277332710318
 20
5.696847765962189
 30
0.0
  0
SPLINE
  5
B7B
330
1F
100
AcDbEntity
  8
Livello 1
100
AcDbSpline
210
0.0
220
0.0
230
1.0
 70
     9
 71
     3
 72
    17
 73
    13
 74
     0
 42
0.000000001
 43
0.0000000001
 40
0.0
 40
0.0
 40
0.0
 40
0.0
 40
1.0
 40
1.0
 40
1.0
 40
2.0
 40
2.0
 40
2.0
 40
3.0
 40
3.0
 40
3.0
 40
4.0
 40
4.0
 40
4.0
 40
4.0
 10
1.026654880055545
 20
5.653984587719691
 30
0.0
 10
1.026654880055545
 20
5.653984587719691
 30
0.0
 10
0.9832628258264861
 20
5.672680959429285
 30
0.0
 10
0.9832628258264861
 20
5.672680959429285
 30
0.0
 10
1.006192896909738
 20
5.725950748369982
 30
0.0
 10
1.007957162605521
 20
5.769695386590086
 30
0.0
 10
0.989259445155497
 20
5.824375511495105
 30
0.0
 10
0.989259445155497
 20
5.824375511495105
 30
0.0
 10
1.034063181089251
 20
5.839897281544594
 30
0.0
 10
1.034063181089251
 20
5.839897281544594
 30
0.0
 10
1.056640668181472
 20
5.773575156232283
 30
0.0
 10
1.054171234503556
 20
5.718189863345187
 30
0.0
 10
1.026654880055545
 20
5.653984587719691
 30
0.0
  0
POLYLINE
  5
B7C
330
1F
100
AcDbEntity
  8
Livello 1
100
AcDb2dPolyline
 66
     1
 10
0.0
 20
0.0
 30
0.0
  0
VERTEX
  5
B7D
330
B7C
100
AcDbEntity
  8
Livello 1
100
AcDbVertex
100
AcDb2dVertex
 10
6.97865080235158
 20
3.386152245503083
 30
0.0
  0
VERTEX
  5
B7E
330
B7C
100
AcDbEntity
  8
Livello 1
100
AcDbVertex
100
AcDb2dVertex
 10
6.931378978480339
 20
3.386152245503083
 30
0.0
  0
VERTEX
  5
B7F
330
B7C
100
AcDbEntity
  8
Livello 1
100
AcDbVertex
100
AcDb2dVertex
 10
6.931378978480339
 20
4.865702331260592
 30
0.0
  0
VERTEX
  5
B80
330
B7C
100
AcDbEntity
  8
Livello 1
100
AcDbVertex
100
AcDb2dVertex
 10
6.97865080235158
 20
4.865702331260592
 30
0.0
  0
VERTEX
  5
B81
330
B7C
100
AcDbEntity
  8
Livello 1
100
AcDbVertex
100
AcDb2dVertex
 10
6.97865080235158
 20
3.386152245503083
 30
0.0
  0
SEQEND
  5
B82
330
B7C
100
AcDbEntity
  8
Livello 1
  0
POLYLINE
  5
B83
330
1F
100
AcDbEntity
  8
Livello 1
100
AcDb2dPolyline
 66
     1
 10
0.0
 20
0.0
 30
0.0
  0
VERTEX
  5
B84
330
B83
100
AcDbEntity
  8
Livello 1
100
AcDbVertex
100
AcDb2dVertex
 10
7.490884017131719
 20
4.841714508204091
 30
0.0
  0
VERTEX
  5
B85
330
B83
100
AcDbEntity
  8
Livello 1
100
AcDbVertex
100
AcDb2dVertex
 10
7.460545645014718
 20
4.841714508204091
 30
0.0
  0
VERTEX
  5
B86
330
B83
100
AcDbEntity
  8
Livello 1
100
AcDbVertex
100
AcDb2dVertex
 10
7.460545645014718
 20
4.88898633207529
 30
0.0
  0
VERTEX
  5
B87
330
B83
100
AcDbEntity
  8
Livello 1
100
AcDbVertex
100
AcDb2dVertex
 10
7.490884017131719
 20
4.88898633207529
 30
0.0
  0
VERTEX
  5
B88
330
B83
100
AcDbEntity
  8
Livello 1
100
AcDbVertex
100
AcDb2dVertex
 10
7.490884017131719
 20
4.841714508204091
 30
0.0
  0
SEQEND
  5
B89
330
B83
100
AcDbEntity
  8
Livello 1
  0
POLYLINE
  5
B8A
330
1F
100
AcDbEntity
  8
Livello 1
100
AcDb2dPolyline
 66
     1
 10
0.0
 20
0.0
 30
0.0
  0
VERTEX
  5
B8B
330
B8A
100
AcDbEntity
  8
Livello 1
100
AcDbVertex
100
AcDb2dVertex
 10
7.51451925619709
 20
3.386152245503083
 30
0.0
  0
VERTEX
  5
B8C
330
B8A
100
AcDbEntity
  8
Livello 1
100
AcDbVertex
100
AcDb2dVertex
 10
7.467247432325876
 20
3.386152245503083
 30
0.0
  0
VERTEX
  5
B8D
330
B8A
100
AcDbEntity
  8
Livello 1
100
AcDbVertex
100
AcDb2dVertex
 10
7.467247432325876
 20
4.865702331260592
 30
0.0
  0
VERTEX
  5
B8E
330
B8A
100
AcDbEntity
  8
Livello 1
100
AcDbVertex
100
AcDb2dVertex
 10
7.51451925619709
 20
4.865702331260592
 30
0.0
  0
VERTEX
  5
B8F
330
B8A
100
AcDbEntity
  8
Livello 1
100
AcDbVertex
100
AcDb2dVertex
 10
7.51451925619709
 20
3.386152245503083
 30
0.0
  0
SEQEND
  5
B90
330
B8A
100
AcDbEntity
  8
Livello 1
  0
POLYLINE
  5
B91
330
1F
100
AcDbEntity
  8
Livello 1
100
AcDb2dPolyline
 66
     1
 10
0.0
 20
0.0
 30
0.0
  0
VERTEX
  5
B92
330
B91
100
AcDbEntity
  8
Livello 1
100
AcDbVertex
100
AcDb2dVertex
 10
7.064728397087151
 20
4.841714508204091
 30
0.0
  0
VERTEX
  5
B93
330
B91
100
AcDbEntity
  8
Livello 1
100
AcDbVertex
100
AcDb2dVertex
 10
6.954661633554692
 20
4.841714508204091
 30
0.0
  0
VERTEX
  5
B94
330
B91
100
AcDbEntity
  8
Livello 1
100
AcDbVertex
100
AcDb2dVertex
 10
6.954661633554692
 20
4.88898633207529
 30
0.0
  0
VERTEX
  5
B95
330
B91
100
AcDbEntity
  8
Livello 1
100
AcDbVertex
100
AcDb2dVertex
 10
7.064728397087151
 20
4.88898633207529
 30
0.0
  0
VERTEX
  5
B96
330
B91
100
AcDbEntity
  8
Livello 1
100
AcDbVertex
100
AcDb2dVertex
 10
7.064728397087151
 20
4.841714508204091
 30
0.0
  0
SEQEND
  5
B97
330
B91
100
AcDbEntity
  8
Livello 1
  0
POLYLINE
  5
B98
330
1F
100
AcDbEntity
  8
Livello 1
100
AcDb2dPolyline
 66
     1
 10
0.0
 20
0.0
 30
0.0
  0
VERTEX
  5
B99
330
B98
100
AcDbEntity
  8
Livello 1
100
AcDbVertex
100
AcDb2dVertex
 10
7.460191715283229
 20
4.841714508204091
 30
0.0
  0
VERTEX
  5
B9A
330
B98
100
AcDbEntity
  8
Livello 1
100
AcDbVertex
100
AcDb2dVertex
 10
7.338835535334453
 20
4.841714508204091
 30
0.0
  0
VERTEX
  5
B9B
330
B98
100
AcDbEntity
  8
Livello 1
100
AcDbVertex
100
AcDb2dVertex
 10
7.338835535334453
 20
4.88898633207529
 30
0.0
  0
VERTEX
  5
B9C
330
B98
100
AcDbEntity
  8
Livello 1
100
AcDbVertex
100
AcDb2dVertex
 10
7.460191715283229
 20
4.88898633207529
 30
0.0
  0
VERTEX
  5
B9D
330
B98
100
AcDbEntity
  8
Livello 1
100
AcDbVertex
100
AcDb2dVertex
 10
7.460191715283229
 20
4.841714508204091
 30
0.0
  0
SEQEND
  5
B9E
330
B98
100
AcDbEntity
  8
Livello 1
  0
POLYLINE
  5
B9F
330
1F
100
AcDbEntity
  8
Livello 1
100
AcDb2dPolyline
 66
     1
 10
0.0
 20
0.0
 30
0.0
  0
VERTEX
  5
BA0
330
B9F
100
AcDbEntity
  8
Livello 1
100
AcDbVertex
100
AcDb2dVertex
 10
8.280754247291085
 20
5.482358274235181
 30
0.0
  0
VERTEX
  5
BA1
330
B9F
100
AcDbEntity
  8
Livello 1
100
AcDbVertex
100
AcDb2dVertex
 10
8.20667123695398
 20
5.482358274235181
 30
0.0
  0
VERTEX
  5
BA2
330
B9F
100
AcDbEntity
  8
Livello 1
100
AcDbVertex
100
AcDb2dVertex
 10
8.20667123695398
 20
5.529630098106395
 30
0.0
  0
VERTEX
  5
BA3
330
B9F
100
AcDbEntity
  8
Livello 1
100
AcDbVertex
100
AcDb2dVertex
 10
8.280754247291085
 20
5.529630098106395
 30
0.0
  0
VERTEX
  5
BA4
330
B9F
100
AcDbEntity
  8
Livello 1
100
AcDbVertex
100
AcDb2dVertex
 10
8.280754247291085
 20
5.482358274235181
 30
0.0
  0
SEQEND
  5
BA5
330
B9F
100
AcDbEntity
  8
Livello 1
  0
POLYLINE
  5
BA6
330
1F
100
AcDbEntity
  8
Livello 1
100
AcDb2dPolyline
 66
     1
 10
0.0
 20
0.0
 30
0.0
  0
VERTEX
  5
BA7
330
BA6
100
AcDbEntity
  8
Livello 1
100
AcDbVertex
100
AcDb2dVertex
 10
8.230657714270037
 20
5.505994859040995
 30
0.0
  0
VERTEX
  5
BA8
330
BA6
100
AcDbEntity
  8
Livello 1
100
AcDbVertex
100
AcDb2dVertex
 10
8.18338454465838
 20
5.505994859040995
 30
0.0
  0
VERTEX
  5
BA9
330
BA6
100
AcDbEntity
  8
Livello 1
100
AcDbVertex
100
AcDb2dVertex
 10
8.18338454465838
 20
5.615356454591292
 30
0.0
  0
VERTEX
  5
BAA
330
BA6
100
AcDbEntity
  8
Livello 1
100
AcDbVertex
100
AcDb2dVertex
 10
8.230657714270037
 20
5.615356454591292
 30
0.0
  0
VERTEX
  5
BAB
330
BA6
100
AcDbEntity
  8
Livello 1
100
AcDbVertex
100
AcDb2dVertex
 10
8.230657714270037
 20
5.505994859040995
 30
0.0
  0
SEQEND
  5
BAC
330
BA6
100
AcDbEntity
  8
Livello 1
  0
POLYLINE
  5
BAD
330
1F
100
AcDbEntity
  8
Livello 1
100
AcDb2dPolyline
 66
     1
 10
0.0
 20
0.0
 30
0.0
  0
VERTEX
  5
BAE
330
BAD
100
AcDbEntity
  8
Livello 1
100
AcDbVertex
100
AcDb2dVertex
 10
8.230657714270037
 20
5.728597819783885
 30
0.0
  0
VERTEX
  5
BAF
330
BAD
100
AcDbEntity
  8
Livello 1
100
AcDbVertex
100
AcDb2dVertex
 10
8.18338454465838
 20
5.728597819783885
 30
0.0
  0
VERTEX
  5
BB0
330
BAD
100
AcDbEntity
  8
Livello 1
100
AcDbVertex
100
AcDb2dVertex
 10
8.18338454465838
 20
5.8665335217554
 30
0.0
  0
VERTEX
  5
BB1
330
BAD
100
AcDbEntity
  8
Livello 1
100
AcDbVertex
100
AcDb2dVertex
 10
8.230657714270037
 20
5.8665335217554
 30
0.0
  0
VERTEX
  5
BB2
330
BAD
100
AcDbEntity
  8
Livello 1
100
AcDbVertex
100
AcDb2dVertex
 10
8.230657714270037
 20
5.728597819783885
 30
0.0
  0
SEQEND
  5
BB3
330
BAD
100
AcDbEntity
  8
Livello 1
  0
POLYLINE
  5
BB4
330
1F
100
AcDbEntity
  8
Livello 1
100
AcDb2dPolyline
 66
     1
 10
0.0
 20
0.0
 30
0.0
  0
VERTEX
  5
BB5
330
BB4
100
AcDbEntity
  8
Livello 1
100
AcDbVertex
100
AcDb2dVertex
 10
8.252178795129452
 20
5.843249520940602
 30
0.0
  0
VERTEX
  5
BB6
330
BB4
100
AcDbEntity
  8
Livello 1
100
AcDbVertex
100
AcDb2dVertex
 10
8.207023820945039
 20
5.843249520940602
 30
0.0
  0
VERTEX
  5
BB7
330
BB4
100
AcDbEntity
  8
Livello 1
100
AcDbVertex
100
AcDb2dVertex
 10
8.207023820945039
 20
5.890521344811887
 30
0.0
  0
VERTEX
  5
BB8
330
BB4
100
AcDbEntity
  8
Livello 1
100
AcDbVertex
100
AcDb2dVertex
 10
8.252178795129452
 20
5.890521344811887
 30
0.0
  0
VERTEX
  5
BB9
330
BB4
100
AcDbEntity
  8
Livello 1
100
AcDbVertex
100
AcDb2dVertex
 10
8.252178795129452
 20
5.843249520940602
 30
0.0
  0
SEQEND
  5
BBA
330
BB4
100
AcDbEntity
  8
Livello 1
  0
POLYLINE
  5
BBB
330
1F
100
AcDbEntity
  8
Livello 1
100
AcDb2dPolyline
 66
     1
 10
0.0
 20
0.0
 30
0.0
  0
VERTEX
  5
BBC
330
BBB
100
AcDbEntity
  8
Livello 1
100
AcDbVertex
100
AcDb2dVertex
 10
8.275815379935281
 20
5.866886105746488
 30
0.0
  0
VERTEX
  5
BBD
330
BBB
100
AcDbEntity
  8
Livello 1
100
AcDbVertex
100
AcDb2dVertex
 10
8.228542210323624
 20
5.866886105746488
 30
0.0
  0
VERTEX
  5
BBE
330
BBB
100
AcDbEntity
  8
Livello 1
100
AcDbVertex
100
AcDb2dVertex
 10
8.228542210323624
 20
6.22777735245188
 30
0.0
  0
VERTEX
  5
BBF
330
BBB
100
AcDbEntity
  8
Livello 1
100
AcDbVertex
100
AcDb2dVertex
 10
8.275815379935281
 20
6.22777735245188
 30
0.0
  0
VERTEX
  5
BC0
330
BBB
100
AcDbEntity
  8
Livello 1
100
AcDbVertex
100
AcDb2dVertex
 10
8.275815379935281
 20
5.866886105746488
 30
0.0
  0
SEQEND
  5
BC1
330
BBB
100
AcDbEntity
  8
Livello 1
  0
POLYLINE
  5
BC2
330
1F
100
AcDbEntity
  8
Livello 1
100
AcDb2dPolyline
 66
     1
 10
0.0
 20
0.0
 30
0.0
  0
VERTEX
  5
BC3
330
BC2
100
AcDbEntity
  8
Livello 1
100
AcDbVertex
100
AcDb2dVertex
 10
8.252178795129452
 20
6.203789529395393
 30
0.0
  0
VERTEX
  5
BC4
330
BC2
100
AcDbEntity
  8
Livello 1
100
AcDbVertex
100
AcDb2dVertex
 10
8.164689518689186
 20
6.203789529395393
 30
0.0
  0
VERTEX
  5
BC5
330
BC2
100
AcDbEntity
  8
Livello 1
100
AcDbVertex
100
AcDb2dVertex
 10
8.164689518689186
 20
6.251061353266592
 30
0.0
  0
VERTEX
  5
BC6
330
BC2
100
AcDbEntity
  8
Livello 1
100
AcDbVertex
100
AcDb2dVertex
 10
8.252178795129452
 20
6.251061353266592
 30
0.0
  0
VERTEX
  5
BC7
330
BC2
100
AcDbEntity
  8
Livello 1
100
AcDbVertex
100
AcDb2dVertex
 10
8.252178795129452
 20
6.203789529395393
 30
0.0
  0
SEQEND
  5
BC8
330
BC2
100
AcDbEntity
  8
Livello 1
  0
SPLINE
  5
BC9
330
1F
100
AcDbEntity
  8
Livello 1
100
AcDbSpline
210
0.0
220
0.0
230
1.0
 70
     9
 71
     3
 72
    38
 73
    34
 74
     0
 42
0.000000001
 43
0.0000000001
 40
0.0
 40
0.0
 40
0.0
 40
0.0
 40
1.0
 40
1.0
 40
1.0
 40
2.0
 40
2.0
 40
2.0
 40
3.0
 40
3.0
 40
3.0
 40
4.0
 40
4.0
 40
4.0
 40
5.0
 40
5.0
 40
5.0
 40
6.0
 40
6.0
 40
6.0
 40
7.0
 40
7.0
 40
7.0
 40
8.0
 40
8.0
 40
8.0
 40
9.0
 40
9.0
 40
9.0
 40
10.0
 40
10.0
 40
10.0
 40
11.0
 40
11.0
 40
11.0
 40
11.0
 10
8.135974109523473
 20
6.046979817978296
 30
0.0
 10
8.135974109523473
 20
6.046979817978296
 30
0.0
 10
8.088700939911802
 20
6.047332401969384
 30
0.0
 10
8.088700939911802
 20
6.047332401969384
 30
0.0
 10
8.089053523902876
 20
6.097426243509588
 30
0.0
 10
8.094344975249725
 20
6.140113129756471
 30
0.0
 10
8.104927877943495
 20
6.177859802907192
 30
0.0
 10
8.108808993326093
 20
6.191618653001384
 30
0.0
 10
8.114805612655132
 20
6.209257272737801
 30
0.0
 10
8.125388515348859
 20
6.226190724492099
 30
0.0
 10
8.128917046740411
 20
6.231129591847889
 30
0.0
 10
8.133503330105128
 20
6.237478795167987
 30
0.0
 10
8.140912976879278
 20
6.243124176246283
 30
0.0
 10
8.140912976879278
 20
6.243124176246283
 30
0.0
 10
8.151848463564093
 20
6.249120795575294
 30
0.0
 10
8.151848463564093
 20
6.249120795575294
 30
0.0
 10
8.151848463564093
 20
6.249120795575294
 30
0.0
 10
8.163489118231055
 20
6.251237645262193
 30
0.0
 10
8.163489118231055
 20
6.251237645262193
 30
0.0
 10
8.163489118231055
 20
6.251237645262193
 30
0.0
 10
8.164899454195335
 20
6.221251857136294
 30
0.0
 10
8.164899454195335
 20
6.221251857136294
 30
0.0
 10
8.164899454195335
 20
6.221251857136294
 30
0.0
 10
8.16948573756008
 20
6.205376157355175
 30
0.0
 10
8.16948573756008
 20
6.205376157355175
 30
0.0
 10
8.168427985586859
 20
6.204318405381997
 30
0.0
 10
8.167370233613652
 20
6.203259307668389
 30
0.0
 10
8.165252038186409
 20
6.200084706008382
 30
0.0
 10
8.157845082893089
 20
6.188795289591979
 30
0.0
 10
8.153611383519432
 20
6.175390369229305
 30
0.0
 10
8.150435436118968
 20
6.164807466535592
 30
0.0
 10
8.140912976879278
 20
6.131293147018098
 30
0.0
 10
8.136326693514533
 20
6.092839960144885
 30
0.0
 10
8.135974109523473
 20
6.046979817978296
 30
0.0
  0
POLYLINE
  5
BCA
330
1F
100
AcDbEntity
  8
Livello 1
100
AcDb2dPolyline
 66
     1
 10
0.0
 20
0.0
 30
0.0
  0
VERTEX
  5
BCB
330
BCA
100
AcDbEntity
  8
Livello 1
100
AcDbVertex
100
AcDb2dVertex
 10
8.136114066527554
 20
3.386152245503083
 30
0.0
  0
VERTEX
  5
BCC
330
BCA
100
AcDbEntity
  8
Livello 1
100
AcDbVertex
100
AcDb2dVertex
 10
8.088840896915883
 20
3.386152245503083
 30
0.0
  0
VERTEX
  5
BCD
330
BCA
100
AcDbEntity
  8
Livello 1
100
AcDbVertex
100
AcDb2dVertex
 10
8.088840896915883
 20
6.047154764233383
 30
0.0
  0
VERTEX
  5
BCE
330
BCA
100
AcDbEntity
  8
Livello 1
100
AcDbVertex
100
AcDb2dVertex
 10
8.136114066527554
 20
6.047154764233383
 30
0.0
  0
VERTEX
  5
BCF
330
BCA
100
AcDbEntity
  8
Livello 1
100
AcDbVertex
100
AcDb2dVertex
 10
8.136114066527554
 20
3.386152245503083
 30
0.0
  0
SEQEND
  5
BD0
330
BCA
100
AcDbEntity
  8
Livello 1
  0
POLYLINE
  5
BD1
330
1F
100
AcDbEntity
  8
Livello 1
100
AcDb2dPolyline
 66
     1
 10
0.0
 20
0.0
 30
0.0
  0
VERTEX
  5
BD2
330
BD1
100
AcDbEntity
  8
Livello 1
100
AcDbVertex
100
AcDb2dVertex
 10
8.112477481721739
 20
3.362517006437684
 30
0.0
  0
VERTEX
  5
BD3
330
BD1
100
AcDbEntity
  8
Livello 1
100
AcDbVertex
100
AcDb2dVertex
 10
7.590719116221052
 20
3.362517006437684
 30
0.0
  0
VERTEX
  5
BD4
330
BD1
100
AcDbEntity
  8
Livello 1
100
AcDbVertex
100
AcDb2dVertex
 10
7.590719116221052
 20
3.409788830308883
 30
0.0
  0
VERTEX
  5
BD5
330
BD1
100
AcDbEntity
  8
Livello 1
100
AcDbVertex
100
AcDb2dVertex
 10
8.112477481721739
 20
3.409788830308883
 30
0.0
  0
VERTEX
  5
BD6
330
BD1
100
AcDbEntity
  8
Livello 1
100
AcDbVertex
100
AcDb2dVertex
 10
8.112477481721739
 20
3.362517006437684
 30
0.0
  0
SEQEND
  5
BD7
330
BD1
100
AcDbEntity
  8
Livello 1
  0
POLYLINE
  5
BD8
330
1F
100
AcDbEntity
  8
Livello 1
100
AcDb2dPolyline
 66
     1
 10
0.0
 20
0.0
 30
0.0
  0
VERTEX
  5
BD9
330
BD8
100
AcDbEntity
  8
Livello 1
100
AcDbVertex
100
AcDb2dVertex
 10
7.614355701026894
 20
3.386152245503083
 30
0.0
  0
VERTEX
  5
BDA
330
BD8
100
AcDbEntity
  8
Livello 1
100
AcDbVertex
100
AcDb2dVertex
 10
7.567083877155653
 20
3.386152245503083
 30
0.0
  0
VERTEX
  5
BDB
330
BD8
100
AcDbEntity
  8
Livello 1
100
AcDbVertex
100
AcDb2dVertex
 10
7.567083877155653
 20
4.865702331260592
 30
0.0
  0
VERTEX
  5
BDC
330
BD8
100
AcDbEntity
  8
Livello 1
100
AcDbVertex
100
AcDb2dVertex
 10
7.614355701026894
 20
4.865702331260592
 30
0.0
  0
VERTEX
  5
BDD
330
BD8
100
AcDbEntity
  8
Livello 1
100
AcDbVertex
100
AcDb2dVertex
 10
7.614355701026894
 20
3.386152245503083
 30
0.0
  0
SEQEND
  5
BDE
330
BD8
100
AcDbEntity
  8
Livello 1
  0
POLYLINE
  5
BDF
330
1F
100
AcDbEntity
  8
Livello 1
100
AcDb2dPolyline
 66
     1
 10
0.0
 20
0.0
 30
0.0
  0
VERTEX
  5
BE0
330
BDF
100
AcDbEntity
  8
Livello 1
100
AcDbVertex
100
AcDb2dVertex
 10
7.590366532229992
 20
4.841714508204091
 30
0.0
  0
VERTEX
  5
BE1
330
BDF
100
AcDbEntity
  8
Livello 1
100
AcDbVertex
100
AcDb2dVertex
 10
7.490530087400216
 20
4.841714508204091
 30
0.0
  0
VERTEX
  5
BE2
330
BDF
100
AcDbEntity
  8
Livello 1
100
AcDbVertex
100
AcDb2dVertex
 10
7.490530087400216
 20
4.88898633207529
 30
0.0
  0
VERTEX
  5
BE3
330
BDF
100
AcDbEntity
  8
Livello 1
100
AcDbVertex
100
AcDb2dVertex
 10
7.590366532229992
 20
4.88898633207529
 30
0.0
  0
VERTEX
  5
BE4
330
BDF
100
AcDbEntity
  8
Livello 1
100
AcDbVertex
100
AcDb2dVertex
 10
7.590366532229992
 20
4.841714508204091
 30
0.0
  0
SEQEND
  5
BE5
330
BDF
100
AcDbEntity
  8
Livello 1
  0
POLYLINE
  5
BE6
330
1F
100
AcDbEntity
  8
Livello 1
100
AcDb2dPolyline
 66
     1
 10
0.0
 20
0.0
 30
0.0
  0
VERTEX
  5
BE7
330
BE6
100
AcDbEntity
  8
Livello 1
100
AcDbVertex
100
AcDb2dVertex
 10
7.490884017131719
 20
3.362517006437684
 30
0.0
  0
VERTEX
  5
BE8
330
BE6
100
AcDbEntity
  8
Livello 1
100
AcDbVertex
100
AcDb2dVertex
 10
6.955014217545752
 20
3.362517006437684
 30
0.0
  0
VERTEX
  5
BE9
330
BE6
100
AcDbEntity
  8
Livello 1
100
AcDbVertex
100
AcDb2dVertex
 10
6.955014217545752
 20
3.409788830308883
 30
0.0
  0
VERTEX
  5
BEA
330
BE6
100
AcDbEntity
  8
Livello 1
100
AcDbVertex
100
AcDb2dVertex
 10
7.490884017131719
 20
3.409788830308883
 30
0.0
  0
VERTEX
  5
BEB
330
BE6
100
AcDbEntity
  8
Livello 1
100
AcDbVertex
100
AcDb2dVertex
 10
7.490884017131719
 20
3.362517006437684
 30
0.0
  0
SEQEND
  5
BEC
330
BE6
100
AcDbEntity
  8
Livello 1
  0
POLYLINE
  5
BED
330
1F
100
AcDbEntity
  8
Livello 1
100
AcDb2dPolyline
 66
     1
 10
0.0
 20
0.0
 30
0.0
  0
VERTEX
  5
BEE
330
BED
100
AcDbEntity
  8
Livello 1
100
AcDbVertex
100
AcDb2dVertex
 10
6.955014217545752
 20
4.841714508204091
 30
0.0
  0
VERTEX
  5
BEF
330
BED
100
AcDbEntity
  8
Livello 1
100
AcDbVertex
100
AcDb2dVertex
 10
6.825191984590063
 20
4.841714508204091
 30
0.0
  0
VERTEX
  5
BF0
330
BED
100
AcDbEntity
  8
Livello 1
100
AcDbVertex
100
AcDb2dVertex
 10
6.825191984590063
 20
4.88898633207529
 30
0.0
  0
VERTEX
  5
BF1
330
BED
100
AcDbEntity
  8
Livello 1
100
AcDbVertex
100
AcDb2dVertex
 10
6.955014217545752
 20
4.88898633207529
 30
0.0
  0
VERTEX
  5
BF2
330
BED
100
AcDbEntity
  8
Livello 1
100
AcDbVertex
100
AcDb2dVertex
 10
6.955014217545752
 20
4.841714508204091
 30
0.0
  0
SEQEND
  5
BF3
330
BED
100
AcDbEntity
  8
Livello 1
  0
POLYLINE
  5
BF4
330
1F
100
AcDbEntity
  8
Livello 1
100
AcDb2dPolyline
 66
     1
 10
0.0
 20
0.0
 30
0.0
  0
VERTEX
  5
BF5
330
BF4
100
AcDbEntity
  8
Livello 1
100
AcDbVertex
100
AcDb2dVertex
 10
6.848828569395891
 20
3.386152245503083
 30
0.0
  0
VERTEX
  5
BF6
330
BF4
100
AcDbEntity
  8
Livello 1
100
AcDbVertex
100
AcDb2dVertex
 10
6.801556745524649
 20
3.386152245503083
 30
0.0
  0
VERTEX
  5
BF7
330
BF4
100
AcDbEntity
  8
Livello 1
100
AcDbVertex
100
AcDb2dVertex
 10
6.801556745524649
 20
4.865702331260592
 30
0.0
  0
VERTEX
  5
BF8
330
BF4
100
AcDbEntity
  8
Livello 1
100
AcDbVertex
100
AcDb2dVertex
 10
6.848828569395891
 20
4.865702331260592
 30
0.0
  0
VERTEX
  5
BF9
330
BF4
100
AcDbEntity
  8
Livello 1
100
AcDbVertex
100
AcDb2dVertex
 10
6.848828569395891
 20
3.386152245503083
 30
0.0
  0
SEQEND
  5
BFA
330
BF4
100
AcDbEntity
  8
Livello 1
  0
POLYLINE
  5
BFB
330
1F
100
AcDbEntity
  8
Livello 1
100
AcDb2dPolyline
 66
     1
 10
0.0
 20
0.0
 30
0.0
  0
VERTEX
  5
BFC
330
BFB
100
AcDbEntity
  8
Livello 1
100
AcDbVertex
100
AcDb2dVertex
 10
6.825191984590063
 20
3.362517006437684
 30
0.0
  0
VERTEX
  5
BFD
330
BFB
100
AcDbEntity
  8
Livello 1
100
AcDbVertex
100
AcDb2dVertex
 10
2.609849856042529
 20
3.362517006437684
 30
0.0
  0
VERTEX
  5
BFE
330
BFB
100
AcDbEntity
  8
Livello 1
100
AcDbVertex
100
AcDb2dVertex
 10
2.609849856042529
 20
3.409788830308883
 30
0.0
  0
VERTEX
  5
BFF
330
BFB
100
AcDbEntity
  8
Livello 1
100
AcDbVertex
100
AcDb2dVertex
 10
6.825191984590063
 20
3.409788830308883
 30
0.0
  0
VERTEX
  5
C00
330
BFB
100
AcDbEntity
  8
Livello 1
100
AcDbVertex
100
AcDb2dVertex
 10
6.825191984590063
 20
3.362517006437684
 30
0.0
  0
SEQEND
  5
C01
330
BFB
100
AcDbEntity
  8
Livello 1
  0
POLYLINE
  5
C02
330
1F
100
AcDbEntity
  8
Livello 1
100
AcDb2dPolyline
 66
     1
 10
0.0
 20
0.0
 30
0.0
  0
VERTEX
  5
C03
330
C02
100
AcDbEntity
  8
Livello 1
100
AcDbVertex
100
AcDb2dVertex
 10
1.177925523887765
 20
3.160374683100187
 30
0.0
  0
VERTEX
  5
C04
330
C02
100
AcDbEntity
  8
Livello 1
100
AcDbVertex
100
AcDb2dVertex
 10
1.130653700016523
 20
3.160374683100187
 30
0.0
  0
VERTEX
  5
C05
330
C02
100
AcDbEntity
  8
Livello 1
100
AcDbVertex
100
AcDb2dVertex
 10
1.130653700016523
 20
5.505640929309493
 30
0.0
  0
VERTEX
  5
C06
330
C02
100
AcDbEntity
  8
Livello 1
100
AcDbVertex
100
AcDb2dVertex
 10
1.177925523887765
 20
5.505640929309493
 30
0.0
  0
VERTEX
  5
C07
330
C02
100
AcDbEntity
  8
Livello 1
100
AcDbVertex
100
AcDb2dVertex
 10
1.177925523887765
 20
3.160374683100187
 30
0.0
  0
SEQEND
  5
C08
330
C02
100
AcDbEntity
  8
Livello 1
  0
SPLINE
  5
C09
330
1F
100
AcDbEntity
  8
Livello 1
100
AcDbSpline
210
0.0
220
0.0
230
1.0
 70
     9
 71
     3
 72
    56
 73
    52
 74
     0
 42
0.000000001
 43
0.0000000001
 40
0.0
 40
0.0
 40
0.0
 40
0.0
 40
1.0
 40
1.0
 40
1.0
 40
2.0
 40
2.0
 40
2.0
 40
3.0
 40
3.0
 40
3.0
 40
4.0
 40
4.0
 40
4.0
 40
5.0
 40
5.0
 40
5.0
 40
6.0
 40
6.0
 40
6.0
 40
7.0
 40
7.0
 40
7.0
 40
8.0
 40
8.0
 40
8.0
 40
9.0
 40
9.0
 40
9.0
 40
10.0
 40
10.0
 40
10.0
 40
11.0
 40
11.0
 40
11.0
 40
12.0
 40
12.0
 40
12.0
 40
13.0
 40
13.0
 40
13.0
 40
14.0
 40
14.0
 40
14.0
 40
15.0
 40
15.0
 40
15.0
 40
16.0
 40
16.0
 40
16.0
 40
17.0
 40
17.0
 40
17.0
 40
17.0
 10
1.346340900720804
 20
6.047084785731399
 30
0.0
 10
1.346340900720804
 20
6.047084785731399
 30
0.0
 10
1.299067731109118
 20
6.047084785731399
 30
0.0
 10
1.299067731109118
 20
6.047084785731399
 30
0.0
 10
1.299067731109118
 20
6.058725440398305
 30
0.0
 10
1.298715147118059
 20
6.070367440805682
 30
0.0
 10
1.29800997913594
 20
6.081656857221986
 30
0.0
 10
1.297303465413364
 20
6.091887175924682
 30
0.0
 10
1.296245713440157
 20
6.101764910636291
 30
0.0
 10
1.29518796146695
 20
6.111995229338972
 30
0.0
 10
1.292718527789034
 20
6.131398114771187
 30
0.0
 10
1.28918999639751
 20
6.148684150516473
 30
0.0
 10
1.28460371303278
 20
6.164912434288581
 30
0.0
 10
1.280017429668021
 20
6.180434204338197
 30
0.0
 10
1.275432492043719
 20
6.19136969102297
 30
0.0
 10
1.269787110965339
 20
6.2001896737614
 30
0.0
 10
1.26767026127851
 20
6.203364275421492
 30
0.0
 10
1.266612509305332
 20
6.204423373135099
 30
0.0
 10
1.26625992531423
 20
6.204775957126187
 30
0.0
 10
1.26625992531423
 20
6.204775957126187
 30
0.0
 10
1.271198792670048
 20
6.217123125515684
 30
0.0
 10
1.271198792670048
 20
6.217123125515684
 30
0.0
 10
1.271198792670048
 20
6.217123125515684
 30
0.0
 10
1.270493624687915
 20
6.227706028209382
 30
0.0
 10
1.270493624687915
 20
6.227706028209382
 30
0.0
 10
1.270493624687915
 20
6.227706028209382
 30
0.0
 10
1.271198792670048
 20
6.251342613015296
 30
0.0
 10
1.271198792670048
 20
6.251342613015296
 30
0.0
 10
1.271198792670048
 20
6.251342613015296
 30
0.0
 10
1.28460371303278
 20
6.248873179337294
 30
0.0
 10
1.28460371303278
 20
6.248873179337294
 30
0.0
 10
1.284956297023839
 20
6.248520595346306
 30
0.0
 10
1.286367978728534
 20
6.247814081623687
 30
0.0
 10
1.288132244424303
 20
6.24675632965048
 30
0.0
 10
1.288132244424303
 20
6.24675632965048
 30
0.0
 10
1.294128863753314
 20
6.242875214267883
 30
0.0
 10
1.294128863753314
 20
6.242875214267883
 30
0.0
 10
1.301537164787021
 20
6.237583762920976
 30
0.0
 10
1.306123448151765
 20
6.231234559600991
 30
0.0
 10
1.309298049811829
 20
6.225943108254099
 30
0.0
 10
1.320234882237059
 20
6.209362240490875
 30
0.0
 10
1.326231501566084
 20
6.19136969102297
 30
0.0
 10
1.330112616948667
 20
6.177964770660295
 30
0.0
 10
1.335404068295545
 20
6.159267053210299
 30
0.0
 10
1.339285183678143
 20
6.1398641677781
 30
0.0
 10
1.342107201347118
 20
6.117991848667983
 30
0.0
 10
1.343517537311399
 20
6.107056361983197
 30
0.0
 10
1.344576635025021
 20
6.095766945566893
 30
0.0
 10
1.345281803007154
 20
6.084831458882092
 30
0.0
 10
1.345986970989301
 20
6.072131706501494
 30
0.0
 10
1.346340900720804
 20
6.059784538111983
 30
0.0
 10
1.346340900720804
 20
6.047084785731399
 30
0.0
  0
POLYLINE
  5
C0A
330
1F
100
AcDbEntity
  8
Livello 1
100
AcDb2dPolyline
 66
     1
 10
0.0
 20
0.0
 30
0.0
  0
VERTEX
  5
C0B
330
C0A
100
AcDbEntity
  8
Livello 1
100
AcDbVertex
100
AcDb2dVertex
 10
1.270353667683821
 20
6.203789529395393
 30
0.0
  0
VERTEX
  5
C0C
330
C0A
100
AcDbEntity
  8
Livello 1
100
AcDbVertex
100
AcDb2dVertex
 10
1.229431047132649
 20
6.203789529395393
 30
0.0
  0
VERTEX
  5
C0D
330
C0A
100
AcDbEntity
  8
Livello 1
100
AcDbVertex
100
AcDb2dVertex
 10
1.229431047132649
 20
6.251061353266592
 30
0.0
  0
VERTEX
  5
C0E
330
C0A
100
AcDbEntity
  8
Livello 1
100
AcDbVertex
100
AcDb2dVertex
 10
1.270353667683821
 20
6.251061353266592
 30
0.0
  0
VERTEX
  5
C0F
330
C0A
100
AcDbEntity
  8
Livello 1
100
AcDbVertex
100
AcDb2dVertex
 10
1.270353667683821
 20
6.203789529395393
 30
0.0
  0
SEQEND
  5
C10
330
C0A
100
AcDbEntity
  8
Livello 1
  0
POLYLINE
  5
C11
330
1F
100
AcDbEntity
  8
Livello 1
100
AcDb2dPolyline
 66
     1
 10
0.0
 20
0.0
 30
0.0
  0
VERTEX
  5
C12
330
C11
100
AcDbEntity
  8
Livello 1
100
AcDbVertex
100
AcDb2dVertex
 10
1.206500976049412
 20
5.894049876203396
 30
0.0
  0
VERTEX
  5
C13
330
C11
100
AcDbEntity
  8
Livello 1
100
AcDbVertex
100
AcDb2dVertex
 10
1.159229152178156
 20
5.894049876203396
 30
0.0
  0
VERTEX
  5
C14
330
C11
100
AcDbEntity
  8
Livello 1
100
AcDbVertex
100
AcDb2dVertex
 10
1.159229152178156
 20
6.157928041488389
 30
0.0
  0
VERTEX
  5
C15
330
C11
100
AcDbEntity
  8
Livello 1
100
AcDbVertex
100
AcDb2dVertex
 10
1.206500976049412
 20
6.157928041488389
 30
0.0
  0
VERTEX
  5
C16
330
C11
100
AcDbEntity
  8
Livello 1
100
AcDbVertex
100
AcDb2dVertex
 10
1.206500976049412
 20
5.894049876203396
 30
0.0
  0
SEQEND
  5
C17
330
C11
100
AcDbEntity
  8
Livello 1
  0
POLYLINE
  5
C18
330
1F
100
AcDbEntity
  8
Livello 1
100
AcDb2dPolyline
 66
     1
 10
0.0
 20
0.0
 30
0.0
  0
VERTEX
  5
C19
330
C18
100
AcDbEntity
  8
Livello 1
100
AcDbVertex
100
AcDb2dVertex
 10
1.251655950233796
 20
5.505994859040995
 30
0.0
  0
VERTEX
  5
C1A
330
C18
100
AcDbEntity
  8
Livello 1
100
AcDbVertex
100
AcDb2dVertex
 10
1.204384126362569
 20
5.505994859040995
 30
0.0
  0
VERTEX
  5
C1B
330
C18
100
AcDbEntity
  8
Livello 1
100
AcDbVertex
100
AcDb2dVertex
 10
1.204384126362569
 20
5.72718613807919
 30
0.0
  0
VERTEX
  5
C1C
330
C18
100
AcDbEntity
  8
Livello 1
100
AcDbVertex
100
AcDb2dVertex
 10
1.251655950233796
 20
5.72718613807919
 30
0.0
  0
VERTEX
  5
C1D
330
C18
100
AcDbEntity
  8
Livello 1
100
AcDbVertex
100
AcDb2dVertex
 10
1.251655950233796
 20
5.505994859040995
 30
0.0
  0
SEQEND
  5
C1E
330
C18
100
AcDbEntity
  8
Livello 1
  0
POLYLINE
  5
C1F
330
1F
100
AcDbEntity
  8
Livello 1
100
AcDb2dPolyline
 66
     1
 10
0.0
 20
0.0
 30
0.0
  0
VERTEX
  5
C20
330
C1F
100
AcDbEntity
  8
Livello 1
100
AcDbVertex
100
AcDb2dVertex
 10
1.228019365427968
 20
5.482358274235181
 30
0.0
  0
VERTEX
  5
C21
330
C1F
100
AcDbEntity
  8
Livello 1
100
AcDbVertex
100
AcDb2dVertex
 10
1.154288939081922
 20
5.482358274235181
 30
0.0
  0
VERTEX
  5
C22
330
C1F
100
AcDbEntity
  8
Livello 1
100
AcDbVertex
100
AcDb2dVertex
 10
1.154288939081922
 20
5.529630098106395
 30
0.0
  0
VERTEX
  5
C23
330
C1F
100
AcDbEntity
  8
Livello 1
100
AcDbVertex
100
AcDb2dVertex
 10
1.228019365427968
 20
5.529630098106395
 30
0.0
  0
VERTEX
  5
C24
330
C1F
100
AcDbEntity
  8
Livello 1
100
AcDbVertex
100
AcDb2dVertex
 10
1.228019365427968
 20
5.482358274235181
 30
0.0
  0
SEQEND
  5
C25
330
C1F
100
AcDbEntity
  8
Livello 1
  0
POLYLINE
  5
C26
330
1F
100
AcDbEntity
  8
Livello 1
100
AcDb2dPolyline
 66
     1
 10
0.0
 20
0.0
 30
0.0
  0
VERTEX
  5
C27
330
C26
100
AcDbEntity
  8
Livello 1
100
AcDbVertex
100
AcDb2dVertex
 10
1.84432272441154
 20
3.362517006437684
 30
0.0
  0
VERTEX
  5
C28
330
C26
100
AcDbEntity
  8
Livello 1
100
AcDbVertex
100
AcDb2dVertex
 10
1.322564358910881
 20
3.362517006437684
 30
0.0
  0
VERTEX
  5
C29
330
C26
100
AcDbEntity
  8
Livello 1
100
AcDbVertex
100
AcDb2dVertex
 10
1.322564358910881
 20
3.409788830308883
 30
0.0
  0
VERTEX
  5
C2A
330
C26
100
AcDbEntity
  8
Livello 1
100
AcDbVertex
100
AcDb2dVertex
 10
1.84432272441154
 20
3.409788830308883
 30
0.0
  0
VERTEX
  5
C2B
330
C26
100
AcDbEntity
  8
Livello 1
100
AcDbVertex
100
AcDb2dVertex
 10
1.84432272441154
 20
3.362517006437684
 30
0.0
  0
SEQEND
  5
C2C
330
C26
100
AcDbEntity
  8
Livello 1
  0
POLYLINE
  5
C2D
330
1F
100
AcDbEntity
  8
Livello 1
100
AcDb2dPolyline
 66
     1
 10
0.0
 20
0.0
 30
0.0
  0
VERTEX
  5
C2E
330
C2D
100
AcDbEntity
  8
Livello 1
100
AcDbVertex
100
AcDb2dVertex
 10
1.346200943716695
 20
3.386152245503083
 30
0.0
  0
VERTEX
  5
C2F
330
C2D
100
AcDbEntity
  8
Livello 1
100
AcDbVertex
100
AcDb2dVertex
 10
1.298929119845467
 20
3.386152245503083
 30
0.0
  0
VERTEX
  5
C30
330
C2D
100
AcDbEntity
  8
Livello 1
100
AcDbVertex
100
AcDb2dVertex
 10
1.298929119845467
 20
6.047154764233383
 30
0.0
  0
VERTEX
  5
C31
330
C2D
100
AcDbEntity
  8
Livello 1
100
AcDbVertex
100
AcDb2dVertex
 10
1.346200943716695
 20
6.047154764233383
 30
0.0
  0
VERTEX
  5
C32
330
C2D
100
AcDbEntity
  8
Livello 1
100
AcDbVertex
100
AcDb2dVertex
 10
1.346200943716695
 20
3.386152245503083
 30
0.0
  0
SEQEND
  5
C33
330
C2D
100
AcDbEntity
  8
Livello 1
  0
POLYLINE
  5
C34
330
1F
100
AcDbEntity
  8
Livello 1
100
AcDb2dPolyline
 66
     1
 10
0.0
 20
0.0
 30
0.0
  0
VERTEX
  5
C35
330
C34
100
AcDbEntity
  8
Livello 1
100
AcDbVertex
100
AcDb2dVertex
 10
6.792736762786248
 20
4.841714508204091
 30
0.0
  0
VERTEX
  5
C36
330
C34
100
AcDbEntity
  8
Livello 1
100
AcDbVertex
100
AcDb2dVertex
 10
2.6419538395957
 20
4.841714508204091
 30
0.0
  0
VERTEX
  5
C37
330
C34
100
AcDbEntity
  8
Livello 1
100
AcDbVertex
100
AcDb2dVertex
 10
2.6419538395957
 20
4.88898633207529
 30
0.0
  0
VERTEX
  5
C38
330
C34
100
AcDbEntity
  8
Livello 1
100
AcDbVertex
100
AcDb2dVertex
 10
6.792736762786248
 20
4.88898633207529
 30
0.0
  0
VERTEX
  5
C39
330
C34
100
AcDbEntity
  8
Livello 1
100
AcDbVertex
100
AcDb2dVertex
 10
6.792736762786248
 20
4.841714508204091
 30
0.0
  0
SEQEND
  5
C3A
330
C34
100
AcDbEntity
  8
Livello 1
  0
POLYLINE
  5
C3B
330
1F
100
AcDbEntity
  8
Livello 1
100
AcDb2dPolyline
 66
     1
 10
0.0
 20
0.0
 30
0.0
  0
VERTEX
  5
C3C
330
C3B
100
AcDbEntity
  8
Livello 1
100
AcDbVertex
100
AcDb2dVertex
 10
1.84432272441154
 20
4.25539693734639
 30
0.0
  0
VERTEX
  5
C3D
330
C3B
100
AcDbEntity
  8
Livello 1
100
AcDbVertex
100
AcDb2dVertex
 10
1.38006650148479
 20
4.25539693734639
 30
0.0
  0
VERTEX
  5
C3E
330
C3B
100
AcDbEntity
  8
Livello 1
100
AcDbVertex
100
AcDb2dVertex
 10
1.38006650148479
 20
4.302668761217674
 30
0.0
  0
VERTEX
  5
C3F
330
C3B
100
AcDbEntity
  8
Livello 1
100
AcDbVertex
100
AcDb2dVertex
 10
1.84432272441154
 20
4.302668761217674
 30
0.0
  0
VERTEX
  5
C40
330
C3B
100
AcDbEntity
  8
Livello 1
100
AcDbVertex
100
AcDb2dVertex
 10
1.84432272441154
 20
4.25539693734639
 30
0.0
  0
SEQEND
  5
C41
330
C3B
100
AcDbEntity
  8
Livello 1
  0
POLYLINE
  5
C42
330
1F
100
AcDbEntity
  8
Livello 1
100
AcDb2dPolyline
 66
     1
 10
0.0
 20
0.0
 30
0.0
  0
VERTEX
  5
C43
330
C42
100
AcDbEntity
  8
Livello 1
100
AcDbVertex
100
AcDb2dVertex
 10
8.05532926887929
 20
4.25539693734639
 30
0.0
  0
VERTEX
  5
C44
330
C42
100
AcDbEntity
  8
Livello 1
100
AcDbVertex
100
AcDb2dVertex
 10
7.590720461961481
 20
4.25539693734639
 30
0.0
  0
VERTEX
  5
C45
330
C42
100
AcDbEntity
  8
Livello 1
100
AcDbVertex
100
AcDb2dVertex
 10
7.590720461961481
 20
4.302668761217674
 30
0.0
  0
VERTEX
  5
C46
330
C42
100
AcDbEntity
  8
Livello 1
100
AcDbVertex
100
AcDb2dVertex
 10
8.05532926887929
 20
4.302668761217674
 30
0.0
  0
VERTEX
  5
C47
330
C42
100
AcDbEntity
  8
Livello 1
100
AcDbVertex
100
AcDb2dVertex
 10
8.05532926887929
 20
4.25539693734639
 30
0.0
  0
SEQEND
  5
C48
330
C42
100
AcDbEntity
  8
Livello 1
  0
POLYLINE
  5
C49
330
1F
100
AcDbEntity
  8
Livello 1
100
AcDb2dPolyline
 66
     1
 10
0.0
 20
0.0
 30
0.0
  0
VERTEX
  5
C4A
330
C49
100
AcDbEntity
  8
Livello 1
100
AcDbVertex
100
AcDb2dVertex
 10
2.642306423586759
 20
4.841714508204091
 30
0.0
  0
VERTEX
  5
C4B
330
C49
100
AcDbEntity
  8
Livello 1
100
AcDbVertex
100
AcDb2dVertex
 10
2.610203785774018
 20
4.841714508204091
 30
0.0
  0
VERTEX
  5
C4C
330
C49
100
AcDbEntity
  8
Livello 1
100
AcDbVertex
100
AcDb2dVertex
 10
2.610203785774018
 20
4.88898633207529
 30
0.0
  0
VERTEX
  5
C4D
330
C49
100
AcDbEntity
  8
Livello 1
100
AcDbVertex
100
AcDb2dVertex
 10
2.642306423586759
 20
4.88898633207529
 30
0.0
  0
VERTEX
  5
C4E
330
C49
100
AcDbEntity
  8
Livello 1
100
AcDbVertex
100
AcDb2dVertex
 10
2.642306423586759
 20
4.841714508204091
 30
0.0
  0
SEQEND
  5
C4F
330
C49
100
AcDbEntity
  8
Livello 1
  0
POLYLINE
  5
C50
330
1F
100
AcDbEntity
  8
Livello 1
100
AcDb2dPolyline
 66
     1
 10
0.0
 20
0.0
 30
0.0
  0
VERTEX
  5
C51
330
C50
100
AcDbEntity
  8
Livello 1
100
AcDbVertex
100
AcDb2dVertex
 10
2.633486440848358
 20
3.386152245503083
 30
0.0
  0
VERTEX
  5
C52
330
C50
100
AcDbEntity
  8
Livello 1
100
AcDbVertex
100
AcDb2dVertex
 10
2.586214616977116
 20
3.386152245503083
 30
0.0
  0
VERTEX
  5
C53
330
C50
100
AcDbEntity
  8
Livello 1
100
AcDbVertex
100
AcDb2dVertex
 10
2.586214616977116
 20
4.865702331260592
 30
0.0
  0
VERTEX
  5
C54
330
C50
100
AcDbEntity
  8
Livello 1
100
AcDbVertex
100
AcDb2dVertex
 10
2.633486440848358
 20
4.865702331260592
 30
0.0
  0
VERTEX
  5
C55
330
C50
100
AcDbEntity
  8
Livello 1
100
AcDbVertex
100
AcDb2dVertex
 10
2.633486440848358
 20
3.386152245503083
 30
0.0
  0
SEQEND
  5
C56
330
C50
100
AcDbEntity
  8
Livello 1
  0
POLYLINE
  5
C57
330
1F
100
AcDbEntity
  8
Livello 1
100
AcDb2dPolyline
 66
     1
 10
0.0
 20
0.0
 30
0.0
  0
VERTEX
  5
C58
330
C57
100
AcDbEntity
  8
Livello 1
100
AcDbVertex
100
AcDb2dVertex
 10
2.609849856042529
 20
4.841714508204091
 30
0.0
  0
VERTEX
  5
C59
330
C57
100
AcDbEntity
  8
Livello 1
100
AcDbVertex
100
AcDb2dVertex
 10
2.48002762308684
 20
4.841714508204091
 30
0.0
  0
VERTEX
  5
C5A
330
C57
100
AcDbEntity
  8
Livello 1
100
AcDbVertex
100
AcDb2dVertex
 10
2.48002762308684
 20
4.88898633207529
 30
0.0
  0
VERTEX
  5
C5B
330
C57
100
AcDbEntity
  8
Livello 1
100
AcDbVertex
100
AcDb2dVertex
 10
2.609849856042529
 20
4.88898633207529
 30
0.0
  0
VERTEX
  5
C5C
330
C57
100
AcDbEntity
  8
Livello 1
100
AcDbVertex
100
AcDb2dVertex
 10
2.609849856042529
 20
4.841714508204091
 30
0.0
  0
SEQEND
  5
C5D
330
C57
100
AcDbEntity
  8
Livello 1
  0
POLYLINE
  5
C5E
330
1F
100
AcDbEntity
  8
Livello 1
100
AcDb2dPolyline
 66
     1
 10
0.0
 20
0.0
 30
0.0
  0
VERTEX
  5
C5F
330
C5E
100
AcDbEntity
  8
Livello 1
100
AcDbVertex
100
AcDb2dVertex
 10
2.503664207892668
 20
3.386152245503083
 30
0.0
  0
VERTEX
  5
C60
330
C5E
100
AcDbEntity
  8
Livello 1
100
AcDbVertex
100
AcDb2dVertex
 10
2.456392384021441
 20
3.386152245503083
 30
0.0
  0
VERTEX
  5
C61
330
C5E
100
AcDbEntity
  8
Livello 1
100
AcDbVertex
100
AcDb2dVertex
 10
2.456392384021441
 20
4.865702331260592
 30
0.0
  0
VERTEX
  5
C62
330
C5E
100
AcDbEntity
  8
Livello 1
100
AcDbVertex
100
AcDb2dVertex
 10
2.503664207892668
 20
4.865702331260592
 30
0.0
  0
VERTEX
  5
C63
330
C5E
100
AcDbEntity
  8
Livello 1
100
AcDbVertex
100
AcDb2dVertex
 10
2.503664207892668
 20
3.386152245503083
 30
0.0
  0
SEQEND
  5
C64
330
C5E
100
AcDbEntity
  8
Livello 1
  0
POLYLINE
  5
C65
330
1F
100
AcDbEntity
  8
Livello 1
100
AcDb2dPolyline
 66
     1
 10
0.0
 20
0.0
 30
0.0
  0
VERTEX
  5
C66
330
C65
100
AcDbEntity
  8
Livello 1
100
AcDbVertex
100
AcDb2dVertex
 10
2.48002762308684
 20
3.362517006437684
 30
0.0
  0
VERTEX
  5
C67
330
C65
100
AcDbEntity
  8
Livello 1
100
AcDbVertex
100
AcDb2dVertex
 10
1.944157823500887
 20
3.362517006437684
 30
0.0
  0
VERTEX
  5
C68
330
C65
100
AcDbEntity
  8
Livello 1
100
AcDbVertex
100
AcDb2dVertex
 10
1.944157823500887
 20
3.409788830308883
 30
0.0
  0
VERTEX
  5
C69
330
C65
100
AcDbEntity
  8
Livello 1
100
AcDbVertex
100
AcDb2dVertex
 10
2.48002762308684
 20
3.409788830308883
 30
0.0
  0
VERTEX
  5
C6A
330
C65
100
AcDbEntity
  8
Livello 1
100
AcDbVertex
100
AcDb2dVertex
 10
2.48002762308684
 20
3.362517006437684
 30
0.0
  0
SEQEND
  5
C6B
330
C65
100
AcDbEntity
  8
Livello 1
  0
POLYLINE
  5
C6C
330
1F
100
AcDbEntity
  8
Livello 1
100
AcDb2dPolyline
 66
     1
 10
0.0
 20
0.0
 30
0.0
  0
VERTEX
  5
C6D
330
C6C
100
AcDbEntity
  8
Livello 1
100
AcDbVertex
100
AcDb2dVertex
 10
1.967794408306716
 20
3.386152245503083
 30
0.0
  0
VERTEX
  5
C6E
330
C6C
100
AcDbEntity
  8
Livello 1
100
AcDbVertex
100
AcDb2dVertex
 10
1.92052258443546
 20
3.386152245503083
 30
0.0
  0
VERTEX
  5
C6F
330
C6C
100
AcDbEntity
  8
Livello 1
100
AcDbVertex
100
AcDb2dVertex
 10
1.92052258443546
 20
4.865702331260592
 30
0.0
  0
VERTEX
  5
C70
330
C6C
100
AcDbEntity
  8
Livello 1
100
AcDbVertex
100
AcDb2dVertex
 10
1.967794408306716
 20
4.865702331260592
 30
0.0
  0
VERTEX
  5
C71
330
C6C
100
AcDbEntity
  8
Livello 1
100
AcDbVertex
100
AcDb2dVertex
 10
1.967794408306716
 20
3.386152245503083
 30
0.0
  0
SEQEND
  5
C72
330
C6C
100
AcDbEntity
  8
Livello 1
  0
POLYLINE
  5
C73
330
1F
100
AcDbEntity
  8
Livello 1
100
AcDb2dPolyline
 66
     1
 10
0.0
 20
0.0
 30
0.0
  0
VERTEX
  5
C74
330
C73
100
AcDbEntity
  8
Livello 1
100
AcDbVertex
100
AcDb2dVertex
 10
1.944159169241331
 20
4.841714508204091
 30
0.0
  0
VERTEX
  5
C75
330
C73
100
AcDbEntity
  8
Livello 1
100
AcDbVertex
100
AcDb2dVertex
 10
1.84432272441154
 20
4.841714508204091
 30
0.0
  0
VERTEX
  5
C76
330
C73
100
AcDbEntity
  8
Livello 1
100
AcDbVertex
100
AcDb2dVertex
 10
1.84432272441154
 20
4.88898633207529
 30
0.0
  0
VERTEX
  5
C77
330
C73
100
AcDbEntity
  8
Livello 1
100
AcDbVertex
100
AcDb2dVertex
 10
1.944159169241331
 20
4.88898633207529
 30
0.0
  0
VERTEX
  5
C78
330
C73
100
AcDbEntity
  8
Livello 1
100
AcDbVertex
100
AcDb2dVertex
 10
1.944159169241331
 20
4.841714508204091
 30
0.0
  0
SEQEND
  5
C79
330
C73
100
AcDbEntity
  8
Livello 1
  0
POLYLINE
  5
C7A
330
1F
100
AcDbEntity
  8
Livello 1
100
AcDb2dPolyline
 66
     1
 10
0.0
 20
0.0
 30
0.0
  0
VERTEX
  5
C7B
330
C7A
100
AcDbEntity
  8
Livello 1
100
AcDbVertex
100
AcDb2dVertex
 10
1.867959309217383
 20
3.386152245503083
 30
0.0
  0
VERTEX
  5
C7C
330
C7A
100
AcDbEntity
  8
Livello 1
100
AcDbVertex
100
AcDb2dVertex
 10
1.820687485346127
 20
3.386152245503083
 30
0.0
  0
VERTEX
  5
C7D
330
C7A
100
AcDbEntity
  8
Livello 1
100
AcDbVertex
100
AcDb2dVertex
 10
1.820687485346127
 20
4.865702331260592
 30
0.0
  0
VERTEX
  5
C7E
330
C7A
100
AcDbEntity
  8
Livello 1
100
AcDbVertex
100
AcDb2dVertex
 10
1.867959309217383
 20
4.865702331260592
 30
0.0
  0
VERTEX
  5
C7F
330
C7A
100
AcDbEntity
  8
Livello 1
100
AcDbVertex
100
AcDb2dVertex
 10
1.867959309217383
 20
3.386152245503083
 30
0.0
  0
SEQEND
  5
C80
330
C7A
100
AcDbEntity
  8
Livello 1
  0
POLYLINE
  5
C81
330
1F
100
AcDbEntity
  8
Livello 1
100
AcDb2dPolyline
 66
     1
 10
0.0
 20
0.0
 30
0.0
  0
VERTEX
  5
C82
330
C81
100
AcDbEntity
  8
Livello 1
100
AcDbVertex
100
AcDb2dVertex
 10
4.717345301190974
 20
2.992453193002688
 30
0.0
  0
VERTEX
  5
C83
330
C81
100
AcDbEntity
  8
Livello 1
100
AcDbVertex
100
AcDb2dVertex
 10
0.4335641976442588
 20
2.992453193002688
 30
0.0
  0
VERTEX
  5
C84
330
C81
100
AcDbEntity
  8
Livello 1
100
AcDbVertex
100
AcDb2dVertex
 10
0.4335641976442588
 20
3.039725016873973
 30
0.0
  0
VERTEX
  5
C85
330
C81
100
AcDbEntity
  8
Livello 1
100
AcDbVertex
100
AcDb2dVertex
 10
4.717345301190974
 20
3.039725016873973
 30
0.0
  0
VERTEX
  5
C86
330
C81
100
AcDbEntity
  8
Livello 1
100
AcDbVertex
100
AcDb2dVertex
 10
4.717345301190974
 20
2.992453193002688
 30
0.0
  0
SEQEND
  5
C87
330
C81
100
AcDbEntity
  8
Livello 1
  0
POLYLINE
  5
C88
330
1F
100
AcDbEntity
  8
Livello 1
100
AcDb2dPolyline
 66
     1
 10
0.0
 20
0.0
 30
0.0
  0
VERTEX
  5
C89
330
C88
100
AcDbEntity
  8
Livello 1
100
AcDbVertex
100
AcDb2dVertex
 10
4.717345301190974
 20
3.136739444034787
 30
0.0
  0
VERTEX
  5
C8A
330
C88
100
AcDbEntity
  8
Livello 1
100
AcDbVertex
100
AcDb2dVertex
 10
0.4335641976442588
 20
3.136739444034787
 30
0.0
  0
VERTEX
  5
C8B
330
C88
100
AcDbEntity
  8
Livello 1
100
AcDbVertex
100
AcDb2dVertex
 10
0.4335641976442588
 20
3.184011267905987
 30
0.0
  0
VERTEX
  5
C8C
330
C88
100
AcDbEntity
  8
Livello 1
100
AcDbVertex
100
AcDb2dVertex
 10
4.717345301190974
 20
3.184011267905987
 30
0.0
  0
VERTEX
  5
C8D
330
C88
100
AcDbEntity
  8
Livello 1
100
AcDbVertex
100
AcDb2dVertex
 10
4.717345301190974
 20
3.136739444034787
 30
0.0
  0
SEQEND
  5
C8E
330
C88
100
AcDbEntity
  8
Livello 1
  0
POLYLINE
  5
C8F
330
1F
100
AcDbEntity
  8
Livello 1
100
AcDb2dPolyline
 66
     1
 10
0.0
 20
0.0
 30
0.0
  0
VERTEX
  5
C90
330
C8F
100
AcDbEntity
  8
Livello 1
100
AcDbVertex
100
AcDb2dVertex
 10
9.005357412630502
 20
3.136739444034787
 30
0.0
  0
VERTEX
  5
C91
330
C8F
100
AcDbEntity
  8
Livello 1
100
AcDbVertex
100
AcDb2dVertex
 10
4.717696539441618
 20
3.136739444034787
 30
0.0
  0
VERTEX
  5
C92
330
C8F
100
AcDbEntity
  8
Livello 1
100
AcDbVertex
100
AcDb2dVertex
 10
4.717696539441618
 20
3.184011267905987
 30
0.0
  0
VERTEX
  5
C93
330
C8F
100
AcDbEntity
  8
Livello 1
100
AcDbVertex
100
AcDb2dVertex
 10
9.005357412630502
 20
3.184011267905987
 30
0.0
  0
VERTEX
  5
C94
330
C8F
100
AcDbEntity
  8
Livello 1
100
AcDbVertex
100
AcDb2dVertex
 10
9.005357412630502
 20
3.136739444034787
 30
0.0
  0
SEQEND
  5
C95
330
C8F
100
AcDbEntity
  8
Livello 1
  0
POLYLINE
  5
C96
330
1F
100
AcDbEntity
  8
Livello 1
100
AcDb2dPolyline
 66
     1
 10
0.0
 20
0.0
 30
0.0
  0
VERTEX
  5
C97
330
C96
100
AcDbEntity
  8
Livello 1
100
AcDbVertex
100
AcDb2dVertex
 10
9.005357412630502
 20
2.992453193002688
 30
0.0
  0
VERTEX
  5
C98
330
C96
100
AcDbEntity
  8
Livello 1
100
AcDbVertex
100
AcDb2dVertex
 10
4.717696539441618
 20
2.992453193002688
 30
0.0
  0
VERTEX
  5
C99
330
C96
100
AcDbEntity
  8
Livello 1
100
AcDbVertex
100
AcDb2dVertex
 10
4.717696539441618
 20
3.039725016873973
 30
0.0
  0
VERTEX
  5
C9A
330
C96
100
AcDbEntity
  8
Livello 1
100
AcDbVertex
100
AcDb2dVertex
 10
9.005357412630502
 20
3.039725016873973
 30
0.0
  0
VERTEX
  5
C9B
330
C96
100
AcDbEntity
  8
Livello 1
100
AcDbVertex
100
AcDb2dVertex
 10
9.005357412630502
 20
2.992453193002688
 30
0.0
  0
SEQEND
  5
C9C
330
C96
100
AcDbEntity
  8
Livello 1
  0
POLYLINE
  5
C9D
330
1F
100
AcDbEntity
  8
Livello 1
100
AcDb2dPolyline
 66
     1
 10
0.0
 20
0.0
 30
0.0
  0
VERTEX
  5
C9E
330
C9D
100
AcDbEntity
  8
Livello 1
100
AcDbVertex
100
AcDb2dVertex
 10
1.974497541358289
 20
4.841714508204091
 30
0.0
  0
VERTEX
  5
C9F
330
C9D
100
AcDbEntity
  8
Livello 1
100
AcDbVertex
100
AcDb2dVertex
 10
1.944159169241331
 20
4.841714508204091
 30
0.0
  0
VERTEX
  5
CA0
330
C9D
100
AcDbEntity
  8
Livello 1
100
AcDbVertex
100
AcDb2dVertex
 10
1.944159169241331
 20
4.88898633207529
 30
0.0
  0
VERTEX
  5
CA1
330
C9D
100
AcDbEntity
  8
Livello 1
100
AcDbVertex
100
AcDb2dVertex
 10
1.974497541358289
 20
4.88898633207529
 30
0.0
  0
VERTEX
  5
CA2
330
C9D
100
AcDbEntity
  8
Livello 1
100
AcDbVertex
100
AcDb2dVertex
 10
1.974497541358289
 20
4.841714508204091
 30
0.0
  0
SEQEND
  5
CA3
330
C9D
100
AcDbEntity
  8
Livello 1
  0
POLYLINE
  5
CA4
330
1F
100
AcDbEntity
  8
Livello 1
100
AcDb2dPolyline
 66
     1
 10
0.0
 20
0.0
 30
0.0
  0
VERTEX
  5
CA5
330
CA4
100
AcDbEntity
  8
Livello 1
100
AcDbVertex
100
AcDb2dVertex
 10
2.095853721307079
 20
4.841714508204091
 30
0.0
  0
VERTEX
  5
CA6
330
CA4
100
AcDbEntity
  8
Livello 1
100
AcDbVertex
100
AcDb2dVertex
 10
1.974497541358289
 20
4.841714508204091
 30
0.0
  0
VERTEX
  5
CA7
330
CA4
100
AcDbEntity
  8
Livello 1
100
AcDbVertex
100
AcDb2dVertex
 10
1.974497541358289
 20
4.88898633207529
 30
0.0
  0
VERTEX
  5
CA8
330
CA4
100
AcDbEntity
  8
Livello 1
100
AcDbVertex
100
AcDb2dVertex
 10
2.095853721307079
 20
4.88898633207529
 30
0.0
  0
VERTEX
  5
CA9
330
CA4
100
AcDbEntity
  8
Livello 1
100
AcDbVertex
100
AcDb2dVertex
 10
2.095853721307079
 20
4.841714508204091
 30
0.0
  0
SEQEND
  5
CAA
330
CA4
100
AcDbEntity
  8
Livello 1
  0
POLYLINE
  5
CAB
330
1F
100
AcDbEntity
  8
Livello 1
100
AcDb2dPolyline
 66
     1
 10
0.0
 20
0.0
 30
0.0
  0
VERTEX
  5
CAC
330
CAB
100
AcDbEntity
  8
Livello 1
100
AcDbVertex
100
AcDb2dVertex
 10
2.48002762308684
 20
4.841714508204091
 30
0.0
  0
VERTEX
  5
CAD
330
CAB
100
AcDbEntity
  8
Livello 1
100
AcDbVertex
100
AcDb2dVertex
 10
2.369960859554382
 20
4.841714508204091
 30
0.0
  0
VERTEX
  5
CAE
330
CAB
100
AcDbEntity
  8
Livello 1
100
AcDbVertex
100
AcDb2dVertex
 10
2.369960859554382
 20
4.88898633207529
 30
0.0
  0
VERTEX
  5
CAF
330
CAB
100
AcDbEntity
  8
Livello 1
100
AcDbVertex
100
AcDb2dVertex
 10
2.48002762308684
 20
4.88898633207529
 30
0.0
  0
VERTEX
  5
CB0
330
CAB
100
AcDbEntity
  8
Livello 1
100
AcDbVertex
100
AcDb2dVertex
 10
2.48002762308684
 20
4.841714508204091
 30
0.0
  0
SEQEND
  5
CB1
330
CAB
100
AcDbEntity
  8
Livello 1
  0
POLYLINE
  5
CB2
330
1F
100
AcDbEntity
  8
Livello 1
100
AcDb2dPolyline
 66
     1
 10
0.0
 20
0.0
 30
0.0
  0
VERTEX
  5
CB3
330
CB2
100
AcDbEntity
  8
Livello 1
100
AcDbVertex
100
AcDb2dVertex
 10
6.825191984590063
 20
4.841714508204091
 30
0.0
  0
VERTEX
  5
CB4
330
CB2
100
AcDbEntity
  8
Livello 1
100
AcDbVertex
100
AcDb2dVertex
 10
6.794499682741601
 20
4.841714508204091
 30
0.0
  0
VERTEX
  5
CB5
330
CB2
100
AcDbEntity
  8
Livello 1
100
AcDbVertex
100
AcDb2dVertex
 10
6.794499682741601
 20
4.88898633207529
 30
0.0
  0
VERTEX
  5
CB6
330
CB2
100
AcDbEntity
  8
Livello 1
100
AcDbVertex
100
AcDb2dVertex
 10
6.825191984590063
 20
4.88898633207529
 30
0.0
  0
VERTEX
  5
CB7
330
CB2
100
AcDbEntity
  8
Livello 1
100
AcDbVertex
100
AcDb2dVertex
 10
6.825191984590063
 20
4.841714508204091
 30
0.0
  0
SEQEND
  5
CB8
330
CB2
100
AcDbEntity
  8
Livello 1
  0
SPLINE
  5
CB9
330
1F
100
AcDbEntity
  8
Livello 1
100
AcDbSpline
210
0.0
220
0.0
230
1.0
 70
     9
 71
     3
 72
    17
 73
    13
 74
     0
 42
0.000000001
 43
0.0000000001
 40
0.0
 40
0.0
 40
0.0
 40
0.0
 40
1.0
 40
1.0
 40
1.0
 40
2.0
 40
2.0
 40
2.0
 40
3.0
 40
3.0
 40
3.0
 40
4.0
 40
4.0
 40
4.0
 40
4.0
 10
7.217939598610669
 20
4.246402008352902
 30
0.0
 10
7.217939598610669
 20
4.246402008352902
 30
0.0
 10
7.217939598610669
 20
4.293673832224186
 30
0.0
 10
7.217939598610669
 20
4.293673832224186
 30
0.0
 10
7.3304744500806
 20
4.293673832224186
 30
0.0
 10
7.382686487048076
 20
4.424906401144085
 30
0.0
 10
7.382686487048076
 20
4.513454775297986
 30
0.0
 10
7.382686487048076
 20
4.513454775297986
 30
0.0
 10
7.429958310919317
 20
4.513454775297986
 30
0.0
 10
7.429958310919317
 20
4.513454775297986
 30
0.0
 10
7.429958310919317
 20
4.385042878306592
 30
0.0
 10
7.348819583539579
 20
4.246402008352902
 30
0.0
 10
7.217939598610669
 20
4.246402008352902
 30
0.0
  0
SPLINE
  5
CBA
330
1F
100
AcDbEntity
  8
Livello 1
100
AcDbSpline
210
0.0
220
0.0
230
1.0
 70
     9
 71
     3
 72
    17
 73
    13
 74
     0
 42
0.000000001
 43
0.0000000001
 40
0.0
 40
0.0
 40
0.0
 40
0.0
 40
1.0
 40
1.0
 40
1.0
 40
2.0
 40
2.0
 40
2.0
 40
3.0
 40
3.0
 40
3.0
 40
4.0
 40
4.0
 40
4.0
 40
4.0
 10
7.430029635161787
 20
4.513594732302095
 30
0.0
 10
7.430029635161787
 20
4.513594732302095
 30
0.0
 10
7.382756465550116
 20
4.513594732302095
 30
0.0
 10
7.382756465550116
 20
4.513594732302095
 30
0.0
 10
7.382756465550116
 20
4.602141760715582
 30
0.0
 10
7.33019319033201
 20
4.733374329635481
 30
0.0
 10
7.218009577112709
 20
4.733374329635481
 30
0.0
 10
7.218009577112709
 20
4.733374329635481
 30
0.0
 10
7.218009577112709
 20
4.780647499247194
 30
0.0
 10
7.218009577112709
 20
4.780647499247194
 30
0.0
 10
7.348889562041605
 20
4.780647499247194
 30
0.0
 10
7.430029635161787
 20
4.642005283553089
 30
0.0
 10
7.430029635161787
 20
4.513594732302095
 30
0.0
  0
SPLINE
  5
CBB
330
1F
100
AcDbEntity
  8
Livello 1
100
AcDbSpline
210
0.0
220
0.0
230
1.0
 70
     9
 71
     3
 72
    17
 73
    13
 74
     0
 42
0.000000001
 43
0.0000000001
 40
0.0
 40
0.0
 40
0.0
 40
0.0
 40
1.0
 40
1.0
 40
1.0
 40
2.0
 40
2.0
 40
2.0
 40
3.0
 40
3.0
 40
3.0
 40
4.0
 40
4.0
 40
4.0
 40
4.0
 10
2.217067252770902
 20
4.246402008352902
 30
0.0
 10
2.086185922101577
 20
4.246402008352902
 30
0.0
 10
2.005047194721825
 20
4.385042878306592
 30
0.0
 10
2.005047194721825
 20
4.513454775297986
 30
0.0
 10
2.005047194721825
 20
4.513454775297986
 30
0.0
 10
2.052319018593081
 20
4.513454775297986
 30
0.0
 10
2.052319018593081
 20
4.513454775297986
 30
0.0
 10
2.052319018593081
 20
4.424906401144085
 30
0.0
 10
2.104531055560542
 20
4.293673832224186
 30
0.0
 10
2.217067252770902
 20
4.293673832224186
 30
0.0
 10
2.217067252770902
 20
4.293673832224186
 30
0.0
 10
2.217067252770902
 20
4.246402008352902
 30
0.0
 10
2.217067252770902
 20
4.246402008352902
 30
0.0
  0
SPLINE
  5
CBC
330
1F
100
AcDbEntity
  8
Livello 1
100
AcDbSpline
210
0.0
220
0.0
230
1.0
 70
     9
 71
     3
 72
    17
 73
    13
 74
     0
 42
0.000000001
 43
0.0000000001
 40
0.0
 40
0.0
 40
0.0
 40
0.0
 40
1.0
 40
1.0
 40
1.0
 40
2.0
 40
2.0
 40
2.0
 40
3.0
 40
3.0
 40
3.0
 40
4.0
 40
4.0
 40
4.0
 40
4.0
 10
2.05228537508249
 20
4.513594732302095
 30
0.0
 10
2.05228537508249
 20
4.513594732302095
 30
0.0
 10
2.005012205470805
 20
4.513594732302095
 30
0.0
 10
2.005012205470805
 20
4.513594732302095
 30
0.0
 10
2.005012205470805
 20
4.642005283553089
 30
0.0
 10
2.086150932850557
 20
4.780647499247194
 30
0.0
 10
2.217032263519868
 20
4.780647499247194
 30
0.0
 10
2.217032263519868
 20
4.780647499247194
 30
0.0
 10
2.217032263519868
 20
4.733374329635481
 30
0.0
 10
2.217032263519868
 20
4.733374329635481
 30
0.0
 10
2.104496066309508
 20
4.733374329635481
 30
0.0
 10
2.05228537508249
 20
4.602141760715582
 30
0.0
 10
2.05228537508249
 20
4.513594732302095
 30
0.0
  0
SPLINE
  5
CBD
330
1F
100
AcDbEntity
  8
Livello 1
100
AcDbSpline
210
0.0
220
0.0
230
1.0
 70
     9
 71
     3
 72
    17
 73
    13
 74
     0
 42
0.000000001
 43
0.0000000001
 40
0.0
 40
0.0
 40
0.0
 40
0.0
 40
1.0
 40
1.0
 40
1.0
 40
2.0
 40
2.0
 40
2.0
 40
3.0
 40
3.0
 40
3.0
 40
4.0
 40
4.0
 40
4.0
 40
4.0
 10
8.208821730151413
 20
5.717732311601096
 30
0.0
 10
8.208821730151413
 20
5.717732311601096
 30
0.0
 10
8.20494061476883
 20
5.76500413547231
 30
0.0
 10
8.20494061476883
 20
5.76500413547231
 30
0.0
 10
8.23175045549425
 20
5.767120985159095
 30
0.0
 10
8.256797376264358
 20
5.77347018847918
 30
0.0
 10
8.28113912905232
 20
5.784759604895484
 30
0.0
 10
8.28113912905232
 20
5.784759604895484
 30
0.0
 10
8.300894598475565
 20
5.741720134657597
 30
0.0
 10
8.300894598475565
 20
5.741720134657597
 30
0.0
 10
8.271261394340712
 20
5.728315214294795
 30
0.0
 10
8.241275606214784
 20
5.720554329270086
 30
0.0
 10
8.208821730151413
 20
5.717732311601096
 30
0.0
  0
SPLINE
  5
CBE
330
1F
100
AcDbEntity
  8
Livello 1
100
AcDbSpline
210
0.0
220
0.0
230
1.0
 70
     9
 71
     3
 72
    23
 73
    19
 74
     0
 42
0.000000001
 43
0.0000000001
 40
0.0
 40
0.0
 40
0.0
 40
0.0
 40
1.0
 40
1.0
 40
1.0
 40
2.0
 40
2.0
 40
2.0
 40
3.0
 40
3.0
 40
3.0
 40
4.0
 40
4.0
 40
4.0
 40
5.0
 40
5.0
 40
5.0
 40
6.0
 40
6.0
 40
6.0
 40
6.0
 10
8.302342615171724
 20
5.742426648380089
 30
0.0
 10
8.302342615171724
 20
5.742426648380089
 30
0.0
 10
8.28258445426762
 20
5.785464772877674
 30
0.0
 10
8.28258445426762
 20
5.785464772877674
 30
0.0
 10
8.395828510940958
 20
5.83802939383618
 30
0.0
 10
8.44592235248119
 20
5.96890937876509
 30
0.0
 10
8.396181094932046
 20
6.083915009653381
 30
0.0
 10
8.346792421373976
 20
6.198568056550584
 30
0.0
 10
8.216968842677857
 20
6.252190429482297
 30
0.0
 10
8.100904114075973
 20
6.205623773593188
 30
0.0
 10
8.100904114075973
 20
6.205623773593188
 30
0.0
 10
8.083266840079986
 20
6.249367066072892
 30
0.0
 10
8.083266840079986
 20
6.249367066072892
 30
0.0
 10
8.223318045997942
 20
6.305811456673595
 30
0.0
 10
8.379951465419495
 20
6.241253597057095
 30
0.0
 10
8.439925733152193
 20
6.102612727103391
 30
0.0
 10
8.499544725412931
 20
5.964323095400402
 30
0.0
 10
8.439217873689187
 20
5.805925410282981
 30
0.0
 10
8.302342615171724
 20
5.742426648380089
 30
0.0
  0
SPLINE
  5
CBF
330
1F
100
AcDbEntity
  8
Livello 1
100
AcDbSpline
210
0.0
220
0.0
230
1.0
 70
     9
 71
     3
 72
    17
 73
    13
 74
     0
 42
0.000000001
 43
0.0000000001
 40
0.0
 40
0.0
 40
0.0
 40
0.0
 40
1.0
 40
1.0
 40
1.0
 40
2.0
 40
2.0
 40
2.0
 40
3.0
 40
3.0
 40
3.0
 40
4.0
 40
4.0
 40
4.0
 40
4.0
 10
1.089307171231823
 20
5.689474454179489
 30
0.0
 10
1.040976249646973
 20
5.72404652567009
 30
0.0
 10
1.010636531789558
 20
5.764615216489801
 30
0.0
 10
0.9905284783752392
 20
5.820354439108399
 30
0.0
 10
0.9905284783752392
 20
5.820354439108399
 30
0.0
 10
1.034978284577519
 20
5.836582722880478
 30
0.0
 10
1.034978284577519
 20
5.836582722880478
 30
0.0
 10
1.05191173633176
 20
5.789309553268807
 30
0.0
 10
1.076606073110809
 20
5.756854331464978
 30
0.0
 10
1.116823525679834
 20
5.7279262953123
 30
0.0
 10
1.116823525679834
 20
5.7279262953123
 30
0.0
 10
1.089307171231823
 20
5.689474454179489
 30
0.0
 10
1.089307171231823
 20
5.689474454179489
 30
0.0
  0
SPLINE
  5
CC0
330
1F
100
AcDbEntity
  8
Livello 1
100
AcDbSpline
210
0.0
220
0.0
230
1.0
 70
     9
 71
     3
 72
    17
 73
    13
 74
     0
 42
0.000000001
 43
0.0000000001
 40
0.0
 40
0.0
 40
0.0
 40
0.0
 40
1.0
 40
1.0
 40
1.0
 40
2.0
 40
2.0
 40
2.0
 40
3.0
 40
3.0
 40
3.0
 40
4.0
 40
4.0
 40
4.0
 40
4.0
 10
1.226080153477084
 20
5.638709088167686
 30
0.0
 10
1.21655500275655
 20
5.639414256149891
 30
0.0
 10
1.207382436027074
 20
5.640824592114086
 30
0.0
 10
1.197857285306525
 20
5.642588857809897
 30
0.0
 10
1.197857285306525
 20
5.642588857809897
 30
0.0
 10
1.207029852036001
 20
5.689155513698977
 30
0.0
 10
1.207029852036001
 20
5.689155513698977
 30
0.0
 10
1.214790737060781
 20
5.687745177734683
 30
0.0
 10
1.222199038094487
 20
5.686686080021104
 30
0.0
 10
1.23031250711034
 20
5.685980912038985
 30
0.0
 10
1.23031250711034
 20
5.685980912038985
 30
0.0
 10
1.226080153477084
 20
5.638709088167686
 30
0.0
 10
1.226080153477084
 20
5.638709088167686
 30
0.0
  0
SPLINE
  5
CC1
330
1F
100
AcDbEntity
  8
Livello 1
100
AcDbSpline
210
0.0
220
0.0
230
1.0
 70
     9
 71
     3
 72
    17
 73
    13
 74
     0
 42
0.000000001
 43
0.0000000001
 40
0.0
 40
0.0
 40
0.0
 40
0.0
 40
1.0
 40
1.0
 40
1.0
 40
2.0
 40
2.0
 40
2.0
 40
3.0
 40
3.0
 40
3.0
 40
4.0
 40
4.0
 40
4.0
 40
4.0
 10
1.41707301740233
 20
6.206964131055471
 30
0.0
 10
1.406488768968159
 20
6.212960750384496
 30
0.0
 10
1.395200698292271
 20
6.218604785722391
 30
0.0
 10
1.383911281875953
 20
6.223543653078181
 30
0.0
 10
1.383911281875953
 20
6.223543653078181
 30
0.0
 10
1.402608999325977
 20
6.266935707307283
 30
0.0
 10
1.402608999325977
 20
6.266935707307283
 30
0.0
 10
1.41566133569762
 20
6.261291671969289
 30
0.0
 10
1.428008504087159
 20
6.255293706899891
 30
0.0
 10
1.44035567247667
 20
6.248237989857301
 30
0.0
 10
1.44035567247667
 20
6.248237989857301
 30
0.0
 10
1.41707301740233
 20
6.206964131055471
 30
0.0
 10
1.41707301740233
 20
6.206964131055471
 30
0.0
  0
SPLINE
  5
CC2
330
1F
100
AcDbEntity
  8
Livello 1
100
AcDbSpline
210
0.0
220
0.0
230
1.0
 70
     9
 71
     3
 72
    23
 73
    19
 74
     0
 42
0.000000001
 43
0.0000000001
 40
0.0
 40
0.0
 40
0.0
 40
0.0
 40
1.0
 40
1.0
 40
1.0
 40
2.0
 40
2.0
 40
2.0
 40
3.0
 40
3.0
 40
3.0
 40
4.0
 40
4.0
 40
4.0
 40
5.0
 40
5.0
 40
5.0
 40
6.0
 40
6.0
 40
6.0
 40
6.0
 10
1.5297505173572
 20
5.649645920592988
 30
0.0
 10
1.5297505173572
 20
5.649645920592988
 30
0.0
 10
1.495177100126127
 20
5.682101142396803
 30
0.0
 10
1.495177100126127
 20
5.682101142396803
 30
0.0
 10
1.557972039787344
 20
5.748423267709085
 30
0.0
 10
1.590779845582233
 20
5.835206030426789
 30
0.0
 10
1.587252659931124
 20
5.926576422249681
 30
0.0
 10
1.584078058271089
 20
6.017592884341098
 30
0.0
 10
1.544919703415686
 20
6.1019062133808
 30
0.0
 10
1.477185896398665
 20
6.163289471337407
 30
0.0
 10
1.477185896398665
 20
6.163289471337407
 30
0.0
 10
1.508935950220333
 20
6.198568056550584
 30
0.0
 10
1.508935950220333
 20
6.198568056550584
 30
0.0
 10
1.586194907957917
 20
6.12836481585559
 30
0.0
 10
1.630644714160183
 20
6.032409486408482
 30
0.0
 10
1.63452448380238
 20
5.928339342204978
 30
0.0
 10
1.638405599184963
 20
5.824270543741974
 30
0.0
 10
1.601364094016403
 20
5.725139266894387
 30
0.0
 10
1.5297505173572
 20
5.649645920592988
 30
0.0
  0
SPLINE
  5
CC3
330
1F
100
AcDbEntity
  8
Livello 1
100
AcDbSpline
210
0.0
220
0.0
230
1.0
 70
     9
 71
     3
 72
    17
 73
    13
 74
     0
 42
0.000000001
 43
0.0000000001
 40
0.0
 40
0.0
 40
0.0
 40
0.0
 40
1.0
 40
1.0
 40
1.0
 40
2.0
 40
2.0
 40
2.0
 40
3.0
 40
3.0
 40
3.0
 40
4.0
 40
4.0
 40
4.0
 40
4.0
 10
1.38341874088077
 20
6.22368495582269
 30
0.0
 10
1.374951342133471
 20
6.227212141473799
 30
0.0
 10
1.366131359395041
 20
6.230739327124894
 30
0.0
 10
1.35731272239704
 20
6.233562690534384
 30
0.0
 10
1.35731272239704
 20
6.233562690534384
 30
0.0
 10
1.37248190845554
 20
6.278365080727681
 30
0.0
 10
1.37248190845554
 20
6.278365080727681
 30
0.0
 10
1.382359643167148
 20
6.275190479067603
 30
0.0
 10
1.392237377878757
 20
6.271309363684991
 30
0.0
 10
1.402115112590394
 20
6.267075664311391
 30
0.0
 10
1.402115112590394
 20
6.267075664311391
 30
0.0
 10
1.38341874088077
 20
6.22368495582269
 30
0.0
 10
1.38341874088077
 20
6.22368495582269
 30
0.0
  0
POLYLINE
  5
CC4
330
1F
100
AcDbEntity
  8
Livello 1
100
AcDb2dPolyline
 66
     1
 10
0.0
 20
0.0
 30
0.0
  0
VERTEX
  5
CC5
330
CC4
100
AcDbEntity
  8
Livello 1
100
AcDbVertex
100
AcDb2dVertex
 10
8.304388140616069
 20
3.160374683100187
 30
0.0
  0
VERTEX
  5
CC6
330
CC4
100
AcDbEntity
  8
Livello 1
100
AcDbVertex
100
AcDb2dVertex
 10
8.257114971004398
 20
3.160374683100187
 30
0.0
  0
VERTEX
  5
CC7
330
CC4
100
AcDbEntity
  8
Livello 1
100
AcDbVertex
100
AcDb2dVertex
 10
8.257114971004398
 20
5.505640929309493
 30
0.0
  0
VERTEX
  5
CC8
330
CC4
100
AcDbEntity
  8
Livello 1
100
AcDbVertex
100
AcDb2dVertex
 10
8.304388140616069
 20
5.505640929309493
 30
0.0
  0
VERTEX
  5
CC9
330
CC4
100
AcDbEntity
  8
Livello 1
100
AcDbVertex
100
AcDb2dVertex
 10
8.304388140616069
 20
3.160374683100187
 30
0.0
  0
SEQEND
  5
CCA
330
CC4
100
AcDbEntity
  8
Livello 1
  0
POLYLINE
  5
CCB
330
1F
100
AcDbEntity
  8
Livello 1
100
AcDb2dPolyline
 66
     1
 10
0.0
 20
0.0
 30
0.0
  0
VERTEX
  5
CCC
330
CCB
100
AcDbEntity
  8
Livello 1
100
AcDbVertex
100
AcDb2dVertex
 10
0.4561416847364655
 20
3.016088432068187
 30
0.0
  0
VERTEX
  5
CCD
330
CCB
100
AcDbEntity
  8
Livello 1
100
AcDbVertex
100
AcDb2dVertex
 10
0.4088698608652379
 20
3.016088432068187
 30
0.0
  0
VERTEX
  5
CCE
330
CCB
100
AcDbEntity
  8
Livello 1
100
AcDbVertex
100
AcDb2dVertex
 10
0.4088698608652379
 20
3.160374683100187
 30
0.0
  0
VERTEX
  5
CCF
330
CCB
100
AcDbEntity
  8
Livello 1
100
AcDbVertex
100
AcDb2dVertex
 10
0.4561416847364655
 20
3.160374683100187
 30
0.0
  0
VERTEX
  5
CD0
330
CCB
100
AcDbEntity
  8
Livello 1
100
AcDbVertex
100
AcDb2dVertex
 10
0.4561416847364655
 20
3.016088432068187
 30
0.0
  0
SEQEND
  5
CD1
330
CCB
100
AcDbEntity
  8
Livello 1
  0
POLYLINE
  5
CD2
330
1F
100
AcDbEntity
  8
Livello 1
100
AcDb2dPolyline
 66
     1
 10
0.0
 20
0.0
 30
0.0
  0
VERTEX
  5
CD3
330
CD2
100
AcDbEntity
  8
Livello 1
100
AcDbVertex
100
AcDb2dVertex
 10
9.02617332550777
 20
3.016088432068187
 30
0.0
  0
VERTEX
  5
CD4
330
CD2
100
AcDbEntity
  8
Livello 1
100
AcDbVertex
100
AcDb2dVertex
 10
8.978900155896113
 20
3.016088432068187
 30
0.0
  0
VERTEX
  5
CD5
330
CD2
100
AcDbEntity
  8
Livello 1
100
AcDbVertex
100
AcDb2dVertex
 10
8.978900155896113
 20
3.160374683100187
 30
0.0
  0
VERTEX
  5
CD6
330
CD2
100
AcDbEntity
  8
Livello 1
100
AcDbVertex
100
AcDb2dVertex
 10
9.02617332550777
 20
3.160374683100187
 30
0.0
  0
VERTEX
  5
CD7
330
CD2
100
AcDbEntity
  8
Livello 1
100
AcDbVertex
100
AcDb2dVertex
 10
9.02617332550777
 20
3.016088432068187
 30
0.0
  0
SEQEND
  5
CD8
330
CD2
100
AcDbEntity
  8
Livello 1
  0
POLYLINE
  5
CD9
330
1F
100
AcDbEntity
  8
Livello 1
100
AcDb2dPolyline
 66
     1
 10
0.0
 20
0.0
 30
0.0
  0
VERTEX
  5
CDA
330
CD9
100
AcDbEntity
  8
Livello 1
100
AcDbVertex
100
AcDb2dVertex
 10
1.867959309217383
 20
3.160374683100187
 30
0.0
  0
VERTEX
  5
CDB
330
CD9
100
AcDbEntity
  8
Livello 1
100
AcDbVertex
100
AcDb2dVertex
 10
1.820687485346127
 20
3.160374683100187
 30
0.0
  0
VERTEX
  5
CDC
330
CD9
100
AcDbEntity
  8
Livello 1
100
AcDbVertex
100
AcDb2dVertex
 10
1.820687485346127
 20
3.385799661511981
 30
0.0
  0
VERTEX
  5
CDD
330
CD9
100
AcDbEntity
  8
Livello 1
100
AcDbVertex
100
AcDb2dVertex
 10
1.867959309217383
 20
3.385799661511981
 30
0.0
  0
VERTEX
  5
CDE
330
CD9
100
AcDbEntity
  8
Livello 1
100
AcDbVertex
100
AcDb2dVertex
 10
1.867959309217383
 20
3.160374683100187
 30
0.0
  0
SEQEND
  5
CDF
330
CD9
100
AcDbEntity
  8
Livello 1
  0
POLYLINE
  5
CE0
330
1F
100
AcDbEntity
  8
Livello 1
100
AcDb2dPolyline
 66
     1
 10
0.0
 20
0.0
 30
0.0
  0
VERTEX
  5
CE1
330
CE0
100
AcDbEntity
  8
Livello 1
100
AcDbVertex
100
AcDb2dVertex
 10
2.633486440848358
 20
3.160374683100187
 30
0.0
  0
VERTEX
  5
CE2
330
CE0
100
AcDbEntity
  8
Livello 1
100
AcDbVertex
100
AcDb2dVertex
 10
2.586214616977116
 20
3.160374683100187
 30
0.0
  0
VERTEX
  5
CE3
330
CE0
100
AcDbEntity
  8
Livello 1
100
AcDbVertex
100
AcDb2dVertex
 10
2.586214616977116
 20
3.385799661511981
 30
0.0
  0
VERTEX
  5
CE4
330
CE0
100
AcDbEntity
  8
Livello 1
100
AcDbVertex
100
AcDb2dVertex
 10
2.633486440848358
 20
3.385799661511981
 30
0.0
  0
VERTEX
  5
CE5
330
CE0
100
AcDbEntity
  8
Livello 1
100
AcDbVertex
100
AcDb2dVertex
 10
2.633486440848358
 20
3.160374683100187
 30
0.0
  0
SEQEND
  5
CE6
330
CE0
100
AcDbEntity
  8
Livello 1
  0
SPLINE
  5
CE7
330
1F
100
AcDbEntity
  8
Livello 1
100
AcDbSpline
210
0.0
220
0.0
230
1.0
 70
     9
 71
     3
 72
    17
 73
    13
 74
     0
 42
0.000000001
 43
0.0000000001
 40
0.0
 40
0.0
 40
0.0
 40
0.0
 40
1.0
 40
1.0
 40
1.0
 40
2.0
 40
2.0
 40
2.0
 40
3.0
 40
3.0
 40
3.0
 40
4.0
 40
4.0
 40
4.0
 40
4.0
 10
1.115730784455607
 20
5.405064327246591
 30
0.0
 10
1.115730784455607
 20
5.405064327246591
 30
0.0
 10
1.073749066190814
 20
5.427289230347682
 30
0.0
 10
1.073749066190814
 20
5.427289230347682
 30
0.0
 10
1.090329933954009
 20
5.458685354437889
 30
0.0
 10
1.111497085081936
 20
5.483027107225879
 30
0.0
 10
1.140425121234642
 20
5.503841674362689
 30
0.0
 10
1.140425121234642
 20
5.503841674362689
 30
0.0
 10
1.168294059673726
 20
5.465388487489477
 30
0.0
 10
1.168294059673726
 20
5.465388487489477
 30
0.0
 10
1.145363988590446
 20
5.449161549457798
 30
0.0
 10
1.128783120827264
 20
5.429758664025598
 30
0.0
 10
1.115730784455607
 20
5.405064327246591
 30
0.0
  0
SPLINE
  5
CE8
330
1F
100
AcDbEntity
  8
Livello 1
100
AcDbSpline
210
0.0
220
0.0
230
1.0
 70
     9
 71
     3
 72
    50
 73
    46
 74
     0
 42
0.000000001
 43
0.0000000001
 40
0.0
 40
0.0
 40
0.0
 40
0.0
 40
1.0
 40
1.0
 40
1.0
 40
2.0
 40
2.0
 40
2.0
 40
3.0
 40
3.0
 40
3.0
 40
4.0
 40
4.0
 40
4.0
 40
5.0
 40
5.0
 40
5.0
 40
6.0
 40
6.0
 40
6.0
 40
7.0
 40
7.0
 40
7.0
 40
8.0
 40
8.0
 40
8.0
 40
9.0
 40
9.0
 40
9.0
 40
10.0
 40
10.0
 40
10.0
 40
11.0
 40
11.0
 40
11.0
 40
12.0
 40
12.0
 40
12.0
 40
13.0
 40
13.0
 40
13.0
 40
14.0
 40
14.0
 40
14.0
 40
15.0
 40
15.0
 40
15.0
 40
15.0
 10
1.413439518257732
 20
6.220087791669584
 30
0.0
 10
1.413439518257732
 20
6.220087791669584
 30
0.0
 10
1.397916402467728
 20
6.225026659025388
 30
0.0
 10
1.397916402467728
 20
6.225026659025388
 30
0.0
 10
1.397916402467728
 20
6.225026659025388
 30
0.0
 10
1.39826898645883
 20
6.222203295615983
 30
0.0
 10
1.39826898645883
 20
6.222203295615983
 30
0.0
 10
1.39826898645883
 20
6.222203295615983
 30
0.0
 10
1.397563818476669
 20
6.225026659025388
 30
0.0
 10
1.397563818476669
 20
6.225026659025388
 30
0.0
 10
1.397563818476669
 20
6.225026659025388
 30
0.0
 10
1.379572614749207
 20
6.230318110372294
 30
0.0
 10
1.379572614749207
 20
6.230318110372294
 30
0.0
 10
1.379572614749207
 20
6.230318110372294
 30
0.0
 10
1.377808349053438
 20
6.228906428667585
 30
0.0
 10
1.377808349053438
 20
6.228906428667585
 30
0.0
 10
1.377808349053438
 20
6.228906428667585
 30
0.0
 10
1.379220030758148
 20
6.230670694363297
 30
0.0
 10
1.379220030758148
 20
6.230670694363297
 30
0.0
 10
1.379220030758148
 20
6.230670694363297
 30
0.0
 10
1.368283198332903
 20
6.233845296023389
 30
0.0
 10
1.368283198332903
 20
6.233845296023389
 30
0.0
 10
1.368988366315036
 20
6.236314729701291
 30
0.0
 10
1.369694880037599
 20
6.239136747370196
 30
0.0
 10
1.370400048019732
 20
6.241606181048183
 30
0.0
 10
1.370400048019732
 20
6.241606181048183
 30
0.0
 10
1.372164313715501
 20
6.247956730108683
 30
0.0
 10
1.372164313715501
 20
6.247956730108683
 30
0.0
 10
1.372164313715501
 20
6.247956730108683
 30
0.0
 10
1.391919783138732
 20
6.241958765039186
 30
0.0
 10
1.391919783138732
 20
6.241958765039186
 30
0.0
 10
1.391919783138732
 20
6.241958765039186
 30
0.0
 10
1.393330119102998
 20
6.243017862752793
 30
0.0
 10
1.393330119102998
 20
6.243017862752793
 30
0.0
 10
1.393330119102998
 20
6.243017862752793
 30
0.0
 10
1.387333499773987
 20
6.26841736751399
 30
0.0
 10
1.387333499773987
 20
6.26841736751399
 30
0.0
 10
1.387333499773987
 20
6.26841736751399
 30
0.0
 10
1.413085588526229
 20
6.260303898498179
 30
0.0
 10
1.413085588526229
 20
6.260303898498179
 30
0.0
 10
1.42331725296934
 20
6.248661898090787
 30
0.0
 10
1.418024455882047
 20
6.234904393736982
 30
0.0
 10
1.416261535926693
 20
6.230670694363297
 30
0.0
 10
1.415555022204131
 20
6.22749609270329
 30
0.0
 10
1.414497270230938
 20
6.223614977320679
 30
0.0
 10
1.413439518257732
 20
6.220087791669584
 30
0.0
  0
SPLINE
  5
CE9
330
1F
100
AcDbEntity
  8
Livello 1
100
AcDbSpline
210
0.0
220
0.0
230
1.0
 70
     9
 71
     3
 72
    17
 73
    13
 74
     0
 42
0.000000001
 43
0.0000000001
 40
0.0
 40
0.0
 40
0.0
 40
0.0
 40
1.0
 40
1.0
 40
1.0
 40
2.0
 40
2.0
 40
2.0
 40
3.0
 40
3.0
 40
3.0
 40
4.0
 40
4.0
 40
4.0
 40
4.0
 10
0.8866723068992143
 20
5.789522180255801
 30
0.0
 10
0.8686797574313231
 20
5.84243803946498
 30
0.0
 10
0.8626831381023123
 20
5.893238394727788
 30
0.0
 10
0.8676220054581307
 20
5.948977617346386
 30
0.0
 10
0.8676220054581307
 20
5.948977617346386
 30
0.0
 10
0.9148938293293582
 20
5.944391333981599
 30
0.0
 10
0.9148938293293582
 20
5.944391333981599
 30
0.0
 10
0.9103075459645992
 20
5.89570782840569
 30
0.0
 10
0.915598997311477
 20
5.851258022203396
 30
0.0
 10
0.9314746970925398
 20
5.804691366314301
 30
0.0
 10
0.9314746970925398
 20
5.804691366314301
 30
0.0
 10
0.8866723068992143
 20
5.789522180255801
 30
0.0
 10
0.8866723068992143
 20
5.789522180255801
 30
0.0
  0
SPLINE
  5
CEA
330
1F
100
AcDbEntity
  8
Livello 1
100
AcDbSpline
210
0.0
220
0.0
230
1.0
 70
     9
 71
     3
 72
    17
 73
    13
 74
     0
 42
0.000000001
 43
0.0000000001
 40
0.0
 40
0.0
 40
0.0
 40
0.0
 40
1.0
 40
1.0
 40
1.0
 40
2.0
 40
2.0
 40
2.0
 40
3.0
 40
3.0
 40
3.0
 40
4.0
 40
4.0
 40
4.0
 40
4.0
 10
0.9891181424109873
 20
5.824553149230979
 30
0.0
 10
0.9760644602989003
 20
5.862652406372802
 30
0.0
 10
0.9718307609252434
 20
5.899341327550303
 30
0.0
 10
0.9753592923167673
 20
5.939557434378897
 30
0.0
 10
0.9753592923167673
 20
5.939557434378897
 30
0.0
 10
1.022631116188009
 20
5.935325080745585
 30
0.0
 10
1.022631116188009
 20
5.935325080745585
 30
0.0
 10
1.019456514527973
 20
5.90181076122819
 30
0.0
 10
1.022983700179068
 20
5.871472389111175
 30
0.0
 10
1.033920532604312
 20
5.839722335289479
 30
0.0
 10
1.033920532604312
 20
5.839722335289479
 30
0.0
 10
0.9891181424109873
 20
5.824553149230979
 30
0.0
 10
0.9891181424109873
 20
5.824553149230979
 30
0.0
  0
SPLINE
  5
CEB
330
1F
100
AcDbEntity
  8
Livello 1
100
AcDbSpline
210
0.0
220
0.0
230
1.0
 70
     9
 71
     3
 72
    17
 73
    13
 74
     0
 42
0.000000001
 43
0.0000000001
 40
0.0
 40
0.0
 40
0.0
 40
0.0
 40
1.0
 40
1.0
 40
1.0
 40
2.0
 40
2.0
 40
2.0
 40
3.0
 40
3.0
 40
3.0
 40
4.0
 40
4.0
 40
4.0
 40
4.0
 10
1.022562483426369
 20
5.935113799499092
 30
0.0
 10
1.022562483426369
 20
5.935113799499092
 30
0.0
 10
0.9752893138147129
 20
5.939698737123379
 30
0.0
 10
0.9752893138147129
 20
5.939698737123379
 30
0.0
 10
0.9862261462399715
 20
6.052941448056301
 30
0.0
 10
1.06701228962865
 20
6.149954529476687
 30
0.0
 10
1.176372539438546
 20
6.180646831325191
 30
0.0
 10
1.176372539438546
 20
6.180646831325191
 30
0.0
 10
1.189426221550633
 20
6.135137927409289
 30
0.0
 10
1.189426221550633
 20
6.135137927409289
 30
0.0
 10
1.098408413718829
 20
6.10938583865699
 30
0.0
 10
1.03138112042437
 20
6.029304863250487
 30
0.0
 10
1.022562483426369
 20
5.935113799499092
 30
0.0
  0
SPLINE
  5
CEC
330
1F
100
AcDbEntity
  8
Livello 1
100
AcDbSpline
210
0.0
220
0.0
230
1.0
 70
     9
 71
     3
 72
    23
 73
    19
 74
     0
 42
0.000000001
 43
0.0000000001
 40
0.0
 40
0.0
 40
0.0
 40
0.0
 40
1.0
 40
1.0
 40
1.0
 40
2.0
 40
2.0
 40
2.0
 40
3.0
 40
3.0
 40
3.0
 40
4.0
 40
4.0
 40
4.0
 40
5.0
 40
5.0
 40
5.0
 40
6.0
 40
6.0
 40
6.0
 40
6.0
 10
0.9148938293293582
 20
5.946366880923889
 30
0.0
 10
0.9148938293293582
 20
5.946366880923889
 30
0.0
 10
0.8679732437087608
 20
5.95095181854819
 30
0.0
 10
0.8679732437087608
 20
5.95095181854819
 30
0.0
 10
0.8792626601250788
 20
6.068074299123296
 30
0.0
 10
0.942410183777369
 20
6.1721444433268
 30
0.0
 10
1.041187530893523
 20
6.235997134961195
 30
0.0
 10
1.139964878009649
 20
6.299849826595689
 30
0.0
 10
1.260615889976293
 20
6.315019012654104
 30
0.0
 10
1.372092989473031
 20
6.277272339503483
 30
0.0
 10
1.372092989473031
 20
6.277272339503483
 30
0.0
 10
1.356923803414545
 20
6.232468603569685
 30
0.0
 10
1.356923803414545
 20
6.232468603569685
 30
0.0
 10
1.259204208271597
 20
6.265277755104989
 30
0.0
 10
1.15337114411281
 20
6.252224072992888
 30
0.0
 10
1.06694096538618
 20
6.196132266383287
 30
0.0
 10
0.9801568569280618
 20
6.140041805514087
 30
0.0
 10
0.9247715640409666
 20
6.049023997682297
 30
0.0
 10
0.9148938293293582
 20
5.946366880923889
 30
0.0
  0
SPLINE
  5
CED
330
1F
100
AcDbEntity
  8
Livello 1
100
AcDbSpline
210
0.0
220
0.0
230
1.0
 70
     9
 71
     3
 72
    17
 73
    13
 74
     0
 42
0.000000001
 43
0.0000000001
 40
0.0
 40
0.0
 40
0.0
 40
0.0
 40
1.0
 40
1.0
 40
1.0
 40
2.0
 40
2.0
 40
2.0
 40
3.0
 40
3.0
 40
3.0
 40
4.0
 40
4.0
 40
4.0
 40
4.0
 10
1.226326423974668
 20
5.630136721667298
 30
0.0
 10
1.215742175540498
 20
5.630841889649474
 30
0.0
 10
1.205159272846728
 20
5.632252225613683
 30
0.0
 10
1.194576370152987
 20
5.634369075300583
 30
0.0
 10
1.194576370152987
 20
5.634369075300583
 30
0.0
 10
1.203395007150959
 20
5.680935731189677
 30
0.0
 10
1.203395007150959
 20
5.680935731189677
 30
0.0
 10
1.212214989889389
 20
5.679172811234295
 30
0.0
 10
1.221033626887376
 20
5.678113713520687
 30
0.0
 10
1.229853609625777
 20
5.677408545538582
 30
0.0
 10
1.229853609625777
 20
5.677408545538582
 30
0.0
 10
1.226326423974668
 20
5.630136721667298
 30
0.0
 10
1.226326423974668
 20
5.630136721667298
 30
0.0
  0
SPLINE
  5
CEE
330
1F
100
AcDbEntity
  8
Livello 1
100
AcDbSpline
210
0.0
220
0.0
230
1.0
 70
     9
 71
     3
 72
    17
 73
    13
 74
     0
 42
0.000000001
 43
0.0000000001
 40
0.0
 40
0.0
 40
0.0
 40
0.0
 40
1.0
 40
1.0
 40
1.0
 40
2.0
 40
2.0
 40
2.0
 40
3.0
 40
3.0
 40
3.0
 40
4.0
 40
4.0
 40
4.0
 40
4.0
 10
1.085497380091695
 20
5.679455416723385
 30
0.0
 10
1.050923962860622
 20
5.703090655788784
 30
0.0
 10
1.024819290117306
 20
5.730607010236809
 30
0.0
 10
1.002946971007247
 20
5.765885595449987
 30
0.0
 10
1.002946971007247
 20
5.765885595449987
 30
0.0
 10
1.043163077835842
 20
5.790932516220095
 30
0.0
 10
1.043163077835842
 20
5.790932516220095
 30
0.0
 10
1.061508211294793
 20
5.761299312085284
 30
0.0
 10
1.083380530404852
 20
5.738015311270487
 30
0.0
 10
1.112307220817143
 20
5.718612425838287
 30
0.0
 10
1.112307220817143
 20
5.718612425838287
 30
0.0
 10
1.085497380091695
 20
5.679455416723385
 30
0.0
 10
1.085497380091695
 20
5.679455416723385
 30
0.0
  0
POLYLINE
  5
CEF
330
1F
100
AcDbEntity
  8
Livello 1
100
AcDb2dPolyline
 66
     1
 10
0.0
 20
0.0
 30
0.0
  0
VERTEX
  5
CF0
330
CEF
100
AcDbEntity
  8
Livello 1
100
AcDbVertex
100
AcDb2dVertex
 10
1.218424236205365
 20
5.705490110964589
 30
0.0
  0
VERTEX
  5
CF1
330
CEF
100
AcDbEntity
  8
Livello 1
100
AcDbVertex
100
AcDb2dVertex
 10
1.119998127339869
 20
5.747823067480098
 30
0.0
  0
VERTEX
  5
CF2
330
CEF
100
AcDbEntity
  8
Livello 1
100
AcDbVertex
100
AcDb2dVertex
 10
1.138695844789893
 20
5.791213775968685
 30
0.0
  0
VERTEX
  5
CF3
330
CEF
100
AcDbEntity
  8
Livello 1
100
AcDbVertex
100
AcDb2dVertex
 10
1.23712060791496
 20
5.748880819453304
 30
0.0
  0
VERTEX
  5
CF4
330
CEF
100
AcDbEntity
  8
Livello 1
100
AcDbVertex
100
AcDb2dVertex
 10
1.218424236205365
 20
5.705490110964589
 30
0.0
  0
SEQEND
  5
CF5
330
CEF
100
AcDbEntity
  8
Livello 1
  0
SPLINE
  5
CF6
330
1F
100
AcDbEntity
  8
Livello 1
100
AcDbSpline
210
0.0
220
0.0
230
1.0
 70
     9
 71
     3
 72
    17
 73
    13
 74
     0
 42
0.000000001
 43
0.0000000001
 40
0.0
 40
0.0
 40
0.0
 40
0.0
 40
1.0
 40
1.0
 40
1.0
 40
2.0
 40
2.0
 40
2.0
 40
3.0
 40
3.0
 40
3.0
 40
4.0
 40
4.0
 40
4.0
 40
4.0
 10
8.331800873051435
 20
5.489166375039786
 30
0.0
 10
8.312750571610337
 20
5.530440233841602
 30
0.0
 10
8.240783065219645
 20
5.576654305739694
 30
0.0
 10
8.198448762963792
 20
5.592882589511802
 30
0.0
 10
8.198448762963792
 20
5.592882589511802
 30
0.0
 10
8.215383560458477
 20
5.637332395714096
 30
0.0
 10
8.215383560458477
 20
5.637332395714096
 30
0.0
 10
8.266182569980827
 20
5.617929510281896
 30
0.0
 10
8.349085563056334
 20
5.565012305332302
 30
0.0
 10
8.374837651808576
 20
5.508921844463088
 30
0.0
 10
8.374837651808576
 20
5.508921844463088
 30
0.0
 10
8.331800873051435
 20
5.489166375039786
 30
0.0
 10
8.331800873051435
 20
5.489166375039786
 30
0.0
  0
SPLINE
  5
CF7
330
1F
100
AcDbEntity
  8
Livello 1
100
AcDbSpline
210
0.0
220
0.0
230
1.0
 70
     9
 71
     3
 72
    17
 73
    13
 74
     0
 42
0.000000001
 43
0.0000000001
 40
0.0
 40
0.0
 40
0.0
 40
0.0
 40
1.0
 40
1.0
 40
1.0
 40
2.0
 40
2.0
 40
2.0
 40
3.0
 40
3.0
 40
3.0
 40
4.0
 40
4.0
 40
4.0
 40
4.0
 10
8.430190646925495
 20
5.53428770571358
 30
0.0
 10
8.39350038000758
 20
5.614014751388694
 30
0.0
 10
8.28696080212623
 20
5.681042044683181
 30
0.0
 10
8.20053196914003
 20
5.706090311193676
 30
0.0
 10
8.20053196914003
 20
5.706090311193676
 30
0.0
 10
8.213582959771258
 20
5.751597869369192
 30
0.0
 10
8.213582959771258
 20
5.751597869369192
 30
0.0
 10
8.307421439531594
 20
5.724434098912183
 30
0.0
 10
8.428777619480371
 20
5.651056256557296
 30
0.0
 10
8.473227425682637
 20
5.554043175136897
 30
0.0
 10
8.473227425682637
 20
5.554043175136897
 30
0.0
 10
8.430190646925495
 20
5.53428770571358
 30
0.0
 10
8.430190646925495
 20
5.53428770571358
 30
0.0
  0
SPLINE
  5
CF8
330
1F
100
AcDbEntity
  8
Livello 1
100
AcDbSpline
210
0.0
220
0.0
230
1.0
 70
     9
 71
     3
 72
    23
 73
    19
 74
     0
 42
0.000000001
 43
0.0000000001
 40
0.0
 40
0.0
 40
0.0
 40
0.0
 40
1.0
 40
1.0
 40
1.0
 40
2.0
 40
2.0
 40
2.0
 40
3.0
 40
3.0
 40
3.0
 40
4.0
 40
4.0
 40
4.0
 40
5.0
 40
5.0
 40
5.0
 40
6.0
 40
6.0
 40
6.0
 40
6.0
 10
7.903774673817622
 20
5.777951504090893
 30
0.0
 10
7.835335698818454
 20
5.865439434790687
 30
0.0
 10
7.811346530021538
 20
5.977270464018985
 30
0.0
 10
7.837803786755941
 20
6.085220377864601
 30
0.0
 10
7.864616318962234
 20
6.192817707719186
 30
0.0
 10
7.937638885845288
 20
6.281012152141485
 30
0.0
 10
8.0385344283887
 20
6.326873640048489
 30
0.0
 10
8.0385344283887
 20
6.326873640048489
 30
0.0
 10
8.058289897811945
 20
6.283834169810489
 30
0.0
 10
8.058289897811945
 20
6.283834169810489
 30
0.0
 10
7.970448037380606
 20
6.243970646972982
 30
0.0
 10
7.906947929737242
 20
6.167416857217588
 30
0.0
 10
7.884016512913547
 20
6.073930961448297
 30
0.0
 10
7.860735203579622
 20
5.98009248168789
 30
0.0
 10
7.881901008967119
 20
5.883078054527103
 30
0.0
 10
7.941167417236826
 20
5.807230778494286
 30
0.0
 10
7.941167417236826
 20
5.807230778494286
 30
0.0
 10
7.903774673817622
 20
5.777951504090893
 30
0.0
 10
7.903774673817622
 20
5.777951504090893
 30
0.0
  0
SPLINE
  5
CF9
330
1F
100
AcDbEntity
  8
Livello 1
100
AcDbSpline
210
0.0
220
0.0
230
1.0
 70
     9
 71
     3
 72
    29
 73
    25
 74
     0
 42
0.000000001
 43
0.0000000001
 40
0.0
 40
0.0
 40
0.0
 40
0.0
 40
1.0
 40
1.0
 40
1.0
 40
2.0
 40
2.0
 40
2.0
 40
3.0
 40
3.0
 40
3.0
 40
4.0
 40
4.0
 40
4.0
 40
5.0
 40
5.0
 40
5.0
 40
6.0
 40
6.0
 40
6.0
 40
7.0
 40
7.0
 40
7.0
 40
8.0
 40
8.0
 40
8.0
 40
8.0
 10
8.307634066518573
 20
5.662134391726979
 30
0.0
 10
8.297401056335047
 20
5.677656161776582
 30
0.0
 10
8.28999410104177
 20
5.694237029539806
 30
0.0
 10
8.283644897721686
 20
5.708347117884585
 30
0.0
 10
8.269180879645332
 20
5.737980322019481
 30
0.0
 10
8.259303144933724
 20
5.761969490816383
 30
0.0
 10
8.273059303547086
 20
5.778550358579494
 30
0.0
 10
8.273059303547086
 20
5.778550358579494
 30
0.0
 10
8.309396986473927
 20
5.747858056731104
 30
0.0
 10
8.309396986473927
 20
5.747858056731104
 30
0.0
 10
8.313278101856525
 20
5.752798269827295
 30
0.0
 10
8.313630685847584
 20
5.757737137183099
 30
0.0
 10
8.313630685847584
 20
5.759500057138481
 30
0.0
 10
8.313983269838658
 20
5.757030623460579
 30
0.0
 10
8.315746189793998
 20
5.75068142014048
 30
0.0
 10
8.324918756523487
 20
5.731631118699382
 30
0.0
 10
8.324918756523487
 20
5.731631118699382
 30
0.0
 10
8.327034260469886
 20
5.727044835334595
 30
0.0
 10
8.327034260469886
 20
5.727044835334595
 30
0.0
 10
8.332680987288682
 20
5.714345082954082
 30
0.0
 10
8.339030190608767
 20
5.700586232859791
 30
0.0
 10
8.347497589356109
 20
5.687886480479193
 30
0.0
 10
8.347497589356109
 20
5.687886480479193
 30
0.0
 10
8.307634066518573
 20
5.662134391726979
 30
0.0
 10
8.307634066518573
 20
5.662134391726979
 30
0.0
  0
SPLINE
  5
CFA
330
1F
100
AcDbEntity
  8
Livello 1
100
AcDbSpline
210
0.0
220
0.0
230
1.0
 70
     9
 71
     3
 72
    41
 73
    37
 74
     0
 42
0.000000001
 43
0.0000000001
 40
0.0
 40
0.0
 40
0.0
 40
0.0
 40
1.0
 40
1.0
 40
1.0
 40
2.0
 40
2.0
 40
2.0
 40
3.0
 40
3.0
 40
3.0
 40
4.0
 40
4.0
 40
4.0
 40
5.0
 40
5.0
 40
5.0
 40
6.0
 40
6.0
 40
6.0
 40
7.0
 40
7.0
 40
7.0
 40
8.0
 40
8.0
 40
8.0
 40
9.0
 40
9.0
 40
9.0
 40
10.0
 40
10.0
 40
10.0
 40
11.0
 40
11.0
 40
11.0
 40
12.0
 40
12.0
 40
12.0
 40
12.0
 10
8.340760812793931
 20
5.648340552381782
 30
0.0
 10
8.340760812793931
 20
5.648340552381782
 30
0.0
 10
8.321357927361759
 20
5.691378676879295
 30
0.0
 10
8.321357927361759
 20
5.691378676879295
 30
0.0
 10
8.359808422754184
 20
5.709017296615684
 30
0.0
 10
8.394735769716746
 20
5.734064217385792
 30
0.0
 10
8.424721557842659
 20
5.766168200938977
 30
0.0
 10
8.453649593995379
 20
5.797564325029185
 30
0.0
 10
8.476930903329304
 20
5.834607175938188
 30
0.0
 10
8.491394921405643
 20
5.873411601062088
 30
0.0
 10
8.521380709531555
 20
5.952080894763895
 30
0.0
 10
8.518912621594083
 20
6.044509038559979
 30
0.0
 10
8.485045718085558
 20
6.121061482574987
 30
0.0
 10
8.4504736465949
 20
6.198320440312585
 30
0.0
 10
8.383092423568939
 20
6.262173131946994
 30
0.0
 10
8.304070545876029
 20
6.292158920072893
 30
0.0
 10
8.225401252174194
 20
6.321792124207789
 30
0.0
 10
8.133678276360242
 20
6.318970106538799
 30
0.0
 10
8.05853751404993
 20
6.283692867065994
 30
0.0
 10
8.05853751404993
 20
6.283692867065994
 30
0.0
 10
8.038429460635626
 20
6.326730991563593
 30
0.0
 10
8.038429460635626
 20
6.326730991563593
 30
0.0
 10
8.125213569093759
 20
6.366948444132603
 30
0.0
 10
8.230692703521057
 20
6.370475629783697
 30
0.0
 10
8.321002651889855
 20
6.336608726275187
 30
0.0
 10
8.411315291739512
 20
6.302036654784473
 30
0.0
 10
8.488926833468156
 20
6.229012742161089
 30
0.0
 10
8.528085188323544
 20
6.140464368007187
 30
0.0
 10
8.567596127170006
 20
6.051564755602598
 30
0.0
 10
8.570416799098538
 20
5.947848541130682
 30
0.0
 10
8.535844727607894
 20
5.85647814930779
 30
0.0
 10
8.518912621594083
 20
5.812028343105481
 30
0.0
 10
8.492452673378835
 20
5.769695386590086
 30
0.0
 10
8.45929362933333
 20
5.734064217385792
 30
0.0
 10
8.425074141833732
 20
5.697376641948807
 30
0.0
 10
8.385210618996197
 20
5.6684486057961
 30
0.0
 10
8.340760812793931
 20
5.648340552381782
 30
0.0
  0
SPLINE
  5
CFB
330
1F
100
AcDbEntity
  8
Livello 1
100
AcDbSpline
210
0.0
220
0.0
230
1.0
 70
     9
 71
     3
 72
    17
 73
    13
 74
     0
 42
0.000000001
 43
0.0000000001
 40
0.0
 40
0.0
 40
0.0
 40
0.0
 40
1.0
 40
1.0
 40
1.0
 40
2.0
 40
2.0
 40
2.0
 40
3.0
 40
3.0
 40
3.0
 40
4.0
 40
4.0
 40
4.0
 40
4.0
 10
2.412930351290327
 20
4.513594732302095
 30
0.0
 10
2.412930351290327
 20
4.513594732302095
 30
0.0
 10
2.365657181678656
 20
4.513594732302095
 30
0.0
 10
2.365657181678656
 20
4.513594732302095
 30
0.0
 10
2.365657181678656
 20
4.598613229323987
 30
0.0
 10
2.325441074850061
 20
4.733374329635481
 30
0.0
 10
2.217138577013372
 20
4.733374329635481
 30
0.0
 10
2.217138577013372
 20
4.733374329635481
 30
0.0
 10
2.217138577013372
 20
4.780647499247194
 30
0.0
 10
2.217138577013372
 20
4.780647499247194
 30
0.0
 10
2.35966056234966
 20
4.780647499247194
 30
0.0
 10
2.412930351290327
 20
4.61695836278298
 30
0.0
 10
2.412930351290327
 20
4.513594732302095
 30
0.0
  0
POLYLINE
  5
CFC
330
1F
100
AcDbEntity
  8
Livello 1
100
AcDb2dPolyline
 66
     1
 10
0.0
 20
0.0
 30
0.0
  0
VERTEX
  5
CFD
330
CFC
100
AcDbEntity
  8
Livello 1
100
AcDbVertex
100
AcDb2dVertex
 10
2.395714294047039
 20
4.489994482487688
 30
0.0
  0
VERTEX
  5
CFE
330
CFC
100
AcDbEntity
  8
Livello 1
100
AcDbVertex
100
AcDb2dVertex
 10
2.389363744986539
 20
4.489994482487688
 30
0.0
  0
VERTEX
  5
CFF
330
CFC
100
AcDbEntity
  8
Livello 1
100
AcDbVertex
100
AcDb2dVertex
 10
2.389363744986539
 20
4.537266306358901
 30
0.0
  0
VERTEX
  5
D00
330
CFC
100
AcDbEntity
  8
Livello 1
100
AcDbVertex
100
AcDb2dVertex
 10
2.395714294047039
 20
4.537266306358901
 30
0.0
  0
VERTEX
  5
D01
330
CFC
100
AcDbEntity
  8
Livello 1
100
AcDbVertex
100
AcDb2dVertex
 10
2.395714294047039
 20
4.489994482487688
 30
0.0
  0
SEQEND
  5
D02
330
CFC
100
AcDbEntity
  8
Livello 1
  0
SPLINE
  5
D03
330
1F
100
AcDbEntity
  8
Livello 1
100
AcDbSpline
210
0.0
220
0.0
230
1.0
 70
     9
 71
     3
 72
    17
 73
    13
 74
     0
 42
0.000000001
 43
0.0000000001
 40
0.0
 40
0.0
 40
0.0
 40
0.0
 40
1.0
 40
1.0
 40
1.0
 40
2.0
 40
2.0
 40
2.0
 40
3.0
 40
3.0
 40
3.0
 40
4.0
 40
4.0
 40
4.0
 40
4.0
 10
2.217067252770902
 20
4.246402008352902
 30
0.0
 10
2.217067252770902
 20
4.246402008352902
 30
0.0
 10
2.217067252770902
 20
4.293673832224186
 30
0.0
 10
2.217067252770902
 20
4.293673832224186
 30
0.0
 10
2.325369750607592
 20
4.293673832224186
 30
0.0
 10
2.365585857436187
 20
4.428787516526682
 30
0.0
 10
2.365585857436187
 20
4.513454775297986
 30
0.0
 10
2.365585857436187
 20
4.513454775297986
 30
0.0
 10
2.412857681307428
 20
4.513454775297986
 30
0.0
 10
2.412857681307428
 20
4.513454775297986
 30
0.0
 10
2.412857681307428
 20
4.410442383067788
 30
0.0
 10
2.35958923810719
 20
4.246402008352902
 30
0.0
 10
2.217067252770902
 20
4.246402008352902
 30
0.0
  0
SPLINE
  5
D04
330
1F
100
AcDbEntity
  8
Livello 1
100
AcDbSpline
210
0.0
220
0.0
230
1.0
 70
     9
 71
     3
 72
    17
 73
    13
 74
     0
 42
0.000000001
 43
0.0000000001
 40
0.0
 40
0.0
 40
0.0
 40
0.0
 40
1.0
 40
1.0
 40
1.0
 40
2.0
 40
2.0
 40
2.0
 40
3.0
 40
3.0
 40
3.0
 40
4.0
 40
4.0
 40
4.0
 40
4.0
 10
7.069384658953936
 20
4.513594732302095
 30
0.0
 10
7.069384658953936
 20
4.513594732302095
 30
0.0
 10
7.022111489342265
 20
4.513594732302095
 30
0.0
 10
7.022111489342265
 20
4.513594732302095
 30
0.0
 10
7.022111489342265
 20
4.61695836278298
 30
0.0
 10
7.075381278282947
 20
4.780647499247194
 30
0.0
 10
7.21790326361922
 20
4.780647499247194
 30
0.0
 10
7.21790326361922
 20
4.780647499247194
 30
0.0
 10
7.21790326361922
 20
4.733374329635481
 30
0.0
 10
7.21790326361922
 20
4.733374329635481
 30
0.0
 10
7.109600765782531
 20
4.733374329635481
 30
0.0
 10
7.069384658953936
 20
4.598613229323987
 30
0.0
 10
7.069384658953936
 20
4.513594732302095
 30
0.0
  0
POLYLINE
  5
D05
330
1F
100
AcDbEntity
  8
Livello 1
100
AcDb2dPolyline
 66
     1
 10
0.0
 20
0.0
 30
0.0
  0
VERTEX
  5
D06
330
D05
100
AcDbEntity
  8
Livello 1
100
AcDbVertex
100
AcDb2dVertex
 10
7.045678095646053
 20
4.489994482487688
 30
0.0
  0
VERTEX
  5
D07
330
D05
100
AcDbEntity
  8
Livello 1
100
AcDbVertex
100
AcDb2dVertex
 10
7.039327546585539
 20
4.489994482487688
 30
0.0
  0
VERTEX
  5
D08
330
D05
100
AcDbEntity
  8
Livello 1
100
AcDbVertex
100
AcDb2dVertex
 10
7.039327546585539
 20
4.537266306358901
 30
0.0
  0
VERTEX
  5
D09
330
D05
100
AcDbEntity
  8
Livello 1
100
AcDbVertex
100
AcDb2dVertex
 10
7.045678095646053
 20
4.537266306358901
 30
0.0
  0
VERTEX
  5
D0A
330
D05
100
AcDbEntity
  8
Livello 1
100
AcDbVertex
100
AcDb2dVertex
 10
7.045678095646053
 20
4.489994482487688
 30
0.0
  0
SEQEND
  5
D0B
330
D05
100
AcDbEntity
  8
Livello 1
  0
SPLINE
  5
D0C
330
1F
100
AcDbEntity
  8
Livello 1
100
AcDbSpline
210
0.0
220
0.0
230
1.0
 70
     9
 71
     3
 72
    17
 73
    13
 74
     0
 42
0.000000001
 43
0.0000000001
 40
0.0
 40
0.0
 40
0.0
 40
0.0
 40
1.0
 40
1.0
 40
1.0
 40
2.0
 40
2.0
 40
2.0
 40
3.0
 40
3.0
 40
3.0
 40
4.0
 40
4.0
 40
4.0
 40
4.0
 10
7.217939598610669
 20
4.246402008352902
 30
0.0
 10
7.075416267533967
 20
4.246402008352902
 30
0.0
 10
7.022147824333714
 20
4.410442383067788
 30
0.0
 10
7.022147824333714
 20
4.513454775297986
 30
0.0
 10
7.022147824333714
 20
4.513454775297986
 30
0.0
 10
7.06941964820497
 20
4.513454775297986
 30
0.0
 10
7.06941964820497
 20
4.513454775297986
 30
0.0
 10
7.06941964820497
 20
4.428787516526682
 30
0.0
 10
7.109635755033536
 20
4.293673832224186
 30
0.0
 10
7.217939598610669
 20
4.293673832224186
 30
0.0
 10
7.217939598610669
 20
4.293673832224186
 30
0.0
 10
7.217939598610669
 20
4.246402008352902
 30
0.0
 10
7.217939598610669
 20
4.246402008352902
 30
0.0
  0
ENDSEC
  0
SECTION
  2
OBJECTS
  0
DICTIONARY
  5
C
330
0
100
AcDbDictionary
281
     1
  3
ACAD_CIP_PREVIOUS_PRODUCT_INFO
350
216
  3
ACAD_COLOR
350
6B
  3
ACAD_DETAILVIEWSTYLE
350
21B
  3
ACAD_GROUP
350
D
  3
ACAD_LAYOUT
350
1A
  3
ACAD_MATERIAL
350
6A
  3
ACAD_MLEADERSTYLE
350
12D
  3
ACAD_MLINESTYLE
350
17
  3
ACAD_PLOTSETTINGS
350
19
  3
ACAD_PLOTSTYLENAME
350
E
  3
ACAD_SCALELIST
350
10C
  3
ACAD_SECTIONVIEWSTYLE
350
219
  3
ACAD_TABLESTYLE
350
7E
  3
ACAD_VISUALSTYLE
350
EF
  3
ACDB_RECOMPOSE_DATA
350
D0E
  3
AcDbVariableDictionary
350
5E
  3
AcDsDecomposeData
350
D14
  0
DICTIONARY
  5
1FF
330
2
100
AcDbDictionary
280
     1
281
     1
  3
ACAD_LAYERSTATES
360
200
  0
DICTIONARY
  5
13C
330
10
100
AcDbDictionary
280
     1
281
     1
  0
DICTIONARY
  5
1CE
330
1F
100
AcDbDictionary
280
     1
281
     1
  0
XRECORD
  5
216
102
{ACAD_REACTORS
330
C
102
}
330
C
100
AcDbXrecord
280
     1
300
ACD
300
2020
300

  0
DICTIONARY
  5
6B
102
{ACAD_REACTORS
330
C
102
}
330
C
100
AcDbDictionary
281
     1
  0
DICTIONARY
  5
21B
102
{ACAD_REACTORS
330
C
102
}
330
C
100
AcDbDictionary
281
     1
  3
Imperial24
350
28F
  3
Metric50
350
21C
  0
DICTIONARY
  5
D
102
{ACAD_REACTORS
330
C
102
}
330
C
100
AcDbDictionary
281
     1
  0
DICTIONARY
  5
1A
102
{ACAD_REACTORS
330
C
102
}
330
C
100
AcDbDictionary
281
     1
  3
Layout1
350
D3
  3
Layout2
350
D7
  3
Model
350
22
  0
DICTIONARY
  5
6A
102
{ACAD_REACTORS
330
C
102
}
330
C
100
AcDbDictionary
281
     1
  3
ByBlock
350
ED
  3
ByLayer
350
EC
  3
Global
350
EE
  0
DICTIONARY
  5
12D
102
{ACAD_REACTORS
330
C
102
}
330
C
100
AcDbDictionary
281
     1
  3
Annotativa
350
13B
  3
Standard
350
12E
  0
DICTIONARY
  5
17
102
{ACAD_REACTORS
330
C
102
}
330
C
100
AcDbDictionary
281
     1
  3
Standard
350
18
  0
DICTIONARY
  5
19
102
{ACAD_REACTORS
330
C
102
}
330
C
100
AcDbDictionary
281
     1
  0
ACDBDICTIONARYWDFLT
  5
E
102
{ACAD_REACTORS
330
C
102
}
330
C
100
AcDbDictionary
281
     1
  3
Normal
350
F
100
AcDbDictionaryWithDefault
340
F
  0
DICTIONARY
  5
10C
102
{ACAD_REACTORS
330
C
102
}
330
C
100
AcDbDictionary
281
     1
  3
A0
350
10D
  3
A1
350
1BE
  3
A2
350
1BF
  3
A3
350
1C0
  3
A4
350
1C1
  3
A5
350
1C2
  3
A6
350
1C3
  3
A7
350
1C4
  3
A8
350
1C5
  3
A9
350
1C6
  3
B0
350
1C7
  3
B1
350
1C8
  3
B2
350
1C9
  3
B3
350
1CA
  3
B4
350
1CB
  3
B5
350
1CC
  3
B6
350
1CD
  0
DICTIONARY
  5
219
102
{ACAD_REACTORS
330
C
102
}
330
C
100
AcDbDictionary
281
     1
  3
Imperial24
350
28E
  3
Metric50
350
21A
  0
DICTIONARY
  5
7E
102
{ACAD_REACTORS
330
C
102
}
330
C
100
AcDbDictionary
281
     1
  3
Standard
350
7F
  0
DICTIONARY
  5
EF
102
{ACAD_REACTORS
330
C
102
}
330
C
100
AcDbDictionary
281
     1
  3
2dWireframe
350
F5
  3
Basic
350
F4
  3
Brighten
350
FB
  3
ColorChange
350
FF
  3
Conceptual
350
F8
  3
Dim
350
FA
  3
EdgeColorOff
350
1E6
  3
Facepattern
350
FE
  3
Flat
350
F0
  3
FlatWithEdges
350
F1
  3
Gouraud
350
F2
  3
GouraudWithEdges
350
F3
  3
Hidden
350
F7
  3
JitterOff
350
1E4
  3
Linepattern
350
FD
  3
OverhangOff
350
1E5
  3
Realistic
350
F9
  3
Shaded
350
1F3
  3
Shaded with edges
350
1F2
  3
Shades of Gray
350
1EF
  3
Sketchy
350
1F0
  3
Thicken
350
FC
  3
Wireframe
350
F6
  3
X-Ray
350
1F1
  0
XRECORD
  5
D0E
102
{ACAD_REACTORS
330
C
102
}
330
C
100
AcDbXrecord
280
     1
 90
        1
330
7F
  0
DICTIONARY
  5
5E
102
{ACAD_REACTORS
330
C
102
}
330
C
100
AcDbDictionary
281
     1
  3
CANNOSCALE
350
146
  3
CENTEREXE
350
259
  3
CENTERLTYPEFILE
350
25A
  3
CMLEADERSTYLE
350
145
  3
CTABLESTYLE
350
84
  3
CVIEWDETAILSTYLE
350
227
  3
CVIEWSECTIONSTYLE
350
228
  3
DIMASSOC
350
5F
  3
HIDETEXT
350
63
  3
LAYEREVAL
350
1AE
  3
LAYERNOTIFY
350
1AF
  0
DICTIONARY
  5
D14
102
{ACAD_REACTORS
330
C
102
}
330
C
100
AcDbDictionary
281
     1
  3
AcDsRecords
350
D16
  3
AcDsSchemas
350
D15
1001
ACAD
1070
     2
  0
DICTIONARY
  5
200
102
{ACAD_REACTORS
330
1FF
102
}
330
1FF
100
AcDbDictionary
281
     1
  0
ACDBDETAILVIEWSTYLE
  5
28F
102
{ACAD_XDICTIONARY
360
D1D
102
}
102
{ACAD_REACTORS
330
21B
102
}
330
21B
100
AcDbModelDocViewStyle
 70
     0
  3
Imperial24
290
     0
100
AcDbDetailViewStyle
 70
     0
 71
     0
 90
        3
 71
     1
340
11
 62
   256
 40
0.24
340
0
 62
   256
 40
0.24
300

 40
0.36
280
     3
 71
     2
340
16
 90
       25
 62
   256
 71
     3
340
11
 62
   256
 40
0.24
 90
        1
 40
0.75
 90
        1
300
%<\AcVar ViewType \f "%tc1">% %<\AcVar ViewDetailId>%\PSCALA %<\AcVar ViewScale \f "%sn">%
 71
     4
340
16
 90
       25
 62
   256
340
16
 90
       25
 62
   256
280
     0
  0
ACDBDETAILVIEWSTYLE
  5
21C
102
{ACAD_XDICTIONARY
360
D19
102
}
102
{ACAD_REACTORS
330
21B
102
}
330
21B
100
AcDbModelDocViewStyle
 70
     0
  3
Metric50
290
     0
100
AcDbDetailViewStyle
 70
     0
 71
     0
 90
        3
 71
     1
340
11
 62
   256
 40
5.0
340
0
 62
   256
 40
5.0
300

 40
0.0
280
     1
 71
     2
340
16
 90
       25
 62
   256
 71
     3
340
11
 62
   256
 40
5.0
 90
        0
 40
15.0
 90
        1
300
%<\AcVar ViewDetailId>% (%<\AcVar ViewScale \f "%sn">%)
 71
     4
340
16
 90
       25
 62
   256
340
16
 90
       25
 62
   256
280
     0
  0
LAYOUT
  5
D3
102
{ACAD_REACTORS
330
1A
102
}
330
1A
100
AcDbPlotSettings
  1

  2
C:\Documents and Settings\basas\Application Data\Autodesk\AutoCAD 2005\R16.1\enu\plotters\Default Windows System Printer.pc3
  4

  6

 40
0.0
 41
0.0
 42
0.0
 43
0.0
 44
0.0
 45
0.0
 46
0.0
 47
0.0
 48
0.0
 49
0.0
140
0.0
141
0.0
142
1.0
143
1.0
 70
   688
 72
     0
 73
     0
 74
     5
  7

 75
    16
147
1.0
 76
     0
 77
     2
 78
   300
148
0.0
149
0.0
100
AcDbLayout
  1
Layout1
 70
     1
 71
     1
 10
0.0
 20
0.0
 11
12.0
 21
9.0
 12
0.0
 22
0.0
 32
0.0
 14
0.0
 24
0.0
 34
0.0
 15
0.0
 25
0.0
 35
0.0
146
0.0
 13
0.0
 23
0.0
 33
0.0
 16
1.0
 26
0.0
 36
0.0
 17
0.0
 27
1.0
 37
0.0
 76
     0
330
D2
  0
LAYOUT
  5
D7
102
{ACAD_REACTORS
330
1A
102
}
330
1A
100
AcDbPlotSettings
  1

  2
C:\Documents and Settings\basas\Application Data\Autodesk\AutoCAD 2005\R16.1\enu\plotters\Default Windows System Printer.pc3
  4

  6

 40
0.0
 41
0.0
 42
0.0
 43
0.0
 44
0.0
 45
0.0
 46
0.0
 47
0.0
 48
0.0
 49
0.0
140
0.0
141
0.0
142
1.0
143
1.0
 70
   688
 72
     0
 73
     0
 74
     5
  7

 75
    16
147
1.0
 76
     0
 77
     2
 78
   300
148
0.0
149
0.0
100
AcDbLayout
  1
Layout2
 70
     1
 71
     2
 10
0.0
 20
0.0
 11
12.0
 21
9.0
 12
0.0
 22
0.0
 32
0.0
 14
0.0
 24
0.0
 34
0.0
 15
0.0
 25
0.0
 35
0.0
146
0.0
 13
0.0
 23
0.0
 33
0.0
 16
1.0
 26
0.0
 36
0.0
 17
0.0
 27
1.0
 37
0.0
 76
     0
330
D6
  0
LAYOUT
  5
22
102
{ACAD_XDICTIONARY
360
205
102
}
102
{ACAD_REACTORS
330
1A
102
}
330
1A
100
AcDbPlotSettings
  1

  2
none_device
  4
ISO_A4_(210.00_x_297.00_MM)
  6

 40
7.5
 41
20.0
 42
7.5
 43
20.0
 44
210.0
 45
297.0
 46
11.54999923706054
 47
-13.65000009536743
 48
0.0
 49
0.0
140
0.0
141
0.0
142
1.0
143
8.704084754739808
 70
 11952
 72
     1
 73
     0
 74
     0
  7

 75
     0
147
0.1148885871608098
 76
     0
 77
     2
 78
   300
148
0.0
149
0.0
100
AcDbLayout
  1
Model
 70
     1
 71
     0
 10
0.0
 20
0.0
 11
12.0
 21
9.0
 12
0.0
 22
0.0
 32
0.0
 14
0.0
 24
0.0
 34
0.0
 15
0.0
 25
0.0
 35
0.0
146
0.0
 13
0.0
 23
0.0
 33
0.0
 16
1.0
 26
0.0
 36
0.0
 17
0.0
 27
1.0
 37
0.0
 76
     0
330
1F
331
EA
1001
ACAD_PSEXT
1000
None
1000
None
1000
Not applicable
1000
The layout will not be plotted unless a new plotter configuration name is selected.
1070
     0
  0
MATERIAL
  5
ED
102
{ACAD_XDICTIONARY
360
1F9
102
}
102
{ACAD_REACTORS
330
6A
102
}
330
6A
100
AcDbMaterial
  1
ByBlock
 94
       63
  0
MATERIAL
  5
EC
102
{ACAD_XDICTIONARY
360
1F7
102
}
102
{ACAD_REACTORS
330
6A
102
}
330
6A
100
AcDbMaterial
  1
ByLayer
 94
       63
  0
MATERIAL
  5
EE
102
{ACAD_XDICTIONARY
360
173
102
}
102
{ACAD_REACTORS
330
6A
102
}
330
6A
100
AcDbMaterial
  1
Global
 43
0.0007999999797903
 43
0.0
 43
0.0
 43
0.0
 43
0.0
 43
0.0007999999797903
 43
0.0
 43
0.0
 43
0.0
 43
0.0
 43
1.0
 43
0.0
 43
0.0
 43
0.0
 43
0.0
 43
1.0
 49
0.0007999999797903
 49
0.0
 49
0.0
 49
0.0
 49
0.0
 49
0.0007999999797903
 49
0.0
 49
0.0
 49
0.0
 49
0.0
 49
1.0
 49
0.0
 49
0.0
 49
0.0
 49
0.0
 49
1.0
142
0.0007999999797903
142
0.0
142
0.0
142
0.0
142
0.0
142
0.0007999999797903
142
0.0
142
0.0
142
0.0
142
0.0
142
1.0
142
0.0
142
0.0
142
0.0
142
0.0
142
1.0
144
0.0007999999797903
144
0.0
144
0.0
144
0.0
144
0.0
144
0.0007999999797903
144
0.0
144
0.0
144
0.0
144
0.0
144
1.0
144
0.0
144
0.0
144
0.0
144
0.0
144
1.0
 94
       63
1001
ACAD
1070
    -1
1070
     3
1070
     0
1000

1071
        0
1070
     0
  0
MLEADERSTYLE
  5
13B
102
{ACAD_REACTORS
330
12D
102
}
330
12D
100
AcDbMLeaderStyle
179
     2
170
     2
171
     1
172
     0
 90
        2
 40
0.0
 41
0.0
173
     1
 91
-1056964608
340
14
 92
       -2
290
     1
 42
2.0
291
     1
 43
8.0
  3
Standard
 44
4.0
300

342
11
174
     1
178
     1
175
     1
176
     0
 93
-1056964608
 45
4.0
292
     0
297
     0
 46
4.0
 94
-1056964608
 47
1.0
 49
1.0
140
1.0
293
     1
141
0.0
294
     1
177
     0
142
1.0
295
     0
296
     1
143
3.75
271
     0
272
     9
273
     9
298
     0
  0
MLEADERSTYLE
  5
12E
102
{ACAD_REACTORS
330
12D
102
}
330
12D
100
AcDbMLeaderStyle
179
     2
170
     2
171
     1
172
     0
 90
        2
 40
0.0
 41
0.0
173
     1
 91
-1056964608
340
14
 92
       -2
290
     1
 42
2.0
291
     1
 43
8.0
  3
Standard
 44
4.0
300

342
11
174
     1
178
     1
175
     1
176
     0
 93
-1056964608
 45
4.0
292
     0
297
     0
 46
4.0
 94
-1056964608
 47
1.0
 49
1.0
140
1.0
293
     1
141
0.0
294
     1
177
     0
142
1.0
295
     0
296
     0
143
3.75
271
     0
272
     9
273
     9
298
     0
  0
MLINESTYLE
  5
18
102
{ACAD_REACTORS
330
17
102
}
330
17
100
AcDbMlineStyle
  2
STANDARD
 70
     0
  3

 62
   256
 51
90.0
 52
90.0
 71
     2
 49
0.5
 62
   256
  6
BYLAYER
 49
-0.5
 62
   256
  6
BYLAYER
  0
ACDBPLACEHOLDER
  5
F
102
{ACAD_REACTORS
330
E
102
}
330
E
  0
SCALE
  5
10D
102
{ACAD_REACTORS
330
10C
102
}
330
10C
100
AcDbScale
 70
     0
300
1:1
140
1.0
141
1.0
290
     1
  0
SCALE
  5
1BE
102
{ACAD_REACTORS
330
10C
102
}
330
10C
100
AcDbScale
 70
     0
300
1:2
140
1.0
141
2.0
290
     0
  0
SCALE
  5
1BF
102
{ACAD_REACTORS
330
10C
102
}
330
10C
100
AcDbScale
 70
     0
300
1:4
140
1.0
141
4.0
290
     0
  0
SCALE
  5
1C0
102
{ACAD_REACTORS
330
10C
102
}
330
10C
100
AcDbScale
 70
     0
300
1:5
140
1.0
141
5.0
290
     0
  0
SCALE
  5
1C1
102
{ACAD_REACTORS
330
10C
102
}
330
10C
100
AcDbScale
 70
     0
300
1:8
140
1.0
141
8.0
290
     0
  0
SCALE
  5
1C2
102
{ACAD_REACTORS
330
10C
102
}
330
10C
100
AcDbScale
 70
     0
300
1:10
140
1.0
141
10.0
290
     0
  0
SCALE
  5
1C3
102
{ACAD_REACTORS
330
10C
102
}
330
10C
100
AcDbScale
 70
     0
300
1:16
140
1.0
141
16.0
290
     0
  0
SCALE
  5
1C4
102
{ACAD_REACTORS
330
10C
102
}
330
10C
100
AcDbScale
 70
     0
300
1:20
140
1.0
141
20.0
290
     0
  0
SCALE
  5
1C5
102
{ACAD_REACTORS
330
10C
102
}
330
10C
100
AcDbScale
 70
     0
300
1:30
140
1.0
141
30.0
290
     0
  0
SCALE
  5
1C6
102
{ACAD_REACTORS
330
10C
102
}
330
10C
100
AcDbScale
 70
     0
300
1:40
140
1.0
141
40.0
290
     0
  0
SCALE
  5
1C7
102
{ACAD_REACTORS
330
10C
102
}
330
10C
100
AcDbScale
 70
     0
300
1:50
140
1.0
141
50.0
290
     0
  0
SCALE
  5
1C8
102
{ACAD_REACTORS
330
10C
102
}
330
10C
100
AcDbScale
 70
     0
300
1:100
140
1.0
141
100.0
290
     0
  0
SCALE
  5
1C9
102
{ACAD_REACTORS
330
10C
102
}
330
10C
100
AcDbScale
 70
     0
300
2:1
140
2.0
141
1.0
290
     0
  0
SCALE
  5
1CA
102
{ACAD_REACTORS
330
10C
102
}
330
10C
100
AcDbScale
 70
     0
300
4:1
140
4.0
141
1.0
290
     0
  0
SCALE
  5
1CB
102
{ACAD_REACTORS
330
10C
102
}
330
10C
100
AcDbScale
 70
     0
300
8:1
140
8.0
141
1.0
290
     0
  0
SCALE
  5
1CC
102
{ACAD_REACTORS
330
10C
102
}
330
10C
100
AcDbScale
 70
     0
300
10:1
140
10.0
141
1.0
290
     0
  0
SCALE
  5
1CD
102
{ACAD_REACTORS
330
10C
102
}
330
10C
100
AcDbScale
 70
     0
300
100:1
140
100.0
141
1.0
290
     0
  0
ACDBSECTIONVIEWSTYLE
  5
28E
102
{ACAD_XDICTIONARY
360
D1B
102
}
102
{ACAD_REACTORS
330
219
102
}
330
219
100
AcDbModelDocViewStyle
 70
     0
  3
Imperial24
290
     0
100
AcDbSectionViewStyle
 70
     0
 71
     0
 90
       78
 71
     1
340
11
 62
   256
 40
0.24
340
0
340
0
 62
   256
 40
0.24
300
I, O, Q, S, X, Z
 40
0.48
 90
        3
 40
0.18
 90
        1
 71
     2
340
16
 90
       25
 62
   256
340
16
 90
       50
 62
   256
 40
0.24
 40
0.0
 40
0.24
 71
     3
340
11
 62
   256
 40
0.24
 90
        1
 40
0.75
 90
        1
300
%<\AcVar ViewType \f "%tc1">% %<\AcVar ViewSectionStartId>%-%<\AcVar ViewSectionEndId>%\PSCALA %<\AcVar ViewScale \f "%sn">%
 71
     4
 62
   256
 62
   257
300
ANSI31
 40
1.0
 90
        0
290
     0
290
     0
 90
        6
 40
0.0
 40
1.570796326794896
 40
0.2617993877991494
 40
1.308996938995747
 40
-0.2617993877991494
 40
1.832595714594046
  0
ACDBSECTIONVIEWSTYLE
  5
21A
102
{ACAD_XDICTIONARY
360
D17
102
}
102
{ACAD_REACTORS
330
219
102
}
330
219
100
AcDbModelDocViewStyle
 70
     0
  3
Metric50
290
     0
100
AcDbSectionViewStyle
 70
     0
 71
     0
 90
      102
 71
     1
340
11
 62
   256
 40
5.0
340
0
340
0
 62
   256
 40
5.0
300
I, O, Q, S, X, Z
 40
10.0
 90
        0
 40
2.5
 90
        0
 71
     2
340
16
 90
       25
 62
   256
340
16
 90
       50
 62
   256
 40
5.0
 40
2.5
 40
5.0
 71
     3
340
11
 62
   256
 40
5.0
 90
        0
 40
15.0
 90
        1
300
%<\AcVar ViewSectionStartId>%-%<\AcVar ViewSectionEndId>% (%<\AcVar ViewScale \f "%sn">%)
 71
     4
 62
   256
 62
   257
300
ANSI31
 40
1.0
 90
        0
290
     0
290
     0
 90
        6
 40
0.0
 40
1.570796326794896
 40
0.2617993877991494
 40
1.308996938995747
 40
-0.2617993877991494
 40
1.832595714594046
  0
TABLESTYLE
  5
7F
102
{ACAD_XDICTIONARY
360
162
102
}
102
{ACAD_REACTORS
330
7E
102
}
330
7E
100
AcDbTableStyle
280
     0
  3
Standard
 70
     0
 71
     0
 40
1.5
 41
1.5
280
     0
281
     0
  7
Standard
140
4.5
170
     2
 62
     0
 63
     7
283
     0
 90
      512
 91
        0
  1

274
    -2
284
     1
 64
     0
275
    -2
285
     1
 65
     0
276
    -2
286
     1
 66
     0
277
    -2
287
     1
 67
     0
278
    -2
288
     1
 68
     0
279
    -2
289
     1
 69
     0
  7
Standard
140
6.0
170
     5
 62
     0
 63
     7
283
     0
 90
      512
 91
        0
  1

274
    -2
284
     1
 64
     0
275
    -2
285
     1
 65
     0
276
    -2
286
     1
 66
     0
277
    -2
287
     1
 67
     0
278
    -2
288
     1
 68
     0
279
    -2
289
     1
 69
     0
  7
Standard
140
4.5
170
     5
 62
     0
 63
     7
283
     0
 90
      512
 91
        0
  1

274
    -2
284
     1
 64
     0
275
    -2
285
     1
 65
     0
276
    -2
286
     1
 66
     0
277
    -2
287
     1
 67
     0
278
    -2
288
     1
 68
     0
279
    -2
289
     1
 69
     0
  0
VISUALSTYLE
  5
F5
102
{ACAD_REACTORS
330
EF
102
}
330
EF
100
AcDbVisualStyle
  2
2dWireframe
 70
     4
177
     3
291
     0
 70
    58
 90
        0
176
     1
 90
        2
176
     1
 90
        1
176
     1
 90
        0
176
     1
 40
0.6
176
     1
 40
30.0
176
     1
 62
     7
420
 16777215
176
     1
 90
        1
176
     1
 90
        4
176
     1
 62
     7
176
     1
 62
   257
176
     1
 90
        1
176
     1
 90
        1
176
     1
 40
1.0
176
     1
 90
        0
176
     1
 62
   257
176
     1
 40
1.0
176
     1
 90
        1
176
     1
 90
        6
176
     1
 90
        2
176
     1
 62
     7
176
     1
 90
        5
176
     1
 90
        0
176
     1
 90
        0
176
     1
290
     0
176
     1
 90
        1
176
     1
 40
0.0
176
     1
 90
        0
176
     1
290
     1
176
     1
290
     1
176
     1
290
     0
176
     1
290
     0
176
     1
290
     0
176
     1
290
     0
176
     1
290
     0
176
     1
290
     0
176
     1
290
     0
176
     1
 90
       50
176
     1
 40
0.0
176
     1
 40
1.0
176
     1
 90
        0
176
     1
 62
    18
420
        0
176
     1
 90
       50
176
     1
 90
        3
176
     1
 62
     5
420
      255
176
     1
290
     0
176
     1
 90
       50
176
     1
 90
       50
176
     1
 90
       50
176
     1
290
     0
176
     1
 90
       50
176
     1
 62
   256
176
     0
 40
1.0
176
     0
 90
        2
176
     1
  1
strokes_ogs.tif
176
     1
290
     0
176
     1
 40
1.0
176
     1
 40
1.0
176
     1
1001
ACAD
1000
AcDbSavedByObjectVersion
1070
     0
  0
VISUALSTYLE
  5
F4
102
{ACAD_REACTORS
330
EF
102
}
330
EF
100
AcDbVisualStyle
  2
Basic
 70
     7
177
     3
291
     1
 70
    58
 90
        1
176
     1
 90
        0
176
     1
 90
        1
176
     1
 90
        0
176
     1
 40
0.6
176
     1
 40
30.0
176
     1
 62
     7
420
 16777215
176
     1
 90
        0
176
     1
 90
        4
176
     1
 62
     7
176
     1
 62
   257
176
     1
 90
        1
176
     1
 90
        1
176
     1
 40
1.0
176
     1
 90
        8
176
     1
 62
     7
176
     1
 40
1.0
176
     1
 90
        1
176
     1
 90
        6
176
     1
 90
        2
176
     1
 62
     7
176
     1
 90
        5
176
     1
 90
        0
176
     1
 90
        0
176
     1
290
     0
176
     1
 90
        1
176
     1
 40
0.0
176
     1
 90
        0
176
     1
290
     0
176
     1
290
     1
176
     1
290
     1
176
     1
290
     0
176
     1
290
     0
176
     1
290
     0
176
     1
290
     0
176
     1
290
     0
176
     1
290
     0
176
     1
 90
       50
176
     1
 40
0.0
176
     1
 40
1.0
176
     1
 90
        0
176
     1
 62
    18
420
        0
176
     1
 90
       50
176
     1
 90
        3
176
     1
 62
     5
420
      255
176
     1
290
     0
176
     1
 90
       50
176
     1
 90
       50
176
     1
 90
       50
176
     1
290
     0
176
     1
 90
       50
176
     1
 62
   256
176
     0
 40
1.0
176
     0
 90
        2
176
     1
  1
strokes_ogs.tif
176
     1
290
     0
176
     1
 40
1.0
176
     1
 40
1.0
176
     1
1001
ACAD
1000
AcDbSavedByObjectVersion
1070
     0
  0
VISUALSTYLE
  5
FB
102
{ACAD_REACTORS
330
EF
102
}
330
EF
100
AcDbVisualStyle
  2
Brighten
 70
    12
177
     3
291
     1
 70
    58
 90
        2
176
     1
 90
        2
176
     1
 90
        1
176
     1
 90
        0
176
     1
 40
0.6
176
     1
 40
30.0
176
     1
 62
     7
420
 16777215
176
     1
 90
        1
176
     1
 90
        4
176
     1
 62
     7
176
     1
 62
   257
176
     1
 90
        1
176
     1
 90
        1
176
     1
 40
1.0
176
     1
 90
        8
176
     1
 62
     7
176
     1
 40
1.0
176
     1
 90
        1
176
     1
 90
        6
176
     1
 90
        2
176
     1
 62
     7
176
     1
 90
        5
176
     1
 90
        0
176
     1
 90
        0
176
     1
290
     0
176
     1
 90
        1
176
     1
 40
50.0
176
     1
 90
        0
176
     1
290
     0
176
     1
290
     1
176
     1
290
     1
176
     1
290
     0
176
     1
290
     0
176
     1
290
     0
176
     1
290
     0
176
     1
290
     0
176
     1
290
     0
176
     1
 90
       50
176
     1
 40
0.0
176
     1
 40
1.0
176
     1
 90
        0
176
     1
 62
    18
420
        0
176
     1
 90
       50
176
     1
 90
        3
176
     1
 62
     5
420
      255
176
     1
290
     0
176
     1
 90
       50
176
     1
 90
       50
176
     1
 90
       50
176
     1
290
     0
176
     1
 90
       50
176
     1
 62
   256
176
     0
 40
1.0
176
     0
 90
        2
176
     1
  1
strokes_ogs.tif
176
     1
290
     0
176
     1
 40
1.0
176
     1
 40
1.0
176
     1
1001
ACAD
1000
AcDbSavedByObjectVersion
1070
     0
  0
VISUALSTYLE
  5
FF
102
{ACAD_REACTORS
330
EF
102
}
330
EF
100
AcDbVisualStyle
  2
ColorChange
 70
    16
177
     3
291
     1
 70
    58
 90
        2
176
     1
 90
        2
176
     1
 90
        3
176
     1
 90
        0
176
     1
 40
0.6
176
     1
 40
30.0
176
     1
 62
     8
420
  8421504
176
     1
 90
        1
176
     1
 90
        4
176
     1
 62
     7
176
     1
 62
   257
176
     1
 90
        1
176
     1
 90
        1
176
     1
 40
1.0
176
     1
 90
        8
176
     1
 62
     8
420
  8421504
176
     1
 40
1.0
176
     1
 90
        1
176
     1
 90
        6
176
     1
 90
        2
176
     1
 62
     7
176
     1
 90
        5
176
     1
 90
        0
176
     1
 90
        0
176
     1
290
     0
176
     1
 90
        1
176
     1
 40
0.0
176
     1
 90
        0
176
     1
290
     0
176
     1
290
     1
176
     1
290
     1
176
     1
290
     0
176
     1
290
     0
176
     1
290
     0
176
     1
290
     0
176
     1
290
     0
176
     1
290
     0
176
     1
 90
       50
176
     1
 40
0.0
176
     1
 40
1.0
176
     1
 90
        0
176
     1
 62
    18
420
        0
176
     1
 90
       50
176
     1
 90
        3
176
     1
 62
     5
420
      255
176
     1
290
     0
176
     1
 90
       50
176
     1
 90
       50
176
     1
 90
       50
176
     1
290
     0
176
     1
 90
       50
176
     1
 62
   256
176
     0
 40
1.0
176
     0
 90
        2
176
     1
  1
strokes_ogs.tif
176
     1
290
     0
176
     1
 40
1.0
176
     1
 40
1.0
176
     1
1001
ACAD
1000
AcDbSavedByObjectVersion
1070
     0
  0
VISUALSTYLE
  5
F8
102
{ACAD_REACTORS
330
EF
102
}
330
EF
100
AcDbVisualStyle
  2
Conceptual
 70
     9
177
     3
291
     0
 70
    58
 90
        3
176
     1
 90
        2
176
     1
 90
        1
176
     1
 90
        0
176
     1
 40
0.6
176
     1
 40
30.0
176
     1
 62
     7
420
 16777215
176
     1
 90
        2
176
     1
 90
        2
176
     1
 62
     7
176
     1
 62
   257
176
     1
 90
        1
176
     1
 90
        1
176
     1
 40
40.0
176
     1
 90
        8
176
     1
 62
     7
176
     1
 40
1.0
176
     1
 90
        1
176
     1
 90
        6
176
     1
 90
        2
176
     1
 62
     7
176
     1
 90
        3
176
     1
 90
        0
176
     1
 90
        0
176
     1
290
     0
176
     1
 90
        1
176
     1
 40
0.0
176
     1
 90
        0
176
     1
290
     0
176
     1
290
     1
176
     1
290
     1
176
     1
290
     0
176
     1
290
     0
176
     1
290
     0
176
     1
290
     0
176
     1
290
     0
176
     1
290
     0
176
     1
 90
       50
176
     1
 40
0.0
176
     1
 40
1.0
176
     1
 90
        0
176
     1
 62
    18
420
        0
176
     1
 90
       50
176
     1
 90
        3
176
     1
 62
     5
420
      255
176
     1
290
     0
176
     1
 90
       50
176
     1
 90
       50
176
     1
 90
       50
176
     1
290
     0
176
     1
 90
       50
176
     1
 62
   256
176
     0
 40
1.0
176
     0
 90
        2
176
     1
  1
strokes_ogs.tif
176
     1
290
     0
176
     1
 40
1.0
176
     1
 40
1.0
176
     1
1001
ACAD
1000
AcDbSavedByObjectVersion
1070
     0
  0
VISUALSTYLE
  5
FA
102
{ACAD_REACTORS
330
EF
102
}
330
EF
100
AcDbVisualStyle
  2
Dim
 70
    11
177
     3
291
     1
 70
    58
 90
        2
176
     1
 90
        2
176
     1
 90
        1
176
     1
 90
        0
176
     1
 40
0.6
176
     1
 40
30.0
176
     1
 62
     7
420
 16777215
176
     1
 90
        1
176
     1
 90
        4
176
     1
 62
     7
176
     1
 62
   257
176
     1
 90
        1
176
     1
 90
        1
176
     1
 40
1.0
176
     1
 90
        8
176
     1
 62
     7
176
     1
 40
1.0
176
     1
 90
        1
176
     1
 90
        6
176
     1
 90
        2
176
     1
 62
     7
176
     1
 90
        5
176
     1
 90
        0
176
     1
 90
        0
176
     1
290
     0
176
     1
 90
        1
176
     1
 40
-50.0
176
     1
 90
        0
176
     1
290
     0
176
     1
290
     1
176
     1
290
     1
176
     1
290
     0
176
     1
290
     0
176
     1
290
     0
176
     1
290
     0
176
     1
290
     0
176
     1
290
     0
176
     1
 90
       50
176
     1
 40
0.0
176
     1
 40
1.0
176
     1
 90
        0
176
     1
 62
    18
420
        0
176
     1
 90
       50
176
     1
 90
        3
176
     1
 62
     5
420
      255
176
     1
290
     0
176
     1
 90
       50
176
     1
 90
       50
176
     1
 90
       50
176
     1
290
     0
176
     1
 90
       50
176
     1
 62
   256
176
     0
 40
1.0
176
     0
 90
        2
176
     1
  1
strokes_ogs.tif
176
     1
290
     0
176
     1
 40
1.0
176
     1
 40
1.0
176
     1
1001
ACAD
1000
AcDbSavedByObjectVersion
1070
     0
  0
VISUALSTYLE
  5
1E6
102
{ACAD_REACTORS
330
EF
102
}
330
EF
100
AcDbVisualStyle
  2
EdgeColorOff
 70
    22
177
     3
291
     1
 70
    58
 90
        2
176
     0
 90
        2
176
     0
 90
        0
176
     0
 90
        0
176
     0
 40
0.6
176
     0
 40
30.0
176
     0
 62
     7
420
 16777215
176
     0
 90
        1
176
     0
 90
        4
176
     0
 62
     7
176
     0
 62
   257
176
     0
 90
        1
176
     0
 90
        1
176
     0
 40
1.0
176
     0
 90
        8
176
     2
 62
     7
176
     0
 40
1.0
176
     0
 90
        1
176
     0
 90
        6
176
     0
 90
        2
176
     0
 62
     7
176
     0
 90
        5
176
     0
 90
        0
176
     0
 90
        0
176
     0
290
     0
176
     0
 90
        1
176
     0
 40
0.0
176
     0
 90
        0
176
     0
290
     0
176
     1
290
     1
176
     1
290
     1
176
     1
290
     0
176
     1
290
     0
176
     1
290
     0
176
     1
290
     0
176
     1
290
     0
176
     1
290
     0
176
     1
 90
       50
176
     1
 40
0.0
176
     1
 40
1.0
176
     1
 90
        0
176
     1
 62
    18
420
        0
176
     1
 90
       50
176
     1
 90
        3
176
     1
 62
     5
420
      255
176
     1
290
     0
176
     1
 90
       50
176
     1
 90
       50
176
     1
 90
       50
176
     1
290
     0
176
     1
 90
       50
176
     1
 62
   256
176
     0
 40
1.0
176
     0
 90
        2
176
     1
  1
strokes_ogs.tif
176
     1
290
     0
176
     1
 40
1.0
176
     1
 40
1.0
176
     1
1001
ACAD
1000
AcDbSavedByObjectVersion
1070
     0
  0
VISUALSTYLE
  5
FE
102
{ACAD_REACTORS
330
EF
102
}
330
EF
100
AcDbVisualStyle
  2
Facepattern
 70
    15
177
     3
291
     1
 70
    58
 90
        2
176
     1
 90
        2
176
     1
 90
        1
176
     1
 90
        0
176
     1
 40
0.6
176
     1
 40
30.0
176
     1
 62
     7
420
 16777215
176
     1
 90
        1
176
     1
 90
        4
176
     1
 62
     7
176
     1
 62
   257
176
     1
 90
        1
176
     1
 90
        1
176
     1
 40
1.0
176
     1
 90
        8
176
     1
 62
     7
176
     1
 40
1.0
176
     1
 90
        1
176
     1
 90
        6
176
     1
 90
        2
176
     1
 62
     7
176
     1
 90
        5
176
     1
 90
        0
176
     1
 90
        0
176
     1
290
     0
176
     1
 90
        1
176
     1
 40
0.0
176
     1
 90
        0
176
     1
290
     0
176
     1
290
     1
176
     1
290
     1
176
     1
290
     0
176
     1
290
     0
176
     1
290
     0
176
     1
290
     0
176
     1
290
     0
176
     1
290
     0
176
     1
 90
       50
176
     1
 40
0.0
176
     1
 40
1.0
176
     1
 90
        0
176
     1
 62
    18
420
        0
176
     1
 90
       50
176
     1
 90
        3
176
     1
 62
     5
420
      255
176
     1
290
     0
176
     1
 90
       50
176
     1
 90
       50
176
     1
 90
       50
176
     1
290
     0
176
     1
 90
       50
176
     1
 62
   256
176
     0
 40
1.0
176
     0
 90
        2
176
     1
  1
strokes_ogs.tif
176
     1
290
     0
176
     1
 40
1.0
176
     1
 40
1.0
176
     1
1001
ACAD
1000
AcDbSavedByObjectVersion
1070
     0
  0
VISUALSTYLE
  5
F0
102
{ACAD_REACTORS
330
EF
102
}
330
EF
100
AcDbVisualStyle
  2
Flat
 70
     0
177
     3
291
     1
 70
    58
 90
        2
176
     1
 90
        1
176
     1
 90
        1
176
     1
 90
        2
176
     1
 40
0.6
176
     1
 40
30.0
176
     1
 62
     7
420
 16777215
176
     1
 90
        0
176
     1
 90
        0
176
     1
 62
     7
176
     1
 62
   257
176
     1
 90
        1
176
     1
 90
        1
176
     1
 40
1.0
176
     1
 90
        8
176
     1
 62
     7
176
     1
 40
1.0
176
     1
 90
        1
176
     1
 90
        6
176
     1
 90
        2
176
     1
 62
     7
176
     1
 90
        5
176
     1
 90
        0
176
     1
 90
        0
176
     1
290
     0
176
     1
 90
       13
176
     1
 40
0.0
176
     1
 90
        0
176
     1
290
     0
176
     1
290
     1
176
     1
290
     1
176
     1
290
     0
176
     1
290
     0
176
     1
290
     0
176
     1
290
     0
176
     1
290
     0
176
     1
290
     0
176
     1
 90
       50
176
     1
 40
0.0
176
     1
 40
1.0
176
     1
 90
        0
176
     1
 62
    18
420
        0
176
     1
 90
       50
176
     1
 90
        3
176
     1
 62
     5
420
      255
176
     1
290
     0
176
     1
 90
       50
176
     1
 90
       50
176
     1
 90
       50
176
     1
290
     0
176
     1
 90
       50
176
     1
 62
   256
176
     0
 40
1.0
176
     0
 90
        2
176
     1
  1
strokes_ogs.tif
176
     1
290
     0
176
     1
 40
1.0
176
     1
 40
1.0
176
     1
1001
ACAD
1000
AcDbSavedByObjectVersion
1070
     0
  0
VISUALSTYLE
  5
F1
102
{ACAD_REACTORS
330
EF
102
}
330
EF
100
AcDbVisualStyle
  2
FlatWithEdges
 70
     1
177
     3
291
     1
 70
    58
 90
        2
176
     1
 90
        1
176
     1
 90
        1
176
     1
 90
        2
176
     1
 40
0.6
176
     1
 40
30.0
176
     1
 62
     7
420
 16777215
176
     1
 90
        1
176
     1
 90
        0
176
     1
 62
     7
176
     1
 62
   257
176
     1
 90
        1
176
     1
 90
        1
176
     1
 40
1.0
176
     1
 90
        0
176
     1
 62
   257
176
     1
 40
1.0
176
     1
 90
        1
176
     1
 90
        6
176
     1
 90
        2
176
     1
 62
     7
176
     1
 90
        5
176
     1
 90
        0
176
     1
 90
        0
176
     1
290
     0
176
     1
 90
       13
176
     1
 40
0.0
176
     1
 90
        0
176
     1
290
     0
176
     1
290
     1
176
     1
290
     1
176
     1
290
     0
176
     1
290
     0
176
     1
290
     0
176
     1
290
     0
176
     1
290
     0
176
     1
290
     0
176
     1
 90
       50
176
     1
 40
0.0
176
     1
 40
1.0
176
     1
 90
        0
176
     1
 62
    18
420
        0
176
     1
 90
       50
176
     1
 90
        3
176
     1
 62
     5
420
      255
176
     1
290
     0
176
     1
 90
       50
176
     1
 90
       50
176
     1
 90
       50
176
     1
290
     0
176
     1
 90
       50
176
     1
 62
   256
176
     0
 40
1.0
176
     0
 90
        2
176
     1
  1
strokes_ogs.tif
176
     1
290
     0
176
     1
 40
1.0
176
     1
 40
1.0
176
     1
1001
ACAD
1000
AcDbSavedByObjectVersion
1070
     0
  0
VISUALSTYLE
  5
F2
102
{ACAD_REACTORS
330
EF
102
}
330
EF
100
AcDbVisualStyle
  2
Gouraud
 70
     2
177
     3
291
     1
 70
    58
 90
        2
176
     1
 90
        2
176
     1
 90
        1
176
     1
 90
        2
176
     1
 40
0.6
176
     1
 40
30.0
176
     1
 62
     7
420
 16777215
176
     1
 90
        0
176
     1
 90
        0
176
     1
 62
     7
176
     1
 62
   257
176
     1
 90
        1
176
     1
 90
        1
176
     1
 40
1.0
176
     1
 90
        0
176
     1
 62
     7
176
     1
 40
1.0
176
     1
 90
        1
176
     1
 90
        6
176
     1
 90
        2
176
     1
 62
     7
176
     1
 90
        5
176
     1
 90
        0
176
     1
 90
        0
176
     1
290
     0
176
     1
 90
       13
176
     1
 40
0.0
176
     1
 90
        0
176
     1
290
     0
176
     1
290
     1
176
     1
290
     1
176
     1
290
     0
176
     1
290
     0
176
     1
290
     0
176
     1
290
     0
176
     1
290
     0
176
     1
290
     0
176
     1
 90
       50
176
     1
 40
0.0
176
     1
 40
1.0
176
     1
 90
        0
176
     1
 62
    18
420
        0
176
     1
 90
       50
176
     1
 90
        3
176
     1
 62
     5
420
      255
176
     1
290
     0
176
     1
 90
       50
176
     1
 90
       50
176
     1
 90
       50
176
     1
290
     0
176
     1
 90
       50
176
     1
 62
   256
176
     0
 40
1.0
176
     0
 90
        2
176
     1
  1
strokes_ogs.tif
176
     1
290
     0
176
     1
 40
1.0
176
     1
 40
1.0
176
     1
1001
ACAD
1000
AcDbSavedByObjectVersion
1070
     0
  0
VISUALSTYLE
  5
F3
102
{ACAD_REACTORS
330
EF
102
}
330
EF
100
AcDbVisualStyle
  2
GouraudWithEdges
 70
     3
177
     3
291
     1
 70
    58
 90
        2
176
     1
 90
        2
176
     1
 90
        1
176
     1
 90
        2
176
     1
 40
0.6
176
     1
 40
30.0
176
     1
 62
     7
420
 16777215
176
     1
 90
        1
176
     1
 90
        0
176
     1
 62
     7
176
     1
 62
   257
176
     1
 90
        1
176
     1
 90
        1
176
     1
 40
1.0
176
     1
 90
        0
176
     1
 62
   257
176
     1
 40
1.0
176
     1
 90
        1
176
     1
 90
        6
176
     1
 90
        2
176
     1
 62
     7
176
     1
 90
        5
176
     1
 90
        0
176
     1
 90
        0
176
     1
290
     0
176
     1
 90
       13
176
     1
 40
0.0
176
     1
 90
        0
176
     1
290
     0
176
     1
290
     1
176
     1
290
     1
176
     1
290
     0
176
     1
290
     0
176
     1
290
     0
176
     1
290
     0
176
     1
290
     0
176
     1
290
     0
176
     1
 90
       50
176
     1
 40
0.0
176
     1
 40
1.0
176
     1
 90
        0
176
     1
 62
    18
420
        0
176
     1
 90
       50
176
     1
 90
        3
176
     1
 62
     5
420
      255
176
     1
290
     0
176
     1
 90
       50
176
     1
 90
       50
176
     1
 90
       50
176
     1
290
     0
176
     1
 90
       50
176
     1
 62
   256
176
     0
 40
1.0
176
     0
 90
        2
176
     1
  1
strokes_ogs.tif
176
     1
290
     0
176
     1
 40
1.0
176
     1
 40
1.0
176
     1
1001
ACAD
1000
AcDbSavedByObjectVersion
1070
     0
  0
VISUALSTYLE
  5
F7
102
{ACAD_REACTORS
330
EF
102
}
330
EF
100
AcDbVisualStyle
  2
Hidden
 70
     6
177
     3
291
     0
 70
    58
 90
        1
176
     1
 90
        2
176
     1
 90
        2
176
     1
 90
        0
176
     1
 40
0.6
176
     1
 40
30.0
176
     1
 62
     7
420
 16777215
176
     1
 90
        2
176
     1
 90
        2
176
     1
 62
     7
176
     1
 62
   257
176
     1
 90
        2
176
     1
 90
        1
176
     1
 40
40.0
176
     1
 90
        0
176
     1
 62
   257
176
     1
 40
1.0
176
     1
 90
        1
176
     1
 90
        6
176
     1
 90
        2
176
     1
 62
     7
176
     1
 90
        3
176
     1
 90
        0
176
     1
 90
        0
176
     1
290
     0
176
     1
 90
        1
176
     1
 40
0.0
176
     1
 90
        0
176
     1
290
     0
176
     1
290
     1
176
     1
290
     1
176
     1
290
     0
176
     1
290
     0
176
     1
290
     0
176
     1
290
     0
176
     1
290
     0
176
     1
290
     0
176
     1
 90
       50
176
     1
 40
0.0
176
     1
 40
1.0
176
     1
 90
        0
176
     1
 62
    18
420
        0
176
     1
 90
       50
176
     1
 90
        3
176
     1
 62
     5
420
      255
176
     1
290
     0
176
     1
 90
       50
176
     1
 90
       50
176
     1
 90
       50
176
     1
290
     0
176
     1
 90
       50
176
     1
 62
   256
176
     0
 40
1.0
176
     0
 90
        2
176
     1
  1
strokes_ogs.tif
176
     1
290
     0
176
     1
 40
1.0
176
     1
 40
1.0
176
     1
1001
ACAD
1000
AcDbSavedByObjectVersion
1070
     0
  0
VISUALSTYLE
  5
1E4
102
{ACAD_REACTORS
330
EF
102
}
330
EF
100
AcDbVisualStyle
  2
JitterOff
 70
    20
177
     3
291
     1
 70
    58
 90
        2
176
     0
 90
        2
176
     0
 90
        0
176
     0
 90
        0
176
     0
 40
0.6
176
     0
 40
30.0
176
     0
 62
     7
420
 16777215
176
     0
 90
        1
176
     0
 90
        4
176
     0
 62
     7
176
     0
 62
   257
176
     0
 90
        1
176
     0
 90
        1
176
     0
 40
1.0
176
     0
 90
       10
176
     2
 62
     7
176
     0
 40
1.0
176
     0
 90
        1
176
     0
 90
        6
176
     0
 90
        2
176
     0
 62
     7
176
     0
 90
        5
176
     0
 90
        0
176
     0
 90
        0
176
     0
290
     0
176
     0
 90
        1
176
     0
 40
0.0
176
     0
 90
        0
176
     0
290
     0
176
     1
290
     1
176
     1
290
     1
176
     1
290
     0
176
     1
290
     0
176
     1
290
     0
176
     1
290
     0
176
     1
290
     0
176
     1
290
     0
176
     1
 90
       50
176
     1
 40
0.0
176
     1
 40
1.0
176
     1
 90
        0
176
     1
 62
    18
420
        0
176
     1
 90
       50
176
     1
 90
        3
176
     1
 62
     5
420
      255
176
     1
290
     0
176
     1
 90
       50
176
     1
 90
       50
176
     1
 90
       50
176
     1
290
     0
176
     1
 90
       50
176
     1
 62
   256
176
     0
 40
1.0
176
     0
 90
        2
176
     1
  1
strokes_ogs.tif
176
     1
290
     0
176
     1
 40
1.0
176
     1
 40
1.0
176
     1
1001
ACAD
1000
AcDbSavedByObjectVersion
1070
     0
  0
VISUALSTYLE
  5
FD
102
{ACAD_REACTORS
330
EF
102
}
330
EF
100
AcDbVisualStyle
  2
Linepattern
 70
    14
177
     3
291
     1
 70
    58
 90
        2
176
     1
 90
        2
176
     1
 90
        1
176
     1
 90
        0
176
     1
 40
0.6
176
     1
 40
30.0
176
     1
 62
     7
420
 16777215
176
     1
 90
        1
176
     1
 90
        4
176
     1
 62
     7
176
     1
 62
   257
176
     1
 90
        7
176
     1
 90
        7
176
     1
 40
1.0
176
     1
 90
        8
176
     1
 62
     7
176
     1
 40
1.0
176
     1
 90
        1
176
     1
 90
        6
176
     1
 90
        2
176
     1
 62
     7
176
     1
 90
        5
176
     1
 90
        0
176
     1
 90
        0
176
     1
290
     0
176
     1
 90
        1
176
     1
 40
0.0
176
     1
 90
        0
176
     1
290
     0
176
     1
290
     1
176
     1
290
     1
176
     1
290
     0
176
     1
290
     0
176
     1
290
     0
176
     1
290
     0
176
     1
290
     0
176
     1
290
     0
176
     1
 90
       50
176
     1
 40
0.0
176
     1
 40
1.0
176
     1
 90
        0
176
     1
 62
    18
420
        0
176
     1
 90
       50
176
     1
 90
        3
176
     1
 62
     5
420
      255
176
     1
290
     0
176
     1
 90
       50
176
     1
 90
       50
176
     1
 90
       50
176
     1
290
     0
176
     1
 90
       50
176
     1
 62
   256
176
     0
 40
1.0
176
     0
 90
        2
176
     1
  1
strokes_ogs.tif
176
     1
290
     0
176
     1
 40
1.0
176
     1
 40
1.0
176
     1
1001
ACAD
1000
AcDbSavedByObjectVersion
1070
     0
  0
VISUALSTYLE
  5
1E5
102
{ACAD_REACTORS
330
EF
102
}
330
EF
100
AcDbVisualStyle
  2
OverhangOff
 70
    21
177
     3
291
     1
 70
    58
 90
        2
176
     0
 90
        2
176
     0
 90
        0
176
     0
 90
        0
176
     0
 40
0.6
176
     0
 40
30.0
176
     0
 62
     7
420
 16777215
176
     0
 90
        1
176
     0
 90
        4
176
     0
 62
     7
176
     0
 62
   257
176
     0
 90
        1
176
     0
 90
        1
176
     0
 40
1.0
176
     0
 90
        9
176
     2
 62
     7
176
     0
 40
1.0
176
     0
 90
        1
176
     0
 90
        6
176
     0
 90
        2
176
     0
 62
     7
176
     0
 90
        5
176
     0
 90
        0
176
     0
 90
        0
176
     0
290
     0
176
     0
 90
        1
176
     0
 40
0.0
176
     0
 90
        0
176
     0
290
     0
176
     1
290
     1
176
     1
290
     1
176
     1
290
     0
176
     1
290
     0
176
     1
290
     0
176
     1
290
     0
176
     1
290
     0
176
     1
290
     0
176
     1
 90
       50
176
     1
 40
0.0
176
     1
 40
1.0
176
     1
 90
        0
176
     1
 62
    18
420
        0
176
     1
 90
       50
176
     1
 90
        3
176
     1
 62
     5
420
      255
176
     1
290
     0
176
     1
 90
       50
176
     1
 90
       50
176
     1
 90
       50
176
     1
290
     0
176
     1
 90
       50
176
     1
 62
   256
176
     0
 40
1.0
176
     0
 90
        2
176
     1
  1
strokes_ogs.tif
176
     1
290
     0
176
     1
 40
1.0
176
     1
 40
1.0
176
     1
1001
ACAD
1000
AcDbSavedByObjectVersion
1070
     0
  0
VISUALSTYLE
  5
F9
102
{ACAD_REACTORS
330
EF
102
}
330
EF
100
AcDbVisualStyle
  2
Realistic
 70
     8
177
     3
291
     0
 70
    58
 90
        2
176
     1
 90
        3
176
     1
 90
        0
176
     1
 90
        2
176
     1
 40
0.6
176
     1
 40
30.0
176
     1
 62
     7
420
 16777215
176
     1
 90
        0
176
     1
 90
        0
176
     1
 62
     7
176
     1
 62
   257
176
     1
 90
        1
176
     1
 90
        1
176
     1
 40
1.0
176
     1
 90
        8
176
     1
 62
   257
176
     1
 40
1.0
176
     1
 90
        1
176
     1
 90
        6
176
     1
 90
        2
176
     1
 62
     7
176
     1
 90
        3
176
     1
 90
        0
176
     1
 90
        0
176
     1
290
     0
176
     1
 90
       13
176
     1
 40
0.0
176
     1
 90
        0
176
     1
290
     0
176
     1
290
     1
176
     1
290
     1
176
     1
290
     0
176
     1
290
     0
176
     1
290
     0
176
     1
290
     0
176
     1
290
     0
176
     1
290
     0
176
     1
 90
       50
176
     1
 40
0.0
176
     1
 40
1.0
176
     1
 90
        0
176
     1
 62
    18
420
        0
176
     1
 90
       50
176
     1
 90
        3
176
     1
 62
     5
420
      255
176
     1
290
     0
176
     1
 90
       50
176
     1
 90
       50
176
     1
 90
       50
176
     1
290
     0
176
     1
 90
       50
176
     1
 62
   256
176
     0
 40
1.0
176
     0
 90
        2
176
     1
  1
strokes_ogs.tif
176
     1
290
     0
176
     1
 40
1.0
176
     1
 40
1.0
176
     1
1001
ACAD
1000
AcDbSavedByObjectVersion
1070
     0
  0
VISUALSTYLE
  5
1F3
102
{ACAD_REACTORS
330
EF
102
}
330
EF
100
AcDbVisualStyle
  2
Shaded
 70
    27
177
     3
291
     0
 70
    58
 90
        2
176
     1
 90
        2
176
     1
 90
        1
176
     1
 90
        2
176
     1
 40
0.6
176
     1
 40
30.0
176
     1
 62
     7
420
 16777215
176
     1
 90
        0
176
     1
 90
        4
176
     1
 62
     7
176
     1
 62
   257
176
     1
 90
        1
176
     1
 90
        1
176
     1
 40
1.0
176
     1
 90
        8
176
     1
 62
   257
176
     1
 40
1.0
176
     1
 90
        1
176
     1
 90
        6
176
     1
 90
        2
176
     1
 62
     8
420
  7895160
176
     1
 90
        3
176
     1
 90
        0
176
     1
 90
        0
176
     1
290
     0
176
     1
 90
        5
176
     1
 40
0.0
176
     1
 90
        0
176
     1
290
     0
176
     1
290
     1
176
     1
290
     1
176
     1
290
     0
176
     1
290
     0
176
     1
290
     0
176
     1
290
     0
176
     1
290
     0
176
     1
290
     0
176
     1
 90
       50
176
     1
 40
0.0
176
     1
 40
1.0
176
     1
 90
        0
176
     1
 62
    18
420
        0
176
     1
 90
       50
176
     1
 90
        3
176
     1
 62
     5
420
      255
176
     1
290
     0
176
     1
 90
       50
176
     1
 90
       50
176
     1
 90
       50
176
     1
290
     0
176
     1
 90
       50
176
     1
 62
   256
176
     0
 40
1.0
176
     0
 90
        2
176
     1
  1
strokes_ogs.tif
176
     1
290
     0
176
     1
 40
1.0
176
     1
 40
1.0
176
     1
1001
ACAD
1000
AcDbSavedByObjectVersion
1070
     0
  0
VISUALSTYLE
  5
1F2
102
{ACAD_REACTORS
330
EF
102
}
330
EF
100
AcDbVisualStyle
  2
Shaded with edges
 70
    26
177
     3
291
     0
 70
    58
 90
        2
176
     1
 90
        2
176
     1
 90
        1
176
     1
 90
        2
176
     1
 40
0.6
176
     1
 40
30.0
176
     1
 62
     7
420
 16777215
176
     1
 90
        1
176
     1
 90
        2
176
     1
 62
     7
176
     1
 62
   257
176
     1
 90
        2
176
     1
 90
        1
176
     1
 40
1.0
176
     1
 90
        8
176
     1
 62
   257
176
     1
 40
1.0
176
     1
 90
        1
176
     1
 90
        6
176
     1
 90
        2
176
     1
 62
     7
176
     1
 90
        3
176
     1
 90
        0
176
     1
 90
        0
176
     1
290
     0
176
     1
 90
        5
176
     1
 40
0.0
176
     1
 90
        0
176
     1
290
     0
176
     1
290
     1
176
     1
290
     1
176
     1
290
     0
176
     1
290
     0
176
     1
290
     0
176
     1
290
     0
176
     1
290
     0
176
     1
290
     0
176
     1
 90
       50
176
     1
 40
0.0
176
     1
 40
1.0
176
     1
 90
        0
176
     1
 62
    18
420
        0
176
     1
 90
       50
176
     1
 90
        3
176
     1
 62
     5
420
      255
176
     1
290
     0
176
     1
 90
       50
176
     1
 90
       50
176
     1
 90
       50
176
     1
290
     0
176
     1
 90
       50
176
     1
 62
   256
176
     0
 40
1.0
176
     0
 90
        2
176
     1
  1
strokes_ogs.tif
176
     1
290
     0
176
     1
 40
1.0
176
     1
 40
1.0
176
     1
1001
ACAD
1000
AcDbSavedByObjectVersion
1070
     0
  0
VISUALSTYLE
  5
1EF
102
{ACAD_REACTORS
330
EF
102
}
330
EF
100
AcDbVisualStyle
  2
Shades of Gray
 70
    23
177
     3
291
     0
 70
    58
 90
        2
176
     1
 90
        2
176
     1
 90
        3
176
     1
 90
        0
176
     1
 40
0.6
176
     1
 40
30.0
176
     1
 62
     7
420
 16777215
176
     1
 90
        2
176
     1
 90
        2
176
     1
 62
     7
176
     1
 62
     7
176
     1
 90
        1
176
     1
 90
        1
176
     1
 40
40.0
176
     1
 90
        8
176
     1
 62
     7
176
     1
 40
1.0
176
     1
 90
        1
176
     1
 90
        6
176
     1
 90
        2
176
     1
 62
     7
176
     1
 90
        3
176
     1
 90
        0
176
     1
 90
        0
176
     1
290
     0
176
     1
 90
        1
176
     1
 40
0.0
176
     1
 90
        0
176
     1
290
     0
176
     1
290
     1
176
     1
290
     1
176
     1
290
     0
176
     1
290
     0
176
     1
290
     0
176
     1
290
     0
176
     1
290
     0
176
     1
290
     0
176
     1
 90
       50
176
     1
 40
0.0
176
     1
 40
1.0
176
     1
 90
        0
176
     1
 62
    18
420
        0
176
     1
 90
       50
176
     1
 90
        3
176
     1
 62
     5
420
      255
176
     1
290
     0
176
     1
 90
       50
176
     1
 90
       50
176
     1
 90
       50
176
     1
290
     0
176
     1
 90
       50
176
     1
 62
   256
176
     0
 40
1.0
176
     0
 90
        2
176
     1
  1
strokes_ogs.tif
176
     1
290
     0
176
     1
 40
1.0
176
     1
 40
1.0
176
     1
1001
ACAD
1000
AcDbSavedByObjectVersion
1070
     0
  0
VISUALSTYLE
  5
1F0
102
{ACAD_REACTORS
330
EF
102
}
330
EF
100
AcDbVisualStyle
  2
Sketchy
 70
    24
177
     3
291
     0
 70
    58
 90
        1
176
     1
 90
        2
176
     1
 90
        2
176
     1
 90
        0
176
     1
 40
0.6
176
     1
 40
30.0
176
     1
 62
     7
420
 16777215
176
     1
 90
        2
176
     1
 90
        2
176
     1
 62
     7
176
     1
 62
     7
176
     1
 90
        1
176
     1
 90
        1
176
     1
 40
40.0
176
     1
 90
       11
176
     1
 62
     7
176
     1
 40
1.0
176
     1
 90
        1
176
     1
 90
        6
176
     1
 90
        2
176
     1
 62
     7
176
     1
 90
        6
176
     1
 90
        0
176
     1
 90
        0
176
     1
290
     0
176
     1
 90
        1
176
     1
 40
0.0
176
     1
 90
        0
176
     1
290
     0
176
     1
290
     1
176
     1
290
     1
176
     1
290
     0
176
     1
290
     0
176
     1
290
     0
176
     1
290
     0
176
     1
290
     0
176
     1
290
     0
176
     1
 90
       50
176
     1
 40
0.0
176
     1
 40
1.0
176
     1
 90
        0
176
     1
 62
    18
420
        0
176
     1
 90
       50
176
     1
 90
        3
176
     1
 62
     5
420
      255
176
     1
290
     0
176
     1
 90
       50
176
     1
 90
       50
176
     1
 90
       50
176
     1
290
     0
176
     1
 90
       50
176
     1
 62
   256
176
     0
 40
1.0
176
     0
 90
        2
176
     1
  1
strokes_ogs.tif
176
     1
290
     0
176
     1
 40
1.0
176
     1
 40
1.0
176
     1
1001
ACAD
1000
AcDbSavedByObjectVersion
1070
     0
  0
VISUALSTYLE
  5
FC
102
{ACAD_REACTORS
330
EF
102
}
330
EF
100
AcDbVisualStyle
  2
Thicken
 70
    13
177
     3
291
     1
 70
    58
 90
        2
176
     1
 90
        2
176
     1
 90
        1
176
     1
 90
        0
176
     1
 40
0.6
176
     1
 40
30.0
176
     1
 62
     7
420
 16777215
176
     1
 90
        1
176
     1
 90
        4
176
     1
 62
     7
176
     1
 62
   257
176
     1
 90
        1
176
     1
 90
        1
176
     1
 40
1.0
176
     1
 90
       12
176
     1
 62
     7
176
     1
 40
1.0
176
     1
 90
        1
176
     1
 90
        6
176
     1
 90
        2
176
     1
 62
     7
176
     1
 90
        5
176
     1
 90
        0
176
     1
 90
        0
176
     1
290
     0
176
     1
 90
        1
176
     1
 40
0.0
176
     1
 90
        0
176
     1
290
     0
176
     1
290
     1
176
     1
290
     1
176
     1
290
     0
176
     1
290
     0
176
     1
290
     0
176
     1
290
     0
176
     1
290
     0
176
     1
290
     0
176
     1
 90
       50
176
     1
 40
0.0
176
     1
 40
1.0
176
     1
 90
        0
176
     1
 62
    18
420
        0
176
     1
 90
       50
176
     1
 90
        3
176
     1
 62
     5
420
      255
176
     1
290
     0
176
     1
 90
       50
176
     1
 90
       50
176
     1
 90
       50
176
     1
290
     0
176
     1
 90
       50
176
     1
 62
   256
176
     0
 40
1.0
176
     0
 90
        2
176
     1
  1
strokes_ogs.tif
176
     1
290
     0
176
     1
 40
1.0
176
     1
 40
1.0
176
     1
1001
ACAD
1000
AcDbSavedByObjectVersion
1070
     0
  0
VISUALSTYLE
  5
F6
102
{ACAD_REACTORS
330
EF
102
}
330
EF
100
AcDbVisualStyle
  2
Wireframe
 70
     5
177
     3
291
     0
 70
    58
 90
        0
176
     1
 90
        2
176
     1
 90
        0
176
     1
 90
        0
176
     1
 40
0.6
176
     1
 40
30.0
176
     1
 62
     7
420
 16777215
176
     1
 90
        1
176
     1
 90
        4
176
     1
 62
     7
176
     1
 62
   257
176
     1
 90
        1
176
     1
 90
        1
176
     1
 40
1.0
176
     1
 90
        0
176
     1
 62
   257
176
     1
 40
1.0
176
     1
 90
        1
176
     1
 90
        6
176
     1
 90
        2
176
     1
 62
     7
176
     1
 90
        3
176
     1
 90
        0
176
     1
 90
        0
176
     1
290
     0
176
     1
 90
        1
176
     1
 40
0.0
176
     1
 90
        0
176
     1
290
     0
176
     1
290
     1
176
     1
290
     1
176
     1
290
     0
176
     1
290
     0
176
     1
290
     0
176
     1
290
     0
176
     1
290
     0
176
     1
290
     0
176
     1
 90
       50
176
     1
 40
0.0
176
     1
 40
1.0
176
     1
 90
        0
176
     1
 62
    18
420
        0
176
     1
 90
       50
176
     1
 90
        3
176
     1
 62
     5
420
      255
176
     1
290
     0
176
     1
 90
       50
176
     1
 90
       50
176
     1
 90
       50
176
     1
290
     0
176
     1
 90
       50
176
     1
 62
   256
176
     0
 40
1.0
176
     0
 90
        2
176
     1
  1
strokes_ogs.tif
176
     1
290
     0
176
     1
 40
1.0
176
     1
 40
1.0
176
     1
1001
ACAD
1000
AcDbSavedByObjectVersion
1070
     0
  0
VISUALSTYLE
  5
1F1
102
{ACAD_REACTORS
330
EF
102
}
330
EF
100
AcDbVisualStyle
  2
X-Ray
 70
    25
177
     3
291
     0
 70
    58
 90
        2
176
     1
 90
        2
176
     1
 90
        1
176
     1
 90
        1
176
     1
 40
0.5
176
     1
 40
30.0
176
     1
 62
     7
420
 16777215
176
     1
 90
        1
176
     1
 90
        0
176
     1
 62
     7
176
     1
 62
   257
176
     1
 90
        1
176
     1
 90
        1
176
     1
 40
1.0
176
     1
 90
        8
176
     1
 62
     7
176
     1
 40
1.0
176
     1
 90
        1
176
     1
 90
        6
176
     1
 90
        2
176
     1
 62
     7
176
     1
 90
        3
176
     1
 90
        0
176
     1
 90
        0
176
     1
290
     0
176
     1
 90
       13
176
     1
 40
0.0
176
     1
 90
        0
176
     1
290
     0
176
     1
290
     1
176
     1
290
     1
176
     1
290
     0
176
     1
290
     0
176
     1
290
     0
176
     1
290
     0
176
     1
290
     0
176
     1
290
     0
176
     1
 90
       50
176
     1
 40
0.0
176
     1
 40
1.0
176
     1
 90
        0
176
     1
 62
    18
420
        0
176
     1
 90
       50
176
     1
 90
        3
176
     1
 62
     5
420
      255
176
     1
290
     0
176
     1
 90
       50
176
     1
 90
       50
176
     1
 90
       50
176
     1
290
     0
176
     1
 90
       50
176
     1
 62
   256
176
     0
 40
1.0
176
     0
 90
        2
176
     1
  1
strokes_ogs.tif
176
     1
290
     0
176
     1
 40
1.0
176
     1
 40
1.0
176
     1
1001
ACAD
1000
AcDbSavedByObjectVersion
1070
     0
  0
DICTIONARYVAR
  5
146
102
{ACAD_REACTORS
330
5E
102
}
330
5E
100
DictionaryVariables
280
     0
  1
1:1
  0
DICTIONARYVAR
  5
259
102
{ACAD_REACTORS
330
5E
102
}
330
5E
100
DictionaryVariables
280
     0
  1
3.500000
  0
DICTIONARYVAR
  5
25A
102
{ACAD_REACTORS
330
5E
102
}
330
5E
100
DictionaryVariables
280
     0
  1
acadiso.lin
  0
DICTIONARYVAR
  5
145
102
{ACAD_REACTORS
330
5E
102
}
330
5E
100
DictionaryVariables
280
     0
  1
STANDARD
  0
DICTIONARYVAR
  5
84
102
{ACAD_REACTORS
330
5E
102
}
330
5E
100
DictionaryVariables
280
     0
  1
STANDARD
  0
DICTIONARYVAR
  5
227
102
{ACAD_REACTORS
330
5E
102
}
330
5E
100
DictionaryVariables
280
     0
  1
Metric50
  0
DICTIONARYVAR
  5
228
102
{ACAD_REACTORS
330
5E
102
}
330
5E
100
DictionaryVariables
280
     0
  1
Metric50
  0
DICTIONARYVAR
  5
5F
102
{ACAD_REACTORS
330
5E
102
}
330
5E
100
DictionaryVariables
280
     0
  1
2
  0
DICTIONARYVAR
  5
63
102
{ACAD_REACTORS
330
5E
102
}
330
5E
100
DictionaryVariables
280
     0
  1
1
  0
DICTIONARYVAR
  5
1AE
102
{ACAD_REACTORS
330
5E
102
}
330
5E
100
DictionaryVariables
280
     0
  1
0
  0
DICTIONARYVAR
  5
1AF
102
{ACAD_REACTORS
330
5E
102
}
330
5E
100
DictionaryVariables
280
     0
  1
0
  0
DICTIONARY
  5
D16
102
{ACAD_REACTORS
330
D14
102
}
330
D14
100
AcDbDictionary
281
     1
  0
DICTIONARY
  5
D15
102
{ACAD_REACTORS
330
D14
102
}
330
D14
100
AcDbDictionary
281
     1
  3
2313361475584
350
D10
  3
2313361475600
350
D11
  3
2313361475616
350
D12
  3
2313361475632
350
D13
  3
2313361489776
350
D0F
  0
DICTIONARY
  5
D1D
330
28F
100
AcDbDictionary
280
     1
281
     1
  3
ACAD_XREC_ROUNDTRIP
360
D1E
  0
DICTIONARY
  5
D19
330
21C
100
AcDbDictionary
280
     1
281
     1
  3
ACAD_XREC_ROUNDTRIP
360
D1A
  0
DICTIONARY
  5
205
330
22
100
AcDbDictionary
280
     1
281
     1
  0
DICTIONARY
  5
1F9
330
ED
100
AcDbDictionary
280
     1
281
     1
  3
FBXASSET
360
1FA
  0
DICTIONARY
  5
1F7
330
EC
100
AcDbDictionary
280
     1
281
     1
  3
FBXASSET
360
1F8
  0
DICTIONARY
  5
173
330
EE
100
AcDbDictionary
280
     1
281
     1
  3
BUMPTILE
360
175
  3
DIFFUSETILE
360
174
  3
FBXASSET
360
1FB
  3
OPACITYTILE
360
176
  3
REFLECTIONTILE
360
177
  0
DICTIONARY
  5
D1B
330
28E
100
AcDbDictionary
280
     1
281
     1
  3
ACAD_XREC_ROUNDTRIP
360
D1C
  0
DICTIONARY
  5
D17
330
21A
100
AcDbDictionary
280
     1
281
     1
  3
ACAD_XREC_ROUNDTRIP
360
D18
  0
DICTIONARY
  5
162
330
7F
100
AcDbDictionary
280
     1
281
     1
  3
ACAD_ROUNDTRIP_2008_TABLESTYLE_CELLSTYLEMAP
360
D0D
  0
XRECORD
  5
D10
102
{ACAD_REACTORS
330
D15
102
}
330
D15
100
AcDbXrecord
280
     1
  1
AcDbDs::TreatedAsObjectDataSchema
  2
AcDbDs::TreatedAsObjectData
280
     1
 91
        0
  0
XRECORD
  5
D11
102
{ACAD_REACTORS
330
D15
102
}
330
D15
100
AcDbXrecord
280
     1
  1
AcDbDs::LegacySchema
  2
AcDbDs::Legacy
280
     1
 91
        0
  0
XRECORD
  5
D12
102
{ACAD_REACTORS
330
D15
102
}
330
D15
100
AcDbXrecord
280
     1
  1
AcDbDs::IndexedPropertySchema
  2
AcDs:Indexable
280
     1
 91
        0
  0
XRECORD
  5
D13
102
{ACAD_REACTORS
330
D15
102
}
330
D15
100
AcDbXrecord
280
     1
  1
AcDbDs::HandleAttributeSchema
  2
AcDbDs::HandleAttribute
280
     7
 91
        1
284
     1
  0
XRECORD
  5
D0F
102
{ACAD_REACTORS
330
D15
102
}
330
D15
100
AcDbXrecord
280
     1
  1
AcDb_Thumbnail_Schema
102
{ATTRRECORD
341
D10
  2
AcDbDs::TreatedAsObjectData
280
     1
291
     1
102
ATTRRECORD}
102
{ATTRRECORD
341
D11
  2
AcDbDs::Legacy
280
     1
291
     1
102
ATTRRECORD}
  2
AcDbDs::ID
280
    10
 91
        8
102
{ATTRRECORD
341
D12
  2
AcDs:Indexable
280
     1
291
     1
102
ATTRRECORD}
102
{ATTRRECORD
341
D13
  2
AcDbDs::HandleAttribute
280
     7
282
     1
102
ATTRRECORD}
  2
Thumbnail_Data
280
    15
 91
        0
  0
XRECORD
  5
D1E
102
{ACAD_REACTORS
330
D1D
102
}
330
D1D
100
AcDbXrecord
280
     1
102
DISPLAYNAME
  1
Imperial24
102
FLAGS
 90
        0
  0
XRECORD
  5
D1A
102
{ACAD_REACTORS
330
D19
102
}
330
D19
100
AcDbXrecord
280
     1
102
DISPLAYNAME
  1
Metric50
102
FLAGS
 90
        0
  0
XRECORD
  5
1FA
102
{ACAD_REACTORS
330
1F9
102
}
330
1F9
100
AcDbXrecord
280
     1
 70
     1
 90
429727718
  1
D62C5603-E3A1-4AEA-B7FB-FE5D8D0755AF
310
504B03040A0000080000CC70623B3DEE336E79000000790000001B0000006175746F6465736B2D64657369676E2D7061636B6167652E786D6C3C3F786D6C2076657273696F6E3D22312E302220656E636F64696E673D227574662D3822203F3E3C666F726D6174733E3C666F726D61743E687474703A2F2F736368656D612E
310
6175746F6465736B2E636F6D2F64657369676E2D7061636B6167652F323030393C2F666F726D61743E3C2F666F726D6174733E504B0304140006080800CC70623BD486FD9CA0000000F4000000130000005B436F6E74656E745F54797065735D2E786D6C7D8EC10E82300C865F65E91D8A1E8C310C0EEA1BF002731658846E
310
D98AC1B77784ABF1D8FE5FBFBF75BBCE937A534CCEB38643598122B6FEE978D0B0485F9C41B54DDD7D022595594E1A469170414C76A4D9A4D207E29CF43ECE46F218070CC6BECC4078ACAA135ACF422C856C0E68EA1BF5669944DDD7BCDE7B1F8E415D77AECB980613C2E4AC91FC167A2B244592486606FC29C8FD7F045B9A
310
EF7053A7E60B504B0304140006080800CC70623B853B8169EB0000007C01000008000000636F72652E786D6C8D90416EC3201045AF62CDB6C206821CC7C244919D9CA01740401C94182C03558F5F9C3852BBEB6A467FFE9B197D7EFC9E1EC5975982F5AE035262288C535E5B377690E21535501C055FBC8FBF6C503839990E
310
5619041F179FE64D52DE45E362569DD7661365082642A11EB9E920A89B99642953CC8E702F67A9EE7234257977194EC9EAE275C4EABCCF5EAD5940D4AC6F0E35A568B8F43562CD7046CD199FD07E60174276A7BE677B5EADB0E0D14EEFFB6A31321A0D82627C4084204C3F096B71DD52F6819B16635EADF63F509AF53FA164
310
5DDCD1EDDD17164090FCC8732078B56691CB33A85CD7DCC40F504B0304140006080800CC70623B55019EA25F0000007C00000007000000636E782E786D6C4DCB3B0E80201045D1AD90E915ED2CF8AC45050C11660C8261F98AB1B07AC9C97D42D718D865D3E909258CFD00CCE24AC6E326A164D74DC0B4128928FF32603847
310
2BA13128B1252AC747C6BAB984FC68F0B87FE8960A5C09FE86CFB69FBA01504B0304140006080800CC70623BDBABAAF470010000D40300000C0000006662782F636F72652E786D6CC553D16E823014FD95A6AF4B694182CC941A83FA05FB810A9511A125A5257EFE2E82712ECEB8A7F100CD39F7F69E734AF9FADC366850B6
310
AF8DCE7018308C942E4C59EB2AC3DE1D498AD15A706B8CFB56869196ADCAF00863C12B6B7C374385D14E6907A836A59A41D9F7CA615434B0C8705F7CAA5606D23BA8E84F41278B93AC54100640439DE0BDB320004D43C63716C7C399D30917DCFBBA9CD9BA8469F5B156168B24CED3F7248AC8769F27244EB73B92EED8862C
310
B7F13E0C179B3C8F979C8ECD82BBBABDAA2BAC924E9558448CBD9330242CFA08E3154B5651FCC6D215639C8EE5774DBE2B5F6CF2B5768B68963BB5F5588420E442FC700B1139D4CB01F450C1E918227C2E09DF070D8140C84E1E9AAB8F1340832A9CB13130A5F1376A908D57309505ECF2A0DF179C4E9D30F5B239B87E3823
310
7A79C6F31DE1A8A5AEC08474B03C7837EAE4938639B44E5932B833D2C6B6B279CDC613877FA26EE21F4A2A4C63EC7F29A2F301D1F9F7A0E37D145F504B0304140006080800CC70623B9C113CC27E0000009D0000000B0000006662782F636E782E786D6C4DCCDF0A83201C86E15B91DFB94BFB330DD428C8FB886521330DA7
310
6397BF1A1DECE883878F57749FCDA1B7892F1BBC047A23808C7F84D9FA55424E0BE6803A256208E9EF06C84F9B91703228B1C690F78B66B34CD9A5439DF5CF0BFBF65E35BCA1B8D6A5C6F540381E886698B5741C695F9503EBA150A2F8958E3DC3EA0B504B0304140006080800CC70623B7DF2F77C2A010000120200003100
310
00006662782F41393633353835312D344632462D344230382D423046372D3739314545314133324237412F636F72652E786D6C8D51DB8EC22014FC15C2939B0D2DB4B45643319AE817EC0F6041255A68B86CFCFC856D4D76DF7CE190393373060EDB3DC707F856CE6B6B7A480A0C81328395DA5C7B18C3057510EC3873D686
310
3F34088C18550F330C39BB3A1BA7051AAC09CA84841A2BD5020AEF55806078A44B0FFD7053A328440C89E1EFC52486BBB8AA8214A99D789CF9E05200300FC927E4FB4D5B375D43103D5527440FB843077C5AA3F5861C8F645F5787F59E95B390B318B55CE45AA638FAA2957BD7248B390B7A7CC51F9C124149C82B8C378810
310
84AB2F42B7B8DD56F413775B8C5999E9FF4471926F8AA236A1AE96B8B3CC434E5839373893369E1FAF30EA395917409EB7F26AF8801C171837A4A6AC9C89E9F9C9B1A58BA30FD6A5EF5DDDCF894B9AD9B6A59C957943A9FCAE2FD5BC4DFE03504B0304140006080800CC70623BAD7543B64E01000033030000300000006662
310
782F41393633353835312D344632462D344230382D423046372D3739314545314133324237412F636E782E786D6CD593CD6EC32010845F0571AD6CE3D48AD20813A9873E410FBD12D82434182C7EAAE6EDBB2424CD25871E7B41D6EC30B3FA84F9E67BB2E40B4234DE8DB46F1925E094D7C6ED479AD3AE5951B2113C789FEE
310
6C943839C1488B4C05DF079FE72A69D8C96C13AAD6B8631503449F83828872B949AC57D26200B826A308D316B4064D6E46FCDA41C05550DC9E483A00797BFD207EFB092A45DE9514C1BBD22178396BD39D891265658C238DEA00936C654E5E433CB65A26D9F6EDB5EBC14EBF49A45CB856E66048291F6939A9A81BB5C89177
310
38143CA680F4AA299D66A042CEB3354A2684DC9D8D178FE0D9B8B41CAAD720F880EE7EF93C0C18769E099ECC04D5A102C8049A8A05632F4DDF376CF1DE0F6BB65C2F8627B65A33C6BB62177CEBBDAD973006829F89F22E814B54F4BC2BE347F8AA8F681390B50FA73F804400B5F542E796F19FF974E7F78DB802FE05E20750
310
4B0304140006080800CC70623BE75B7789680500003C100000340000006662782F41393633353835312D344632462D344230382D423046372D3739314545314133324237412F6F626A656374732E786D6CAD575B8F9B3818FD2B887D06C22499CB8AA1CA655245D5B455A356FB305264C061D8018C6C3393D95FBFC7600890
310
A4CD5EF210B0B1BFEBF98E3F7B1FF6596ABC522E1296DF9BAE3D320D9A872C4AF2F8DE2CE5CEBA358D0FBEC719939D65A691938CDE9B6ADAF4BD98B3B2D05311DD91329583D9D5FC0F438434A7A611A644887B5384CF34233629258BA878B12322891DEFF6B66BD70BFB62634E8AE781D082709A4B588AF91C528CDA28B73F
310
1C998EEF39EABBEFA97FBD6A7C7E9553F9D3D79FE442923C3C523610337627CB87ABE99D359D4CC6D6E4FACAB5E6ABF9D2726FC6A3C5F56271377BB88362213924694B38DD99FE47C48627A1E7D49F5A8BB5E1A74C0A599ED3B0F21F1E56366B89112D681E218F0915D0D6F17AD41FBA2A369DCF6335D62ABBD39779D5DDD1
310
11D4D8DE3CBB96B2E04FB8202E41051754A1AA8E8F76B4C6DFE810B580B1547F4B84911149794252234D024EF8BBE963A95AE27B3D310A9D5C215C7960FAEE415ED75694C6AFB17BCACA5D99A60A9AA65F217B0BFC53292ACB92BF283FAD0D3621576592CB5BED907C2FA8E9DF794E35E97BEA31BED21FEB401ABB94C44839
310
DCACBF0E1C5DA8DA5B2F4DFFD32AD86F543D9E565E7056502E157C00AD2671CD534549AB752FCA9CDA00677A313F04E51B22FF19E57B300579E3C97EB29F682D92935CEC18CF901B7B54FD8C51F362B56FC72FE0B3C1EAE335EDCCBF5AEC39ADB17DC238973F804BA5E6F6BFE7AF1FB32E523BE9F3BD571418E3631DCA4D48
310
5250CF639223210A9446CA30052EDF057BD35F8329C1ECD84552BF0DC8D18BE7BCE23BFE6BD960AB4A7DE79923A103BEBD80F911CBAA2C60DB19B01CF164A5583B772EE6D3FFA56666CBCDA74DC97724A48F9A58967497E489C4D979006FD7A05E227A1EBDD0F737C623387A9C844D3709995625106D157315F8B8392CD4E0
310
A0B9A720C4BE9829CEF37EA1E13111214D53925356365ADA634861B52519DD27A00AEB808EAF0628E6F435519D446F45CF2C9CF5214F0A15B2F6D06B79DA3EE3CBF7F56780D2F4E7EF73A0F5E5B02A38D07DC852C6B7C1FBB6664213E0C39E3EBA7FF4E1AD23EA2829407C85E586727488B751B2DB9502BC7B228A3FD68B6E
310
A65A22397E690AA8D158D7E404EC8CDA235CC3B7D1898680131CEC2CDF2638C65196279577750F15884AEE19F94199155B92B13297978469D4F8D358DF0AEF7631E28DC8F0D9F437D5D39A83B2231A1D52D543813A824EF8D44BCFF2FA6A31BD1E8DAD87F1CCB526B3879935BF59CDADD5C37479BB1CDD4CA7B3556B516589
310
EF352754B706114D9C885EC9131DE6EFEB43D99AFE2391C2F958179413D7CFEF6B1B6DB1E7600F00DE6E5C67454A339A4BA2E0FBA85ED26F045D454F463DBFCE484C2F90F2E5E3666003662ED8F755951A7D1BECD5B30B550B2785C8E7320B7292A4838DDA71BBC863ED7613CAF659337A3354231D4FF4A182A54904C2898C
310
98B28C4AD0CE056CCF332A80986E571EE9DBC305BB5FEB7E509220A58D25CF042D712A806AC0AD0C657FDEF80D2D9CEAA2EE4D1C76F60BFE74219A06527D6F82DF6412526107381E55E353090704D085B52408A8913C4ED159D79BDA71BB4BC506F4831350EB6F975CD22D69BF7AC49B91A2C0A9DDA3D5CA36AD20FC478E37
310
E61844E2352865EBCB61A275A65283CAAA9DD27703B4102F5AF51EF5F573B75CBB5AD38BC845F7A49F82A0966A49C2E3EA5EA0ECD326CD965F1DB402C6FA8B51A4658C5C5E2EC9E214602E55810345408596591009A82E7E7FFACA19EEA299B14A0081A705CB3296EBC14CDF658DCD336EA6D1136881AAEB87B81AB9EE53D5
310
F5EB8BC8362082DA24122F98680A4E7930C01A0079749CEA14382A0783E5EBA5A10F8C098456A03D6A4AEB6BB881E2513747552A5DB22C7EDAF83BD5528081A365F7FF06504B0304140006080000CC70623B000000000000000000000000350000006662782F41393633353835312D344632462D344230382D423046372D37
310
39314545314133324237412F76657274696365732E62696E504B0304140006080800CC70623BF270F1330600000004000000360000006662782F41393633353835312D344632462D344230382D423046372D3739314545314133324237412F747269616E676C65732E62696E636660600000504B0304140006080000CC7062
310
3B000000000000000000000000370000006662782F41393633353835312D344632462D344230382D423046372D3739314545314133324237412F617474726962757465732E62696E504B0304140006080800CC70623B08DA0BD19000000041010000360000006662782F41393633353835312D344632462D344230382D4230
310
46372D3739314545314133324237412F6469726563746F72792E786D6C858F410AC3201045AF22B36F53E9A60B35CBEEBAE80D244E44489C6234F4F835464A48035D0DF398FF9F8AF63D0E6CC63039F212F8F9020C7D47C6792B21C5FE7403D62A1188E2E60C98D7234A5830286103A55745067B9D86B8A3CF9C7F90C11DE6
310
07FB144396D7B6A82D282E9A152AD114D5EF2CB866EEE831B8EEA07A7BB5A8D7D61A2BAAEB7FD5F70921FF497D00504B0304140006080800CC70623BEDD1DC58FD000000A00100003B0000006662782F41393633353835312D344632462D344230382D423046372D3739314545314133324237412F7265736F75726365732F
310
636F72652E786D6C8D504B6E833010BD0A9A6D65B00922041947112427E8052C33A156828DFCA97AFC9A40A576D7CDCCE87D344F8F9FBFE667F689CE6B6B3A6039850C8DB2A336530731DC4903D95970676DF82583CCC8193B5861107C72362E3BA4AC096842428D1D7107A5F7182053CF7474E0D507CE32973124857FE48B
310
540F3961CEF244279DE03EB81420DB9EAC1384436FA353E879B1B182C7A8C75DA3C7F453DF353A1075D537A7BA6464B8F535A99AE14A9A2BBD90E350DD183B5CFABE3AF262350B1EF4FC9351399401471025A527C218A1E53BAB5A5AB765F5469B96525EACF23FA6B88CFF34456DC2A1DCE36E360F82A5202F42F062ED2BAD
310
579969AFDD8A6F504B010214000A0000080000CC70623B3DEE336E79000000790000001B00000000000000000000000000000000006175746F6465736B2D64657369676E2D7061636B6167652E786D6C504B01021400140006080800CC70623BD486FD9CA0000000F40000001300000000000000000000000000B20000005B
310
436F6E74656E745F54797065735D2E786D6C504B01021400140006080800CC70623B853B8169EB0000007C010000080000000000000000000000000083010000636F72652E786D6C504B01021400140006080800CC70623B55019EA25F0000007C000000070000000000000000000000000094020000636E782E786D6C504B
310
01021400140006080800CC70623BDBABAAF470010000D40300000C00000000000000000000000000180300006662782F636F72652E786D6C504B01021400140006080800CC70623B9C113CC27E0000009D0000000B00000000000000000000000000B20400006662782F636E782E786D6C504B01021400140006080800CC70
310
623B7DF2F77C2A010000120200003100000000000000000000000000590500006662782F41393633353835312D344632462D344230382D423046372D3739314545314133324237412F636F72652E786D6C504B01021400140006080800CC70623BAD7543B64E010000330300003000000000000000000000000000D2060000
310
6662782F41393633353835312D344632462D344230382D423046372D3739314545314133324237412F636E782E786D6C504B01021400140006080800CC70623BE75B7789680500003C10000034000000000000000000000000006E0800006662782F41393633353835312D344632462D344230382D423046372D3739314545
310
314133324237412F6F626A656374732E786D6C504B01021400140006080000CC70623B0000000000000000000000003500000000000000000000000000280E00006662782F41393633353835312D344632462D344230382D423046372D3739314545314133324237412F76657274696365732E62696E504B01021400140006
310
080800CC70623BF270F133060000000400000036000000000000000000000000007B0E00006662782F41393633353835312D344632462D344230382D423046372D3739314545314133324237412F747269616E676C65732E62696E504B01021400140006080000CC70623B0000000000000000000000003700000000000000
310
000000000000D50E00006662782F41393633353835312D344632462D344230382D423046372D3739314545314133324237412F617474726962757465732E62696E504B01021400140006080800CC70623B08DA0BD1900000004101000036000000000000000000000000002A0F00006662782F41393633353835312D344632
310
462D344230382D423046372D3739314545314133324237412F6469726563746F72792E786D6C504B01021400140006080800CC70623BEDD1DC58FD000000A00100003B000000000000000000000000000E1000006662782F41393633353835312D344632462D344230382D423046372D3739314545314133324237412F7265
310
736F75726365732F636F72652E786D6C504B0506000000000E000E0080040000641100000000
  0
XRECORD
  5
1F8
102
{ACAD_REACTORS
330
1F7
102
}
330
1F7
100
AcDbXrecord
280
     1
 70
     1
 90
429727718
  1
30362254-06B7-45E0-A893-8CFA70E3D6BC
310
504B03040A0000080000CC70623B3DEE336E79000000790000001B0000006175746F6465736B2D64657369676E2D7061636B6167652E786D6C3C3F786D6C2076657273696F6E3D22312E302220656E636F64696E673D227574662D3822203F3E3C666F726D6174733E3C666F726D61743E687474703A2F2F736368656D612E
310
6175746F6465736B2E636F6D2F64657369676E2D7061636B6167652F323030393C2F666F726D61743E3C2F666F726D6174733E504B0304140006080800CC70623BD486FD9CA0000000F4000000130000005B436F6E74656E745F54797065735D2E786D6C7D8EC10E82300C865F65E91D8A1E8C310C0EEA1BF002731658846E
310
D98AC1B77784ABF1D8FE5FBFBF75BBCE937A534CCEB38643598122B6FEE978D0B0485F9C41B54DDD7D022595594E1A469170414C76A4D9A4D207E29CF43ECE46F218070CC6BECC4078ACAA135ACF422C856C0E68EA1BF5669944DDD7BCDE7B1F8E415D77AECB980613C2E4AC91FC167A2B244592486606FC29C8FD7F045B9A
310
EF7053A7E60B504B0304140006080800CC70623B1EC5D7A3EB0000007C01000008000000636F72652E786D6C8D90416EC3201045AF82665B6103C6756C6122AB4D4ED00B204C5C94182C03558F5F9C3852BBEB6A467FFE9B197D71FC9E6FE8CBACC17AD7032D0820E3B41FAD9B7A48F1820F808E52ACDEC75F36404ECDA687
310
4D0629A6D5A76597B477D1B89855E747B38B2A041301E95B6E7A08FAD3CCAA50296647B8168BD2573599823EBB0CA76447F43862C7BCCF5EAC59410E4DDD9C7973C2755553CCCFA4C603E3040F1565ED3B1FDE4E432BCA0D9622DAF9795FAF464533826484B498524CD807E51D79ED187F21878E10516EF63F505AC67F42C9
310
BA58B1FDDD071640D2FCC87D2045B96591CB3DA85CB7DCE40F504B0304140006080800CC70623B55019EA25F0000007C00000007000000636E782E786D6C4DCB3B0E80201045D1AD90E915ED2CF8AC45050C11660C8261F98AB1B07AC9C97D42D718D865D3E909258CFD00CCE24AC6E326A164D74DC0B4128928FF32603847
310
2BA13128B1252AC747C6BAB984FC68F0B87FE8960A5C09FE86CFB69FBA01504B0304140006080800CC70623B8C9102E971010000D40300000C0000006662782F636F72652E786D6CC5535B6E833010BC8AE5DF0A6C08340F1947A84D4ED00B38C6A128602363A31CBFCB234A53A551FA553EC09AD9F5CE8C31DB9E9B1AF5CA
310
7695D1198E428A91D2D214952E33ECDD315861B4E5CC1AE3BE9561A445A3323CC098B3D21ADFCE9034DA29ED00D5A6503328BA4E398C640D8B0C77F253352214DE4145770A5B214FA2546114020D759C75CE8200340D19DE981F0F6746269C33EFAB6266AB02A655C74A59CCF365BADC27CB5D902ED22848F6340DF238A141
310
BE88E2F57B92BFEDF23523433367AE6A2EEAA455C2A902F398D2751045018D3FA264435F3771F242571B4A1919CA6F9A7C5B3CD9E42BED16F12C776AEB308F40C848FC700B1139D4891EF410CEC810227CC6846F8386402064270EF5C5C709A05E49676C024C61FC95EA45ED154CA5211D1FF4FB8291A913A68E9B83EBBB33
310
E2A7673CDE118E5AE8124C0807CB8377834E366998436B950D7A7746DAD846D4CFD978E0F04FD455FC5D49D2D4C6FE9722321F10997F0F32DC47FE05504B0304140006080800CC70623BFFEA85907E0000009D0000000B0000006662782F636E782E786D6C4DCCD10A83201886E15B91FFDC95D95A811AB6F23E625948A6C3
310
E9D8E5AF46073BFAE0E1E365ED67B3E8ADC3CB78C7815C7240DA3DFC64DCC221C519D7805AC182F7F1EF06C88D9BE6703008B6049F9E274D7A1E938DBB5AE3D6131B2589BA0D3D965551E0B2EA732C9B9A624AAEB41E3A557677029960D9AFB4EF11165F504B0304140006080800CC70623B4FEEA4082C0100001202000031
310
0000006662782F39464131463745442D413632322D343644302D413938332D3331353338454246344243312F636F72652E786D6C8D515B6EC32010BC0AE2AB55850DD871ED0813254D72825EC00192A2C460F1A872FC42ED48ED5F7E00CDCECCCEB26C731F6FE05B39AFADE921293004CA082BB5B9F43086336A21D870E6AC
310
0D7F68109861543DCC30E4ECE26C9C164858139409093556AA051CBC570102714B8F1E7AF1A5C6A11862480C7F2DA6415C878B2A4891CA89C7990F2E050073937C42DE1DB7E4F87ED8A36D4329AA9B3D46DBAEAD504556557BD81DEBDD0761E52CE42C462D17B996298E3E6BE59E35C962CE821E1FF18553435012728A7187
310
0841987E927A8D9B35ADDF70BBC6989599FE4F1427F9A4286A132ABAC49D651EF234CD5CE04CDA78BA3DC2A8FB645D00B9DF8B57E215725C60BCA2A463E54C4CE327C7A65E1C7DB02E7DEFCBF594B864C5CA6CDBD49C957943E9FA5D5FBAF336F90F504B0304140006080800CC70623BAD7543B64E01000033030000300000
310
006662782F39464131463745442D413632322D343644302D413938332D3331353338454246344243312F636E782E786D6CD593CD6EC32010845F0571AD6CE3D48AD20813A9873E410FBD12D82434182C7EAAE6EDBB2424CD25871E7B41D6EC30B3FA84F9E67BB2E40B4234DE8DB46F1925E094D7C6ED479AD3AE5951B2113C
310
789FEE6C943839C1488B4C05DF079FE72A69D8C96C13AAD6B8631503449F83828872B949AC57D26200B826A308D316B4064D6E46FCDA41C05550DC9E483A00797BFD207EFB092A45DE9514C1BBD22178396BD39D891265658C238DEA00936C654E5E433CB65A26D9F6EDB5EBC14EBF49A45CB856E66048291F6939A9A81BB5
310
C8917738143CA680F4AA299D66A042CEB3354A2684DC9D8D178FE0D9B8B41CAAD720F880EE7EF93C0C18769E099ECC04D5A102C8049A8A05632F4DDF376CF1DE0F6BB65C2F8627B65A33C6BB62177CEBBDAD973006829F89F22E814B54F4BC2BE347F8AA8F681390B50FA73F804400B5F542E796F19FF974E7F78DB802FE05
310
E207504B0304140006080800CC70623B16AB87BA640500003C100000340000006662782F39464131463745442D413632322D343644302D413938332D3331353338454246344243312F6F626A656374732E786D6CAD575B6FA33818FD2B887DE6924B3BED8A326A92B68A663B534DD4D13E548A0C38942D60649B369D5FBFC7
310
600890A493BDE42160637FD7F31D7FF63E6FB3D478A55C242CBF3247B66B1A340F5994E4F19559CA8D75611A9F7D8F33263BCB4C232719BD32D5B4E97B316765A1A722BA21652A07B3B7B33F0D11D29C9A46981221AE4C113ED38CD8A4942CA2E2C58E882476BCD9DA23BB5ED8171B73523C0F841684D35CC252CCE79062D4
310
468DFA43D7747CCF51DF7D4FFDEB5593E3AB9CCA9FBEFE241792E4E19EB28198C968BAB8199F5D5A67D3E9C49A9E8F47D6EC76B6B0469F26EEFC7C3EBFBCBEB98462213924694B38DD98FE1D62C393D073EA4FADC5DAF04326852CCF6958F90F0F2B9BB5C48816348F90C7840A68EB78EDF68723159BCEE7891A6B95DDE9D3
310
BCEAEEE8086A6C6F9E5D4B59F0175C10A7A0820BAA5055C7473B5AE3CFDD452D602CD5DF12616444529E90D448938013FE6EFA58AA96F85E4F8C42275708571E98FE6827AF6B2B4AE3D7D83D64E5A64C53054DD3AF90BD06FEA9149565C94FCA0F6B834DC85599E4F2423B24DF0B6AFA979E534DFA9E7A4CC6FA631D486393
310
921829879BF5D781A373557BCB85E97FB90DB62B558F8795179C15944B051F40AB495CF35451D26A4727654E6D8033BD98EF82F21D91FF8AF2DD9982BCF1643BDD4EB516C9492E368C67C88DED563FC36D5EACF66DFF057C3658BDBFA69DF9578B3DA735B64F18C7F20770A9D45CFCF7FCF563D6456A277DBEF78A02637CA2
310
43B90A490AEAB94F72244481D24819A6C0E59B606BFA4B3025981DBB48EAB701D97BF19C577CC77F2D1B6C55A9EF3C732474C0B727303F625995056C3B02963D9EAC146BE78EC5FCEC7FA999EBC5EACBAAE41B12D27B4D2C0BBA49F244E2ECDC81B76B502F113D8F5EE8FB1BE3111CDD4FC2AA9B844CAB1288B68AB90A7CDC
310
1C166AB0D3DC5310625FCC14E779BFD0709F8890A629C9292B1B2DED31A4B0DA928CEE135085754027E3018A397D4D5427D15BD1330B677DC8934285AC3DF45A9EB68FF8F2B8FC0A509AFEECFD0FF2DE25CC6047F7214B195F07EFEB9A094D800F7BFAE8FED187B78EA8A3A400F115961BCAD1215E47C966530AF0EE8128FE
310
58CEBB996A8964FFA529A046635D9353B0336A8F700DDF46271A024E70B0B37C9DE01847591E54DED53D54202AB947E4076556AC49C6CA5C9E1226B7F1A7B1BE15DEED62C41B91E1B3E9AFAAA735036547343A925075041DF0A9979E893B391F8FCFA6967B3EFB644DCF6E5CEBFAE272625DCC6FAF3FB93793C5F90CE1EF57
310
407342756B10D1C489E8953CD1617E5CEECAD6F4EF8914CE5D5D504E5C3F1F9736DA62CFC11E00BCDDB8CC8A9466349744C1F75EBDA4DF09BA8A9E8C7A7E9991989E20E5DBDD6A6003664ED8F7A04A8DBE0DF6EAD9B9AA858342E47399053949D2C146EDB85DE4B176BB0965FBAC19BD19AA918E27FA50C1D22402E144464C
310
59462568E704B6E71915404CB72B8FF4EDE184DDAF753F284990D2C6926782963815403548A70C657FDEF80D2D9CEAA2AE4C1C76F60BFE74219A06527D6582DF6412526107381E55E353090704D085B52408D0933C4ED159D79BDA71BB4BC506F4831350EB6F979CD22D69BF7AC49B91A2C0A9DDA3D5CA36AD20FC478E37E6
310
1844E2352865EBCB6EA275A652E3836BE04EFB400BF1A2556F515F1FBB35B2AB35BD889C744FFA1004B5544B121E57F70215746DD2F5E2C1412B602CBF19455AC6C8E5E9922C4E01E65215385004546899059180EAFCF7A707CE7017CD8CDB0410789AB32C63B91E5CEBBBACB17AC6CD347A022D5075FD106377347AAABA7E
310
7D11590744509B44E205134DC1290F06580320F78E537D3D73540E06CB970B431F185308AD40BBD794D6D77003C5A36E8EAA54BA64597CD8F83BD552A080A365F7FF06504B0304140006080000CC70623B000000000000000000000000350000006662782F39464131463745442D413632322D343644302D413938332D3331
310
353338454246344243312F76657274696365732E62696E504B0304140006080800CC70623BF270F1330600000004000000360000006662782F39464131463745442D413632322D343644302D413938332D3331353338454246344243312F747269616E676C65732E62696E636660600000504B0304140006080000CC70623B
310
000000000000000000000000370000006662782F39464131463745442D413632322D343644302D413938332D3331353338454246344243312F617474726962757465732E62696E504B0304140006080800CC70623B08DA0BD19000000041010000360000006662782F39464131463745442D413632322D343644302D413938
310
332D3331353338454246344243312F6469726563746F72792E786D6C858F410AC3201045AF22B36F53E9A60B35CBEEBAE80D244E44489C6234F4F835464A48035D0DF398FF9F8AF63D0E6CC63039F212F8F9020C7D47C6792B21C5FE7403D62A1188E2E60C98D7234A5830286103A55745067B9D86B8A3CF9C7F90C11DE607
310
FB144396D7B6A82D282E9A152AD114D5EF2CB866EEE831B8EEA07A7BB5A8D7D61A2BAAEB7FD5F70921FF497D00504B0304140006080800CC70623B0D6EF93BFE000000A00100003B0000006662782F39464131463745442D413632322D343644302D413938332D3331353338454246344243312F7265736F75726365732F63
310
6F72652E786D6C8D50596E833010BD0A9ADFCA60B334011947A8694ED00B586642AC041B79A97AFC9A40A5F6AF3F33A3B7689E1E3F7DCD8FEC139DD7D6F4C0720A191A65476DA61E62B892236427C19DB5E1970C322367EC618541F0C9D9B8EC90B226A009093576C41D94DE63804C3DD2D18357379C652E63480A7FCF17A9
310
EE72C29CE5894E3AC17D702940B63D59270887DE46A7D0F36263058F518FBB468FE9A7BE6A7420864373B8D4873369AA8691FA421B3294352543C5CAF65C0F6FEF43CB8BD52C78D0F34F46E550061C419494B6843142CB0F5677F4B52BEB177AEC28E5C52AFF638ACBF84F53D42654E51E77B379102C05791282176B5F693D
310
CB4C7BED567C03504B010214000A0000080000CC70623B3DEE336E79000000790000001B00000000000000000000000000000000006175746F6465736B2D64657369676E2D7061636B6167652E786D6C504B01021400140006080800CC70623BD486FD9CA0000000F40000001300000000000000000000000000B20000005B
310
436F6E74656E745F54797065735D2E786D6C504B01021400140006080800CC70623B1EC5D7A3EB0000007C010000080000000000000000000000000083010000636F72652E786D6C504B01021400140006080800CC70623B55019EA25F0000007C000000070000000000000000000000000094020000636E782E786D6C504B
310
01021400140006080800CC70623B8C9102E971010000D40300000C00000000000000000000000000180300006662782F636F72652E786D6C504B01021400140006080800CC70623BFFEA85907E0000009D0000000B00000000000000000000000000B30400006662782F636E782E786D6C504B01021400140006080800CC70
310
623B4FEEA4082C0100001202000031000000000000000000000000005A0500006662782F39464131463745442D413632322D343644302D413938332D3331353338454246344243312F636F72652E786D6C504B01021400140006080800CC70623BAD7543B64E010000330300003000000000000000000000000000D5060000
310
6662782F39464131463745442D413632322D343644302D413938332D3331353338454246344243312F636E782E786D6C504B01021400140006080800CC70623B16AB87BA640500003C1000003400000000000000000000000000710800006662782F39464131463745442D413632322D343644302D413938332D3331353338
310
454246344243312F6F626A656374732E786D6C504B01021400140006080000CC70623B0000000000000000000000003500000000000000000000000000270E00006662782F39464131463745442D413632322D343644302D413938332D3331353338454246344243312F76657274696365732E62696E504B01021400140006
310
080800CC70623BF270F133060000000400000036000000000000000000000000007A0E00006662782F39464131463745442D413632322D343644302D413938332D3331353338454246344243312F747269616E676C65732E62696E504B01021400140006080000CC70623B0000000000000000000000003700000000000000
310
000000000000D40E00006662782F39464131463745442D413632322D343644302D413938332D3331353338454246344243312F617474726962757465732E62696E504B01021400140006080800CC70623B08DA0BD190000000410100003600000000000000000000000000290F00006662782F39464131463745442D413632
310
322D343644302D413938332D3331353338454246344243312F6469726563746F72792E786D6C504B01021400140006080800CC70623B0D6EF93BFE000000A00100003B000000000000000000000000000D1000006662782F39464131463745442D413632322D343644302D413938332D3331353338454246344243312F7265
310
736F75726365732F636F72652E786D6C504B0506000000000E000E0080040000641100000000
  0
XRECORD
  5
175
102
{ACAD_REACTORS
330
173
102
}
330
173
100
AcDbXrecord
280
     1
270
     1
271
     1
  0
XRECORD
  5
174
102
{ACAD_REACTORS
330
173
102
}
330
173
100
AcDbXrecord
280
     1
270
     1
271
     1
  0
XRECORD
  5
1FB
102
{ACAD_REACTORS
330
173
102
}
330
173
100
AcDbXrecord
280
     1
 70
     0
 90
1673772943
  1
ECE7A1D2-D628-4531-984C-D00F80459256
310
504B03040A0000080000CC70623B3DEE336E79000000790000001B0000006175746F6465736B2D64657369676E2D7061636B6167652E786D6C3C3F786D6C2076657273696F6E3D22312E302220656E636F64696E673D227574662D3822203F3E3C666F726D6174733E3C666F726D61743E687474703A2F2F736368656D612E
310
6175746F6465736B2E636F6D2F64657369676E2D7061636B6167652F323030393C2F666F726D61743E3C2F666F726D6174733E504B0304140006080800CC70623BD486FD9CA0000000F4000000130000005B436F6E74656E745F54797065735D2E786D6C7D8EC10E82300C865F65E91D8A1E8C310C0EEA1BF002731658846E
310
D98AC1B77784ABF1D8FE5FBFBF75BBCE937A534CCEB38643598122B6FEE978D0B0485F9C41B54DDD7D022595594E1A469170414C76A4D9A4D207E29CF43ECE46F218070CC6BECC4078ACAA135ACF422C856C0E68EA1BF5669944DDD7BCDE7B1F8E415D77AECB980613C2E4AC91FC167A2B244592486606FC29C8FD7F045B9A
310
EF7053A7E60B504B0304140006080800CC70623BD9DDAED0EC0000007C01000008000000636F72652E786D6C8D90416EC3201045AF82665B61836D9CD8C2444DD39CA01740405C94182C03558F5F9C3852BBEB6A467FFE9B197D7EF89E6EE8CB2CC17A37002D0820E394D7D68D03A478C17B4007C117EFE32F1B20272733C0
310
2A83E0E3E2D3BC49CABB685CCCAAF3DA6CA20CC14440EA969B0182FA34932C648AD911AEC52CD5558EA6A0CF2EC329598D1E47ACCEFBECC59A050463A7EA5833865FEBDD0E37353BE3EE8DBDE3F6786A48D375FBF6CC78B9C282473B3DEFABC5C86834888A900E538A49F5419B9EB47DD5BC907D4F082F57FB1F28CDFA9F50
310
B22ED6D5F6EE030B20687EE43E10BC5CB3C8E51E54AE6B6EE207504B0304140006080800CC70623B55019EA25F0000007C00000007000000636E782E786D6C4DCB3B0E80201045D1AD90E915ED2CF8AC45050C11660C8261F98AB1B07AC9C97D42D718D865D3E909258CFD00CCE24AC6E326A164D74DC0B4128928FF326038
310
472BA13128B1252AC747C6BAB984FC68F0B87FE8960A5C09FE86CFB69FBA01504B0304140006080800CC70623BA24EB22D72010000D40300000C0000006662782F636F72652E786D6CC5535B6E833010BC8AE5DF0A6C5E49888CA3A6694ED00B38E05014B091B1518EDFE511A5A9D228FD2A1F60CDEC7A67C6986DCE4D8D7A
310
69BA4AAB0C073EC548AA5C17952A33ECECD15B61B4E1CC686DBF9561A44423333CC098B3D268D7CE50AE9595CA02AA74216750749DB418E5352C32DCE59FB211BE70162ABA93DF8AFC244AE9073ED050C759670D0840D390E18DF9F1706664C23973AE2A66B62A605A75ACA4C13C4976E1364A12EF355A2EBD384AF65EFA96
310
BC7B8BED2EA6719AAE16FB8491A199335B351775B991C2CA02F390D2D40B028F861F41BCA68B7518BFD0D59A524686F29B26D7164F36B94AD9289CE54E6D1DE6010819891F6E21228B3AD1831EC219194284CF98F06DD01008846CC5A1BEF83801D4CBDC6A1303536877A57A513B0953A94FC707FDBE6064EA84A9E3E6E0FA
310
EE8CF0E9198F7784A316AA0413C2C2F2E0ECA0934D1AE6D05A69BCDE9E91D2A611F573361E38FC1375157F5752AE6B6DFE4B11990F88CCBF0719EE23FF02504B0304140006080800CC70623B408A7D3B7C0000009D0000000B0000006662782F636E782E786D6C4DCCD10A83201886E15B91FFDC552A92A0064DBC8F581632
310
D3703A76F9ABD1C18E3E78F878E5F0D9027ABBFCF2292AE86E2D20171F69F6715550CB827B40839639A5F2770314A7CD293819B45C73AAFB45B35BA61ACAA1C1C7E7855C58C15BC331339661262CC762340413D68D77DA5B42298546CBE6573AF60CEB2F504B0304140006080800CC70623B449FB9BD290100001202000031
310
0000006662782F36394639363044362D344446342D343946362D394244322D3234314243333846323333332F636F72652E786D6C8D515B6EC32010BC0AE22B55850D98B871848994463E412FE002495162B07854397EA176A4F62F3F2C9A9D991D587EB84F37F0AD7D30CEF6905418026DA553C65E7A98E219ED203808EE9D
310
8B7F6810D871D23D2C3014FCE25D9A57483A1BB58D19B54EE9151C43D0110279CB971E06F9A5A7B11A53CC8C70ADE6515EC78BAE4895DB992778883E0700CB907242D17643D7E2538BD869608875438BBAE38922CAC8F1BDD90DB4691A5E2F42C153326A951B95E398B3D1FE599322163C9AE9115F7A3D46ADA0A018778810
310
84E907617BDCEE297BC5BB3DC6BC2EF47FA234AB2745C9D8D8D035EE220B50105E2F0DC1954B9FB747187D9F9D8FA0CCDB042D5FA0C015C65B42DF78BD10F3F3B363CB56C7109DCFDFBBB97E662ED92EB62D13BC2E1BCAE5777DB9966D8A1F504B0304140006080800CC70623BAD7543B64E01000033030000300000006662
310
782F36394639363044362D344446342D343946362D394244322D3234314243333846323333332F636E782E786D6CD593CD6EC32010845F0571AD6CE3D48AD20813A9873E410FBD12D82434182C7EAAE6EDBB2424CD25871E7B41D6EC30B3FA84F9E67BB2E40B4234DE8DB46F1925E094D7C6ED479AD3AE5951B2113C789FEE
310
6C943839C1488B4C05DF079FE72A69D8C96C13AAD6B8631503449F83828872B949AC57D26200B826A308D316B4064D6E46FCDA41C05550DC9E483A00797BFD207EFB092A45DE9514C1BBD22178396BD39D891265658C238DEA00936C654E5E433CB65A26D9F6EDB5EBC14EBF49A45CB856E66048291F6939A9A81BB5C89177
310
38143CA680F4AA299D66A042CEB3354A2684DC9D8D178FE0D9B8B41CAAD720F880EE7EF93C0C18769E099ECC04D5A102C8049A8A05632F4DDF376CF1DE0F6BB65C2F8627B65A33C6BB62177CEBBDAD973006829F89F22E814B54F4BC2BE347F8AA8F681390B50FA73F804400B5F542E796F19FF974E7F78DB802FE05E20750
310
4B0304140006080800CC70623B8D05915C650500003B100000340000006662782F36394639363044362D344446342D343946362D394244322D3234314243333846323333332F6F626A656374732E786D6CAD575B6FA33814FE2B887D06429276DA1565D4266D158D3A339A6846FB502932E050B66023DB74D2FDF5FB190C01
310
9276B2973C046C8ECFF53B17071F77456EBD502133CEAE6CDF9DD81665314F32965ED995DA3A17B6F5310C04E7AA47665B8C14F4CAD6DB7618A48257A5D94AE89654B91AEDDEDDFC61C998326A5B714EA4BCB265FC440BE2924AF184CA6737218AB8E976E7FA6E4338649B0A523E8D98964450A6A029F619B8588D52FE7039
310
B1BD30F0F4F730D0FF866AF6369557DB33949F31A9088B0F848DD8CCFCF9F2767A76E99CCDE733677E3EF59D9BBB9BA5E37F984D16E78BC5E5F5ED25044B25C0C96822E8D60EEFE11B91C581D77CEA34368A1F5329E68CD1B8B61F16D63A1B8E092D294B10C78C4A48EB593D192E7DED9BDEE7995E1B91FDEDD3ACEA9FE831
310
6A756F9F7D4D79F4274C90A7A04248AA51D5F8C718DAE06FB2F75AC4796EBE65D22A88A22223B995679120E2D50E41AA49C260C046A35368846B0BECD0DFF3EBEB8AD4F835768F69B9ADF25C43D30E6B646F807FAA64AD59F61715C7A54127C4AACA98BA3006A9D792DAE165E0D59B61A01FB3A9F9D838D2DAE62445C86166
310
F37564E842E7DE6A69879FEEA2DD5AE7E371E1A5E025154AC307D06A03D73EB5978C58FFA4C8E9033066E0F3BD53BEC1F39F91BE7B55103791EDE6BBB991A2046172CB4581D8B893FA674DDA17A77B3B7C413D1B511FD2743BFF8A38F03A658705E3ADF8015C3A3417FF3D7E439FF591DA0B5F18BC20C1B8981957AE6392A3
310
F43C640C01D1A0B4728E2DD4F26DB4B3C3152A252A3B4E913CEC1C72F012782FF88EFF8637AA552DBEF76408E8A8DE9E50F9E1CB3A2DA0DB1B6039A893B56063DC5B3E3FFB5F72E67AB9FEB4AEC496C4F4C1149625DD662C53E89D7BF0F6151A046260D1337DFDC94502430F83B0EE07A130A224BCAD7DAE1D9FB6CD422FF6
310
920702629C4BB9AE79C12F243C6432A6794E18E5552BA56B431AAB5D91317302B2B071E86C3A42B1A02F999E24061403B5D0EB639195DA655DD3EBEAB4FB862DDF579F014AD0E73C22F99E28DA57FB98E75C6CA2D74D53086D600F4786E0FE3144B771A8A7B900F03594DB8A633CBC49B2EDB69228BB479CF863B5E807AAAB
310
23872F6DFEB4129B949CA33823F58830E86D65621E10047D9DB34D862E8EAC3C2ABC2F7B2C40D67CDFE01F5545B92105AF983AC54D93D69E56FB8E797F88913F898A9FEC705D3F9D1B54EC8426FB500D40A03BD0119B06E1B95DDC7EB8F6975367793EBD70E66733DFB9BC982F9CE564727731999F5D4ECFCE3B8D6A4DC2A0
310
6D50FD148437D110834A64C6CDDF57FBACB5C307A2A477DFE4939736CFEF2B175371E0E10CF0DD1D5C15654E0BCA14D1E87DD02FF93782A162C0A3D95F1524A52770F972BF1EE9809D13CE7DD599467F8ECE9ADD85CE85A34CD45355448C64F9E8A031DC2D596ACC6E5DD93D9B82DE2EF5CAF81363A8E47996A0DE24564A79
310
4115AACE09C55E14540231FDA13C319787134EBF34E3A022514E5B4D9E0826E25C02D5805B15ABE1BEF51B26383D445DD9E875EE33FE4C22DA16427D65A3BCA92CA6D28DD01DF5DC53330704308475351050232CCD31583787BA75774AFB06E5070DD0C8EF484E19968C5D83BA5B90B244D31E54D55A372320FE4786B7EA58
310
44E135AA5467CB7EA333A61683CC6A8C3257034C10CF46F40EF9F5BE59BE5BD30C3C72D235E95D10345C1D45445A5F0BB47E46A5EBE5570F9380B5FA629579952296A773720405982B9DE04011506178964401AA8BDF1FBF0A8EAB6861DD6580C0E38217056766716DAEB2D6FA0917D3E4116581EADB879C4E7CFFB11EFACD
310
3D641311495D92C8676CB409A72D18610D803CE8A626049E8EC1887CB5B44CC39883690DDA8399B4B9855B481E7D71D4A9D22F96E5BB73BF5793020C02137BF837504B0304140006080000CC70623B000000000000000000000000350000006662782F36394639363044362D344446342D343946362D394244322D32343142
310
43333846323333332F76657274696365732E62696E504B0304140006080800CC70623BF270F1330600000004000000360000006662782F36394639363044362D344446342D343946362D394244322D3234314243333846323333332F747269616E676C65732E62696E636660600000504B0304140006080000CC70623B0000
310
00000000000000000000370000006662782F36394639363044362D344446342D343946362D394244322D3234314243333846323333332F617474726962757465732E62696E504B0304140006080800CC70623B08DA0BD19000000041010000360000006662782F36394639363044362D344446342D343946362D394244322D
310
3234314243333846323333332F6469726563746F72792E786D6C858F410AC3201045AF22B36F53E9A60B35CBEEBAE80D244E44489C6234F4F835464A48035D0DF398FF9F8AF63D0E6CC63039F212F8F9020C7D47C6792B21C5FE7403D62A1188E2E60C98D7234A5830286103A55745067B9D86B8A3CF9C7F90C11DE607FB14
310
4396D7B6A82D282E9A152AD114D5EF2CB866EEE831B8EEA07A7BB5A8D7D61A2BAAEB7FD5F70921FF497D00504B0304140006080800CC70623BCA768048FE000000A00100003B0000006662782F36394639363044362D344446342D343946362D394244322D3234314243333846323333332F7265736F75726365732F636F72
310
652E786D6C8D50596E833010BD0A9ADFCA60D600328E9AA639412F609909B1126CE4A5EAF16B0295DABFFECC8CDEA2797AECF8353F924FB44E193D409E5248504B332A3D0D10FC95B4901C39B3C6F85F3248B49871801506CE266BC2B243D2688FDA47549B11775038871E12F988C7004EDE7016A9083E2ADC3D5D84BC8B09
310
D33C8D74D471E6BC8D0192EDC93A815B742658898E651BCB59086ADC356A8C3FD555A1055ED7E7E254D615792D0F075295F585746FF53B694EE78A565DD736979A65AB9933AFE69F8CD2A2F038022F28ED489E135A7CE4554F9BBEA85E68DB53CAB255FEC71496F19FA6A0B42F8B3DEE6673C0F318E4497096AD7DC5F52C33
310
EEB55BFE0D504B010214000A0000080000CC70623B3DEE336E79000000790000001B00000000000000000000000000000000006175746F6465736B2D64657369676E2D7061636B6167652E786D6C504B01021400140006080800CC70623BD486FD9CA0000000F40000001300000000000000000000000000B20000005B436F
310
6E74656E745F54797065735D2E786D6C504B01021400140006080800CC70623BD9DDAED0EC0000007C010000080000000000000000000000000083010000636F72652E786D6C504B01021400140006080800CC70623B55019EA25F0000007C000000070000000000000000000000000095020000636E782E786D6C504B0102
310
1400140006080800CC70623BA24EB22D72010000D40300000C00000000000000000000000000190300006662782F636F72652E786D6C504B01021400140006080800CC70623B408A7D3B7C0000009D0000000B00000000000000000000000000B50400006662782F636E782E786D6C504B01021400140006080800CC70623B
310
449FB9BD290100001202000031000000000000000000000000005A0500006662782F36394639363044362D344446342D343946362D394244322D3234314243333846323333332F636F72652E786D6C504B01021400140006080800CC70623BAD7543B64E010000330300003000000000000000000000000000D20600006662
310
782F36394639363044362D344446342D343946362D394244322D3234314243333846323333332F636E782E786D6C504B01021400140006080800CC70623B8D05915C650500003B10000034000000000000000000000000006E0800006662782F36394639363044362D344446342D343946362D394244322D32343142433338
310
46323333332F6F626A656374732E786D6C504B01021400140006080000CC70623B0000000000000000000000003500000000000000000000000000250E00006662782F36394639363044362D344446342D343946362D394244322D3234314243333846323333332F76657274696365732E62696E504B010214001400060808
310
00CC70623BF270F13306000000040000003600000000000000000000000000780E00006662782F36394639363044362D344446342D343946362D394244322D3234314243333846323333332F747269616E676C65732E62696E504B01021400140006080000CC70623B00000000000000000000000037000000000000000000
310
00000000D20E00006662782F36394639363044362D344446342D343946362D394244322D3234314243333846323333332F617474726962757465732E62696E504B01021400140006080800CC70623B08DA0BD190000000410100003600000000000000000000000000270F00006662782F36394639363044362D344446342D
310
343946362D394244322D3234314243333846323333332F6469726563746F72792E786D6C504B01021400140006080800CC70623BCA768048FE000000A00100003B000000000000000000000000000B1000006662782F36394639363044362D344446342D343946362D394244322D3234314243333846323333332F7265736F
310
75726365732F636F72652E786D6C504B0506000000000E000E0080040000621100000000
  0
XRECORD
  5
176
102
{ACAD_REACTORS
330
173
102
}
330
173
100
AcDbXrecord
280
     1
270
     1
271
     1
  0
XRECORD
  5
177
102
{ACAD_REACTORS
330
173
102
}
330
173
100
AcDbXrecord
280
     1
270
     1
271
     1
  0
XRECORD
  5
D1C
102
{ACAD_REACTORS
330
D1B
102
}
330
D1B
100
AcDbXrecord
280
     1
102
DISPLAYNAME
  1
Imperial24
102
FLAGS
 90
        0
  0
XRECORD
  5
D18
102
{ACAD_REACTORS
330
D17
102
}
330
D17
100
AcDbXrecord
280
     1
102
DISPLAYNAME
  1
Metric50
102
FLAGS
 90
        0
  0
CELLSTYLEMAP
  5
D0D
102
{ACAD_REACTORS
330
162
102
}
330
162
100
AcDbCellStyleMap
 90
        3
300
CELLSTYLE
  1
TABLEFORMAT_BEGIN
 90
        5
170
     1
 91
        0
 92
    32768
 62
   257
 93
        1
300
CONTENTFORMAT
  1
CONTENTFORMAT_BEGIN
 90
        0
 91
        0
 92
      512
 93
        0
300

 40
0.0
140
1.0
 94
        5
 62
     0
340
11
144
6.0
309
CONTENTFORMAT_END
171
     1
301
MARGIN
  1
CELLMARGIN_BEGIN
 40
1.5
 40
1.5
 40
1.5
 40
1.5
 40
4.5
 40
4.5
309
CELLMARGIN_END
 94
        6
 95
        1
302
GRIDFORMAT
  1
GRIDFORMAT_BEGIN
 90
        0
 91
        1
 62
     0
 92
       -2
340
14
 93
        0
 40
1.125
309
GRIDFORMAT_END
 95
        2
302
GRIDFORMAT
  1
GRIDFORMAT_BEGIN
 90
        0
 91
        1
 62
     0
 92
       -2
340
14
 93
        0
 40
1.125
309
GRIDFORMAT_END
 95
        4
302
GRIDFORMAT
  1
GRIDFORMAT_BEGIN
 90
        0
 91
        1
 62
     0
 92
       -2
340
14
 93
        0
 40
1.125
309
GRIDFORMAT_END
 95
        8
302
GRIDFORMAT
  1
GRIDFORMAT_BEGIN
 90
        0
 91
        1
 62
     0
 92
       -2
340
14
 93
        0
 40
1.125
309
GRIDFORMAT_END
 95
       16
302
GRIDFORMAT
  1
GRIDFORMAT_BEGIN
 90
        0
 91
        1
 62
     0
 92
       -2
340
14
 93
        0
 40
1.125
309
GRIDFORMAT_END
 95
       32
302
GRIDFORMAT
  1
GRIDFORMAT_BEGIN
 90
        0
 91
        1
 62
     0
 92
       -2
340
14
 93
        0
 40
1.125
309
GRIDFORMAT_END
309
TABLEFORMAT_END
  1
CELLSTYLE_BEGIN
 90
        1
 91
        1
300
_TITLE
309
CELLSTYLE_END
300
CELLSTYLE
  1
TABLEFORMAT_BEGIN
 90
        5
170
     1
 91
        0
 92
        0
 62
   257
 93
        1
300
CONTENTFORMAT
  1
CONTENTFORMAT_BEGIN
 90
        0
 91
        0
 92
      512
 93
        0
300

 40
0.0
140
1.0
 94
        5
 62
     0
340
11
144
4.5
309
CONTENTFORMAT_END
171
     1
301
MARGIN
  1
CELLMARGIN_BEGIN
 40
1.5
 40
1.5
 40
1.5
 40
1.5
 40
4.5
 40
4.5
309
CELLMARGIN_END
 94
        6
 95
        1
302
GRIDFORMAT
  1
GRIDFORMAT_BEGIN
 90
        0
 91
        1
 62
     0
 92
       -2
340
14
 93
        0
 40
1.125
309
GRIDFORMAT_END
 95
        2
302
GRIDFORMAT
  1
GRIDFORMAT_BEGIN
 90
        0
 91
        1
 62
     0
 92
       -2
340
14
 93
        0
 40
1.125
309
GRIDFORMAT_END
 95
        4
302
GRIDFORMAT
  1
GRIDFORMAT_BEGIN
 90
        0
 91
        1
 62
     0
 92
       -2
340
14
 93
        0
 40
1.125
309
GRIDFORMAT_END
 95
        8
302
GRIDFORMAT
  1
GRIDFORMAT_BEGIN
 90
        0
 91
        1
 62
     0
 92
       -2
340
14
 93
        0
 40
1.125
309
GRIDFORMAT_END
 95
       16
302
GRIDFORMAT
  1
GRIDFORMAT_BEGIN
 90
        0
 91
        1
 62
     0
 92
       -2
340
14
 93
        0
 40
1.125
309
GRIDFORMAT_END
 95
       32
302
GRIDFORMAT
  1
GRIDFORMAT_BEGIN
 90
        0
 91
        1
 62
     0
 92
       -2
340
14
 93
        0
 40
1.125
309
GRIDFORMAT_END
309
TABLEFORMAT_END
  1
CELLSTYLE_BEGIN
 90
        2
 91
        1
300
_HEADER
309
CELLSTYLE_END
300
CELLSTYLE
  1
TABLEFORMAT_BEGIN
 90
        5
170
     1
 91
        0
 92
        0
 62
   257
 93
        1
300
CONTENTFORMAT
  1
CONTENTFORMAT_BEGIN
 90
        0
 91
        0
 92
      512
 93
        0
300

 40
0.0
140
1.0
 94
        2
 62
     0
340
11
144
4.5
309
CONTENTFORMAT_END
171
     1
301
MARGIN
  1
CELLMARGIN_BEGIN
 40
1.5
 40
1.5
 40
1.5
 40
1.5
 40
4.5
 40
4.5
309
CELLMARGIN_END
 94
        6
 95
        1
302
GRIDFORMAT
  1
GRIDFORMAT_BEGIN
 90
        0
 91
        1
 62
     0
 92
       -2
340
14
 93
        0
 40
1.125
309
GRIDFORMAT_END
 95
        2
302
GRIDFORMAT
  1
GRIDFORMAT_BEGIN
 90
        0
 91
        1
 62
     0
 92
       -2
340
14
 93
        0
 40
1.125
309
GRIDFORMAT_END
 95
        4
302
GRIDFORMAT
  1
GRIDFORMAT_BEGIN
 90
        0
 91
        1
 62
     0
 92
       -2
340
14
 93
        0
 40
1.125
309
GRIDFORMAT_END
 95
        8
302
GRIDFORMAT
  1
GRIDFORMAT_BEGIN
 90
        0
 91
        1
 62
     0
 92
       -2
340
14
 93
        0
 40
1.125
309
GRIDFORMAT_END
 95
       16
302
GRIDFORMAT
  1
GRIDFORMAT_BEGIN
 90
        0
 91
        1
 62
     0
 92
       -2
340
14
 93
        0
 40
1.125
309
GRIDFORMAT_END
 95
       32
302
GRIDFORMAT
  1
GRIDFORMAT_BEGIN
 90
        0
 91
        1
 62
     0
 92
       -2
340
14
 93
        0
 40
1.125
309
GRIDFORMAT_END
309
TABLEFORMAT_END
  1
CELLSTYLE_BEGIN
 90
        3
 91
        2
300
_DATA
309
CELLSTYLE_END
  0
ENDSEC
  0
SECTION
  2
ACDSDATA
 70
     2
 71
     8
  0
ACDSSCHEMA
 90
        0
  1
AcDb_Thumbnail_Schema
  2
AcDbDs::ID
280
    10
 91
        8
  2
Thumbnail_Data
280
    15
 91
        0
101
ACDSRECORD
 95
        0
 90
        1
  2
AcDbDs::TreatedAsObjectData
280
     1
291
     1
101
ACDSRECORD
 95
        0
 90
        2
  2
AcDbDs::Legacy
280
     1
291
     1
101
ACDSRECORD
  1
AcDbDs::ID
 90
        3
  2
AcDs:Indexable
280
     1
291
     1
101
ACDSRECORD
  1
AcDbDs::ID
 90
        4
  2
AcDbDs::HandleAttribute
280
     7
282
     1
  0
ACDSSCHEMA
 90
        1
  1
AcDbDs::TreatedAsObjectDataSchema
  2
AcDbDs::TreatedAsObjectData
280
     1
 91
        0
  0
ACDSSCHEMA
 90
        2
  1
AcDbDs::LegacySchema
  2
AcDbDs::Legacy
280
     1
 91
        0
  0
ACDSSCHEMA
 90
        3
  1
AcDbDs::IndexedPropertySchema
  2
AcDs:Indexable
280
     1
 91
        0
  0
ACDSSCHEMA
 90
        4
  1
AcDbDs::HandleAttributeSchema
  2
AcDbDs::HandleAttribute
280
     7
 91
        1
284
     1
  0
ACDSRECORD
 90
        0
  2
AcDbDs::ID
280
    10
320
22
  2
Thumbnail_Data
280
    15
 94
      896
310
89504E470D0A1A0A0000000D49484452000001000000009108030000001BE1960600000300504C5445212830FFFFFF2128300000000000000000000000000000000000000000000000000000330000660000990000CC0000FF0033000033330033660033990033CC0033FF0066000066330066660066990066CC0066FF0099
310
000099330099660099990099CC0099FF00CC0000CC3300CC6600CC9900CCCC00CCFF00FF0000FF3300FF6600FF9900FFCC00FFFF3300003300333300663300993300CC3300FF3333003333333333663333993333CC3333FF3366003366333366663366993366CC3366FF3399003399333399663399993399CC3399FF33CC00
310
33CC3333CC6633CC9933CCCC33CCFF33FF0033FF3333FF6633FF9933FFCC33FFFF6600006600336600666600996600CC6600FF6633006633336633666633996633CC6633FF6666006666336666666666996666CC6666FF6699006699336699666699996699CC6699FF66CC0066CC3366CC6666CC9966CCCC66CCFF66FF0066
310
FF3366FF6666FF9966FFCC66FFFF9900009900339900669900999900CC9900FF9933009933339933669933999933CC9933FF9966009966339966669966999966CC9966FF9999009999339999669999999999CC9999FF99CC0099CC3399CC6699CC9999CCCC99CCFF99FF0099FF3399FF6699FF9999FFCC99FFFFCC0000CC00
310
33CC0066CC0099CC00CCCC00FFCC3300CC3333CC3366CC3399CC33CCCC33FFCC6600CC6633CC6666CC6699CC66CCCC66FFCC9900CC9933CC9966CC9999CC99CCCC99FFCCCC00CCCC33CCCC66CCCC99CCCCCCCCCCFFCCFF00CCFF33CCFF66CCFF99CCFFCCCCFFFFFF0000FF0033FF0066FF0099FF00CCFF00FFFF3300FF3333
310
FF3366FF3399FF33CCFF33FFFF6600FF6633FF6666FF6699FF66CCFF66FFFF9900FF9933FF9966FF9999FF99CCFF99FFFFCC00FFCC33FFCC66FFCC99FFCCCCFFCCFFFFFF00FFFF33FFFF66FFFF99FFFFCCFFFFFF0000000D0D0D1A1A1A2828283535354343435050505D5D5D6B6B6B787878868686939393A1A1A1AEAEAEBB
310
BBBBC9C9C9D6D6D6E4E4E4F1F1F1FFFFFF0000000000000000000000000000000000000000000000000000000000002E4550F10000003B4944415478DAEDC13101000000C2A0F54F6D0B2FA0000000000000000000000000000000000000000000000000000000000000000000000000CE06919100016C9A5B1B0000000049
310
454E44AE426082
  0
ENDSEC
  0
EOF
