  0
SECTION
  2
HEADER
  9
$ACADVER
  1
AC1027
  9
$ACADMAINTVER
 70
   125
  9
$DWGCODEPAGE
  3
ANSI_1252
  9
$LASTSAVEDBY
  1
andrea.ragusa
  9
$REQUIREDVERSIONS
160
                 0
  9
$INSBASE
 10
0.0
 20
0.0
 30
0.0
  9
$EXTMIN
 10
-0.0128164049386896
 20
0.0589148761458773
 30
-0.0015258207003583
  9
$EXTMAX
 10
14.21447804455477
 20
7.96701085307518
 30
0.0000000349246037
  9
$LIMMIN
 10
0.0
 20
0.0
  9
$LIMMAX
 10
420.0
 20
297.0
  9
$ORTHOMODE
 70
     0
  9
$REGENMODE
 70
     1
  9
$FILLMODE
 70
     1
  9
$QTEXTMODE
 70
     0
  9
$MIRRTEXT
 70
     0
  9
$LTSCALE
 40
1.0
  9
$ATTMODE
 70
     1
  9
$TEXTSIZE
 40
2.5
  9
$TRACEWID
 40
1.0
  9
$TEXTSTYLE
  7
Standard
  9
$CLAYER
  8
0
  9
$CELTYPE
  6
ByLayer
  9
$CECOLOR
 62
   256
  9
$CELTSCALE
 40
1.0
  9
$DISPSILH
 70
     0
  9
$DIMSCALE
 40
1.0
  9
$DIMASZ
 40
2.5
  9
$DIMEXO
 40
0.625
  9
$DIMDLI
 40
3.75
  9
$DIMRND
 40
0.0
  9
$DIMDLE
 40
0.0
  9
$DIMEXE
 40
1.25
  9
$DIMTP
 40
0.0
  9
$DIMTM
 40
0.0
  9
$DIMTXT
 40
2.5
  9
$DIMCEN
 40
2.5
  9
$DIMTSZ
 40
0.0
  9
$DIMTOL
 70
     0
  9
$DIMLIM
 70
     0
  9
$DIMTIH
 70
     0
  9
$DIMTOH
 70
     0
  9
$DIMSE1
 70
     0
  9
$DIMSE2
 70
     0
  9
$DIMTAD
 70
     1
  9
$DIMZIN
 70
     8
  9
$DIMBLK
  1

  9
$DIMASO
 70
     1
  9
$DIMSHO
 70
     1
  9
$DIMPOST
  1

  9
$DIMAPOST
  1

  9
$DIMALT
 70
     0
  9
$DIMALTD
 70
     3
  9
$DIMALTF
 40
0.03937007874016
  9
$DIMLFAC
 40
1.0
  9
$DIMTOFL
 70
     1
  9
$DIMTVP
 40
0.0
  9
$DIMTIX
 70
     0
  9
$DIMSOXD
 70
     0
  9
$DIMSAH
 70
     0
  9
$DIMBLK1
  1

  9
$DIMBLK2
  1

  9
$DIMSTYLE
  2
ISO-25
  9
$DIMCLRD
 70
     0
  9
$DIMCLRE
 70
     0
  9
$DIMCLRT
 70
     0
  9
$DIMTFAC
 40
1.0
  9
$DIMGAP
 40
0.625
  9
$DIMJUST
 70
     0
  9
$DIMSD1
 70
     0
  9
$DIMSD2
 70
     0
  9
$DIMTOLJ
 70
     0
  9
$DIMTZIN
 70
     8
  9
$DIMALTZ
 70
     0
  9
$DIMALTTZ
 70
     0
  9
$DIMUPT
 70
     0
  9
$DIMDEC
 70
     2
  9
$DIMTDEC
 70
     2
  9
$DIMALTU
 70
     2
  9
$DIMALTTD
 70
     3
  9
$DIMTXSTY
  7
Standard
  9
$DIMAUNIT
 70
     0
  9
$DIMADEC
 70
     0
  9
$DIMALTRND
 40
0.0
  9
$DIMAZIN
 70
     0
  9
$DIMDSEP
 70
    44
  9
$DIMATFIT
 70
     3
  9
$DIMFRAC
 70
     0
  9
$DIMLDRBLK
  1

  9
$DIMLUNIT
 70
     2
  9
$DIMLWD
 70
    -2
  9
$DIMLWE
 70
    -2
  9
$DIMTMOVE
 70
     0
  9
$DIMFXL
 40
1.0
  9
$DIMFXLON
 70
     0
  9
$DIMJOGANG
 40
0.7853981633974483
  9
$DIMTFILL
 70
     0
  9
$DIMTFILLCLR
 70
     0
  9
$DIMARCSYM
 70
     0
  9
$DIMLTYPE
  6

  9
$DIMLTEX1
  6

  9
$DIMLTEX2
  6

  9
$DIMTXTDIRECTION
 70
     0
  9
$LUNITS
 70
     2
  9
$LUPREC
 70
     4
  9
$SKETCHINC
 40
1.0
  9
$FILLETRAD
 40
0.0
  9
$AUNITS
 70
     0
  9
$AUPREC
 70
     0
  9
$MENU
  1
.
  9
$ELEVATION
 40
0.0
  9
$PELEVATION
 40
0.0
  9
$THICKNESS
 40
0.0
  9
$LIMCHECK
 70
     0
  9
$CHAMFERA
 40
0.0
  9
$CHAMFERB
 40
0.0
  9
$CHAMFERC
 40
0.0
  9
$CHAMFERD
 40
0.0
  9
$SKPOLY
 70
     0
  9
$TDCREATE
 40
2459060.480324074
  9
$TDUCREATE
 40
2459060.396990741
  9
$TDUPDATE
 40
2459060.480474537
  9
$TDUUPDATE
 40
2459060.397141204
  9
$TDINDWG
 40
0.0001504630
  9
$TDUSRTIMER
 40
0.0001504630
  9
$USRTIMER
 70
     1
  9
$ANGBASE
 50
0.0
  9
$ANGDIR
 70
     0
  9
$PDMODE
 70
     0
  9
$PDSIZE
 40
0.0
  9
$PLINEWID
 40
0.0
  9
$SPLFRAME
 70
     0
  9
$SPLINETYPE
 70
     6
  9
$SPLINESEGS
 70
     8
  9
$HANDSEED
  5
395
  9
$SURFTAB1
 70
     6
  9
$SURFTAB2
 70
     6
  9
$SURFTYPE
 70
     6
  9
$SURFU
 70
     6
  9
$SURFV
 70
     6
  9
$UCSBASE
  2

  9
$UCSNAME
  2

  9
$UCSORG
 10
0.0
 20
0.0
 30
0.0
  9
$UCSXDIR
 10
1.0
 20
0.0
 30
0.0
  9
$UCSYDIR
 10
0.0
 20
1.0
 30
0.0
  9
$UCSORTHOREF
  2

  9
$UCSORTHOVIEW
 70
     0
  9
$UCSORGTOP
 10
0.0
 20
0.0
 30
0.0
  9
$UCSORGBOTTOM
 10
0.0
 20
0.0
 30
0.0
  9
$UCSORGLEFT
 10
0.0
 20
0.0
 30
0.0
  9
$UCSORGRIGHT
 10
0.0
 20
0.0
 30
0.0
  9
$UCSORGFRONT
 10
0.0
 20
0.0
 30
0.0
  9
$UCSORGBACK
 10
0.0
 20
0.0
 30
0.0
  9
$PUCSBASE
  2

  9
$PUCSNAME
  2

  9
$PUCSORG
 10
0.0
 20
0.0
 30
0.0
  9
$PUCSXDIR
 10
1.0
 20
0.0
 30
0.0
  9
$PUCSYDIR
 10
0.0
 20
1.0
 30
0.0
  9
$PUCSORTHOREF
  2

  9
$PUCSORTHOVIEW
 70
     0
  9
$PUCSORGTOP
 10
0.0
 20
0.0
 30
0.0
  9
$PUCSORGBOTTOM
 10
0.0
 20
0.0
 30
0.0
  9
$PUCSORGLEFT
 10
0.0
 20
0.0
 30
0.0
  9
$PUCSORGRIGHT
 10
0.0
 20
0.0
 30
0.0
  9
$PUCSORGFRONT
 10
0.0
 20
0.0
 30
0.0
  9
$PUCSORGBACK
 10
0.0
 20
0.0
 30
0.0
  9
$USERI1
 70
     0
  9
$USERI2
 70
     0
  9
$USERI3
 70
     0
  9
$USERI4
 70
     0
  9
$USERI5
 70
     0
  9
$USERR1
 40
0.0
  9
$USERR2
 40
0.0
  9
$USERR3
 40
0.0
  9
$USERR4
 40
0.0
  9
$USERR5
 40
0.0
  9
$WORLDVIEW
 70
     1
  9
$SHADEDGE
 70
     3
  9
$SHADEDIF
 70
    70
  9
$TILEMODE
 70
     1
  9
$MAXACTVP
 70
    64
  9
$PINSBASE
 10
0.0
 20
0.0
 30
0.0
  9
$PLIMCHECK
 70
     0
  9
$PEXTMIN
 10
0.0
 20
0.0
 30
0.0
  9
$PEXTMAX
 10
0.0
 20
0.0
 30
0.0
  9
$PLIMMIN
 10
0.0
 20
0.0
  9
$PLIMMAX
 10
12.0
 20
9.0
  9
$UNITMODE
 70
     0
  9
$VISRETAIN
 70
     1
  9
$PLINEGEN
 70
     0
  9
$PSLTSCALE
 70
     1
  9
$TREEDEPTH
 70
  3020
  9
$CMLSTYLE
  2
Standard
  9
$CMLJUST
 70
     0
  9
$CMLSCALE
 40
20.0
  9
$PROXYGRAPHICS
 70
     1
  9
$MEASUREMENT
 70
     1
  9
$CELWEIGHT
370
    -1
  9
$ENDCAPS
280
     0
  9
$JOINSTYLE
280
     0
  9
$LWDISPLAY
290
     0
  9
$INSUNITS
 70
     4
  9
$HYPERLINKBASE
  1

  9
$STYLESHEET
  1

  9
$XEDIT
290
     1
  9
$CEPSNTYPE
380
     0
  9
$PSTYLEMODE
290
     1
  9
$FINGERPRINTGUID
  2
{E3F4E281-163E-7249-A193-C017A94BABC7}
  9
$VERSIONGUID
  2
{21D52B23-3898-524A-9862-D51B72D95D5F}
  9
$EXTNAMES
290
     1
  9
$PSVPSCALE
 40
0.0
  9
$OLESTARTUP
290
     0
  9
$SORTENTS
280
   127
  9
$INDEXCTL
280
     0
  9
$HIDETEXT
280
     1
  9
$XCLIPFRAME
280
     2
  9
$HALOGAP
280
     0
  9
$OBSCOLOR
 70
   257
  9
$OBSLTYPE
280
     0
  9
$INTERSECTIONDISPLAY
280
     0
  9
$INTERSECTIONCOLOR
 70
   257
  9
$DIMASSOC
280
     2
  9
$PROJECTNAME
  1

  9
$CAMERADISPLAY
290
     0
  9
$LENSLENGTH
 40
50.0
  9
$CAMERAHEIGHT
 40
0.0
  9
$STEPSPERSEC
 40
2.0
  9
$STEPSIZE
 40
6.0
  9
$3DDWFPREC
 40
2.0
  9
$PSOLWIDTH
 40
5.0
  9
$PSOLHEIGHT
 40
80.0
  9
$LOFTANG1
 40
1.570796326794896
  9
$LOFTANG2
 40
1.570796326794896
  9
$LOFTMAG1
 40
0.0
  9
$LOFTMAG2
 40
0.0
  9
$LOFTPARAM
 70
     7
  9
$LOFTNORMALS
280
     1
  9
$LATITUDE
 40
37.795
  9
$LONGITUDE
 40
-122.394
  9
$NORTHDIRECTION
 40
0.0
  9
$TIMEZONE
 70
 -8000
  9
$LIGHTGLYPHDISPLAY
280
     1
  9
$TILEMODELIGHTSYNCH
280
     1
  9
$CMATERIAL
347
EC
  9
$SOLIDHIST
280
     0
  9
$SHOWHIST
280
     1
  9
$DWFFRAME
280
     2
  9
$DGNFRAME
280
     0
  9
$REALWORLDSCALE
290
     1
  9
$INTERFERECOLOR
 62
     1
  9
$INTERFEREOBJVS
345
F9
  9
$INTERFEREVPVS
346
F6
  9
$CSHADOW
280
     0
  9
$SHADOWPLANELOCATION
 40
0.0
  0
ENDSEC
  0
SECTION
  2
CLASSES
  0
CLASS
  1
ACDBDICTIONARYWDFLT
  2
AcDbDictionaryWithDefault
  3
ObjectDBX Classes
 90
        0
 91
        1
280
     0
281
     0
  0
CLASS
  1
DICTIONARYVAR
  2
AcDbDictionaryVar
  3
ObjectDBX Classes
 90
        0
 91
       11
280
     0
281
     0
  0
CLASS
  1
TABLESTYLE
  2
AcDbTableStyle
  3
ObjectDBX Classes
 90
     4095
 91
        1
280
     0
281
     0
  0
CLASS
  1
MATERIAL
  2
AcDbMaterial
  3
ObjectDBX Classes
 90
     1153
 91
        3
280
     0
281
     0
  0
CLASS
  1
VISUALSTYLE
  2
AcDbVisualStyle
  3
ObjectDBX Classes
 90
     4095
 91
       24
280
     0
281
     0
  0
CLASS
  1
SCALE
  2
AcDbScale
  3
ObjectDBX Classes
 90
     1153
 91
       17
280
     0
281
     0
  0
CLASS
  1
MLEADERSTYLE
  2
AcDbMLeaderStyle
  3
ACDB_MLEADERSTYLE_CLASS
 90
     4095
 91
        2
280
     0
281
     0
  0
CLASS
  1
CELLSTYLEMAP
  2
AcDbCellStyleMap
  3
ObjectDBX Classes
 90
     1152
 91
        1
280
     0
281
     0
  0
CLASS
  1
EXACXREFPANELOBJECT
  2
ExAcXREFPanelObject
  3
EXAC_ESW
 90
     1025
 91
        0
280
     0
281
     0
  0
CLASS
  1
NPOCOLLECTION
  2
AcDbImpNonPersistentObjectsCollection
  3
ObjectDBX Classes
 90
     1153
 91
        0
280
     0
281
     0
  0
CLASS
  1
LAYER_INDEX
  2
AcDbLayerIndex
  3
ObjectDBX Classes
 90
        0
 91
        0
280
     0
281
     0
  0
CLASS
  1
SPATIAL_INDEX
  2
AcDbSpatialIndex
  3
ObjectDBX Classes
 90
        0
 91
        0
280
     0
281
     0
  0
CLASS
  1
IDBUFFER
  2
AcDbIdBuffer
  3
ObjectDBX Classes
 90
        0
 91
        0
280
     0
281
     0
  0
CLASS
  1
ACDBSECTIONVIEWSTYLE
  2
AcDbSectionViewStyle
  3
ObjectDBX Classes
 90
     1025
 91
        2
280
     0
281
     0
  0
CLASS
  1
ACDBDETAILVIEWSTYLE
  2
AcDbDetailViewStyle
  3
ObjectDBX Classes
 90
     1025
 91
        2
280
     0
281
     0
  0
CLASS
  1
SORTENTSTABLE
  2
AcDbSortentsTable
  3
ObjectDBX Classes
 90
        0
 91
        1
280
     0
281
     0
  0
ENDSEC
  0
SECTION
  2
TABLES
  0
TABLE
  2
VPORT
  5
8
330
0
100
AcDbSymbolTable
 70
     1
1001
ACAD
1000
DbSaveVer
1071
      208
  0
VPORT
  5
EA
330
8
100
AcDbSymbolTableRecord
100
AcDbViewportTableRecord
  2
*Active
 70
     0
 10
0.0
 20
0.0
 11
1.0
 21
1.0
 12
7.100830819808038
 22
4.012962864610528
 13
0.0
 23
0.0
 14
10.0
 24
10.0
 15
10.0
 25
10.0
 16
0.0
 26
0.0
 36
1.0
 17
0.0
 27
0.0
 37
0.0
 40
7.964717189174621
 41
2.283154121863799
 42
50.0
 43
0.0
 44
0.0
 50
0.0
 51
0.0
 71
     0
 72
  1000
 73
     1
 74
     3
 75
     0
 76
     1
 77
     0
 78
     0
281
     0
 65
     1
110
0.0
120
0.0
130
0.0
111
1.0
121
0.0
131
0.0
112
0.0
122
1.0
132
0.0
 79
     0
146
0.0
348
F5
 60
     3
 61
     5
292
     1
282
     1
141
0.0
142
0.0
 63
   250
421
  3355443
1001
ACAD_NAV_VCDISPLAY
1070
     3
  0
ENDTAB
  0
TABLE
  2
LTYPE
  5
5
330
0
100
AcDbSymbolTable
 70
     1
  0
LTYPE
  5
14
330
5
100
AcDbSymbolTableRecord
100
AcDbLinetypeTableRecord
  2
ByBlock
 70
     0
  3

 72
    65
 73
     0
 40
0.0
  0
LTYPE
  5
15
330
5
100
AcDbSymbolTableRecord
100
AcDbLinetypeTableRecord
  2
ByLayer
 70
     0
  3

 72
    65
 73
     0
 40
0.0
  0
LTYPE
  5
16
330
5
100
AcDbSymbolTableRecord
100
AcDbLinetypeTableRecord
  2
Continuous
 70
     0
  3
Solid line
 72
    65
 73
     0
 40
0.0
  0
ENDTAB
  0
TABLE
  2
LAYER
  5
2
102
{ACAD_XDICTIONARY
360
1FF
102
}
330
0
100
AcDbSymbolTable
 70
     2
  0
LAYER
  5
10
102
{ACAD_XDICTIONARY
360
13C
102
}
330
2
100
AcDbSymbolTableRecord
100
AcDbLayerTableRecord
  2
0
 70
     0
 62
     7
  6
Continuous
370
    -3
390
F
347
EE
348
0
  0
LAYER
  5
28C
330
2
100
AcDbSymbolTableRecord
100
AcDbLayerTableRecord
  2
Livello 1
 70
     0
 62
     7
  6
Continuous
370
    -3
390
F
347
EE
348
0
  0
ENDTAB
  0
TABLE
  2
STYLE
  5
3
330
0
100
AcDbSymbolTable
 70
     2
  0
STYLE
  5
11
330
3
100
AcDbSymbolTableRecord
100
AcDbTextStyleTableRecord
  2
Standard
 70
     0
 40
0.0
 41
1.0
 50
0.0
 71
     0
 42
2.5
  3
arial.ttf
  4

1001
ACAD
1000
Arial
1071
       34
  0
STYLE
  5
132
330
3
100
AcDbSymbolTableRecord
100
AcDbTextStyleTableRecord
  2
Annotativa
 70
     0
 40
0.0
 41
1.0
 50
0.0
 71
     0
 42
2.5
  3
arial.ttf
  4

1001
AcadAnnotative
1000
AnnotativeData
1002
{
1070
     1
1070
     1
1002
}
1001
ACAD
1000
Arial
1071
       34
  0
ENDTAB
  0
TABLE
  2
VIEW
  5
6
330
0
100
AcDbSymbolTable
 70
     0
  0
ENDTAB
  0
TABLE
  2
UCS
  5
7
330
0
100
AcDbSymbolTable
 70
     0
  0
ENDTAB
  0
TABLE
  2
APPID
  5
9
330
0
100
AcDbSymbolTable
 70
     8
  0
APPID
  5
12
330
9
100
AcDbSymbolTableRecord
100
AcDbRegAppTableRecord
  2
ACAD
 70
     0
  0
APPID
  5
9E
330
9
100
AcDbSymbolTableRecord
100
AcDbRegAppTableRecord
  2
ACAD_PSEXT
 70
     0
  0
APPID
  5
133
330
9
100
AcDbSymbolTableRecord
100
AcDbRegAppTableRecord
  2
AcadAnnoPO
 70
     0
  0
APPID
  5
134
330
9
100
AcDbSymbolTableRecord
100
AcDbRegAppTableRecord
  2
AcadAnnotative
 70
     0
  0
APPID
  5
135
330
9
100
AcDbSymbolTableRecord
100
AcDbRegAppTableRecord
  2
ACAD_DSTYLE_DIMJAG
 70
     0
  0
APPID
  5
136
330
9
100
AcDbSymbolTableRecord
100
AcDbRegAppTableRecord
  2
ACAD_DSTYLE_DIMTALN
 70
     0
  0
APPID
  5
165
330
9
100
AcDbSymbolTableRecord
100
AcDbRegAppTableRecord
  2
ACAD_MLEADERVER
 70
     0
  0
APPID
  5
217
330
9
100
AcDbSymbolTableRecord
100
AcDbRegAppTableRecord
  2
ACAD_NAV_VCDISPLAY
 70
     0
  0
ENDTAB
  0
TABLE
  2
DIMSTYLE
  5
A
330
0
100
AcDbSymbolTable
 70
     3
100
AcDbDimStyleTable
 71
     2
340
27
340
137
  0
DIMSTYLE
105
1B0
330
A
100
AcDbSymbolTableRecord
100
AcDbDimStyleTableRecord
  2
Standard
 70
     0
340
11
  0
DIMSTYLE
105
137
330
A
100
AcDbSymbolTableRecord
100
AcDbDimStyleTableRecord
  2
Annotativa
 70
     0
 40
0.0
 41
2.5
 42
0.625
 43
3.75
 44
1.25
 73
     0
 74
     0
 77
     1
 78
     8
140
2.5
141
2.5
143
0.03937007874016
147
0.625
171
     3
172
     1
271
     2
272
     2
274
     3
278
    44
283
     0
284
     8
340
11
1001
AcadAnnotative
1000
AnnotativeData
1002
{
1070
     1
1070
     1
1002
}
1001
ACAD_DSTYLE_DIMJAG
1070
   388
1040
1.5
1001
ACAD_DSTYLE_DIMTALN
1070
   392
1070
     0
  0
DIMSTYLE
105
27
330
A
100
AcDbSymbolTableRecord
100
AcDbDimStyleTableRecord
  2
ISO-25
 70
     0
 41
2.5
 42
0.625
 43
3.75
 44
1.25
 73
     0
 74
     0
 77
     1
 78
     8
140
2.5
141
2.5
143
0.03937007874016
147
0.625
171
     3
172
     1
271
     2
272
     2
274
     3
278
    44
283
     0
284
     8
340
11
  0
ENDTAB
  0
TABLE
  2
BLOCK_RECORD
  5
1
330
0
100
AcDbSymbolTable
 70
     2
  0
BLOCK_RECORD
  5
1F
102
{ACAD_XDICTIONARY
360
1CE
102
}
330
1
100
AcDbSymbolTableRecord
100
AcDbBlockTableRecord
  2
*Model_Space
340
22
 70
     0
280
     1
281
     0
  0
BLOCK_RECORD
  5
D2
330
1
100
AcDbSymbolTableRecord
100
AcDbBlockTableRecord
  2
*Paper_Space
340
D3
 70
     0
280
     1
281
     0
  0
BLOCK_RECORD
  5
D6
330
1
100
AcDbSymbolTableRecord
100
AcDbBlockTableRecord
  2
*Paper_Space0
340
D7
 70
     0
280
     1
281
     0
  0
ENDTAB
  0
ENDSEC
  0
SECTION
  2
BLOCKS
  0
BLOCK
  5
20
330
1F
100
AcDbEntity
  8
0
100
AcDbBlockBegin
  2
*Model_Space
 70
     0
 10
0.0
 20
0.0
 30
0.0
  3
*Model_Space
  1

  0
ENDBLK
  5
21
330
1F
100
AcDbEntity
  8
0
100
AcDbBlockEnd
  0
BLOCK
  5
D4
330
D2
100
AcDbEntity
 67
     1
  8
0
100
AcDbBlockBegin
  2
*Paper_Space
 70
     0
 10
0.0
 20
0.0
 30
0.0
  3
*Paper_Space
  1

  0
ENDBLK
  5
D5
330
D2
100
AcDbEntity
 67
     1
  8
0
100
AcDbBlockEnd
  0
BLOCK
  5
D8
330
D6
100
AcDbEntity
 67
     1
  8
0
100
AcDbBlockBegin
  2
*Paper_Space0
 70
     0
 10
0.0
 20
0.0
 30
0.0
  3
*Paper_Space0
  1

  0
ENDBLK
  5
D9
330
D6
100
AcDbEntity
 67
     1
  8
0
100
AcDbBlockEnd
  0
ENDSEC
  0
SECTION
  2
ENTITIES
  0
SPLINE
  5
30D
330
1F
100
AcDbEntity
  8
Livello 1
370
     0
100
AcDbSpline
210
0.0
220
0.0
230
1.0
 70
     9
 71
     3
 72
    44
 73
    40
 74
     0
 42
0.000000001
 43
0.0000000001
 40
0.0
 40
0.0
 40
0.0
 40
0.0
 40
1.0
 40
1.0
 40
1.0
 40
2.0
 40
2.0
 40
2.0
 40
3.0
 40
3.0
 40
3.0
 40
4.0
 40
4.0
 40
4.0
 40
5.0
 40
5.0
 40
5.0
 40
6.0
 40
6.0
 40
6.0
 40
7.0
 40
7.0
 40
7.0
 40
8.0
 40
8.0
 40
8.0
 40
9.0
 40
9.0
 40
9.0
 40
10.0
 40
10.0
 40
10.0
 40
11.0
 40
11.0
 40
11.0
 40
12.0
 40
12.0
 40
12.0
 40
13.0
 40
13.0
 40
13.0
 40
13.0
 10
3.261650289435138
 20
6.394656768819118
 30
0.0
 10
3.260939738491344
 20
6.394656768819118
 30
0.0
 10
3.260234570509226
 20
6.394656768819118
 30
0.0
 10
3.25952940252705
 20
6.394656768819118
 30
0.0
 10
3.250712111269436
 20
6.395714520792324
 30
0.0
 10
3.244010323958335
 20
6.404180573799237
 30
0.0
 10
3.245065384450725
 20
6.413353140528712
 30
0.0
 10
3.245065384450725
 20
6.413353140528712
 30
0.0
 10
3.250356835797532
 20
6.458509460453541
 30
0.0
 10
3.250356835797532
 20
6.458509460453541
 30
0.0
 10
3.281755651368641
 20
6.598914596102972
 30
0.0
 10
3.396407352525329
 20
6.660650438050573
 30
0.0
 10
3.496595035605835
 20
6.660650438050573
 30
0.0
 10
3.618303799545628
 20
6.660650438050573
 30
0.0
 10
3.714615750205126
 20
6.581981144348731
 30
0.0
 10
3.74142289944973
 20
6.460272380408888
 30
0.0
 10
3.74142289944973
 20
6.460272380408888
 30
0.0
 10
3.74706962626854
 20
6.413353140528712
 30
0.0
 10
3.74706962626854
 20
6.413353140528712
 30
0.0
 10
3.748130069722634
 20
6.404180573799237
 30
0.0
 10
3.74177817492162
 20
6.395714520792324
 30
0.0
 10
3.73260560819223
 20
6.394656768819118
 30
0.0
 10
3.722377980970335
 20
6.393597671105489
 30
0.0
 10
3.714965642715341
 20
6.400300804157069
 30
0.0
 10
3.713910582223036
 20
6.409473370886537
 30
0.0
 10
3.713910582223036
 20
6.409473370886537
 30
0.0
 10
3.708619130876144
 20
6.454628345070936
 30
0.0
 10
3.708619130876144
 20
6.454628345070936
 30
0.0
 10
3.680396262705528
 20
6.581628560357657
 30
0.0
 10
3.576677356752711
 20
6.627490048264618
 30
0.0
 10
3.496595035605835
 20
6.627490048264618
 30
0.0
 10
3.416162821948617
 20
6.627490048264618
 30
0.0
 10
3.312094023485641
 20
6.581628560357657
 30
0.0
 10
3.283165987332836
 20
6.452864079375174
 30
0.0
 10
3.283165987332836
 20
6.452864079375174
 30
0.0
 10
3.278229811457919
 20
6.409473370886537
 30
0.0
 10
3.278229811457919
 20
6.409473370886537
 30
0.0
 10
3.277169368003825
 20
6.401005972139188
 30
0.0
 10
3.270112305220834
 20
6.394656768819118
 30
0.0
 10
3.261650289435138
 20
6.394656768819118
 30
0.0
  0
SPLINE
  5
30E
330
1F
100
AcDbEntity
  8
Livello 1
370
     0
100
AcDbSpline
210
0.0
220
0.0
230
1.0
 70
     9
 71
     3
 72
    47
 73
    43
 74
     0
 42
0.000000001
 43
0.0000000001
 40
0.0
 40
0.0
 40
0.0
 40
0.0
 40
1.0
 40
1.0
 40
1.0
 40
2.0
 40
2.0
 40
2.0
 40
3.0
 40
3.0
 40
3.0
 40
4.0
 40
4.0
 40
4.0
 40
5.0
 40
5.0
 40
5.0
 40
6.0
 40
6.0
 40
6.0
 40
7.0
 40
7.0
 40
7.0
 40
8.0
 40
8.0
 40
8.0
 40
9.0
 40
9.0
 40
9.0
 40
10.0
 40
10.0
 40
10.0
 40
11.0
 40
11.0
 40
11.0
 40
12.0
 40
12.0
 40
12.0
 40
13.0
 40
13.0
 40
13.0
 40
14.0
 40
14.0
 40
14.0
 40
14.0
 10
3.496632716337614
 20
6.161259624135993
 30
0.0
 10
3.496632716337614
 20
6.161259624135993
 30
0.0
 10
3.496277440865725
 20
6.161259624135993
 30
0.0
 10
3.496277440865725
 20
6.161259624135993
 30
0.0
 10
3.395734482313415
 20
6.161259624135993
 30
0.0
 10
3.281082781156626
 20
6.223700634065714
 30
0.0
 10
3.250744409039626
 20
6.362342849759812
 30
0.0
 10
3.250744409039626
 20
6.362342849759812
 30
0.0
 10
3.245097682220844
 20
6.40926208963998
 30
0.0
 10
3.245097682220844
 20
6.40926208963998
 30
0.0
 10
3.244042621728539
 20
6.418433310629033
 30
0.0
 10
3.250389133567736
 20
6.426900709376369
 30
0.0
 10
3.259561700297226
 20
6.427958461349582
 30
0.0
 10
3.269439435008834
 20
6.429017559063218
 30
0.0
 10
3.277201665774043
 20
6.422314426011638
 30
0.0
 10
3.278262109228137
 20
6.413141859282163
 30
0.0
 10
3.278262109228137
 20
6.413141859282163
 30
0.0
 10
3.283553560574929
 20
6.367986885097764
 30
0.0
 10
3.283553560574929
 20
6.367986885097764
 30
0.0
 10
3.311421153273641
 20
6.240634085819969
 30
0.0
 10
3.415489951736645
 20
6.194772597913008
 30
0.0
 10
3.496277440865725
 20
6.194420013921927
 30
0.0
 10
3.496277440865725
 20
6.194420013921927
 30
0.0
 10
3.496632716337614
 20
6.194420013921927
 30
0.0
 10
3.496632716337614
 20
6.194420013921927
 30
0.0
 10
3.576709654522929
 20
6.194420013921927
 30
0.0
 10
3.680428560475732
 20
6.240281501828903
 30
0.0
 10
3.709001321156534
 20
6.36939722106203
 30
0.0
 10
3.709001321156534
 20
6.36939722106203
 30
0.0
 10
3.713942879993226
 20
6.413141859282163
 30
0.0
 10
3.713942879993226
 20
6.413141859282163
 30
0.0
 10
3.714997940485531
 20
6.422314426011638
 30
0.0
 10
3.722410278740539
 20
6.429017559063218
 30
0.0
 10
3.732637905962334
 20
6.427958461349582
 30
0.0
 10
3.74145519721992
 20
6.426900709376369
 30
0.0
 10
3.748162367492824
 20
6.418433310629033
 30
0.0
 10
3.74710192403873
 20
6.40926208963998
 30
0.0
 10
3.74710192403873
 20
6.40926208963998
 30
0.0
 10
3.741810472691838
 20
6.364105769715152
 30
0.0
 10
3.741810472691838
 20
6.364105769715152
 30
0.0
 10
3.71464804797533
 20
6.240281501828903
 30
0.0
 10
3.618691372787722
 20
6.161259624135993
 30
0.0
 10
3.496632716337614
 20
6.161259624135993
 30
0.0
  0
SPLINE
  5
30F
330
1F
100
AcDbEntity
  8
Livello 1
370
     0
100
AcDbSpline
210
0.0
220
0.0
230
1.0
 70
     9
 71
     3
 72
    38
 73
    34
 74
     0
 42
0.000000001
 43
0.0000000001
 40
0.0
 40
0.0
 40
0.0
 40
0.0
 40
1.0
 40
1.0
 40
1.0
 40
2.0
 40
2.0
 40
2.0
 40
3.0
 40
3.0
 40
3.0
 40
4.0
 40
4.0
 40
4.0
 40
5.0
 40
5.0
 40
5.0
 40
6.0
 40
6.0
 40
6.0
 40
7.0
 40
7.0
 40
7.0
 40
8.0
 40
8.0
 40
8.0
 40
9.0
 40
9.0
 40
9.0
 40
10.0
 40
10.0
 40
10.0
 40
11.0
 40
11.0
 40
11.0
 40
11.0
 10
0.4136329154726326
 20
6.503982029377993
 30
0.0
 10
0.2753446295100446
 20
6.521268065123322
 30
0.0
 10
0.1776277258479268
 20
6.615459128874725
 30
0.0
 10
0.1624531568277092
 20
6.744928777839355
 30
0.0
 10
0.1472839707693225
 20
6.873339329090342
 30
0.0
 10
0.2196040611510455
 20
6.987287208005405
 30
0.0
 10
0.3462543839275298
 20
7.034559031876639
 30
0.0
 10
0.3462543839275298
 20
7.034559031876639
 30
0.0
 10
0.3878808267204334
 20
7.045495864301884
 30
0.0
 10
0.3878808267204334
 20
7.045495864301884
 30
0.0
 10
0.3878808267204334
 20
7.045495864301884
 30
0.0
 10
0.4309176054775464
 20
7.048670465961926
 30
0.0
 10
0.4309176054775464
 20
7.048670465961926
 30
0.0
 10
0.4319780489316401
 20
7.049023049952992
 30
0.0
 10
0.4326832169137163
 20
7.049023049952992
 30
0.0
 10
0.4333883848959346
 20
7.048670465961926
 30
0.0
 10
0.4333883848959346
 20
7.048670465961926
 30
0.0
 10
0.4757199956709286
 20
7.046201032284024
 30
0.0
 10
0.4757199956709286
 20
7.046201032284024
 30
0.0
 10
0.4757199956709286
 20
7.046201032284024
 30
0.0
 10
0.5191120498999169
 20
7.034911615867713
 30
0.0
 10
0.5191120498999169
 20
7.034911615867713
 30
0.0
 10
0.6380001419112205
 20
6.991520907379076
 30
0.0
 10
0.7099649568211391
 20
6.884628745506653
 30
0.0
 10
0.7039683374921424
 20
6.761509645602544
 30
0.0
 10
0.6979717181631316
 20
6.641212563367396
 30
0.0
 10
0.617184229034038
 20
6.543492968224448
 30
0.0
 10
0.4975963520022191
 20
6.512448082384914
 30
0.0
 10
0.4975963520022191
 20
6.512448082384914
 30
0.0
 10
0.4566696942298308
 20
6.504334613369067
 30
0.0
 10
0.4566696942298308
 20
6.504334613369067
 30
0.0
 10
0.4566696942298308
 20
6.504334613369067
 30
0.0
 10
0.4136329154726326
 20
6.503982029377993
 30
0.0
 10
0.4136329154726326
 20
6.503982029377993
 30
0.0
  0
SPLINE
  5
310
330
1F
100
AcDbEntity
  8
Livello 1
370
     0
100
AcDbSpline
210
0.0
220
0.0
230
1.0
 70
    11
 71
     3
 72
    35
 73
    31
 74
     0
 42
0.000000001
 43
0.0000000001
 40
0.0
 40
0.0
 40
0.0
 40
0.0
 40
1.0
 40
1.0
 40
1.0
 40
2.0
 40
2.0
 40
2.0
 40
3.0
 40
3.0
 40
3.0
 40
4.0
 40
4.0
 40
4.0
 40
5.0
 40
5.0
 40
5.0
 40
6.0
 40
6.0
 40
6.0
 40
7.0
 40
7.0
 40
7.0
 40
8.0
 40
8.0
 40
8.0
 40
9.0
 40
9.0
 40
9.0
 40
10.0
 40
10.0
 40
10.0
 40
10.0
 10
0.4323333244035297
 20
7.015510076175971
 30
0.0
 10
0.4323333244035297
 20
7.015510076175971
 30
0.0
 10
0.3931722780673397
 20
7.013039296757654
 30
0.0
 10
0.3931722780673397
 20
7.013039296757654
 30
0.0
 10
0.3931722780673397
 20
7.013039296757654
 30
0.0
 10
0.3564820111494242
 20
7.002808978054964
 30
0.0
 10
0.3564820111494242
 20
7.002808978054964
 30
0.0
 10
0.2220748405694195
 20
6.952715136514754
 30
0.0
 10
0.185384573651433
 20
6.834534903966435
 30
0.0
 10
0.1956175838350305
 20
6.748455963490457
 30
0.0
 10
0.2054953185466388
 20
6.6623783687549
 30
0.0
 10
0.2693480101810479
 20
6.555487552622899
 30
0.0
 10
0.4157484194191312
 20
6.537142419163956
 30
0.0
 10
0.4157484194191312
 20
6.537142419163956
 30
0.0
 10
0.4534991297910267
 20
6.537142419163956
 30
0.0
 10
0.4534991297910267
 20
6.537142419163956
 30
0.0
 10
0.4534991297910267
 20
6.537142419163956
 30
0.0
 10
0.4901840137472391
 20
6.544903304188729
 30
0.0
 10
0.4901840137472391
 20
6.544903304188729
 30
0.0
 10
0.6168343365237235
 20
6.577712455724032
 30
0.0
 10
0.6665729025920229
 20
6.679311820509148
 30
0.0
 10
0.6708092934466379
 20
6.763273911298298
 30
0.0
 10
0.6757454693215408
 20
6.871223825143928
 30
0.0
 10
0.6125979456692363
 20
6.965414888895338
 30
0.0
 10
0.5092343151883228
 20
7.003161562046031
 30
0.0
 10
0.5092343151883228
 20
7.003161562046031
 30
0.0
 10
0.4704285443240366
 20
7.013393226489135
 30
0.0
 10
0.4704285443240366
 20
7.013393226489135
 30
0.0
 10
0.4704285443240366
 20
7.013393226489135
 30
0.0
 10
0.4323333244035297
 20
7.015510076175971
 30
0.0
 10
0.4323333244035297
 20
7.015510076175971
 30
0.0
  0
SPLINE
  5
311
330
1F
100
AcDbEntity
  8
Livello 1
370
     0
100
AcDbSpline
210
0.0
220
0.0
230
1.0
 70
     9
 71
     3
 72
    41
 73
    37
 74
     0
 42
0.000000001
 43
0.0000000001
 40
0.0
 40
0.0
 40
0.0
 40
0.0
 40
1.0
 40
1.0
 40
1.0
 40
2.0
 40
2.0
 40
2.0
 40
3.0
 40
3.0
 40
3.0
 40
4.0
 40
4.0
 40
4.0
 40
5.0
 40
5.0
 40
5.0
 40
6.0
 40
6.0
 40
6.0
 40
7.0
 40
7.0
 40
7.0
 40
8.0
 40
8.0
 40
8.0
 40
9.0
 40
9.0
 40
9.0
 40
10.0
 40
10.0
 40
10.0
 40
11.0
 40
11.0
 40
11.0
 40
12.0
 40
12.0
 40
12.0
 40
12.0
 10
2.799017029459633
 20
5.788585074278664
 30
0.0
 10
2.797251418023435
 20
5.788585074278664
 30
0.0
 10
2.795485806587223
 20
5.788937658269723
 30
0.0
 10
2.793720195151138
 20
5.789642826251863
 30
0.0
 10
2.793720195151138
 20
5.789642826251863
 30
0.0
 10
2.785608071875628
 20
5.792112259929766
 30
0.0
 10
2.785608071875628
 20
5.792112259929766
 30
0.0
 10
2.535488756684841
 20
5.90429587314906
 30
0.0
 10
2.381326116681634
 20
6.14100892223675
 30
0.0
 10
2.382381177173911
 20
6.410885052591233
 30
0.0
 10
2.383441620628033
 20
6.681112421196367
 30
0.0
 10
2.539014596595535
 20
6.91676771831085
 30
0.0
 10
2.788428743804217
 20
7.026834481843309
 30
0.0
 10
2.795135914077036
 20
7.030715597225906
 30
0.0
 10
2.80430848080654
 20
7.030715597225906
 30
0.0
 10
2.809599932153432
 20
7.02507021614754
 30
0.0
 10
2.815946443992629
 20
7.018721012827462
 30
0.0
 10
2.817356779956924
 20
7.009548446097973
 30
0.0
 10
2.810654992645723
 20
7.002845313046407
 30
0.0
 10
2.809244656681542
 20
7.001434977082126
 30
0.0
 10
2.805013648788616
 20
6.997553861699543
 30
0.0
 10
2.802892761880528
 20
6.996848693717396
 30
0.0
 10
2.565121960819723
 20
6.892425965522882
 30
0.0
 10
2.416600664673538
 20
6.668060084824716
 30
0.0
 10
2.415545604181133
 20
6.410885052591233
 30
0.0
 10
2.41448516072711
 20
6.154415188339903
 30
0.0
 10
2.561240845437026
 20
5.928990209928102
 30
0.0
 10
2.797956586005625
 20
5.823157145769314
 30
0.0
 10
2.797956586005625
 20
5.823157145769314
 30
0.0
 10
2.80430848080654
 20
5.821040296082472
 30
0.0
 10
2.80430848080654
 20
5.821040296082472
 30
0.0
 10
2.813125772064125
 20
5.818218278413496
 30
0.0
 10
2.817712055428827
 20
5.808693127692961
 30
0.0
 10
2.814891383500324
 20
5.799873144954538
 30
0.0
 10
2.812420604081935
 20
5.792817427911906
 30
0.0
 10
2.806068709281035
 20
5.788585074278664
 30
0.0
 10
2.799017029459633
 20
5.788585074278664
 30
0.0
  0
SPLINE
  5
312
330
1F
100
AcDbEntity
  8
Livello 1
370
     0
100
AcDbSpline
210
0.0
220
0.0
230
1.0
 70
     9
 71
     3
 72
    23
 73
    19
 74
     0
 42
0.000000001
 43
0.0000000001
 40
0.0
 40
0.0
 40
0.0
 40
0.0
 40
1.0
 40
1.0
 40
1.0
 40
2.0
 40
2.0
 40
2.0
 40
3.0
 40
3.0
 40
3.0
 40
4.0
 40
4.0
 40
4.0
 40
5.0
 40
5.0
 40
5.0
 40
6.0
 40
6.0
 40
6.0
 40
6.0
 10
2.918007397743124
 20
5.787208381824981
 30
0.0
 10
2.918007397743124
 20
5.787208381824981
 30
0.0
 10
2.800884917168048
 20
5.787208381824981
 30
0.0
 10
2.800884917168048
 20
5.787208381824981
 30
0.0
 10
2.791712350438629
 20
5.787208381824981
 30
0.0
 10
2.78395011967342
 20
5.794616682858688
 30
0.0
 10
2.78395011967342
 20
5.803787903847755
 30
0.0
 10
2.78395011967342
 20
5.812960470577223
 30
0.0
 10
2.791712350438629
 20
5.820368771610937
 30
0.0
 10
2.800884917168048
 20
5.820368771610937
 30
0.0
 10
2.800884917168048
 20
5.820368771610937
 30
0.0
 10
2.918007397743124
 20
5.820368771610937
 30
0.0
 10
2.918007397743124
 20
5.820368771610937
 30
0.0
 10
2.927174581510925
 20
5.820368771610937
 30
0.0
 10
2.934586919765933
 20
5.812960470577223
 30
0.0
 10
2.934586919765933
 20
5.803787903847755
 30
0.0
 10
2.934586919765933
 20
5.794616682858688
 30
0.0
 10
2.927174581510925
 20
5.787208381824981
 30
0.0
 10
2.918007397743124
 20
5.787208381824981
 30
0.0
  0
SPLINE
  5
313
330
1F
100
AcDbEntity
  8
Livello 1
370
     0
100
AcDbSpline
210
0.0
220
0.0
230
1.0
 70
     9
 71
     3
 72
    23
 73
    19
 74
     0
 42
0.000000001
 43
0.0000000001
 40
0.0
 40
0.0
 40
0.0
 40
0.0
 40
1.0
 40
1.0
 40
1.0
 40
2.0
 40
2.0
 40
2.0
 40
3.0
 40
3.0
 40
3.0
 40
4.0
 40
4.0
 40
4.0
 40
5.0
 40
5.0
 40
5.0
 40
6.0
 40
6.0
 40
6.0
 40
6.0
 10
2.918007397743124
 20
6.999459430139808
 30
0.0
 10
2.918007397743124
 20
6.999459430139808
 30
0.0
 10
2.800884917168048
 20
6.999459430139808
 30
0.0
 10
2.800884917168048
 20
6.999459430139808
 30
0.0
 10
2.791712350438629
 20
6.999459430139808
 30
0.0
 10
2.78395011967342
 20
7.006867731173528
 30
0.0
 10
2.78395011967342
 20
7.016038952162574
 30
0.0
 10
2.78395011967342
 20
7.025211518892064
 30
0.0
 10
2.791712350438629
 20
7.032619819925756
 30
0.0
 10
2.800884917168048
 20
7.032619819925756
 30
0.0
 10
2.800884917168048
 20
7.032619819925756
 30
0.0
 10
2.918007397743124
 20
7.032619819925756
 30
0.0
 10
2.918007397743124
 20
7.032619819925756
 30
0.0
 10
2.927174581510925
 20
7.032619819925756
 30
0.0
 10
2.934586919765933
 20
7.025211518892064
 30
0.0
 10
2.934586919765933
 20
7.016038952162574
 30
0.0
 10
2.934586919765933
 20
7.006867731173528
 30
0.0
 10
2.927174581510925
 20
6.999459430139808
 30
0.0
 10
2.918007397743124
 20
6.999459430139808
 30
0.0
  0
SPLINE
  5
314
330
1F
100
AcDbEntity
  8
Livello 1
370
     0
100
AcDbSpline
210
0.0
220
0.0
230
1.0
 70
     9
 71
     3
 72
    32
 73
    28
 74
     0
 42
0.000000001
 43
0.0000000001
 40
0.0
 40
0.0
 40
0.0
 40
0.0
 40
1.0
 40
1.0
 40
1.0
 40
2.0
 40
2.0
 40
2.0
 40
3.0
 40
3.0
 40
3.0
 40
4.0
 40
4.0
 40
4.0
 40
5.0
 40
5.0
 40
5.0
 40
6.0
 40
6.0
 40
6.0
 40
7.0
 40
7.0
 40
7.0
 40
8.0
 40
8.0
 40
8.0
 40
9.0
 40
9.0
 40
9.0
 40
9.0
 10
2.918007397743124
 20
5.520862128602459
 30
0.0
 10
2.918007397743124
 20
5.520862128602459
 30
0.0
 10
0.7413637723921341
 20
5.520862128602459
 30
0.0
 10
0.7413637723921341
 20
5.520862128602459
 30
0.0
 10
0.7318413131524295
 20
5.520862128602459
 30
0.0
 10
0.7244343578591384
 20
5.528270429636158
 30
0.0
 10
0.7244343578591384
 20
5.537441650625218
 30
0.0
 10
0.7244343578591384
 20
5.537441650625218
 30
0.0
 10
0.7244343578591384
 20
5.593533457234862
 30
0.0
 10
0.7244343578591384
 20
5.593533457234862
 30
0.0
 10
0.7244343578591384
 20
5.602706023964337
 30
0.0
 10
0.7318413131524295
 20
5.610114324998043
 30
0.0
 10
0.7413637723921341
 20
5.610114324998043
 30
0.0
 10
0.7505363391216236
 20
5.610114324998043
 30
0.0
 10
0.757948677376632
 20
5.602706023964337
 30
0.0
 10
0.757948677376632
 20
5.593533457234862
 30
0.0
 10
0.757948677376632
 20
5.593533457234862
 30
0.0
 10
0.757948677376632
 20
5.554022518388407
 30
0.0
 10
0.757948677376632
 20
5.554022518388407
 30
0.0
 10
0.757948677376632
 20
5.554022518388407
 30
0.0
 10
2.918007397743124
 20
5.554022518388407
 30
0.0
 10
2.918007397743124
 20
5.554022518388407
 30
0.0
 10
2.927174581510925
 20
5.554022518388407
 30
0.0
 10
2.934586919765933
 20
5.546614217354687
 30
0.0
 10
2.934586919765933
 20
5.537441650625218
 30
0.0
 10
2.934586919765933
 20
5.528270429636158
 30
0.0
 10
2.927174581510925
 20
5.520862128602459
 30
0.0
 10
2.918007397743124
 20
5.520862128602459
 30
0.0
  0
SPLINE
  5
315
330
1F
100
AcDbEntity
  8
Livello 1
370
     0
100
AcDbSpline
210
0.0
220
0.0
230
1.0
 70
     9
 71
     3
 72
    20
 73
    16
 74
     0
 42
0.000000001
 43
0.0000000001
 40
0.0
 40
0.0
 40
0.0
 40
0.0
 40
1.0
 40
1.0
 40
1.0
 40
2.0
 40
2.0
 40
2.0
 40
3.0
 40
3.0
 40
3.0
 40
4.0
 40
4.0
 40
4.0
 40
5.0
 40
5.0
 40
5.0
 40
5.0
 10
0.7412614961199325
 20
7.265946986106854
 30
0.0
 10
0.7320889293904287
 20
7.265946986106854
 30
0.0
 10
0.7246765911354203
 20
7.273355287140574
 30
0.0
 10
0.7246765911354203
 20
7.28252650812962
 30
0.0
 10
0.7246765911354203
 20
7.291699074859089
 30
0.0
 10
0.7320889293904287
 20
7.300519057597504
 30
0.0
 10
0.7412614961199325
 20
7.300519057597504
 30
0.0
 10
0.7504286798877331
 20
7.300519057597504
 30
0.0
 10
0.7578410181427131
 20
7.294521092528071
 30
0.0
 10
0.7578410181427131
 20
7.285348525798589
 30
0.0
 10
0.7578410181427131
 20
7.285348525798589
 30
0.0
 10
0.7578410181427131
 20
7.28252650812962
 30
0.0
 10
0.7578410181427131
 20
7.28252650812962
 30
0.0
 10
0.7578410181427131
 20
7.273355287140574
 30
0.0
 10
0.7504286798877331
 20
7.265946986106854
 30
0.0
 10
0.7412614961199325
 20
7.265946986106854
 30
0.0
  0
SPLINE
  5
316
330
1F
100
AcDbEntity
  8
Livello 1
370
     0
100
AcDbSpline
210
0.0
220
0.0
230
1.0
 70
     9
 71
     3
 72
    23
 73
    19
 74
     0
 42
0.000000001
 43
0.0000000001
 40
0.0
 40
0.0
 40
0.0
 40
0.0
 40
1.0
 40
1.0
 40
1.0
 40
2.0
 40
2.0
 40
2.0
 40
3.0
 40
3.0
 40
3.0
 40
4.0
 40
4.0
 40
4.0
 40
5.0
 40
5.0
 40
5.0
 40
6.0
 40
6.0
 40
6.0
 40
6.0
 10
0.7412614961199325
 20
7.268664036022762
 30
0.0
 10
0.7320889293904287
 20
7.268664036022762
 30
0.0
 10
0.7246765911354203
 20
7.276072337056469
 30
0.0
 10
0.7246765911354203
 20
7.285243558045522
 30
0.0
 10
0.7246765911354203
 20
7.285243558045522
 30
0.0
 10
0.7246765911354203
 20
7.338513346986196
 30
0.0
 10
0.7246765911354203
 20
7.338513346986196
 30
0.0
 10
0.7246765911354203
 20
7.347685913715679
 30
0.0
 10
0.7320889293904287
 20
7.356504550713658
 30
0.0
 10
0.7412614961199325
 20
7.356504550713658
 30
0.0
 10
0.7504286798877331
 20
7.356504550713658
 30
0.0
 10
0.7578410181427131
 20
7.350507931384647
 30
0.0
 10
0.7578410181427131
 20
7.341335364655172
 30
0.0
 10
0.7578410181427131
 20
7.341335364655172
 30
0.0
 10
0.7578410181427131
 20
7.285243558045522
 30
0.0
 10
0.7578410181427131
 20
7.285243558045522
 30
0.0
 10
0.7578410181427131
 20
7.276072337056469
 30
0.0
 10
0.7504286798877331
 20
7.268664036022762
 30
0.0
 10
0.7412614961199325
 20
7.268664036022762
 30
0.0
  0
SPLINE
  5
317
330
1F
100
AcDbEntity
  8
Livello 1
370
     0
100
AcDbSpline
210
0.0
220
0.0
230
1.0
 70
     9
 71
     3
 72
    23
 73
    19
 74
     0
 42
0.000000001
 43
0.0000000001
 40
0.0
 40
0.0
 40
0.0
 40
0.0
 40
1.0
 40
1.0
 40
1.0
 40
2.0
 40
2.0
 40
2.0
 40
3.0
 40
3.0
 40
3.0
 40
4.0
 40
4.0
 40
4.0
 40
5.0
 40
5.0
 40
5.0
 40
6.0
 40
6.0
 40
6.0
 40
6.0
 10
2.918007397743124
 20
7.324614539887896
 30
0.0
 10
2.918007397743124
 20
7.324614539887896
 30
0.0
 10
0.7413637723921341
 20
7.324614539887896
 30
0.0
 10
0.7413637723921341
 20
7.324614539887896
 30
0.0
 10
0.7318413131524295
 20
7.324614539887896
 30
0.0
 10
0.7244343578591384
 20
7.332022840921617
 30
0.0
 10
0.7244343578591384
 20
7.341194061910663
 30
0.0
 10
0.7244343578591384
 20
7.350366628640138
 30
0.0
 10
0.7318413131524295
 20
7.357774929673851
 30
0.0
 10
0.7413637723921341
 20
7.357774929673851
 30
0.0
 10
0.7413637723921341
 20
7.357774929673851
 30
0.0
 10
2.918007397743124
 20
7.357774929673851
 30
0.0
 10
2.918007397743124
 20
7.357774929673851
 30
0.0
 10
2.927174581510925
 20
7.357774929673851
 30
0.0
 10
2.934586919765933
 20
7.350366628640138
 30
0.0
 10
2.934586919765933
 20
7.341194061910663
 30
0.0
 10
2.934586919765933
 20
7.332022840921617
 30
0.0
 10
2.927174581510925
 20
7.324614539887896
 30
0.0
 10
2.918007397743124
 20
7.324614539887896
 30
0.0
  0
SPLINE
  5
318
330
1F
100
AcDbEntity
  8
Livello 1
370
     0
100
AcDbSpline
210
0.0
220
0.0
230
1.0
 70
     9
 71
     3
 72
    23
 73
    19
 74
     0
 42
0.000000001
 43
0.0000000001
 40
0.0
 40
0.0
 40
0.0
 40
0.0
 40
1.0
 40
1.0
 40
1.0
 40
2.0
 40
2.0
 40
2.0
 40
3.0
 40
3.0
 40
3.0
 40
4.0
 40
4.0
 40
4.0
 40
5.0
 40
5.0
 40
5.0
 40
6.0
 40
6.0
 40
6.0
 40
6.0
 10
0.7412991768518396
 20
5.576847621718599
 30
0.0
 10
0.7321266101223359
 20
5.576847621718599
 30
0.0
 10
0.7247142718673274
 20
5.584255922752326
 30
0.0
 10
0.7247142718673274
 20
5.593427143741372
 30
0.0
 10
0.7247142718673274
 20
5.593427143741372
 30
0.0
 10
0.7247142718673274
 20
5.721486456741715
 30
0.0
 10
0.7247142718673274
 20
5.721486456741715
 30
0.0
 10
0.7247142718673274
 20
5.730657677730775
 30
0.0
 10
0.7321266101223359
 20
5.738065978764495
 30
0.0
 10
0.7412991768518396
 20
5.738065978764495
 30
0.0
 10
0.7504663606196403
 20
5.738065978764495
 30
0.0
 10
0.757878698874535
 20
5.730657677730775
 30
0.0
 10
0.757878698874535
 20
5.721486456741715
 30
0.0
 10
0.757878698874535
 20
5.721486456741715
 30
0.0
 10
0.757878698874535
 20
5.593427143741372
 30
0.0
 10
0.757878698874535
 20
5.593427143741372
 30
0.0
 10
0.757878698874535
 20
5.584255922752326
 30
0.0
 10
0.7504663606196403
 20
5.576847621718599
 30
0.0
 10
0.7412991768518396
 20
5.576847621718599
 30
0.0
  0
SPLINE
  5
319
330
1F
100
AcDbEntity
  8
Livello 1
370
     0
100
AcDbSpline
210
0.0
220
0.0
230
1.0
 70
     9
 71
     3
 72
    23
 73
    19
 74
     0
 42
0.000000001
 43
0.0000000001
 40
0.0
 40
0.0
 40
0.0
 40
0.0
 40
1.0
 40
1.0
 40
1.0
 40
2.0
 40
2.0
 40
2.0
 40
3.0
 40
3.0
 40
3.0
 40
4.0
 40
4.0
 40
4.0
 40
5.0
 40
5.0
 40
5.0
 40
6.0
 40
6.0
 40
6.0
 40
6.0
 10
0.7412991768518396
 20
5.704729296983003
 30
0.0
 10
0.7321266101223359
 20
5.704729296983003
 30
0.0
 10
0.7247142718673274
 20
5.71213759801671
 30
0.0
 10
0.7247142718673274
 20
5.721308819005756
 30
0.0
 10
0.7247142718673274
 20
5.721308819005756
 30
0.0
 10
0.7247142718673274
 20
5.833139848233997
 30
0.0
 10
0.7247142718673274
 20
5.833139848233997
 30
0.0
 10
0.7247142718673274
 20
5.842312414963465
 30
0.0
 10
0.7321266101223359
 20
5.850073299988245
 30
0.0
 10
0.7412991768518396
 20
5.850073299988245
 30
0.0
 10
0.7504663606196403
 20
5.850073299988245
 30
0.0
 10
0.757878698874535
 20
5.842312414963465
 30
0.0
 10
0.757878698874535
 20
5.833139848233997
 30
0.0
 10
0.757878698874535
 20
5.833139848233997
 30
0.0
 10
0.757878698874535
 20
5.721308819005756
 30
0.0
 10
0.757878698874535
 20
5.721308819005756
 30
0.0
 10
0.757878698874535
 20
5.71213759801671
 30
0.0
 10
0.7504663606196403
 20
5.704729296983003
 30
0.0
 10
0.7412991768518396
 20
5.704729296983003
 30
0.0
  0
SPLINE
  5
31A
330
1F
100
AcDbEntity
  8
Livello 1
370
     0
100
AcDbSpline
210
0.0
220
0.0
230
1.0
 70
     9
 71
     3
 72
    23
 73
    19
 74
     0
 42
0.000000001
 43
0.0000000001
 40
0.0
 40
0.0
 40
0.0
 40
0.0
 40
1.0
 40
1.0
 40
1.0
 40
2.0
 40
2.0
 40
2.0
 40
3.0
 40
3.0
 40
3.0
 40
4.0
 40
4.0
 40
4.0
 40
5.0
 40
5.0
 40
5.0
 40
6.0
 40
6.0
 40
6.0
 40
6.0
 10
0.7412991768518396
 20
5.797157440779066
 30
0.0
 10
0.7321266101223359
 20
5.797157440779066
 30
0.0
 10
0.7247142718673274
 20
5.804565741812773
 30
0.0
 10
0.7247142718673274
 20
5.813736962801819
 30
0.0
 10
0.7247142718673274
 20
5.813736962801819
 30
0.0
 10
0.7247142718673274
 20
7.157468196274635
 30
0.0
 10
0.7247142718673274
 20
7.157468196274635
 30
0.0
 10
0.7247142718673274
 20
7.166640763004103
 30
0.0
 10
0.7321266101223359
 20
7.174049064037824
 30
0.0
 10
0.7412991768518396
 20
7.174049064037824
 30
0.0
 10
0.7504663606196403
 20
7.174049064037824
 30
0.0
 10
0.757878698874535
 20
7.166640763004103
 30
0.0
 10
0.757878698874535
 20
7.157468196274635
 30
0.0
 10
0.757878698874535
 20
7.157468196274635
 30
0.0
 10
0.757878698874535
 20
5.813736962801819
 30
0.0
 10
0.757878698874535
 20
5.813736962801819
 30
0.0
 10
0.757878698874535
 20
5.804565741812773
 30
0.0
 10
0.7504663606196403
 20
5.797157440779066
 30
0.0
 10
0.7412991768518396
 20
5.797157440779066
 30
0.0
  0
SPLINE
  5
31B
330
1F
100
AcDbEntity
  8
Livello 1
370
     0
100
AcDbSpline
210
0.0
220
0.0
230
1.0
 70
     9
 71
     3
 72
    23
 73
    19
 74
     0
 42
0.000000001
 43
0.0000000001
 40
0.0
 40
0.0
 40
0.0
 40
0.0
 40
1.0
 40
1.0
 40
1.0
 40
2.0
 40
2.0
 40
2.0
 40
3.0
 40
3.0
 40
3.0
 40
4.0
 40
4.0
 40
4.0
 40
5.0
 40
5.0
 40
5.0
 40
6.0
 40
6.0
 40
6.0
 40
6.0
 10
0.7412991768518396
 20
7.140782360758372
 30
0.0
 10
0.7321266101223359
 20
7.140782360758372
 30
0.0
 10
0.7247142718673274
 20
7.148190661792078
 30
0.0
 10
0.7247142718673274
 20
7.157361882781145
 30
0.0
 10
0.7247142718673274
 20
7.157361882781145
 30
0.0
 10
0.7247142718673274
 20
7.282597832372083
 30
0.0
 10
0.7247142718673274
 20
7.282597832372083
 30
0.0
 10
0.7247142718673274
 20
7.291770399101565
 30
0.0
 10
0.7321266101223359
 20
7.299178700135279
 30
0.0
 10
0.7412991768518396
 20
7.299178700135279
 30
0.0
 10
0.7504663606196403
 20
7.299178700135279
 30
0.0
 10
0.757878698874535
 20
7.291770399101565
 30
0.0
 10
0.757878698874535
 20
7.282597832372083
 30
0.0
 10
0.757878698874535
 20
7.282597832372083
 30
0.0
 10
0.757878698874535
 20
7.157361882781145
 30
0.0
 10
0.757878698874535
 20
7.157361882781145
 30
0.0
 10
0.757878698874535
 20
7.148190661792078
 30
0.0
 10
0.7504663606196403
 20
7.140782360758372
 30
0.0
 10
0.7412991768518396
 20
7.140782360758372
 30
0.0
  0
SPLINE
  5
31C
330
1F
100
AcDbEntity
  8
Livello 1
370
     0
100
AcDbSpline
210
0.0
220
0.0
230
1.0
 70
     9
 71
     3
 72
    26
 73
    22
 74
     0
 42
0.000000001
 43
0.0000000001
 40
0.0
 40
0.0
 40
0.0
 40
0.0
 40
1.0
 40
1.0
 40
1.0
 40
2.0
 40
2.0
 40
2.0
 40
3.0
 40
3.0
 40
3.0
 40
4.0
 40
4.0
 40
4.0
 40
5.0
 40
5.0
 40
5.0
 40
6.0
 40
6.0
 40
6.0
 40
7.0
 40
7.0
 40
7.0
 40
7.0
 10
0.0165856607976309
 20
6.274888562570573
 30
0.0
 10
0.0165856607976309
 20
6.274888562570573
 30
0.0
 10
0.0162303853257129
 20
6.274888562570573
 30
0.0
 10
0.0162303853257129
 20
6.274888562570573
 30
0.0
 10
0.0070578185962233
 20
6.274888562570573
 30
0.0
 10
0.000000755813133
 20
6.282649447595353
 30
0.0
 10
0.000000755813133
 20
6.291820668584406
 30
0.0
 10
0.000000755813133
 20
6.291820668584406
 30
0.0
 10
0.0024715352315354
 20
6.523596196056708
 30
0.0
 10
0.0024715352315354
 20
6.523596196056708
 30
0.0
 10
0.0028268107034251
 20
6.53276876278619
 30
0.0
 10
0.0088234300324217
 20
6.540529647810963
 30
0.0
 10
0.0194063327261347
 20
6.53982447982883
 30
0.0
 10
0.0285788994556242
 20
6.53982447982883
 30
0.0
 10
0.0359858547489296
 20
6.532416178795116
 30
0.0
 10
0.0359858547489296
 20
6.523243612065641
 30
0.0
 10
0.0359858547489296
 20
6.523243612065641
 30
0.0
 10
0.0331651828204258
 20
6.291468084593333
 30
0.0
 10
0.0331651828204258
 20
6.291468084593333
 30
0.0
 10
0.0331651828204258
 20
6.282296863604287
 30
0.0
 10
0.0257528445654316
 20
6.274888562570573
 30
0.0
 10
0.0165856607976309
 20
6.274888562570573
 30
0.0
  0
SPLINE
  5
31D
330
1F
100
AcDbEntity
  8
Livello 1
370
     0
100
AcDbSpline
210
0.0
220
0.0
230
1.0
 70
     9
 71
     3
 72
    23
 73
    19
 74
     0
 42
0.000000001
 43
0.0000000001
 40
0.0
 40
0.0
 40
0.0
 40
0.0
 40
1.0
 40
1.0
 40
1.0
 40
2.0
 40
2.0
 40
2.0
 40
3.0
 40
3.0
 40
3.0
 40
4.0
 40
4.0
 40
4.0
 40
5.0
 40
5.0
 40
5.0
 40
6.0
 40
6.0
 40
6.0
 40
6.0
 10
0.0193040564539331
 20
6.980903015434293
 30
0.0
 10
0.010131489724543
 20
6.980903015434293
 30
0.0
 10
0.0027191514695346
 20
6.988311316468013
 30
0.0
 10
0.0027191514695346
 20
6.997482537457067
 30
0.0
 10
0.0027191514695346
 20
6.997482537457067
 30
0.0
 10
0.0027191514695346
 20
7.06133522909149
 30
0.0
 10
0.0027191514695346
 20
7.06133522909149
 30
0.0
 10
0.0027191514695346
 20
7.070860379812039
 30
0.0
 10
0.010131489724543
 20
7.078268680845745
 30
0.0
 10
0.0193040564539331
 20
7.078268680845745
 30
0.0
 10
0.0284712402217338
 20
7.078268680845745
 30
0.0
 10
0.035883578476728
 20
7.070860379812039
 30
0.0
 10
0.035883578476728
 20
7.06133522909149
 30
0.0
 10
0.035883578476728
 20
7.06133522909149
 30
0.0
 10
0.035883578476728
 20
6.997482537457067
 30
0.0
 10
0.035883578476728
 20
6.997482537457067
 30
0.0
 10
0.035883578476728
 20
6.988311316468013
 30
0.0
 10
0.0284712402217338
 20
6.980903015434293
 30
0.0
 10
0.0193040564539331
 20
6.980903015434293
 30
0.0
  0
SPLINE
  5
31E
330
1F
100
AcDbEntity
  8
Livello 1
370
     0
100
AcDbSpline
210
0.0
220
0.0
230
1.0
 70
     9
 71
     3
 72
    23
 73
    19
 74
     0
 42
0.000000001
 43
0.0000000001
 40
0.0
 40
0.0
 40
0.0
 40
0.0
 40
1.0
 40
1.0
 40
1.0
 40
2.0
 40
2.0
 40
2.0
 40
3.0
 40
3.0
 40
3.0
 40
4.0
 40
4.0
 40
4.0
 40
5.0
 40
5.0
 40
5.0
 40
6.0
 40
6.0
 40
6.0
 40
6.0
 10
0.0193040564539331
 20
6.506664090042868
 30
0.0
 10
0.010131489724543
 20
6.506664090042868
 30
0.0
 10
0.0027191514695346
 20
6.514072391076588
 30
0.0
 10
0.0027191514695346
 20
6.523243612065641
 30
0.0
 10
0.0027191514695346
 20
6.523243612065641
 30
0.0
 10
0.0027191514695346
 20
6.568752515981543
 30
0.0
 10
0.0027191514695346
 20
6.568752515981543
 30
0.0
 10
0.0027191514695346
 20
6.577925082711018
 30
0.0
 10
0.010131489724543
 20
6.585333383744718
 30
0.0
 10
0.0193040564539331
 20
6.585333383744718
 30
0.0
 10
0.0284712402217338
 20
6.585333383744718
 30
0.0
 10
0.035883578476728
 20
6.577925082711018
 30
0.0
 10
0.035883578476728
 20
6.568752515981543
 30
0.0
 10
0.035883578476728
 20
6.568752515981543
 30
0.0
 10
0.035883578476728
 20
6.523243612065641
 30
0.0
 10
0.035883578476728
 20
6.523243612065641
 30
0.0
 10
0.035883578476728
 20
6.514072391076588
 30
0.0
 10
0.0284712402217338
 20
6.506664090042868
 30
0.0
 10
0.0193040564539331
 20
6.506664090042868
 30
0.0
  0
SPLINE
  5
31F
330
1F
100
AcDbEntity
  8
Livello 1
370
     0
100
AcDbSpline
210
0.0
220
0.0
230
1.0
 70
     9
 71
     3
 72
    26
 73
    22
 74
     0
 42
0.000000001
 43
0.0000000001
 40
0.0
 40
0.0
 40
0.0
 40
0.0
 40
1.0
 40
1.0
 40
1.0
 40
2.0
 40
2.0
 40
2.0
 40
3.0
 40
3.0
 40
3.0
 40
4.0
 40
4.0
 40
4.0
 40
5.0
 40
5.0
 40
5.0
 40
6.0
 40
6.0
 40
6.0
 40
7.0
 40
7.0
 40
7.0
 40
7.0
 10
0.0193040564539331
 20
6.493364137433218
 30
0.0
 10
0.010131489724543
 20
6.493364137433218
 30
0.0
 10
-0.0001015204590828
 20
6.500772438466931
 30
0.0
 10
-0.0001015204590828
 20
6.509943659455977
 30
0.0
 10
-0.0001015204590828
 20
6.509943659455977
 30
0.0
 10
-0.0001015204590828
 20
6.568504899743537
 30
0.0
 10
-0.0001015204590828
 20
6.568504899743537
 30
0.0
 10
-0.0001015204590828
 20
6.577677466473012
 30
0.0
 10
0.0073054348342367
 20
6.585085767506718
 30
0.0
 10
0.0164780015637121
 20
6.585085767506718
 30
0.0
 10
0.02565056829323
 20
6.585085767506718
 30
0.0
 10
0.0334127990584392
 20
6.577677466473012
 30
0.0
 10
0.0334127990584392
 20
6.568504899743537
 30
0.0
 10
0.0334127990584392
 20
6.568504899743537
 30
0.0
 10
0.0334127990584392
 20
6.516294208516491
 30
0.0
 10
0.0334127990584392
 20
6.516294208516491
 30
0.0
 10
0.0341179670405438
 20
6.514177358829655
 30
0.0
 10
0.0344732425124335
 20
6.51206050914282
 30
0.0
 10
0.0344732425124335
 20
6.509943659455977
 30
0.0
 10
0.0344732425124335
 20
6.500772438466931
 30
0.0
 10
0.0284712402217338
 20
6.493364137433218
 30
0.0
 10
0.0193040564539331
 20
6.493364137433218
 30
0.0
  0
SPLINE
  5
320
330
1F
100
AcDbEntity
  8
Livello 1
370
     0
100
AcDbSpline
210
0.0
220
0.0
230
1.0
 70
     9
 71
     3
 72
    23
 73
    19
 74
     0
 42
0.000000001
 43
0.0000000001
 40
0.0
 40
0.0
 40
0.0
 40
0.0
 40
1.0
 40
1.0
 40
1.0
 40
2.0
 40
2.0
 40
2.0
 40
3.0
 40
3.0
 40
3.0
 40
4.0
 40
4.0
 40
4.0
 40
5.0
 40
5.0
 40
5.0
 40
6.0
 40
6.0
 40
6.0
 40
6.0
 10
0.0165856607976309
 20
6.226911570717206
 30
0.0
 10
0.0074130940681272
 20
6.226911570717206
 30
0.0
 10
0.000000755813133
 20
6.234319871750912
 30
0.0
 10
0.000000755813133
 20
6.243491092739965
 30
0.0
 10
0.000000755813133
 20
6.243491092739965
 30
0.0
 10
0.000000755813133
 20
6.509838691702917
 30
0.0
 10
0.000000755813133
 20
6.509838691702917
 30
0.0
 10
0.000000755813133
 20
6.519011258432392
 30
0.0
 10
0.0074130940681272
 20
6.526772143457179
 30
0.0
 10
0.0165856607976309
 20
6.526772143457179
 30
0.0
 10
0.0257528445654316
 20
6.526772143457179
 30
0.0
 10
0.0331651828204258
 20
6.519011258432392
 30
0.0
 10
0.0331651828204258
 20
6.509838691702917
 30
0.0
 10
0.0331651828204258
 20
6.509838691702917
 30
0.0
 10
0.0331651828204258
 20
6.243491092739965
 30
0.0
 10
0.0331651828204258
 20
6.243491092739965
 30
0.0
 10
0.0331651828204258
 20
6.234319871750912
 30
0.0
 10
0.0257528445654316
 20
6.226911570717206
 30
0.0
 10
0.0165856607976309
 20
6.226911570717206
 30
0.0
  0
SPLINE
  5
321
330
1F
100
AcDbEntity
  8
Livello 1
370
     0
100
AcDbSpline
210
0.0
220
0.0
230
1.0
 70
     9
 71
     3
 72
    20
 73
    16
 74
     0
 42
0.000000001
 43
0.0000000001
 40
0.0
 40
0.0
 40
0.0
 40
0.0
 40
1.0
 40
1.0
 40
1.0
 40
2.0
 40
2.0
 40
2.0
 40
3.0
 40
3.0
 40
3.0
 40
4.0
 40
4.0
 40
4.0
 40
5.0
 40
5.0
 40
5.0
 40
5.0
 10
0.0193040564539331
 20
6.551925377720777
 30
0.0
 10
0.0193040564539331
 20
6.551925377720777
 30
0.0
 10
0.0164780015637121
 20
6.551925377720777
 30
0.0
 10
0.0164780015637121
 20
6.551925377720777
 30
0.0
 10
0.0073054348342367
 20
6.551925377720777
 30
0.0
 10
-0.0001015204590828
 20
6.559333678754477
 30
0.0
 10
-0.0001015204590828
 20
6.568504899743537
 30
0.0
 10
-0.0001015204590828
 20
6.577677466473012
 30
0.0
 10
0.0073054348342367
 20
6.585085767506718
 30
0.0
 10
0.0164780015637121
 20
6.585085767506718
 30
0.0
 10
0.02565056829323
 20
6.585085767506718
 30
0.0
 10
0.0344732425124335
 20
6.577677466473012
 30
0.0
 10
0.0344732425124335
 20
6.568504899743537
 30
0.0
 10
0.0344732425124335
 20
6.559333678754477
 30
0.0
 10
0.0284712402217338
 20
6.551925377720777
 30
0.0
 10
0.0193040564539331
 20
6.551925377720777
 30
0.0
  0
SPLINE
  5
322
330
1F
100
AcDbEntity
  8
Livello 1
370
     0
100
AcDbSpline
210
0.0
220
0.0
230
1.0
 70
     9
 71
     3
 72
    23
 73
    19
 74
     0
 42
0.000000001
 43
0.0000000001
 40
0.0
 40
0.0
 40
0.0
 40
0.0
 40
1.0
 40
1.0
 40
1.0
 40
2.0
 40
2.0
 40
2.0
 40
3.0
 40
3.0
 40
3.0
 40
4.0
 40
4.0
 40
4.0
 40
5.0
 40
5.0
 40
5.0
 40
6.0
 40
6.0
 40
6.0
 40
6.0
 10
0.2777454304263216
 20
6.226911570717206
 30
0.0
 10
0.2777454304263216
 20
6.226911570717206
 30
0.0
 10
0.1923716579325258
 20
6.226911570717206
 30
0.0
 10
0.1923716579325258
 20
6.226911570717206
 30
0.0
 10
0.1831990912030363
 20
6.226911570717206
 30
0.0
 10
0.175792135909731
 20
6.234319871750912
 30
0.0
 10
0.175792135909731
 20
6.243491092739965
 30
0.0
 10
0.175792135909731
 20
6.252663659469433
 30
0.0
 10
0.1831990912030363
 20
6.260071960503154
 30
0.0
 10
0.1923716579325258
 20
6.260071960503154
 30
0.0
 10
0.1923716579325258
 20
6.260071960503154
 30
0.0
 10
0.2777454304263216
 20
6.260071960503154
 30
0.0
 10
0.2777454304263216
 20
6.260071960503154
 30
0.0
 10
0.2869126141941223
 20
6.260071960503154
 30
0.0
 10
0.2943249524491307
 20
6.252663659469433
 30
0.0
 10
0.2943249524491307
 20
6.243491092739965
 30
0.0
 10
0.2943249524491307
 20
6.234319871750912
 30
0.0
 10
0.2869126141941223
 20
6.226911570717206
 30
0.0
 10
0.2777454304263216
 20
6.226911570717206
 30
0.0
  0
SPLINE
  5
323
330
1F
100
AcDbEntity
  8
Livello 1
370
     0
100
AcDbSpline
210
0.0
220
0.0
230
1.0
 70
     9
 71
     3
 72
    23
 73
    19
 74
     0
 42
0.000000001
 43
0.0000000001
 40
0.0
 40
0.0
 40
0.0
 40
0.0
 40
1.0
 40
1.0
 40
1.0
 40
2.0
 40
2.0
 40
2.0
 40
3.0
 40
3.0
 40
3.0
 40
4.0
 40
4.0
 40
4.0
 40
5.0
 40
5.0
 40
5.0
 40
6.0
 40
6.0
 40
6.0
 40
6.0
 10
0.2777454304263216
 20
5.949839766315974
 30
0.0
 10
0.2685728636968463
 20
5.949839766315974
 30
0.0
 10
0.2611605254419373
 20
5.957248067349695
 30
0.0
 10
0.2611605254419373
 20
5.966419288338748
 30
0.0
 10
0.2611605254419373
 20
5.966419288338748
 30
0.0
 10
0.2611605254419373
 20
6.243702373986522
 30
0.0
 10
0.2611605254419373
 20
6.243702373986522
 30
0.0
 10
0.2611605254419373
 20
6.252874940716004
 30
0.0
 10
0.2685728636968463
 20
6.260283241749711
 30
0.0
 10
0.2777454304263216
 20
6.260283241749711
 30
0.0
 10
0.2869126141941223
 20
6.260283241749711
 30
0.0
 10
0.2943249524491307
 20
6.252874940716004
 30
0.0
 10
0.2943249524491307
 20
6.243702373986522
 30
0.0
 10
0.2943249524491307
 20
6.243702373986522
 30
0.0
 10
0.2943249524491307
 20
5.966419288338748
 30
0.0
 10
0.2943249524491307
 20
5.966419288338748
 30
0.0
 10
0.2943249524491307
 20
5.957248067349695
 30
0.0
 10
0.2869126141941223
 20
5.949839766315974
 30
0.0
 10
0.2777454304263216
 20
5.949839766315974
 30
0.0
  0
SPLINE
  5
324
330
1F
100
AcDbEntity
  8
Livello 1
370
     0
100
AcDbSpline
210
0.0
220
0.0
230
1.0
 70
     9
 71
     3
 72
    23
 73
    19
 74
     0
 42
0.000000001
 43
0.0000000001
 40
0.0
 40
0.0
 40
0.0
 40
0.0
 40
1.0
 40
1.0
 40
1.0
 40
2.0
 40
2.0
 40
2.0
 40
3.0
 40
3.0
 40
3.0
 40
4.0
 40
4.0
 40
4.0
 40
5.0
 40
5.0
 40
5.0
 40
6.0
 40
6.0
 40
6.0
 40
6.0
 10
0.2777454304263216
 20
5.949839766315974
 30
0.0
 10
0.2777454304263216
 20
5.949839766315974
 30
0.0
 10
0.1923716579325258
 20
5.949839766315974
 30
0.0
 10
0.1923716579325258
 20
5.949839766315974
 30
0.0
 10
0.1831990912030363
 20
5.949839766315974
 30
0.0
 10
0.175792135909731
 20
5.957248067349695
 30
0.0
 10
0.175792135909731
 20
5.966419288338748
 30
0.0
 10
0.175792135909731
 20
5.975591855068216
 30
0.0
 10
0.1831990912030363
 20
5.983000156101944
 30
0.0
 10
0.1923716579325258
 20
5.983000156101944
 30
0.0
 10
0.1923716579325258
 20
5.983000156101944
 30
0.0
 10
0.2777454304263216
 20
5.983000156101944
 30
0.0
 10
0.2777454304263216
 20
5.983000156101944
 30
0.0
 10
0.2869126141941223
 20
5.983000156101944
 30
0.0
 10
0.2943249524491307
 20
5.975591855068216
 30
0.0
 10
0.2943249524491307
 20
5.966419288338748
 30
0.0
 10
0.2943249524491307
 20
5.957248067349695
 30
0.0
 10
0.2869126141941223
 20
5.949839766315974
 30
0.0
 10
0.2777454304263216
 20
5.949839766315974
 30
0.0
  0
SPLINE
  5
325
330
1F
100
AcDbEntity
  8
Livello 1
370
     0
100
AcDbSpline
210
0.0
220
0.0
230
1.0
 70
     9
 71
     3
 72
    20
 73
    16
 74
     0
 42
0.000000001
 43
0.0000000001
 40
0.0
 40
0.0
 40
0.0
 40
0.0
 40
1.0
 40
1.0
 40
1.0
 40
2.0
 40
2.0
 40
2.0
 40
3.0
 40
3.0
 40
3.0
 40
4.0
 40
4.0
 40
4.0
 40
5.0
 40
5.0
 40
5.0
 40
5.0
 10
0.1179037658341429
 20
5.660738388265286
 30
0.0
 10
0.1087311991046249
 20
5.660738388265286
 30
0.0
 10
0.101318860849716
 20
5.666735007594297
 30
0.0
 10
0.101318860849716
 20
5.676260158314846
 30
0.0
 10
0.101318860849716
 20
5.676260158314846
 30
0.0
 10
0.101318860849716
 20
5.678729591992748
 30
0.0
 10
0.101318860849716
 20
5.678729591992748
 30
0.0
 10
0.101318860849716
 20
5.687902158722231
 30
0.0
 10
0.1087311991046249
 20
5.695310459755937
 30
0.0
 10
0.1179037658341429
 20
5.695310459755937
 30
0.0
 10
0.1270709496019293
 20
5.695310459755937
 30
0.0
 10
0.1344832878569235
 20
5.687902158722231
 30
0.0
 10
0.1344832878569235
 20
5.678729591992748
 30
0.0
 10
0.1344832878569235
 20
5.669557025263273
 30
0.0
 10
0.1270709496019293
 20
5.660738388265286
 30
0.0
 10
0.1179037658341429
 20
5.660738388265286
 30
0.0
  0
SPLINE
  5
326
330
1F
100
AcDbEntity
  8
Livello 1
370
     0
100
AcDbSpline
210
0.0
220
0.0
230
1.0
 70
     9
 71
     3
 72
    50
 73
    46
 74
     0
 42
0.000000001
 43
0.0000000001
 40
0.0
 40
0.0
 40
0.0
 40
0.0
 40
1.0
 40
1.0
 40
1.0
 40
2.0
 40
2.0
 40
2.0
 40
3.0
 40
3.0
 40
3.0
 40
4.0
 40
4.0
 40
4.0
 40
5.0
 40
5.0
 40
5.0
 40
6.0
 40
6.0
 40
6.0
 40
7.0
 40
7.0
 40
7.0
 40
8.0
 40
8.0
 40
8.0
 40
9.0
 40
9.0
 40
9.0
 40
10.0
 40
10.0
 40
10.0
 40
11.0
 40
11.0
 40
11.0
 40
12.0
 40
12.0
 40
12.0
 40
13.0
 40
13.0
 40
13.0
 40
14.0
 40
14.0
 40
14.0
 40
15.0
 40
15.0
 40
15.0
 40
15.0
 10
0.1179037658341429
 20
5.662078745727519
 30
0.0
 10
0.1147278184336216
 20
5.662078745727519
 30
0.0
 10
0.111901763543429
 20
5.66278391370966
 30
0.0
 10
0.1090810916149252
 20
5.664548179405421
 30
0.0
 10
0.1090810916149252
 20
5.664548179405421
 30
0.0
 10
0.0663942053679279
 20
5.691358020130863
 30
0.0
 10
0.0663942053679279
 20
5.691358020130863
 30
0.0
 10
0.0646339768934183
 20
5.692417117844499
 30
0.0
 10
0.0632182579675345
 20
5.693474869817706
 30
0.0
 10
0.0621631974751296
 20
5.695239135513467
 30
0.0
 10
0.0621631974751296
 20
5.695239135513467
 30
0.0
 10
0.0328798858505479
 20
5.732280640682034
 30
0.0
 10
0.0328798858505479
 20
5.732280640682034
 30
0.0
 10
0.0328798858505479
 20
5.732280640682034
 30
0.0
 10
0.0095985765166233
 20
5.777789544597922
 30
0.0
 10
0.0095985765166233
 20
5.777789544597922
 30
0.0
 10
0.0088934085344334
 20
5.779552464553269
 30
0.0
 10
0.0081882405523288
 20
5.781669314240104
 30
0.0
 10
0.007832965080425
 20
5.783433579935866
 30
0.0
 10
0.007832965080425
 20
5.783433579935866
 30
0.0
 10
0.002541513733533
 20
5.831411917529671
 30
0.0
 10
0.002541513733533
 20
5.831411917529671
 30
0.0
 10
0.0018363457514425
 20
5.840583138518717
 30
0.0
 10
0.0081882405523288
 20
5.848697953274992
 30
0.0
 10
0.0173608072818325
 20
5.849755705248206
 30
0.0
 10
0.0265333740113363
 20
5.850460873230332
 30
0.0
 10
0.0350007727586359
 20
5.844111669910255
 30
0.0
 10
0.0357059407407121
 20
5.834939103180779
 30
0.0
 10
0.0357059407407121
 20
5.834939103180779
 30
0.0
 10
0.0406421166157287
 20
5.790136712987454
 30
0.0
 10
0.0406421166157287
 20
5.790136712987454
 30
0.0
 10
0.0406421166157287
 20
5.790136712987454
 30
0.0
 10
0.060752861510835
 20
5.750273190149918
 30
0.0
 10
0.060752861510835
 20
5.750273190149918
 30
0.0
 10
0.060752861510835
 20
5.750273190149918
 30
0.0
 10
0.0865049502631337
 20
5.718169206596748
 30
0.0
 10
0.0865049502631337
 20
5.718169206596748
 30
0.0
 10
0.0865049502631337
 20
5.718169206596748
 30
0.0
 10
0.1267210570917285
 20
5.692769701835565
 30
0.0
 10
0.1267210570917285
 20
5.692769701835565
 30
0.0
 10
0.1344832878569235
 20
5.687830834479761
 30
0.0
 10
0.1369486843135377
 20
5.677600515777086
 30
0.0
 10
0.1320125084386206
 20
5.669839630752299
 30
0.0
 10
0.1288365610381277
 20
5.664900763396495
 30
0.0
 10
0.1235451096912214
 20
5.662078745727519
 30
0.0
 10
0.1179037658341429
 20
5.662078745727519
 30
0.0
  0
SPLINE
  5
327
330
1F
100
AcDbEntity
  8
Livello 1
370
     0
100
AcDbSpline
210
0.0
220
0.0
230
1.0
 70
     9
 71
     3
 72
    23
 73
    19
 74
     0
 42
0.000000001
 43
0.0000000001
 40
0.0
 40
0.0
 40
0.0
 40
0.0
 40
1.0
 40
1.0
 40
1.0
 40
2.0
 40
2.0
 40
2.0
 40
3.0
 40
3.0
 40
3.0
 40
4.0
 40
4.0
 40
4.0
 40
5.0
 40
5.0
 40
5.0
 40
6.0
 40
6.0
 40
6.0
 40
6.0
 10
0.1924793171664163
 20
5.949839766315974
 30
0.0
 10
0.1924793171664163
 20
5.949839766315974
 30
0.0
 10
0.0164403208318333
 20
5.949839766315974
 30
0.0
 10
0.0164403208318333
 20
5.949839766315974
 30
0.0
 10
0.0072677541023438
 20
5.949839766315974
 30
0.0
 10
-0.0001392011908763
 20
5.957248067349695
 30
0.0
 10
-0.0001392011908763
 20
5.966419288338748
 30
0.0
 10
-0.0001392011908763
 20
5.975591855068216
 30
0.0
 10
0.0072677541023438
 20
5.983000156101944
 30
0.0
 10
0.0164403208318333
 20
5.983000156101944
 30
0.0
 10
0.0164403208318333
 20
5.983000156101944
 30
0.0
 10
0.1924793171664163
 20
5.983000156101944
 30
0.0
 10
0.1924793171664163
 20
5.983000156101944
 30
0.0
 10
0.201646500934217
 20
5.983000156101944
 30
0.0
 10
0.2090588391892254
 20
5.975591855068216
 30
0.0
 10
0.2090588391892254
 20
5.966419288338748
 30
0.0
 10
0.2090588391892254
 20
5.957248067349695
 30
0.0
 10
0.201646500934217
 20
5.949839766315974
 30
0.0
 10
0.1924793171664163
 20
5.949839766315974
 30
0.0
  0
SPLINE
  5
328
330
1F
100
AcDbEntity
  8
Livello 1
370
     0
100
AcDbSpline
210
0.0
220
0.0
230
1.0
 70
     9
 71
     3
 72
    23
 73
    19
 74
     0
 42
0.000000001
 43
0.0000000001
 40
0.0
 40
0.0
 40
0.0
 40
0.0
 40
1.0
 40
1.0
 40
1.0
 40
2.0
 40
2.0
 40
2.0
 40
3.0
 40
3.0
 40
3.0
 40
4.0
 40
4.0
 40
4.0
 40
5.0
 40
5.0
 40
5.0
 40
6.0
 40
6.0
 40
6.0
 40
6.0
 10
0.0165856607976309
 20
5.816630304713278
 30
0.0
 10
0.0074130940681272
 20
5.816630304713278
 30
0.0
 10
0.000000755813133
 20
5.824038605746977
 30
0.0
 10
0.000000755813133
 20
5.833209826736045
 30
0.0
 10
0.000000755813133
 20
5.833209826736045
 30
0.0
 10
0.000000755813133
 20
5.966560591083258
 30
0.0
 10
0.000000755813133
 20
5.966560591083258
 30
0.0
 10
0.000000755813133
 20
5.975731812072318
 30
0.0
 10
0.0074130940681272
 20
5.983140113106024
 30
0.0
 10
0.0165856607976309
 20
5.983140113106024
 30
0.0
 10
0.0257528445654316
 20
5.983140113106024
 30
0.0
 10
0.0331651828204258
 20
5.975731812072318
 30
0.0
 10
0.0331651828204258
 20
5.966560591083258
 30
0.0
 10
0.0331651828204258
 20
5.966560591083258
 30
0.0
 10
0.0331651828204258
 20
5.833209826736045
 30
0.0
 10
0.0331651828204258
 20
5.833209826736045
 30
0.0
 10
0.0331651828204258
 20
5.824038605746977
 30
0.0
 10
0.0257528445654316
 20
5.816630304713278
 30
0.0
 10
0.0165856607976309
 20
5.816630304713278
 30
0.0
  0
SPLINE
  5
329
330
1F
100
AcDbEntity
  8
Livello 1
370
     0
100
AcDbSpline
210
0.0
220
0.0
230
1.0
 70
     9
 71
     3
 72
    20
 73
    16
 74
     0
 42
0.000000001
 43
0.0000000001
 40
0.0
 40
0.0
 40
0.0
 40
0.0
 40
1.0
 40
1.0
 40
1.0
 40
2.0
 40
2.0
 40
2.0
 40
3.0
 40
3.0
 40
3.0
 40
4.0
 40
4.0
 40
4.0
 40
5.0
 40
5.0
 40
5.0
 40
5.0
 10
0.0193040564539331
 20
5.816630304713278
 30
0.0
 10
0.0193040564539331
 20
5.816630304713278
 30
0.0
 10
0.0164780015637121
 20
5.816630304713278
 30
0.0
 10
0.0164780015637121
 20
5.816630304713278
 30
0.0
 10
0.0073054348342367
 20
5.816630304713278
 30
0.0
 10
-0.0001015204590828
 20
5.824038605746977
 30
0.0
 10
-0.0001015204590828
 20
5.833209826736045
 30
0.0
 10
-0.0001015204590828
 20
5.842382393465513
 30
0.0
 10
0.0073054348342367
 20
5.849790694499226
 30
0.0
 10
0.0164780015637121
 20
5.849790694499226
 30
0.0
 10
0.02565056829323
 20
5.849790694499226
 30
0.0
 10
0.0344732425124335
 20
5.842382393465513
 30
0.0
 10
0.0344732425124335
 20
5.833209826736045
 30
0.0
 10
0.0344732425124335
 20
5.824038605746977
 30
0.0
 10
0.0284712402217338
 20
5.816630304713278
 30
0.0
 10
0.0193040564539331
 20
5.816630304713278
 30
0.0
  0
SPLINE
  5
32A
330
1F
100
AcDbEntity
  8
Livello 1
370
     0
100
AcDbSpline
210
0.0
220
0.0
230
1.0
 70
     9
 71
     3
 72
    23
 73
    19
 74
     0
 42
0.000000001
 43
0.0000000001
 40
0.0
 40
0.0
 40
0.0
 40
0.0
 40
1.0
 40
1.0
 40
1.0
 40
2.0
 40
2.0
 40
2.0
 40
3.0
 40
3.0
 40
3.0
 40
4.0
 40
4.0
 40
4.0
 40
5.0
 40
5.0
 40
5.0
 40
6.0
 40
6.0
 40
6.0
 40
6.0
 10
0.1924793171664163
 20
6.226911570717206
 30
0.0
 10
0.1924793171664163
 20
6.226911570717206
 30
0.0
 10
0.0164403208318333
 20
6.226911570717206
 30
0.0
 10
0.0164403208318333
 20
6.226911570717206
 30
0.0
 10
0.0072677541023438
 20
6.226911570717206
 30
0.0
 10
-0.0001392011908763
 20
6.234319871750912
 30
0.0
 10
-0.0001392011908763
 20
6.243491092739965
 30
0.0
 10
-0.0001392011908763
 20
6.252663659469433
 30
0.0
 10
0.0072677541023438
 20
6.260071960503154
 30
0.0
 10
0.0164403208318333
 20
6.260071960503154
 30
0.0
 10
0.0164403208318333
 20
6.260071960503154
 30
0.0
 10
0.1924793171664163
 20
6.260071960503154
 30
0.0
 10
0.1924793171664163
 20
6.260071960503154
 30
0.0
 10
0.201646500934217
 20
6.260071960503154
 30
0.0
 10
0.2090588391892254
 20
6.252663659469433
 30
0.0
 10
0.2090588391892254
 20
6.243491092739965
 30
0.0
 10
0.2090588391892254
 20
6.234319871750912
 30
0.0
 10
0.201646500934217
 20
6.226911570717206
 30
0.0
 10
0.1924793171664163
 20
6.226911570717206
 30
0.0
  0
SPLINE
  5
32B
330
1F
100
AcDbEntity
  8
Livello 1
370
     0
100
AcDbSpline
210
0.0
220
0.0
230
1.0
 70
     9
 71
     3
 72
    47
 73
    43
 74
     0
 42
0.000000001
 43
0.0000000001
 40
0.0
 40
0.0
 40
0.0
 40
0.0
 40
1.0
 40
1.0
 40
1.0
 40
2.0
 40
2.0
 40
2.0
 40
3.0
 40
3.0
 40
3.0
 40
4.0
 40
4.0
 40
4.0
 40
5.0
 40
5.0
 40
5.0
 40
6.0
 40
6.0
 40
6.0
 40
7.0
 40
7.0
 40
7.0
 40
8.0
 40
8.0
 40
8.0
 40
9.0
 40
9.0
 40
9.0
 40
10.0
 40
10.0
 40
10.0
 40
11.0
 40
11.0
 40
11.0
 40
12.0
 40
12.0
 40
12.0
 40
13.0
 40
13.0
 40
13.0
 40
14.0
 40
14.0
 40
14.0
 40
14.0
 10
0.0193040564539331
 20
7.04486202056222
 30
0.0
 10
0.017888337528035
 20
7.04486202056222
 30
0.0
 10
0.0164780015637121
 20
7.045214604553294
 30
0.0
 10
0.0154229410713356
 20
7.045214604553294
 30
0.0
 10
0.0062503743418318
 20
7.047684038231196
 30
0.0
 10
0.0009589229950251
 20
7.056502675229168
 30
0.0
 10
0.0030744269414242
 20
7.065675241958651
 30
0.0
 10
0.0030744269414242
 20
7.065675241958651
 30
0.0
 10
0.013657329635123
 20
7.108008198474074
 30
0.0
 10
0.013657329635123
 20
7.108008198474074
 30
0.0
 10
0.013657329635123
 20
7.108008198474074
 30
0.0
 10
0.0365887464588326
 20
7.151752836694214
 30
0.0
 10
0.0365887464588326
 20
7.151752836694214
 30
0.0
 10
0.0365887464588326
 20
7.151752836694214
 30
0.0
 10
0.0683374545401421
 20
7.187384005898493
 30
0.0
 10
0.0683374545401421
 20
7.187384005898493
 30
0.0
 10
0.0690426225222183
 20
7.188441757871707
 30
0.0
 10
0.0704529584865412
 20
7.189146925853833
 30
0.0
 10
0.0715134019405355
 20
7.190206023567469
 30
0.0
 10
0.0715134019405355
 20
7.190206023567469
 30
0.0
 10
0.1089088368406266
 20
7.214195192364357
 30
0.0
 10
0.1089088368406266
 20
7.214195192364357
 30
0.0
 10
0.1166656846441185
 20
7.219134059720175
 30
0.0
 10
0.1268986948276307
 20
7.216664626042273
 30
0.0
 10
0.1318348707026331
 20
7.208902395277064
 30
0.0
 10
0.1367764295393385
 20
7.201141510252284
 30
0.0
 10
0.1346609255928399
 20
7.190911191549595
 30
0.0
 10
0.1268986948276307
 20
7.185972324193791
 30
0.0
 10
0.1268986948276307
 20
7.185972324193791
 30
0.0
 10
0.0912688713638232
 20
7.163394837101584
 30
0.0
 10
0.0912688713638232
 20
7.163394837101584
 30
0.0
 10
0.0912688713638232
 20
7.163394837101584
 30
0.0
 10
0.0637511711754257
 20
7.132702535253116
 30
0.0
 10
0.0637511711754257
 20
7.132702535253116
 30
0.0
 10
0.0637511711754257
 20
7.132702535253116
 30
0.0
 10
0.0447008697343421
 20
7.096367543807119
 30
0.0
 10
0.0447008697343421
 20
7.096367543807119
 30
0.0
 10
0.0447008697343421
 20
7.096367543807119
 30
0.0
 10
0.0355283030048383
 20
7.057561772942804
 30
0.0
 10
0.0355283030048383
 20
7.057561772942804
 30
0.0
 10
0.0334127990584392
 20
7.049800887918024
 30
0.0
 10
0.0267110117472242
 20
7.04486202056222
 30
0.0
 10
0.0193040564539331
 20
7.04486202056222
 30
0.0
  0
SPLINE
  5
32C
330
1F
100
AcDbEntity
  8
Livello 1
370
     0
100
AcDbSpline
210
0.0
220
0.0
230
1.0
 70
     9
 71
     3
 72
    23
 73
    19
 74
     0
 42
0.000000001
 43
0.0000000001
 40
0.0
 40
0.0
 40
0.0
 40
0.0
 40
1.0
 40
1.0
 40
1.0
 40
2.0
 40
2.0
 40
2.0
 40
3.0
 40
3.0
 40
3.0
 40
4.0
 40
4.0
 40
4.0
 40
5.0
 40
5.0
 40
5.0
 40
6.0
 40
6.0
 40
6.0
 40
6.0
 10
0.0165856607976309
 20
6.9515874060395
 30
0.0
 10
0.0074130940681272
 20
6.9515874060395
 30
0.0
 10
0.000000755813133
 20
6.958995707073214
 30
0.0
 10
0.000000755813133
 20
6.968166928062281
 30
0.0
 10
0.000000755813133
 20
6.968166928062281
 30
0.0
 10
0.000000755813133
 20
6.994978114528144
 30
0.0
 10
0.000000755813133
 20
6.994978114528144
 30
0.0
 10
0.000000755813133
 20
7.00415068125762
 30
0.0
 10
0.0074130940681272
 20
7.011558982291326
 30
0.0
 10
0.0165856607976309
 20
7.011558982291326
 30
0.0
 10
0.0257528445654316
 20
7.011558982291326
 30
0.0
 10
0.0331651828204258
 20
7.00415068125762
 30
0.0
 10
0.0331651828204258
 20
6.994978114528144
 30
0.0
 10
0.0331651828204258
 20
6.994978114528144
 30
0.0
 10
0.0331651828204258
 20
6.968166928062281
 30
0.0
 10
0.0331651828204258
 20
6.968166928062281
 30
0.0
 10
0.0331651828204258
 20
6.958995707073214
 30
0.0
 10
0.0257528445654316
 20
6.9515874060395
 30
0.0
 10
0.0165856607976309
 20
6.9515874060395
 30
0.0
  0
SPLINE
  5
32D
330
1F
100
AcDbEntity
  8
Livello 1
370
     0
100
AcDbSpline
210
0.0
220
0.0
230
1.0
 70
     9
 71
     3
 72
    20
 73
    16
 74
     0
 42
0.000000001
 43
0.0000000001
 40
0.0
 40
0.0
 40
0.0
 40
0.0
 40
1.0
 40
1.0
 40
1.0
 40
2.0
 40
2.0
 40
2.0
 40
3.0
 40
3.0
 40
3.0
 40
4.0
 40
4.0
 40
4.0
 40
5.0
 40
5.0
 40
5.0
 40
5.0
 10
0.0193040564539331
 20
7.026199292363216
 30
0.0
 10
0.010131489724543
 20
7.026199292363216
 30
0.0
 10
0.0013088155052117
 20
7.033607593396929
 30
0.0
 10
0.0013088155052117
 20
7.042778814385975
 30
0.0
 10
0.0013088155052117
 20
7.051951381115465
 30
0.0
 10
0.0073054348342367
 20
7.059359682149171
 30
0.0
 10
0.0164780015637121
 20
7.059359682149171
 30
0.0
 10
0.0164780015637121
 20
7.059359682149171
 30
0.0
 10
0.0193040564539331
 20
7.059359682149171
 30
0.0
 10
0.0193040564539331
 20
7.059359682149171
 30
0.0
 10
0.0284712402217338
 20
7.059359682149171
 30
0.0
 10
0.035883578476728
 20
7.051951381115465
 30
0.0
 10
0.035883578476728
 20
7.042778814385975
 30
0.0
 10
0.035883578476728
 20
7.033607593396929
 30
0.0
 10
0.0284712402217338
 20
7.026199292363216
 30
0.0
 10
0.0193040564539331
 20
7.026199292363216
 30
0.0
  0
SPLINE
  5
32E
330
1F
100
AcDbEntity
  8
Livello 1
370
     0
100
AcDbSpline
210
0.0
220
0.0
230
1.0
 70
     9
 71
     3
 72
    20
 73
    16
 74
     0
 42
0.000000001
 43
0.0000000001
 40
0.0
 40
0.0
 40
0.0
 40
0.0
 40
1.0
 40
1.0
 40
1.0
 40
2.0
 40
2.0
 40
2.0
 40
3.0
 40
3.0
 40
3.0
 40
4.0
 40
4.0
 40
4.0
 40
5.0
 40
5.0
 40
5.0
 40
5.0
 10
0.0193040564539331
 20
6.9515874060395
 30
0.0
 10
0.010131489724543
 20
6.9515874060395
 30
0.0
 10
0.0013088155052117
 20
6.958995707073214
 30
0.0
 10
0.0013088155052117
 20
6.968166928062281
 30
0.0
 10
0.0013088155052117
 20
6.977339494791749
 30
0.0
 10
0.0073054348342367
 20
6.984747795825455
 30
0.0
 10
0.0164780015637121
 20
6.984747795825455
 30
0.0
 10
0.0164780015637121
 20
6.984747795825455
 30
0.0
 10
0.0193040564539331
 20
6.984747795825455
 30
0.0
 10
0.0193040564539331
 20
6.984747795825455
 30
0.0
 10
0.0284712402217338
 20
6.984747795825455
 30
0.0
 10
0.035883578476728
 20
6.977339494791749
 30
0.0
 10
0.035883578476728
 20
6.968166928062281
 30
0.0
 10
0.035883578476728
 20
6.958995707073214
 30
0.0
 10
0.0284712402217338
 20
6.9515874060395
 30
0.0
 10
0.0193040564539331
 20
6.9515874060395
 30
0.0
  0
SPLINE
  5
32F
330
1F
100
AcDbEntity
  8
Livello 1
370
     0
100
AcDbSpline
210
0.0
220
0.0
230
1.0
 70
     9
 71
     3
 72
    23
 73
    19
 74
     0
 42
0.000000001
 43
0.0000000001
 40
0.0
 40
0.0
 40
0.0
 40
0.0
 40
1.0
 40
1.0
 40
1.0
 40
2.0
 40
2.0
 40
2.0
 40
3.0
 40
3.0
 40
3.0
 40
4.0
 40
4.0
 40
4.0
 40
5.0
 40
5.0
 40
5.0
 40
6.0
 40
6.0
 40
6.0
 40
6.0
 10
0.0165856607976309
 20
6.551925377720777
 30
0.0
 10
0.0074130940681272
 20
6.551925377720777
 30
0.0
 10
0.000000755813133
 20
6.559333678754477
 30
0.0
 10
0.000000755813133
 20
6.568504899743537
 30
0.0
 10
0.000000755813133
 20
6.568504899743537
 30
0.0
 10
0.000000755813133
 20
6.968201917313294
 30
0.0
 10
0.000000755813133
 20
6.968201917313294
 30
0.0
 10
0.000000755813133
 20
6.977374484042776
 30
0.0
 10
0.0074130940681272
 20
6.984782785076468
 30
0.0
 10
0.0165856607976309
 20
6.984782785076468
 30
0.0
 10
0.0257528445654316
 20
6.984782785076468
 30
0.0
 10
0.0331651828204258
 20
6.977374484042776
 30
0.0
 10
0.0331651828204258
 20
6.968201917313294
 30
0.0
 10
0.0331651828204258
 20
6.968201917313294
 30
0.0
 10
0.0331651828204258
 20
6.568504899743537
 30
0.0
 10
0.0331651828204258
 20
6.568504899743537
 30
0.0
 10
0.0331651828204258
 20
6.559333678754477
 30
0.0
 10
0.0257528445654316
 20
6.551925377720777
 30
0.0
 10
0.0165856607976309
 20
6.551925377720777
 30
0.0
  0
SPLINE
  5
330
330
1F
100
AcDbEntity
  8
Livello 1
370
     0
100
AcDbSpline
210
0.0
220
0.0
230
1.0
 70
     9
 71
     3
 72
    26
 73
    22
 74
     0
 42
0.000000001
 43
0.0000000001
 40
0.0
 40
0.0
 40
0.0
 40
0.0
 40
1.0
 40
1.0
 40
1.0
 40
2.0
 40
2.0
 40
2.0
 40
3.0
 40
3.0
 40
3.0
 40
4.0
 40
4.0
 40
4.0
 40
5.0
 40
5.0
 40
5.0
 40
6.0
 40
6.0
 40
6.0
 40
7.0
 40
7.0
 40
7.0
 40
7.0
 10
0.0193040564539331
 20
5.816630304713278
 30
0.0
 10
0.010131489724543
 20
5.816630304713278
 30
0.0
 10
-0.0001015204590828
 20
5.824038605746977
 30
0.0
 10
-0.0001015204590828
 20
5.833209826736045
 30
0.0
 10
-0.0001015204590828
 20
5.833209826736045
 30
0.0
 10
-0.0001015204590828
 20
5.966560591083258
 30
0.0
 10
-0.0001015204590828
 20
5.966560591083258
 30
0.0
 10
-0.0001015204590828
 20
5.975731812072318
 30
0.0
 10
0.0073054348342367
 20
5.983140113106024
 30
0.0
 10
0.0164780015637121
 20
5.983140113106024
 30
0.0
 10
0.02565056829323
 20
5.983140113106024
 30
0.0
 10
0.0334127990584392
 20
5.975731812072318
 30
0.0
 10
0.0334127990584392
 20
5.966560591083258
 30
0.0
 10
0.0334127990584392
 20
5.966560591083258
 30
0.0
 10
0.0334127990584392
 20
5.839560375796537
 30
0.0
 10
0.0334127990584392
 20
5.839560375796537
 30
0.0
 10
0.0341179670405438
 20
5.837443526109709
 30
0.0
 10
0.0344732425124335
 20
5.835326676422866
 30
0.0
 10
0.0344732425124335
 20
5.833209826736045
 30
0.0
 10
0.0344732425124335
 20
5.824038605746977
 30
0.0
 10
0.0284712402217338
 20
5.816630304713278
 30
0.0
 10
0.0193040564539331
 20
5.816630304713278
 30
0.0
  0
SPLINE
  5
331
330
1F
100
AcDbEntity
  8
Livello 1
370
     0
100
AcDbSpline
210
0.0
220
0.0
230
1.0
 70
     9
 71
     3
 72
    20
 73
    16
 74
     0
 42
0.000000001
 43
0.0000000001
 40
0.0
 40
0.0
 40
0.0
 40
0.0
 40
1.0
 40
1.0
 40
1.0
 40
2.0
 40
2.0
 40
2.0
 40
3.0
 40
3.0
 40
3.0
 40
4.0
 40
4.0
 40
4.0
 40
5.0
 40
5.0
 40
5.0
 40
5.0
 10
0.0193040564539331
 20
5.949839766315974
 30
0.0
 10
0.010131489724543
 20
5.949839766315974
 30
0.0
 10
0.0013088155052117
 20
5.957248067349695
 30
0.0
 10
0.0013088155052117
 20
5.966419288338748
 30
0.0
 10
0.0013088155052117
 20
5.975591855068216
 30
0.0
 10
0.0073054348342367
 20
5.983000156101944
 30
0.0
 10
0.0164780015637121
 20
5.983000156101944
 30
0.0
 10
0.0164780015637121
 20
5.983000156101944
 30
0.0
 10
0.0193040564539331
 20
5.983000156101944
 30
0.0
 10
0.0193040564539331
 20
5.983000156101944
 30
0.0
 10
0.0284712402217338
 20
5.983000156101944
 30
0.0
 10
0.035883578476728
 20
5.975591855068216
 30
0.0
 10
0.035883578476728
 20
5.966419288338748
 30
0.0
 10
0.035883578476728
 20
5.957248067349695
 30
0.0
 10
0.0284712402217338
 20
5.949839766315974
 30
0.0
 10
0.0193040564539331
 20
5.949839766315974
 30
0.0
  0
SPLINE
  5
332
330
1F
100
AcDbEntity
  8
Livello 1
370
     0
100
AcDbSpline
210
0.0
220
0.0
230
1.0
 70
     9
 71
     3
 72
    26
 73
    22
 74
     0
 42
0.000000001
 43
0.0000000001
 40
0.0
 40
0.0
 40
0.0
 40
0.0
 40
1.0
 40
1.0
 40
1.0
 40
2.0
 40
2.0
 40
2.0
 40
3.0
 40
3.0
 40
3.0
 40
4.0
 40
4.0
 40
4.0
 40
5.0
 40
5.0
 40
5.0
 40
6.0
 40
6.0
 40
6.0
 40
7.0
 40
7.0
 40
7.0
 40
7.0
 10
0.1391395497237227
 20
5.651459508042314
 30
0.0
 10
0.1370186628156205
 20
5.651459508042314
 30
0.0
 10
0.1352584343411252
 20
5.651812092033388
 30
0.0
 10
0.1331375474330372
 20
5.652517260015535
 30
0.0
 10
0.1331375474330372
 20
5.652517260015535
 30
0.0
 10
0.1119717420455402
 20
5.660630729031367
 30
0.0
 10
0.1119717420455402
 20
5.660630729031367
 30
0.0
 10
0.1035043432981268
 20
5.663806676431839
 30
0.0
 10
0.0989180599334248
 20
5.673330481411966
 30
0.0
 10
0.1024492828058356
 20
5.681797880159294
 30
0.0
 10
0.1056252302062148
 20
5.690616517157288
 30
0.0
 10
0.1155029649178232
 20
5.694850216530966
 30
0.0
 10
0.1236150881933327
 20
5.691675614870923
 30
0.0
 10
0.1236150881933327
 20
5.691675614870923
 30
0.0
 10
0.1451361690527335
 20
5.683562145855077
 30
0.0
 10
0.1451361690527335
 20
5.683562145855077
 30
0.0
 10
0.1535981848383301
 20
5.680386198454598
 30
0.0
 10
0.1578345756928456
 20
5.670861047734064
 30
0.0
 10
0.1546586282924238
 20
5.662394994727144
 30
0.0
 10
0.1521878488740356
 20
5.65569186167557
 30
0.0
 10
0.1458413370348381
 20
5.651459508042314
 30
0.0
 10
0.1391395497237227
 20
5.651459508042314
 30
0.0
  0
SPLINE
  5
333
330
1F
100
AcDbEntity
  8
Livello 1
370
     0
100
AcDbSpline
210
0.0
220
0.0
230
1.0
 70
     9
 71
     3
 72
    26
 73
    22
 74
     0
 42
0.000000001
 43
0.0000000001
 40
0.0
 40
0.0
 40
0.0
 40
0.0
 40
1.0
 40
1.0
 40
1.0
 40
2.0
 40
2.0
 40
2.0
 40
3.0
 40
3.0
 40
3.0
 40
4.0
 40
4.0
 40
4.0
 40
5.0
 40
5.0
 40
5.0
 40
6.0
 40
6.0
 40
6.0
 40
7.0
 40
7.0
 40
7.0
 40
7.0
 10
0.1179037658341429
 20
7.183397922762836
 30
0.0
 10
0.1111965955613243
 20
7.183397922762836
 30
0.0
 10
0.1048500837220416
 20
7.187630276396077
 30
0.0
 10
0.1023793043037244
 20
7.194333409447644
 30
0.0
 10
0.0992033569032316
 20
7.202799462454571
 30
0.0
 10
0.1034397477578324
 20
7.212324613175105
 30
0.0
 10
0.111901763543429
 20
7.215500560575584
 30
0.0
 10
0.111901763543429
 20
7.215500560575584
 30
0.0
 10
0.1334228444028298
 20
7.223614029591416
 30
0.0
 10
0.1334228444028298
 20
7.223614029591416
 30
0.0
 10
0.1418902431502289
 20
7.226788631251459
 30
0.0
 10
0.1514127023899192
 20
7.222554931877787
 30
0.0
 10
0.154588649790341
 20
7.213736294879808
 30
0.0
 10
0.1581198726627377
 20
7.205268896132459
 30
0.0
 10
0.1535335892980356
 20
7.195745091152353
 30
0.0
 10
0.1450661905506365
 20
7.192569143751882
 30
0.0
 10
0.1450661905506365
 20
7.192569143751882
 30
0.0
 10
0.1239003851631395
 20
7.184455674736035
 30
0.0
 10
0.1239003851631395
 20
7.184455674736035
 30
0.0
 10
0.1217794982550373
 20
7.183750506753895
 30
0.0
 10
0.120019269780542
 20
7.183397922762836
 30
0.0
 10
0.1179037658341429
 20
7.183397922762836
 30
0.0
  0
SPLINE
  5
334
330
1F
100
AcDbEntity
  8
Livello 1
370
     0
100
AcDbSpline
210
0.0
220
0.0
230
1.0
 70
     9
 71
     3
 72
    53
 73
    49
 74
     0
 42
0.000000001
 43
0.0000000001
 40
0.0
 40
0.0
 40
0.0
 40
0.0
 40
1.0
 40
1.0
 40
1.0
 40
2.0
 40
2.0
 40
2.0
 40
3.0
 40
3.0
 40
3.0
 40
4.0
 40
4.0
 40
4.0
 40
5.0
 40
5.0
 40
5.0
 40
6.0
 40
6.0
 40
6.0
 40
7.0
 40
7.0
 40
7.0
 40
8.0
 40
8.0
 40
8.0
 40
9.0
 40
9.0
 40
9.0
 40
10.0
 40
10.0
 40
10.0
 40
11.0
 40
11.0
 40
11.0
 40
12.0
 40
12.0
 40
12.0
 40
13.0
 40
13.0
 40
13.0
 40
14.0
 40
14.0
 40
14.0
 40
15.0
 40
15.0
 40
15.0
 40
16.0
 40
16.0
 40
16.0
 40
16.0
 10
0.7412991768518396
 20
5.608808956786837
 30
0.0
 10
0.7412991768518396
 20
5.608808956786837
 30
0.0
 10
0.3789935569608218
 20
5.608808956786837
 30
0.0
 10
0.3789935569608218
 20
5.608808956786837
 30
0.0
 10
0.3761728850322328
 20
5.608808956786837
 30
0.0
 10
0.371231326195641
 20
5.609514124768971
 30
0.0
 10
0.368760546777338
 20
5.610571876742184
 30
0.0
 10
0.368760546777338
 20
5.610571876742184
 30
0.0
 10
0.365589982338534
 20
5.611630974455827
 30
0.0
 10
0.365589982338534
 20
5.611630974455827
 30
0.0
 10
0.365589982338534
 20
5.611630974455827
 30
0.0
 10
0.3423032900429348
 20
5.614100408133715
 30
0.0
 10
0.3423032900429348
 20
5.614100408133715
 30
0.0
 10
0.3423032900429348
 20
5.614100408133715
 30
0.0
 10
0.2452915543629217
 20
5.633149363834391
 30
0.0
 10
0.2452915543629217
 20
5.633149363834391
 30
0.0
 10
0.2452915543629217
 20
5.633149363834391
 30
0.0
 10
0.1606229498512306
 20
5.646203045946464
 30
0.0
 10
0.1606229498512306
 20
5.646203045946464
 30
0.0
 10
0.1514503831217127
 20
5.647613381910744
 30
0.0
 10
0.145453763792716
 20
5.656080780658086
 30
0.0
 10
0.146864099757039
 20
5.665253347387562
 30
0.0
 10
0.1482744357213335
 20
5.674424568376608
 30
0.0
 10
0.1563919419584323
 20
5.681127701428188
 30
0.0
 10
0.165564508687936
 20
5.679010851741352
 30
0.0
 10
0.165564508687936
 20
5.679010851741352
 30
0.0
 10
0.2509328982200429
 20
5.665958515369702
 30
0.0
 10
0.2509328982200429
 20
5.665958515369702
 30
0.0
 10
0.2509328982200429
 20
5.665958515369702
 30
0.0
 10
0.3677054862849189
 20
5.644791364241775
 30
0.0
 10
0.3677054862849189
 20
5.644791364241775
 30
0.0
 10
0.3677054862849189
 20
5.644791364241775
 30
0.0
 10
0.3708814336854402
 20
5.644791364241775
 30
0.0
 10
0.3708814336854402
 20
5.644791364241775
 30
0.0
 10
0.3737021056139298
 20
5.644791364241775
 30
0.0
 10
0.3761728850322328
 20
5.644086196259635
 30
0.0
 10
0.3782883889787314
 20
5.643027098546014
 30
0.0
 10
0.3782883889787314
 20
5.643027098546014
 30
0.0
 10
0.3800540004148303
 20
5.6419693465728
 30
0.0
 10
0.3800540004148303
 20
5.6419693465728
 30
0.0
 10
0.3800540004148303
 20
5.6419693465728
 30
0.0
 10
0.7412991768518396
 20
5.6419693465728
 30
0.0
 10
0.7412991768518396
 20
5.6419693465728
 30
0.0
 10
0.7504663606196403
 20
5.6419693465728
 30
0.0
 10
0.757878698874535
 20
5.634561045539086
 30
0.0
 10
0.757878698874535
 20
5.625388478809604
 30
0.0
 10
0.757878698874535
 20
5.616217257820558
 30
0.0
 10
0.7504663606196403
 20
5.608808956786837
 30
0.0
 10
0.7412991768518396
 20
5.608808956786837
 30
0.0
  0
SPLINE
  5
335
330
1F
100
AcDbEntity
  8
Livello 1
370
     0
100
AcDbSpline
210
0.0
220
0.0
230
1.0
 70
     9
 71
     3
 72
    26
 73
    22
 74
     0
 42
0.000000001
 43
0.0000000001
 40
0.0
 40
0.0
 40
0.0
 40
0.0
 40
1.0
 40
1.0
 40
1.0
 40
2.0
 40
2.0
 40
2.0
 40
3.0
 40
3.0
 40
3.0
 40
4.0
 40
4.0
 40
4.0
 40
5.0
 40
5.0
 40
5.0
 40
6.0
 40
6.0
 40
6.0
 40
7.0
 40
7.0
 40
7.0
 40
7.0
 10
0.1631637077716306
 20
5.646098078193396
 30
0.0
 10
0.1621032643175226
 20
5.646098078193396
 30
0.0
 10
0.1606929283533276
 20
5.646098078193396
 30
0.0
 10
0.1596324848992339
 20
5.64645066218447
 30
0.0
 10
0.1596324848992339
 20
5.64645066218447
 30
0.0
 10
0.1356460075832189
 20
5.651742113531355
 30
0.0
 10
0.1356460075832189
 20
5.651742113531355
 30
0.0
 10
0.1264734408537294
 20
5.653858963218183
 30
0.0
 10
0.1208267140349193
 20
5.66267760021617
 30
0.0
 10
0.1229422179813326
 20
5.671497582954579
 30
0.0
 10
0.1250631048894348
 20
5.680670149684047
 30
0.0
 10
0.1338803961470347
 20
5.685961601030932
 30
0.0
 10
0.1426976874045351
 20
5.684197335335163
 30
0.0
 10
0.1426976874045351
 20
5.684197335335163
 30
0.0
 10
0.1666895476823385
 20
5.678905883988285
 30
0.0
 10
0.1666895476823385
 20
5.678905883988285
 30
0.0
 10
0.175862114411828
 20
5.677141618292523
 30
0.0
 10
0.1815034582688355
 20
5.667969051563048
 30
0.0
 10
0.1793879543224364
 20
5.659150414565061
 30
0.0
 10
0.1776223428863375
 20
5.651389529540281
 30
0.0
 10
0.1709205555751225
 20
5.646098078193396
 30
0.0
 10
0.1631637077716306
 20
5.646098078193396
 30
0.0
  0
SPLINE
  5
336
330
1F
100
AcDbEntity
  8
Livello 1
370
     0
100
AcDbSpline
210
0.0
220
0.0
230
1.0
 70
     9
 71
     3
 72
    23
 73
    19
 74
     0
 42
0.000000001
 43
0.0000000001
 40
0.0
 40
0.0
 40
0.0
 40
0.0
 40
1.0
 40
1.0
 40
1.0
 40
2.0
 40
2.0
 40
2.0
 40
3.0
 40
3.0
 40
3.0
 40
4.0
 40
4.0
 40
4.0
 40
5.0
 40
5.0
 40
5.0
 40
6.0
 40
6.0
 40
6.0
 40
6.0
 10
0.7412991768518396
 20
7.236702700954523
 30
0.0
 10
0.7412991768518396
 20
7.236702700954523
 30
0.0
 10
0.3789935569608218
 20
7.236702700954523
 30
0.0
 10
0.3789935569608218
 20
7.236702700954523
 30
0.0
 10
0.3698209902313465
 20
7.236702700954523
 30
0.0
 10
0.3624140349380269
 20
7.244111001988244
 30
0.0
 10
0.3624140349380269
 20
7.25328222297729
 30
0.0
 10
0.3624140349380269
 20
7.262454789706758
 30
0.0
 10
0.3698209902313465
 20
7.269863090740479
 30
0.0
 10
0.3789935569608218
 20
7.269863090740479
 30
0.0
 10
0.3789935569608218
 20
7.269863090740479
 30
0.0
 10
0.7412991768518396
 20
7.269863090740479
 30
0.0
 10
0.7412991768518396
 20
7.269863090740479
 30
0.0
 10
0.7504663606196403
 20
7.269863090740479
 30
0.0
 10
0.757878698874535
 20
7.262454789706758
 30
0.0
 10
0.757878698874535
 20
7.25328222297729
 30
0.0
 10
0.757878698874535
 20
7.244111001988244
 30
0.0
 10
0.7504663606196403
 20
7.236702700954523
 30
0.0
 10
0.7412991768518396
 20
7.236702700954523
 30
0.0
  0
SPLINE
  5
337
330
1F
100
AcDbEntity
  8
Livello 1
370
     0
100
AcDbSpline
210
0.0
220
0.0
230
1.0
 70
     9
 71
     3
 72
    41
 73
    37
 74
     0
 42
0.000000001
 43
0.0000000001
 40
0.0
 40
0.0
 40
0.0
 40
0.0
 40
1.0
 40
1.0
 40
1.0
 40
2.0
 40
2.0
 40
2.0
 40
3.0
 40
3.0
 40
3.0
 40
4.0
 40
4.0
 40
4.0
 40
5.0
 40
5.0
 40
5.0
 40
6.0
 40
6.0
 40
6.0
 40
7.0
 40
7.0
 40
7.0
 40
8.0
 40
8.0
 40
8.0
 40
9.0
 40
9.0
 40
9.0
 40
10.0
 40
10.0
 40
10.0
 40
11.0
 40
11.0
 40
11.0
 40
12.0
 40
12.0
 40
12.0
 40
12.0
 10
0.1631637077716306
 20
7.196732864623498
 30
0.0
 10
0.1554014770064356
 20
7.196732864623498
 30
0.0
 10
0.1486996896952206
 20
7.202024315970383
 30
0.0
 10
0.1469340782590223
 20
7.209785200995163
 30
0.0
 10
0.1448185743126231
 20
7.21860383799315
 30
0.0
 10
0.1504599181697301
 20
7.227776404722618
 30
0.0
 10
0.1596324848992339
 20
7.229540670418387
 30
0.0
 10
0.1596324848992339
 20
7.229540670418387
 30
0.0
 10
0.207610822493038
 20
7.240123573112143
 30
0.0
 10
0.207610822493038
 20
7.240123573112143
 30
0.0
 10
0.2323078507529175
 20
7.243652104503674
 30
0.0
 10
0.2555891600868421
 20
7.247884458136923
 30
0.0
 10
0.278870469420724
 20
7.25247074150166
 30
0.0
 10
0.3092088415377248
 20
7.257762192848538
 30
0.0
 10
0.3406076571087198
 20
7.263760157917978
 30
0.0
 10
0.3720064726798427
 20
7.266934759578013
 30
0.0
 10
0.3780030920088393
 20
7.269051609264849
 30
0.0
 10
0.3847048793199263
 20
7.268346441282716
 30
0.0
 10
0.389291162684728
 20
7.263760157917978
 30
0.0
 10
0.3959929499958434
 20
7.257409608857471
 30
0.0
 10
0.3970533934499372
 20
7.248238387868426
 30
0.0
 10
0.390701498648923
 20
7.241535254816838
 30
0.0
 10
0.3878808267204334
 20
7.238713237147869
 30
0.0
 10
0.3818842073914368
 20
7.234479537774198
 30
0.0
 10
0.3780030920088393
 20
7.234126953783132
 30
0.0
 10
0.3469595519097339
 20
7.230951006382674
 30
0.0
 10
0.3152108438284245
 20
7.225306971044723
 30
0.0
 10
0.2848670887497349
 20
7.219662935706779
 30
0.0
 10
0.2608806114337341
 20
7.215076652342041
 30
0.0
 10
0.2372440266278204
 20
7.21084295296837
 30
0.0
 10
0.2132575493118196
 20
7.207668351308328
 30
0.0
 10
0.2132575493118196
 20
7.207668351308328
 30
0.0
 10
0.1666895476823385
 20
7.197085448614572
 30
0.0
 10
0.1666895476823385
 20
7.197085448614572
 30
0.0
 10
0.1656291042282305
 20
7.196732864623498
 30
0.0
 10
0.164218768263936
 20
7.196732864623498
 30
0.0
 10
0.1631637077716306
 20
7.196732864623498
 30
0.0
  0
SPLINE
  5
338
330
1F
100
AcDbEntity
  8
Livello 1
370
     0
100
AcDbSpline
210
0.0
220
0.0
230
1.0
 70
     9
 71
     3
 72
    26
 73
    22
 74
     0
 42
0.000000001
 43
0.0000000001
 40
0.0
 40
0.0
 40
0.0
 40
0.0
 40
1.0
 40
1.0
 40
1.0
 40
2.0
 40
2.0
 40
2.0
 40
3.0
 40
3.0
 40
3.0
 40
4.0
 40
4.0
 40
4.0
 40
5.0
 40
5.0
 40
5.0
 40
6.0
 40
6.0
 40
6.0
 40
7.0
 40
7.0
 40
7.0
 40
7.0
 10
0.1391395497237227
 20
7.191370089034158
 30
0.0
 10
0.1313773189585277
 20
7.191370089034158
 30
0.0
 10
0.1246755316473411
 20
7.196661540381043
 30
0.0
 10
0.1229099202111286
 20
7.204422425405816
 30
0.0
 10
0.1207944162647294
 20
7.213241062403795
 30
0.0
 10
0.1264357601218364
 20
7.222413629133285
 30
0.0
 10
0.1356083268513259
 20
7.224177894829047
 30
0.0
 10
0.1356083268513259
 20
7.224177894829047
 30
0.0
 10
0.159600187129044
 20
7.229469346175918
 30
0.0
 10
0.159600187129044
 20
7.229469346175918
 30
0.0
 10
0.1687727538585477
 20
7.23158619586276
 30
0.0
 10
0.1775900451161334
 20
7.225942160524816
 30
0.0
 10
0.1793556565523318
 20
7.217122177786407
 30
0.0
 10
0.1814711604987309
 20
7.207949611056918
 30
0.0
 10
0.1758244336799208
 20
7.199130974058938
 30
0.0
 10
0.1666518669504313
 20
7.19701412437211
 30
0.0
 10
0.1666518669504313
 20
7.19701412437211
 30
0.0
 10
0.1426653896344305
 20
7.191722673025225
 30
0.0
 10
0.1426653896344305
 20
7.191722673025225
 30
0.0
 10
0.1416049461803368
 20
7.191370089034158
 30
0.0
 10
0.1401946102160423
 20
7.191370089034158
 30
0.0
 10
0.1391395497237227
 20
7.191370089034158
 30
0.0
  0
SPLINE
  5
339
330
1F
100
AcDbEntity
  8
Livello 1
370
     0
100
AcDbSpline
210
0.0
220
0.0
230
1.0
 70
     9
 71
     3
 72
   272
 73
   268
 74
     0
 42
0.000000001
 43
0.0000000001
 40
0.0
 40
0.0
 40
0.0
 40
0.0
 40
1.0
 40
1.0
 40
1.0
 40
2.0
 40
2.0
 40
2.0
 40
3.0
 40
3.0
 40
3.0
 40
4.0
 40
4.0
 40
4.0
 40
5.0
 40
5.0
 40
5.0
 40
6.0
 40
6.0
 40
6.0
 40
7.0
 40
7.0
 40
7.0
 40
8.0
 40
8.0
 40
8.0
 40
9.0
 40
9.0
 40
9.0
 40
10.0
 40
10.0
 40
10.0
 40
11.0
 40
11.0
 40
11.0
 40
12.0
 40
12.0
 40
12.0
 40
13.0
 40
13.0
 40
13.0
 40
14.0
 40
14.0
 40
14.0
 40
15.0
 40
15.0
 40
15.0
 40
16.0
 40
16.0
 40
16.0
 40
17.0
 40
17.0
 40
17.0
 40
18.0
 40
18.0
 40
18.0
 40
19.0
 40
19.0
 40
19.0
 40
20.0
 40
20.0
 40
20.0
 40
21.0
 40
21.0
 40
21.0
 40
22.0
 40
22.0
 40
22.0
 40
23.0
 40
23.0
 40
23.0
 40
24.0
 40
24.0
 40
24.0
 40
25.0
 40
25.0
 40
25.0
 40
26.0
 40
26.0
 40
26.0
 40
27.0
 40
27.0
 40
27.0
 40
28.0
 40
28.0
 40
28.0
 40
29.0
 40
29.0
 40
29.0
 40
30.0
 40
30.0
 40
30.0
 40
31.0
 40
31.0
 40
31.0
 40
32.0
 40
32.0
 40
32.0
 40
33.0
 40
33.0
 40
33.0
 40
34.0
 40
34.0
 40
34.0
 40
35.0
 40
35.0
 40
35.0
 40
36.0
 40
36.0
 40
36.0
 40
37.0
 40
37.0
 40
37.0
 40
38.0
 40
38.0
 40
38.0
 40
39.0
 40
39.0
 40
39.0
 40
40.0
 40
40.0
 40
40.0
 40
41.0
 40
41.0
 40
41.0
 40
42.0
 40
42.0
 40
42.0
 40
43.0
 40
43.0
 40
43.0
 40
44.0
 40
44.0
 40
44.0
 40
45.0
 40
45.0
 40
45.0
 40
46.0
 40
46.0
 40
46.0
 40
47.0
 40
47.0
 40
47.0
 40
48.0
 40
48.0
 40
48.0
 40
49.0
 40
49.0
 40
49.0
 40
50.0
 40
50.0
 40
50.0
 40
51.0
 40
51.0
 40
51.0
 40
52.0
 40
52.0
 40
52.0
 40
53.0
 40
53.0
 40
53.0
 40
54.0
 40
54.0
 40
54.0
 40
55.0
 40
55.0
 40
55.0
 40
56.0
 40
56.0
 40
56.0
 40
57.0
 40
57.0
 40
57.0
 40
58.0
 40
58.0
 40
58.0
 40
59.0
 40
59.0
 40
59.0
 40
60.0
 40
60.0
 40
60.0
 40
61.0
 40
61.0
 40
61.0
 40
62.0
 40
62.0
 40
62.0
 40
63.0
 40
63.0
 40
63.0
 40
64.0
 40
64.0
 40
64.0
 40
65.0
 40
65.0
 40
65.0
 40
66.0
 40
66.0
 40
66.0
 40
67.0
 40
67.0
 40
67.0
 40
68.0
 40
68.0
 40
68.0
 40
69.0
 40
69.0
 40
69.0
 40
70.0
 40
70.0
 40
70.0
 40
71.0
 40
71.0
 40
71.0
 40
72.0
 40
72.0
 40
72.0
 40
73.0
 40
73.0
 40
73.0
 40
74.0
 40
74.0
 40
74.0
 40
75.0
 40
75.0
 40
75.0
 40
76.0
 40
76.0
 40
76.0
 40
77.0
 40
77.0
 40
77.0
 40
78.0
 40
78.0
 40
78.0
 40
79.0
 40
79.0
 40
79.0
 40
80.0
 40
80.0
 40
80.0
 40
81.0
 40
81.0
 40
81.0
 40
82.0
 40
82.0
 40
82.0
 40
83.0
 40
83.0
 40
83.0
 40
84.0
 40
84.0
 40
84.0
 40
85.0
 40
85.0
 40
85.0
 40
86.0
 40
86.0
 40
86.0
 40
87.0
 40
87.0
 40
87.0
 40
88.0
 40
88.0
 40
88.0
 40
89.0
 40
89.0
 40
89.0
 40
89.0
 10
1.69309293203922
 20
5.334277910305999
 30
0.0
 10
1.676158134544536
 20
5.334277910305999
 30
0.0
 10
1.656402665121319
 20
5.337452511966041
 30
0.0
 10
1.638762699644431
 20
5.340627113626084
 30
0.0
 10
1.638762699644431
 20
5.340627113626084
 30
0.0
 10
1.626064293004333
 20
5.342743963312905
 30
0.0
 10
1.626064293004333
 20
5.342743963312905
 30
0.0
 10
1.626064293004333
 20
5.342743963312905
 30
0.0
 10
1.623238238114026
 20
5.342391379321831
 30
0.0
 10
1.623238238114026
 20
5.342391379321831
 30
0.0
 10
1.620417566185523
 20
5.342391379321831
 30
0.0
 10
1.617946786767234
 20
5.343096547303971
 30
0.0
 10
1.615831282820721
 20
5.344155645017607
 30
0.0
 10
1.615831282820721
 20
5.344155645017607
 30
0.0
 10
1.612655335420342
 20
5.344860812999755
 30
0.0
 10
1.612655335420342
 20
5.344860812999755
 30
0.0
 10
1.609834663491724
 20
5.344860812999755
 30
0.0
 10
1.607363884073421
 20
5.345565980981895
 30
0.0
 10
1.604898487616836
 20
5.346625078695531
 30
0.0
 10
1.604898487616836
 20
5.346625078695531
 30
0.0
 10
1.601722540216329
 20
5.347682830668716
 30
0.0
 10
1.601722540216329
 20
5.347682830668716
 30
0.0
 10
1.599251760798026
 20
5.347682830668716
 30
0.0
 10
1.596780981379723
 20
5.348387998650856
 30
0.0
 10
1.59431020196132
 20
5.349447096364492
 30
0.0
 10
1.59431020196132
 20
5.349447096364492
 30
0.0
 10
1.591139637522644
 20
5.350504848337692
 30
0.0
 10
1.591139637522644
 20
5.350504848337692
 30
0.0
 10
1.588668858104227
 20
5.350504848337692
 30
0.0
 10
1.586198078685924
 20
5.350857432328758
 30
0.0
 10
1.583727299267636
 20
5.351916530042394
 30
0.0
 10
1.583727299267636
 20
5.351916530042394
 30
0.0
 10
1.580556734828832
 20
5.352974282015601
 30
0.0
 10
1.580556734828832
 20
5.352974282015601
 30
0.0
 10
1.578085955410529
 20
5.352974282015601
 30
0.0
 10
1.575615175992226
 20
5.353679449997734
 30
0.0
 10
1.573144396573823
 20
5.354738547711363
 30
0.0
 10
1.573144396573823
 20
5.354738547711363
 30
0.0
 10
1.567852945226931
 20
5.357560565380339
 30
0.0
 10
1.567852945226931
 20
5.357560565380339
 30
0.0
 10
1.567147777244827
 20
5.357560565380339
 30
0.0
 10
1.566442609262736
 20
5.357913149371398
 30
0.0
 10
1.566092716752436
 20
5.358265733362465
 30
0.0
 10
1.563971829844334
 20
5.358618317353538
 30
0.0
 10
1.56185632589792
 20
5.359324831076101
 30
0.0
 10
1.559740821951535
 20
5.360029999058248
 30
0.0
 10
1.559740821951535
 20
5.360029999058248
 30
0.0
 10
1.551273423204236
 20
5.36355718470935
 30
0.0
 10
1.551273423204236
 20
5.36355718470935
 30
0.0
 10
1.548802643785933
 20
5.36355718470935
 30
0.0
 10
1.546337247329233
 20
5.364263698431905
 30
0.0
 10
1.54386646791093
 20
5.365321450405126
 30
0.0
 10
1.54386646791093
 20
5.365321450405126
 30
0.0
 10
1.532928289745228
 20
5.370965485743063
 30
0.0
 10
1.532928289745228
 20
5.370965485743063
 30
0.0
 10
1.531517953781033
 20
5.371671999465618
 30
0.0
 10
1.530107617816739
 20
5.372729751438818
 30
0.0
 10
1.52869728185243
 20
5.373788849152461
 30
0.0
 10
1.52869728185243
 20
5.373788849152461
 30
0.0
 10
1.52834200638054
 20
5.374141433143535
 30
0.0
 10
1.52834200638054
 20
5.374141433143535
 30
0.0
 10
1.518819547140822
 20
5.374846601125661
 30
0.0
 10
1.511762484357717
 20
5.380138052472538
 30
0.0
 10
1.506820925521125
 20
5.383313999873003
 30
0.0
 10
1.505410589556831
 20
5.384371751846209
 30
0.0
 10
1.503295085610432
 20
5.385783433550905
 30
0.0
 10
1.502240025118041
 20
5.386136017541986
 30
0.0
 10
1.502240025118041
 20
5.386136017541986
 30
0.0
 10
1.49059667897022
 20
5.392132636870996
 30
0.0
 10
1.49059667897022
 20
5.392132636870996
 30
0.0
 10
1.48883106753405
 20
5.392837804853137
 30
0.0
 10
1.487420731569841
 20
5.393896902566758
 30
0.0
 10
1.486360288115733
 20
5.394954654539958
 30
0.0
 10
1.486360288115733
 20
5.394954654539958
 30
0.0
 10
1.471896270039323
 20
5.402715539564745
 30
0.0
 10
1.471896270039323
 20
5.402715539564745
 30
0.0
 10
1.470136041564913
 20
5.4034220532873
 30
0.0
 10
1.468725705600618
 20
5.404479805260507
 30
0.0
 10
1.467309986674635
 20
5.405891486965202
 30
0.0
 10
1.467309986674635
 20
5.405891486965202
 30
0.0
 10
1.458492695417035
 20
5.410830354321007
 30
0.0
 10
1.458492695417035
 20
5.410830354321007
 30
0.0
 10
1.455316748016628
 20
5.412593274276353
 30
0.0
 10
1.452845968598325
 20
5.415062707954255
 30
0.0
 10
1.451085740123843
 20
5.418238655354727
 30
0.0
 10
1.451085740123843
 20
5.418238655354727
 30
0.0
 10
1.450380572141625
 20
5.41894382333686
 30
0.0
 10
1.450380572141625
 20
5.41894382333686
 30
0.0
 10
1.44897023617743
 20
5.419648991319
 30
0.0
 10
1.447554517251433
 20
5.420708089032629
 30
0.0
 10
1.446499456759028
 20
5.421765841005829
 30
0.0
 10
1.446499456759028
 20
5.421765841005829
 30
0.0
 10
1.43697161455762
 20
5.426704708361647
 30
0.0
 10
1.43697161455762
 20
5.426704708361647
 30
0.0
 10
1.434150942629131
 20
5.428468974057409
 30
0.0
 10
1.431330270700527
 20
5.430938407735311
 30
0.0
 10
1.429919934736332
 20
5.434113009395353
 30
0.0
 10
1.429919934736332
 20
5.434113009395353
 30
0.0
 10
1.429214766754128
 20
5.43446559338642
 30
0.0
 10
1.429214766754128
 20
5.43446559338642
 30
0.0
 10
1.427799047828216
 20
5.435524691100049
 30
0.0
 10
1.426038819353735
 20
5.436582443073255
 30
0.0
 10
1.424978375899641
 20
5.437641540786884
 30
0.0
 10
1.424978375899641
 20
5.437641540786884
 30
0.0
 10
1.421097260517043
 20
5.440110974464786
 30
0.0
 10
1.421097260517043
 20
5.440110974464786
 30
0.0
 10
1.417921313116522
 20
5.44187389442014
 30
0.0
 10
1.415455916659922
 20
5.444343328098028
 30
0.0
 10
1.413690305223724
 20
5.4475192754985
 30
0.0
 10
1.413690305223724
 20
5.4475192754985
 30
0.0
 10
1.413335029751834
 20
5.448224443480647
 30
0.0
 10
1.413335029751834
 20
5.448224443480647
 30
0.0
 10
1.411574801277325
 20
5.448929611462773
 30
0.0
 10
1.41016446531303
 20
5.449988709176402
 30
0.0
 10
1.409104021859036
 20
5.451046461149609
 30
0.0
 10
1.409104021859036
 20
5.451046461149609
 30
0.0
 10
1.40099189858364
 20
5.459159930165455
 30
0.0
 10
1.40099189858364
 20
5.459159930165455
 30
0.0
 10
1.399581562619346
 20
5.460219027879077
 30
0.0
 10
1.396050339746935
 20
5.464452727252755
 30
0.0
 10
1.39534517176483
 20
5.466215647208102
 30
0.0
 10
1.39534517176483
 20
5.466215647208102
 30
0.0
 10
1.393579560328632
 20
5.469039010617493
 30
0.0
 10
1.393579560328632
 20
5.469039010617493
 30
0.0
 10
1.393579560328632
 20
5.469039010617493
 30
0.0
 10
1.339254710895531
 20
5.526188569200357
 30
0.0
 10
1.339254710895531
 20
5.526188569200357
 30
0.0
 10
1.33290281609463
 20
5.532537772520427
 30
0.0
 10
1.333258091566534
 20
5.543122020954598
 30
0.0
 10
1.339959878877735
 20
5.549471224274682
 30
0.0
 10
1.346661666188822
 20
5.555821773335203
 30
0.0
 10
1.357244568882634
 20
5.555469189344123
 30
0.0
 10
1.363596463683549
 20
5.549118640283616
 30
0.0
 10
1.363596463683549
 20
5.549118640283616
 30
0.0
 10
1.419337032042534
 20
5.49055739999607
 30
0.0
 10
1.419337032042534
 20
5.49055739999607
 30
0.0
 10
1.420392092534925
 20
5.489147064031804
 30
0.0
 10
1.421452535988919
 20
5.487735382327088
 30
0.0
 10
1.422157703971137
 20
5.486325046362821
 30
0.0
 10
1.422157703971137
 20
5.486325046362821
 30
0.0
 10
1.423568039935332
 20
5.483501682953423
 30
0.0
 10
1.423568039935332
 20
5.483501682953423
 30
0.0
 10
1.423568039935332
 20
5.483501682953423
 30
0.0
 10
1.433445774646926
 20
5.475035629946511
 30
0.0
 10
1.433445774646926
 20
5.475035629946511
 30
0.0
 10
1.436621722047419
 20
5.473623948241815
 30
0.0
 10
1.439442393976037
 20
5.471154514563899
 30
0.0
 10
1.440852729940218
 20
5.467627328912797
 30
0.0
 10
1.440852729940218
 20
5.467627328912797
 30
0.0
 10
1.441557897922422
 20
5.466922160930657
 30
0.0
 10
1.441557897922422
 20
5.466922160930657
 30
0.0
 10
1.442968233886617
 20
5.466215647208102
 30
0.0
 10
1.444383952812628
 20
5.465157895234888
 30
0.0
 10
1.445794288776923
 20
5.46409879752128
 30
0.0
 10
1.445794288776923
 20
5.46409879752128
 30
0.0
 10
1.449320128687631
 20
5.461983293574853
 30
0.0
 10
1.449320128687631
 20
5.461983293574853
 30
0.0
 10
1.452496076088038
 20
5.460219027879077
 30
0.0
 10
1.455316748016628
 20
5.457749594201182
 30
0.0
 10
1.456727083980922
 20
5.454574992541139
 30
0.0
 10
1.456727083980922
 20
5.454574992541139
 30
0.0
 10
1.45708235945284
 20
5.453868478818577
 30
0.0
 10
1.45708235945284
 20
5.453868478818577
 30
0.0
 10
1.45708235945284
 20
5.453868478818577
 30
0.0
 10
1.462723703309933
 20
5.451046461149609
 30
0.0
 10
1.462723703309933
 20
5.451046461149609
 30
0.0
 10
1.464489314746131
 20
5.450341293167468
 30
0.0
 10
1.465899650710326
 20
5.449282195453839
 30
0.0
 10
1.46696009416442
 20
5.448224443480647
 30
0.0
 10
1.46696009416442
 20
5.448224443480647
 30
0.0
 10
1.470841209547046
 20
5.445755009802724
 30
0.0
 10
1.470841209547046
 20
5.445755009802724
 30
0.0
 10
1.474017156947539
 20
5.444343328098028
 30
0.0
 10
1.476482553404139
 20
5.44152131042906
 30
0.0
 10
1.478248164840337
 20
5.438346708769024
 30
0.0
 10
1.478248164840337
 20
5.438346708769024
 30
0.0
 10
1.478953332822442
 20
5.437641540786884
 30
0.0
 10
1.478953332822442
 20
5.437641540786884
 30
0.0
 10
1.478953332822442
 20
5.437641540786884
 30
0.0
 10
1.483894891659119
 20
5.435172107108975
 30
0.0
 10
1.483894891659119
 20
5.435172107108975
 30
0.0
 10
1.485655120133628
 20
5.43446559338642
 30
0.0
 10
1.487420731569841
 20
5.433407841413213
 30
0.0
 10
1.48883106753405
 20
5.431996159708518
 30
0.0
 10
1.48883106753405
 20
5.431996159708518
 30
0.0
 10
1.502945193100217
 20
5.424587858674797
 30
0.0
 10
1.502945193100217
 20
5.424587858674797
 30
0.0
 10
1.504355529064426
 20
5.423882690692671
 30
0.0
 10
1.50576586502872
 20
5.422824938719465
 30
0.0
 10
1.506820925521125
 20
5.421413257014762
 30
0.0
 10
1.506820925521125
 20
5.421413257014762
 30
0.0
 10
1.51599349225053
 20
5.416474389658958
 30
0.0
 10
1.51599349225053
 20
5.416474389658958
 30
0.0
 10
1.519524715122926
 20
5.415062707954255
 30
0.0
 10
1.52305055503362
 20
5.412593274276353
 30
0.0
 10
1.526226502434141
 20
5.410477770329954
 30
0.0
 10
1.527636838398336
 20
5.409418672616318
 30
0.0
 10
1.530107617816739
 20
5.407654406920549
 30
0.0
 10
1.531162678309044
 20
5.407301822929483
 30
0.0
 10
1.534693901181427
 20
5.408008336652045
 30
0.0
 10
1.536809405127826
 20
5.407301822929483
 30
0.0
 10
1.539985352528347
 20
5.405891486965202
 30
0.0
 10
1.539985352528347
 20
5.405891486965202
 30
0.0
 10
1.545276803875211
 20
5.403069469296227
 30
0.0
 10
1.545276803875211
 20
5.403069469296227
 30
0.0
 10
1.547042415311423
 20
5.402362955573671
 30
0.0
 10
1.548452751275632
 20
5.401305203600465
 30
0.0
 10
1.549863087239927
 20
5.400246105886836
 30
0.0
 10
1.549863087239927
 20
5.400246105886836
 30
0.0
 10
1.556564874551128
 20
5.397071504226794
 30
0.0
 10
1.556564874551128
 20
5.397071504226794
 30
0.0
 10
1.559035653969417
 20
5.397071504226794
 30
0.0
 10
1.561506433387719
 20
5.39636633624466
 30
0.0
 10
1.563971829844334
 20
5.395307238531032
 30
0.0
 10
1.563971829844334
 20
5.395307238531032
 30
0.0
 10
1.572439228591733
 20
5.391780052879923
 30
0.0
 10
1.572439228591733
 20
5.391780052879923
 30
0.0
 10
1.577025511956421
 20
5.391780052879923
 30
0.0
 10
1.581261902810936
 20
5.390015787184154
 30
0.0
 10
1.584432467249712
 20
5.386488601533045
 30
0.0
 10
1.584432467249712
 20
5.386488601533045
 30
0.0
 10
1.585848186175724
 20
5.386488601533045
 30
0.0
 10
1.585848186175724
 20
5.386488601533045
 30
0.0
 10
1.588313582632324
 20
5.386488601533045
 30
0.0
 10
1.590784362050627
 20
5.385783433550905
 30
0.0
 10
1.593255141469043
 20
5.384724335837283
 30
0.0
 10
1.593255141469043
 20
5.384724335837283
 30
0.0
 10
1.596431088869437
 20
5.383666583864069
 30
0.0
 10
1.596431088869437
 20
5.383666583864069
 30
0.0
 10
1.599251760798026
 20
5.383666583864069
 30
0.0
 10
1.601722540216329
 20
5.382960070141507
 30
0.0
 10
1.603838044162728
 20
5.381902318168314
 30
0.0
 10
1.603838044162728
 20
5.381902318168314
 30
0.0
 10
1.607013991563221
 20
5.380844566195101
 30
0.0
 10
1.607013991563221
 20
5.380844566195101
 30
0.0
 10
1.609834663491724
 20
5.380844566195101
 30
0.0
 10
1.612305442910141
 20
5.380490636463605
 30
0.0
 10
1.61477622232843
 20
5.379080300499325
 30
0.0
 10
1.61477622232843
 20
5.379080300499325
 30
0.0
 10
1.617946786767234
 20
5.378375132517206
 30
0.0
 10
1.617946786767234
 20
5.378375132517206
 30
0.0
 10
1.620417566185523
 20
5.378375132517206
 30
0.0
 10
1.622888345603826
 20
5.377668618794643
 30
0.0
 10
1.625359125022129
 20
5.376610866821437
 30
0.0
 10
1.625359125022129
 20
5.376610866821437
 30
0.0
 10
1.628529689460918
 20
5.375551769107801
 30
0.0
 10
1.628529689460918
 20
5.375551769107801
 30
0.0
 10
1.628529689460918
 20
5.375551769107801
 30
0.0
 10
1.644054150991337
 20
5.373434919420958
 30
0.0
 10
1.644054150991337
 20
5.373434919420958
 30
0.0
 10
1.662044008978426
 20
5.37026031776093
 30
0.0
 10
1.681799478401615
 20
5.367085716100888
 30
0.0
 10
1.697323939932033
 20
5.367790884083028
 30
0.0
 10
1.697323939932033
 20
5.367790884083028
 30
0.0
 10
1.713903461954842
 20
5.367790884083028
 30
0.0
 10
1.713903461954842
 20
5.367790884083028
 30
0.0
 10
1.723076028684232
 20
5.367790884083028
 30
0.0
 10
1.730482983977537
 20
5.360382583049315
 30
0.0
 10
1.730482983977537
 20
5.350857432328758
 30
0.0
 10
1.730482983977537
 20
5.341686211339712
 30
0.0
 10
1.723076028684232
 20
5.334277910305999
 30
0.0
 10
1.713903461954842
 20
5.334277910305999
 30
0.0
 10
1.713903461954842
 20
5.334277910305999
 30
0.0
 10
1.69767383244222
 20
5.334277910305999
 30
0.0
 10
1.69767383244222
 20
5.334277910305999
 30
0.0
 10
1.696263496477925
 20
5.334277910305999
 30
0.0
 10
1.69485316051373
 20
5.334277910305999
 30
0.0
 10
1.69309293203922
 20
5.334277910305999
 30
0.0
  0
SPLINE
  5
33A
330
1F
100
AcDbEntity
  8
Livello 1
370
     0
100
AcDbSpline
210
0.0
220
0.0
230
1.0
 70
     9
 71
     3
 72
    32
 73
    28
 74
     0
 42
0.000000001
 43
0.0000000001
 40
0.0
 40
0.0
 40
0.0
 40
0.0
 40
1.0
 40
1.0
 40
1.0
 40
2.0
 40
2.0
 40
2.0
 40
3.0
 40
3.0
 40
3.0
 40
4.0
 40
4.0
 40
4.0
 40
5.0
 40
5.0
 40
5.0
 40
6.0
 40
6.0
 40
6.0
 40
7.0
 40
7.0
 40
7.0
 40
8.0
 40
8.0
 40
8.0
 40
9.0
 40
9.0
 40
9.0
 40
9.0
 10
1.96952954696033
 20
5.337064938723955
 30
0.0
 10
1.96952954696033
 20
5.337064938723955
 30
0.0
 10
1.713763504950733
 20
5.337064938723955
 30
0.0
 10
1.713763504950733
 20
5.337064938723955
 30
0.0
 10
1.70459093822123
 20
5.337064938723955
 30
0.0
 10
1.697183982927924
 20
5.344473239757654
 30
0.0
 10
1.697183982927924
 20
5.353644460746707
 30
0.0
 10
1.697183982927924
 20
5.362817027476189
 30
0.0
 10
1.70459093822123
 20
5.370225328509903
 30
0.0
 10
1.713763504950733
 20
5.370225328509903
 30
0.0
 10
1.713763504950733
 20
5.370225328509903
 30
0.0
 10
1.952944641975832
 20
5.370225328509903
 30
0.0
 10
1.952944641975832
 20
5.370225328509903
 30
0.0
 10
1.952944641975832
 20
5.370225328509903
 30
0.0
 10
1.952944641975832
 20
5.537441650625218
 30
0.0
 10
1.952944641975832
 20
5.537441650625218
 30
0.0
 10
1.952944641975832
 20
5.546614217354687
 30
0.0
 10
1.960356980230827
 20
5.554375102379466
 30
0.0
 10
1.96952954696033
 20
5.554375102379466
 30
0.0
 10
1.978696730728131
 20
5.554375102379466
 30
0.0
 10
1.986109068983139
 20
5.546614217354687
 30
0.0
 10
1.986109068983139
 20
5.537441650625218
 30
0.0
 10
1.986109068983139
 20
5.537441650625218
 30
0.0
 10
1.986109068983139
 20
5.353644460746707
 30
0.0
 10
1.986109068983139
 20
5.353644460746707
 30
0.0
 10
1.986109068983139
 20
5.344473239757654
 30
0.0
 10
1.978696730728131
 20
5.337064938723955
 30
0.0
 10
1.96952954696033
 20
5.337064938723955
 30
0.0
  0
SPLINE
  5
33B
330
1F
100
AcDbEntity
  8
Livello 1
370
     0
100
AcDbSpline
210
0.0
220
0.0
230
1.0
 70
     9
 71
     3
 72
   233
 73
   229
 74
     0
 42
0.000000001
 43
0.0000000001
 40
0.0
 40
0.0
 40
0.0
 40
0.0
 40
1.0
 40
1.0
 40
1.0
 40
2.0
 40
2.0
 40
2.0
 40
3.0
 40
3.0
 40
3.0
 40
4.0
 40
4.0
 40
4.0
 40
5.0
 40
5.0
 40
5.0
 40
6.0
 40
6.0
 40
6.0
 40
7.0
 40
7.0
 40
7.0
 40
8.0
 40
8.0
 40
8.0
 40
9.0
 40
9.0
 40
9.0
 40
10.0
 40
10.0
 40
10.0
 40
11.0
 40
11.0
 40
11.0
 40
12.0
 40
12.0
 40
12.0
 40
13.0
 40
13.0
 40
13.0
 40
14.0
 40
14.0
 40
14.0
 40
15.0
 40
15.0
 40
15.0
 40
16.0
 40
16.0
 40
16.0
 40
17.0
 40
17.0
 40
17.0
 40
18.0
 40
18.0
 40
18.0
 40
19.0
 40
19.0
 40
19.0
 40
20.0
 40
20.0
 40
20.0
 40
21.0
 40
21.0
 40
21.0
 40
22.0
 40
22.0
 40
22.0
 40
23.0
 40
23.0
 40
23.0
 40
24.0
 40
24.0
 40
24.0
 40
25.0
 40
25.0
 40
25.0
 40
26.0
 40
26.0
 40
26.0
 40
27.0
 40
27.0
 40
27.0
 40
28.0
 40
28.0
 40
28.0
 40
29.0
 40
29.0
 40
29.0
 40
30.0
 40
30.0
 40
30.0
 40
31.0
 40
31.0
 40
31.0
 40
32.0
 40
32.0
 40
32.0
 40
33.0
 40
33.0
 40
33.0
 40
34.0
 40
34.0
 40
34.0
 40
35.0
 40
35.0
 40
35.0
 40
36.0
 40
36.0
 40
36.0
 40
37.0
 40
37.0
 40
37.0
 40
38.0
 40
38.0
 40
38.0
 40
39.0
 40
39.0
 40
39.0
 40
40.0
 40
40.0
 40
40.0
 40
41.0
 40
41.0
 40
41.0
 40
42.0
 40
42.0
 40
42.0
 40
43.0
 40
43.0
 40
43.0
 40
44.0
 40
44.0
 40
44.0
 40
45.0
 40
45.0
 40
45.0
 40
46.0
 40
46.0
 40
46.0
 40
47.0
 40
47.0
 40
47.0
 40
48.0
 40
48.0
 40
48.0
 40
49.0
 40
49.0
 40
49.0
 40
50.0
 40
50.0
 40
50.0
 40
51.0
 40
51.0
 40
51.0
 40
52.0
 40
52.0
 40
52.0
 40
53.0
 40
53.0
 40
53.0
 40
54.0
 40
54.0
 40
54.0
 40
55.0
 40
55.0
 40
55.0
 40
56.0
 40
56.0
 40
56.0
 40
57.0
 40
57.0
 40
57.0
 40
58.0
 40
58.0
 40
58.0
 40
59.0
 40
59.0
 40
59.0
 40
60.0
 40
60.0
 40
60.0
 40
61.0
 40
61.0
 40
61.0
 40
62.0
 40
62.0
 40
62.0
 40
63.0
 40
63.0
 40
63.0
 40
64.0
 40
64.0
 40
64.0
 40
65.0
 40
65.0
 40
65.0
 40
66.0
 40
66.0
 40
66.0
 40
67.0
 40
67.0
 40
67.0
 40
68.0
 40
68.0
 40
68.0
 40
69.0
 40
69.0
 40
69.0
 40
70.0
 40
70.0
 40
70.0
 40
71.0
 40
71.0
 40
71.0
 40
72.0
 40
72.0
 40
72.0
 40
73.0
 40
73.0
 40
73.0
 40
74.0
 40
74.0
 40
74.0
 40
75.0
 40
75.0
 40
75.0
 40
76.0
 40
76.0
 40
76.0
 40
76.0
 10
1.407376091154731
 20
7.353895160031676
 30
0.0
 10
1.403139700300144
 20
7.353895160031676
 30
0.0
 10
1.398908692407346
 20
7.355658079987016
 30
0.0
 10
1.395732745006924
 20
7.35883402738748
 30
0.0
 10
1.389030957695723
 20
7.365183230707557
 30
0.0
 10
1.389030957695723
 20
7.375766133401306
 30
0.0
 10
1.395732745006924
 20
7.382469266452893
 30
0.0
 10
1.395732745006924
 20
7.382469266452893
 30
0.0
 10
1.411607099047543
 20
7.398344966233935
 30
0.0
 10
1.411607099047543
 20
7.398344966233935
 30
0.0
 10
1.416898550394336
 20
7.40293124959868
 30
0.0
 10
1.41936932981271
 20
7.404341585562953
 30
0.0
 10
1.421129558287219
 20
7.405753267267648
 30
0.0
 10
1.422895169723432
 20
7.406811019240848
 30
0.0
 10
1.423955613177426
 20
7.407516187222995
 30
0.0
 10
1.429596957034533
 20
7.413866736283495
 30
0.0
 10
1.431007292998828
 20
7.415278417988204
 30
0.0
 10
1.43277290443504
 20
7.416336169961397
 30
0.0
 10
1.434538515871224
 20
7.417393921934603
 30
0.0
 10
1.434538515871224
 20
7.417393921934603
 30
0.0
 10
1.437359187799714
 20
7.418805603639299
 30
0.0
 10
1.437359187799714
 20
7.418805603639299
 30
0.0
 10
1.437359187799714
 20
7.418805603639299
 30
0.0
 10
1.443355807128739
 20
7.425156152699813
 30
0.0
 10
1.443355807128739
 20
7.425156152699813
 30
0.0
 10
1.444766143093033
 20
7.426213904673005
 30
0.0
 10
1.446176479057328
 20
7.427271656646226
 30
0.0
 10
1.44794209049354
 20
7.427978170368781
 30
0.0
 10
1.44794209049354
 20
7.427978170368781
 30
0.0
 10
1.45111803789392
 20
7.429741090324135
 30
0.0
 10
1.45111803789392
 20
7.429741090324135
 30
0.0
 10
1.452883649330132
 20
7.431152772028816
 30
0.0
 10
1.454999153276531
 20
7.432917037724593
 30
0.0
 10
1.456054213768922
 20
7.433269621715659
 30
0.0
 10
1.456054213768922
 20
7.433269621715659
 30
0.0
 10
1.458880268659129
 20
7.435033887411435
 30
0.0
 10
1.458880268659129
 20
7.435033887411435
 30
0.0
 10
1.460640497133638
 20
7.436444223375701
 30
0.0
 10
1.462761384041726
 20
7.438208489071463
 30
0.0
 10
1.463816444534131
 20
7.438913657053603
 30
0.0
 10
1.463816444534131
 20
7.438913657053603
 30
0.0
 10
1.482516853465043
 20
7.448791391765226
 30
0.0
 10
1.482516853465043
 20
7.448791391765226
 30
0.0
 10
1.498391207505619
 20
7.458316542485761
 30
0.0
 10
1.513910286074334
 20
7.46784169320631
 30
0.0
 10
1.530495191058818
 20
7.475955162222156
 30
0.0
 10
1.532610695005217
 20
7.477014259935778
 30
0.0
 10
1.535431366933721
 20
7.477719427917918
 30
0.0
 10
1.537902146352138
 20
7.477719427917918
 30
0.0
 10
1.537902146352138
 20
7.477719427917918
 30
0.0
 10
1.539312482316333
 20
7.477719427917918
 30
0.0
 10
1.539312482316333
 20
7.477719427917918
 30
0.0
 10
1.540722818280642
 20
7.47913110962262
 30
0.0
 10
1.542838322227041
 20
7.480894029577974
 30
0.0
 10
1.543898765681134
 20
7.481246613569034
 30
0.0
 10
1.543898765681134
 20
7.481246613569034
 30
0.0
 10
1.549190217028041
 20
7.484069976978425
 30
0.0
 10
1.549190217028041
 20
7.484069976978425
 30
0.0
 10
1.551305720974426
 20
7.485127728951646
 30
0.0
 10
1.554126392902929
 20
7.485832896933779
 30
0.0
 10
1.556597172321218
 20
7.485832896933779
 30
0.0
 10
1.556597172321218
 20
7.485832896933779
 30
0.0
 10
1.559773119721711
 20
7.486539410656327
 30
0.0
 10
1.559773119721711
 20
7.486539410656327
 30
0.0
 10
1.559773119721711
 20
7.486539410656327
 30
0.0
 10
1.565064571068631
 20
7.48936142832531
 30
0.0
 10
1.565064571068631
 20
7.48936142832531
 30
0.0
 10
1.56753535048692
 20
7.490419180298509
 30
0.0
 10
1.570006129905223
 20
7.491125694021071
 30
0.0
 10
1.572471526361923
 20
7.491125694021071
 30
0.0
 10
1.572471526361923
 20
7.491125694021071
 30
0.0
 10
1.574237137798036
 20
7.491125694021071
 30
0.0
 10
1.574237137798036
 20
7.491125694021071
 30
0.0
 10
1.577762977708715
 20
7.493947711690047
 30
0.0
 10
1.582349261073531
 20
7.496417145367956
 30
0.0
 10
1.585880483945913
 20
7.496417145367956
 30
0.0
 10
1.585880483945913
 20
7.496417145367956
 30
0.0
 10
1.589056431346335
 20
7.497474897341156
 30
0.0
 10
1.589056431346335
 20
7.497474897341156
 30
0.0
 10
1.591521827802921
 20
7.498533995054778
 30
0.0
 10
1.593992607221338
 20
7.499239163036918
 30
0.0
 10
1.596463386639626
 20
7.499239163036918
 30
0.0
 10
1.596463386639626
 20
7.499239163036918
 30
0.0
 10
1.599639334040119
 20
7.499944331019058
 30
0.0
 10
1.599639334040119
 20
7.499944331019058
 30
0.0
 10
1.602104730496733
 20
7.501003428732694
 30
0.0
 10
1.604575509915051
 20
7.501708596714834
 30
0.0
 10
1.60704628933341
 20
7.501708596714834
 30
0.0
 10
1.60704628933341
 20
7.501708596714834
 30
0.0
 10
1.610222236733832
 20
7.502766348688034
 30
0.0
 10
1.610222236733832
 20
7.502766348688034
 30
0.0
 10
1.612687633190532
 20
7.503825446401656
 30
0.0
 10
1.615158412608835
 20
7.504530614383796
 30
0.0
 10
1.617629192027123
 20
7.504530614383796
 30
0.0
 10
1.617629192027123
 20
7.504530614383796
 30
0.0
 10
1.626446483284723
 20
7.505235782365936
 30
0.0
 10
1.626446483284723
 20
7.505235782365936
 30
0.0
 10
1.628212094720936
 20
7.506294880079565
 30
0.0
 10
1.630327598667335
 20
7.507000048061705
 30
0.0
 10
1.632798378085624
 20
7.507000048061705
 30
0.0
 10
1.641615669343224
 20
7.507705216043838
 30
0.0
 10
1.648322839616028
 20
7.508764313757467
 30
0.0
 10
1.654669351455225
 20
7.509822065730666
 30
0.0
 10
1.666312697603032
 20
7.511586331426443
 30
0.0
 10
1.678305936261139
 20
7.513703181113271
 30
0.0
 10
1.698766573666418
 20
7.512291499408568
 30
0.0
 10
1.698766573666418
 20
7.512291499408568
 30
0.0
 10
1.706173528959723
 20
7.513350597122204
 30
0.0
 10
1.706173528959723
 20
7.513350597122204
 30
0.0
 10
1.708644308378126
 20
7.514408349095404
 30
0.0
 10
1.711115087796414
 20
7.515113517077551
 30
0.0
 10
1.713935759724918
 20
7.515113517077551
 30
0.0
 10
1.713935759724918
 20
7.515113517077551
 30
0.0
 10
1.969701801734629
 20
7.515113517077551
 30
0.0
 10
1.969701801734629
 20
7.515113517077551
 30
0.0
 10
1.978874368464033
 20
7.515113517077551
 30
0.0
 10
1.986281323757339
 20
7.507705216043838
 30
0.0
 10
1.986281323757339
 20
7.498533995054778
 30
0.0
 10
1.986281323757339
 20
7.48936142832531
 30
0.0
 10
1.978874368464033
 20
7.481953127291603
 30
0.0
 10
1.969701801734629
 20
7.481953127291603
 30
0.0
 10
1.969701801734629
 20
7.481953127291603
 30
0.0
 10
1.715701371161131
 20
7.480894029577974
 30
0.0
 10
1.715701371161131
 20
7.480894029577974
 30
0.0
 10
1.713585867214717
 20
7.479836277604761
 30
0.0
 10
1.711115087796414
 20
7.47913110962262
 30
0.0
 10
1.70829441586784
 20
7.47913110962262
 30
0.0
 10
1.70829441586784
 20
7.47913110962262
 30
0.0
 10
1.697711513174127
 20
7.47913110962262
 30
0.0
 10
1.697711513174127
 20
7.47913110962262
 30
0.0
 10
1.680071547697338
 20
7.480188861595834
 30
0.0
 10
1.671248873478035
 20
7.478777179891132
 30
0.0
 10
1.660316078274036
 20
7.477014259935778
 30
0.0
 10
1.65361429096292
 20
7.475955162222156
 30
0.0
 10
1.646907120690045
 20
7.474897410248956
 30
0.0
 10
1.63844510490442
 20
7.474192242266816
 30
0.0
 10
1.63844510490442
 20
7.474192242266816
 30
0.0
 10
1.635974325486117
 20
7.472780560562107
 30
0.0
 10
1.635974325486117
 20
7.472780560562107
 30
0.0
 10
1.633503546067728
 20
7.471722808588907
 30
0.0
 10
1.63103276664944
 20
7.471016294866352
 30
0.0
 10
1.628567370192826
 20
7.471016294866352
 30
0.0
 10
1.628567370192826
 20
7.471016294866352
 30
0.0
 10
1.620099971445426
 20
7.470311126884212
 30
0.0
 10
1.620099971445426
 20
7.470311126884212
 30
0.0
 10
1.617629192027123
 20
7.469253374911005
 30
0.0
 10
1.615158412608835
 20
7.46854686118845
 30
0.0
 10
1.612687633190532
 20
7.46854686118845
 30
0.0
 10
1.612687633190532
 20
7.46854686118845
 30
0.0
 10
1.609517068751713
 20
7.467489109215243
 30
0.0
 10
1.609517068751713
 20
7.467489109215243
 30
0.0
 10
1.60704628933341
 20
7.466430011501607
 30
0.0
 10
1.604575509915051
 20
7.465724843519467
 30
0.0
 10
1.601754837986547
 20
7.465724843519467
 30
0.0
 10
1.601754837986547
 20
7.465724843519467
 30
0.0
 10
1.598578890586026
 20
7.465019675537341
 30
0.0
 10
1.598578890586026
 20
7.465019675537341
 30
0.0
 10
1.596463386639626
 20
7.463960577823705
 30
0.0
 10
1.594347882693227
 20
7.463255409841565
 30
0.0
 10
1.592226995785139
 20
7.463255409841565
 30
0.0
 10
1.591521827802921
 20
7.462550241859425
 30
0.0
 10
1.590816659820845
 20
7.462197657868358
 30
0.0
 10
1.59046676731063
 20
7.462197657868358
 30
0.0
 10
1.59046676731063
 20
7.462197657868358
 30
0.0
 10
1.585175315963724
 20
7.459375640199397
 30
0.0
 10
1.585175315963724
 20
7.459375640199397
 30
0.0
 10
1.583054429055636
 20
7.458316542485761
 30
0.0
 10
1.580589032599021
 20
7.457963958494694
 30
0.0
 10
1.577762977708715
 20
7.457963958494694
 30
0.0
 10
1.577762977708715
 20
7.457963958494694
 30
0.0
 10
1.574592413270039
 20
7.456906206521495
 30
0.0
 10
1.574592413270039
 20
7.456906206521495
 30
0.0
 10
1.574592413270039
 20
7.456906206521495
 30
0.0
 10
1.569300961923133
 20
7.454082843112097
 30
0.0
 10
1.569300961923133
 20
7.454082843112097
 30
0.0
 10
1.567180075015031
 20
7.45302509113889
 30
0.0
 10
1.564359403086427
 20
7.45231992315675
 30
0.0
 10
1.561888623668139
 20
7.45231992315675
 30
0.0
 10
1.561888623668139
 20
7.45231992315675
 30
0.0
 10
1.56047828770383
 20
7.45231992315675
 30
0.0
 10
1.56047828770383
 20
7.45231992315675
 30
0.0
 10
1.559067951739635
 20
7.450908241452047
 30
0.0
 10
1.556952447793136
 20
7.449497905487788
 30
0.0
 10
1.555892004339114
 20
7.448791391765226
 30
0.0
 10
1.555892004339114
 20
7.448791391765226
 30
0.0
 10
1.550600552992221
 20
7.446321958087324
 30
0.0
 10
1.550600552992221
 20
7.446321958087324
 30
0.0
 10
1.548485049045822
 20
7.44526420611411
 30
0.0
 10
1.545664377117333
 20
7.44455903813197
 30
0.0
 10
1.54319359769893
 20
7.44455903813197
 30
0.0
 10
1.54319359769893
 20
7.44455903813197
 30
0.0
 10
1.541783261734735
 20
7.44455903813197
 30
0.0
 10
1.541783261734735
 20
7.44455903813197
 30
0.0
 10
1.527319243658325
 20
7.437149391357834
 30
0.0
 10
1.513560393564119
 20
7.428683338350928
 30
0.0
 10
1.499801543469928
 20
7.420217285344001
 30
0.0
 10
1.499801543469928
 20
7.420217285344001
 30
0.0
 10
1.48075124202883
 20
7.409985620900897
 30
0.0
 10
1.48075124202883
 20
7.409985620900897
 30
0.0
 10
1.479340906064521
 20
7.408575284936617
 30
0.0
 10
1.477225402118122
 20
7.406811019240848
 30
0.0
 10
1.476164958664028
 20
7.406105851258708
 30
0.0
 10
1.476164958664028
 20
7.406105851258708
 30
0.0
 10
1.472989011263635
 20
7.404694169554026
 30
0.0
 10
1.472989011263635
 20
7.404694169554026
 30
0.0
 10
1.47122878278914
 20
7.403283833589753
 30
0.0
 10
1.469107895881037
 20
7.401519567893977
 30
0.0
 10
1.468052835388633
 20
7.400814399911837
 30
0.0
 10
1.468052835388633
 20
7.400814399911837
 30
0.0
 10
1.461700940587732
 20
7.395875532556033
 30
0.0
 10
1.461700940587732
 20
7.395875532556033
 30
0.0
 10
1.460640497133638
 20
7.394816434842397
 30
0.0
 10
1.45640948924084
 20
7.390936665200229
 30
0.0
 10
1.454643877804642
 20
7.390230151477673
 30
0.0
 10
1.454643877804642
 20
7.390230151477673
 30
0.0
 10
1.452178481348042
 20
7.38917239950446
 30
0.0
 10
1.452178481348042
 20
7.38917239950446
 30
0.0
 10
1.446176479057328
 20
7.382469266452893
 30
0.0
 10
1.443355807128739
 20
7.380352416766044
 30
0.0
 10
1.439474691746141
 20
7.377530399097082
 30
0.0
 10
1.438064355781932
 20
7.376825231114942
 30
0.0
 10
1.436654019817638
 20
7.375766133401306
 30
0.0
 10
1.433833347889034
 20
7.3736506294549
 30
0.0
 10
1.433833347889034
 20
7.3736506294549
 30
0.0
 10
1.419014054340834
 20
7.35883402738748
 30
0.0
 10
1.419014054340834
 20
7.35883402738748
 30
0.0
 10
1.415838106940327
 20
7.355658079987016
 30
0.0
 10
1.411607099047543
 20
7.353895160031676
 30
0.0
 10
1.407376091154731
 20
7.353895160031676
 30
0.0
  0
SPLINE
  5
33C
330
1F
100
AcDbEntity
  8
Livello 1
370
     0
100
AcDbSpline
210
0.0
220
0.0
230
1.0
 70
     9
 71
     3
 72
    26
 73
    22
 74
     0
 42
0.000000001
 43
0.0000000001
 40
0.0
 40
0.0
 40
0.0
 40
0.0
 40
1.0
 40
1.0
 40
1.0
 40
2.0
 40
2.0
 40
2.0
 40
3.0
 40
3.0
 40
3.0
 40
4.0
 40
4.0
 40
4.0
 40
5.0
 40
5.0
 40
5.0
 40
6.0
 40
6.0
 40
6.0
 40
7.0
 40
7.0
 40
7.0
 40
7.0
 10
1.375379766835422
 20
7.324614539887896
 30
0.0
 10
1.371143375980935
 20
7.324614539887896
 30
0.0
 10
1.366912368088037
 20
7.326377459843229
 30
0.0
 10
1.363736420687629
 20
7.3295534072437
 30
0.0
 10
1.357034633376429
 20
7.335902610563785
 30
0.0
 10
1.357034633376429
 20
7.346485513257533
 30
0.0
 10
1.363736420687629
 20
7.353188646309114
 30
0.0
 10
1.363736420687629
 20
7.353188646309114
 30
0.0
 10
1.395485128768925
 20
7.384938700130788
 30
0.0
 10
1.395485128768925
 20
7.384938700130788
 30
0.0
 10
1.40218691608004
 20
7.391641833182362
 30
0.0
 10
1.412769818773838
 20
7.391641833182362
 30
0.0
 10
1.419121713574725
 20
7.384938700130788
 30
0.0
 10
1.425473608375625
 20
7.378589496810711
 30
0.0
 10
1.425473608375625
 20
7.368005248376533
 30
0.0
 10
1.419121713574725
 20
7.361302115324967
 30
0.0
 10
1.419121713574725
 20
7.361302115324967
 30
0.0
 10
1.387017730021526
 20
7.3295534072437
 30
0.0
 10
1.387017730021526
 20
7.3295534072437
 30
0.0
 10
1.383841782621033
 20
7.326377459843229
 30
0.0
 10
1.37961077472822
 20
7.324614539887896
 30
0.0
 10
1.375379766835422
 20
7.324614539887896
 30
0.0
  0
SPLINE
  5
33D
330
1F
100
AcDbEntity
  8
Livello 1
370
     0
100
AcDbSpline
210
0.0
220
0.0
230
1.0
 70
     9
 71
     3
 72
    23
 73
    19
 74
     0
 42
0.000000001
 43
0.0000000001
 40
0.0
 40
0.0
 40
0.0
 40
0.0
 40
1.0
 40
1.0
 40
1.0
 40
2.0
 40
2.0
 40
2.0
 40
3.0
 40
3.0
 40
3.0
 40
4.0
 40
4.0
 40
4.0
 40
5.0
 40
5.0
 40
5.0
 40
6.0
 40
6.0
 40
6.0
 40
6.0
 10
1.96952954696033
 20
7.324614539887896
 30
0.0
 10
1.960356980230827
 20
7.324614539887896
 30
0.0
 10
1.952944641975832
 20
7.332022840921617
 30
0.0
 10
1.952944641975832
 20
7.341194061910663
 30
0.0
 10
1.952944641975832
 20
7.341194061910663
 30
0.0
 10
1.952944641975832
 20
7.498532649314356
 30
0.0
 10
1.952944641975832
 20
7.498532649314356
 30
0.0
 10
1.952944641975832
 20
7.507705216043838
 30
0.0
 10
1.960356980230827
 20
7.515113517077551
 30
0.0
 10
1.96952954696033
 20
7.515113517077551
 30
0.0
 10
1.978696730728131
 20
7.515113517077551
 30
0.0
 10
1.986109068983139
 20
7.507705216043838
 30
0.0
 10
1.986109068983139
 20
7.498532649314356
 30
0.0
 10
1.986109068983139
 20
7.498532649314356
 30
0.0
 10
1.986109068983139
 20
7.341194061910663
 30
0.0
 10
1.986109068983139
 20
7.341194061910663
 30
0.0
 10
1.986109068983139
 20
7.332022840921617
 30
0.0
 10
1.978696730728131
 20
7.324614539887896
 30
0.0
 10
1.96952954696033
 20
7.324614539887896
 30
0.0
  0
SPLINE
  5
33E
330
1F
100
AcDbEntity
  8
Livello 1
370
     0
100
AcDbSpline
210
0.0
220
0.0
230
1.0
 70
     9
 71
     3
 72
    23
 73
    19
 74
     0
 42
0.000000001
 43
0.0000000001
 40
0.0
 40
0.0
 40
0.0
 40
0.0
 40
1.0
 40
1.0
 40
1.0
 40
2.0
 40
2.0
 40
2.0
 40
3.0
 40
3.0
 40
3.0
 40
4.0
 40
4.0
 40
4.0
 40
5.0
 40
5.0
 40
5.0
 40
6.0
 40
6.0
 40
6.0
 40
6.0
 10
8.46240411470012
 20
5.771192725039838
 30
0.0
 10
8.46240411470012
 20
5.771192725039838
 30
0.0
 10
8.451815829044718
 20
5.771192725039838
 30
0.0
 10
8.451815829044718
 20
5.771192725039838
 30
0.0
 10
8.442643262315229
 20
5.771192725039838
 30
0.0
 10
8.435236307021924
 20
5.778601026073552
 30
0.0
 10
8.435236307021924
 20
5.787772247062598
 30
0.0
 10
8.435236307021924
 20
5.796944813792087
 30
0.0
 10
8.442643262315229
 20
5.804353114825794
 30
0.0
 10
8.451815829044718
 20
5.804353114825794
 30
0.0
 10
8.451815829044718
 20
5.804353114825794
 30
0.0
 10
8.46240411470012
 20
5.804353114825794
 30
0.0
 10
8.46240411470012
 20
5.804353114825794
 30
0.0
 10
8.471571298467921
 20
5.804353114825794
 30
0.0
 10
8.478983636722929
 20
5.796944813792087
 30
0.0
 10
8.478983636722929
 20
5.787772247062598
 30
0.0
 10
8.478983636722929
 20
5.778601026073552
 30
0.0
 10
8.471571298467921
 20
5.771192725039838
 30
0.0
 10
8.46240411470012
 20
5.771192725039838
 30
0.0
  0
SPLINE
  5
33F
330
1F
100
AcDbEntity
  8
Livello 1
370
     0
100
AcDbSpline
210
0.0
220
0.0
230
1.0
 70
     9
 71
     3
 72
    29
 73
    25
 74
     0
 42
0.000000001
 43
0.0000000001
 40
0.0
 40
0.0
 40
0.0
 40
0.0
 40
1.0
 40
1.0
 40
1.0
 40
2.0
 40
2.0
 40
2.0
 40
3.0
 40
3.0
 40
3.0
 40
4.0
 40
4.0
 40
4.0
 40
5.0
 40
5.0
 40
5.0
 40
6.0
 40
6.0
 40
6.0
 40
7.0
 40
7.0
 40
7.0
 40
8.0
 40
8.0
 40
8.0
 40
8.0
 10
11.28222553530054
 20
7.052057694608954
 30
0.0
 10
11.28222553530054
 20
7.052057694608954
 30
0.0
 10
8.509036711870038
 20
7.052057694608954
 30
0.0
 10
8.509036711870038
 20
7.052057694608954
 30
0.0
 10
8.509036711870038
 20
7.052057694608954
 30
0.0
 10
2.925974181052836
 20
7.063345765284829
 30
0.0
 10
2.925974181052836
 20
7.063345765284829
 30
0.0
 10
2.916801614323333
 20
7.063345765284829
 30
0.0
 10
2.909394659030041
 20
7.070754066318549
 30
0.0
 10
2.909394659030041
 20
7.079926633048017
 30
0.0
 10
2.909394659030041
 20
7.089099199777507
 30
0.0
 10
2.916801614323333
 20
7.096507500811213
 30
0.0
 10
2.925974181052836
 20
7.096507500811213
 30
0.0
 10
2.925974181052836
 20
7.096507500811213
 30
0.0
 10
8.509036711870038
 20
7.085218084394895
 30
0.0
 10
8.509036711870038
 20
7.085218084394895
 30
0.0
 10
8.509036711870038
 20
7.085218084394895
 30
0.0
 10
11.28222553530054
 20
7.085218084394895
 30
0.0
 10
11.28222553530054
 20
7.085218084394895
 30
0.0
 10
11.29139271906834
 20
7.085218084394895
 30
0.0
 10
11.29880505732333
 20
7.077809783361189
 30
0.0
 10
11.29880505732333
 20
7.068637216631707
 30
0.0
 10
11.29880505732333
 20
7.059465995642653
 30
0.0
 10
11.29139271906834
 20
7.052057694608954
 30
0.0
 10
11.28222553530054
 20
7.052057694608954
 30
0.0
  0
SPLINE
  5
340
330
1F
100
AcDbEntity
  8
Livello 1
370
     0
100
AcDbSpline
210
0.0
220
0.0
230
1.0
 70
     9
 71
     3
 72
    23
 73
    19
 74
     0
 42
0.000000001
 43
0.0000000001
 40
0.0
 40
0.0
 40
0.0
 40
0.0
 40
1.0
 40
1.0
 40
1.0
 40
2.0
 40
2.0
 40
2.0
 40
3.0
 40
3.0
 40
3.0
 40
4.0
 40
4.0
 40
4.0
 40
5.0
 40
5.0
 40
5.0
 40
6.0
 40
6.0
 40
6.0
 40
6.0
 10
2.926017244746333
 20
5.725896448110923
 30
0.0
 10
2.916844678016929
 20
5.725896448110923
 30
0.0
 10
2.90943233976192
 20
5.733304749144643
 30
0.0
 10
2.90943233976192
 20
5.742475970133689
 30
0.0
 10
2.90943233976192
 20
5.742475970133689
 30
0.0
 10
2.90943233976192
 20
5.787984874049577
 30
0.0
 10
2.90943233976192
 20
5.787984874049577
 30
0.0
 10
2.90943233976192
 20
5.797157440779066
 30
0.0
 10
2.916844678016929
 20
5.804565741812773
 30
0.0
 10
2.926017244746333
 20
5.804565741812773
 30
0.0
 10
2.935184428514133
 20
5.804565741812773
 30
0.0
 10
2.942596766769128
 20
5.797157440779066
 30
0.0
 10
2.942596766769128
 20
5.787984874049577
 30
0.0
 10
2.942596766769128
 20
5.787984874049577
 30
0.0
 10
2.942596766769128
 20
5.742475970133689
 30
0.0
 10
2.942596766769128
 20
5.742475970133689
 30
0.0
 10
2.942596766769128
 20
5.733304749144643
 30
0.0
 10
2.935184428514133
 20
5.725896448110923
 30
0.0
 10
2.926017244746333
 20
5.725896448110923
 30
0.0
  0
SPLINE
  5
341
330
1F
100
AcDbEntity
  8
Livello 1
370
     0
100
AcDbSpline
210
0.0
220
0.0
230
1.0
 70
     9
 71
     3
 72
    23
 73
    19
 74
     0
 42
0.000000001
 43
0.0000000001
 40
0.0
 40
0.0
 40
0.0
 40
0.0
 40
1.0
 40
1.0
 40
1.0
 40
2.0
 40
2.0
 40
2.0
 40
3.0
 40
3.0
 40
3.0
 40
4.0
 40
4.0
 40
4.0
 40
5.0
 40
5.0
 40
5.0
 40
6.0
 40
6.0
 40
6.0
 40
6.0
 10
8.446352122923642
 20
5.771192725039838
 30
0.0
 10
8.446352122923642
 20
5.771192725039838
 30
0.0
 10
2.926081840286727
 20
5.771192725039838
 30
0.0
 10
2.926081840286727
 20
5.771192725039838
 30
0.0
 10
2.916909273557223
 20
5.771192725039838
 30
0.0
 10
2.909502318263932
 20
5.778601026073552
 30
0.0
 10
2.909502318263932
 20
5.787772247062598
 30
0.0
 10
2.909502318263932
 20
5.796944813792087
 30
0.0
 10
2.916909273557223
 20
5.804353114825794
 30
0.0
 10
2.926081840286727
 20
5.804353114825794
 30
0.0
 10
2.926081840286727
 20
5.804353114825794
 30
0.0
 10
8.446352122923642
 20
5.804353114825794
 30
0.0
 10
8.446352122923642
 20
5.804353114825794
 30
0.0
 10
8.455519306691343
 20
5.804353114825794
 30
0.0
 10
8.462931644946323
 20
5.796944813792087
 30
0.0
 10
8.462931644946323
 20
5.787772247062598
 30
0.0
 10
8.462931644946323
 20
5.778601026073552
 30
0.0
 10
8.455519306691343
 20
5.771192725039838
 30
0.0
 10
8.446352122923642
 20
5.771192725039838
 30
0.0
  0
SPLINE
  5
342
330
1F
100
AcDbEntity
  8
Livello 1
370
     0
100
AcDbSpline
210
0.0
220
0.0
230
1.0
 70
     9
 71
     3
 72
    23
 73
    19
 74
     0
 42
0.000000001
 43
0.0000000001
 40
0.0
 40
0.0
 40
0.0
 40
0.0
 40
1.0
 40
1.0
 40
1.0
 40
2.0
 40
2.0
 40
2.0
 40
3.0
 40
3.0
 40
3.0
 40
4.0
 40
4.0
 40
4.0
 40
5.0
 40
5.0
 40
5.0
 40
6.0
 40
6.0
 40
6.0
 40
6.0
 10
2.926017244746333
 20
7.019426180809588
 30
0.0
 10
2.916844678016929
 20
7.019426180809588
 30
0.0
 10
2.90943233976192
 20
7.025422800138606
 30
0.0
 10
2.90943233976192
 20
7.034595366868089
 30
0.0
 10
2.90943233976192
 20
7.034595366868089
 30
0.0
 10
2.90943233976192
 20
7.080102925043568
 30
0.0
 10
2.90943233976192
 20
7.080102925043568
 30
0.0
 10
2.90943233976192
 20
7.089275491773044
 30
0.0
 10
2.916844678016929
 20
7.09668379280675
 30
0.0
 10
2.926017244746333
 20
7.09668379280675
 30
0.0
 10
2.935184428514133
 20
7.09668379280675
 30
0.0
 10
2.942596766769128
 20
7.089275491773044
 30
0.0
 10
2.942596766769128
 20
7.080102925043568
 30
0.0
 10
2.942596766769128
 20
7.080102925043568
 30
0.0
 10
2.942596766769128
 20
7.037417384537057
 30
0.0
 10
2.942596766769128
 20
7.037417384537057
 30
0.0
 10
2.942596766769128
 20
7.028244817807582
 30
0.0
 10
2.935184428514133
 20
7.019426180809588
 30
0.0
 10
2.926017244746333
 20
7.019426180809588
 30
0.0
  0
SPLINE
  5
343
330
1F
100
AcDbEntity
  8
Livello 1
370
     0
100
AcDbSpline
210
0.0
220
0.0
230
1.0
 70
     9
 71
     3
 72
    23
 73
    19
 74
     0
 42
0.000000001
 43
0.0000000001
 40
0.0
 40
0.0
 40
0.0
 40
0.0
 40
1.0
 40
1.0
 40
1.0
 40
2.0
 40
2.0
 40
2.0
 40
3.0
 40
3.0
 40
3.0
 40
4.0
 40
4.0
 40
4.0
 40
5.0
 40
5.0
 40
5.0
 40
6.0
 40
6.0
 40
6.0
 40
6.0
 10
2.926017244746333
 20
4.906181732570146
 30
0.0
 10
2.916844678016929
 20
4.906181732570146
 30
0.0
 10
2.90943233976192
 20
4.913590033603853
 30
0.0
 10
2.90943233976192
 20
4.922761254592899
 30
0.0
 10
2.90943233976192
 20
4.922761254592899
 30
0.0
 10
2.90943233976192
 20
5.742617272878199
 30
0.0
 10
2.90943233976192
 20
5.742617272878199
 30
0.0
 10
2.90943233976192
 20
5.751789839607681
 30
0.0
 10
2.916844678016929
 20
5.759198140641395
 30
0.0
 10
2.926017244746333
 20
5.759198140641395
 30
0.0
 10
2.935184428514133
 20
5.759198140641395
 30
0.0
 10
2.942596766769128
 20
5.751789839607681
 30
0.0
 10
2.942596766769128
 20
5.742617272878199
 30
0.0
 10
2.942596766769128
 20
5.742617272878199
 30
0.0
 10
2.942596766769128
 20
4.922761254592899
 30
0.0
 10
2.942596766769128
 20
4.922761254592899
 30
0.0
 10
2.942596766769128
 20
4.913590033603853
 30
0.0
 10
2.935184428514133
 20
4.906181732570146
 30
0.0
 10
2.926017244746333
 20
4.906181732570146
 30
0.0
  0
SPLINE
  5
344
330
1F
100
AcDbEntity
  8
Livello 1
370
     0
100
AcDbSpline
210
0.0
220
0.0
230
1.0
 70
     9
 71
     3
 72
    23
 73
    19
 74
     0
 42
0.000000001
 43
0.0000000001
 40
0.0
 40
0.0
 40
0.0
 40
0.0
 40
1.0
 40
1.0
 40
1.0
 40
2.0
 40
2.0
 40
2.0
 40
3.0
 40
3.0
 40
3.0
 40
4.0
 40
4.0
 40
4.0
 40
5.0
 40
5.0
 40
5.0
 40
6.0
 40
6.0
 40
6.0
 40
6.0
 10
8.451751233504424
 20
5.771192725039838
 30
0.0
 10
8.451751233504424
 20
5.771192725039838
 30
0.0
 10
8.446454399195843
 20
5.771192725039838
 30
0.0
 10
8.446454399195843
 20
5.771192725039838
 30
0.0
 10
8.437287215428042
 20
5.771192725039838
 30
0.0
 10
8.429874877173034
 20
5.778601026073552
 30
0.0
 10
8.429874877173034
 20
5.787772247062598
 30
0.0
 10
8.429874877173034
 20
5.796944813792087
 30
0.0
 10
8.437287215428042
 20
5.804353114825794
 30
0.0
 10
8.446454399195843
 20
5.804353114825794
 30
0.0
 10
8.446454399195843
 20
5.804353114825794
 30
0.0
 10
8.451751233504424
 20
5.804353114825794
 30
0.0
 10
8.451751233504424
 20
5.804353114825794
 30
0.0
 10
8.460918417272125
 20
5.804353114825794
 30
0.0
 10
8.468330755527119
 20
5.796944813792087
 30
0.0
 10
8.468330755527119
 20
5.787772247062598
 30
0.0
 10
8.468330755527119
 20
5.778601026073552
 30
0.0
 10
8.460918417272125
 20
5.771192725039838
 30
0.0
 10
8.451751233504424
 20
5.771192725039838
 30
0.0
  0
SPLINE
  5
345
330
1F
100
AcDbEntity
  8
Livello 1
370
     0
100
AcDbSpline
210
0.0
220
0.0
230
1.0
 70
     9
 71
     3
 72
    23
 73
    19
 74
     0
 42
0.000000001
 43
0.0000000001
 40
0.0
 40
0.0
 40
0.0
 40
0.0
 40
1.0
 40
1.0
 40
1.0
 40
2.0
 40
2.0
 40
2.0
 40
3.0
 40
3.0
 40
3.0
 40
4.0
 40
4.0
 40
4.0
 40
5.0
 40
5.0
 40
5.0
 40
6.0
 40
6.0
 40
6.0
 40
6.0
 10
2.926017244746333
 20
5.771192725039838
 30
0.0
 10
2.916844678016929
 20
5.771192725039838
 30
0.0
 10
2.90943233976192
 20
5.778601026073552
 30
0.0
 10
2.90943233976192
 20
5.787772247062598
 30
0.0
 10
2.90943233976192
 20
5.787772247062598
 30
0.0
 10
2.90943233976192
 20
7.034841637365659
 30
0.0
 10
2.90943233976192
 20
7.034841637365659
 30
0.0
 10
2.90943233976192
 20
7.044014204095148
 30
0.0
 10
2.916844678016929
 20
7.051422505128854
 30
0.0
 10
2.926017244746333
 20
7.051422505128854
 30
0.0
 10
2.935184428514133
 20
7.051422505128854
 30
0.0
 10
2.942596766769128
 20
7.044014204095148
 30
0.0
 10
2.942596766769128
 20
7.034841637365659
 30
0.0
 10
2.942596766769128
 20
7.034841637365659
 30
0.0
 10
2.942596766769128
 20
5.787772247062598
 30
0.0
 10
2.942596766769128
 20
5.787772247062598
 30
0.0
 10
2.942596766769128
 20
5.778601026073552
 30
0.0
 10
2.935184428514133
 20
5.771192725039838
 30
0.0
 10
2.926017244746333
 20
5.771192725039838
 30
0.0
  0
SPLINE
  5
346
330
1F
100
AcDbEntity
  8
Livello 1
370
     0
100
AcDbSpline
210
0.0
220
0.0
230
1.0
 70
     9
 71
     3
 72
    23
 73
    19
 74
     0
 42
0.000000001
 43
0.0000000001
 40
0.0
 40
0.0
 40
0.0
 40
0.0
 40
1.0
 40
1.0
 40
1.0
 40
2.0
 40
2.0
 40
2.0
 40
3.0
 40
3.0
 40
3.0
 40
4.0
 40
4.0
 40
4.0
 40
5.0
 40
5.0
 40
5.0
 40
6.0
 40
6.0
 40
6.0
 40
6.0
 10
8.510382452293924
 20
5.771192725039838
 30
0.0
 10
8.510382452293924
 20
5.771192725039838
 30
0.0
 10
8.505085617985415
 20
5.771192725039838
 30
0.0
 10
8.505085617985415
 20
5.771192725039838
 30
0.0
 10
8.495918434217628
 20
5.771192725039838
 30
0.0
 10
8.488506095962634
 20
5.778601026073552
 30
0.0
 10
8.488506095962634
 20
5.787772247062598
 30
0.0
 10
8.488506095962634
 20
5.796944813792087
 30
0.0
 10
8.495918434217628
 20
5.804353114825794
 30
0.0
 10
8.505085617985415
 20
5.804353114825794
 30
0.0
 10
8.505085617985415
 20
5.804353114825794
 30
0.0
 10
8.510382452293924
 20
5.804353114825794
 30
0.0
 10
8.510382452293924
 20
5.804353114825794
 30
0.0
 10
8.519549636061725
 20
5.804353114825794
 30
0.0
 10
8.526961974316733
 20
5.796944813792087
 30
0.0
 10
8.526961974316733
 20
5.787772247062598
 30
0.0
 10
8.526961974316733
 20
5.778601026073552
 30
0.0
 10
8.519549636061725
 20
5.771192725039838
 30
0.0
 10
8.510382452293924
 20
5.771192725039838
 30
0.0
  0
SPLINE
  5
347
330
1F
100
AcDbEntity
  8
Livello 1
370
     0
100
AcDbSpline
210
0.0
220
0.0
230
1.0
 70
     9
 71
     3
 72
    32
 73
    28
 74
     0
 42
0.000000001
 43
0.0000000001
 40
0.0
 40
0.0
 40
0.0
 40
0.0
 40
1.0
 40
1.0
 40
1.0
 40
2.0
 40
2.0
 40
2.0
 40
3.0
 40
3.0
 40
3.0
 40
4.0
 40
4.0
 40
4.0
 40
5.0
 40
5.0
 40
5.0
 40
6.0
 40
6.0
 40
6.0
 40
7.0
 40
7.0
 40
7.0
 40
8.0
 40
8.0
 40
8.0
 40
9.0
 40
9.0
 40
9.0
 40
9.0
 10
11.28222553530054
 20
5.771192725039838
 30
0.0
 10
11.28222553530054
 20
5.771192725039838
 30
0.0
 10
8.462468710240528
 20
5.771192725039838
 30
0.0
 10
8.462468710240528
 20
5.771192725039838
 30
0.0
 10
8.453296143511039
 20
5.771192725039838
 30
0.0
 10
8.445889188217734
 20
5.778601026073552
 30
0.0
 10
8.445889188217734
 20
5.787772247062598
 30
0.0
 10
8.445889188217734
 20
5.796944813792087
 30
0.0
 10
8.453296143511039
 20
5.804353114825794
 30
0.0
 10
8.462468710240528
 20
5.804353114825794
 30
0.0
 10
8.462468710240528
 20
5.804353114825794
 30
0.0
 10
11.26564063031612
 20
5.804353114825794
 30
0.0
 10
11.26564063031612
 20
5.804353114825794
 30
0.0
 10
11.26564063031612
 20
5.804353114825794
 30
0.0
 10
11.26564063031612
 20
7.034841637365659
 30
0.0
 10
11.26564063031612
 20
7.034841637365659
 30
0.0
 10
11.26564063031612
 20
7.044014204095148
 30
0.0
 10
11.27305296857104
 20
7.051422505128854
 30
0.0
 10
11.28222553530054
 20
7.051422505128854
 30
0.0
 10
11.29139271906834
 20
7.051422505128854
 30
0.0
 10
11.29880505732333
 20
7.044014204095148
 30
0.0
 10
11.29880505732333
 20
7.034841637365659
 30
0.0
 10
11.29880505732333
 20
7.034841637365659
 30
0.0
 10
11.29880505732333
 20
5.787772247062598
 30
0.0
 10
11.29880505732333
 20
5.787772247062598
 30
0.0
 10
11.29880505732333
 20
5.778601026073552
 30
0.0
 10
11.29139271906834
 20
5.771192725039838
 30
0.0
 10
11.28222553530054
 20
5.771192725039838
 30
0.0
  0
SPLINE
  5
348
330
1F
100
AcDbEntity
  8
Livello 1
370
     0
100
AcDbSpline
210
0.0
220
0.0
230
1.0
 70
     9
 71
     3
 72
    41
 73
    37
 74
     0
 42
0.000000001
 43
0.0000000001
 40
0.0
 40
0.0
 40
0.0
 40
0.0
 40
1.0
 40
1.0
 40
1.0
 40
2.0
 40
2.0
 40
2.0
 40
3.0
 40
3.0
 40
3.0
 40
4.0
 40
4.0
 40
4.0
 40
5.0
 40
5.0
 40
5.0
 40
6.0
 40
6.0
 40
6.0
 40
7.0
 40
7.0
 40
7.0
 40
8.0
 40
8.0
 40
8.0
 40
9.0
 40
9.0
 40
9.0
 40
10.0
 40
10.0
 40
10.0
 40
11.0
 40
11.0
 40
11.0
 40
12.0
 40
12.0
 40
12.0
 40
12.0
 10
11.28222553530054
 20
7.055374944753936
 30
0.0
 10
11.27305296857104
 20
7.055374944753936
 30
0.0
 10
11.26564063031612
 20
7.062783245787635
 30
0.0
 10
11.26564063031612
 20
7.071954466776688
 30
0.0
 10
11.26564063031612
 20
7.071954466776688
 30
0.0
 10
11.26564063031612
 20
7.918621671527866
 30
0.0
 10
11.26564063031612
 20
7.918621671527866
 30
0.0
 10
11.26564063031612
 20
7.918621671527866
 30
0.0
 10
2.942908978547535
 20
7.918621671527866
 30
0.0
 10
2.942908978547535
 20
7.918621671527866
 30
0.0
 10
2.942908978547535
 20
7.918621671527866
 30
0.0
 10
2.942559086037235
 20
7.080069281532963
 30
0.0
 10
2.942559086037235
 20
7.080069281532963
 30
0.0
 10
2.942559086037235
 20
7.070896714803481
 30
0.0
 10
2.93514674778234
 20
7.063488413769768
 30
0.0
 10
2.925974181052836
 20
7.063488413769768
 30
0.0
 10
2.916801614323333
 20
7.063488413769768
 30
0.0
 10
2.909394659030041
 20
7.070896714803481
 30
0.0
 10
2.909394659030041
 20
7.080069281532963
 30
0.0
 10
2.909394659030041
 20
7.080069281532963
 30
0.0
 10
2.909394659030041
 20
7.935202539291047
 30
0.0
 10
2.909394659030041
 20
7.935202539291047
 30
0.0
 10
2.909394659030041
 20
7.944373760280107
 30
0.0
 10
2.917156889795222
 20
7.951782061313814
 30
0.0
 10
2.926329456524726
 20
7.951782061313814
 30
0.0
 10
2.926329456524726
 20
7.951782061313814
 30
0.0
 10
11.28222553530054
 20
7.951782061313814
 30
0.0
 10
11.28222553530054
 20
7.951782061313814
 30
0.0
 10
11.29139271906834
 20
7.951782061313814
 30
0.0
 10
11.29880505732333
 20
7.944373760280107
 30
0.0
 10
11.29880505732333
 20
7.935202539291047
 30
0.0
 10
11.29880505732333
 20
7.935202539291047
 30
0.0
 10
11.29880505732333
 20
7.071954466776688
 30
0.0
 10
11.29880505732333
 20
7.071954466776688
 30
0.0
 10
11.29880505732333
 20
7.062783245787635
 30
0.0
 10
11.29139271906834
 20
7.055374944753936
 30
0.0
 10
11.28222553530054
 20
7.055374944753936
 30
0.0
  0
SPLINE
  5
349
330
1F
100
AcDbEntity
  8
Livello 1
370
     0
100
AcDbSpline
210
0.0
220
0.0
230
1.0
 70
     9
 71
     3
 72
    38
 73
    34
 74
     0
 42
0.000000001
 43
0.0000000001
 40
0.0
 40
0.0
 40
0.0
 40
0.0
 40
1.0
 40
1.0
 40
1.0
 40
2.0
 40
2.0
 40
2.0
 40
3.0
 40
3.0
 40
3.0
 40
4.0
 40
4.0
 40
4.0
 40
5.0
 40
5.0
 40
5.0
 40
6.0
 40
6.0
 40
6.0
 40
7.0
 40
7.0
 40
7.0
 40
8.0
 40
8.0
 40
8.0
 40
9.0
 40
9.0
 40
9.0
 40
10.0
 40
10.0
 40
10.0
 40
11.0
 40
11.0
 40
11.0
 40
11.0
 10
2.928552619705044
 20
4.870691866110362
 30
0.0
 10
2.91938005297564
 20
4.870691866110362
 30
0.0
 10
2.911967714720631
 20
4.878100167144083
 30
0.0
 10
2.911967714720631
 20
4.887271388133136
 30
0.0
 10
2.911967714720631
 20
4.896443954862618
 30
0.0
 10
2.91938005297564
 20
4.903852255896325
 30
0.0
 10
2.928552619705044
 20
4.903852255896325
 30
0.0
 10
2.928552619705044
 20
4.903852255896325
 30
0.0
 10
8.294654879377034
 20
4.903852255896325
 30
0.0
 10
8.294654879377034
 20
4.903852255896325
 30
0.0
 10
8.294654879377034
 20
4.903852255896325
 30
0.0
 10
11.26539301407814
 20
4.939129495369108
 30
0.0
 10
11.26539301407814
 20
4.939129495369108
 30
0.0
 10
11.26539301407814
 20
4.939129495369108
 30
0.0
 10
11.26539301407814
 20
5.74240464589122
 30
0.0
 10
11.26539301407814
 20
5.74240464589122
 30
0.0
 10
11.26539301407814
 20
5.751929796611776
 30
0.0
 10
11.27315524484332
 20
5.759338097645475
 30
0.0
 10
11.28232781157272
 20
5.759338097645475
 30
0.0
 10
11.29150037830223
 20
5.759338097645475
 30
0.0
 10
11.29890733359554
 20
5.751929796611776
 30
0.0
 10
11.29890733359554
 20
5.74240464589122
 30
0.0
 10
11.29890733359554
 20
5.74240464589122
 30
0.0
 10
11.29890733359554
 20
4.922902557337408
 30
0.0
 10
11.29890733359554
 20
4.922902557337408
 30
0.0
 10
11.29890733359554
 20
4.91372999060794
 30
0.0
 10
11.29150037830223
 20
4.906321689574227
 30
0.0
 10
11.28232781157272
 20
4.906321689574227
 30
0.0
 10
11.28232781157272
 20
4.906321689574227
 30
0.0
 10
8.294654879377034
 20
4.870691866110362
 30
0.0
 10
8.294654879377034
 20
4.870691866110362
 30
0.0
 10
8.294654879377034
 20
4.870691866110362
 30
0.0
 10
2.928552619705044
 20
4.870691866110362
 30
0.0
 10
2.928552619705044
 20
4.870691866110362
 30
0.0
  0
SPLINE
  5
34A
330
1F
100
AcDbEntity
  8
Livello 1
370
     0
100
AcDbSpline
210
0.0
220
0.0
230
1.0
 70
     9
 71
     3
 72
    44
 73
    40
 74
     0
 42
0.000000001
 43
0.0000000001
 40
0.0
 40
0.0
 40
0.0
 40
0.0
 40
1.0
 40
1.0
 40
1.0
 40
2.0
 40
2.0
 40
2.0
 40
3.0
 40
3.0
 40
3.0
 40
4.0
 40
4.0
 40
4.0
 40
5.0
 40
5.0
 40
5.0
 40
6.0
 40
6.0
 40
6.0
 40
7.0
 40
7.0
 40
7.0
 40
8.0
 40
8.0
 40
8.0
 40
9.0
 40
9.0
 40
9.0
 40
10.0
 40
10.0
 40
10.0
 40
11.0
 40
11.0
 40
11.0
 40
12.0
 40
12.0
 40
12.0
 40
13.0
 40
13.0
 40
13.0
 40
13.0
 10
10.94659249061183
 20
6.394656768819118
 30
0.0
 10
10.93812509186443
 20
6.394656768819118
 30
0.0
 10
10.93106802908134
 20
6.401005972139188
 30
0.0
 10
10.93000758562732
 20
6.409473370886537
 30
0.0
 10
10.93000758562732
 20
6.409473370886537
 30
0.0
 10
10.92471613428043
 20
6.454628345070936
 30
0.0
 10
10.92471613428043
 20
6.454628345070936
 30
0.0
 10
10.89614337359963
 20
6.581628560357657
 30
0.0
 10
10.79207457513662
 20
6.627490048264618
 30
0.0
 10
10.71164236147943
 20
6.627490048264618
 30
0.0
 10
10.63156004033243
 20
6.627490048264618
 30
0.0
 10
10.52784113437962
 20
6.581628560357657
 30
0.0
 10
10.49926837369892
 20
6.452864079375174
 30
0.0
 10
10.49926837369892
 20
6.452864079375174
 30
0.0
 10
10.49432681486223
 20
6.409473370886537
 30
0.0
 10
10.49432681486223
 20
6.409473370886537
 30
0.0
 10
10.49327175436983
 20
6.400300804157069
 30
0.0
 10
10.48621469158684
 20
6.393245087114415
 30
0.0
 10
10.47563178889302
 20
6.394656768819118
 30
0.0
 10
10.46645922216353
 20
6.395714520792324
 30
0.0
 10
10.46010732736263
 20
6.404180573799237
 30
0.0
 10
10.46116777081673
 20
6.413353140528712
 30
0.0
 10
10.46116777081673
 20
6.413353140528712
 30
0.0
 10
10.46645922216353
 20
6.458509460453541
 30
0.0
 10
10.46645922216353
 20
6.458509460453541
 30
0.0
 10
10.49362164688013
 20
6.581981144348731
 30
0.0
 10
10.58993359753962
 20
6.660650438050573
 30
0.0
 10
10.71164236147943
 20
6.660650438050573
 30
0.0
 10
10.81183004455984
 20
6.660650438050573
 30
0.0
 10
10.92648174571663
 20
6.598914596102972
 30
0.0
 10
10.95752528581573
 20
6.460272380408888
 30
0.0
 10
10.95752528581573
 20
6.460272380408888
 30
0.0
 10
10.96317201263454
 20
6.413353140528712
 30
0.0
 10
10.96317201263454
 20
6.413353140528712
 30
0.0
 10
10.96422707312692
 20
6.404180573799237
 30
0.0
 10
10.95752528581573
 20
6.395714520792324
 30
0.0
 10
10.94870799455822
 20
6.394656768819118
 30
0.0
 10
10.94800282657604
 20
6.394656768819118
 30
0.0
 10
10.94729765859392
 20
6.394656768819118
 30
0.0
 10
10.94659249061183
 20
6.394656768819118
 30
0.0
  0
SPLINE
  5
34B
330
1F
100
AcDbEntity
  8
Livello 1
370
     0
100
AcDbSpline
210
0.0
220
0.0
230
1.0
 70
     9
 71
     3
 72
    47
 73
    43
 74
     0
 42
0.000000001
 43
0.0000000001
 40
0.0
 40
0.0
 40
0.0
 40
0.0
 40
1.0
 40
1.0
 40
1.0
 40
2.0
 40
2.0
 40
2.0
 40
3.0
 40
3.0
 40
3.0
 40
4.0
 40
4.0
 40
4.0
 40
5.0
 40
5.0
 40
5.0
 40
6.0
 40
6.0
 40
6.0
 40
7.0
 40
7.0
 40
7.0
 40
8.0
 40
8.0
 40
8.0
 40
9.0
 40
9.0
 40
9.0
 40
10.0
 40
10.0
 40
10.0
 40
11.0
 40
11.0
 40
11.0
 40
12.0
 40
12.0
 40
12.0
 40
13.0
 40
13.0
 40
13.0
 40
14.0
 40
14.0
 40
14.0
 40
14.0
 10
10.71161006370921
 20
6.161259624135993
 30
0.0
 10
10.58954602429754
 20
6.161259624135993
 30
0.0
 10
10.49358934910994
 20
6.240281501828903
 30
0.0
 10
10.46678219986533
 20
6.362342849759812
 30
0.0
 10
10.46678219986533
 20
6.362342849759812
 30
0.0
 10
10.46113547304652
 20
6.40926208963998
 30
0.0
 10
10.46113547304652
 20
6.40926208963998
 30
0.0
 10
10.46007502959243
 20
6.418433310629033
 30
0.0
 10
10.46678219986533
 20
6.426900709376369
 30
0.0
 10
10.47559949112283
 20
6.427958461349582
 30
0.0
 10
10.48618239381662
 20
6.429017559063218
 30
0.0
 10
10.49323945659972
 20
6.422314426011638
 30
0.0
 10
10.49429451709203
 20
6.413141859282163
 30
0.0
 10
10.49429451709203
 20
6.413141859282163
 30
0.0
 10
10.49958596843892
 20
6.367986885097764
 30
0.0
 10
10.49958596843892
 20
6.367986885097764
 30
0.0
 10
10.52780883660954
 20
6.240281501828903
 30
0.0
 10
10.63152774256233
 20
6.194420013921927
 30
0.0
 10
10.71161006370921
 20
6.194420013921927
 30
0.0
 10
10.71161006370921
 20
6.194420013921927
 30
0.0
 10
10.71195995621954
 20
6.194420013921927
 30
0.0
 10
10.71195995621954
 20
6.194420013921927
 30
0.0
 10
10.79274744534862
 20
6.194772597913008
 30
0.0
 10
10.89681624381163
 20
6.240634085819969
 30
0.0
 10
10.92503911198223
 20
6.36939722106203
 30
0.0
 10
10.92503911198223
 20
6.36939722106203
 30
0.0
 10
10.92997528785713
 20
6.413141859282163
 30
0.0
 10
10.92997528785713
 20
6.413141859282163
 30
0.0
 10
10.93103573131122
 20
6.422314426011638
 30
0.0
 10
10.93985302256872
 20
6.429017559063218
 30
0.0
 10
10.94867569678804
 20
6.427958461349582
 30
0.0
 10
10.95784826351753
 20
6.426900709376369
 30
0.0
 10
10.96419477535673
 20
6.418433310629033
 30
0.0
 10
10.96313971486442
 20
6.40926208963998
 30
0.0
 10
10.96313971486442
 20
6.40926208963998
 30
0.0
 10
10.95784826351753
 20
6.364105769715152
 30
0.0
 10
10.95784826351753
 20
6.364105769715152
 30
0.0
 10
10.92715461592863
 20
6.223700634065714
 30
0.0
 10
10.81250291477184
 20
6.161259624135993
 30
0.0
 10
10.71195995621954
 20
6.161259624135993
 30
0.0
 10
10.71195995621954
 20
6.161259624135993
 30
0.0
 10
10.71161006370921
 20
6.161259624135993
 30
0.0
 10
10.71161006370921
 20
6.161259624135993
 30
0.0
  0
SPLINE
  5
34C
330
1F
100
AcDbEntity
  8
Livello 1
370
     0
100
AcDbSpline
210
0.0
220
0.0
230
1.0
 70
    11
 71
     3
 72
    38
 73
    34
 74
     0
 42
0.000000001
 43
0.0000000001
 40
0.0
 40
0.0
 40
0.0
 40
0.0
 40
1.0
 40
1.0
 40
1.0
 40
2.0
 40
2.0
 40
2.0
 40
3.0
 40
3.0
 40
3.0
 40
4.0
 40
4.0
 40
4.0
 40
5.0
 40
5.0
 40
5.0
 40
6.0
 40
6.0
 40
6.0
 40
7.0
 40
7.0
 40
7.0
 40
8.0
 40
8.0
 40
8.0
 40
9.0
 40
9.0
 40
9.0
 40
10.0
 40
10.0
 40
10.0
 40
11.0
 40
11.0
 40
11.0
 40
11.0
 10
13.75456062955821
 20
6.503982029377993
 30
0.0
 10
13.75456062955821
 20
6.503982029377993
 30
0.0
 10
13.71151846783942
 20
6.512448082384914
 30
0.0
 10
13.71151846783942
 20
6.512448082384914
 30
0.0
 10
13.59122542282554
 20
6.543492968224448
 30
0.0
 10
13.51008265822455
 20
6.641212563367396
 30
0.0
 10
13.50444131436743
 20
6.761509645602544
 30
0.0
 10
13.49844469503843
 20
6.884628745506653
 30
0.0
 10
13.57040950994823
 20
6.991520907379076
 30
0.0
 10
13.68788726599523
 20
7.034559031876639
 30
0.0
 10
13.68788726599523
 20
7.034559031876639
 30
0.0
 10
13.72915843331623
 20
7.045495864301884
 30
0.0
 10
13.72915843331623
 20
7.045495864301884
 30
0.0
 10
13.72915843331623
 20
7.045495864301884
 30
0.0
 10
13.77502126696363
 20
7.048670465961926
 30
0.0
 10
13.77502126696363
 20
7.048670465961926
 30
0.0
 10
13.77572643494571
 20
7.049023049952992
 30
0.0
 10
13.77643160292783
 20
7.049023049952992
 30
0.0
 10
13.77713677091003
 20
7.048670465961926
 30
0.0
 10
13.77713677091003
 20
7.048670465961926
 30
0.0
 10
13.81700298522843
 20
7.046201032284024
 30
0.0
 10
13.81700298522843
 20
7.046201032284024
 30
0.0
 10
13.81700298522843
 20
7.046201032284024
 30
0.0
 10
13.86039503945743
 20
7.034911615867713
 30
0.0
 10
13.86039503945743
 20
7.034911615867713
 30
0.0
 10
13.98880559070842
 20
6.987287208005405
 30
0.0
 10
14.06077040561834
 20
6.873339329090342
 30
0.0
 10
14.04595649503171
 20
6.744928777839355
 30
0.0
 10
14.03078192601154
 20
6.615459128874725
 30
0.0
 10
13.93306502234944
 20
6.521268065123322
 30
0.0
 10
13.79689224033323
 20
6.503982029377993
 30
0.0
 10
13.79689224033323
 20
6.503982029377993
 30
0.0
 10
13.75456062955821
 20
6.503982029377993
 30
0.0
 10
13.75456062955821
 20
6.503982029377993
 30
0.0
  0
SPLINE
  5
34D
330
1F
100
AcDbEntity
  8
Livello 1
370
     0
100
AcDbSpline
210
0.0
220
0.0
230
1.0
 70
    11
 71
     3
 72
    35
 73
    31
 74
     0
 42
0.000000001
 43
0.0000000001
 40
0.0
 40
0.0
 40
0.0
 40
0.0
 40
1.0
 40
1.0
 40
1.0
 40
2.0
 40
2.0
 40
2.0
 40
3.0
 40
3.0
 40
3.0
 40
4.0
 40
4.0
 40
4.0
 40
5.0
 40
5.0
 40
5.0
 40
6.0
 40
6.0
 40
6.0
 40
7.0
 40
7.0
 40
7.0
 40
8.0
 40
8.0
 40
8.0
 40
9.0
 40
9.0
 40
9.0
 40
10.0
 40
10.0
 40
10.0
 40
10.0
 10
13.77608171041763
 20
7.015510076175971
 30
0.0
 10
13.77608171041763
 20
7.015510076175971
 30
0.0
 10
13.73444988466312
 20
7.013039296757654
 30
0.0
 10
13.73444988466312
 20
7.013039296757654
 30
0.0
 10
13.73444988466312
 20
7.013039296757654
 30
0.0
 10
13.69776500070684
 20
7.002808978054964
 30
0.0
 10
13.69776500070684
 20
7.002808978054964
 30
0.0
 10
13.59581170619022
 20
6.965414888895338
 30
0.0
 10
13.53230890706604
 20
6.871223825143928
 30
0.0
 10
13.53760035841293
 20
6.763273911298298
 30
0.0
 10
13.54183674926742
 20
6.679311820509148
 30
0.0
 10
13.59157531533573
 20
6.577712455724032
 30
0.0
 10
13.71893080609433
 20
6.544903304188729
 30
0.0
 10
13.71893080609433
 20
6.544903304188729
 30
0.0
 10
13.75808646946893
 20
6.537142419163956
 30
0.0
 10
13.75808646946893
 20
6.537142419163956
 30
0.0
 10
13.75808646946893
 20
6.537142419163956
 30
0.0
 10
13.79477673638684
 20
6.537142419163956
 30
0.0
 10
13.79477673638684
 20
6.537142419163956
 30
0.0
 10
13.93906164167842
 20
6.555487552622899
 30
0.0
 10
14.00256444080263
 20
6.6623783687549
 30
0.0
 10
14.01279206802454
 20
6.748455963490457
 30
0.0
 10
14.02266980273613
 20
6.834534903966435
 30
0.0
 10
13.98633481129013
 20
6.952715136514754
 30
0.0
 10
13.85016202927393
 20
7.003161562046031
 30
0.0
 10
13.85016202927393
 20
7.003161562046031
 30
0.0
 10
13.81171153388153
 20
7.013393226489135
 30
0.0
 10
13.81171153388153
 20
7.013393226489135
 30
0.0
 10
13.81171153388153
 20
7.013393226489135
 30
0.0
 10
13.77608171041763
 20
7.015510076175971
 30
0.0
 10
13.77608171041763
 20
7.015510076175971
 30
0.0
  0
SPLINE
  5
34E
330
1F
100
AcDbEntity
  8
Livello 1
370
     0
100
AcDbSpline
210
0.0
220
0.0
230
1.0
 70
     9
 71
     3
 72
    41
 73
    37
 74
     0
 42
0.000000001
 43
0.0000000001
 40
0.0
 40
0.0
 40
0.0
 40
0.0
 40
1.0
 40
1.0
 40
1.0
 40
2.0
 40
2.0
 40
2.0
 40
3.0
 40
3.0
 40
3.0
 40
4.0
 40
4.0
 40
4.0
 40
5.0
 40
5.0
 40
5.0
 40
6.0
 40
6.0
 40
6.0
 40
7.0
 40
7.0
 40
7.0
 40
8.0
 40
8.0
 40
8.0
 40
9.0
 40
9.0
 40
9.0
 40
10.0
 40
10.0
 40
10.0
 40
11.0
 40
11.0
 40
11.0
 40
12.0
 40
12.0
 40
12.0
 40
12.0
 10
11.40926343131913
 20
5.788585074278664
 30
0.0
 10
11.40220636853612
 20
5.788585074278664
 30
0.0
 10
11.39585447373514
 20
5.792817427911906
 30
0.0
 10
11.39338369431682
 20
5.799873144954538
 30
0.0
 10
11.39056302238822
 20
5.808693127692961
 30
0.0
 10
11.39514930575304
 20
5.818218278413496
 30
0.0
 10
11.40396659701053
 20
5.821040296082472
 30
0.0
 10
11.40396659701053
 20
5.821040296082472
 30
0.0
 10
11.41208410324772
 20
5.823862313751448
 30
0.0
 10
11.41208410324772
 20
5.823862313751448
 30
0.0
 10
11.64703423238005
 20
5.928990209928102
 30
0.0
 10
11.79378991709004
 20
6.154415188339903
 30
0.0
 10
11.79272947363591
 20
6.410885052591233
 30
0.0
 10
11.79167441314354
 20
6.668060084824716
 30
0.0
 10
11.64315311699742
 20
6.892425965522882
 30
0.0
 10
11.40538231593655
 20
6.996848693717396
 30
0.0
 10
11.40326142902843
 20
6.997553861699543
 30
0.0
 10
11.40185109306414
 20
6.998965543404224
 30
0.0
 10
11.40044075709993
 20
7.000375879368498
 30
0.0
 10
11.39373896978871
 20
7.006726428429011
 30
0.0
 10
11.39232863382442
 20
7.018721012827462
 30
0.0
 10
11.39867514566371
 20
7.02507021614754
 30
0.0
 10
11.40502704046463
 20
7.031773349199113
 30
0.0
 10
11.41419960719413
 20
7.033185030903815
 30
0.0
 10
11.42090139450523
 20
7.026834481843309
 30
0.0
 10
11.66890520574972
 20
6.917825470284064
 30
0.0
 10
11.82483345718914
 20
6.681465005187426
 30
0.0
 10
11.82589390064314
 20
6.410885052591233
 30
0.0
 10
11.82694896113554
 20
6.14100892223675
 30
0.0
 10
11.67278632113222
 20
5.90429587314906
 30
0.0
 10
11.42407734190573
 20
5.792817427911906
 30
0.0
 10
11.42407734190573
 20
5.792817427911906
 30
0.0
 10
11.41455488266604
 20
5.789642826251863
 30
0.0
 10
11.41455488266604
 20
5.789642826251863
 30
0.0
 10
11.41278927122984
 20
5.788937658269723
 30
0.0
 10
11.41102365979363
 20
5.788585074278664
 30
0.0
 10
11.40926343131913
 20
5.788585074278664
 30
0.0
  0
SPLINE
  5
34F
330
1F
100
AcDbEntity
  8
Livello 1
370
     0
100
AcDbSpline
210
0.0
220
0.0
230
1.0
 70
     9
 71
     3
 72
    23
 73
    19
 74
     0
 42
0.000000001
 43
0.0000000001
 40
0.0
 40
0.0
 40
0.0
 40
0.0
 40
1.0
 40
1.0
 40
1.0
 40
2.0
 40
2.0
 40
2.0
 40
3.0
 40
3.0
 40
3.0
 40
4.0
 40
4.0
 40
4.0
 40
5.0
 40
5.0
 40
5.0
 40
6.0
 40
6.0
 40
6.0
 40
6.0
 10
11.40749781988292
 20
5.787208381824981
 30
0.0
 10
11.40749781988292
 20
5.787208381824981
 30
0.0
 10
11.29037533930784
 20
5.787208381824981
 30
0.0
 10
11.29037533930784
 20
5.787208381824981
 30
0.0
 10
11.28120277257834
 20
5.787208381824981
 30
0.0
 10
11.27344054181313
 20
5.794616682858688
 30
0.0
 10
11.27344054181313
 20
5.803787903847755
 30
0.0
 10
11.27344054181313
 20
5.812960470577223
 30
0.0
 10
11.28120277257834
 20
5.820368771610937
 30
0.0
 10
11.29037533930784
 20
5.820368771610937
 30
0.0
 10
11.29037533930784
 20
5.820368771610937
 30
0.0
 10
11.40749781988292
 20
5.820368771610937
 30
0.0
 10
11.40749781988292
 20
5.820368771610937
 30
0.0
 10
11.41666500365072
 20
5.820368771610937
 30
0.0
 10
11.42407734190573
 20
5.812960470577223
 30
0.0
 10
11.42407734190573
 20
5.803787903847755
 30
0.0
 10
11.42407734190573
 20
5.794616682858688
 30
0.0
 10
11.41666500365072
 20
5.787208381824981
 30
0.0
 10
11.40749781988292
 20
5.787208381824981
 30
0.0
  0
SPLINE
  5
350
330
1F
100
AcDbEntity
  8
Livello 1
370
     0
100
AcDbSpline
210
0.0
220
0.0
230
1.0
 70
     9
 71
     3
 72
    23
 73
    19
 74
     0
 42
0.000000001
 43
0.0000000001
 40
0.0
 40
0.0
 40
0.0
 40
0.0
 40
1.0
 40
1.0
 40
1.0
 40
2.0
 40
2.0
 40
2.0
 40
3.0
 40
3.0
 40
3.0
 40
4.0
 40
4.0
 40
4.0
 40
5.0
 40
5.0
 40
5.0
 40
6.0
 40
6.0
 40
6.0
 40
6.0
 10
11.40749781988292
 20
6.999459430139808
 30
0.0
 10
11.40749781988292
 20
6.999459430139808
 30
0.0
 10
11.29037533930784
 20
6.999459430139808
 30
0.0
 10
11.29037533930784
 20
6.999459430139808
 30
0.0
 10
11.28120277257834
 20
6.999459430139808
 30
0.0
 10
11.27344054181313
 20
7.006867731173528
 30
0.0
 10
11.27344054181313
 20
7.016038952162574
 30
0.0
 10
11.27344054181313
 20
7.025211518892064
 30
0.0
 10
11.28120277257834
 20
7.032619819925756
 30
0.0
 10
11.29037533930784
 20
7.032619819925756
 30
0.0
 10
11.29037533930784
 20
7.032619819925756
 30
0.0
 10
11.40749781988292
 20
7.032619819925756
 30
0.0
 10
11.40749781988292
 20
7.032619819925756
 30
0.0
 10
11.41666500365072
 20
7.032619819925756
 30
0.0
 10
11.42407734190573
 20
7.025211518892064
 30
0.0
 10
11.42407734190573
 20
7.016038952162574
 30
0.0
 10
11.42407734190573
 20
7.006867731173528
 30
0.0
 10
11.41666500365072
 20
6.999459430139808
 30
0.0
 10
11.40749781988292
 20
6.999459430139808
 30
0.0
  0
SPLINE
  5
351
330
1F
100
AcDbEntity
  8
Livello 1
370
     0
100
AcDbSpline
210
0.0
220
0.0
230
1.0
 70
     9
 71
     3
 72
    32
 73
    28
 74
     0
 42
0.000000001
 43
0.0000000001
 40
0.0
 40
0.0
 40
0.0
 40
0.0
 40
1.0
 40
1.0
 40
1.0
 40
2.0
 40
2.0
 40
2.0
 40
3.0
 40
3.0
 40
3.0
 40
4.0
 40
4.0
 40
4.0
 40
5.0
 40
5.0
 40
5.0
 40
6.0
 40
6.0
 40
6.0
 40
7.0
 40
7.0
 40
7.0
 40
8.0
 40
8.0
 40
8.0
 40
9.0
 40
9.0
 40
9.0
 40
9.0
 10
13.46705126242904
 20
5.520862128602459
 30
0.0
 10
13.46705126242904
 20
5.520862128602459
 30
0.0
 10
11.29040763707803
 20
5.520862128602459
 30
0.0
 10
11.29040763707803
 20
5.520862128602459
 30
0.0
 10
11.28088517783834
 20
5.520862128602459
 30
0.0
 10
11.27347822254503
 20
5.528270429636158
 30
0.0
 10
11.27347822254503
 20
5.537441650625218
 30
0.0
 10
11.27347822254503
 20
5.546614217354687
 30
0.0
 10
11.28088517783834
 20
5.554022518388407
 30
0.0
 10
11.29040763707803
 20
5.554022518388407
 30
0.0
 10
11.29040763707803
 20
5.554022518388407
 30
0.0
 10
13.45046635744462
 20
5.554022518388407
 30
0.0
 10
13.45046635744462
 20
5.554022518388407
 30
0.0
 10
13.45046635744462
 20
5.554022518388407
 30
0.0
 10
13.45046635744462
 20
5.593533457234862
 30
0.0
 10
13.45046635744462
 20
5.593533457234862
 30
0.0
 10
13.45046635744462
 20
5.602706023964337
 30
0.0
 10
13.45787869569953
 20
5.610114324998043
 30
0.0
 10
13.46705126242904
 20
5.610114324998043
 30
0.0
 10
13.47621844619684
 20
5.610114324998043
 30
0.0
 10
13.48363078445183
 20
5.602706023964337
 30
0.0
 10
13.48363078445183
 20
5.593533457234862
 30
0.0
 10
13.48363078445183
 20
5.593533457234862
 30
0.0
 10
13.48363078445183
 20
5.537441650625218
 30
0.0
 10
13.48363078445183
 20
5.537441650625218
 30
0.0
 10
13.48363078445183
 20
5.528270429636158
 30
0.0
 10
13.47621844619684
 20
5.520862128602459
 30
0.0
 10
13.46705126242904
 20
5.520862128602459
 30
0.0
  0
SPLINE
  5
352
330
1F
100
AcDbEntity
  8
Livello 1
370
     0
100
AcDbSpline
210
0.0
220
0.0
230
1.0
 70
     9
 71
     3
 72
    20
 73
    16
 74
     0
 42
0.000000001
 43
0.0000000001
 40
0.0
 40
0.0
 40
0.0
 40
0.0
 40
1.0
 40
1.0
 40
1.0
 40
2.0
 40
2.0
 40
2.0
 40
3.0
 40
3.0
 40
3.0
 40
4.0
 40
4.0
 40
4.0
 40
5.0
 40
5.0
 40
5.0
 40
5.0
 10
13.46701358169713
 20
7.265946986106854
 30
0.0
 10
13.45784101496773
 20
7.265946986106854
 30
0.0
 10
13.45042867671272
 20
7.273355287140574
 30
0.0
 10
13.45042867671272
 20
7.28252650812962
 30
0.0
 10
13.45042867671272
 20
7.291699074859089
 30
0.0
 10
13.45784101496773
 20
7.300519057597504
 30
0.0
 10
13.46701358169713
 20
7.300519057597504
 30
0.0
 10
13.47618076546493
 20
7.300519057597504
 30
0.0
 10
13.48359310371992
 20
7.294521092528071
 30
0.0
 10
13.48359310371992
 20
7.285348525798589
 30
0.0
 10
13.48359310371992
 20
7.285348525798589
 30
0.0
 10
13.48359310371992
 20
7.28252650812962
 30
0.0
 10
13.48359310371992
 20
7.28252650812962
 30
0.0
 10
13.48359310371992
 20
7.273355287140574
 30
0.0
 10
13.47618076546493
 20
7.265946986106854
 30
0.0
 10
13.46701358169713
 20
7.265946986106854
 30
0.0
  0
SPLINE
  5
353
330
1F
100
AcDbEntity
  8
Livello 1
370
     0
100
AcDbSpline
210
0.0
220
0.0
230
1.0
 70
     9
 71
     3
 72
    23
 73
    19
 74
     0
 42
0.000000001
 43
0.0000000001
 40
0.0
 40
0.0
 40
0.0
 40
0.0
 40
1.0
 40
1.0
 40
1.0
 40
2.0
 40
2.0
 40
2.0
 40
3.0
 40
3.0
 40
3.0
 40
4.0
 40
4.0
 40
4.0
 40
5.0
 40
5.0
 40
5.0
 40
6.0
 40
6.0
 40
6.0
 40
6.0
 10
13.46701358169713
 20
7.268664036022762
 30
0.0
 10
13.45784101496773
 20
7.268664036022762
 30
0.0
 10
13.45042867671272
 20
7.276072337056469
 30
0.0
 10
13.45042867671272
 20
7.285243558045522
 30
0.0
 10
13.45042867671272
 20
7.285243558045522
 30
0.0
 10
13.45042867671272
 20
7.338513346986196
 30
0.0
 10
13.45042867671272
 20
7.338513346986196
 30
0.0
 10
13.45042867671272
 20
7.347685913715679
 30
0.0
 10
13.45784101496773
 20
7.356504550713658
 30
0.0
 10
13.46701358169713
 20
7.356504550713658
 30
0.0
 10
13.47618076546493
 20
7.356504550713658
 30
0.0
 10
13.48359310371992
 20
7.350507931384647
 30
0.0
 10
13.48359310371992
 20
7.341335364655172
 30
0.0
 10
13.48359310371992
 20
7.341335364655172
 30
0.0
 10
13.48359310371992
 20
7.285243558045522
 30
0.0
 10
13.48359310371992
 20
7.285243558045522
 30
0.0
 10
13.48359310371992
 20
7.276072337056469
 30
0.0
 10
13.47618076546493
 20
7.268664036022762
 30
0.0
 10
13.46701358169713
 20
7.268664036022762
 30
0.0
  0
SPLINE
  5
354
330
1F
100
AcDbEntity
  8
Livello 1
370
     0
100
AcDbSpline
210
0.0
220
0.0
230
1.0
 70
     9
 71
     3
 72
    23
 73
    19
 74
     0
 42
0.000000001
 43
0.0000000001
 40
0.0
 40
0.0
 40
0.0
 40
0.0
 40
1.0
 40
1.0
 40
1.0
 40
2.0
 40
2.0
 40
2.0
 40
3.0
 40
3.0
 40
3.0
 40
4.0
 40
4.0
 40
4.0
 40
5.0
 40
5.0
 40
5.0
 40
6.0
 40
6.0
 40
6.0
 40
6.0
 10
13.46705126242904
 20
7.324614539887896
 30
0.0
 10
13.46705126242904
 20
7.324614539887896
 30
0.0
 10
11.29040763707803
 20
7.324614539887896
 30
0.0
 10
11.29040763707803
 20
7.324614539887896
 30
0.0
 10
11.28088517783834
 20
7.324614539887896
 30
0.0
 10
11.27347822254503
 20
7.332022840921617
 30
0.0
 10
11.27347822254503
 20
7.341194061910663
 30
0.0
 10
11.27347822254503
 20
7.350366628640138
 30
0.0
 10
11.28088517783834
 20
7.357774929673851
 30
0.0
 10
11.29040763707803
 20
7.357774929673851
 30
0.0
 10
11.29040763707803
 20
7.357774929673851
 30
0.0
 10
13.46705126242904
 20
7.357774929673851
 30
0.0
 10
13.46705126242904
 20
7.357774929673851
 30
0.0
 10
13.47621844619684
 20
7.357774929673851
 30
0.0
 10
13.48363078445183
 20
7.350366628640138
 30
0.0
 10
13.48363078445183
 20
7.341194061910663
 30
0.0
 10
13.48363078445183
 20
7.332022840921617
 30
0.0
 10
13.47621844619684
 20
7.324614539887896
 30
0.0
 10
13.46705126242904
 20
7.324614539887896
 30
0.0
  0
SPLINE
  5
355
330
1F
100
AcDbEntity
  8
Livello 1
370
     0
100
AcDbSpline
210
0.0
220
0.0
230
1.0
 70
     9
 71
     3
 72
    23
 73
    19
 74
     0
 42
0.000000001
 43
0.0000000001
 40
0.0
 40
0.0
 40
0.0
 40
0.0
 40
1.0
 40
1.0
 40
1.0
 40
2.0
 40
2.0
 40
2.0
 40
3.0
 40
3.0
 40
3.0
 40
4.0
 40
4.0
 40
4.0
 40
5.0
 40
5.0
 40
5.0
 40
6.0
 40
6.0
 40
6.0
 40
6.0
 10
13.46694360319513
 20
5.576847621718599
 30
0.0
 10
13.45777103646563
 20
5.576847621718599
 30
0.0
 10
13.45035869821063
 20
5.584255922752326
 30
0.0
 10
13.45035869821063
 20
5.593427143741372
 30
0.0
 10
13.45035869821063
 20
5.593427143741372
 30
0.0
 10
13.45035869821063
 20
5.721486456741715
 30
0.0
 10
13.45035869821063
 20
5.721486456741715
 30
0.0
 10
13.45035869821063
 20
5.730657677730775
 30
0.0
 10
13.45777103646563
 20
5.738065978764495
 30
0.0
 10
13.46694360319513
 20
5.738065978764495
 30
0.0
 10
13.47611078696292
 20
5.738065978764495
 30
0.0
 10
13.48352312521793
 20
5.730657677730775
 30
0.0
 10
13.48352312521793
 20
5.721486456741715
 30
0.0
 10
13.48352312521793
 20
5.721486456741715
 30
0.0
 10
13.48352312521793
 20
5.593427143741372
 30
0.0
 10
13.48352312521793
 20
5.593427143741372
 30
0.0
 10
13.48352312521793
 20
5.584255922752326
 30
0.0
 10
13.47611078696292
 20
5.576847621718599
 30
0.0
 10
13.46694360319513
 20
5.576847621718599
 30
0.0
  0
SPLINE
  5
356
330
1F
100
AcDbEntity
  8
Livello 1
370
     0
100
AcDbSpline
210
0.0
220
0.0
230
1.0
 70
     9
 71
     3
 72
    23
 73
    19
 74
     0
 42
0.000000001
 43
0.0000000001
 40
0.0
 40
0.0
 40
0.0
 40
0.0
 40
1.0
 40
1.0
 40
1.0
 40
2.0
 40
2.0
 40
2.0
 40
3.0
 40
3.0
 40
3.0
 40
4.0
 40
4.0
 40
4.0
 40
5.0
 40
5.0
 40
5.0
 40
6.0
 40
6.0
 40
6.0
 40
6.0
 10
13.46694360319513
 20
5.704729296983003
 30
0.0
 10
13.45777103646563
 20
5.704729296983003
 30
0.0
 10
13.45035869821063
 20
5.71213759801671
 30
0.0
 10
13.45035869821063
 20
5.721308819005756
 30
0.0
 10
13.45035869821063
 20
5.721308819005756
 30
0.0
 10
13.45035869821063
 20
5.833139848233997
 30
0.0
 10
13.45035869821063
 20
5.833139848233997
 30
0.0
 10
13.45035869821063
 20
5.842312414963465
 30
0.0
 10
13.45777103646563
 20
5.850073299988245
 30
0.0
 10
13.46694360319513
 20
5.850073299988245
 30
0.0
 10
13.47611078696292
 20
5.850073299988245
 30
0.0
 10
13.48352312521793
 20
5.842312414963465
 30
0.0
 10
13.48352312521793
 20
5.833139848233997
 30
0.0
 10
13.48352312521793
 20
5.833139848233997
 30
0.0
 10
13.48352312521793
 20
5.721308819005756
 30
0.0
 10
13.48352312521793
 20
5.721308819005756
 30
0.0
 10
13.48352312521793
 20
5.71213759801671
 30
0.0
 10
13.47611078696292
 20
5.704729296983003
 30
0.0
 10
13.46694360319513
 20
5.704729296983003
 30
0.0
  0
SPLINE
  5
357
330
1F
100
AcDbEntity
  8
Livello 1
370
     0
100
AcDbSpline
210
0.0
220
0.0
230
1.0
 70
     9
 71
     3
 72
    23
 73
    19
 74
     0
 42
0.000000001
 43
0.0000000001
 40
0.0
 40
0.0
 40
0.0
 40
0.0
 40
1.0
 40
1.0
 40
1.0
 40
2.0
 40
2.0
 40
2.0
 40
3.0
 40
3.0
 40
3.0
 40
4.0
 40
4.0
 40
4.0
 40
5.0
 40
5.0
 40
5.0
 40
6.0
 40
6.0
 40
6.0
 40
6.0
 10
13.46694360319513
 20
5.797157440779066
 30
0.0
 10
13.45777103646563
 20
5.797157440779066
 30
0.0
 10
13.45035869821063
 20
5.804565741812773
 30
0.0
 10
13.45035869821063
 20
5.813736962801819
 30
0.0
 10
13.45035869821063
 20
5.813736962801819
 30
0.0
 10
13.45035869821063
 20
7.157468196274635
 30
0.0
 10
13.45035869821063
 20
7.157468196274635
 30
0.0
 10
13.45035869821063
 20
7.166640763004103
 30
0.0
 10
13.45777103646563
 20
7.174049064037824
 30
0.0
 10
13.46694360319513
 20
7.174049064037824
 30
0.0
 10
13.47611078696292
 20
7.174049064037824
 30
0.0
 10
13.48352312521793
 20
7.166640763004103
 30
0.0
 10
13.48352312521793
 20
7.157468196274635
 30
0.0
 10
13.48352312521793
 20
7.157468196274635
 30
0.0
 10
13.48352312521793
 20
5.813736962801819
 30
0.0
 10
13.48352312521793
 20
5.813736962801819
 30
0.0
 10
13.48352312521793
 20
5.804565741812773
 30
0.0
 10
13.47611078696292
 20
5.797157440779066
 30
0.0
 10
13.46694360319513
 20
5.797157440779066
 30
0.0
  0
SPLINE
  5
358
330
1F
100
AcDbEntity
  8
Livello 1
370
     0
100
AcDbSpline
210
0.0
220
0.0
230
1.0
 70
     9
 71
     3
 72
    26
 73
    22
 74
     0
 42
0.000000001
 43
0.0000000001
 40
0.0
 40
0.0
 40
0.0
 40
0.0
 40
1.0
 40
1.0
 40
1.0
 40
2.0
 40
2.0
 40
2.0
 40
3.0
 40
3.0
 40
3.0
 40
4.0
 40
4.0
 40
4.0
 40
5.0
 40
5.0
 40
5.0
 40
6.0
 40
6.0
 40
6.0
 40
7.0
 40
7.0
 40
7.0
 40
7.0
 10
13.46694360319513
 20
7.140782360758372
 30
0.0
 10
13.46694360319513
 20
7.140782360758372
 30
0.0
 10
13.46694360319513
 20
7.140782360758372
 30
0.0
 10
13.46694360319513
 20
7.140782360758372
 30
0.0
 10
13.45777103646563
 20
7.140782360758372
 30
0.0
 10
13.45035869821063
 20
7.148190661792078
 30
0.0
 10
13.45035869821063
 20
7.157361882781145
 30
0.0
 10
13.45035869821063
 20
7.157361882781145
 30
0.0
 10
13.45035869821063
 20
7.282597832372083
 30
0.0
 10
13.45035869821063
 20
7.282597832372083
 30
0.0
 10
13.45035869821063
 20
7.291770399101565
 30
0.0
 10
13.45777103646563
 20
7.299178700135279
 30
0.0
 10
13.46694360319513
 20
7.299178700135279
 30
0.0
 10
13.47611078696292
 20
7.299178700135279
 30
0.0
 10
13.48352312521793
 20
7.291770399101565
 30
0.0
 10
13.48352312521793
 20
7.282597832372083
 30
0.0
 10
13.48352312521793
 20
7.282597832372083
 30
0.0
 10
13.48352312521793
 20
7.157361882781145
 30
0.0
 10
13.48352312521793
 20
7.157361882781145
 30
0.0
 10
13.48352312521793
 20
7.148190661792078
 30
0.0
 10
13.47611078696292
 20
7.140782360758372
 30
0.0
 10
13.46694360319513
 20
7.140782360758372
 30
0.0
  0
SPLINE
  5
359
330
1F
100
AcDbEntity
  8
Livello 1
370
     0
100
AcDbSpline
210
0.0
220
0.0
230
1.0
 70
     9
 71
     3
 72
    26
 73
    22
 74
     0
 42
0.000000001
 43
0.0000000001
 40
0.0
 40
0.0
 40
0.0
 40
0.0
 40
1.0
 40
1.0
 40
1.0
 40
2.0
 40
2.0
 40
2.0
 40
3.0
 40
3.0
 40
3.0
 40
4.0
 40
4.0
 40
4.0
 40
5.0
 40
5.0
 40
5.0
 40
6.0
 40
6.0
 40
6.0
 40
7.0
 40
7.0
 40
7.0
 40
7.0
 10
14.19165711924934
 20
6.274888562570573
 30
0.0
 10
14.18248455251984
 20
6.274888562570573
 30
0.0
 10
14.17507221426483
 20
6.282296863604287
 30
0.0
 10
14.17507221426483
 20
6.291468084593333
 30
0.0
 10
14.17507221426483
 20
6.291468084593333
 30
0.0
 10
14.17225154233632
 20
6.523243612065641
 30
0.0
 10
14.17225154233632
 20
6.523243612065641
 30
0.0
 10
14.17225154233632
 20
6.532416178795116
 30
0.0
 10
14.17965849762962
 20
6.53982447982883
 30
0.0
 10
14.18883106435903
 20
6.53982447982883
 30
0.0
 10
14.19800363108854
 20
6.53982447982883
 30
0.0
 10
14.20541058638183
 20
6.53276876278619
 30
0.0
 10
14.20576586185373
 20
6.523596196056708
 30
0.0
 10
14.20576586185373
 20
6.523596196056708
 30
0.0
 10
14.20823664127202
 20
6.291820668584406
 30
0.0
 10
14.20823664127202
 20
6.291820668584406
 30
0.0
 10
14.20823664127202
 20
6.282649447595353
 30
0.0
 10
14.20117957848903
 20
6.274888562570573
 30
0.0
 10
14.19200701175953
 20
6.274888562570573
 30
0.0
 10
14.19200701175953
 20
6.274888562570573
 30
0.0
 10
14.19165711924934
 20
6.274888562570573
 30
0.0
 10
14.19165711924934
 20
6.274888562570573
 30
0.0
  0
SPLINE
  5
35A
330
1F
100
AcDbEntity
  8
Livello 1
370
     0
100
AcDbSpline
210
0.0
220
0.0
230
1.0
 70
     9
 71
     3
 72
    23
 73
    19
 74
     0
 42
0.000000001
 43
0.0000000001
 40
0.0
 40
0.0
 40
0.0
 40
0.0
 40
1.0
 40
1.0
 40
1.0
 40
2.0
 40
2.0
 40
2.0
 40
3.0
 40
3.0
 40
3.0
 40
4.0
 40
4.0
 40
4.0
 40
5.0
 40
5.0
 40
5.0
 40
6.0
 40
6.0
 40
6.0
 40
6.0
 10
14.18897640432483
 20
6.980903015434293
 30
0.0
 10
14.17980383759533
 20
6.980903015434293
 30
0.0
 10
14.17239149934042
 20
6.988311316468013
 30
0.0
 10
14.17239149934042
 20
6.997482537457067
 30
0.0
 10
14.17239149934042
 20
6.997482537457067
 30
0.0
 10
14.17239149934042
 20
7.06133522909149
 30
0.0
 10
14.17239149934042
 20
7.06133522909149
 30
0.0
 10
14.17239149934042
 20
7.070860379812039
 30
0.0
 10
14.17980383759533
 20
7.078268680845745
 30
0.0
 10
14.18897640432483
 20
7.078268680845745
 30
0.0
 10
14.19814358809263
 20
7.078268680845745
 30
0.0
 10
14.20555592634763
 20
7.070860379812039
 30
0.0
 10
14.20555592634763
 20
7.06133522909149
 30
0.0
 10
14.20555592634763
 20
7.06133522909149
 30
0.0
 10
14.20555592634763
 20
6.997482537457067
 30
0.0
 10
14.20555592634763
 20
6.997482537457067
 30
0.0
 10
14.20555592634763
 20
6.988311316468013
 30
0.0
 10
14.19814358809263
 20
6.980903015434293
 30
0.0
 10
14.18897640432483
 20
6.980903015434293
 30
0.0
  0
SPLINE
  5
35B
330
1F
100
AcDbEntity
  8
Livello 1
370
     0
100
AcDbSpline
210
0.0
220
0.0
230
1.0
 70
     9
 71
     3
 72
    23
 73
    19
 74
     0
 42
0.000000001
 43
0.0000000001
 40
0.0
 40
0.0
 40
0.0
 40
0.0
 40
1.0
 40
1.0
 40
1.0
 40
2.0
 40
2.0
 40
2.0
 40
3.0
 40
3.0
 40
3.0
 40
4.0
 40
4.0
 40
4.0
 40
5.0
 40
5.0
 40
5.0
 40
6.0
 40
6.0
 40
6.0
 40
6.0
 10
14.18897640432483
 20
6.506664090042868
 30
0.0
 10
14.17980383759533
 20
6.506664090042868
 30
0.0
 10
14.17239149934042
 20
6.514072391076588
 30
0.0
 10
14.17239149934042
 20
6.523243612065641
 30
0.0
 10
14.17239149934042
 20
6.523243612065641
 30
0.0
 10
14.17239149934042
 20
6.568752515981543
 30
0.0
 10
14.17239149934042
 20
6.568752515981543
 30
0.0
 10
14.17239149934042
 20
6.577925082711018
 30
0.0
 10
14.17980383759533
 20
6.585333383744718
 30
0.0
 10
14.18897640432483
 20
6.585333383744718
 30
0.0
 10
14.19814358809263
 20
6.585333383744718
 30
0.0
 10
14.20555592634763
 20
6.577925082711018
 30
0.0
 10
14.20555592634763
 20
6.568752515981543
 30
0.0
 10
14.20555592634763
 20
6.568752515981543
 30
0.0
 10
14.20555592634763
 20
6.523243612065641
 30
0.0
 10
14.20555592634763
 20
6.523243612065641
 30
0.0
 10
14.20555592634763
 20
6.514072391076588
 30
0.0
 10
14.19814358809263
 20
6.506664090042868
 30
0.0
 10
14.18897640432483
 20
6.506664090042868
 30
0.0
  0
SPLINE
  5
35C
330
1F
100
AcDbEntity
  8
Livello 1
370
     0
100
AcDbSpline
210
0.0
220
0.0
230
1.0
 70
     9
 71
     3
 72
    26
 73
    22
 74
     0
 42
0.000000001
 43
0.0000000001
 40
0.0
 40
0.0
 40
0.0
 40
0.0
 40
1.0
 40
1.0
 40
1.0
 40
2.0
 40
2.0
 40
2.0
 40
3.0
 40
3.0
 40
3.0
 40
4.0
 40
4.0
 40
4.0
 40
5.0
 40
5.0
 40
5.0
 40
6.0
 40
6.0
 40
6.0
 40
7.0
 40
7.0
 40
7.0
 40
7.0
 10
14.19165711924934
 20
6.493364137433218
 30
0.0
 10
14.18248455251984
 20
6.493364137433218
 30
0.0
 10
14.17366187830053
 20
6.500772438466931
 30
0.0
 10
14.17366187830053
 20
6.509943659455977
 30
0.0
 10
14.17366187830053
 20
6.512765677124953
 30
0.0
 10
14.17401715377254
 20
6.514882526811788
 30
0.0
 10
14.17507221426483
 20
6.516999376498617
 30
0.0
 10
14.17507221426483
 20
6.516999376498617
 30
0.0
 10
14.17507221426483
 20
6.568504899743537
 30
0.0
 10
14.17507221426483
 20
6.568504899743537
 30
0.0
 10
14.17507221426483
 20
6.577677466473012
 30
0.0
 10
14.18248455251984
 20
6.585085767506718
 30
0.0
 10
14.19165711924934
 20
6.585085767506718
 30
0.0
 10
14.20082430301714
 20
6.585085767506718
 30
0.0
 10
14.20823664127202
 20
6.577677466473012
 30
0.0
 10
14.20823664127202
 20
6.568504899743537
 30
0.0
 10
14.20823664127202
 20
6.568504899743537
 30
0.0
 10
14.20823664127202
 20
6.509943659455977
 30
0.0
 10
14.20823664127202
 20
6.509943659455977
 30
0.0
 10
14.20823664127202
 20
6.500772438466931
 30
0.0
 10
14.20082430301714
 20
6.493364137433218
 30
0.0
 10
14.19165711924934
 20
6.493364137433218
 30
0.0
  0
SPLINE
  5
35D
330
1F
100
AcDbEntity
  8
Livello 1
370
     0
100
AcDbSpline
210
0.0
220
0.0
230
1.0
 70
     9
 71
     3
 72
    23
 73
    19
 74
     0
 42
0.000000001
 43
0.0000000001
 40
0.0
 40
0.0
 40
0.0
 40
0.0
 40
1.0
 40
1.0
 40
1.0
 40
2.0
 40
2.0
 40
2.0
 40
3.0
 40
3.0
 40
3.0
 40
4.0
 40
4.0
 40
4.0
 40
5.0
 40
5.0
 40
5.0
 40
6.0
 40
6.0
 40
6.0
 40
6.0
 10
14.19165711924934
 20
6.226911570717206
 30
0.0
 10
14.18248455251984
 20
6.226911570717206
 30
0.0
 10
14.17507221426483
 20
6.234319871750912
 30
0.0
 10
14.17507221426483
 20
6.243491092739965
 30
0.0
 10
14.17507221426483
 20
6.243491092739965
 30
0.0
 10
14.17507221426483
 20
6.509838691702917
 30
0.0
 10
14.17507221426483
 20
6.509838691702917
 30
0.0
 10
14.17507221426483
 20
6.519011258432392
 30
0.0
 10
14.18248455251984
 20
6.526772143457179
 30
0.0
 10
14.19165711924934
 20
6.526772143457179
 30
0.0
 10
14.20082430301714
 20
6.526772143457179
 30
0.0
 10
14.20823664127202
 20
6.519011258432392
 30
0.0
 10
14.20823664127202
 20
6.509838691702917
 30
0.0
 10
14.20823664127202
 20
6.509838691702917
 30
0.0
 10
14.20823664127202
 20
6.243491092739965
 30
0.0
 10
14.20823664127202
 20
6.243491092739965
 30
0.0
 10
14.20823664127202
 20
6.234319871750912
 30
0.0
 10
14.20082430301714
 20
6.226911570717206
 30
0.0
 10
14.19165711924934
 20
6.226911570717206
 30
0.0
  0
SPLINE
  5
35E
330
1F
100
AcDbEntity
  8
Livello 1
370
     0
100
AcDbSpline
210
0.0
220
0.0
230
1.0
 70
     9
 71
     3
 72
    20
 73
    16
 74
     0
 42
0.000000001
 43
0.0000000001
 40
0.0
 40
0.0
 40
0.0
 40
0.0
 40
1.0
 40
1.0
 40
1.0
 40
2.0
 40
2.0
 40
2.0
 40
3.0
 40
3.0
 40
3.0
 40
4.0
 40
4.0
 40
4.0
 40
5.0
 40
5.0
 40
5.0
 40
5.0
 10
14.19165711924934
 20
6.551925377720777
 30
0.0
 10
14.18248455251984
 20
6.551925377720777
 30
0.0
 10
14.17366187830053
 20
6.559333678754477
 30
0.0
 10
14.17366187830053
 20
6.568504899743537
 30
0.0
 10
14.17366187830053
 20
6.577677466473012
 30
0.0
 10
14.17965849762962
 20
6.585085767506718
 30
0.0
 10
14.18883106435903
 20
6.585085767506718
 30
0.0
 10
14.18883106435903
 20
6.585085767506718
 30
0.0
 10
14.19165711924934
 20
6.585085767506718
 30
0.0
 10
14.19165711924934
 20
6.585085767506718
 30
0.0
 10
14.20082430301714
 20
6.585085767506718
 30
0.0
 10
14.20823664127202
 20
6.577677466473012
 30
0.0
 10
14.20823664127202
 20
6.568504899743537
 30
0.0
 10
14.20823664127202
 20
6.559333678754477
 30
0.0
 10
14.20082430301714
 20
6.551925377720777
 30
0.0
 10
14.19165711924934
 20
6.551925377720777
 30
0.0
  0
SPLINE
  5
35F
330
1F
100
AcDbEntity
  8
Livello 1
370
     0
100
AcDbSpline
210
0.0
220
0.0
230
1.0
 70
     9
 71
     3
 72
    23
 73
    19
 74
     0
 42
0.000000001
 43
0.0000000001
 40
0.0
 40
0.0
 40
0.0
 40
0.0
 40
1.0
 40
1.0
 40
1.0
 40
2.0
 40
2.0
 40
2.0
 40
3.0
 40
3.0
 40
3.0
 40
4.0
 40
4.0
 40
4.0
 40
5.0
 40
5.0
 40
5.0
 40
6.0
 40
6.0
 40
6.0
 40
6.0
 10
14.01575807991884
 20
6.226911570717206
 30
0.0
 10
14.01575807991884
 20
6.226911570717206
 30
0.0
 10
13.93038430742493
 20
6.226911570717206
 30
0.0
 10
13.93038430742493
 20
6.226911570717206
 30
0.0
 10
13.92121174069552
 20
6.226911570717206
 30
0.0
 10
13.91380478540222
 20
6.234319871750912
 30
0.0
 10
13.91380478540222
 20
6.243491092739965
 30
0.0
 10
13.91380478540222
 20
6.252663659469433
 30
0.0
 10
13.92121174069552
 20
6.260071960503154
 30
0.0
 10
13.93038430742493
 20
6.260071960503154
 30
0.0
 10
13.93038430742493
 20
6.260071960503154
 30
0.0
 10
14.01575807991884
 20
6.260071960503154
 30
0.0
 10
14.01575807991884
 20
6.260071960503154
 30
0.0
 10
14.02492526368664
 20
6.260071960503154
 30
0.0
 10
14.03233760194162
 20
6.252663659469433
 30
0.0
 10
14.03233760194162
 20
6.243491092739965
 30
0.0
 10
14.03233760194162
 20
6.234319871750912
 30
0.0
 10
14.02492526368664
 20
6.226911570717206
 30
0.0
 10
14.01575807991884
 20
6.226911570717206
 30
0.0
  0
SPLINE
  5
360
330
1F
100
AcDbEntity
  8
Livello 1
370
     0
100
AcDbSpline
210
0.0
220
0.0
230
1.0
 70
     9
 71
     3
 72
    23
 73
    19
 74
     0
 42
0.000000001
 43
0.0000000001
 40
0.0
 40
0.0
 40
0.0
 40
0.0
 40
1.0
 40
1.0
 40
1.0
 40
2.0
 40
2.0
 40
2.0
 40
3.0
 40
3.0
 40
3.0
 40
4.0
 40
4.0
 40
4.0
 40
5.0
 40
5.0
 40
5.0
 40
6.0
 40
6.0
 40
6.0
 40
6.0
 10
13.93052964739073
 20
5.949839766315974
 30
0.0
 10
13.92135708066134
 20
5.949839766315974
 30
0.0
 10
13.91394474240633
 20
5.957248067349695
 30
0.0
 10
13.91394474240633
 20
5.966419288338748
 30
0.0
 10
13.91394474240633
 20
5.966419288338748
 30
0.0
 10
13.91394474240633
 20
6.243702373986522
 30
0.0
 10
13.91394474240633
 20
6.243702373986522
 30
0.0
 10
13.91394474240633
 20
6.252874940716004
 30
0.0
 10
13.92135708066134
 20
6.260283241749711
 30
0.0
 10
13.93052964739073
 20
6.260283241749711
 30
0.0
 10
13.93969683115854
 20
6.260283241749711
 30
0.0
 10
13.94710916941355
 20
6.252874940716004
 30
0.0
 10
13.94710916941355
 20
6.243702373986522
 30
0.0
 10
13.94710916941355
 20
6.243702373986522
 30
0.0
 10
13.94710916941355
 20
5.966419288338748
 30
0.0
 10
13.94710916941355
 20
5.966419288338748
 30
0.0
 10
13.94710916941355
 20
5.957248067349695
 30
0.0
 10
13.93969683115854
 20
5.949839766315974
 30
0.0
 10
13.93052964739073
 20
5.949839766315974
 30
0.0
  0
SPLINE
  5
361
330
1F
100
AcDbEntity
  8
Livello 1
370
     0
100
AcDbSpline
210
0.0
220
0.0
230
1.0
 70
     9
 71
     3
 72
    23
 73
    19
 74
     0
 42
0.000000001
 43
0.0000000001
 40
0.0
 40
0.0
 40
0.0
 40
0.0
 40
1.0
 40
1.0
 40
1.0
 40
2.0
 40
2.0
 40
2.0
 40
3.0
 40
3.0
 40
3.0
 40
4.0
 40
4.0
 40
4.0
 40
5.0
 40
5.0
 40
5.0
 40
6.0
 40
6.0
 40
6.0
 40
6.0
 10
14.01575807991884
 20
5.949839766315974
 30
0.0
 10
14.01575807991884
 20
5.949839766315974
 30
0.0
 10
13.93038430742493
 20
5.949839766315974
 30
0.0
 10
13.93038430742493
 20
5.949839766315974
 30
0.0
 10
13.92121174069552
 20
5.949839766315974
 30
0.0
 10
13.91380478540222
 20
5.957248067349695
 30
0.0
 10
13.91380478540222
 20
5.966419288338748
 30
0.0
 10
13.91380478540222
 20
5.975591855068216
 30
0.0
 10
13.92121174069552
 20
5.983000156101944
 30
0.0
 10
13.93038430742493
 20
5.983000156101944
 30
0.0
 10
13.93038430742493
 20
5.983000156101944
 30
0.0
 10
14.01575807991884
 20
5.983000156101944
 30
0.0
 10
14.01575807991884
 20
5.983000156101944
 30
0.0
 10
14.02492526368664
 20
5.983000156101944
 30
0.0
 10
14.03233760194162
 20
5.975591855068216
 30
0.0
 10
14.03233760194162
 20
5.966419288338748
 30
0.0
 10
14.03233760194162
 20
5.957248067349695
 30
0.0
 10
14.02492526368664
 20
5.949839766315974
 30
0.0
 10
14.01575807991884
 20
5.949839766315974
 30
0.0
  0
SPLINE
  5
362
330
1F
100
AcDbEntity
  8
Livello 1
370
     0
100
AcDbSpline
210
0.0
220
0.0
230
1.0
 70
     9
 71
     3
 72
    20
 73
    16
 74
     0
 42
0.000000001
 43
0.0000000001
 40
0.0
 40
0.0
 40
0.0
 40
0.0
 40
1.0
 40
1.0
 40
1.0
 40
2.0
 40
2.0
 40
2.0
 40
3.0
 40
3.0
 40
3.0
 40
4.0
 40
4.0
 40
4.0
 40
5.0
 40
5.0
 40
5.0
 40
5.0
 10
14.09037131198293
 20
5.660738388265286
 30
0.0
 10
14.08119874525354
 20
5.660738388265286
 30
0.0
 10
14.07378640699853
 20
5.666735007594297
 30
0.0
 10
14.07378640699853
 20
5.676260158314846
 30
0.0
 10
14.07378640699853
 20
5.676260158314846
 30
0.0
 10
14.07378640699853
 20
5.678729591992748
 30
0.0
 10
14.07378640699853
 20
5.678729591992748
 30
0.0
 10
14.07378640699853
 20
5.687902158722231
 30
0.0
 10
14.08119874525354
 20
5.695310459755937
 30
0.0
 10
14.09037131198293
 20
5.695310459755937
 30
0.0
 10
14.09953849575073
 20
5.695310459755937
 30
0.0
 10
14.10695083400571
 20
5.687902158722231
 30
0.0
 10
14.10695083400571
 20
5.678729591992748
 30
0.0
 10
14.10695083400571
 20
5.669557025263273
 30
0.0
 10
14.09953849575073
 20
5.660738388265286
 30
0.0
 10
14.09037131198293
 20
5.660738388265286
 30
0.0
  0
SPLINE
  5
363
330
1F
100
AcDbEntity
  8
Livello 1
370
     0
100
AcDbSpline
210
0.0
220
0.0
230
1.0
 70
     9
 71
     3
 72
    50
 73
    46
 74
     0
 42
0.000000001
 43
0.0000000001
 40
0.0
 40
0.0
 40
0.0
 40
0.0
 40
1.0
 40
1.0
 40
1.0
 40
2.0
 40
2.0
 40
2.0
 40
3.0
 40
3.0
 40
3.0
 40
4.0
 40
4.0
 40
4.0
 40
5.0
 40
5.0
 40
5.0
 40
6.0
 40
6.0
 40
6.0
 40
7.0
 40
7.0
 40
7.0
 40
8.0
 40
8.0
 40
8.0
 40
9.0
 40
9.0
 40
9.0
 40
10.0
 40
10.0
 40
10.0
 40
11.0
 40
11.0
 40
11.0
 40
12.0
 40
12.0
 40
12.0
 40
13.0
 40
13.0
 40
13.0
 40
14.0
 40
14.0
 40
14.0
 40
15.0
 40
15.0
 40
15.0
 40
15.0
 10
14.09037131198293
 20
5.662078745727519
 30
0.0
 10
14.08472458516412
 20
5.662078745727519
 30
0.0
 10
14.07943313381733
 20
5.664900763396495
 30
0.0
 10
14.07625718641684
 20
5.669839630752299
 30
0.0
 10
14.07132101054183
 20
5.677600515777086
 30
0.0
 10
14.07378640699853
 20
5.687830834479761
 30
0.0
 10
14.08154863776373
 20
5.692769701835565
 30
0.0
 10
14.08154863776373
 20
5.692769701835565
 30
0.0
 10
14.12176474459234
 20
5.717816622605667
 30
0.0
 10
14.12176474459234
 20
5.717816622605667
 30
0.0
 10
14.12176474459234
 20
5.717816622605667
 30
0.0
 10
14.14928244478072
 20
5.753095207818894
 30
0.0
 10
14.14928244478072
 20
5.753095207818894
 30
0.0
 10
14.14928244478072
 20
5.753095207818894
 30
0.0
 10
14.16762757823973
 20
5.790136712987454
 30
0.0
 10
14.16762757823973
 20
5.790136712987454
 30
0.0
 10
14.16762757823973
 20
5.790136712987454
 30
0.0
 10
14.17256375411462
 20
5.834939103180779
 30
0.0
 10
14.17256375411462
 20
5.834939103180779
 30
0.0
 10
14.17326892209684
 20
5.844111669910255
 30
0.0
 10
14.18173632084414
 20
5.850460873230332
 30
0.0
 10
14.19090888757363
 20
5.849755705248206
 30
0.0
 10
14.20008145430303
 20
5.848697953274992
 30
0.0
 10
14.20643334910404
 20
5.840583138518717
 30
0.0
 10
14.20572818112183
 20
5.831411917529671
 30
0.0
 10
14.20572818112183
 20
5.831411917529671
 30
0.0
 10
14.20043672977505
 20
5.783433579935866
 30
0.0
 10
14.20043672977505
 20
5.783433579935866
 30
0.0
 10
14.20008145430303
 20
5.781669314240104
 30
0.0
 10
14.19937628632093
 20
5.779552464553269
 30
0.0
 10
14.19867111833883
 20
5.777789544597922
 30
0.0
 10
14.19867111833883
 20
5.777789544597922
 30
0.0
 10
14.17715003747942
 20
5.735102658351003
 30
0.0
 10
14.17715003747942
 20
5.735102658351003
 30
0.0
 10
14.17715003747942
 20
5.735102658351003
 30
0.0
 10
14.14610649738022
 20
5.695239135513467
 30
0.0
 10
14.14610649738022
 20
5.695239135513467
 30
0.0
 10
14.14505143688792
 20
5.693474869817706
 30
0.0
 10
14.14363571796191
 20
5.692417117844499
 30
0.0
 10
14.14187548948743
 20
5.691358020130863
 30
0.0
 10
14.14187548948743
 20
5.691358020130863
 30
0.0
 10
14.09918860324055
 20
5.664548179405421
 30
0.0
 10
14.09918860324055
 20
5.664548179405421
 30
0.0
 10
14.09636793131193
 20
5.66278391370966
 30
0.0
 10
14.09354187642171
 20
5.662078745727519
 30
0.0
 10
14.09037131198293
 20
5.662078745727519
 30
0.0
  0
SPLINE
  5
364
330
1F
100
AcDbEntity
  8
Livello 1
370
     0
100
AcDbSpline
210
0.0
220
0.0
230
1.0
 70
     9
 71
     3
 72
    23
 73
    19
 74
     0
 42
0.000000001
 43
0.0000000001
 40
0.0
 40
0.0
 40
0.0
 40
0.0
 40
1.0
 40
1.0
 40
1.0
 40
2.0
 40
2.0
 40
2.0
 40
3.0
 40
3.0
 40
3.0
 40
4.0
 40
4.0
 40
4.0
 40
5.0
 40
5.0
 40
5.0
 40
6.0
 40
6.0
 40
6.0
 40
6.0
 10
14.19165711924934
 20
5.949839766315974
 30
0.0
 10
14.19165711924934
 20
5.949839766315974
 30
0.0
 10
14.01561812291473
 20
5.949839766315974
 30
0.0
 10
14.01561812291473
 20
5.949839766315974
 30
0.0
 10
14.00644555618522
 20
5.949839766315974
 30
0.0
 10
13.99903860089193
 20
5.957248067349695
 30
0.0
 10
13.99903860089193
 20
5.966419288338748
 30
0.0
 10
13.99903860089193
 20
5.975591855068216
 30
0.0
 10
14.00644555618522
 20
5.983000156101944
 30
0.0
 10
14.01561812291473
 20
5.983000156101944
 30
0.0
 10
14.01561812291473
 20
5.983000156101944
 30
0.0
 10
14.19165711924934
 20
5.983000156101944
 30
0.0
 10
14.19165711924934
 20
5.983000156101944
 30
0.0
 10
14.20082430301714
 20
5.983000156101944
 30
0.0
 10
14.20823664127202
 20
5.975591855068216
 30
0.0
 10
14.20823664127202
 20
5.966419288338748
 30
0.0
 10
14.20823664127202
 20
5.957248067349695
 30
0.0
 10
14.20082430301714
 20
5.949839766315974
 30
0.0
 10
14.19165711924934
 20
5.949839766315974
 30
0.0
  0
SPLINE
  5
365
330
1F
100
AcDbEntity
  8
Livello 1
370
     0
100
AcDbSpline
210
0.0
220
0.0
230
1.0
 70
     9
 71
     3
 72
    23
 73
    19
 74
     0
 42
0.000000001
 43
0.0000000001
 40
0.0
 40
0.0
 40
0.0
 40
0.0
 40
1.0
 40
1.0
 40
1.0
 40
2.0
 40
2.0
 40
2.0
 40
3.0
 40
3.0
 40
3.0
 40
4.0
 40
4.0
 40
4.0
 40
5.0
 40
5.0
 40
5.0
 40
6.0
 40
6.0
 40
6.0
 40
6.0
 10
14.19165711924934
 20
5.816630304713278
 30
0.0
 10
14.18248455251984
 20
5.816630304713278
 30
0.0
 10
14.17507221426483
 20
5.824038605746977
 30
0.0
 10
14.17507221426483
 20
5.833209826736045
 30
0.0
 10
14.17507221426483
 20
5.833209826736045
 30
0.0
 10
14.17507221426483
 20
5.966560591083258
 30
0.0
 10
14.17507221426483
 20
5.966560591083258
 30
0.0
 10
14.17507221426483
 20
5.975731812072318
 30
0.0
 10
14.18248455251984
 20
5.983140113106024
 30
0.0
 10
14.19165711924934
 20
5.983140113106024
 30
0.0
 10
14.20082430301714
 20
5.983140113106024
 30
0.0
 10
14.20823664127202
 20
5.975731812072318
 30
0.0
 10
14.20823664127202
 20
5.966560591083258
 30
0.0
 10
14.20823664127202
 20
5.966560591083258
 30
0.0
 10
14.20823664127202
 20
5.833209826736045
 30
0.0
 10
14.20823664127202
 20
5.833209826736045
 30
0.0
 10
14.20823664127202
 20
5.824038605746977
 30
0.0
 10
14.20082430301714
 20
5.816630304713278
 30
0.0
 10
14.19165711924934
 20
5.816630304713278
 30
0.0
  0
SPLINE
  5
366
330
1F
100
AcDbEntity
  8
Livello 1
370
     0
100
AcDbSpline
210
0.0
220
0.0
230
1.0
 70
     9
 71
     3
 72
    20
 73
    16
 74
     0
 42
0.000000001
 43
0.0000000001
 40
0.0
 40
0.0
 40
0.0
 40
0.0
 40
1.0
 40
1.0
 40
1.0
 40
2.0
 40
2.0
 40
2.0
 40
3.0
 40
3.0
 40
3.0
 40
4.0
 40
4.0
 40
4.0
 40
5.0
 40
5.0
 40
5.0
 40
5.0
 10
14.19165711924934
 20
5.816630304713278
 30
0.0
 10
14.18248455251984
 20
5.816630304713278
 30
0.0
 10
14.17366187830053
 20
5.824038605746977
 30
0.0
 10
14.17366187830053
 20
5.833209826736045
 30
0.0
 10
14.17366187830053
 20
5.842382393465513
 30
0.0
 10
14.17965849762962
 20
5.849790694499226
 30
0.0
 10
14.18883106435903
 20
5.849790694499226
 30
0.0
 10
14.18883106435903
 20
5.849790694499226
 30
0.0
 10
14.19165711924934
 20
5.849790694499226
 30
0.0
 10
14.19165711924934
 20
5.849790694499226
 30
0.0
 10
14.20082430301714
 20
5.849790694499226
 30
0.0
 10
14.20823664127202
 20
5.842382393465513
 30
0.0
 10
14.20823664127202
 20
5.833209826736045
 30
0.0
 10
14.20823664127202
 20
5.824038605746977
 30
0.0
 10
14.20082430301714
 20
5.816630304713278
 30
0.0
 10
14.19165711924934
 20
5.816630304713278
 30
0.0
  0
SPLINE
  5
367
330
1F
100
AcDbEntity
  8
Livello 1
370
     0
100
AcDbSpline
210
0.0
220
0.0
230
1.0
 70
     9
 71
     3
 72
    23
 73
    19
 74
     0
 42
0.000000001
 43
0.0000000001
 40
0.0
 40
0.0
 40
0.0
 40
0.0
 40
1.0
 40
1.0
 40
1.0
 40
2.0
 40
2.0
 40
2.0
 40
3.0
 40
3.0
 40
3.0
 40
4.0
 40
4.0
 40
4.0
 40
5.0
 40
5.0
 40
5.0
 40
6.0
 40
6.0
 40
6.0
 40
6.0
 10
14.19165711924934
 20
6.226911570717206
 30
0.0
 10
14.19165711924934
 20
6.226911570717206
 30
0.0
 10
14.01561812291473
 20
6.226911570717206
 30
0.0
 10
14.01561812291473
 20
6.226911570717206
 30
0.0
 10
14.00644555618522
 20
6.226911570717206
 30
0.0
 10
13.99903860089193
 20
6.234319871750912
 30
0.0
 10
13.99903860089193
 20
6.243491092739965
 30
0.0
 10
13.99903860089193
 20
6.252663659469433
 30
0.0
 10
14.00644555618522
 20
6.260071960503154
 30
0.0
 10
14.01561812291473
 20
6.260071960503154
 30
0.0
 10
14.01561812291473
 20
6.260071960503154
 30
0.0
 10
14.19165711924934
 20
6.260071960503154
 30
0.0
 10
14.19165711924934
 20
6.260071960503154
 30
0.0
 10
14.20082430301714
 20
6.260071960503154
 30
0.0
 10
14.20823664127202
 20
6.252663659469433
 30
0.0
 10
14.20823664127202
 20
6.243491092739965
 30
0.0
 10
14.20823664127202
 20
6.234319871750912
 30
0.0
 10
14.20082430301714
 20
6.226911570717206
 30
0.0
 10
14.19165711924934
 20
6.226911570717206
 30
0.0
  0
SPLINE
  5
368
330
1F
100
AcDbEntity
  8
Livello 1
370
     0
100
AcDbSpline
210
0.0
220
0.0
230
1.0
 70
     9
 71
     3
 72
    47
 73
    43
 74
     0
 42
0.000000001
 43
0.0000000001
 40
0.0
 40
0.0
 40
0.0
 40
0.0
 40
1.0
 40
1.0
 40
1.0
 40
2.0
 40
2.0
 40
2.0
 40
3.0
 40
3.0
 40
3.0
 40
4.0
 40
4.0
 40
4.0
 40
5.0
 40
5.0
 40
5.0
 40
6.0
 40
6.0
 40
6.0
 40
7.0
 40
7.0
 40
7.0
 40
8.0
 40
8.0
 40
8.0
 40
9.0
 40
9.0
 40
9.0
 40
10.0
 40
10.0
 40
10.0
 40
11.0
 40
11.0
 40
11.0
 40
12.0
 40
12.0
 40
12.0
 40
13.0
 40
13.0
 40
13.0
 40
14.0
 40
14.0
 40
14.0
 40
14.0
 10
14.18897640432483
 20
7.04486202056222
 30
0.0
 10
14.18156406606982
 20
7.04486202056222
 30
0.0
 10
14.17486227875871
 20
7.049800887918024
 30
0.0
 10
14.17274677481234
 20
7.057561772942804
 30
0.0
 10
14.17274677481234
 20
7.057561772942804
 30
0.0
 10
14.16216387211852
 20
7.100247313449301
 30
0.0
 10
14.16216387211852
 20
7.100247313449301
 30
0.0
 10
14.16216387211852
 20
7.100247313449301
 30
0.0
 10
14.14240840269532
 20
7.136231066644654
 30
0.0
 10
14.14240840269532
 20
7.136231066644654
 30
0.0
 10
14.14240840269532
 20
7.136231066644654
 30
0.0
 10
14.11700620645334
 20
7.163042253110525
 30
0.0
 10
14.11700620645334
 20
7.163042253110525
 30
0.0
 10
14.11700620645334
 20
7.163042253110525
 30
0.0
 10
14.08137638298942
 20
7.185972324193791
 30
0.0
 10
14.08137638298942
 20
7.185972324193791
 30
0.0
 10
14.07361415222424
 20
7.190911191549595
 30
0.0
 10
14.07149864827784
 20
7.201141510252284
 30
0.0
 10
14.07644020711454
 20
7.208902395277064
 30
0.0
 10
14.08137638298942
 20
7.216664626042273
 30
0.0
 10
14.09160939317293
 20
7.219134059720175
 30
0.0
 10
14.09936624097642
 20
7.214195192364357
 30
0.0
 10
14.09936624097642
 20
7.214195192364357
 30
0.0
 10
14.13676167587654
 20
7.190206023567469
 30
0.0
 10
14.13676167587654
 20
7.190206023567469
 30
0.0
 10
14.13782211933053
 20
7.189146925853833
 30
0.0
 10
14.13923245529483
 20
7.188441757871707
 30
0.0
 10
14.13993762327703
 20
7.187384005898493
 30
0.0
 10
14.13993762327703
 20
7.187384005898493
 30
0.0
 10
14.16921555193993
 20
7.155281368085745
 30
0.0
 10
14.16921555193993
 20
7.155281368085745
 30
0.0
 10
14.16921555193993
 20
7.155281368085745
 30
0.0
 10
14.19285213674571
 20
7.111889313856678
 30
0.0
 10
14.19285213674571
 20
7.111889313856678
 30
0.0
 10
14.19285213674571
 20
7.111889313856678
 30
0.0
 10
14.20520065087572
 20
7.065675241958651
 30
0.0
 10
14.20520065087572
 20
7.065675241958651
 30
0.0
 10
14.20731615482214
 20
7.056502675229168
 30
0.0
 10
14.20202470347523
 20
7.047684038231196
 30
0.0
 10
14.19285213674571
 20
7.045214604553294
 30
0.0
 10
14.19179707625344
 20
7.045214604553294
 30
0.0
 10
14.19038674028913
 20
7.04486202056222
 30
0.0
 10
14.18897640432483
 20
7.04486202056222
 30
0.0
  0
SPLINE
  5
369
330
1F
100
AcDbEntity
  8
Livello 1
370
     0
100
AcDbSpline
210
0.0
220
0.0
230
1.0
 70
     9
 71
     3
 72
    23
 73
    19
 74
     0
 42
0.000000001
 43
0.0000000001
 40
0.0
 40
0.0
 40
0.0
 40
0.0
 40
1.0
 40
1.0
 40
1.0
 40
2.0
 40
2.0
 40
2.0
 40
3.0
 40
3.0
 40
3.0
 40
4.0
 40
4.0
 40
4.0
 40
5.0
 40
5.0
 40
5.0
 40
6.0
 40
6.0
 40
6.0
 40
6.0
 10
14.19165711924934
 20
6.9515874060395
 30
0.0
 10
14.18248455251984
 20
6.9515874060395
 30
0.0
 10
14.17507221426483
 20
6.958995707073214
 30
0.0
 10
14.17507221426483
 20
6.968166928062281
 30
0.0
 10
14.17507221426483
 20
6.968166928062281
 30
0.0
 10
14.17507221426483
 20
6.994978114528144
 30
0.0
 10
14.17507221426483
 20
6.994978114528144
 30
0.0
 10
14.17507221426483
 20
7.00415068125762
 30
0.0
 10
14.18248455251984
 20
7.011558982291326
 30
0.0
 10
14.19165711924934
 20
7.011558982291326
 30
0.0
 10
14.20082430301714
 20
7.011558982291326
 30
0.0
 10
14.20823664127202
 20
7.00415068125762
 30
0.0
 10
14.20823664127202
 20
6.994978114528144
 30
0.0
 10
14.20823664127202
 20
6.994978114528144
 30
0.0
 10
14.20823664127202
 20
6.968166928062281
 30
0.0
 10
14.20823664127202
 20
6.968166928062281
 30
0.0
 10
14.20823664127202
 20
6.958995707073214
 30
0.0
 10
14.20082430301714
 20
6.9515874060395
 30
0.0
 10
14.19165711924934
 20
6.9515874060395
 30
0.0
  0
SPLINE
  5
36A
330
1F
100
AcDbEntity
  8
Livello 1
370
     0
100
AcDbSpline
210
0.0
220
0.0
230
1.0
 70
     9
 71
     3
 72
    20
 73
    16
 74
     0
 42
0.000000001
 43
0.0000000001
 40
0.0
 40
0.0
 40
0.0
 40
0.0
 40
1.0
 40
1.0
 40
1.0
 40
2.0
 40
2.0
 40
2.0
 40
3.0
 40
3.0
 40
3.0
 40
4.0
 40
4.0
 40
4.0
 40
5.0
 40
5.0
 40
5.0
 40
5.0
 10
14.19165711924934
 20
7.026199292363216
 30
0.0
 10
14.19165711924934
 20
7.026199292363216
 30
0.0
 10
14.18883106435903
 20
7.026199292363216
 30
0.0
 10
14.18883106435903
 20
7.026199292363216
 30
0.0
 10
14.17965849762962
 20
7.026199292363216
 30
0.0
 10
14.17225154233632
 20
7.033607593396929
 30
0.0
 10
14.17225154233632
 20
7.042778814385975
 30
0.0
 10
14.17225154233632
 20
7.051951381115465
 30
0.0
 10
14.17965849762962
 20
7.059359682149171
 30
0.0
 10
14.18883106435903
 20
7.059359682149171
 30
0.0
 10
14.19800363108854
 20
7.059359682149171
 30
0.0
 10
14.20682630530783
 20
7.051951381115465
 30
0.0
 10
14.20682630530783
 20
7.042778814385975
 30
0.0
 10
14.20682630530783
 20
7.033607593396929
 30
0.0
 10
14.20082430301714
 20
7.026199292363216
 30
0.0
 10
14.19165711924934
 20
7.026199292363216
 30
0.0
  0
SPLINE
  5
36B
330
1F
100
AcDbEntity
  8
Livello 1
370
     0
100
AcDbSpline
210
0.0
220
0.0
230
1.0
 70
     9
 71
     3
 72
    20
 73
    16
 74
     0
 42
0.000000001
 43
0.0000000001
 40
0.0
 40
0.0
 40
0.0
 40
0.0
 40
1.0
 40
1.0
 40
1.0
 40
2.0
 40
2.0
 40
2.0
 40
3.0
 40
3.0
 40
3.0
 40
4.0
 40
4.0
 40
4.0
 40
5.0
 40
5.0
 40
5.0
 40
5.0
 10
14.19165711924934
 20
6.9515874060395
 30
0.0
 10
14.19165711924934
 20
6.9515874060395
 30
0.0
 10
14.18883106435903
 20
6.9515874060395
 30
0.0
 10
14.18883106435903
 20
6.9515874060395
 30
0.0
 10
14.17965849762962
 20
6.9515874060395
 30
0.0
 10
14.17225154233632
 20
6.958995707073214
 30
0.0
 10
14.17225154233632
 20
6.968166928062281
 30
0.0
 10
14.17225154233632
 20
6.977339494791749
 30
0.0
 10
14.17965849762962
 20
6.984747795825455
 30
0.0
 10
14.18883106435903
 20
6.984747795825455
 30
0.0
 10
14.19800363108854
 20
6.984747795825455
 30
0.0
 10
14.20682630530783
 20
6.977339494791749
 30
0.0
 10
14.20682630530783
 20
6.968166928062281
 30
0.0
 10
14.20682630530783
 20
6.958995707073214
 30
0.0
 10
14.20082430301714
 20
6.9515874060395
 30
0.0
 10
14.19165711924934
 20
6.9515874060395
 30
0.0
  0
SPLINE
  5
36C
330
1F
100
AcDbEntity
  8
Livello 1
370
     0
100
AcDbSpline
210
0.0
220
0.0
230
1.0
 70
     9
 71
     3
 72
    23
 73
    19
 74
     0
 42
0.000000001
 43
0.0000000001
 40
0.0
 40
0.0
 40
0.0
 40
0.0
 40
1.0
 40
1.0
 40
1.0
 40
2.0
 40
2.0
 40
2.0
 40
3.0
 40
3.0
 40
3.0
 40
4.0
 40
4.0
 40
4.0
 40
5.0
 40
5.0
 40
5.0
 40
6.0
 40
6.0
 40
6.0
 40
6.0
 10
14.19165711924934
 20
6.551925377720777
 30
0.0
 10
14.18248455251984
 20
6.551925377720777
 30
0.0
 10
14.17507221426483
 20
6.559333678754477
 30
0.0
 10
14.17507221426483
 20
6.568504899743537
 30
0.0
 10
14.17507221426483
 20
6.568504899743537
 30
0.0
 10
14.17507221426483
 20
6.968201917313294
 30
0.0
 10
14.17507221426483
 20
6.968201917313294
 30
0.0
 10
14.17507221426483
 20
6.977374484042776
 30
0.0
 10
14.18248455251984
 20
6.984782785076468
 30
0.0
 10
14.19165711924934
 20
6.984782785076468
 30
0.0
 10
14.20082430301714
 20
6.984782785076468
 30
0.0
 10
14.20823664127202
 20
6.977374484042776
 30
0.0
 10
14.20823664127202
 20
6.968201917313294
 30
0.0
 10
14.20823664127202
 20
6.968201917313294
 30
0.0
 10
14.20823664127202
 20
6.568504899743537
 30
0.0
 10
14.20823664127202
 20
6.568504899743537
 30
0.0
 10
14.20823664127202
 20
6.559333678754477
 30
0.0
 10
14.20082430301714
 20
6.551925377720777
 30
0.0
 10
14.19165711924934
 20
6.551925377720777
 30
0.0
  0
SPLINE
  5
36D
330
1F
100
AcDbEntity
  8
Livello 1
370
     0
100
AcDbSpline
210
0.0
220
0.0
230
1.0
 70
     9
 71
     3
 72
    26
 73
    22
 74
     0
 42
0.000000001
 43
0.0000000001
 40
0.0
 40
0.0
 40
0.0
 40
0.0
 40
1.0
 40
1.0
 40
1.0
 40
2.0
 40
2.0
 40
2.0
 40
3.0
 40
3.0
 40
3.0
 40
4.0
 40
4.0
 40
4.0
 40
5.0
 40
5.0
 40
5.0
 40
6.0
 40
6.0
 40
6.0
 40
7.0
 40
7.0
 40
7.0
 40
7.0
 10
14.19165711924934
 20
5.816630304713278
 30
0.0
 10
14.18248455251984
 20
5.816630304713278
 30
0.0
 10
14.17366187830053
 20
5.824038605746977
 30
0.0
 10
14.17366187830053
 20
5.833209826736045
 30
0.0
 10
14.17366187830053
 20
5.836031844405013
 30
0.0
 10
14.17401715377254
 20
5.838148694091835
 30
0.0
 10
14.17507221426483
 20
5.840265543778677
 30
0.0
 10
14.17507221426483
 20
5.840265543778677
 30
0.0
 10
14.17507221426483
 20
5.966560591083258
 30
0.0
 10
14.17507221426483
 20
5.966560591083258
 30
0.0
 10
14.17507221426483
 20
5.975731812072318
 30
0.0
 10
14.18248455251984
 20
5.983140113106024
 30
0.0
 10
14.19165711924934
 20
5.983140113106024
 30
0.0
 10
14.20082430301714
 20
5.983140113106024
 30
0.0
 10
14.20823664127202
 20
5.975731812072318
 30
0.0
 10
14.20823664127202
 20
5.966560591083258
 30
0.0
 10
14.20823664127202
 20
5.966560591083258
 30
0.0
 10
14.20823664127202
 20
5.833209826736045
 30
0.0
 10
14.20823664127202
 20
5.833209826736045
 30
0.0
 10
14.20823664127202
 20
5.824038605746977
 30
0.0
 10
14.20082430301714
 20
5.816630304713278
 30
0.0
 10
14.19165711924934
 20
5.816630304713278
 30
0.0
  0
SPLINE
  5
36E
330
1F
100
AcDbEntity
  8
Livello 1
370
     0
100
AcDbSpline
210
0.0
220
0.0
230
1.0
 70
     9
 71
     3
 72
    20
 73
    16
 74
     0
 42
0.000000001
 43
0.0000000001
 40
0.0
 40
0.0
 40
0.0
 40
0.0
 40
1.0
 40
1.0
 40
1.0
 40
2.0
 40
2.0
 40
2.0
 40
3.0
 40
3.0
 40
3.0
 40
4.0
 40
4.0
 40
4.0
 40
5.0
 40
5.0
 40
5.0
 40
5.0
 10
14.19165711924934
 20
5.949839766315974
 30
0.0
 10
14.19165711924934
 20
5.949839766315974
 30
0.0
 10
14.18883106435903
 20
5.949839766315974
 30
0.0
 10
14.18883106435903
 20
5.949839766315974
 30
0.0
 10
14.17965849762962
 20
5.949839766315974
 30
0.0
 10
14.17225154233632
 20
5.957248067349695
 30
0.0
 10
14.17225154233632
 20
5.966419288338748
 30
0.0
 10
14.17225154233632
 20
5.975591855068216
 30
0.0
 10
14.17965849762962
 20
5.983000156101944
 30
0.0
 10
14.18883106435903
 20
5.983000156101944
 30
0.0
 10
14.19800363108854
 20
5.983000156101944
 30
0.0
 10
14.20682630530783
 20
5.975591855068216
 30
0.0
 10
14.20682630530783
 20
5.966419288338748
 30
0.0
 10
14.20682630530783
 20
5.957248067349695
 30
0.0
 10
14.20082430301714
 20
5.949839766315974
 30
0.0
 10
14.19165711924934
 20
5.949839766315974
 30
0.0
  0
SPLINE
  5
36F
330
1F
100
AcDbEntity
  8
Livello 1
370
     0
100
AcDbSpline
210
0.0
220
0.0
230
1.0
 70
     9
 71
     3
 72
    26
 73
    22
 74
     0
 42
0.000000001
 43
0.0000000001
 40
0.0
 40
0.0
 40
0.0
 40
0.0
 40
1.0
 40
1.0
 40
1.0
 40
2.0
 40
2.0
 40
2.0
 40
3.0
 40
3.0
 40
3.0
 40
4.0
 40
4.0
 40
4.0
 40
5.0
 40
5.0
 40
5.0
 40
6.0
 40
6.0
 40
6.0
 40
7.0
 40
7.0
 40
7.0
 40
7.0
 10
14.06910323032322
 20
5.651459508042314
 30
0.0
 10
14.06239606005043
 20
5.651459508042314
 30
0.0
 10
14.05604954821113
 20
5.65569186167557
 30
0.0
 10
14.05357876879283
 20
5.662394994727144
 30
0.0
 10
14.05040282139232
 20
5.670861047734064
 30
0.0
 10
14.05463921224692
 20
5.680386198454598
 30
0.0
 10
14.06310122803254
 20
5.683562145855077
 30
0.0
 10
14.06310122803254
 20
5.683562145855077
 30
0.0
 10
14.08462230889192
 20
5.691675614870923
 30
0.0
 10
14.08462230889192
 20
5.691675614870923
 30
0.0
 10
14.09308970763933
 20
5.694850216530966
 30
0.0
 10
14.10261216687904
 20
5.690616517157288
 30
0.0
 10
14.10578811427942
 20
5.681797880159294
 30
0.0
 10
14.10931933715183
 20
5.673330481411966
 30
0.0
 10
14.10473305378713
 20
5.663806676431839
 30
0.0
 10
14.09626565503973
 20
5.660630729031367
 30
0.0
 10
14.09626565503973
 20
5.660630729031367
 30
0.0
 10
14.07509984965223
 20
5.652517260015535
 30
0.0
 10
14.07509984965223
 20
5.652517260015535
 30
0.0
 10
14.07297896274414
 20
5.651812092033388
 30
0.0
 10
14.07121873426963
 20
5.651459508042314
 30
0.0
 10
14.06910323032322
 20
5.651459508042314
 30
0.0
  0
SPLINE
  5
370
330
1F
100
AcDbEntity
  8
Livello 1
370
     0
100
AcDbSpline
210
0.0
220
0.0
230
1.0
 70
     9
 71
     3
 72
    26
 73
    22
 74
     0
 42
0.000000001
 43
0.0000000001
 40
0.0
 40
0.0
 40
0.0
 40
0.0
 40
1.0
 40
1.0
 40
1.0
 40
2.0
 40
2.0
 40
2.0
 40
3.0
 40
3.0
 40
3.0
 40
4.0
 40
4.0
 40
4.0
 40
5.0
 40
5.0
 40
5.0
 40
6.0
 40
6.0
 40
6.0
 40
7.0
 40
7.0
 40
7.0
 40
7.0
 10
14.09037131198293
 20
7.183397922762836
 30
0.0
 10
14.08825042507485
 20
7.183397922762836
 30
0.0
 10
14.08649019660034
 20
7.183750506753895
 30
0.0
 10
14.08436930969223
 20
7.184455674736035
 30
0.0
 10
14.08436930969223
 20
7.184455674736035
 30
0.0
 10
14.06320350430474
 20
7.192569143751882
 30
0.0
 10
14.06320350430474
 20
7.192569143751882
 30
0.0
 10
14.05473610555742
 20
7.195745091152353
 30
0.0
 10
14.05014982219262
 20
7.205268896132459
 30
0.0
 10
14.05368104506503
 20
7.213736294879808
 30
0.0
 10
14.05685699246552
 20
7.222554931877787
 30
0.0
 10
14.06637945170523
 20
7.226788631251459
 30
0.0
 10
14.07484685045253
 20
7.223614029591416
 30
0.0
 10
14.07484685045253
 20
7.223614029591416
 30
0.0
 10
14.09636793131193
 20
7.215500560575584
 30
0.0
 10
14.09636793131193
 20
7.215500560575584
 30
0.0
 10
14.10482994709763
 20
7.212324613175105
 30
0.0
 10
14.10906633795213
 20
7.202799462454571
 30
0.0
 10
14.10589039055162
 20
7.194333409447644
 30
0.0
 10
14.10341961113332
 20
7.187630276396077
 30
0.0
 10
14.09707309929412
 20
7.183397922762836
 30
0.0
 10
14.09037131198293
 20
7.183397922762836
 30
0.0
  0
SPLINE
  5
371
330
1F
100
AcDbEntity
  8
Livello 1
370
     0
100
AcDbSpline
210
0.0
220
0.0
230
1.0
 70
     9
 71
     3
 72
    47
 73
    43
 74
     0
 42
0.000000001
 43
0.0000000001
 40
0.0
 40
0.0
 40
0.0
 40
0.0
 40
1.0
 40
1.0
 40
1.0
 40
2.0
 40
2.0
 40
2.0
 40
3.0
 40
3.0
 40
3.0
 40
4.0
 40
4.0
 40
4.0
 40
5.0
 40
5.0
 40
5.0
 40
6.0
 40
6.0
 40
6.0
 40
7.0
 40
7.0
 40
7.0
 40
8.0
 40
8.0
 40
8.0
 40
9.0
 40
9.0
 40
9.0
 40
10.0
 40
10.0
 40
10.0
 40
11.0
 40
11.0
 40
11.0
 40
12.0
 40
12.0
 40
12.0
 40
13.0
 40
13.0
 40
13.0
 40
14.0
 40
14.0
 40
14.0
 40
14.0
 10
13.83199991651261
 20
5.608808956786837
 30
0.0
 10
13.83199991651261
 20
5.608808956786837
 30
0.0
 10
13.46687362469312
 20
5.608808956786837
 30
0.0
 10
13.46687362469312
 20
5.608808956786837
 30
0.0
 10
13.45770105796363
 20
5.608808956786837
 30
0.0
 10
13.45029410267033
 20
5.616217257820558
 30
0.0
 10
13.45029410267033
 20
5.625388478809604
 30
0.0
 10
13.45029410267033
 20
5.634561045539086
 30
0.0
 10
13.45770105796363
 20
5.6419693465728
 30
0.0
 10
13.46687362469312
 20
5.6419693465728
 30
0.0
 10
13.46687362469312
 20
5.6419693465728
 30
0.0
 10
13.82987902960453
 20
5.643027098546014
 30
0.0
 10
13.82987902960453
 20
5.643027098546014
 30
0.0
 10
13.83234980902283
 20
5.644086196259635
 30
0.0
 10
13.83482058844112
 20
5.644791364241775
 30
0.0
 10
13.83729136785953
 20
5.644791364241775
 30
0.0
 10
13.83729136785953
 20
5.644791364241775
 30
0.0
 10
13.84258281920633
 20
5.644791364241775
 30
0.0
 10
13.84258281920633
 20
5.644791364241775
 30
0.0
 10
13.84258281920633
 20
5.644791364241775
 30
0.0
 10
13.88738520939972
 20
5.652552249266548
 30
0.0
 10
13.88738520939972
 20
5.652552249266548
 30
0.0
 10
13.88738520939972
 20
5.652552249266548
 30
0.0
 10
13.95687924489122
 20
5.665605931378635
 30
0.0
 10
13.95687924489122
 20
5.665605931378635
 30
0.0
 10
13.95687924489122
 20
5.665605931378635
 30
0.0
 10
14.04260290989533
 20
5.679010851741352
 30
0.0
 10
14.04260290989533
 20
5.679010851741352
 30
0.0
 10
14.05177547662471
 20
5.681127701428188
 30
0.0
 10
14.06024287537212
 20
5.674424568376608
 30
0.0
 10
14.06165321133642
 20
5.665253347387562
 30
0.0
 10
14.06306893026233
 20
5.656080780658086
 30
0.0
 10
14.05671703546142
 20
5.647613381910744
 30
0.0
 10
14.04754446873194
 20
5.646203045946464
 30
0.0
 10
14.04754446873194
 20
5.646203045946464
 30
0.0
 10
13.96252597171004
 20
5.632796779843324
 30
0.0
 10
13.96252597171004
 20
5.632796779843324
 30
0.0
 10
13.96252597171004
 20
5.632796779843324
 30
0.0
 10
13.83940687180593
 20
5.610571876742184
 30
0.0
 10
13.83940687180593
 20
5.610571876742184
 30
0.0
 10
13.83693609238754
 20
5.609514124768971
 30
0.0
 10
13.83446531296923
 20
5.608808956786837
 30
0.0
 10
13.83199991651261
 20
5.608808956786837
 30
0.0
  0
SPLINE
  5
372
330
1F
100
AcDbEntity
  8
Livello 1
370
     0
100
AcDbSpline
210
0.0
220
0.0
230
1.0
 70
     9
 71
     3
 72
    26
 73
    22
 74
     0
 42
0.000000001
 43
0.0000000001
 40
0.0
 40
0.0
 40
0.0
 40
0.0
 40
1.0
 40
1.0
 40
1.0
 40
2.0
 40
2.0
 40
2.0
 40
3.0
 40
3.0
 40
3.0
 40
4.0
 40
4.0
 40
4.0
 40
5.0
 40
5.0
 40
5.0
 40
6.0
 40
6.0
 40
6.0
 40
7.0
 40
7.0
 40
7.0
 40
7.0
 10
14.04507907227533
 20
5.646098078193396
 30
0.0
 10
14.03731684151012
 20
5.646098078193396
 30
0.0
 10
14.03061505419893
 20
5.651389529540281
 30
0.0
 10
14.02884944276272
 20
5.659150414565061
 30
0.0
 10
14.02673393881633
 20
5.667969051563048
 30
0.0
 10
14.03237528267343
 20
5.677141618292523
 30
0.0
 10
14.04154784940292
 20
5.678905883988285
 30
0.0
 10
14.04154784940292
 20
5.678905883988285
 30
0.0
 10
14.06553970968063
 20
5.684197335335163
 30
0.0
 10
14.06553970968063
 20
5.684197335335163
 30
0.0
 10
14.07471227641014
 20
5.686314185022006
 30
0.0
 10
14.08352956766772
 20
5.680670149684047
 30
0.0
 10
14.08529517910392
 20
5.671497582954579
 30
0.0
 10
14.08741068305032
 20
5.66267760021617
 30
0.0
 10
14.08176395623154
 20
5.653858963218183
 30
0.0
 10
14.07259138950202
 20
5.651742113531355
 30
0.0
 10
14.07259138950202
 20
5.651742113531355
 30
0.0
 10
14.04860491218603
 20
5.64645066218447
 30
0.0
 10
14.04860491218603
 20
5.64645066218447
 30
0.0
 10
14.04754446873194
 20
5.646098078193396
 30
0.0
 10
14.04613413276763
 20
5.646098078193396
 30
0.0
 10
14.04507907227533
 20
5.646098078193396
 30
0.0
  0
SPLINE
  5
373
330
1F
100
AcDbEntity
  8
Livello 1
370
     0
100
AcDbSpline
210
0.0
220
0.0
230
1.0
 70
     9
 71
     3
 72
    23
 73
    19
 74
     0
 42
0.000000001
 43
0.0000000001
 40
0.0
 40
0.0
 40
0.0
 40
0.0
 40
1.0
 40
1.0
 40
1.0
 40
2.0
 40
2.0
 40
2.0
 40
3.0
 40
3.0
 40
3.0
 40
4.0
 40
4.0
 40
4.0
 40
5.0
 40
5.0
 40
5.0
 40
6.0
 40
6.0
 40
6.0
 40
6.0
 10
13.82931920158813
 20
7.236702700954523
 30
0.0
 10
13.82931920158813
 20
7.236702700954523
 30
0.0
 10
13.46701358169713
 20
7.236702700954523
 30
0.0
 10
13.46701358169713
 20
7.236702700954523
 30
0.0
 10
13.45784101496773
 20
7.236702700954523
 30
0.0
 10
13.45043405967443
 20
7.244111001988244
 30
0.0
 10
13.45043405967443
 20
7.25328222297729
 30
0.0
 10
13.45043405967443
 20
7.262454789706758
 30
0.0
 10
13.45784101496773
 20
7.269863090740479
 30
0.0
 10
13.46701358169713
 20
7.269863090740479
 30
0.0
 10
13.46701358169713
 20
7.269863090740479
 30
0.0
 10
13.82931920158813
 20
7.269863090740479
 30
0.0
 10
13.82931920158813
 20
7.269863090740479
 30
0.0
 10
13.83848638535593
 20
7.269863090740479
 30
0.0
 10
13.84589872361093
 20
7.262454789706758
 30
0.0
 10
13.84589872361093
 20
7.25328222297729
 30
0.0
 10
13.84589872361093
 20
7.244111001988244
 30
0.0
 10
13.83848638535593
 20
7.236702700954523
 30
0.0
 10
13.82931920158813
 20
7.236702700954523
 30
0.0
  0
SPLINE
  5
374
330
1F
100
AcDbEntity
  8
Livello 1
370
     0
100
AcDbSpline
210
0.0
220
0.0
230
1.0
 70
     9
 71
     3
 72
    41
 73
    37
 74
     0
 42
0.000000001
 43
0.0000000001
 40
0.0
 40
0.0
 40
0.0
 40
0.0
 40
1.0
 40
1.0
 40
1.0
 40
2.0
 40
2.0
 40
2.0
 40
3.0
 40
3.0
 40
3.0
 40
4.0
 40
4.0
 40
4.0
 40
5.0
 40
5.0
 40
5.0
 40
6.0
 40
6.0
 40
6.0
 40
7.0
 40
7.0
 40
7.0
 40
8.0
 40
8.0
 40
8.0
 40
9.0
 40
9.0
 40
9.0
 40
10.0
 40
10.0
 40
10.0
 40
11.0
 40
11.0
 40
11.0
 40
12.0
 40
12.0
 40
12.0
 40
12.0
 10
14.04507907227533
 20
7.196732864623498
 30
0.0
 10
14.04401862882122
 20
7.196732864623498
 30
0.0
 10
14.04260829285704
 20
7.196732864623498
 30
0.0
 10
14.04154784940292
 20
7.197085448614572
 30
0.0
 10
14.04154784940292
 20
7.197085448614572
 30
0.0
 10
13.99356951180914
 20
7.207668351308328
 30
0.0
 10
13.99356951180914
 20
7.207668351308328
 30
0.0
 10
13.97099337045733
 20
7.21084295296837
 30
0.0
 10
13.94735678565153
 20
7.215076652342041
 30
0.0
 10
13.92337030833543
 20
7.219662935706779
 30
0.0
 10
13.89302655325683
 20
7.225306971044723
 30
0.0
 10
13.86127784517553
 20
7.230951006382674
 30
0.0
 10
13.83023430507643
 20
7.234126953783132
 30
0.0
 10
13.82635318969383
 20
7.234479537774198
 30
0.0
 10
13.82282734978314
 20
7.236243803469974
 30
0.0
 10
13.82035657036484
 20
7.238713237147869
 30
0.0
 10
13.81365478305362
 20
7.24541502445902
 30
0.0
 10
13.81224444708943
 20
7.257409608857471
 30
0.0
 10
13.81894623440054
 20
7.263760157917978
 30
0.0
 10
13.82494285372954
 20
7.269756777246989
 30
0.0
 10
13.83305497700492
 20
7.271521042942751
 30
0.0
 10
13.83940687180593
 20
7.266582175586947
 30
0.0
 10
13.86974524392283
 20
7.263407573926897
 30
0.0
 10
13.90008361603982
 20
7.257762192848538
 30
0.0
 10
13.92936692766454
 20
7.25247074150166
 30
0.0
 10
13.95264823699843
 20
7.247884458136923
 30
0.0
 10
13.97592954633234
 20
7.243652104503674
 30
0.0
 10
13.99921623862792
 20
7.240476157103216
 30
0.0
 10
13.99921623862792
 20
7.240476157103216
 30
0.0
 10
14.04860491218603
 20
7.229540670418387
 30
0.0
 10
14.04860491218603
 20
7.229540670418387
 30
0.0
 10
14.05777747891554
 20
7.227776404722618
 30
0.0
 10
14.06341882277253
 20
7.21860383799315
 30
0.0
 10
14.06130331882613
 20
7.209785200995163
 30
0.0
 10
14.05953770738992
 20
7.202024315970383
 30
0.0
 10
14.05283592007883
 20
7.196732864623498
 30
0.0
 10
14.04507907227533
 20
7.196732864623498
 30
0.0
  0
SPLINE
  5
375
330
1F
100
AcDbEntity
  8
Livello 1
370
     0
100
AcDbSpline
210
0.0
220
0.0
230
1.0
 70
     9
 71
     3
 72
    26
 73
    22
 74
     0
 42
0.000000001
 43
0.0000000001
 40
0.0
 40
0.0
 40
0.0
 40
0.0
 40
1.0
 40
1.0
 40
1.0
 40
2.0
 40
2.0
 40
2.0
 40
3.0
 40
3.0
 40
3.0
 40
4.0
 40
4.0
 40
4.0
 40
5.0
 40
5.0
 40
5.0
 40
6.0
 40
6.0
 40
6.0
 40
7.0
 40
7.0
 40
7.0
 40
7.0
 10
14.06910323032322
 20
7.191370089034158
 30
0.0
 10
14.06804278686921
 20
7.191370089034158
 30
0.0
 10
14.06663245090492
 20
7.191370089034158
 30
0.0
 10
14.06557200745082
 20
7.191722673025225
 30
0.0
 10
14.06557200745082
 20
7.191722673025225
 30
0.0
 10
14.04158553013482
 20
7.19701412437211
 30
0.0
 10
14.04158553013482
 20
7.19701412437211
 30
0.0
 10
14.03241296340533
 20
7.199130974058938
 30
0.0
 10
14.02676623658652
 20
7.207949611056918
 30
0.0
 10
14.02888174053292
 20
7.217122177786407
 30
0.0
 10
14.03100262744104
 20
7.225942160524816
 30
0.0
 10
14.03981991869862
 20
7.23158619586276
 30
0.0
 10
14.04863720995622
 20
7.229469346175918
 30
0.0
 10
14.04863720995622
 20
7.229469346175918
 30
0.0
 10
14.07262907023393
 20
7.224177894829047
 30
0.0
 10
14.07262907023393
 20
7.224177894829047
 30
0.0
 10
14.08180163696342
 20
7.222413629133285
 30
0.0
 10
14.08744298082054
 20
7.213241062403795
 30
0.0
 10
14.08532747687414
 20
7.204422425405816
 30
0.0
 10
14.08356186543793
 20
7.196661540381043
 30
0.0
 10
14.07686007812671
 20
7.191370089034158
 30
0.0
 10
14.06910323032322
 20
7.191370089034158
 30
0.0
  0
SPLINE
  5
376
330
1F
100
AcDbEntity
  8
Livello 1
370
     0
100
AcDbSpline
210
0.0
220
0.0
230
1.0
 70
     9
 71
     3
 72
   260
 73
   256
 74
     0
 42
0.000000001
 43
0.0000000001
 40
0.0
 40
0.0
 40
0.0
 40
0.0
 40
1.0
 40
1.0
 40
1.0
 40
2.0
 40
2.0
 40
2.0
 40
3.0
 40
3.0
 40
3.0
 40
4.0
 40
4.0
 40
4.0
 40
5.0
 40
5.0
 40
5.0
 40
6.0
 40
6.0
 40
6.0
 40
7.0
 40
7.0
 40
7.0
 40
8.0
 40
8.0
 40
8.0
 40
9.0
 40
9.0
 40
9.0
 40
10.0
 40
10.0
 40
10.0
 40
11.0
 40
11.0
 40
11.0
 40
12.0
 40
12.0
 40
12.0
 40
13.0
 40
13.0
 40
13.0
 40
14.0
 40
14.0
 40
14.0
 40
15.0
 40
15.0
 40
15.0
 40
16.0
 40
16.0
 40
16.0
 40
17.0
 40
17.0
 40
17.0
 40
18.0
 40
18.0
 40
18.0
 40
19.0
 40
19.0
 40
19.0
 40
20.0
 40
20.0
 40
20.0
 40
21.0
 40
21.0
 40
21.0
 40
22.0
 40
22.0
 40
22.0
 40
23.0
 40
23.0
 40
23.0
 40
24.0
 40
24.0
 40
24.0
 40
25.0
 40
25.0
 40
25.0
 40
26.0
 40
26.0
 40
26.0
 40
27.0
 40
27.0
 40
27.0
 40
28.0
 40
28.0
 40
28.0
 40
29.0
 40
29.0
 40
29.0
 40
30.0
 40
30.0
 40
30.0
 40
31.0
 40
31.0
 40
31.0
 40
32.0
 40
32.0
 40
32.0
 40
33.0
 40
33.0
 40
33.0
 40
34.0
 40
34.0
 40
34.0
 40
35.0
 40
35.0
 40
35.0
 40
36.0
 40
36.0
 40
36.0
 40
37.0
 40
37.0
 40
37.0
 40
38.0
 40
38.0
 40
38.0
 40
39.0
 40
39.0
 40
39.0
 40
40.0
 40
40.0
 40
40.0
 40
41.0
 40
41.0
 40
41.0
 40
42.0
 40
42.0
 40
42.0
 40
43.0
 40
43.0
 40
43.0
 40
44.0
 40
44.0
 40
44.0
 40
45.0
 40
45.0
 40
45.0
 40
46.0
 40
46.0
 40
46.0
 40
47.0
 40
47.0
 40
47.0
 40
48.0
 40
48.0
 40
48.0
 40
49.0
 40
49.0
 40
49.0
 40
50.0
 40
50.0
 40
50.0
 40
51.0
 40
51.0
 40
51.0
 40
52.0
 40
52.0
 40
52.0
 40
53.0
 40
53.0
 40
53.0
 40
54.0
 40
54.0
 40
54.0
 40
55.0
 40
55.0
 40
55.0
 40
56.0
 40
56.0
 40
56.0
 40
57.0
 40
57.0
 40
57.0
 40
58.0
 40
58.0
 40
58.0
 40
59.0
 40
59.0
 40
59.0
 40
60.0
 40
60.0
 40
60.0
 40
61.0
 40
61.0
 40
61.0
 40
62.0
 40
62.0
 40
62.0
 40
63.0
 40
63.0
 40
63.0
 40
64.0
 40
64.0
 40
64.0
 40
65.0
 40
65.0
 40
65.0
 40
66.0
 40
66.0
 40
66.0
 40
67.0
 40
67.0
 40
67.0
 40
68.0
 40
68.0
 40
68.0
 40
69.0
 40
69.0
 40
69.0
 40
70.0
 40
70.0
 40
70.0
 40
71.0
 40
71.0
 40
71.0
 40
72.0
 40
72.0
 40
72.0
 40
73.0
 40
73.0
 40
73.0
 40
74.0
 40
74.0
 40
74.0
 40
75.0
 40
75.0
 40
75.0
 40
76.0
 40
76.0
 40
76.0
 40
77.0
 40
77.0
 40
77.0
 40
78.0
 40
78.0
 40
78.0
 40
79.0
 40
79.0
 40
79.0
 40
80.0
 40
80.0
 40
80.0
 40
81.0
 40
81.0
 40
81.0
 40
82.0
 40
82.0
 40
82.0
 40
83.0
 40
83.0
 40
83.0
 40
84.0
 40
84.0
 40
84.0
 40
85.0
 40
85.0
 40
85.0
 40
85.0
 10
12.51476227476563
 20
5.334277910305999
 30
0.0
 10
12.51299666332943
 20
5.334277910305999
 30
0.0
 10
12.51158632736512
 20
5.334277910305999
 30
0.0
 10
12.50982071592902
 20
5.334277910305999
 30
0.0
 10
12.50982071592902
 20
5.334277910305999
 30
0.0
 10
12.49429625439853
 20
5.334277910305999
 30
0.0
 10
12.49429625439853
 20
5.334277910305999
 30
0.0
 10
12.48512368766911
 20
5.334277910305999
 30
0.0
 10
12.47771673237582
 20
5.341686211339712
 30
0.0
 10
12.47771673237582
 20
5.350857432328758
 30
0.0
 10
12.47771673237582
 20
5.360382583049315
 30
0.0
 10
12.48512368766911
 20
5.367790884083028
 30
0.0
 10
12.49429625439853
 20
5.367790884083028
 30
0.0
 10
12.49429625439853
 20
5.367790884083028
 30
0.0
 10
12.51052588391113
 20
5.367790884083028
 30
0.0
 10
12.51052588391113
 20
5.367790884083028
 30
0.0
 10
12.52675551342363
 20
5.367085716100888
 30
0.0
 10
12.54651098284692
 20
5.37026031776093
 30
0.0
 10
12.56415094832373
 20
5.373434919420958
 30
0.0
 10
12.56415094832373
 20
5.373434919420958
 30
0.0
 10
12.58284597429292
 20
5.376610866821437
 30
0.0
 10
12.58284597429292
 20
5.376610866821437
 30
0.0
 10
12.58531675371122
 20
5.377668618794643
 30
0.0
 10
12.58778215016782
 20
5.378375132517206
 30
0.0
 10
12.59025292958621
 20
5.378375132517206
 30
0.0
 10
12.59025292958621
 20
5.378375132517206
 30
0.0
 10
12.59342887698663
 20
5.379080300499325
 30
0.0
 10
12.59342887698663
 20
5.379080300499325
 30
0.0
 10
12.59589965640494
 20
5.380490636463605
 30
0.0
 10
12.59837043582332
 20
5.380844566195101
 30
0.0
 10
12.60119110775183
 20
5.380844566195101
 30
0.0
 10
12.60119110775183
 20
5.380844566195101
 30
0.0
 10
12.60436705515234
 20
5.381902318168314
 30
0.0
 10
12.60436705515234
 20
5.381902318168314
 30
0.0
 10
12.60648255909872
 20
5.382960070141507
 30
0.0
 10
12.60895333851704
 20
5.383666583864069
 30
0.0
 10
12.61177401044563
 20
5.383666583864069
 30
0.0
 10
12.61177401044563
 20
5.383666583864069
 30
0.0
 10
12.61494995784602
 20
5.384724335837283
 30
0.0
 10
12.61494995784602
 20
5.384724335837283
 30
0.0
 10
12.61741535430272
 20
5.385783433550905
 30
0.0
 10
12.61988613372104
 20
5.386488601533045
 30
0.0
 10
12.62235691313934
 20
5.386488601533045
 30
0.0
 10
12.62235691313934
 20
5.386488601533045
 30
0.0
 10
12.62376724910363
 20
5.386488601533045
 30
0.0
 10
12.62376724910363
 20
5.386488601533045
 30
0.0
 10
12.62729308901434
 20
5.388958035210954
 30
0.0
 10
12.63223464785093
 20
5.391780052879923
 30
0.0
 10
12.63576048776163
 20
5.391780052879923
 30
0.0
 10
12.63576048776163
 20
5.391780052879923
 30
0.0
 10
12.63717082372592
 20
5.391780052879923
 30
0.0
 10
12.63717082372592
 20
5.391780052879923
 30
0.0
 10
12.63717082372592
 20
5.391780052879923
 30
0.0
 10
12.64422788650903
 20
5.395307238531032
 30
0.0
 10
12.64422788650903
 20
5.395307238531032
 30
0.0
 10
12.64669866592733
 20
5.39636633624466
 30
0.0
 10
12.64916944534563
 20
5.397071504226794
 30
0.0
 10
12.65163484180223
 20
5.397071504226794
 30
0.0
 10
12.65163484180223
 20
5.397071504226794
 30
0.0
 10
12.65798673660322
 20
5.399540937904703
 30
0.0
 10
12.65798673660322
 20
5.399540937904703
 30
0.0
 10
12.65975234803943
 20
5.400952619609398
 30
0.0
 10
12.66186785198583
 20
5.402715539564745
 30
0.0
 10
12.66292829543983
 20
5.403069469296227
 30
0.0
 10
12.66292829543983
 20
5.403069469296227
 30
0.0
 10
12.66821974678673
 20
5.405891486965202
 30
0.0
 10
12.66821974678673
 20
5.405891486965202
 30
0.0
 10
12.67139031122555
 20
5.407301822929483
 30
0.0
 10
12.67492153409793
 20
5.408008336652045
 30
0.0
 10
12.67844737400854
 20
5.407301822929483
 30
0.0
 10
12.67809748149834
 20
5.407654406920549
 30
0.0
 10
12.68056287795504
 20
5.409418672616318
 30
0.0
 10
12.68197859688092
 20
5.410477770329954
 30
0.0
 10
12.68514916131973
 20
5.412593274276353
 30
0.0
 10
12.68868038419212
 20
5.415062707954255
 30
0.0
 10
12.69326666755684
 20
5.417179557641091
 30
0.0
 10
12.69326666755684
 20
5.417179557641091
 30
0.0
 10
12.70067362285013
 20
5.420708089032629
 30
0.0
 10
12.70067362285013
 20
5.420708089032629
 30
0.0
 10
12.70243923428633
 20
5.422118424996902
 30
0.0
 10
12.70455473823273
 20
5.423882690692671
 30
0.0
 10
12.70560979872512
 20
5.424587858674797
 30
0.0
 10
12.70560979872512
 20
5.424587858674797
 30
0.0
 10
12.71936864881932
 20
5.431290991726378
 30
0.0
 10
12.71936864881932
 20
5.431290991726378
 30
0.0
 10
12.72113426025554
 20
5.433055257422154
 30
0.0
 10
12.72324976420192
 20
5.434819523117909
 30
0.0
 10
12.72431020765592
 20
5.435172107108975
 30
0.0
 10
12.72431020765592
 20
5.435172107108975
 30
0.0
 10
12.72995155151304
 20
5.438346708769024
 30
0.0
 10
12.72995155151304
 20
5.438346708769024
 30
0.0
 10
12.73171716294922
 20
5.44152131042906
 30
0.0
 10
12.73418794236762
 20
5.444343328098028
 30
0.0
 10
12.73736388976805
 20
5.445755009802724
 30
0.0
 10
12.73736388976805
 20
5.445755009802724
 30
0.0
 10
12.74053983716854
 20
5.4475192754985
 30
0.0
 10
12.74053983716854
 20
5.4475192754985
 30
0.0
 10
12.74230006564303
 20
5.448929611462773
 30
0.0
 10
12.74441556958942
 20
5.450693877158535
 30
0.0
 10
12.74547601304341
 20
5.451046461149609
 30
0.0
 10
12.74547601304341
 20
5.451046461149609
 30
0.0
 10
12.75147263237252
 20
5.454574992541139
 30
0.0
 10
12.75147263237252
 20
5.454574992541139
 30
0.0
 10
12.75288296833673
 20
5.457749594201182
 30
0.0
 10
12.75570902322704
 20
5.460219027879077
 30
0.0
 10
12.75887958766573
 20
5.461983293574853
 30
0.0
 10
12.75887958766573
 20
5.461983293574853
 30
0.0
 10
12.76205553506622
 20
5.46339362953914
 30
0.0
 10
12.76205553506622
 20
5.46339362953914
 30
0.0
 10
12.76382114650244
 20
5.464805311243829
 30
0.0
 10
12.76558675793863
 20
5.466569576939583
 30
0.0
 10
12.76664181843091
 20
5.466922160930657
 30
0.0
 10
12.76664181843091
 20
5.466922160930657
 30
0.0
 10
12.76734698641313
 20
5.467627328912797
 30
0.0
 10
12.76734698641313
 20
5.467627328912797
 30
0.0
 10
12.76911259784933
 20
5.471154514563899
 30
0.0
 10
12.77158337726763
 20
5.473623948241815
 30
0.0
 10
12.77475932466814
 20
5.475035629946511
 30
0.0
 10
12.77475932466814
 20
5.475035629946511
 30
0.0
 10
12.77757999659664
 20
5.476799895642272
 30
0.0
 10
12.77757999659664
 20
5.476799895642272
 30
0.0
 10
12.77757999659664
 20
5.476799895642272
 30
0.0
 10
12.78604739534404
 20
5.486325046362821
 30
0.0
 10
12.78604739534404
 20
5.486325046362821
 30
0.0
 10
12.78675256332613
 20
5.487735382327088
 30
0.0
 10
12.78780762381844
 20
5.489147064031804
 30
0.0
 10
12.78886806727253
 20
5.49055739999607
 30
0.0
 10
12.78886806727253
 20
5.49055739999607
 30
0.0
 10
12.84460863563154
 20
5.549118640283616
 30
0.0
 10
12.84460863563154
 20
5.549118640283616
 30
0.0
 10
12.85131042294273
 20
5.555469189344123
 30
0.0
 10
12.86153805016454
 20
5.555821773335203
 30
0.0
 10
12.86824522043733
 20
5.549471224274682
 30
0.0
 10
12.87494700774854
 20
5.543122020954598
 30
0.0
 10
12.87529690025873
 20
5.532537772520427
 30
0.0
 10
12.86895038841953
 20
5.526188569200357
 30
0.0
 10
12.86895038841953
 20
5.526188569200357
 30
0.0
 10
12.81285454458854
 20
5.466215647208102
 30
0.0
 10
12.81285454458854
 20
5.466215647208102
 30
0.0
 10
12.81214937660642
 20
5.464452727252755
 30
0.0
 10
12.81144420862434
 20
5.463041045548067
 30
0.0
 10
12.81003387266004
 20
5.461983293574853
 30
0.0
 10
12.81003387266004
 20
5.461983293574853
 30
0.0
 10
12.79910107745603
 20
5.451046461149609
 30
0.0
 10
12.79910107745603
 20
5.451046461149609
 30
0.0
 10
12.79804063400203
 20
5.449988709176402
 30
0.0
 10
12.79663029803771
 20
5.448929611462773
 30
0.0
 10
12.79486468660154
 20
5.448224443480647
 30
0.0
 10
12.79486468660154
 20
5.448224443480647
 30
0.0
 10
12.79451479409134
 20
5.4475192754985
 30
0.0
 10
12.79451479409134
 20
5.4475192754985
 30
0.0
 10
12.79274918265513
 20
5.444343328098028
 30
0.0
 10
12.79027840323682
 20
5.44187389442014
 30
0.0
 10
12.78710245583633
 20
5.440110974464786
 30
0.0
 10
12.78710245583633
 20
5.440110974464786
 30
0.0
 10
12.78392650843584
 20
5.438346708769024
 30
0.0
 10
12.78392650843584
 20
5.438346708769024
 30
0.0
 10
12.78216627996133
 20
5.436935027064322
 30
0.0
 10
12.78005077601493
 20
5.435172107108975
 30
0.0
 10
12.77899033256092
 20
5.43446559338642
 30
0.0
 10
12.77899033256092
 20
5.43446559338642
 30
0.0
 10
12.77828516457872
 20
5.434113009395353
 30
0.0
 10
12.77828516457872
 20
5.434113009395353
 30
0.0
 10
12.77687482861454
 20
5.430938407735311
 30
0.0
 10
12.77440404919612
 20
5.428468974057409
 30
0.0
 10
12.77122810179573
 20
5.426704708361647
 30
0.0
 10
12.77122810179573
 20
5.426704708361647
 30
0.0
 10
12.76241081053814
 20
5.422472354728398
 30
0.0
 10
12.76241081053814
 20
5.422472354728398
 30
0.0
 10
12.76064519910193
 20
5.421060673023696
 30
0.0
 10
12.75887958766573
 20
5.419296407327927
 30
0.0
 10
12.75782452717342
 20
5.41894382333686
 30
0.0
 10
12.75782452717342
 20
5.41894382333686
 30
0.0
 10
12.75711935919122
 20
5.418238655354727
 30
0.0
 10
12.75711935919122
 20
5.418238655354727
 30
0.0
 10
12.75535374775512
 20
5.415062707954255
 30
0.0
 10
12.75288296833673
 20
5.412593274276353
 30
0.0
 10
12.74970702093634
 20
5.410830354321007
 30
0.0
 10
12.74970702093634
 20
5.410830354321007
 30
0.0
 10
12.74124500515062
 20
5.406596654947342
 30
0.0
 10
12.74124500515062
 20
5.406596654947342
 30
0.0
 10
12.73947939371443
 20
5.404832389251566
 30
0.0
 10
12.73736388976805
 20
5.403069469296227
 30
0.0
 10
12.73630344631402
 20
5.402715539564745
 30
0.0
 10
12.73630344631402
 20
5.402715539564745
 30
0.0
 10
12.72254459621973
 20
5.39566116826252
 30
0.0
 10
12.72254459621973
 20
5.39566116826252
 30
0.0
 10
12.72078436774534
 20
5.394249486557818
 30
0.0
 10
12.71866348083714
 20
5.392485220862049
 30
0.0
 10
12.71760842034483
 20
5.392132636870996
 30
0.0
 10
12.71760842034483
 20
5.392132636870996
 30
0.0
 10
12.70702551765104
 20
5.386841185524112
 30
0.0
 10
12.70702551765104
 20
5.386841185524112
 30
0.0
 10
12.70490463074293
 20
5.385783433550905
 30
0.0
 10
12.70314440226842
 20
5.384371751846209
 30
0.0
 10
12.70137879083224
 20
5.383313999873003
 30
0.0
 10
12.69644261495733
 20
5.379785468481465
 30
0.0
 10
12.68938555217423
 20
5.374846601125661
 30
0.0
 10
12.67950781746263
 20
5.374141433143535
 30
0.0
 10
12.67809748149834
 20
5.372729751438818
 30
0.0
 10
12.67597659459022
 20
5.371319415474552
 30
0.0
 10
12.67527142660812
 20
5.370965485743063
 30
0.0
 10
12.67527142660812
 20
5.370965485743063
 30
0.0
 10
12.66433863140413
 20
5.365321450405126
 30
0.0
 10
12.66433863140413
 20
5.365321450405126
 30
0.0
 10
12.66186785198583
 20
5.364263698431905
 30
0.0
 10
12.65939707256754
 20
5.36355718470935
 30
0.0
 10
12.65693167611084
 20
5.36355718470935
 30
0.0
 10
12.65693167611084
 20
5.36355718470935
 30
0.0
 10
12.65551595718491
 20
5.36355718470935
 30
0.0
 10
12.65551595718491
 20
5.36355718470935
 30
0.0
 10
12.65551595718491
 20
5.36355718470935
 30
0.0
 10
12.64846427736353
 20
5.360029999058248
 30
0.0
 10
12.64846427736353
 20
5.360029999058248
 30
0.0
 10
12.64634339045543
 20
5.358972247085027
 30
0.0
 10
12.64422788650903
 20
5.358618317353538
 30
0.0
 10
12.64175710709062
 20
5.358265733362465
 30
0.0
 10
12.64140721458042
 20
5.357913149371398
 30
0.0
 10
12.64070204659833
 20
5.357560565380339
 30
0.0
 10
12.64034677112642
 20
5.357560565380339
 30
0.0
 10
12.64034677112642
 20
5.357560565380339
 30
0.0
 10
12.63505531977952
 20
5.354738547711363
 30
0.0
 10
12.63505531977952
 20
5.354738547711363
 30
0.0
 10
12.63293981583312
 20
5.353679449997734
 30
0.0
 10
12.63046903641472
 20
5.352974282015601
 30
0.0
 10
12.62764836448622
 20
5.352974282015601
 30
0.0
 10
12.62764836448622
 20
5.352974282015601
 30
0.0
 10
12.62447241708573
 20
5.351916530042394
 30
0.0
 10
12.62447241708573
 20
5.351916530042394
 30
0.0
 10
12.62200163766742
 20
5.350857432328758
 30
0.0
 10
12.61953624121084
 20
5.350504848337692
 30
0.0
 10
12.61706546179243
 20
5.350504848337692
 30
0.0
 10
12.61706546179243
 20
5.350504848337692
 30
0.0
 10
12.61388951439203
 20
5.349447096364492
 30
0.0
 10
12.61388951439203
 20
5.349447096364492
 30
0.0
 10
12.61141873497371
 20
5.348387998650856
 30
0.0
 10
12.60895333851704
 20
5.347682830668716
 30
0.0
 10
12.60648255909872
 20
5.347682830668716
 30
0.0
 10
12.60648255909872
 20
5.347682830668716
 30
0.0
 10
12.60330661169823
 20
5.346625078695531
 30
0.0
 10
12.60330661169823
 20
5.346625078695531
 30
0.0
 10
12.60083583227993
 20
5.345565980981895
 30
0.0
 10
12.59837043582332
 20
5.344860812999755
 30
0.0
 10
12.59589965640494
 20
5.344860812999755
 30
0.0
 10
12.59589965640494
 20
5.344860812999755
 30
0.0
 10
12.59272370900453
 20
5.344155645017607
 30
0.0
 10
12.59272370900453
 20
5.344155645017607
 30
0.0
 10
12.59025292958621
 20
5.343096547303971
 30
0.0
 10
12.58778215016782
 20
5.342391379321831
 30
0.0
 10
12.58496147823932
 20
5.342391379321831
 30
0.0
 10
12.58496147823932
 20
5.342391379321831
 30
0.0
 10
12.56944239967063
 20
5.340627113626084
 30
0.0
 10
12.56944239967063
 20
5.340627113626084
 30
0.0
 10
12.55180243419372
 20
5.337452511966041
 30
0.0
 10
12.53239685728073
 20
5.334277910305999
 30
0.0
 10
12.51476227476563
 20
5.334277910305999
 30
0.0
  0
SPLINE
  5
377
330
1F
100
AcDbEntity
  8
Livello 1
370
     0
100
AcDbSpline
210
0.0
220
0.0
230
1.0
 70
     9
 71
     3
 72
    32
 73
    28
 74
     0
 42
0.000000001
 43
0.0000000001
 40
0.0
 40
0.0
 40
0.0
 40
0.0
 40
1.0
 40
1.0
 40
1.0
 40
2.0
 40
2.0
 40
2.0
 40
3.0
 40
3.0
 40
3.0
 40
4.0
 40
4.0
 40
4.0
 40
5.0
 40
5.0
 40
5.0
 40
6.0
 40
6.0
 40
6.0
 40
7.0
 40
7.0
 40
7.0
 40
8.0
 40
8.0
 40
8.0
 40
9.0
 40
9.0
 40
9.0
 40
9.0
 10
12.49447927509622
 20
5.337064938723955
 30
0.0
 10
12.49447927509622
 20
5.337064938723955
 30
0.0
 10
12.23871323308663
 20
5.337064938723955
 30
0.0
 10
12.23871323308663
 20
5.337064938723955
 30
0.0
 10
12.22954066635714
 20
5.337064938723955
 30
0.0
 10
12.22213371106384
 20
5.344473239757654
 30
0.0
 10
12.22213371106384
 20
5.353644460746707
 30
0.0
 10
12.22213371106384
 20
5.353644460746707
 30
0.0
 10
12.22213371106384
 20
5.537441650625218
 30
0.0
 10
12.22213371106384
 20
5.537441650625218
 30
0.0
 10
12.22213371106384
 20
5.546614217354687
 30
0.0
 10
12.22954066635714
 20
5.554375102379466
 30
0.0
 10
12.23871323308663
 20
5.554375102379466
 30
0.0
 10
12.24788579981613
 20
5.554375102379466
 30
0.0
 10
12.25529275510932
 20
5.546614217354687
 30
0.0
 10
12.25529275510932
 20
5.537441650625218
 30
0.0
 10
12.25529275510932
 20
5.537441650625218
 30
0.0
 10
12.25529275510932
 20
5.370225328509903
 30
0.0
 10
12.25529275510932
 20
5.370225328509903
 30
0.0
 10
12.25529275510932
 20
5.370225328509903
 30
0.0
 10
12.49447927509622
 20
5.370225328509903
 30
0.0
 10
12.49447927509622
 20
5.370225328509903
 30
0.0
 10
12.50364645886404
 20
5.370225328509903
 30
0.0
 10
12.51105879711905
 20
5.362817027476189
 30
0.0
 10
12.51105879711905
 20
5.353644460746707
 30
0.0
 10
12.51105879711905
 20
5.344473239757654
 30
0.0
 10
12.50364645886404
 20
5.337064938723955
 30
0.0
 10
12.49447927509622
 20
5.337064938723955
 30
0.0
  0
SPLINE
  5
378
330
1F
100
AcDbEntity
  8
Livello 1
370
     0
100
AcDbSpline
210
0.0
220
0.0
230
1.0
 70
     9
 71
     3
 72
   236
 73
   232
 74
     0
 42
0.000000001
 43
0.0000000001
 40
0.0
 40
0.0
 40
0.0
 40
0.0
 40
1.0
 40
1.0
 40
1.0
 40
2.0
 40
2.0
 40
2.0
 40
3.0
 40
3.0
 40
3.0
 40
4.0
 40
4.0
 40
4.0
 40
5.0
 40
5.0
 40
5.0
 40
6.0
 40
6.0
 40
6.0
 40
7.0
 40
7.0
 40
7.0
 40
8.0
 40
8.0
 40
8.0
 40
9.0
 40
9.0
 40
9.0
 40
10.0
 40
10.0
 40
10.0
 40
11.0
 40
11.0
 40
11.0
 40
12.0
 40
12.0
 40
12.0
 40
13.0
 40
13.0
 40
13.0
 40
14.0
 40
14.0
 40
14.0
 40
15.0
 40
15.0
 40
15.0
 40
16.0
 40
16.0
 40
16.0
 40
17.0
 40
17.0
 40
17.0
 40
18.0
 40
18.0
 40
18.0
 40
19.0
 40
19.0
 40
19.0
 40
20.0
 40
20.0
 40
20.0
 40
21.0
 40
21.0
 40
21.0
 40
22.0
 40
22.0
 40
22.0
 40
23.0
 40
23.0
 40
23.0
 40
24.0
 40
24.0
 40
24.0
 40
25.0
 40
25.0
 40
25.0
 40
26.0
 40
26.0
 40
26.0
 40
27.0
 40
27.0
 40
27.0
 40
28.0
 40
28.0
 40
28.0
 40
29.0
 40
29.0
 40
29.0
 40
30.0
 40
30.0
 40
30.0
 40
31.0
 40
31.0
 40
31.0
 40
32.0
 40
32.0
 40
32.0
 40
33.0
 40
33.0
 40
33.0
 40
34.0
 40
34.0
 40
34.0
 40
35.0
 40
35.0
 40
35.0
 40
36.0
 40
36.0
 40
36.0
 40
37.0
 40
37.0
 40
37.0
 40
38.0
 40
38.0
 40
38.0
 40
39.0
 40
39.0
 40
39.0
 40
40.0
 40
40.0
 40
40.0
 40
41.0
 40
41.0
 40
41.0
 40
42.0
 40
42.0
 40
42.0
 40
43.0
 40
43.0
 40
43.0
 40
44.0
 40
44.0
 40
44.0
 40
45.0
 40
45.0
 40
45.0
 40
46.0
 40
46.0
 40
46.0
 40
47.0
 40
47.0
 40
47.0
 40
48.0
 40
48.0
 40
48.0
 40
49.0
 40
49.0
 40
49.0
 40
50.0
 40
50.0
 40
50.0
 40
51.0
 40
51.0
 40
51.0
 40
52.0
 40
52.0
 40
52.0
 40
53.0
 40
53.0
 40
53.0
 40
54.0
 40
54.0
 40
54.0
 40
55.0
 40
55.0
 40
55.0
 40
56.0
 40
56.0
 40
56.0
 40
57.0
 40
57.0
 40
57.0
 40
58.0
 40
58.0
 40
58.0
 40
59.0
 40
59.0
 40
59.0
 40
60.0
 40
60.0
 40
60.0
 40
61.0
 40
61.0
 40
61.0
 40
62.0
 40
62.0
 40
62.0
 40
63.0
 40
63.0
 40
63.0
 40
64.0
 40
64.0
 40
64.0
 40
65.0
 40
65.0
 40
65.0
 40
66.0
 40
66.0
 40
66.0
 40
67.0
 40
67.0
 40
67.0
 40
68.0
 40
68.0
 40
68.0
 40
69.0
 40
69.0
 40
69.0
 40
70.0
 40
70.0
 40
70.0
 40
71.0
 40
71.0
 40
71.0
 40
72.0
 40
72.0
 40
72.0
 40
73.0
 40
73.0
 40
73.0
 40
74.0
 40
74.0
 40
74.0
 40
75.0
 40
75.0
 40
75.0
 40
76.0
 40
76.0
 40
76.0
 40
77.0
 40
77.0
 40
77.0
 40
77.0
 10
12.80089898666242
 20
7.353895160031676
 30
0.0
 10
12.79666259580793
 20
7.353895160031676
 30
0.0
 10
12.79243158791513
 20
7.355658079987016
 30
0.0
 10
12.78925564051464
 20
7.35883402738748
 30
0.0
 10
12.78925564051464
 20
7.35883402738748
 30
0.0
 10
12.77302601100204
 20
7.374708381428106
 30
0.0
 10
12.77302601100204
 20
7.374708381428106
 30
0.0
 10
12.77161567503783
 20
7.375766133401306
 30
0.0
 10
12.77020533907354
 20
7.376825231114942
 30
0.0
 10
12.76879500310922
 20
7.377530399097082
 30
0.0
 10
12.76491388772663
 20
7.380352416766044
 30
0.0
 10
12.76209321579813
 20
7.382469266452893
 30
0.0
 10
12.75609121350742
 20
7.38917239950446
 30
0.0
 10
12.75609121350742
 20
7.38917239950446
 30
0.0
 10
12.75362581705072
 20
7.390230151477673
 30
0.0
 10
12.75362581705072
 20
7.390230151477673
 30
0.0
 10
12.75186020561455
 20
7.390936665200229
 30
0.0
 10
12.75044986965034
 20
7.391994417173435
 30
0.0
 10
12.74938942619623
 20
7.393406098878138
 30
0.0
 10
12.74938942619623
 20
7.393406098878138
 30
0.0
 10
12.74021685946673
 20
7.400814399911837
 30
0.0
 10
12.74021685946673
 20
7.400814399911837
 30
0.0
 10
12.73845663099222
 20
7.401872151885044
 30
0.0
 10
12.73704091206632
 20
7.40293124959868
 30
0.0
 10
12.73598585157393
 20
7.403989001571886
 30
0.0
 10
12.73598585157393
 20
7.403989001571886
 30
0.0
 10
12.73210473619133
 20
7.406105851258708
 30
0.0
 10
12.73210473619133
 20
7.406105851258708
 30
0.0
 10
12.73069440022702
 20
7.407163603231929
 30
0.0
 10
12.72892878879092
 20
7.40822270094555
 30
0.0
 10
12.72787372829853
 20
7.409633036909823
 30
0.0
 10
12.72787372829853
 20
7.409633036909823
 30
0.0
 10
12.70846815138553
 20
7.420217285344001
 30
0.0
 10
12.70846815138553
 20
7.420217285344001
 30
0.0
 10
12.69470930129132
 20
7.428683338350928
 30
0.0
 10
12.68095045119703
 20
7.437149391357834
 30
0.0
 10
12.66648643312072
 20
7.44455903813197
 30
0.0
 10
12.66648643312072
 20
7.44455903813197
 30
0.0
 10
12.66507609715643
 20
7.44455903813197
 30
0.0
 10
12.66507609715643
 20
7.44455903813197
 30
0.0
 10
12.66260531773812
 20
7.44455903813197
 30
0.0
 10
12.65978464580953
 20
7.44526420611411
 30
0.0
 10
12.65766914186314
 20
7.446321958087324
 30
0.0
 10
12.65766914186314
 20
7.446321958087324
 30
0.0
 10
12.65237769051633
 20
7.448791391765226
 30
0.0
 10
12.65237769051633
 20
7.448791391765226
 30
0.0
 10
12.65061207908012
 20
7.449497905487788
 30
0.0
 10
12.64920174311584
 20
7.450908241452047
 30
0.0
 10
12.64779140715154
 20
7.451967339165676
 30
0.0
 10
12.64779140715154
 20
7.451967339165676
 30
0.0
 10
12.64638107118722
 20
7.45231992315675
 30
0.0
 10
12.64638107118722
 20
7.45231992315675
 30
0.0
 10
12.64391029176893
 20
7.45231992315675
 30
0.0
 10
12.64108961984043
 20
7.45302509113889
 30
0.0
 10
12.63896873293234
 20
7.454082843112097
 30
0.0
 10
12.63896873293234
 20
7.454082843112097
 30
0.0
 10
12.63050671714663
 20
7.457963958494694
 30
0.0
 10
12.63050671714663
 20
7.457963958494694
 30
0.0
 10
12.62768066225642
 20
7.457963958494694
 30
0.0
 10
12.62521526579972
 20
7.458316542485761
 30
0.0
 10
12.62309437889163
 20
7.459375640199397
 30
0.0
 10
12.62309437889163
 20
7.459375640199397
 30
0.0
 10
12.61780292754484
 20
7.462197657868358
 30
0.0
 10
12.61780292754484
 20
7.462197657868358
 30
0.0
 10
12.61709775956262
 20
7.462550241859425
 30
0.0
 10
12.61639259158053
 20
7.462902825850498
 30
0.0
 10
12.61604269907033
 20
7.463255409841565
 30
0.0
 10
12.61357191965193
 20
7.463255409841565
 30
0.0
 10
12.61145641570555
 20
7.463960577823705
 30
0.0
 10
12.60969080426933
 20
7.465019675537341
 30
0.0
 10
12.60969080426933
 20
7.465019675537341
 30
0.0
 10
12.60651485686892
 20
7.465724843519467
 30
0.0
 10
12.60651485686892
 20
7.465724843519467
 30
0.0
 10
12.60369418494034
 20
7.465724843519467
 30
0.0
 10
12.60122340552203
 20
7.466430011501607
 30
0.0
 10
12.59875262610371
 20
7.467489109215243
 30
0.0
 10
12.59875262610371
 20
7.467489109215243
 30
0.0
 10
12.59558206166493
 20
7.46854686118845
 30
0.0
 10
12.59558206166493
 20
7.46854686118845
 30
0.0
 10
12.59311128224662
 20
7.46854686118845
 30
0.0
 10
12.59064050282821
 20
7.469253374911005
 30
0.0
 10
12.58816972340992
 20
7.470311126884212
 30
0.0
 10
12.58816972340992
 20
7.470311126884212
 30
0.0
 10
12.58640949493544
 20
7.471016294866352
 30
0.0
 10
12.58640949493544
 20
7.471016294866352
 30
0.0
 10
12.58640949493544
 20
7.471016294866352
 30
0.0
 10
12.57970232466262
 20
7.471016294866352
 30
0.0
 10
12.57970232466262
 20
7.471016294866352
 30
0.0
 10
12.57723692820592
 20
7.471016294866352
 30
0.0
 10
12.57476614878763
 20
7.471722808588907
 30
0.0
 10
12.57229536936933
 20
7.472780560562107
 30
0.0
 10
12.57229536936933
 20
7.472780560562107
 30
0.0
 10
12.56982458995104
 20
7.474192242266816
 30
0.0
 10
12.56982458995104
 20
7.474192242266816
 30
0.0
 10
12.56136257416534
 20
7.474897410248956
 30
0.0
 10
12.55465540389254
 20
7.475955162222156
 30
0.0
 10
12.54795361658134
 20
7.477014259935778
 30
0.0
 10
12.53702082137734
 20
7.478777179891132
 30
0.0
 10
12.52819814715812
 20
7.480188861595834
 30
0.0
 10
12.51161862513533
 20
7.47913110962262
 30
0.0
 10
12.51161862513533
 20
7.47913110962262
 30
0.0
 10
12.49997527898753
 20
7.47913110962262
 30
0.0
 10
12.49997527898753
 20
7.47913110962262
 30
0.0
 10
12.49715460705904
 20
7.47913110962262
 30
0.0
 10
12.49468382764063
 20
7.479836277604761
 30
0.0
 10
12.49256832369423
 20
7.480894029577974
 30
0.0
 10
12.49256832369423
 20
7.480894029577974
 30
0.0
 10
12.49045281974783
 20
7.481953127291603
 30
0.0
 10
12.49045281974783
 20
7.481953127291603
 30
0.0
 10
12.49045281974783
 20
7.481953127291603
 30
0.0
 10
12.23856789312084
 20
7.481953127291603
 30
0.0
 10
12.23856789312084
 20
7.481953127291603
 30
0.0
 10
12.22939532639133
 20
7.481953127291603
 30
0.0
 10
12.22198837109803
 20
7.48936142832531
 30
0.0
 10
12.22198837109803
 20
7.498533995054778
 30
0.0
 10
12.22198837109803
 20
7.507705216043838
 30
0.0
 10
12.22939532639133
 20
7.515113517077551
 30
0.0
 10
12.23856789312084
 20
7.515113517077551
 30
0.0
 10
12.23856789312084
 20
7.515113517077551
 30
0.0
 10
12.49468382764063
 20
7.515113517077551
 30
0.0
 10
12.49468382764063
 20
7.515113517077551
 30
0.0
 10
12.49715460705904
 20
7.515113517077551
 30
0.0
 10
12.49962538647733
 20
7.514408349095404
 30
0.0
 10
12.50209616589563
 20
7.513350597122204
 30
0.0
 10
12.50209616589563
 20
7.513350597122204
 30
0.0
 10
12.50385639437013
 20
7.512291499408568
 30
0.0
 10
12.50385639437013
 20
7.512291499408568
 30
0.0
 10
12.50385639437013
 20
7.512291499408568
 30
0.0
 10
12.51055818168133
 20
7.512291499408568
 30
0.0
 10
12.51055818168133
 20
7.512291499408568
 30
0.0
 10
12.52996375859433
 20
7.513703181113271
 30
0.0
 10
12.54195699725233
 20
7.511586331426443
 30
0.0
 10
12.55360034340013
 20
7.509822065730666
 30
0.0
 10
12.55994685523933
 20
7.508764313757467
 30
0.0
 10
12.56665402551222
 20
7.507705216043838
 30
0.0
 10
12.57547131676973
 20
7.507000048061705
 30
0.0
 10
12.57794209618812
 20
7.507000048061705
 30
0.0
 10
12.58005760013453
 20
7.506294880079565
 30
0.0
 10
12.58182321157072
 20
7.505235782365936
 30
0.0
 10
12.58182321157072
 20
7.505235782365936
 30
0.0
 10
12.58358344004522
 20
7.504530614383796
 30
0.0
 10
12.58358344004522
 20
7.504530614383796
 30
0.0
 10
12.58358344004522
 20
7.504530614383796
 30
0.0
 10
12.59064050282821
 20
7.504530614383796
 30
0.0
 10
12.59064050282821
 20
7.504530614383796
 30
0.0
 10
12.59311128224662
 20
7.504530614383796
 30
0.0
 10
12.59558206166493
 20
7.503825446401656
 30
0.0
 10
12.59804745812154
 20
7.502766348688034
 30
0.0
 10
12.59804745812154
 20
7.502766348688034
 30
0.0
 10
12.60122340552203
 20
7.501708596714834
 30
0.0
 10
12.60122340552203
 20
7.501708596714834
 30
0.0
 10
12.60369418494034
 20
7.501708596714834
 30
0.0
 10
12.60616496435872
 20
7.501003428732694
 30
0.0
 10
12.60863036081532
 20
7.499944331019058
 30
0.0
 10
12.60863036081532
 20
7.499944331019058
 30
0.0
 10
12.61180630821573
 20
7.499239163036918
 30
0.0
 10
12.61180630821573
 20
7.499239163036918
 30
0.0
 10
12.61427708763412
 20
7.499239163036918
 30
0.0
 10
12.61674786705242
 20
7.498533995054778
 30
0.0
 10
12.61921326350904
 20
7.497474897341156
 30
0.0
 10
12.61921326350904
 20
7.497474897341156
 30
0.0
 10
12.62238921090953
 20
7.496417145367956
 30
0.0
 10
12.62238921090953
 20
7.496417145367956
 30
0.0
 10
12.62697549427423
 20
7.496417145367956
 30
0.0
 10
12.63121188512872
 20
7.494652879672187
 30
0.0
 10
12.63438783252921
 20
7.491478278012145
 30
0.0
 10
12.63438783252921
 20
7.491478278012145
 30
0.0
 10
12.63579816849353
 20
7.491125694021071
 30
0.0
 10
12.63579816849353
 20
7.491125694021071
 30
0.0
 10
12.63826356495012
 20
7.491125694021071
 30
0.0
 10
12.64073434436854
 20
7.490419180298509
 30
0.0
 10
12.64320512378683
 20
7.48936142832531
 30
0.0
 10
12.64320512378683
 20
7.48936142832531
 30
0.0
 10
12.65167252253414
 20
7.485832896933779
 30
0.0
 10
12.65167252253414
 20
7.485832896933779
 30
0.0
 10
12.65414330195243
 20
7.485832896933779
 30
0.0
 10
12.65696397388103
 20
7.485127728951646
 30
0.0
 10
12.65907947782743
 20
7.484069976978425
 30
0.0
 10
12.65907947782743
 20
7.484069976978425
 30
0.0
 10
12.66437092917432
 20
7.481246613569034
 30
0.0
 10
12.66437092917432
 20
7.481246613569034
 30
0.0
 10
12.66613654061053
 20
7.480541445586894
 30
0.0
 10
12.66754687657472
 20
7.479483693613694
 30
0.0
 10
12.66895721253904
 20
7.478072011908992
 30
0.0
 10
12.66895721253904
 20
7.478072011908992
 30
0.0
 10
12.67036754850333
 20
7.477719427917918
 30
0.0
 10
12.67036754850333
 20
7.477719427917918
 30
0.0
 10
12.67283832792164
 20
7.477719427917918
 30
0.0
 10
12.67565899985023
 20
7.477014259935778
 30
0.0
 10
12.67777450379663
 20
7.475955162222156
 30
0.0
 10
12.69435940878102
 20
7.46784169320631
 30
0.0
 10
12.70987848734982
 20
7.458316542485761
 30
0.0
 10
12.72575284139043
 20
7.448791391765226
 30
0.0
 10
12.72575284139043
 20
7.448791391765226
 30
0.0
 10
12.74445325032133
 20
7.438913657053603
 30
0.0
 10
12.74445325032133
 20
7.438913657053603
 30
0.0
 10
12.74621347879584
 20
7.437855905080397
 30
0.0
 10
12.74762919772172
 20
7.436796807366775
 30
0.0
 10
12.74868425821412
 20
7.435386471402495
 30
0.0
 10
12.74868425821412
 20
7.435386471402495
 30
0.0
 10
12.75221548108653
 20
7.433269621715659
 30
0.0
 10
12.75221548108653
 20
7.433269621715659
 30
0.0
 10
12.75397570956104
 20
7.432564453733519
 30
0.0
 10
12.75538604552522
 20
7.43150535601989
 30
0.0
 10
12.75680176445121
 20
7.430447604046683
 30
0.0
 10
12.75680176445121
 20
7.430447604046683
 30
0.0
 10
12.76032760436193
 20
7.427978170368781
 30
0.0
 10
12.76032760436193
 20
7.427978170368781
 30
0.0
 10
12.76209321579813
 20
7.427271656646226
 30
0.0
 10
12.76350355176242
 20
7.426213904673005
 30
0.0
 10
12.76491388772663
 20
7.425156152699813
 30
0.0
 10
12.76491388772663
 20
7.425156152699813
 30
0.0
 10
12.77373117898422
 20
7.417393921934603
 30
0.0
 10
12.77373117898422
 20
7.417393921934603
 30
0.0
 10
12.77549679042043
 20
7.416336169961397
 30
0.0
 10
12.77726240185663
 20
7.415278417988204
 30
0.0
 10
12.77867273782083
 20
7.413866736283495
 30
0.0
 10
12.78431408167793
 20
7.407516187222995
 30
0.0
 10
12.78537452513204
 20
7.406811019240848
 30
0.0
 10
12.78714013656822
 20
7.405753267267648
 30
0.0
 10
12.78890036504272
 20
7.404341585562953
 30
0.0
 10
12.79137114446104
 20
7.40293124959868
 30
0.0
 10
12.79560215235383
 20
7.399402718207142
 30
0.0
 10
12.79560215235383
 20
7.399402718207142
 30
0.0
 10
12.81253694984853
 20
7.382469266452893
 30
0.0
 10
12.81253694984853
 20
7.382469266452893
 30
0.0
 10
12.81923873715963
 20
7.375766133401306
 30
0.0
 10
12.81923873715963
 20
7.365183230707557
 30
0.0
 10
12.81253694984853
 20
7.35883402738748
 30
0.0
 10
12.80936100244804
 20
7.355658079987016
 30
0.0
 10
12.80512999455523
 20
7.353895160031676
 30
0.0
 10
12.80089898666242
 20
7.353895160031676
 30
0.0
  0
SPLINE
  5
379
330
1F
100
AcDbEntity
  8
Livello 1
370
     0
100
AcDbSpline
210
0.0
220
0.0
230
1.0
 70
     9
 71
     3
 72
    26
 73
    22
 74
     0
 42
0.000000001
 43
0.0000000001
 40
0.0
 40
0.0
 40
0.0
 40
0.0
 40
1.0
 40
1.0
 40
1.0
 40
2.0
 40
2.0
 40
2.0
 40
3.0
 40
3.0
 40
3.0
 40
4.0
 40
4.0
 40
4.0
 40
5.0
 40
5.0
 40
5.0
 40
6.0
 40
6.0
 40
6.0
 40
7.0
 40
7.0
 40
7.0
 40
7.0
 10
12.83289531098172
 20
7.324614539887896
 30
0.0
 10
12.82865892012712
 20
7.324614539887896
 30
0.0
 10
12.82442791223434
 20
7.326377459843229
 30
0.0
 10
12.82125196483383
 20
7.3295534072437
 30
0.0
 10
12.82125196483383
 20
7.3295534072437
 30
0.0
 10
12.78914798128072
 20
7.361302115324967
 30
0.0
 10
12.78914798128072
 20
7.361302115324967
 30
0.0
 10
12.78279608647972
 20
7.368005248376533
 30
0.0
 10
12.78279608647972
 20
7.378589496810711
 30
0.0
 10
12.78914798128072
 20
7.384938700130788
 30
0.0
 10
12.79549987608163
 20
7.391641833182362
 30
0.0
 10
12.80608277877542
 20
7.391641833182362
 30
0.0
 10
12.81278456608653
 20
7.384938700130788
 30
0.0
 10
12.81278456608653
 20
7.384938700130788
 30
0.0
 10
12.84453327416784
 20
7.353188646309114
 30
0.0
 10
12.84453327416784
 20
7.353188646309114
 30
0.0
 10
12.85123506147892
 20
7.346485513257533
 30
0.0
 10
12.85123506147892
 20
7.335902610563785
 30
0.0
 10
12.84453327416784
 20
7.3295534072437
 30
0.0
 10
12.84135732676732
 20
7.326377459843229
 30
0.0
 10
12.83712631887452
 20
7.324614539887896
 30
0.0
 10
12.83289531098172
 20
7.324614539887896
 30
0.0
  0
SPLINE
  5
37A
330
1F
100
AcDbEntity
  8
Livello 1
370
     0
100
AcDbSpline
210
0.0
220
0.0
230
1.0
 70
     9
 71
     3
 72
    23
 73
    19
 74
     0
 42
0.000000001
 43
0.0000000001
 40
0.0
 40
0.0
 40
0.0
 40
0.0
 40
1.0
 40
1.0
 40
1.0
 40
2.0
 40
2.0
 40
2.0
 40
3.0
 40
3.0
 40
3.0
 40
4.0
 40
4.0
 40
4.0
 40
5.0
 40
5.0
 40
5.0
 40
6.0
 40
6.0
 40
6.0
 40
6.0
 10
12.23871323308663
 20
7.324614539887896
 30
0.0
 10
12.22954066635714
 20
7.324614539887896
 30
0.0
 10
12.22212832810213
 20
7.332022840921617
 30
0.0
 10
12.22212832810213
 20
7.341194061910663
 30
0.0
 10
12.22212832810213
 20
7.341194061910663
 30
0.0
 10
12.22212832810213
 20
7.498532649314356
 30
0.0
 10
12.22212832810213
 20
7.498532649314356
 30
0.0
 10
12.22212832810213
 20
7.507705216043838
 30
0.0
 10
12.22954066635714
 20
7.515113517077551
 30
0.0
 10
12.23871323308663
 20
7.515113517077551
 30
0.0
 10
12.24788041685441
 20
7.515113517077551
 30
0.0
 10
12.25529275510932
 20
7.507705216043838
 30
0.0
 10
12.25529275510932
 20
7.498532649314356
 30
0.0
 10
12.25529275510932
 20
7.498532649314356
 30
0.0
 10
12.25529275510932
 20
7.341194061910663
 30
0.0
 10
12.25529275510932
 20
7.341194061910663
 30
0.0
 10
12.25529275510932
 20
7.332022840921617
 30
0.0
 10
12.24788041685441
 20
7.324614539887896
 30
0.0
 10
12.23871323308663
 20
7.324614539887896
 30
0.0
  0
SPLINE
  5
37B
330
1F
100
AcDbEntity
  8
Livello 1
370
     0
100
AcDbSpline
210
0.0
220
0.0
230
1.0
 70
     9
 71
     3
 72
    23
 73
    19
 74
     0
 42
0.000000001
 43
0.0000000001
 40
0.0
 40
0.0
 40
0.0
 40
0.0
 40
1.0
 40
1.0
 40
1.0
 40
2.0
 40
2.0
 40
2.0
 40
3.0
 40
3.0
 40
3.0
 40
4.0
 40
4.0
 40
4.0
 40
5.0
 40
5.0
 40
5.0
 40
6.0
 40
6.0
 40
6.0
 40
6.0
 10
11.28222553530054
 20
5.725896448110923
 30
0.0
 10
11.27305296857104
 20
5.725896448110923
 30
0.0
 10
11.26564063031612
 20
5.733304749144643
 30
0.0
 10
11.26564063031612
 20
5.742475970133689
 30
0.0
 10
11.26564063031612
 20
5.742475970133689
 30
0.0
 10
11.26564063031612
 20
5.787984874049577
 30
0.0
 10
11.26564063031612
 20
5.787984874049577
 30
0.0
 10
11.26564063031612
 20
5.797157440779066
 30
0.0
 10
11.27305296857104
 20
5.804565741812773
 30
0.0
 10
11.28222553530054
 20
5.804565741812773
 30
0.0
 10
11.29139271906834
 20
5.804565741812773
 30
0.0
 10
11.29880505732333
 20
5.797157440779066
 30
0.0
 10
11.29880505732333
 20
5.787984874049577
 30
0.0
 10
11.29880505732333
 20
5.787984874049577
 30
0.0
 10
11.29880505732333
 20
5.742475970133689
 30
0.0
 10
11.29880505732333
 20
5.742475970133689
 30
0.0
 10
11.29880505732333
 20
5.733304749144643
 30
0.0
 10
11.29139271906834
 20
5.725896448110923
 30
0.0
 10
11.28222553530054
 20
5.725896448110923
 30
0.0
  0
SPLINE
  5
37C
330
1F
100
AcDbEntity
  8
Livello 1
370
     0
100
AcDbSpline
210
0.0
220
0.0
230
1.0
 70
     9
 71
     3
 72
    23
 73
    19
 74
     0
 42
0.000000001
 43
0.0000000001
 40
0.0
 40
0.0
 40
0.0
 40
0.0
 40
1.0
 40
1.0
 40
1.0
 40
2.0
 40
2.0
 40
2.0
 40
3.0
 40
3.0
 40
3.0
 40
4.0
 40
4.0
 40
4.0
 40
5.0
 40
5.0
 40
5.0
 40
6.0
 40
6.0
 40
6.0
 40
6.0
 10
11.28222553530054
 20
7.019426180809588
 30
0.0
 10
11.27305296857104
 20
7.019426180809588
 30
0.0
 10
11.26564063031612
 20
7.025422800138606
 30
0.0
 10
11.26564063031612
 20
7.034595366868089
 30
0.0
 10
11.26564063031612
 20
7.034595366868089
 30
0.0
 10
11.26564063031612
 20
7.080102925043568
 30
0.0
 10
11.26564063031612
 20
7.080102925043568
 30
0.0
 10
11.26564063031612
 20
7.089275491773044
 30
0.0
 10
11.27305296857104
 20
7.09668379280675
 30
0.0
 10
11.28222553530054
 20
7.09668379280675
 30
0.0
 10
11.29139271906834
 20
7.09668379280675
 30
0.0
 10
11.29880505732333
 20
7.089275491773044
 30
0.0
 10
11.29880505732333
 20
7.080102925043568
 30
0.0
 10
11.29880505732333
 20
7.080102925043568
 30
0.0
 10
11.29880505732333
 20
7.037417384537057
 30
0.0
 10
11.29880505732333
 20
7.037417384537057
 30
0.0
 10
11.29880505732333
 20
7.028244817807582
 30
0.0
 10
11.29139271906834
 20
7.019426180809588
 30
0.0
 10
11.28222553530054
 20
7.019426180809588
 30
0.0
  0
POLYLINE
  5
37D
330
1F
100
AcDbEntity
  8
Livello 1
370
     9
100
AcDb2dPolyline
 66
     1
 10
0.0
 20
0.0
 30
0.0
  0
VERTEX
  5
37E
330
37D
100
AcDbEntity
  8
Livello 1
370
     9
100
AcDbVertex
100
AcDb2dVertex
 10
11.09522144599184
 20
3.837335475309679
 30
0.0
  0
VERTEX
  5
37F
330
37D
100
AcDbEntity
  8
Livello 1
370
     9
100
AcDbVertex
100
AcDb2dVertex
 10
3.167243907215933
 20
3.837335475309679
 30
0.0
  0
SEQEND
  5
380
330
37D
100
AcDbEntity
  8
Livello 1
370
     9
  0
MTEXT
  5
381
330
1F
100
AcDbEntity
  8
Livello 1
100
AcDbMText
 10
3.204526299920331
 20
0.8652610203676118
 30
0.0
 40
1.998133332833799
 41
0.0
 46
0.0
 71
     7
 72
     1
  1
\fSource Sans Pro Light|b0|i0|c0|p34;\W1;98 mm
 73
     1
 44
1.0
  0
SPLINE
  5
382
330
1F
100
AcDbEntity
  8
Livello 1
 62
     1
370
    50
100
AcDbSpline
210
0.0
220
0.0
230
1.0
 70
    27
 71
     3
 72
    11
 73
     7
 74
     0
 42
0.000000001
 43
0.0000000001
 40
0.0
 40
0.0
 40
0.0
 40
0.0
 40
1.0
 40
1.0
 40
1.0
 40
2.0
 40
2.0
 40
2.0
 40
2.0
 10
0.0033153144946994
 20
6.015455377947013
 30
0.0
 10
0.0033153144946994
 20
6.015455377947013
 30
0.0
 10
14.20749210135813
 20
5.983129838770018
 30
0.0
 10
14.20749210135813
 20
5.983129838770018
 30
0.0
 10
14.20749210135813
 20
5.983129838770018
 30
0.0
 10
0.0033153144946994
 20
6.015455377947013
 30
0.0
 10
0.0033153144946994
 20
6.015455377947013
 30
0.0
  0
ENDSEC
  0
SECTION
  2
OBJECTS
  0
DICTIONARY
  5
C
330
0
100
AcDbDictionary
281
     1
  3
ACAD_CIP_PREVIOUS_PRODUCT_INFO
350
216
  3
ACAD_COLOR
350
6B
  3
ACAD_DETAILVIEWSTYLE
350
21B
  3
ACAD_GROUP
350
D
  3
ACAD_LAYOUT
350
1A
  3
ACAD_MATERIAL
350
6A
  3
ACAD_MLEADERSTYLE
350
12D
  3
ACAD_MLINESTYLE
350
17
  3
ACAD_PLOTSETTINGS
350
19
  3
ACAD_PLOTSTYLENAME
350
E
  3
ACAD_SCALELIST
350
10C
  3
ACAD_SECTIONVIEWSTYLE
350
219
  3
ACAD_TABLESTYLE
350
7E
  3
ACAD_VISUALSTYLE
350
EF
  3
ACDB_RECOMPOSE_DATA
350
384
  3
AcDbVariableDictionary
350
5E
  3
AcDsDecomposeData
350
38A
  0
DICTIONARY
  5
1FF
330
2
100
AcDbDictionary
280
     1
281
     1
  3
ACAD_LAYERSTATES
360
200
  0
DICTIONARY
  5
13C
330
10
100
AcDbDictionary
280
     1
281
     1
  0
DICTIONARY
  5
1CE
330
1F
100
AcDbDictionary
280
     1
281
     1
  0
XRECORD
  5
216
102
{ACAD_REACTORS
330
C
102
}
330
C
100
AcDbXrecord
280
     1
300
ACD
300
2020
300

  0
DICTIONARY
  5
6B
102
{ACAD_REACTORS
330
C
102
}
330
C
100
AcDbDictionary
281
     1
  0
DICTIONARY
  5
21B
102
{ACAD_REACTORS
330
C
102
}
330
C
100
AcDbDictionary
281
     1
  3
Imperial24
350
28E
  3
Metric50
350
21C
  0
DICTIONARY
  5
D
102
{ACAD_REACTORS
330
C
102
}
330
C
100
AcDbDictionary
281
     1
  0
DICTIONARY
  5
1A
102
{ACAD_REACTORS
330
C
102
}
330
C
100
AcDbDictionary
281
     1
  3
Layout1
350
D3
  3
Layout2
350
D7
  3
Model
350
22
  0
DICTIONARY
  5
6A
102
{ACAD_REACTORS
330
C
102
}
330
C
100
AcDbDictionary
281
     1
  3
ByBlock
350
ED
  3
ByLayer
350
EC
  3
Global
350
EE
  0
DICTIONARY
  5
12D
102
{ACAD_REACTORS
330
C
102
}
330
C
100
AcDbDictionary
281
     1
  3
Annotativa
350
13B
  3
Standard
350
12E
  0
DICTIONARY
  5
17
102
{ACAD_REACTORS
330
C
102
}
330
C
100
AcDbDictionary
281
     1
  3
Standard
350
18
  0
DICTIONARY
  5
19
102
{ACAD_REACTORS
330
C
102
}
330
C
100
AcDbDictionary
281
     1
  0
ACDBDICTIONARYWDFLT
  5
E
102
{ACAD_REACTORS
330
C
102
}
330
C
100
AcDbDictionary
281
     1
  3
Normal
350
F
100
AcDbDictionaryWithDefault
340
F
  0
DICTIONARY
  5
10C
102
{ACAD_REACTORS
330
C
102
}
330
C
100
AcDbDictionary
281
     1
  3
A0
350
10D
  3
A1
350
1BE
  3
A2
350
1BF
  3
A3
350
1C0
  3
A4
350
1C1
  3
A5
350
1C2
  3
A6
350
1C3
  3
A7
350
1C4
  3
A8
350
1C5
  3
A9
350
1C6
  3
B0
350
1C7
  3
B1
350
1C8
  3
B2
350
1C9
  3
B3
350
1CA
  3
B4
350
1CB
  3
B5
350
1CC
  3
B6
350
1CD
  0
DICTIONARY
  5
219
102
{ACAD_REACTORS
330
C
102
}
330
C
100
AcDbDictionary
281
     1
  3
Imperial24
350
28D
  3
Metric50
350
21A
  0
DICTIONARY
  5
7E
102
{ACAD_REACTORS
330
C
102
}
330
C
100
AcDbDictionary
281
     1
  3
Standard
350
7F
  0
DICTIONARY
  5
EF
102
{ACAD_REACTORS
330
C
102
}
330
C
100
AcDbDictionary
281
     1
  3
2dWireframe
350
F5
  3
Basic
350
F4
  3
Brighten
350
FB
  3
ColorChange
350
FF
  3
Conceptual
350
F8
  3
Dim
350
FA
  3
EdgeColorOff
350
1E6
  3
Facepattern
350
FE
  3
Flat
350
F0
  3
FlatWithEdges
350
F1
  3
Gouraud
350
F2
  3
GouraudWithEdges
350
F3
  3
Hidden
350
F7
  3
JitterOff
350
1E4
  3
Linepattern
350
FD
  3
OverhangOff
350
1E5
  3
Realistic
350
F9
  3
Shaded
350
1F3
  3
Shaded with edges
350
1F2
  3
Shades of Gray
350
1EF
  3
Sketchy
350
1F0
  3
Thicken
350
FC
  3
Wireframe
350
F6
  3
X-Ray
350
1F1
  0
XRECORD
  5
384
102
{ACAD_REACTORS
330
C
102
}
330
C
100
AcDbXrecord
280
     1
 90
        1
330
7F
  0
DICTIONARY
  5
5E
102
{ACAD_REACTORS
330
C
102
}
330
C
100
AcDbDictionary
281
     1
  3
CANNOSCALE
350
146
  3
CENTEREXE
350
259
  3
CENTERLTYPEFILE
350
25A
  3
CMLEADERSTYLE
350
145
  3
CTABLESTYLE
350
84
  3
CVIEWDETAILSTYLE
350
227
  3
CVIEWSECTIONSTYLE
350
228
  3
DIMASSOC
350
5F
  3
HIDETEXT
350
63
  3
LAYEREVAL
350
1AE
  3
LAYERNOTIFY
350
1AF
  0
DICTIONARY
  5
38A
102
{ACAD_REACTORS
330
C
102
}
330
C
100
AcDbDictionary
281
     1
  3
AcDsRecords
350
38C
  3
AcDsSchemas
350
38B
1001
ACAD
1070
     2
  0
DICTIONARY
  5
200
102
{ACAD_REACTORS
330
1FF
102
}
330
1FF
100
AcDbDictionary
281
     1
  0
ACDBDETAILVIEWSTYLE
  5
28E
102
{ACAD_XDICTIONARY
360
393
102
}
102
{ACAD_REACTORS
330
21B
102
}
330
21B
100
AcDbModelDocViewStyle
 70
     0
  3
Imperial24
290
     0
100
AcDbDetailViewStyle
 70
     0
 71
     0
 90
        3
 71
     1
340
11
 62
   256
 40
0.24
340
0
 62
   256
 40
0.24
300

 40
0.36
280
     3
 71
     2
340
16
 90
       25
 62
   256
 71
     3
340
11
 62
   256
 40
0.24
 90
        1
 40
0.75
 90
        1
300
%<\AcVar ViewType \f "%tc1">% %<\AcVar ViewDetailId>%\PSCALA %<\AcVar ViewScale \f "%sn">%
 71
     4
340
16
 90
       25
 62
   256
340
16
 90
       25
 62
   256
280
     0
  0
ACDBDETAILVIEWSTYLE
  5
21C
102
{ACAD_XDICTIONARY
360
38F
102
}
102
{ACAD_REACTORS
330
21B
102
}
330
21B
100
AcDbModelDocViewStyle
 70
     0
  3
Metric50
290
     0
100
AcDbDetailViewStyle
 70
     0
 71
     0
 90
        3
 71
     1
340
11
 62
   256
 40
5.0
340
0
 62
   256
 40
5.0
300

 40
0.0
280
     1
 71
     2
340
16
 90
       25
 62
   256
 71
     3
340
11
 62
   256
 40
5.0
 90
        0
 40
15.0
 90
        1
300
%<\AcVar ViewDetailId>% (%<\AcVar ViewScale \f "%sn">%)
 71
     4
340
16
 90
       25
 62
   256
340
16
 90
       25
 62
   256
280
     0
  0
LAYOUT
  5
D3
102
{ACAD_REACTORS
330
1A
102
}
330
1A
100
AcDbPlotSettings
  1

  2
C:\Documents and Settings\basas\Application Data\Autodesk\AutoCAD 2005\R16.1\enu\plotters\Default Windows System Printer.pc3
  4

  6

 40
0.0
 41
0.0
 42
0.0
 43
0.0
 44
0.0
 45
0.0
 46
0.0
 47
0.0
 48
0.0
 49
0.0
140
0.0
141
0.0
142
1.0
143
1.0
 70
   688
 72
     0
 73
     0
 74
     5
  7

 75
    16
147
1.0
 76
     0
 77
     2
 78
   300
148
0.0
149
0.0
100
AcDbLayout
  1
Layout1
 70
     1
 71
     1
 10
0.0
 20
0.0
 11
12.0
 21
9.0
 12
0.0
 22
0.0
 32
0.0
 14
0.0
 24
0.0
 34
0.0
 15
0.0
 25
0.0
 35
0.0
146
0.0
 13
0.0
 23
0.0
 33
0.0
 16
1.0
 26
0.0
 36
0.0
 17
0.0
 27
1.0
 37
0.0
 76
     0
330
D2
  0
LAYOUT
  5
D7
102
{ACAD_REACTORS
330
1A
102
}
330
1A
100
AcDbPlotSettings
  1

  2
C:\Documents and Settings\basas\Application Data\Autodesk\AutoCAD 2005\R16.1\enu\plotters\Default Windows System Printer.pc3
  4

  6

 40
0.0
 41
0.0
 42
0.0
 43
0.0
 44
0.0
 45
0.0
 46
0.0
 47
0.0
 48
0.0
 49
0.0
140
0.0
141
0.0
142
1.0
143
1.0
 70
   688
 72
     0
 73
     0
 74
     5
  7

 75
    16
147
1.0
 76
     0
 77
     2
 78
   300
148
0.0
149
0.0
100
AcDbLayout
  1
Layout2
 70
     1
 71
     2
 10
0.0
 20
0.0
 11
12.0
 21
9.0
 12
0.0
 22
0.0
 32
0.0
 14
0.0
 24
0.0
 34
0.0
 15
0.0
 25
0.0
 35
0.0
146
0.0
 13
0.0
 23
0.0
 33
0.0
 16
1.0
 26
0.0
 36
0.0
 17
0.0
 27
1.0
 37
0.0
 76
     0
330
D6
  0
LAYOUT
  5
22
102
{ACAD_XDICTIONARY
360
205
102
}
102
{ACAD_REACTORS
330
1A
102
}
330
1A
100
AcDbPlotSettings
  1

  2
none_device
  4
ISO_A4_(210.00_x_297.00_MM)
  6

 40
7.5
 41
20.0
 42
7.5
 43
20.0
 44
210.0
 45
297.0
 46
11.54999923706054
 47
-13.65000009536743
 48
0.0
 49
0.0
140
0.0
141
0.0
142
1.0
143
8.704084754739808
 70
 11952
 72
     1
 73
     0
 74
     0
  7

 75
     0
147
0.1148885871608098
 76
     0
 77
     2
 78
   300
148
0.0
149
0.0
100
AcDbLayout
  1
Model
 70
     1
 71
     0
 10
0.0
 20
0.0
 11
12.0
 21
9.0
 12
0.0
 22
0.0
 32
0.0
 14
0.0
 24
0.0
 34
0.0
 15
0.0
 25
0.0
 35
0.0
146
0.0
 13
0.0
 23
0.0
 33
0.0
 16
1.0
 26
0.0
 36
0.0
 17
0.0
 27
1.0
 37
0.0
 76
     0
330
1F
331
EA
1001
ACAD_PSEXT
1000
None
1000
None
1000
Not applicable
1000
The layout will not be plotted unless a new plotter configuration name is selected.
1070
     0
  0
MATERIAL
  5
ED
102
{ACAD_XDICTIONARY
360
1F9
102
}
102
{ACAD_REACTORS
330
6A
102
}
330
6A
100
AcDbMaterial
  1
ByBlock
 94
       63
  0
MATERIAL
  5
EC
102
{ACAD_XDICTIONARY
360
1F7
102
}
102
{ACAD_REACTORS
330
6A
102
}
330
6A
100
AcDbMaterial
  1
ByLayer
 94
       63
  0
MATERIAL
  5
EE
102
{ACAD_XDICTIONARY
360
173
102
}
102
{ACAD_REACTORS
330
6A
102
}
330
6A
100
AcDbMaterial
  1
Global
 43
0.0007999999797903
 43
0.0
 43
0.0
 43
0.0
 43
0.0
 43
0.0007999999797903
 43
0.0
 43
0.0
 43
0.0
 43
0.0
 43
1.0
 43
0.0
 43
0.0
 43
0.0
 43
0.0
 43
1.0
 49
0.0007999999797903
 49
0.0
 49
0.0
 49
0.0
 49
0.0
 49
0.0007999999797903
 49
0.0
 49
0.0
 49
0.0
 49
0.0
 49
1.0
 49
0.0
 49
0.0
 49
0.0
 49
0.0
 49
1.0
142
0.0007999999797903
142
0.0
142
0.0
142
0.0
142
0.0
142
0.0007999999797903
142
0.0
142
0.0
142
0.0
142
0.0
142
1.0
142
0.0
142
0.0
142
0.0
142
0.0
142
1.0
144
0.0007999999797903
144
0.0
144
0.0
144
0.0
144
0.0
144
0.0007999999797903
144
0.0
144
0.0
144
0.0
144
0.0
144
1.0
144
0.0
144
0.0
144
0.0
144
0.0
144
1.0
 94
       63
1001
ACAD
1070
    -1
1070
     3
1070
     0
1000

1071
        0
1070
     0
  0
MLEADERSTYLE
  5
13B
102
{ACAD_REACTORS
330
12D
102
}
330
12D
100
AcDbMLeaderStyle
179
     2
170
     2
171
     1
172
     0
 90
        2
 40
0.0
 41
0.0
173
     1
 91
-1056964608
340
14
 92
       -2
290
     1
 42
2.0
291
     1
 43
8.0
  3
Standard
 44
4.0
300

342
11
174
     1
178
     1
175
     1
176
     0
 93
-1056964608
 45
4.0
292
     0
297
     0
 46
4.0
 94
-1056964608
 47
1.0
 49
1.0
140
1.0
293
     1
141
0.0
294
     1
177
     0
142
1.0
295
     0
296
     1
143
3.75
271
     0
272
     9
273
     9
298
     0
  0
MLEADERSTYLE
  5
12E
102
{ACAD_REACTORS
330
12D
102
}
330
12D
100
AcDbMLeaderStyle
179
     2
170
     2
171
     1
172
     0
 90
        2
 40
0.0
 41
0.0
173
     1
 91
-1056964608
340
14
 92
       -2
290
     1
 42
2.0
291
     1
 43
8.0
  3
Standard
 44
4.0
300

342
11
174
     1
178
     1
175
     1
176
     0
 93
-1056964608
 45
4.0
292
     0
297
     0
 46
4.0
 94
-1056964608
 47
1.0
 49
1.0
140
1.0
293
     1
141
0.0
294
     1
177
     0
142
1.0
295
     0
296
     0
143
3.75
271
     0
272
     9
273
     9
298
     0
  0
MLINESTYLE
  5
18
102
{ACAD_REACTORS
330
17
102
}
330
17
100
AcDbMlineStyle
  2
STANDARD
 70
     0
  3

 62
   256
 51
90.0
 52
90.0
 71
     2
 49
0.5
 62
   256
  6
BYLAYER
 49
-0.5
 62
   256
  6
BYLAYER
  0
ACDBPLACEHOLDER
  5
F
102
{ACAD_REACTORS
330
E
102
}
330
E
  0
SCALE
  5
10D
102
{ACAD_REACTORS
330
10C
102
}
330
10C
100
AcDbScale
 70
     0
300
1:1
140
1.0
141
1.0
290
     1
  0
SCALE
  5
1BE
102
{ACAD_REACTORS
330
10C
102
}
330
10C
100
AcDbScale
 70
     0
300
1:2
140
1.0
141
2.0
290
     0
  0
SCALE
  5
1BF
102
{ACAD_REACTORS
330
10C
102
}
330
10C
100
AcDbScale
 70
     0
300
1:4
140
1.0
141
4.0
290
     0
  0
SCALE
  5
1C0
102
{ACAD_REACTORS
330
10C
102
}
330
10C
100
AcDbScale
 70
     0
300
1:5
140
1.0
141
5.0
290
     0
  0
SCALE
  5
1C1
102
{ACAD_REACTORS
330
10C
102
}
330
10C
100
AcDbScale
 70
     0
300
1:8
140
1.0
141
8.0
290
     0
  0
SCALE
  5
1C2
102
{ACAD_REACTORS
330
10C
102
}
330
10C
100
AcDbScale
 70
     0
300
1:10
140
1.0
141
10.0
290
     0
  0
SCALE
  5
1C3
102
{ACAD_REACTORS
330
10C
102
}
330
10C
100
AcDbScale
 70
     0
300
1:16
140
1.0
141
16.0
290
     0
  0
SCALE
  5
1C4
102
{ACAD_REACTORS
330
10C
102
}
330
10C
100
AcDbScale
 70
     0
300
1:20
140
1.0
141
20.0
290
     0
  0
SCALE
  5
1C5
102
{ACAD_REACTORS
330
10C
102
}
330
10C
100
AcDbScale
 70
     0
300
1:30
140
1.0
141
30.0
290
     0
  0
SCALE
  5
1C6
102
{ACAD_REACTORS
330
10C
102
}
330
10C
100
AcDbScale
 70
     0
300
1:40
140
1.0
141
40.0
290
     0
  0
SCALE
  5
1C7
102
{ACAD_REACTORS
330
10C
102
}
330
10C
100
AcDbScale
 70
     0
300
1:50
140
1.0
141
50.0
290
     0
  0
SCALE
  5
1C8
102
{ACAD_REACTORS
330
10C
102
}
330
10C
100
AcDbScale
 70
     0
300
1:100
140
1.0
141
100.0
290
     0
  0
SCALE
  5
1C9
102
{ACAD_REACTORS
330
10C
102
}
330
10C
100
AcDbScale
 70
     0
300
2:1
140
2.0
141
1.0
290
     0
  0
SCALE
  5
1CA
102
{ACAD_REACTORS
330
10C
102
}
330
10C
100
AcDbScale
 70
     0
300
4:1
140
4.0
141
1.0
290
     0
  0
SCALE
  5
1CB
102
{ACAD_REACTORS
330
10C
102
}
330
10C
100
AcDbScale
 70
     0
300
8:1
140
8.0
141
1.0
290
     0
  0
SCALE
  5
1CC
102
{ACAD_REACTORS
330
10C
102
}
330
10C
100
AcDbScale
 70
     0
300
10:1
140
10.0
141
1.0
290
     0
  0
SCALE
  5
1CD
102
{ACAD_REACTORS
330
10C
102
}
330
10C
100
AcDbScale
 70
     0
300
100:1
140
100.0
141
1.0
290
     0
  0
ACDBSECTIONVIEWSTYLE
  5
28D
102
{ACAD_XDICTIONARY
360
391
102
}
102
{ACAD_REACTORS
330
219
102
}
330
219
100
AcDbModelDocViewStyle
 70
     0
  3
Imperial24
290
     0
100
AcDbSectionViewStyle
 70
     0
 71
     0
 90
       78
 71
     1
340
11
 62
   256
 40
0.24
340
0
340
0
 62
   256
 40
0.24
300
I, O, Q, S, X, Z
 40
0.48
 90
        3
 40
0.18
 90
        1
 71
     2
340
16
 90
       25
 62
   256
340
16
 90
       50
 62
   256
 40
0.24
 40
0.0
 40
0.24
 71
     3
340
11
 62
   256
 40
0.24
 90
        1
 40
0.75
 90
        1
300
%<\AcVar ViewType \f "%tc1">% %<\AcVar ViewSectionStartId>%-%<\AcVar ViewSectionEndId>%\PSCALA %<\AcVar ViewScale \f "%sn">%
 71
     4
 62
   256
 62
   257
300
ANSI31
 40
1.0
 90
        0
290
     0
290
     0
 90
        6
 40
0.0
 40
1.570796326794896
 40
0.2617993877991494
 40
1.308996938995747
 40
-0.2617993877991494
 40
1.832595714594046
  0
ACDBSECTIONVIEWSTYLE
  5
21A
102
{ACAD_XDICTIONARY
360
38D
102
}
102
{ACAD_REACTORS
330
219
102
}
330
219
100
AcDbModelDocViewStyle
 70
     0
  3
Metric50
290
     0
100
AcDbSectionViewStyle
 70
     0
 71
     0
 90
      102
 71
     1
340
11
 62
   256
 40
5.0
340
0
340
0
 62
   256
 40
5.0
300
I, O, Q, S, X, Z
 40
10.0
 90
        0
 40
2.5
 90
        0
 71
     2
340
16
 90
       25
 62
   256
340
16
 90
       50
 62
   256
 40
5.0
 40
2.5
 40
5.0
 71
     3
340
11
 62
   256
 40
5.0
 90
        0
 40
15.0
 90
        1
300
%<\AcVar ViewSectionStartId>%-%<\AcVar ViewSectionEndId>% (%<\AcVar ViewScale \f "%sn">%)
 71
     4
 62
   256
 62
   257
300
ANSI31
 40
1.0
 90
        0
290
     0
290
     0
 90
        6
 40
0.0
 40
1.570796326794896
 40
0.2617993877991494
 40
1.308996938995747
 40
-0.2617993877991494
 40
1.832595714594046
  0
TABLESTYLE
  5
7F
102
{ACAD_XDICTIONARY
360
162
102
}
102
{ACAD_REACTORS
330
7E
102
}
330
7E
100
AcDbTableStyle
280
     0
  3
Standard
 70
     0
 71
     0
 40
1.5
 41
1.5
280
     0
281
     0
  7
Standard
140
4.5
170
     2
 62
     0
 63
     7
283
     0
 90
      512
 91
        0
  1

274
    -2
284
     1
 64
     0
275
    -2
285
     1
 65
     0
276
    -2
286
     1
 66
     0
277
    -2
287
     1
 67
     0
278
    -2
288
     1
 68
     0
279
    -2
289
     1
 69
     0
  7
Standard
140
6.0
170
     5
 62
     0
 63
     7
283
     0
 90
      512
 91
        0
  1

274
    -2
284
     1
 64
     0
275
    -2
285
     1
 65
     0
276
    -2
286
     1
 66
     0
277
    -2
287
     1
 67
     0
278
    -2
288
     1
 68
     0
279
    -2
289
     1
 69
     0
  7
Standard
140
4.5
170
     5
 62
     0
 63
     7
283
     0
 90
      512
 91
        0
  1

274
    -2
284
     1
 64
     0
275
    -2
285
     1
 65
     0
276
    -2
286
     1
 66
     0
277
    -2
287
     1
 67
     0
278
    -2
288
     1
 68
     0
279
    -2
289
     1
 69
     0
  0
VISUALSTYLE
  5
F5
102
{ACAD_REACTORS
330
EF
102
}
330
EF
100
AcDbVisualStyle
  2
2dWireframe
 70
     4
177
     3
291
     0
 70
    58
 90
        0
176
     1
 90
        2
176
     1
 90
        1
176
     1
 90
        0
176
     1
 40
0.6
176
     1
 40
30.0
176
     1
 62
     7
420
 16777215
176
     1
 90
        1
176
     1
 90
        4
176
     1
 62
     7
176
     1
 62
   257
176
     1
 90
        1
176
     1
 90
        1
176
     1
 40
1.0
176
     1
 90
        0
176
     1
 62
   257
176
     1
 40
1.0
176
     1
 90
        1
176
     1
 90
        6
176
     1
 90
        2
176
     1
 62
     7
176
     1
 90
        5
176
     1
 90
        0
176
     1
 90
        0
176
     1
290
     0
176
     1
 90
        1
176
     1
 40
0.0
176
     1
 90
        0
176
     1
290
     1
176
     1
290
     1
176
     1
290
     0
176
     1
290
     0
176
     1
290
     0
176
     1
290
     0
176
     1
290
     0
176
     1
290
     0
176
     1
290
     0
176
     1
 90
       50
176
     1
 40
0.0
176
     1
 40
1.0
176
     1
 90
        0
176
     1
 62
    18
420
        0
176
     1
 90
       50
176
     1
 90
        3
176
     1
 62
     5
420
      255
176
     1
290
     0
176
     1
 90
       50
176
     1
 90
       50
176
     1
 90
       50
176
     1
290
     0
176
     1
 90
       50
176
     1
 62
   256
176
     0
 40
1.0
176
     0
 90
        2
176
     1
  1
strokes_ogs.tif
176
     1
290
     0
176
     1
 40
1.0
176
     1
 40
1.0
176
     1
1001
ACAD
1000
AcDbSavedByObjectVersion
1070
     0
  0
VISUALSTYLE
  5
F4
102
{ACAD_REACTORS
330
EF
102
}
330
EF
100
AcDbVisualStyle
  2
Basic
 70
     7
177
     3
291
     1
 70
    58
 90
        1
176
     1
 90
        0
176
     1
 90
        1
176
     1
 90
        0
176
     1
 40
0.6
176
     1
 40
30.0
176
     1
 62
     7
420
 16777215
176
     1
 90
        0
176
     1
 90
        4
176
     1
 62
     7
176
     1
 62
   257
176
     1
 90
        1
176
     1
 90
        1
176
     1
 40
1.0
176
     1
 90
        8
176
     1
 62
     7
176
     1
 40
1.0
176
     1
 90
        1
176
     1
 90
        6
176
     1
 90
        2
176
     1
 62
     7
176
     1
 90
        5
176
     1
 90
        0
176
     1
 90
        0
176
     1
290
     0
176
     1
 90
        1
176
     1
 40
0.0
176
     1
 90
        0
176
     1
290
     0
176
     1
290
     1
176
     1
290
     1
176
     1
290
     0
176
     1
290
     0
176
     1
290
     0
176
     1
290
     0
176
     1
290
     0
176
     1
290
     0
176
     1
 90
       50
176
     1
 40
0.0
176
     1
 40
1.0
176
     1
 90
        0
176
     1
 62
    18
420
        0
176
     1
 90
       50
176
     1
 90
        3
176
     1
 62
     5
420
      255
176
     1
290
     0
176
     1
 90
       50
176
     1
 90
       50
176
     1
 90
       50
176
     1
290
     0
176
     1
 90
       50
176
     1
 62
   256
176
     0
 40
1.0
176
     0
 90
        2
176
     1
  1
strokes_ogs.tif
176
     1
290
     0
176
     1
 40
1.0
176
     1
 40
1.0
176
     1
1001
ACAD
1000
AcDbSavedByObjectVersion
1070
     0
  0
VISUALSTYLE
  5
FB
102
{ACAD_REACTORS
330
EF
102
}
330
EF
100
AcDbVisualStyle
  2
Brighten
 70
    12
177
     3
291
     1
 70
    58
 90
        2
176
     1
 90
        2
176
     1
 90
        1
176
     1
 90
        0
176
     1
 40
0.6
176
     1
 40
30.0
176
     1
 62
     7
420
 16777215
176
     1
 90
        1
176
     1
 90
        4
176
     1
 62
     7
176
     1
 62
   257
176
     1
 90
        1
176
     1
 90
        1
176
     1
 40
1.0
176
     1
 90
        8
176
     1
 62
     7
176
     1
 40
1.0
176
     1
 90
        1
176
     1
 90
        6
176
     1
 90
        2
176
     1
 62
     7
176
     1
 90
        5
176
     1
 90
        0
176
     1
 90
        0
176
     1
290
     0
176
     1
 90
        1
176
     1
 40
50.0
176
     1
 90
        0
176
     1
290
     0
176
     1
290
     1
176
     1
290
     1
176
     1
290
     0
176
     1
290
     0
176
     1
290
     0
176
     1
290
     0
176
     1
290
     0
176
     1
290
     0
176
     1
 90
       50
176
     1
 40
0.0
176
     1
 40
1.0
176
     1
 90
        0
176
     1
 62
    18
420
        0
176
     1
 90
       50
176
     1
 90
        3
176
     1
 62
     5
420
      255
176
     1
290
     0
176
     1
 90
       50
176
     1
 90
       50
176
     1
 90
       50
176
     1
290
     0
176
     1
 90
       50
176
     1
 62
   256
176
     0
 40
1.0
176
     0
 90
        2
176
     1
  1
strokes_ogs.tif
176
     1
290
     0
176
     1
 40
1.0
176
     1
 40
1.0
176
     1
1001
ACAD
1000
AcDbSavedByObjectVersion
1070
     0
  0
VISUALSTYLE
  5
FF
102
{ACAD_REACTORS
330
EF
102
}
330
EF
100
AcDbVisualStyle
  2
ColorChange
 70
    16
177
     3
291
     1
 70
    58
 90
        2
176
     1
 90
        2
176
     1
 90
        3
176
     1
 90
        0
176
     1
 40
0.6
176
     1
 40
30.0
176
     1
 62
     8
420
  8421504
176
     1
 90
        1
176
     1
 90
        4
176
     1
 62
     7
176
     1
 62
   257
176
     1
 90
        1
176
     1
 90
        1
176
     1
 40
1.0
176
     1
 90
        8
176
     1
 62
     8
420
  8421504
176
     1
 40
1.0
176
     1
 90
        1
176
     1
 90
        6
176
     1
 90
        2
176
     1
 62
     7
176
     1
 90
        5
176
     1
 90
        0
176
     1
 90
        0
176
     1
290
     0
176
     1
 90
        1
176
     1
 40
0.0
176
     1
 90
        0
176
     1
290
     0
176
     1
290
     1
176
     1
290
     1
176
     1
290
     0
176
     1
290
     0
176
     1
290
     0
176
     1
290
     0
176
     1
290
     0
176
     1
290
     0
176
     1
 90
       50
176
     1
 40
0.0
176
     1
 40
1.0
176
     1
 90
        0
176
     1
 62
    18
420
        0
176
     1
 90
       50
176
     1
 90
        3
176
     1
 62
     5
420
      255
176
     1
290
     0
176
     1
 90
       50
176
     1
 90
       50
176
     1
 90
       50
176
     1
290
     0
176
     1
 90
       50
176
     1
 62
   256
176
     0
 40
1.0
176
     0
 90
        2
176
     1
  1
strokes_ogs.tif
176
     1
290
     0
176
     1
 40
1.0
176
     1
 40
1.0
176
     1
1001
ACAD
1000
AcDbSavedByObjectVersion
1070
     0
  0
VISUALSTYLE
  5
F8
102
{ACAD_REACTORS
330
EF
102
}
330
EF
100
AcDbVisualStyle
  2
Conceptual
 70
     9
177
     3
291
     0
 70
    58
 90
        3
176
     1
 90
        2
176
     1
 90
        1
176
     1
 90
        0
176
     1
 40
0.6
176
     1
 40
30.0
176
     1
 62
     7
420
 16777215
176
     1
 90
        2
176
     1
 90
        2
176
     1
 62
     7
176
     1
 62
   257
176
     1
 90
        1
176
     1
 90
        1
176
     1
 40
40.0
176
     1
 90
        8
176
     1
 62
     7
176
     1
 40
1.0
176
     1
 90
        1
176
     1
 90
        6
176
     1
 90
        2
176
     1
 62
     7
176
     1
 90
        3
176
     1
 90
        0
176
     1
 90
        0
176
     1
290
     0
176
     1
 90
        1
176
     1
 40
0.0
176
     1
 90
        0
176
     1
290
     0
176
     1
290
     1
176
     1
290
     1
176
     1
290
     0
176
     1
290
     0
176
     1
290
     0
176
     1
290
     0
176
     1
290
     0
176
     1
290
     0
176
     1
 90
       50
176
     1
 40
0.0
176
     1
 40
1.0
176
     1
 90
        0
176
     1
 62
    18
420
        0
176
     1
 90
       50
176
     1
 90
        3
176
     1
 62
     5
420
      255
176
     1
290
     0
176
     1
 90
       50
176
     1
 90
       50
176
     1
 90
       50
176
     1
290
     0
176
     1
 90
       50
176
     1
 62
   256
176
     0
 40
1.0
176
     0
 90
        2
176
     1
  1
strokes_ogs.tif
176
     1
290
     0
176
     1
 40
1.0
176
     1
 40
1.0
176
     1
1001
ACAD
1000
AcDbSavedByObjectVersion
1070
     0
  0
VISUALSTYLE
  5
FA
102
{ACAD_REACTORS
330
EF
102
}
330
EF
100
AcDbVisualStyle
  2
Dim
 70
    11
177
     3
291
     1
 70
    58
 90
        2
176
     1
 90
        2
176
     1
 90
        1
176
     1
 90
        0
176
     1
 40
0.6
176
     1
 40
30.0
176
     1
 62
     7
420
 16777215
176
     1
 90
        1
176
     1
 90
        4
176
     1
 62
     7
176
     1
 62
   257
176
     1
 90
        1
176
     1
 90
        1
176
     1
 40
1.0
176
     1
 90
        8
176
     1
 62
     7
176
     1
 40
1.0
176
     1
 90
        1
176
     1
 90
        6
176
     1
 90
        2
176
     1
 62
     7
176
     1
 90
        5
176
     1
 90
        0
176
     1
 90
        0
176
     1
290
     0
176
     1
 90
        1
176
     1
 40
-50.0
176
     1
 90
        0
176
     1
290
     0
176
     1
290
     1
176
     1
290
     1
176
     1
290
     0
176
     1
290
     0
176
     1
290
     0
176
     1
290
     0
176
     1
290
     0
176
     1
290
     0
176
     1
 90
       50
176
     1
 40
0.0
176
     1
 40
1.0
176
     1
 90
        0
176
     1
 62
    18
420
        0
176
     1
 90
       50
176
     1
 90
        3
176
     1
 62
     5
420
      255
176
     1
290
     0
176
     1
 90
       50
176
     1
 90
       50
176
     1
 90
       50
176
     1
290
     0
176
     1
 90
       50
176
     1
 62
   256
176
     0
 40
1.0
176
     0
 90
        2
176
     1
  1
strokes_ogs.tif
176
     1
290
     0
176
     1
 40
1.0
176
     1
 40
1.0
176
     1
1001
ACAD
1000
AcDbSavedByObjectVersion
1070
     0
  0
VISUALSTYLE
  5
1E6
102
{ACAD_REACTORS
330
EF
102
}
330
EF
100
AcDbVisualStyle
  2
EdgeColorOff
 70
    22
177
     3
291
     1
 70
    58
 90
        2
176
     0
 90
        2
176
     0
 90
        0
176
     0
 90
        0
176
     0
 40
0.6
176
     0
 40
30.0
176
     0
 62
     7
420
 16777215
176
     0
 90
        1
176
     0
 90
        4
176
     0
 62
     7
176
     0
 62
   257
176
     0
 90
        1
176
     0
 90
        1
176
     0
 40
1.0
176
     0
 90
        8
176
     2
 62
     7
176
     0
 40
1.0
176
     0
 90
        1
176
     0
 90
        6
176
     0
 90
        2
176
     0
 62
     7
176
     0
 90
        5
176
     0
 90
        0
176
     0
 90
        0
176
     0
290
     0
176
     0
 90
        1
176
     0
 40
0.0
176
     0
 90
        0
176
     0
290
     0
176
     1
290
     1
176
     1
290
     1
176
     1
290
     0
176
     1
290
     0
176
     1
290
     0
176
     1
290
     0
176
     1
290
     0
176
     1
290
     0
176
     1
 90
       50
176
     1
 40
0.0
176
     1
 40
1.0
176
     1
 90
        0
176
     1
 62
    18
420
        0
176
     1
 90
       50
176
     1
 90
        3
176
     1
 62
     5
420
      255
176
     1
290
     0
176
     1
 90
       50
176
     1
 90
       50
176
     1
 90
       50
176
     1
290
     0
176
     1
 90
       50
176
     1
 62
   256
176
     0
 40
1.0
176
     0
 90
        2
176
     1
  1
strokes_ogs.tif
176
     1
290
     0
176
     1
 40
1.0
176
     1
 40
1.0
176
     1
1001
ACAD
1000
AcDbSavedByObjectVersion
1070
     0
  0
VISUALSTYLE
  5
FE
102
{ACAD_REACTORS
330
EF
102
}
330
EF
100
AcDbVisualStyle
  2
Facepattern
 70
    15
177
     3
291
     1
 70
    58
 90
        2
176
     1
 90
        2
176
     1
 90
        1
176
     1
 90
        0
176
     1
 40
0.6
176
     1
 40
30.0
176
     1
 62
     7
420
 16777215
176
     1
 90
        1
176
     1
 90
        4
176
     1
 62
     7
176
     1
 62
   257
176
     1
 90
        1
176
     1
 90
        1
176
     1
 40
1.0
176
     1
 90
        8
176
     1
 62
     7
176
     1
 40
1.0
176
     1
 90
        1
176
     1
 90
        6
176
     1
 90
        2
176
     1
 62
     7
176
     1
 90
        5
176
     1
 90
        0
176
     1
 90
        0
176
     1
290
     0
176
     1
 90
        1
176
     1
 40
0.0
176
     1
 90
        0
176
     1
290
     0
176
     1
290
     1
176
     1
290
     1
176
     1
290
     0
176
     1
290
     0
176
     1
290
     0
176
     1
290
     0
176
     1
290
     0
176
     1
290
     0
176
     1
 90
       50
176
     1
 40
0.0
176
     1
 40
1.0
176
     1
 90
        0
176
     1
 62
    18
420
        0
176
     1
 90
       50
176
     1
 90
        3
176
     1
 62
     5
420
      255
176
     1
290
     0
176
     1
 90
       50
176
     1
 90
       50
176
     1
 90
       50
176
     1
290
     0
176
     1
 90
       50
176
     1
 62
   256
176
     0
 40
1.0
176
     0
 90
        2
176
     1
  1
strokes_ogs.tif
176
     1
290
     0
176
     1
 40
1.0
176
     1
 40
1.0
176
     1
1001
ACAD
1000
AcDbSavedByObjectVersion
1070
     0
  0
VISUALSTYLE
  5
F0
102
{ACAD_REACTORS
330
EF
102
}
330
EF
100
AcDbVisualStyle
  2
Flat
 70
     0
177
     3
291
     1
 70
    58
 90
        2
176
     1
 90
        1
176
     1
 90
        1
176
     1
 90
        2
176
     1
 40
0.6
176
     1
 40
30.0
176
     1
 62
     7
420
 16777215
176
     1
 90
        0
176
     1
 90
        0
176
     1
 62
     7
176
     1
 62
   257
176
     1
 90
        1
176
     1
 90
        1
176
     1
 40
1.0
176
     1
 90
        8
176
     1
 62
     7
176
     1
 40
1.0
176
     1
 90
        1
176
     1
 90
        6
176
     1
 90
        2
176
     1
 62
     7
176
     1
 90
        5
176
     1
 90
        0
176
     1
 90
        0
176
     1
290
     0
176
     1
 90
       13
176
     1
 40
0.0
176
     1
 90
        0
176
     1
290
     0
176
     1
290
     1
176
     1
290
     1
176
     1
290
     0
176
     1
290
     0
176
     1
290
     0
176
     1
290
     0
176
     1
290
     0
176
     1
290
     0
176
     1
 90
       50
176
     1
 40
0.0
176
     1
 40
1.0
176
     1
 90
        0
176
     1
 62
    18
420
        0
176
     1
 90
       50
176
     1
 90
        3
176
     1
 62
     5
420
      255
176
     1
290
     0
176
     1
 90
       50
176
     1
 90
       50
176
     1
 90
       50
176
     1
290
     0
176
     1
 90
       50
176
     1
 62
   256
176
     0
 40
1.0
176
     0
 90
        2
176
     1
  1
strokes_ogs.tif
176
     1
290
     0
176
     1
 40
1.0
176
     1
 40
1.0
176
     1
1001
ACAD
1000
AcDbSavedByObjectVersion
1070
     0
  0
VISUALSTYLE
  5
F1
102
{ACAD_REACTORS
330
EF
102
}
330
EF
100
AcDbVisualStyle
  2
FlatWithEdges
 70
     1
177
     3
291
     1
 70
    58
 90
        2
176
     1
 90
        1
176
     1
 90
        1
176
     1
 90
        2
176
     1
 40
0.6
176
     1
 40
30.0
176
     1
 62
     7
420
 16777215
176
     1
 90
        1
176
     1
 90
        0
176
     1
 62
     7
176
     1
 62
   257
176
     1
 90
        1
176
     1
 90
        1
176
     1
 40
1.0
176
     1
 90
        0
176
     1
 62
   257
176
     1
 40
1.0
176
     1
 90
        1
176
     1
 90
        6
176
     1
 90
        2
176
     1
 62
     7
176
     1
 90
        5
176
     1
 90
        0
176
     1
 90
        0
176
     1
290
     0
176
     1
 90
       13
176
     1
 40
0.0
176
     1
 90
        0
176
     1
290
     0
176
     1
290
     1
176
     1
290
     1
176
     1
290
     0
176
     1
290
     0
176
     1
290
     0
176
     1
290
     0
176
     1
290
     0
176
     1
290
     0
176
     1
 90
       50
176
     1
 40
0.0
176
     1
 40
1.0
176
     1
 90
        0
176
     1
 62
    18
420
        0
176
     1
 90
       50
176
     1
 90
        3
176
     1
 62
     5
420
      255
176
     1
290
     0
176
     1
 90
       50
176
     1
 90
       50
176
     1
 90
       50
176
     1
290
     0
176
     1
 90
       50
176
     1
 62
   256
176
     0
 40
1.0
176
     0
 90
        2
176
     1
  1
strokes_ogs.tif
176
     1
290
     0
176
     1
 40
1.0
176
     1
 40
1.0
176
     1
1001
ACAD
1000
AcDbSavedByObjectVersion
1070
     0
  0
VISUALSTYLE
  5
F2
102
{ACAD_REACTORS
330
EF
102
}
330
EF
100
AcDbVisualStyle
  2
Gouraud
 70
     2
177
     3
291
     1
 70
    58
 90
        2
176
     1
 90
        2
176
     1
 90
        1
176
     1
 90
        2
176
     1
 40
0.6
176
     1
 40
30.0
176
     1
 62
     7
420
 16777215
176
     1
 90
        0
176
     1
 90
        0
176
     1
 62
     7
176
     1
 62
   257
176
     1
 90
        1
176
     1
 90
        1
176
     1
 40
1.0
176
     1
 90
        0
176
     1
 62
     7
176
     1
 40
1.0
176
     1
 90
        1
176
     1
 90
        6
176
     1
 90
        2
176
     1
 62
     7
176
     1
 90
        5
176
     1
 90
        0
176
     1
 90
        0
176
     1
290
     0
176
     1
 90
       13
176
     1
 40
0.0
176
     1
 90
        0
176
     1
290
     0
176
     1
290
     1
176
     1
290
     1
176
     1
290
     0
176
     1
290
     0
176
     1
290
     0
176
     1
290
     0
176
     1
290
     0
176
     1
290
     0
176
     1
 90
       50
176
     1
 40
0.0
176
     1
 40
1.0
176
     1
 90
        0
176
     1
 62
    18
420
        0
176
     1
 90
       50
176
     1
 90
        3
176
     1
 62
     5
420
      255
176
     1
290
     0
176
     1
 90
       50
176
     1
 90
       50
176
     1
 90
       50
176
     1
290
     0
176
     1
 90
       50
176
     1
 62
   256
176
     0
 40
1.0
176
     0
 90
        2
176
     1
  1
strokes_ogs.tif
176
     1
290
     0
176
     1
 40
1.0
176
     1
 40
1.0
176
     1
1001
ACAD
1000
AcDbSavedByObjectVersion
1070
     0
  0
VISUALSTYLE
  5
F3
102
{ACAD_REACTORS
330
EF
102
}
330
EF
100
AcDbVisualStyle
  2
GouraudWithEdges
 70
     3
177
     3
291
     1
 70
    58
 90
        2
176
     1
 90
        2
176
     1
 90
        1
176
     1
 90
        2
176
     1
 40
0.6
176
     1
 40
30.0
176
     1
 62
     7
420
 16777215
176
     1
 90
        1
176
     1
 90
        0
176
     1
 62
     7
176
     1
 62
   257
176
     1
 90
        1
176
     1
 90
        1
176
     1
 40
1.0
176
     1
 90
        0
176
     1
 62
   257
176
     1
 40
1.0
176
     1
 90
        1
176
     1
 90
        6
176
     1
 90
        2
176
     1
 62
     7
176
     1
 90
        5
176
     1
 90
        0
176
     1
 90
        0
176
     1
290
     0
176
     1
 90
       13
176
     1
 40
0.0
176
     1
 90
        0
176
     1
290
     0
176
     1
290
     1
176
     1
290
     1
176
     1
290
     0
176
     1
290
     0
176
     1
290
     0
176
     1
290
     0
176
     1
290
     0
176
     1
290
     0
176
     1
 90
       50
176
     1
 40
0.0
176
     1
 40
1.0
176
     1
 90
        0
176
     1
 62
    18
420
        0
176
     1
 90
       50
176
     1
 90
        3
176
     1
 62
     5
420
      255
176
     1
290
     0
176
     1
 90
       50
176
     1
 90
       50
176
     1
 90
       50
176
     1
290
     0
176
     1
 90
       50
176
     1
 62
   256
176
     0
 40
1.0
176
     0
 90
        2
176
     1
  1
strokes_ogs.tif
176
     1
290
     0
176
     1
 40
1.0
176
     1
 40
1.0
176
     1
1001
ACAD
1000
AcDbSavedByObjectVersion
1070
     0
  0
VISUALSTYLE
  5
F7
102
{ACAD_REACTORS
330
EF
102
}
330
EF
100
AcDbVisualStyle
  2
Hidden
 70
     6
177
     3
291
     0
 70
    58
 90
        1
176
     1
 90
        2
176
     1
 90
        2
176
     1
 90
        0
176
     1
 40
0.6
176
     1
 40
30.0
176
     1
 62
     7
420
 16777215
176
     1
 90
        2
176
     1
 90
        2
176
     1
 62
     7
176
     1
 62
   257
176
     1
 90
        2
176
     1
 90
        1
176
     1
 40
40.0
176
     1
 90
        0
176
     1
 62
   257
176
     1
 40
1.0
176
     1
 90
        1
176
     1
 90
        6
176
     1
 90
        2
176
     1
 62
     7
176
     1
 90
        3
176
     1
 90
        0
176
     1
 90
        0
176
     1
290
     0
176
     1
 90
        1
176
     1
 40
0.0
176
     1
 90
        0
176
     1
290
     0
176
     1
290
     1
176
     1
290
     1
176
     1
290
     0
176
     1
290
     0
176
     1
290
     0
176
     1
290
     0
176
     1
290
     0
176
     1
290
     0
176
     1
 90
       50
176
     1
 40
0.0
176
     1
 40
1.0
176
     1
 90
        0
176
     1
 62
    18
420
        0
176
     1
 90
       50
176
     1
 90
        3
176
     1
 62
     5
420
      255
176
     1
290
     0
176
     1
 90
       50
176
     1
 90
       50
176
     1
 90
       50
176
     1
290
     0
176
     1
 90
       50
176
     1
 62
   256
176
     0
 40
1.0
176
     0
 90
        2
176
     1
  1
strokes_ogs.tif
176
     1
290
     0
176
     1
 40
1.0
176
     1
 40
1.0
176
     1
1001
ACAD
1000
AcDbSavedByObjectVersion
1070
     0
  0
VISUALSTYLE
  5
1E4
102
{ACAD_REACTORS
330
EF
102
}
330
EF
100
AcDbVisualStyle
  2
JitterOff
 70
    20
177
     3
291
     1
 70
    58
 90
        2
176
     0
 90
        2
176
     0
 90
        0
176
     0
 90
        0
176
     0
 40
0.6
176
     0
 40
30.0
176
     0
 62
     7
420
 16777215
176
     0
 90
        1
176
     0
 90
        4
176
     0
 62
     7
176
     0
 62
   257
176
     0
 90
        1
176
     0
 90
        1
176
     0
 40
1.0
176
     0
 90
       10
176
     2
 62
     7
176
     0
 40
1.0
176
     0
 90
        1
176
     0
 90
        6
176
     0
 90
        2
176
     0
 62
     7
176
     0
 90
        5
176
     0
 90
        0
176
     0
 90
        0
176
     0
290
     0
176
     0
 90
        1
176
     0
 40
0.0
176
     0
 90
        0
176
     0
290
     0
176
     1
290
     1
176
     1
290
     1
176
     1
290
     0
176
     1
290
     0
176
     1
290
     0
176
     1
290
     0
176
     1
290
     0
176
     1
290
     0
176
     1
 90
       50
176
     1
 40
0.0
176
     1
 40
1.0
176
     1
 90
        0
176
     1
 62
    18
420
        0
176
     1
 90
       50
176
     1
 90
        3
176
     1
 62
     5
420
      255
176
     1
290
     0
176
     1
 90
       50
176
     1
 90
       50
176
     1
 90
       50
176
     1
290
     0
176
     1
 90
       50
176
     1
 62
   256
176
     0
 40
1.0
176
     0
 90
        2
176
     1
  1
strokes_ogs.tif
176
     1
290
     0
176
     1
 40
1.0
176
     1
 40
1.0
176
     1
1001
ACAD
1000
AcDbSavedByObjectVersion
1070
     0
  0
VISUALSTYLE
  5
FD
102
{ACAD_REACTORS
330
EF
102
}
330
EF
100
AcDbVisualStyle
  2
Linepattern
 70
    14
177
     3
291
     1
 70
    58
 90
        2
176
     1
 90
        2
176
     1
 90
        1
176
     1
 90
        0
176
     1
 40
0.6
176
     1
 40
30.0
176
     1
 62
     7
420
 16777215
176
     1
 90
        1
176
     1
 90
        4
176
     1
 62
     7
176
     1
 62
   257
176
     1
 90
        7
176
     1
 90
        7
176
     1
 40
1.0
176
     1
 90
        8
176
     1
 62
     7
176
     1
 40
1.0
176
     1
 90
        1
176
     1
 90
        6
176
     1
 90
        2
176
     1
 62
     7
176
     1
 90
        5
176
     1
 90
        0
176
     1
 90
        0
176
     1
290
     0
176
     1
 90
        1
176
     1
 40
0.0
176
     1
 90
        0
176
     1
290
     0
176
     1
290
     1
176
     1
290
     1
176
     1
290
     0
176
     1
290
     0
176
     1
290
     0
176
     1
290
     0
176
     1
290
     0
176
     1
290
     0
176
     1
 90
       50
176
     1
 40
0.0
176
     1
 40
1.0
176
     1
 90
        0
176
     1
 62
    18
420
        0
176
     1
 90
       50
176
     1
 90
        3
176
     1
 62
     5
420
      255
176
     1
290
     0
176
     1
 90
       50
176
     1
 90
       50
176
     1
 90
       50
176
     1
290
     0
176
     1
 90
       50
176
     1
 62
   256
176
     0
 40
1.0
176
     0
 90
        2
176
     1
  1
strokes_ogs.tif
176
     1
290
     0
176
     1
 40
1.0
176
     1
 40
1.0
176
     1
1001
ACAD
1000
AcDbSavedByObjectVersion
1070
     0
  0
VISUALSTYLE
  5
1E5
102
{ACAD_REACTORS
330
EF
102
}
330
EF
100
AcDbVisualStyle
  2
OverhangOff
 70
    21
177
     3
291
     1
 70
    58
 90
        2
176
     0
 90
        2
176
     0
 90
        0
176
     0
 90
        0
176
     0
 40
0.6
176
     0
 40
30.0
176
     0
 62
     7
420
 16777215
176
     0
 90
        1
176
     0
 90
        4
176
     0
 62
     7
176
     0
 62
   257
176
     0
 90
        1
176
     0
 90
        1
176
     0
 40
1.0
176
     0
 90
        9
176
     2
 62
     7
176
     0
 40
1.0
176
     0
 90
        1
176
     0
 90
        6
176
     0
 90
        2
176
     0
 62
     7
176
     0
 90
        5
176
     0
 90
        0
176
     0
 90
        0
176
     0
290
     0
176
     0
 90
        1
176
     0
 40
0.0
176
     0
 90
        0
176
     0
290
     0
176
     1
290
     1
176
     1
290
     1
176
     1
290
     0
176
     1
290
     0
176
     1
290
     0
176
     1
290
     0
176
     1
290
     0
176
     1
290
     0
176
     1
 90
       50
176
     1
 40
0.0
176
     1
 40
1.0
176
     1
 90
        0
176
     1
 62
    18
420
        0
176
     1
 90
       50
176
     1
 90
        3
176
     1
 62
     5
420
      255
176
     1
290
     0
176
     1
 90
       50
176
     1
 90
       50
176
     1
 90
       50
176
     1
290
     0
176
     1
 90
       50
176
     1
 62
   256
176
     0
 40
1.0
176
     0
 90
        2
176
     1
  1
strokes_ogs.tif
176
     1
290
     0
176
     1
 40
1.0
176
     1
 40
1.0
176
     1
1001
ACAD
1000
AcDbSavedByObjectVersion
1070
     0
  0
VISUALSTYLE
  5
F9
102
{ACAD_REACTORS
330
EF
102
}
330
EF
100
AcDbVisualStyle
  2
Realistic
 70
     8
177
     3
291
     0
 70
    58
 90
        2
176
     1
 90
        3
176
     1
 90
        0
176
     1
 90
        2
176
     1
 40
0.6
176
     1
 40
30.0
176
     1
 62
     7
420
 16777215
176
     1
 90
        0
176
     1
 90
        0
176
     1
 62
     7
176
     1
 62
   257
176
     1
 90
        1
176
     1
 90
        1
176
     1
 40
1.0
176
     1
 90
        8
176
     1
 62
   257
176
     1
 40
1.0
176
     1
 90
        1
176
     1
 90
        6
176
     1
 90
        2
176
     1
 62
     7
176
     1
 90
        3
176
     1
 90
        0
176
     1
 90
        0
176
     1
290
     0
176
     1
 90
       13
176
     1
 40
0.0
176
     1
 90
        0
176
     1
290
     0
176
     1
290
     1
176
     1
290
     1
176
     1
290
     0
176
     1
290
     0
176
     1
290
     0
176
     1
290
     0
176
     1
290
     0
176
     1
290
     0
176
     1
 90
       50
176
     1
 40
0.0
176
     1
 40
1.0
176
     1
 90
        0
176
     1
 62
    18
420
        0
176
     1
 90
       50
176
     1
 90
        3
176
     1
 62
     5
420
      255
176
     1
290
     0
176
     1
 90
       50
176
     1
 90
       50
176
     1
 90
       50
176
     1
290
     0
176
     1
 90
       50
176
     1
 62
   256
176
     0
 40
1.0
176
     0
 90
        2
176
     1
  1
strokes_ogs.tif
176
     1
290
     0
176
     1
 40
1.0
176
     1
 40
1.0
176
     1
1001
ACAD
1000
AcDbSavedByObjectVersion
1070
     0
  0
VISUALSTYLE
  5
1F3
102
{ACAD_REACTORS
330
EF
102
}
330
EF
100
AcDbVisualStyle
  2
Shaded
 70
    27
177
     3
291
     0
 70
    58
 90
        2
176
     1
 90
        2
176
     1
 90
        1
176
     1
 90
        2
176
     1
 40
0.6
176
     1
 40
30.0
176
     1
 62
     7
420
 16777215
176
     1
 90
        0
176
     1
 90
        4
176
     1
 62
     7
176
     1
 62
   257
176
     1
 90
        1
176
     1
 90
        1
176
     1
 40
1.0
176
     1
 90
        8
176
     1
 62
   257
176
     1
 40
1.0
176
     1
 90
        1
176
     1
 90
        6
176
     1
 90
        2
176
     1
 62
     8
420
  7895160
176
     1
 90
        3
176
     1
 90
        0
176
     1
 90
        0
176
     1
290
     0
176
     1
 90
        5
176
     1
 40
0.0
176
     1
 90
        0
176
     1
290
     0
176
     1
290
     1
176
     1
290
     1
176
     1
290
     0
176
     1
290
     0
176
     1
290
     0
176
     1
290
     0
176
     1
290
     0
176
     1
290
     0
176
     1
 90
       50
176
     1
 40
0.0
176
     1
 40
1.0
176
     1
 90
        0
176
     1
 62
    18
420
        0
176
     1
 90
       50
176
     1
 90
        3
176
     1
 62
     5
420
      255
176
     1
290
     0
176
     1
 90
       50
176
     1
 90
       50
176
     1
 90
       50
176
     1
290
     0
176
     1
 90
       50
176
     1
 62
   256
176
     0
 40
1.0
176
     0
 90
        2
176
     1
  1
strokes_ogs.tif
176
     1
290
     0
176
     1
 40
1.0
176
     1
 40
1.0
176
     1
1001
ACAD
1000
AcDbSavedByObjectVersion
1070
     0
  0
VISUALSTYLE
  5
1F2
102
{ACAD_REACTORS
330
EF
102
}
330
EF
100
AcDbVisualStyle
  2
Shaded with edges
 70
    26
177
     3
291
     0
 70
    58
 90
        2
176
     1
 90
        2
176
     1
 90
        1
176
     1
 90
        2
176
     1
 40
0.6
176
     1
 40
30.0
176
     1
 62
     7
420
 16777215
176
     1
 90
        1
176
     1
 90
        2
176
     1
 62
     7
176
     1
 62
   257
176
     1
 90
        2
176
     1
 90
        1
176
     1
 40
1.0
176
     1
 90
        8
176
     1
 62
   257
176
     1
 40
1.0
176
     1
 90
        1
176
     1
 90
        6
176
     1
 90
        2
176
     1
 62
     7
176
     1
 90
        3
176
     1
 90
        0
176
     1
 90
        0
176
     1
290
     0
176
     1
 90
        5
176
     1
 40
0.0
176
     1
 90
        0
176
     1
290
     0
176
     1
290
     1
176
     1
290
     1
176
     1
290
     0
176
     1
290
     0
176
     1
290
     0
176
     1
290
     0
176
     1
290
     0
176
     1
290
     0
176
     1
 90
       50
176
     1
 40
0.0
176
     1
 40
1.0
176
     1
 90
        0
176
     1
 62
    18
420
        0
176
     1
 90
       50
176
     1
 90
        3
176
     1
 62
     5
420
      255
176
     1
290
     0
176
     1
 90
       50
176
     1
 90
       50
176
     1
 90
       50
176
     1
290
     0
176
     1
 90
       50
176
     1
 62
   256
176
     0
 40
1.0
176
     0
 90
        2
176
     1
  1
strokes_ogs.tif
176
     1
290
     0
176
     1
 40
1.0
176
     1
 40
1.0
176
     1
1001
ACAD
1000
AcDbSavedByObjectVersion
1070
     0
  0
VISUALSTYLE
  5
1EF
102
{ACAD_REACTORS
330
EF
102
}
330
EF
100
AcDbVisualStyle
  2
Shades of Gray
 70
    23
177
     3
291
     0
 70
    58
 90
        2
176
     1
 90
        2
176
     1
 90
        3
176
     1
 90
        0
176
     1
 40
0.6
176
     1
 40
30.0
176
     1
 62
     7
420
 16777215
176
     1
 90
        2
176
     1
 90
        2
176
     1
 62
     7
176
     1
 62
     7
176
     1
 90
        1
176
     1
 90
        1
176
     1
 40
40.0
176
     1
 90
        8
176
     1
 62
     7
176
     1
 40
1.0
176
     1
 90
        1
176
     1
 90
        6
176
     1
 90
        2
176
     1
 62
     7
176
     1
 90
        3
176
     1
 90
        0
176
     1
 90
        0
176
     1
290
     0
176
     1
 90
        1
176
     1
 40
0.0
176
     1
 90
        0
176
     1
290
     0
176
     1
290
     1
176
     1
290
     1
176
     1
290
     0
176
     1
290
     0
176
     1
290
     0
176
     1
290
     0
176
     1
290
     0
176
     1
290
     0
176
     1
 90
       50
176
     1
 40
0.0
176
     1
 40
1.0
176
     1
 90
        0
176
     1
 62
    18
420
        0
176
     1
 90
       50
176
     1
 90
        3
176
     1
 62
     5
420
      255
176
     1
290
     0
176
     1
 90
       50
176
     1
 90
       50
176
     1
 90
       50
176
     1
290
     0
176
     1
 90
       50
176
     1
 62
   256
176
     0
 40
1.0
176
     0
 90
        2
176
     1
  1
strokes_ogs.tif
176
     1
290
     0
176
     1
 40
1.0
176
     1
 40
1.0
176
     1
1001
ACAD
1000
AcDbSavedByObjectVersion
1070
     0
  0
VISUALSTYLE
  5
1F0
102
{ACAD_REACTORS
330
EF
102
}
330
EF
100
AcDbVisualStyle
  2
Sketchy
 70
    24
177
     3
291
     0
 70
    58
 90
        1
176
     1
 90
        2
176
     1
 90
        2
176
     1
 90
        0
176
     1
 40
0.6
176
     1
 40
30.0
176
     1
 62
     7
420
 16777215
176
     1
 90
        2
176
     1
 90
        2
176
     1
 62
     7
176
     1
 62
     7
176
     1
 90
        1
176
     1
 90
        1
176
     1
 40
40.0
176
     1
 90
       11
176
     1
 62
     7
176
     1
 40
1.0
176
     1
 90
        1
176
     1
 90
        6
176
     1
 90
        2
176
     1
 62
     7
176
     1
 90
        6
176
     1
 90
        0
176
     1
 90
        0
176
     1
290
     0
176
     1
 90
        1
176
     1
 40
0.0
176
     1
 90
        0
176
     1
290
     0
176
     1
290
     1
176
     1
290
     1
176
     1
290
     0
176
     1
290
     0
176
     1
290
     0
176
     1
290
     0
176
     1
290
     0
176
     1
290
     0
176
     1
 90
       50
176
     1
 40
0.0
176
     1
 40
1.0
176
     1
 90
        0
176
     1
 62
    18
420
        0
176
     1
 90
       50
176
     1
 90
        3
176
     1
 62
     5
420
      255
176
     1
290
     0
176
     1
 90
       50
176
     1
 90
       50
176
     1
 90
       50
176
     1
290
     0
176
     1
 90
       50
176
     1
 62
   256
176
     0
 40
1.0
176
     0
 90
        2
176
     1
  1
strokes_ogs.tif
176
     1
290
     0
176
     1
 40
1.0
176
     1
 40
1.0
176
     1
1001
ACAD
1000
AcDbSavedByObjectVersion
1070
     0
  0
VISUALSTYLE
  5
FC
102
{ACAD_REACTORS
330
EF
102
}
330
EF
100
AcDbVisualStyle
  2
Thicken
 70
    13
177
     3
291
     1
 70
    58
 90
        2
176
     1
 90
        2
176
     1
 90
        1
176
     1
 90
        0
176
     1
 40
0.6
176
     1
 40
30.0
176
     1
 62
     7
420
 16777215
176
     1
 90
        1
176
     1
 90
        4
176
     1
 62
     7
176
     1
 62
   257
176
     1
 90
        1
176
     1
 90
        1
176
     1
 40
1.0
176
     1
 90
       12
176
     1
 62
     7
176
     1
 40
1.0
176
     1
 90
        1
176
     1
 90
        6
176
     1
 90
        2
176
     1
 62
     7
176
     1
 90
        5
176
     1
 90
        0
176
     1
 90
        0
176
     1
290
     0
176
     1
 90
        1
176
     1
 40
0.0
176
     1
 90
        0
176
     1
290
     0
176
     1
290
     1
176
     1
290
     1
176
     1
290
     0
176
     1
290
     0
176
     1
290
     0
176
     1
290
     0
176
     1
290
     0
176
     1
290
     0
176
     1
 90
       50
176
     1
 40
0.0
176
     1
 40
1.0
176
     1
 90
        0
176
     1
 62
    18
420
        0
176
     1
 90
       50
176
     1
 90
        3
176
     1
 62
     5
420
      255
176
     1
290
     0
176
     1
 90
       50
176
     1
 90
       50
176
     1
 90
       50
176
     1
290
     0
176
     1
 90
       50
176
     1
 62
   256
176
     0
 40
1.0
176
     0
 90
        2
176
     1
  1
strokes_ogs.tif
176
     1
290
     0
176
     1
 40
1.0
176
     1
 40
1.0
176
     1
1001
ACAD
1000
AcDbSavedByObjectVersion
1070
     0
  0
VISUALSTYLE
  5
F6
102
{ACAD_REACTORS
330
EF
102
}
330
EF
100
AcDbVisualStyle
  2
Wireframe
 70
     5
177
     3
291
     0
 70
    58
 90
        0
176
     1
 90
        2
176
     1
 90
        0
176
     1
 90
        0
176
     1
 40
0.6
176
     1
 40
30.0
176
     1
 62
     7
420
 16777215
176
     1
 90
        1
176
     1
 90
        4
176
     1
 62
     7
176
     1
 62
   257
176
     1
 90
        1
176
     1
 90
        1
176
     1
 40
1.0
176
     1
 90
        0
176
     1
 62
   257
176
     1
 40
1.0
176
     1
 90
        1
176
     1
 90
        6
176
     1
 90
        2
176
     1
 62
     7
176
     1
 90
        3
176
     1
 90
        0
176
     1
 90
        0
176
     1
290
     0
176
     1
 90
        1
176
     1
 40
0.0
176
     1
 90
        0
176
     1
290
     0
176
     1
290
     1
176
     1
290
     1
176
     1
290
     0
176
     1
290
     0
176
     1
290
     0
176
     1
290
     0
176
     1
290
     0
176
     1
290
     0
176
     1
 90
       50
176
     1
 40
0.0
176
     1
 40
1.0
176
     1
 90
        0
176
     1
 62
    18
420
        0
176
     1
 90
       50
176
     1
 90
        3
176
     1
 62
     5
420
      255
176
     1
290
     0
176
     1
 90
       50
176
     1
 90
       50
176
     1
 90
       50
176
     1
290
     0
176
     1
 90
       50
176
     1
 62
   256
176
     0
 40
1.0
176
     0
 90
        2
176
     1
  1
strokes_ogs.tif
176
     1
290
     0
176
     1
 40
1.0
176
     1
 40
1.0
176
     1
1001
ACAD
1000
AcDbSavedByObjectVersion
1070
     0
  0
VISUALSTYLE
  5
1F1
102
{ACAD_REACTORS
330
EF
102
}
330
EF
100
AcDbVisualStyle
  2
X-Ray
 70
    25
177
     3
291
     0
 70
    58
 90
        2
176
     1
 90
        2
176
     1
 90
        1
176
     1
 90
        1
176
     1
 40
0.5
176
     1
 40
30.0
176
     1
 62
     7
420
 16777215
176
     1
 90
        1
176
     1
 90
        0
176
     1
 62
     7
176
     1
 62
   257
176
     1
 90
        1
176
     1
 90
        1
176
     1
 40
1.0
176
     1
 90
        8
176
     1
 62
     7
176
     1
 40
1.0
176
     1
 90
        1
176
     1
 90
        6
176
     1
 90
        2
176
     1
 62
     7
176
     1
 90
        3
176
     1
 90
        0
176
     1
 90
        0
176
     1
290
     0
176
     1
 90
       13
176
     1
 40
0.0
176
     1
 90
        0
176
     1
290
     0
176
     1
290
     1
176
     1
290
     1
176
     1
290
     0
176
     1
290
     0
176
     1
290
     0
176
     1
290
     0
176
     1
290
     0
176
     1
290
     0
176
     1
 90
       50
176
     1
 40
0.0
176
     1
 40
1.0
176
     1
 90
        0
176
     1
 62
    18
420
        0
176
     1
 90
       50
176
     1
 90
        3
176
     1
 62
     5
420
      255
176
     1
290
     0
176
     1
 90
       50
176
     1
 90
       50
176
     1
 90
       50
176
     1
290
     0
176
     1
 90
       50
176
     1
 62
   256
176
     0
 40
1.0
176
     0
 90
        2
176
     1
  1
strokes_ogs.tif
176
     1
290
     0
176
     1
 40
1.0
176
     1
 40
1.0
176
     1
1001
ACAD
1000
AcDbSavedByObjectVersion
1070
     0
  0
DICTIONARYVAR
  5
146
102
{ACAD_REACTORS
330
5E
102
}
330
5E
100
DictionaryVariables
280
     0
  1
1:1
  0
DICTIONARYVAR
  5
259
102
{ACAD_REACTORS
330
5E
102
}
330
5E
100
DictionaryVariables
280
     0
  1
3.500000
  0
DICTIONARYVAR
  5
25A
102
{ACAD_REACTORS
330
5E
102
}
330
5E
100
DictionaryVariables
280
     0
  1
acadiso.lin
  0
DICTIONARYVAR
  5
145
102
{ACAD_REACTORS
330
5E
102
}
330
5E
100
DictionaryVariables
280
     0
  1
STANDARD
  0
DICTIONARYVAR
  5
84
102
{ACAD_REACTORS
330
5E
102
}
330
5E
100
DictionaryVariables
280
     0
  1
STANDARD
  0
DICTIONARYVAR
  5
227
102
{ACAD_REACTORS
330
5E
102
}
330
5E
100
DictionaryVariables
280
     0
  1
Metric50
  0
DICTIONARYVAR
  5
228
102
{ACAD_REACTORS
330
5E
102
}
330
5E
100
DictionaryVariables
280
     0
  1
Metric50
  0
DICTIONARYVAR
  5
5F
102
{ACAD_REACTORS
330
5E
102
}
330
5E
100
DictionaryVariables
280
     0
  1
2
  0
DICTIONARYVAR
  5
63
102
{ACAD_REACTORS
330
5E
102
}
330
5E
100
DictionaryVariables
280
     0
  1
1
  0
DICTIONARYVAR
  5
1AE
102
{ACAD_REACTORS
330
5E
102
}
330
5E
100
DictionaryVariables
280
     0
  1
0
  0
DICTIONARYVAR
  5
1AF
102
{ACAD_REACTORS
330
5E
102
}
330
5E
100
DictionaryVariables
280
     0
  1
0
  0
DICTIONARY
  5
38C
102
{ACAD_REACTORS
330
38A
102
}
330
38A
100
AcDbDictionary
281
     1
  0
DICTIONARY
  5
38B
102
{ACAD_REACTORS
330
38A
102
}
330
38A
100
AcDbDictionary
281
     1
  3
1670311394512
350
385
  3
1670311394528
350
386
  3
1670311394544
350
387
  3
1670311394560
350
388
  3
1670311394576
350
389
  0
DICTIONARY
  5
393
330
28E
100
AcDbDictionary
280
     1
281
     1
  3
ACAD_XREC_ROUNDTRIP
360
394
  0
DICTIONARY
  5
38F
330
21C
100
AcDbDictionary
280
     1
281
     1
  3
ACAD_XREC_ROUNDTRIP
360
390
  0
DICTIONARY
  5
205
330
22
100
AcDbDictionary
280
     1
281
     1
  0
DICTIONARY
  5
1F9
330
ED
100
AcDbDictionary
280
     1
281
     1
  3
FBXASSET
360
1FA
  0
DICTIONARY
  5
1F7
330
EC
100
AcDbDictionary
280
     1
281
     1
  3
FBXASSET
360
1F8
  0
DICTIONARY
  5
173
330
EE
100
AcDbDictionary
280
     1
281
     1
  3
BUMPTILE
360
175
  3
DIFFUSETILE
360
174
  3
FBXASSET
360
1FB
  3
OPACITYTILE
360
176
  3
REFLECTIONTILE
360
177
  0
DICTIONARY
  5
391
330
28D
100
AcDbDictionary
280
     1
281
     1
  3
ACAD_XREC_ROUNDTRIP
360
392
  0
DICTIONARY
  5
38D
330
21A
100
AcDbDictionary
280
     1
281
     1
  3
ACAD_XREC_ROUNDTRIP
360
38E
  0
DICTIONARY
  5
162
330
7F
100
AcDbDictionary
280
     1
281
     1
  3
ACAD_ROUNDTRIP_2008_TABLESTYLE_CELLSTYLEMAP
360
383
  0
XRECORD
  5
385
102
{ACAD_REACTORS
330
38B
102
}
330
38B
100
AcDbXrecord
280
     1
  1
AcDb_Thumbnail_Schema
102
{ATTRRECORD
341
386
  2
AcDbDs::TreatedAsObjectData
280
     1
291
     1
102
ATTRRECORD}
102
{ATTRRECORD
341
387
  2
AcDbDs::Legacy
280
     1
291
     1
102
ATTRRECORD}
  2
AcDbDs::ID
280
    10
 91
        8
102
{ATTRRECORD
341
388
  2
AcDs:Indexable
280
     1
291
     1
102
ATTRRECORD}
102
{ATTRRECORD
341
389
  2
AcDbDs::HandleAttribute
280
     7
282
     1
102
ATTRRECORD}
  2
Thumbnail_Data
280
    15
 91
        0
  0
XRECORD
  5
386
102
{ACAD_REACTORS
330
38B
102
}
330
38B
100
AcDbXrecord
280
     1
  1
AcDbDs::TreatedAsObjectDataSchema
  2
AcDbDs::TreatedAsObjectData
280
     1
 91
        0
  0
XRECORD
  5
387
102
{ACAD_REACTORS
330
38B
102
}
330
38B
100
AcDbXrecord
280
     1
  1
AcDbDs::LegacySchema
  2
AcDbDs::Legacy
280
     1
 91
        0
  0
XRECORD
  5
388
102
{ACAD_REACTORS
330
38B
102
}
330
38B
100
AcDbXrecord
280
     1
  1
AcDbDs::IndexedPropertySchema
  2
AcDs:Indexable
280
     1
 91
        0
  0
XRECORD
  5
389
102
{ACAD_REACTORS
330
38B
102
}
330
38B
100
AcDbXrecord
280
     1
  1
AcDbDs::HandleAttributeSchema
  2
AcDbDs::HandleAttribute
280
     7
 91
        1
284
     1
  0
XRECORD
  5
394
102
{ACAD_REACTORS
330
393
102
}
330
393
100
AcDbXrecord
280
     1
102
DISPLAYNAME
  1
Imperial24
102
FLAGS
 90
        0
  0
XRECORD
  5
390
102
{ACAD_REACTORS
330
38F
102
}
330
38F
100
AcDbXrecord
280
     1
102
DISPLAYNAME
  1
Metric50
102
FLAGS
 90
        0
  0
XRECORD
  5
1FA
102
{ACAD_REACTORS
330
1F9
102
}
330
1F9
100
AcDbXrecord
280
     1
 70
     1
 90
429727718
  1
D62C5603-E3A1-4AEA-B7FB-FE5D8D0755AF
310
504B03040A0000080000CC70623B3DEE336E79000000790000001B0000006175746F6465736B2D64657369676E2D7061636B6167652E786D6C3C3F786D6C2076657273696F6E3D22312E302220656E636F64696E673D227574662D3822203F3E3C666F726D6174733E3C666F726D61743E687474703A2F2F736368656D612E
310
6175746F6465736B2E636F6D2F64657369676E2D7061636B6167652F323030393C2F666F726D61743E3C2F666F726D6174733E504B0304140006080800CC70623BD486FD9CA0000000F4000000130000005B436F6E74656E745F54797065735D2E786D6C7D8EC10E82300C865F65E91D8A1E8C310C0EEA1BF002731658846E
310
D98AC1B77784ABF1D8FE5FBFBF75BBCE937A534CCEB38643598122B6FEE978D0B0485F9C41B54DDD7D022595594E1A469170414C76A4D9A4D207E29CF43ECE46F218070CC6BECC4078ACAA135ACF422C856C0E68EA1BF5669944DDD7BCDE7B1F8E415D77AECB980613C2E4AC91FC167A2B244592486606FC29C8FD7F045B9A
310
EF7053A7E60B504B0304140006080800CC70623B853B8169EB0000007C01000008000000636F72652E786D6C8D90416EC3201045AF62CDB6C206821CC7C244919D9CA01740401C94182C03558F5F9C3852BBEB6A467FFE9B197D7EFC9E1EC5975982F5AE035262288C535E5B377690E21535501C055FBC8FBF6C503839990E
310
5619041F179FE64D52DE45E362569DD7661365082642A11EB9E920A89B99642953CC8E702F67A9EE7234257977194EC9EAE275C4EABCCF5EAD5940D4AC6F0E35A568B8F43562CD7046CD199FD07E60174276A7BE677B5EADB0E0D14EEFFB6A31321A0D82627C4084204C3F096B71DD52F6819B16635EADF63F509AF53FA164
310
5DDCD1EDDD17164090FCC8732078B56691CB33A85CD7DCC40F504B0304140006080800CC70623B55019EA25F0000007C00000007000000636E782E786D6C4DCB3B0E80201045D1AD90E915ED2CF8AC45050C11660C8261F98AB1B07AC9C97D42D718D865D3E909258CFD00CCE24AC6E326A164D74DC0B4128928FF32603847
310
2BA13128B1252AC747C6BAB984FC68F0B87FE8960A5C09FE86CFB69FBA01504B0304140006080800CC70623BDBABAAF470010000D40300000C0000006662782F636F72652E786D6CC553D16E823014FD95A6AF4B694182CC941A83FA05FB810A9511A125A5257EFE2E82712ECEB8A7F100CD39F7F69E734AF9FADC366850B6
310
AF8DCE7018308C942E4C59EB2AC3DE1D498AD15A706B8CFB56869196ADCAF00863C12B6B7C374385D14E6907A836A59A41D9F7CA615434B0C8705F7CAA5606D23BA8E84F41278B93AC54100640439DE0BDB320004D43C63716C7C399D30917DCFBBA9CD9BA8469F5B156168B24CED3F7248AC8769F27244EB73B92EED8862C
310
B7F13E0C179B3C8F979C8ECD82BBBABDAA2BAC924E9558448CBD9330242CFA08E3154B5651FCC6D215639C8EE5774DBE2B5F6CF2B5768B68963BB5F5588420E442FC700B1139D4CB01F450C1E918227C2E09DF070D8140C84E1E9AAB8F1340832A9CB13130A5F1376A908D57309505ECF2A0DF179C4E9D30F5B239B87E3823
310
7A79C6F31DE1A8A5AEC08474B03C7837EAE4938639B44E5932B833D2C6B6B279CDC613877FA26EE21F4A2A4C63EC7F29A2F301D1F9F7A0E37D145F504B0304140006080800CC70623B9C113CC27E0000009D0000000B0000006662782F636E782E786D6C4DCCDF0A83201C86E15B91DFB94BFB330DD428C8FB886521330DA7
310
6397BF1A1DECE883878F57749FCDA1B7892F1BBC047A23808C7F84D9FA55424E0BE6803A256208E9EF06C84F9B91703228B1C690F78B66B34CD9A5439DF5CF0BFBF65E35BCA1B8D6A5C6F540381E886698B5741C695F9503EBA150A2F8958E3DC3EA0B504B0304140006080800CC70623B7DF2F77C2A010000120200003100
310
00006662782F41393633353835312D344632462D344230382D423046372D3739314545314133324237412F636F72652E786D6C8D51DB8EC22014FC15C2939B0D2DB4B45643319AE817EC0F6041255A68B86CFCFC856D4D76DF7CE190393373060EDB3DC707F856CE6B6B7A480A0C81328395DA5C7B18C3057510EC3873D686
310
3F34088C18550F330C39BB3A1BA7051AAC09CA84841A2BD5020AEF55806078A44B0FFD7053A328440C89E1EFC52486BBB8AA8214A99D789CF9E05200300FC927E4FB4D5B375D43103D5527440FB843077C5AA3F5861C8F645F5787F59E95B390B318B55CE45AA638FAA2957BD7248B390B7A7CC51F9C124149C82B8C378810
310
84AB2F42B7B8DD56F413775B8C5999E9FF4471926F8AA236A1AE96B8B3CC434E5839373893369E1FAF30EA395917409EB7F26AF8801C171837A4A6AC9C89E9F9C9B1A58BA30FD6A5EF5DDDCF894B9AD9B6A59C957943A9FCAE2FD5BC4DFE03504B0304140006080800CC70623BAD7543B64E01000033030000300000006662
310
782F41393633353835312D344632462D344230382D423046372D3739314545314133324237412F636E782E786D6CD593CD6EC32010845F0571AD6CE3D48AD20813A9873E410FBD12D82434182C7EAAE6EDBB2424CD25871E7B41D6EC30B3FA84F9E67BB2E40B4234DE8DB46F1925E094D7C6ED479AD3AE5951B2113C789FEE
310
6C943839C1488B4C05DF079FE72A69D8C96C13AAD6B8631503449F83828872B949AC57D26200B826A308D316B4064D6E46FCDA41C05550DC9E483A00797BFD207EFB092A45DE9514C1BBD22178396BD39D891265658C238DEA00936C654E5E433CB65A26D9F6EDB5EBC14EBF49A45CB856E66048291F6939A9A81BB5C89177
310
38143CA680F4AA299D66A042CEB3354A2684DC9D8D178FE0D9B8B41CAAD720F880EE7EF93C0C18769E099ECC04D5A102C8049A8A05632F4DDF376CF1DE0F6BB65C2F8627B65A33C6BB62177CEBBDAD973006829F89F22E814B54F4BC2BE347F8AA8F681390B50FA73F804400B5F542E796F19FF974E7F78DB802FE05E20750
310
4B0304140006080800CC70623BE75B7789680500003C100000340000006662782F41393633353835312D344632462D344230382D423046372D3739314545314133324237412F6F626A656374732E786D6CAD575B8F9B3818FD2B887D06C22499CB8AA1CA655245D5B455A356FB305264C061D8018C6C3393D95FBFC7600890
310
A4CD5EF210B0B1BFEBF98E3F7B1FF6596ABC522E1296DF9BAE3D320D9A872C4AF2F8DE2CE5CEBA358D0FBEC719939D65A691938CDE9B6ADAF4BD98B3B2D05311DD91329583D9D5FC0F438434A7A611A644887B5384CF34233629258BA878B12322891DEFF6B66BD70BFB62634E8AE781D082709A4B588AF91C528CDA28B73F
310
1C998EEF39EABBEFA97FBD6A7C7E9553F9D3D79FE442923C3C523610337627CB87ABE99D359D4CC6D6E4FACAB5E6ABF9D2726FC6A3C5F56271377BB88362213924694B38DD99FE47C48627A1E7D49F5A8BB5E1A74C0A599ED3B0F21F1E56366B89112D681E218F0915D0D6F17AD41FBA2A369DCF6335D62ABBD39779D5DDD1
310
11D4D8DE3CBB96B2E04FB8202E41051754A1AA8E8F76B4C6DFE810B580B1547F4B84911149794252234D024EF8BBE963A95AE27B3D310A9D5C215C7960FAEE415ED75694C6AFB17BCACA5D99A60A9AA65F217B0BFC53292ACB92BF283FAD0D3621576592CB5BED907C2FA8E9DF794E35E97BEA31BED21FEB401ABB94C44839
310
DCACBF0E1C5DA8DA5B2F4DFFD32AD86F543D9E565E7056502E157C00AD2671CD534549AB752FCA9CDA00677A313F04E51B22FF19E57B300579E3C97EB29F682D92935CEC18CF901B7B54FD8C51F362B56FC72FE0B3C1EAE335EDCCBF5AEC39ADB17DC238973F804BA5E6F6BFE7AF1FB32E523BE9F3BD571418E3631DCA4D48
310
5250CF639223210A9446CA30052EDF057BD35F8329C1ECD84552BF0DC8D18BE7BCE23BFE6BD960AB4A7DE79923A103BEBD80F911CBAA2C60DB19B01CF164A5583B772EE6D3FFA56666CBCDA74DC97724A48F9A58967497E489C4D979006FD7A05E227A1EBDD0F737C623387A9C844D3709995625106D157315F8B8392CD4E0
310
A0B9A720C4BE9829CEF37EA1E13111214D53925356365ADA634861B52519DD27A00AEB808EAF0628E6F435519D446F45CF2C9CF5214F0A15B2F6D06B79DA3EE3CBF7F56780D2F4E7EF73A0F5E5B02A38D07DC852C6B7C1FBB6664213E0C39E3EBA7FF4E1AD23EA2829407C85E586727488B751B2DB9502BC7B228A3FD68B6E
310
A65A22397E690AA8D158D7E404EC8CDA235CC3B7D1898680131CEC2CDF2638C65196279577750F15884AEE19F94199155B92B13297978469D4F8D358DF0AEF7631E28DC8F0D9F437D5D39A83B2231A1D52D543813A824EF8D44BCFF2FA6A31BD1E8DAD87F1CCB526B3879935BF59CDADD5C37479BB1CDD4CA7B3556B516589
310
EF352754B706114D9C885EC9131DE6EFEB43D99AFE2391C2F958179413D7CFEF6B1B6DB1E7600F00DE6E5C67454A339A4BA2E0FBA85ED26F045D454F463DBFCE484C2F90F2E5E3666003662ED8F755951A7D1BECD5B30B550B2785C8E7320B7292A4838DDA71BBC863ED7613CAF659337A3354231D4FF4A182A54904C2898C
310
98B28C4AD0CE056CCF332A80986E571EE9DBC305BB5FEB7E509220A58D25CF042D712A806AC0AD0C657FDEF80D2D9CEAA2EE4D1C76F60BFE74219A06527D6F82DF6412526107381E55E353090704D085B52408A8913C4ED159D79BDA71BB4BC506F4831350EB6F975CD22D69BF7AC49B91A2C0A9DDA3D5CA36AD20FC478E37
310
E61844E2352865EBCB61A275A65283CAAA9DD27703B4102F5AF51EF5F573B75CBB5AD38BC845F7A49F82A0966A49C2E3EA5EA0ECD326CD965F1DB402C6FA8B51A4658C5C5E2EC9E214602E55810345408596591009A82E7E7FFACA19EEA299B14A0081A705CB3296EBC14CDF658DCD336EA6D1136881AAEB87B81AB9EE53D5
310
F5EB8BC8362082DA24122F98680A4E7930C01A0079749CEA14382A0783E5EBA5A10F8C098456A03D6A4AEB6BB881E2513747552A5DB22C7EDAF83BD5528081A365F7FF06504B0304140006080000CC70623B000000000000000000000000350000006662782F41393633353835312D344632462D344230382D423046372D37
310
39314545314133324237412F76657274696365732E62696E504B0304140006080800CC70623BF270F1330600000004000000360000006662782F41393633353835312D344632462D344230382D423046372D3739314545314133324237412F747269616E676C65732E62696E636660600000504B0304140006080000CC7062
310
3B000000000000000000000000370000006662782F41393633353835312D344632462D344230382D423046372D3739314545314133324237412F617474726962757465732E62696E504B0304140006080800CC70623B08DA0BD19000000041010000360000006662782F41393633353835312D344632462D344230382D4230
310
46372D3739314545314133324237412F6469726563746F72792E786D6C858F410AC3201045AF22B36F53E9A60B35CBEEBAE80D244E44489C6234F4F835464A48035D0DF398FF9F8AF63D0E6CC63039F212F8F9020C7D47C6792B21C5FE7403D62A1188E2E60C98D7234A5830286103A55745067B9D86B8A3CF9C7F90C11DE6
310
07FB144396D7B6A82D282E9A152AD114D5EF2CB866EEE831B8EEA07A7BB5A8D7D61A2BAAEB7FD5F70921FF497D00504B0304140006080800CC70623BEDD1DC58FD000000A00100003B0000006662782F41393633353835312D344632462D344230382D423046372D3739314545314133324237412F7265736F75726365732F
310
636F72652E786D6C8D504B6E833010BD0A9A6D65B00922041947112427E8052C33A156828DFCA97AFC9A40A576D7CDCCE87D344F8F9FBFE667F689CE6B6B3A6039850C8DB2A336530731DC4903D95970676DF82583CCC8193B5861107C72362E3BA4AC096842428D1D7107A5F7182053CF7474E0D507CE32973124857FE48B
310
540F3961CEF244279DE03EB81420DB9EAC1384436FA353E879B1B182C7A8C75DA3C7F453DF353A1075D537A7BA6464B8F535A99AE14A9A2BBD90E350DD183B5CFABE3AF262350B1EF4FC9351399401471025A527C218A1E53BAB5A5AB765F5469B96525EACF23FA6B88CFF34456DC2A1DCE36E360F82A5202F42F062ED2BAD
310
579969AFDD8A6F504B010214000A0000080000CC70623B3DEE336E79000000790000001B00000000000000000000000000000000006175746F6465736B2D64657369676E2D7061636B6167652E786D6C504B01021400140006080800CC70623BD486FD9CA0000000F40000001300000000000000000000000000B20000005B
310
436F6E74656E745F54797065735D2E786D6C504B01021400140006080800CC70623B853B8169EB0000007C010000080000000000000000000000000083010000636F72652E786D6C504B01021400140006080800CC70623B55019EA25F0000007C000000070000000000000000000000000094020000636E782E786D6C504B
310
01021400140006080800CC70623BDBABAAF470010000D40300000C00000000000000000000000000180300006662782F636F72652E786D6C504B01021400140006080800CC70623B9C113CC27E0000009D0000000B00000000000000000000000000B20400006662782F636E782E786D6C504B01021400140006080800CC70
310
623B7DF2F77C2A010000120200003100000000000000000000000000590500006662782F41393633353835312D344632462D344230382D423046372D3739314545314133324237412F636F72652E786D6C504B01021400140006080800CC70623BAD7543B64E010000330300003000000000000000000000000000D2060000
310
6662782F41393633353835312D344632462D344230382D423046372D3739314545314133324237412F636E782E786D6C504B01021400140006080800CC70623BE75B7789680500003C10000034000000000000000000000000006E0800006662782F41393633353835312D344632462D344230382D423046372D3739314545
310
314133324237412F6F626A656374732E786D6C504B01021400140006080000CC70623B0000000000000000000000003500000000000000000000000000280E00006662782F41393633353835312D344632462D344230382D423046372D3739314545314133324237412F76657274696365732E62696E504B01021400140006
310
080800CC70623BF270F133060000000400000036000000000000000000000000007B0E00006662782F41393633353835312D344632462D344230382D423046372D3739314545314133324237412F747269616E676C65732E62696E504B01021400140006080000CC70623B0000000000000000000000003700000000000000
310
000000000000D50E00006662782F41393633353835312D344632462D344230382D423046372D3739314545314133324237412F617474726962757465732E62696E504B01021400140006080800CC70623B08DA0BD1900000004101000036000000000000000000000000002A0F00006662782F41393633353835312D344632
310
462D344230382D423046372D3739314545314133324237412F6469726563746F72792E786D6C504B01021400140006080800CC70623BEDD1DC58FD000000A00100003B000000000000000000000000000E1000006662782F41393633353835312D344632462D344230382D423046372D3739314545314133324237412F7265
310
736F75726365732F636F72652E786D6C504B0506000000000E000E0080040000641100000000
  0
XRECORD
  5
1F8
102
{ACAD_REACTORS
330
1F7
102
}
330
1F7
100
AcDbXrecord
280
     1
 70
     1
 90
429727718
  1
30362254-06B7-45E0-A893-8CFA70E3D6BC
310
504B03040A0000080000CC70623B3DEE336E79000000790000001B0000006175746F6465736B2D64657369676E2D7061636B6167652E786D6C3C3F786D6C2076657273696F6E3D22312E302220656E636F64696E673D227574662D3822203F3E3C666F726D6174733E3C666F726D61743E687474703A2F2F736368656D612E
310
6175746F6465736B2E636F6D2F64657369676E2D7061636B6167652F323030393C2F666F726D61743E3C2F666F726D6174733E504B0304140006080800CC70623BD486FD9CA0000000F4000000130000005B436F6E74656E745F54797065735D2E786D6C7D8EC10E82300C865F65E91D8A1E8C310C0EEA1BF002731658846E
310
D98AC1B77784ABF1D8FE5FBFBF75BBCE937A534CCEB38643598122B6FEE978D0B0485F9C41B54DDD7D022595594E1A469170414C76A4D9A4D207E29CF43ECE46F218070CC6BECC4078ACAA135ACF422C856C0E68EA1BF5669944DDD7BCDE7B1F8E415D77AECB980613C2E4AC91FC167A2B244592486606FC29C8FD7F045B9A
310
EF7053A7E60B504B0304140006080800CC70623B1EC5D7A3EB0000007C01000008000000636F72652E786D6C8D90416EC3201045AF82665B6103C6756C6122AB4D4ED00B204C5C94182C03558F5F9C3852BBEB6A467FFE9B197D71FC9E6FE8CBACC17AD7032D0820E3B41FAD9B7A48F1820F808E52ACDEC75F36404ECDA687
310
4D0629A6D5A76597B477D1B89855E747B38B2A041301E95B6E7A08FAD3CCAA50296647B8168BD2573599823EBB0CA76447F43862C7BCCF5EAC59410E4DDD9C7973C2755553CCCFA4C603E3040F1565ED3B1FDE4E432BCA0D9622DAF9795FAF464533826484B498524CD807E51D79ED187F21878E10516EF63F505AC67F42C9
310
BA58B1FDDD071640D2FCC87D2045B96591CB3DA85CB7DCE40F504B0304140006080800CC70623B55019EA25F0000007C00000007000000636E782E786D6C4DCB3B0E80201045D1AD90E915ED2CF8AC45050C11660C8261F98AB1B07AC9C97D42D718D865D3E909258CFD00CCE24AC6E326A164D74DC0B4128928FF32603847
310
2BA13128B1252AC747C6BAB984FC68F0B87FE8960A5C09FE86CFB69FBA01504B0304140006080800CC70623B8C9102E971010000D40300000C0000006662782F636F72652E786D6CC5535B6E833010BC8AE5DF0A6C08340F1947A84D4ED00B38C6A128602363A31CBFCB234A53A551FA553EC09AD9F5CE8C31DB9E9B1AF5CA
310
7695D1198E428A91D2D214952E33ECDD315861B4E5CC1AE3BE9561A445A3323CC098B3D21ADFCE9034DA29ED00D5A6503328BA4E398C640D8B0C77F253352214DE4145770A5B214FA2546114020D759C75CE8200340D19DE981F0F6746269C33EFAB6266AB02A655C74A59CCF365BADC27CB5D902ED22848F6340DF238A141
310
BE88E2F57B92BFEDF23523433367AE6A2EEAA455C2A902F398D2751045018D3FA264435F3771F242571B4A1919CA6F9A7C5B3CD9E42BED16F12C776AEB308F40C848FC700B1139D4891EF410CEC810227CC6846F8386402064270EF5C5C709A05E49676C024C61FC95EA45ED154CA5211D1FF4FB8291A913A68E9B83EBBB33
310
E2A7673CDE118E5AE8124C0807CB8377834E366998436B950D7A7746DAD846D4CFD978E0F04FD455FC5D49D2D4C6FE9722321F10997F0F32DC47FE05504B0304140006080800CC70623BFFEA85907E0000009D0000000B0000006662782F636E782E786D6C4DCCD10A83201886E15B91FFDC95D95A811AB6F23E625948A6C3
310
E9D8E5AF46073BFAE0E1E365ED67B3E8ADC3CB78C7815C7240DA3DFC64DCC221C519D7805AC182F7F1EF06C88D9BE6703008B6049F9E274D7A1E938DBB5AE3D6131B2589BA0D3D965551E0B2EA732C9B9A624AAEB41E3A557677029960D9AFB4EF11165F504B0304140006080800CC70623B4FEEA4082C0100001202000031
310
0000006662782F39464131463745442D413632322D343644302D413938332D3331353338454246344243312F636F72652E786D6C8D515B6EC32010BC0AE2AB55850DD871ED0813254D72825EC00192A2C460F1A872FC42ED48ED5F7E00CDCECCCEB26C731F6FE05B39AFADE921293004CA082BB5B9F43086336A21D870E6AC
310
0D7F68109861543DCC30E4ECE26C9C164858139409093556AA051CBC570102714B8F1E7AF1A5C6A11862480C7F2DA6415C878B2A4891CA89C7990F2E050073937C42DE1DB7E4F87ED8A36D4329AA9B3D46DBAEAD504556557BD81DEBDD0761E52CE42C462D17B996298E3E6BE59E35C962CE821E1FF18553435012728A7187
310
0841987E927A8D9B35ADDF70BBC6989599FE4F1427F9A4286A132ABAC49D651EF234CD5CE04CDA78BA3DC2A8FB645D00B9DF8B57E215725C60BCA2A463E54C4CE327C7A65E1C7DB02E7DEFCBF594B864C5CA6CDBD49C957943E9FA5D5FBAF336F90F504B0304140006080800CC70623BAD7543B64E01000033030000300000
310
006662782F39464131463745442D413632322D343644302D413938332D3331353338454246344243312F636E782E786D6CD593CD6EC32010845F0571AD6CE3D48AD20813A9873E410FBD12D82434182C7EAAE6EDBB2424CD25871E7B41D6EC30B3FA84F9E67BB2E40B4234DE8DB46F1925E094D7C6ED479AD3AE5951B2113C
310
789FEE6C943839C1488B4C05DF079FE72A69D8C96C13AAD6B8631503449F83828872B949AC57D26200B826A308D316B4064D6E46FCDA41C05550DC9E483A00797BFD207EFB092A45DE9514C1BBD22178396BD39D891265658C238DEA00936C654E5E433CB65A26D9F6EDB5EBC14EBF49A45CB856E66048291F6939A9A81BB5
310
C8917738143CA680F4AA299D66A042CEB3354A2684DC9D8D178FE0D9B8B41CAAD720F880EE7EF93C0C18769E099ECC04D5A102C8049A8A05632F4DDF376CF1DE0F6BB65C2F8627B65A33C6BB62177CEBBDAD973006829F89F22E814B54F4BC2BE347F8AA8F681390B50FA73F804400B5F542E796F19FF974E7F78DB802FE05
310
E207504B0304140006080800CC70623B16AB87BA640500003C100000340000006662782F39464131463745442D413632322D343644302D413938332D3331353338454246344243312F6F626A656374732E786D6CAD575B6FA33818FD2B887DE6924B3BED8A326A92B68A663B534DD4D13E548A0C38942D60649B369D5FBFC7
310
600890A493BDE42160637FD7F31D7FF63E6FB3D478A55C242CBF3247B66B1A340F5994E4F19559CA8D75611A9F7D8F33263BCB4C232719BD32D5B4E97B316765A1A722BA21652A07B3B7B33F0D11D29C9A46981221AE4C113ED38CD8A4942CA2E2C58E882476BCD9DA23BB5ED8171B73523C0F841684D35CC252CCE79062D4
310
468DFA43D7747CCF51DF7D4FFDEB5593E3AB9CCA9FBEFE241792E4E19EB28198C968BAB8199F5D5A67D3E9C49A9E8F47D6EC76B6B0469F26EEFC7C3EBFBCBEB98462213924694B38DD98FE1D62C393D073EA4FADC5DAF04326852CCF6958F90F0F2B9BB5C48816348F90C7840A68EB78EDF68723159BCEE7891A6B95DDE9D3
310
BCEAEEE8086A6C6F9E5D4B59F0175C10A7A0820BAA5055C7473B5AE3CFDD452D602CD5DF12616444529E90D448938013FE6EFA58AA96F85E4F8C42275708571E98FE6827AF6B2B4AE3D7D83D64E5A64C53054DD3AF90BD06FEA9149565C94FCA0F6B834DC85599E4F2423B24DF0B6AFA979E534DFA9E7A4CC6FA631D486393
310
921829879BF5D781A373557BCB85E97FB90DB62B558F8795179C15944B051F40AB495CF35451D26A4727654E6D8033BD98EF82F21D91FF8AF2DD9982BCF1643BDD4EB516C9492E368C67C88DED563FC36D5EACF66DFF057C3658BDBFA69DF9578B3DA735B64F18C7F20770A9D45CFCF7FCF563D6456A277DBEF78A02637CA2
310
43B90A490AEAB94F72244481D24819A6C0E59B606BFA4B3025981DBB48EAB701D97BF19C577CC77F2D1B6C55A9EF3C732474C0B727303F625995056C3B02963D9EAC146BE78EC5FCEC7FA999EBC5EACBAAE41B12D27B4D2C0BBA49F244E2ECDC81B76B502F113D8F5EE8FB1BE3111CDD4FC2AA9B844CAB1288B68AB90A7CDC
310
1C166AB0D3DC5310625FCC14E779BFD0709F8890A629C9292B1B2DED31A4B0DA928CEE135085754027E3018A397D4D5427D15BD1330B677DC8934285AC3DF45A9EB68FF8F2B8FC0A509AFEECFD0FF2DE25CC6047F7214B195F07EFEB9A094D800F7BFAE8FED187B78EA8A3A400F115961BCAD1215E47C966530AF0EE8128FE
310
58CEBB996A8964FFA529A046635D9353B0336A8F700DDF46271A024E70B0B37C9DE01847591E54DED53D54202AB947E4076556AC49C6CA5C9E1226B7F1A7B1BE15DEED62C41B91E1B3E9AFAAA735036547343A925075041DF0A9979E893B391F8FCFA6967B3EFB644DCF6E5CEBFAE272625DCC6FAF3FB93793C5F90CE1EF57
310
407342756B10D1C489E8953CD1617E5CEECAD6F4EF8914CE5D5D504E5C3F1F9736DA62CFC11E00BCDDB8CC8A9466349744C1F75EBDA4DF09BA8A9E8C7A7E9991989E20E5DBDD6A6003664ED8F7A04A8DBE0DF6EAD9B9AA858342E47399053949D2C146EDB85DE4B176BB0965FBAC19BD19AA918E27FA50C1D22402E144464C
310
59462568E704B6E71915404CB72B8FF4EDE184DDAF753F284990D2C6926782963815403548A70C657FDEF80D2D9CEAA2AE4C1C76F60BFE74219A06527D6582DF6412526107381E55E353090704D085B52408D0933C4ED159D79BDA71BB4BC506F4831350EB6F979CD22D69BF7AC49B91A2C0A9DDA3D5CA36AD20FC478E37E6
310
1844E2352865EBCB6EA275A652E3836BE04EFB400BF1A2556F515F1FBB35B2AB35BD889C744FFA1004B5544B121E57F70215746DD2F5E2C1412B602CBF19455AC6C8E5E9922C4E01E65215385004546899059180EAFCF7A707CE7017CD8CDB0410789AB32C63B91E5CEBBBACB17AC6CD347A022D5075FD106377347AAABA7E
310
7D11590744509B44E205134DC1290F06580320F78E537D3D73540E06CB970B431F185308AD40BBD794D6D77003C5A36E8EAA54BA64597CD8F83BD552A080A365F7FF06504B0304140006080000CC70623B000000000000000000000000350000006662782F39464131463745442D413632322D343644302D413938332D3331
310
353338454246344243312F76657274696365732E62696E504B0304140006080800CC70623BF270F1330600000004000000360000006662782F39464131463745442D413632322D343644302D413938332D3331353338454246344243312F747269616E676C65732E62696E636660600000504B0304140006080000CC70623B
310
000000000000000000000000370000006662782F39464131463745442D413632322D343644302D413938332D3331353338454246344243312F617474726962757465732E62696E504B0304140006080800CC70623B08DA0BD19000000041010000360000006662782F39464131463745442D413632322D343644302D413938
310
332D3331353338454246344243312F6469726563746F72792E786D6C858F410AC3201045AF22B36F53E9A60B35CBEEBAE80D244E44489C6234F4F835464A48035D0DF398FF9F8AF63D0E6CC63039F212F8F9020C7D47C6792B21C5FE7403D62A1188E2E60C98D7234A5830286103A55745067B9D86B8A3CF9C7F90C11DE607
310
FB144396D7B6A82D282E9A152AD114D5EF2CB866EEE831B8EEA07A7BB5A8D7D61A2BAAEB7FD5F70921FF497D00504B0304140006080800CC70623B0D6EF93BFE000000A00100003B0000006662782F39464131463745442D413632322D343644302D413938332D3331353338454246344243312F7265736F75726365732F63
310
6F72652E786D6C8D50596E833010BD0A9ADFCA60B334011947A8694ED00B586642AC041B79A97AFC9A40A5F6AF3F33A3B7689E1E3F7DCD8FEC139DD7D6F4C0720A191A65476DA61E62B892236427C19DB5E1970C322367EC618541F0C9D9B8EC90B226A009093576C41D94DE63804C3DD2D18357379C652E63480A7FCF17A9
310
EE72C29CE5894E3AC17D702940B63D59270887DE46A7D0F36263058F518FBB468FE9A7BE6A7420864373B8D4873369AA8691FA421B3294352543C5CAF65C0F6FEF43CB8BD52C78D0F34F46E550061C419494B6843142CB0F5677F4B52BEB177AEC28E5C52AFF638ACBF84F53D42654E51E77B379102C05791282176B5F693D
310
CB4C7BED567C03504B010214000A0000080000CC70623B3DEE336E79000000790000001B00000000000000000000000000000000006175746F6465736B2D64657369676E2D7061636B6167652E786D6C504B01021400140006080800CC70623BD486FD9CA0000000F40000001300000000000000000000000000B20000005B
310
436F6E74656E745F54797065735D2E786D6C504B01021400140006080800CC70623B1EC5D7A3EB0000007C010000080000000000000000000000000083010000636F72652E786D6C504B01021400140006080800CC70623B55019EA25F0000007C000000070000000000000000000000000094020000636E782E786D6C504B
310
01021400140006080800CC70623B8C9102E971010000D40300000C00000000000000000000000000180300006662782F636F72652E786D6C504B01021400140006080800CC70623BFFEA85907E0000009D0000000B00000000000000000000000000B30400006662782F636E782E786D6C504B01021400140006080800CC70
310
623B4FEEA4082C0100001202000031000000000000000000000000005A0500006662782F39464131463745442D413632322D343644302D413938332D3331353338454246344243312F636F72652E786D6C504B01021400140006080800CC70623BAD7543B64E010000330300003000000000000000000000000000D5060000
310
6662782F39464131463745442D413632322D343644302D413938332D3331353338454246344243312F636E782E786D6C504B01021400140006080800CC70623B16AB87BA640500003C1000003400000000000000000000000000710800006662782F39464131463745442D413632322D343644302D413938332D3331353338
310
454246344243312F6F626A656374732E786D6C504B01021400140006080000CC70623B0000000000000000000000003500000000000000000000000000270E00006662782F39464131463745442D413632322D343644302D413938332D3331353338454246344243312F76657274696365732E62696E504B01021400140006
310
080800CC70623BF270F133060000000400000036000000000000000000000000007A0E00006662782F39464131463745442D413632322D343644302D413938332D3331353338454246344243312F747269616E676C65732E62696E504B01021400140006080000CC70623B0000000000000000000000003700000000000000
310
000000000000D40E00006662782F39464131463745442D413632322D343644302D413938332D3331353338454246344243312F617474726962757465732E62696E504B01021400140006080800CC70623B08DA0BD190000000410100003600000000000000000000000000290F00006662782F39464131463745442D413632
310
322D343644302D413938332D3331353338454246344243312F6469726563746F72792E786D6C504B01021400140006080800CC70623B0D6EF93BFE000000A00100003B000000000000000000000000000D1000006662782F39464131463745442D413632322D343644302D413938332D3331353338454246344243312F7265
310
736F75726365732F636F72652E786D6C504B0506000000000E000E0080040000641100000000
  0
XRECORD
  5
175
102
{ACAD_REACTORS
330
173
102
}
330
173
100
AcDbXrecord
280
     1
270
     1
271
     1
  0
XRECORD
  5
174
102
{ACAD_REACTORS
330
173
102
}
330
173
100
AcDbXrecord
280
     1
270
     1
271
     1
  0
XRECORD
  5
1FB
102
{ACAD_REACTORS
330
173
102
}
330
173
100
AcDbXrecord
280
     1
 70
     0
 90
1673772943
  1
ECE7A1D2-D628-4531-984C-D00F80459256
310
504B03040A0000080000CC70623B3DEE336E79000000790000001B0000006175746F6465736B2D64657369676E2D7061636B6167652E786D6C3C3F786D6C2076657273696F6E3D22312E302220656E636F64696E673D227574662D3822203F3E3C666F726D6174733E3C666F726D61743E687474703A2F2F736368656D612E
310
6175746F6465736B2E636F6D2F64657369676E2D7061636B6167652F323030393C2F666F726D61743E3C2F666F726D6174733E504B0304140006080800CC70623BD486FD9CA0000000F4000000130000005B436F6E74656E745F54797065735D2E786D6C7D8EC10E82300C865F65E91D8A1E8C310C0EEA1BF002731658846E
310
D98AC1B77784ABF1D8FE5FBFBF75BBCE937A534CCEB38643598122B6FEE978D0B0485F9C41B54DDD7D022595594E1A469170414C76A4D9A4D207E29CF43ECE46F218070CC6BECC4078ACAA135ACF422C856C0E68EA1BF5669944DDD7BCDE7B1F8E415D77AECB980613C2E4AC91FC167A2B244592486606FC29C8FD7F045B9A
310
EF7053A7E60B504B0304140006080800CC70623BD9DDAED0EC0000007C01000008000000636F72652E786D6C8D90416EC3201045AF82665B61836D9CD8C2444DD39CA01740405C94182C03558F5F9C3852BBEB6A467FFE9B197D7EF89E6EE8CB2CC17A37002D0820E394D7D68D03A478C17B4007C117EFE32F1B20272733C0
310
2A83E0E3E2D3BC49CABB685CCCAAF3DA6CA20CC14440EA969B0182FA34932C648AD911AEC52CD5558EA6A0CF2EC329598D1E47ACCEFBECC59A050463A7EA5833865FEBDD0E37353BE3EE8DBDE3F6786A48D375FBF6CC78B9C282473B3DEFABC5C86834888A900E538A49F5419B9EB47DD5BC907D4F082F57FB1F28CDFA9F50
310
B22ED6D5F6EE030B20687EE43E10BC5CB3C8E51E54AE6B6EE207504B0304140006080800CC70623B55019EA25F0000007C00000007000000636E782E786D6C4DCB3B0E80201045D1AD90E915ED2CF8AC45050C11660C8261F98AB1B07AC9C97D42D718D865D3E909258CFD00CCE24AC6E326A164D74DC0B4128928FF326038
310
472BA13128B1252AC747C6BAB984FC68F0B87FE8960A5C09FE86CFB69FBA01504B0304140006080800CC70623BA24EB22D72010000D40300000C0000006662782F636F72652E786D6CC5535B6E833010BC8AE5DF0A6C5E49888CA3A6694ED00B38E05014B091B1518EDFE511A5A9D228FD2A1F60CDEC7A67C6986DCE4D8D7A
310
69BA4AAB0C073EC548AA5C17952A33ECECD15B61B4E1CC686DBF9561A44423333CC098B3D268D7CE50AE9595CA02AA74216750749DB418E5352C32DCE59FB211BE70162ABA93DF8AFC244AE9073ED050C759670D0840D390E18DF9F1706664C23973AE2A66B62A605A75ACA4C13C4976E1364A12EF355A2EBD384AF65EFA96
310
BC7B8BED2EA6719AAE16FB8491A199335B351775B991C2CA02F390D2D40B028F861F41BCA68B7518BFD0D59A524686F29B26D7164F36B94AD9289CE54E6D1DE6010819891F6E21228B3AD1831EC219194284CF98F06DD01008846CC5A1BEF83801D4CBDC6A1303536877A57A513B0953A94FC707FDBE6064EA84A9E3E6E0FA
310
EE8CF0E9198F7784A316AA0413C2C2F2E0ECA0934D1AE6D05A69BCDE9E91D2A611F573361E38FC1375157F5752AE6B6DFE4B11990F88CCBF0719EE23FF02504B0304140006080800CC70623B408A7D3B7C0000009D0000000B0000006662782F636E782E786D6C4DCCD10A83201886E15B91FFDC552A92A0064DBC8F581632
310
D3703A76F9ABD1C18E3E78F878E5F0D9027ABBFCF2292AE86E2D20171F69F6715550CB827B40839639A5F2770314A7CD293819B45C73AAFB45B35BA61ACAA1C1C7E7855C58C15BC331339661262CC762340413D68D77DA5B42298546CBE6573AF60CEB2F504B0304140006080800CC70623B449FB9BD290100001202000031
310
0000006662782F36394639363044362D344446342D343946362D394244322D3234314243333846323333332F636F72652E786D6C8D515B6EC32010BC0AE22B55850D98B871848994463E412FE002495162B07854397EA176A4F62F3F2C9A9D991D587EB84F37F0AD7D30CEF6905418026DA553C65E7A98E219ED203808EE9D
310
8B7F6810D871D23D2C3014FCE25D9A57483A1BB58D19B54EE9151C43D0110279CB971E06F9A5A7B11A53CC8C70ADE6515EC78BAE4895DB992778883E0700CB907242D17643D7E2538BD869608875438BBAE38922CAC8F1BDD90DB4691A5E2F42C153326A951B95E398B3D1FE599322163C9AE9115F7A3D46ADA0A018778810
310
84E907617BDCEE297BC5BB3DC6BC2EF47FA234AB2745C9D8D8D035EE220B50105E2F0DC1954B9FB747187D9F9D8FA0CCDB042D5FA0C015C65B42DF78BD10F3F3B363CB56C7109DCFDFBBB97E662ED92EB62D13BC2E1BCAE5777DB9966D8A1F504B0304140006080800CC70623BAD7543B64E01000033030000300000006662
310
782F36394639363044362D344446342D343946362D394244322D3234314243333846323333332F636E782E786D6CD593CD6EC32010845F0571AD6CE3D48AD20813A9873E410FBD12D82434182C7EAAE6EDBB2424CD25871E7B41D6EC30B3FA84F9E67BB2E40B4234DE8DB46F1925E094D7C6ED479AD3AE5951B2113C789FEE
310
6C943839C1488B4C05DF079FE72A69D8C96C13AAD6B8631503449F83828872B949AC57D26200B826A308D316B4064D6E46FCDA41C05550DC9E483A00797BFD207EFB092A45DE9514C1BBD22178396BD39D891265658C238DEA00936C654E5E433CB65A26D9F6EDB5EBC14EBF49A45CB856E66048291F6939A9A81BB5C89177
310
38143CA680F4AA299D66A042CEB3354A2684DC9D8D178FE0D9B8B41CAAD720F880EE7EF93C0C18769E099ECC04D5A102C8049A8A05632F4DDF376CF1DE0F6BB65C2F8627B65A33C6BB62177CEBBDAD973006829F89F22E814B54F4BC2BE347F8AA8F681390B50FA73F804400B5F542E796F19FF974E7F78DB802FE05E20750
310
4B0304140006080800CC70623B8D05915C650500003B100000340000006662782F36394639363044362D344446342D343946362D394244322D3234314243333846323333332F6F626A656374732E786D6CAD575B6FA33814FE2B887D06429276DA1565D4266D158D3A339A6846FB502932E050B66023DB74D2FDF5FB190C01
310
9276B2973C046C8ECFF53B17071F77456EBD502133CEAE6CDF9DD81665314F32965ED995DA3A17B6F5310C04E7AA47665B8C14F4CAD6DB7618A48257A5D94AE89654B91AEDDEDDFC61C998326A5B714EA4BCB265FC440BE2924AF184CA6737218AB8E976E7FA6E4338649B0A523E8D98964450A6A029F619B8588D52FE7039
310
B1BD30F0F4F730D0FF866AF6369557DB33949F31A9088B0F848DD8CCFCF9F2767A76E99CCDE733677E3EF59D9BBB9BA5E37F984D16E78BC5E5F5ED25044B25C0C96822E8D60EEFE11B91C581D77CEA34368A1F5329E68CD1B8B61F16D63A1B8E092D294B10C78C4A48EB593D192E7DED9BDEE7995E1B91FDEDD3ACEA9FE831
310
6A756F9F7D4D79F4274C90A7A04248AA51D5F8C718DAE06FB2F75AC4796EBE65D22A88A22223B995679120E2D50E41AA49C260C046A35368846B0BECD0DFF3EBEB8AD4F835768F69B9ADF25C43D30E6B646F807FAA64AD59F61715C7A54127C4AACA98BA3006A9D792DAE165E0D59B61A01FB3A9F9D838D2DAE62445C86166
310
F37564E842E7DE6A69879FEEA2DD5AE7E371E1A5E025154AC307D06A03D73EB5978C58FFA4C8E9033066E0F3BD53BEC1F39F91BE7B55103791EDE6BBB991A2046172CB4581D8B893FA674DDA17A77B3B7C413D1B511FD2743BFF8A38F03A658705E3ADF8015C3A3417FF3D7E439FF591DA0B5F18BC20C1B8981957AE6392A3
310
F43C640C01D1A0B4728E2DD4F26DB4B3C3152A252A3B4E913CEC1C72F012782FF88EFF8637AA552DBEF76408E8A8DE9E50F9E1CB3A2DA0DB1B6039A893B56063DC5B3E3FFB5F72E67AB9FEB4AEC496C4F4C1149625DD662C53E89D7BF0F6151A046260D1337DFDC94502430F83B0EE07A130A224BCAD7DAE1D9FB6CD422FF6
310
920702629C4BB9AE79C12F243C6432A6794E18E5552BA56B431AAB5D91317302B2B071E86C3A42B1A02F999E24061403B5D0EB639195DA655DD3EBEAB4FB862DDF579F014AD0E73C22F99E28DA57FB98E75C6CA2D74D53086D600F4786E0FE3144B771A8A7B900F03594DB8A633CBC49B2EDB69228BB479CF863B5E807AAAB
310
23872F6DFEB4129B949CA33823F58830E86D65621E10047D9DB34D862E8EAC3C2ABC2F7B2C40D67CDFE01F5545B92105AF983AC54D93D69E56FB8E797F88913F898A9FEC705D3F9D1B54EC8426FB500D40A03BD0119B06E1B95DDC7EB8F6975367793EBD70E66733DFB9BC982F9CE564727731999F5D4ECFCE3B8D6A4DC2A0
310
6D50FD148437D110834A64C6CDDF57FBACB5C307A2A477DFE4939736CFEF2B175371E0E10CF0DD1D5C15654E0BCA14D1E87DD02FF93782A162C0A3D95F1524A52770F972BF1EE9809D13CE7DD599467F8ECE9ADD85CE85A34CD45355448C64F9E8A031DC2D596ACC6E5DD93D9B82DE2EF5CAF81363A8E47996A0DE24564A79
310
4115AACE09C55E14540231FDA13C319787134EBF34E3A022514E5B4D9E0826E25C02D5805B15ABE1BEF51B26383D445DD9E875EE33FE4C22DA16427D65A3BCA92CA6D28DD01DF5DC53330704308475351050232CCD31583787BA75774AFB06E5070DD0C8EF484E19968C5D83BA5B90B244D31E54D55A372320FE4786B7EA58
310
44E135AA5467CB7EA333A61683CC6A8C3257034C10CF46F40EF9F5BE59BE5BD30C3C72D235E95D10345C1D45445A5F0BB47E46A5EBE5570F9380B5FA629579952296A773720405982B9DE04011506178964401AA8BDF1FBF0A8EAB6861DD6580C0E38217056766716DAEB2D6FA0917D3E4116581EADB879C4E7CFFB11EFACD
310
3D641311495D92C8676CB409A72D18610D803CE8A626049E8EC1887CB5B44CC39883690DDA8399B4B9855B481E7D71D4A9D22F96E5BB73BF5793020C02137BF837504B0304140006080000CC70623B000000000000000000000000350000006662782F36394639363044362D344446342D343946362D394244322D32343142
310
43333846323333332F76657274696365732E62696E504B0304140006080800CC70623BF270F1330600000004000000360000006662782F36394639363044362D344446342D343946362D394244322D3234314243333846323333332F747269616E676C65732E62696E636660600000504B0304140006080000CC70623B0000
310
00000000000000000000370000006662782F36394639363044362D344446342D343946362D394244322D3234314243333846323333332F617474726962757465732E62696E504B0304140006080800CC70623B08DA0BD19000000041010000360000006662782F36394639363044362D344446342D343946362D394244322D
310
3234314243333846323333332F6469726563746F72792E786D6C858F410AC3201045AF22B36F53E9A60B35CBEEBAE80D244E44489C6234F4F835464A48035D0DF398FF9F8AF63D0E6CC63039F212F8F9020C7D47C6792B21C5FE7403D62A1188E2E60C98D7234A5830286103A55745067B9D86B8A3CF9C7F90C11DE607FB14
310
4396D7B6A82D282E9A152AD114D5EF2CB866EEE831B8EEA07A7BB5A8D7D61A2BAAEB7FD5F70921FF497D00504B0304140006080800CC70623BCA768048FE000000A00100003B0000006662782F36394639363044362D344446342D343946362D394244322D3234314243333846323333332F7265736F75726365732F636F72
310
652E786D6C8D50596E833010BD0A9ADFCA60D600328E9AA639412F609909B1126CE4A5EAF16B0295DABFFECC8CDEA2797AECF8353F924FB44E193D409E5248504B332A3D0D10FC95B4901C39B3C6F85F3248B49871801506CE266BC2B243D2688FDA47549B11775038871E12F988C7004EDE7016A9083E2ADC3D5D84BC8B09
310
D33C8D74D471E6BC8D0192EDC93A815B742658898E651BCB59086ADC356A8C3FD555A1055ED7E7E254D615792D0F075295F585746FF53B694EE78A565DD736979A65AB9933AFE69F8CD2A2F038022F28ED489E135A7CE4554F9BBEA85E68DB53CAB255FEC71496F19FA6A0B42F8B3DEE6673C0F318E4497096AD7DC5F52C33
310
EEB55BFE0D504B010214000A0000080000CC70623B3DEE336E79000000790000001B00000000000000000000000000000000006175746F6465736B2D64657369676E2D7061636B6167652E786D6C504B01021400140006080800CC70623BD486FD9CA0000000F40000001300000000000000000000000000B20000005B436F
310
6E74656E745F54797065735D2E786D6C504B01021400140006080800CC70623BD9DDAED0EC0000007C010000080000000000000000000000000083010000636F72652E786D6C504B01021400140006080800CC70623B55019EA25F0000007C000000070000000000000000000000000095020000636E782E786D6C504B0102
310
1400140006080800CC70623BA24EB22D72010000D40300000C00000000000000000000000000190300006662782F636F72652E786D6C504B01021400140006080800CC70623B408A7D3B7C0000009D0000000B00000000000000000000000000B50400006662782F636E782E786D6C504B01021400140006080800CC70623B
310
449FB9BD290100001202000031000000000000000000000000005A0500006662782F36394639363044362D344446342D343946362D394244322D3234314243333846323333332F636F72652E786D6C504B01021400140006080800CC70623BAD7543B64E010000330300003000000000000000000000000000D20600006662
310
782F36394639363044362D344446342D343946362D394244322D3234314243333846323333332F636E782E786D6C504B01021400140006080800CC70623B8D05915C650500003B10000034000000000000000000000000006E0800006662782F36394639363044362D344446342D343946362D394244322D32343142433338
310
46323333332F6F626A656374732E786D6C504B01021400140006080000CC70623B0000000000000000000000003500000000000000000000000000250E00006662782F36394639363044362D344446342D343946362D394244322D3234314243333846323333332F76657274696365732E62696E504B010214001400060808
310
00CC70623BF270F13306000000040000003600000000000000000000000000780E00006662782F36394639363044362D344446342D343946362D394244322D3234314243333846323333332F747269616E676C65732E62696E504B01021400140006080000CC70623B00000000000000000000000037000000000000000000
310
00000000D20E00006662782F36394639363044362D344446342D343946362D394244322D3234314243333846323333332F617474726962757465732E62696E504B01021400140006080800CC70623B08DA0BD190000000410100003600000000000000000000000000270F00006662782F36394639363044362D344446342D
310
343946362D394244322D3234314243333846323333332F6469726563746F72792E786D6C504B01021400140006080800CC70623BCA768048FE000000A00100003B000000000000000000000000000B1000006662782F36394639363044362D344446342D343946362D394244322D3234314243333846323333332F7265736F
310
75726365732F636F72652E786D6C504B0506000000000E000E0080040000621100000000
  0
XRECORD
  5
176
102
{ACAD_REACTORS
330
173
102
}
330
173
100
AcDbXrecord
280
     1
270
     1
271
     1
  0
XRECORD
  5
177
102
{ACAD_REACTORS
330
173
102
}
330
173
100
AcDbXrecord
280
     1
270
     1
271
     1
  0
XRECORD
  5
392
102
{ACAD_REACTORS
330
391
102
}
330
391
100
AcDbXrecord
280
     1
102
DISPLAYNAME
  1
Imperial24
102
FLAGS
 90
        0
  0
XRECORD
  5
38E
102
{ACAD_REACTORS
330
38D
102
}
330
38D
100
AcDbXrecord
280
     1
102
DISPLAYNAME
  1
Metric50
102
FLAGS
 90
        0
  0
CELLSTYLEMAP
  5
383
102
{ACAD_REACTORS
330
162
102
}
330
162
100
AcDbCellStyleMap
 90
        3
300
CELLSTYLE
  1
TABLEFORMAT_BEGIN
 90
        5
170
     1
 91
        0
 92
    32768
 62
   257
 93
        1
300
CONTENTFORMAT
  1
CONTENTFORMAT_BEGIN
 90
        0
 91
        0
 92
      512
 93
        0
300

 40
0.0
140
1.0
 94
        5
 62
     0
340
11
144
6.0
309
CONTENTFORMAT_END
171
     1
301
MARGIN
  1
CELLMARGIN_BEGIN
 40
1.5
 40
1.5
 40
1.5
 40
1.5
 40
4.5
 40
4.5
309
CELLMARGIN_END
 94
        6
 95
        1
302
GRIDFORMAT
  1
GRIDFORMAT_BEGIN
 90
        0
 91
        1
 62
     0
 92
       -2
340
14
 93
        0
 40
1.125
309
GRIDFORMAT_END
 95
        2
302
GRIDFORMAT
  1
GRIDFORMAT_BEGIN
 90
        0
 91
        1
 62
     0
 92
       -2
340
14
 93
        0
 40
1.125
309
GRIDFORMAT_END
 95
        4
302
GRIDFORMAT
  1
GRIDFORMAT_BEGIN
 90
        0
 91
        1
 62
     0
 92
       -2
340
14
 93
        0
 40
1.125
309
GRIDFORMAT_END
 95
        8
302
GRIDFORMAT
  1
GRIDFORMAT_BEGIN
 90
        0
 91
        1
 62
     0
 92
       -2
340
14
 93
        0
 40
1.125
309
GRIDFORMAT_END
 95
       16
302
GRIDFORMAT
  1
GRIDFORMAT_BEGIN
 90
        0
 91
        1
 62
     0
 92
       -2
340
14
 93
        0
 40
1.125
309
GRIDFORMAT_END
 95
       32
302
GRIDFORMAT
  1
GRIDFORMAT_BEGIN
 90
        0
 91
        1
 62
     0
 92
       -2
340
14
 93
        0
 40
1.125
309
GRIDFORMAT_END
309
TABLEFORMAT_END
  1
CELLSTYLE_BEGIN
 90
        1
 91
        1
300
_TITLE
309
CELLSTYLE_END
300
CELLSTYLE
  1
TABLEFORMAT_BEGIN
 90
        5
170
     1
 91
        0
 92
        0
 62
   257
 93
        1
300
CONTENTFORMAT
  1
CONTENTFORMAT_BEGIN
 90
        0
 91
        0
 92
      512
 93
        0
300

 40
0.0
140
1.0
 94
        5
 62
     0
340
11
144
4.5
309
CONTENTFORMAT_END
171
     1
301
MARGIN
  1
CELLMARGIN_BEGIN
 40
1.5
 40
1.5
 40
1.5
 40
1.5
 40
4.5
 40
4.5
309
CELLMARGIN_END
 94
        6
 95
        1
302
GRIDFORMAT
  1
GRIDFORMAT_BEGIN
 90
        0
 91
        1
 62
     0
 92
       -2
340
14
 93
        0
 40
1.125
309
GRIDFORMAT_END
 95
        2
302
GRIDFORMAT
  1
GRIDFORMAT_BEGIN
 90
        0
 91
        1
 62
     0
 92
       -2
340
14
 93
        0
 40
1.125
309
GRIDFORMAT_END
 95
        4
302
GRIDFORMAT
  1
GRIDFORMAT_BEGIN
 90
        0
 91
        1
 62
     0
 92
       -2
340
14
 93
        0
 40
1.125
309
GRIDFORMAT_END
 95
        8
302
GRIDFORMAT
  1
GRIDFORMAT_BEGIN
 90
        0
 91
        1
 62
     0
 92
       -2
340
14
 93
        0
 40
1.125
309
GRIDFORMAT_END
 95
       16
302
GRIDFORMAT
  1
GRIDFORMAT_BEGIN
 90
        0
 91
        1
 62
     0
 92
       -2
340
14
 93
        0
 40
1.125
309
GRIDFORMAT_END
 95
       32
302
GRIDFORMAT
  1
GRIDFORMAT_BEGIN
 90
        0
 91
        1
 62
     0
 92
       -2
340
14
 93
        0
 40
1.125
309
GRIDFORMAT_END
309
TABLEFORMAT_END
  1
CELLSTYLE_BEGIN
 90
        2
 91
        1
300
_HEADER
309
CELLSTYLE_END
300
CELLSTYLE
  1
TABLEFORMAT_BEGIN
 90
        5
170
     1
 91
        0
 92
        0
 62
   257
 93
        1
300
CONTENTFORMAT
  1
CONTENTFORMAT_BEGIN
 90
        0
 91
        0
 92
      512
 93
        0
300

 40
0.0
140
1.0
 94
        2
 62
     0
340
11
144
4.5
309
CONTENTFORMAT_END
171
     1
301
MARGIN
  1
CELLMARGIN_BEGIN
 40
1.5
 40
1.5
 40
1.5
 40
1.5
 40
4.5
 40
4.5
309
CELLMARGIN_END
 94
        6
 95
        1
302
GRIDFORMAT
  1
GRIDFORMAT_BEGIN
 90
        0
 91
        1
 62
     0
 92
       -2
340
14
 93
        0
 40
1.125
309
GRIDFORMAT_END
 95
        2
302
GRIDFORMAT
  1
GRIDFORMAT_BEGIN
 90
        0
 91
        1
 62
     0
 92
       -2
340
14
 93
        0
 40
1.125
309
GRIDFORMAT_END
 95
        4
302
GRIDFORMAT
  1
GRIDFORMAT_BEGIN
 90
        0
 91
        1
 62
     0
 92
       -2
340
14
 93
        0
 40
1.125
309
GRIDFORMAT_END
 95
        8
302
GRIDFORMAT
  1
GRIDFORMAT_BEGIN
 90
        0
 91
        1
 62
     0
 92
       -2
340
14
 93
        0
 40
1.125
309
GRIDFORMAT_END
 95
       16
302
GRIDFORMAT
  1
GRIDFORMAT_BEGIN
 90
        0
 91
        1
 62
     0
 92
       -2
340
14
 93
        0
 40
1.125
309
GRIDFORMAT_END
 95
       32
302
GRIDFORMAT
  1
GRIDFORMAT_BEGIN
 90
        0
 91
        1
 62
     0
 92
       -2
340
14
 93
        0
 40
1.125
309
GRIDFORMAT_END
309
TABLEFORMAT_END
  1
CELLSTYLE_BEGIN
 90
        3
 91
        2
300
_DATA
309
CELLSTYLE_END
  0
ENDSEC
  0
SECTION
  2
ACDSDATA
 70
     2
 71
     8
  0
ACDSSCHEMA
 90
        0
  1
AcDb_Thumbnail_Schema
  2
AcDbDs::ID
280
    10
 91
        8
  2
Thumbnail_Data
280
    15
 91
        0
101
ACDSRECORD
 95
        0
 90
        1
  2
AcDbDs::TreatedAsObjectData
280
     1
291
     1
101
ACDSRECORD
 95
        0
 90
        2
  2
AcDbDs::Legacy
280
     1
291
     1
101
ACDSRECORD
  1
AcDbDs::ID
 90
        3
  2
AcDs:Indexable
280
     1
291
     1
101
ACDSRECORD
  1
AcDbDs::ID
 90
        4
  2
AcDbDs::HandleAttribute
280
     7
282
     1
  0
ACDSSCHEMA
 90
        1
  1
AcDbDs::TreatedAsObjectDataSchema
  2
AcDbDs::TreatedAsObjectData
280
     1
 91
        0
  0
ACDSSCHEMA
 90
        2
  1
AcDbDs::LegacySchema
  2
AcDbDs::Legacy
280
     1
 91
        0
  0
ACDSSCHEMA
 90
        3
  1
AcDbDs::IndexedPropertySchema
  2
AcDs:Indexable
280
     1
 91
        0
  0
ACDSSCHEMA
 90
        4
  1
AcDbDs::HandleAttributeSchema
  2
AcDbDs::HandleAttribute
280
     7
 91
        1
284
     1
  0
ACDSRECORD
 90
        0
  2
AcDbDs::ID
280
    10
320
22
  2
Thumbnail_Data
280
    15
 94
      896
310
89504E470D0A1A0A0000000D49484452000001000000009108030000001BE1960600000300504C5445212830FFFFFF2128300000000000000000000000000000000000000000000000000000330000660000990000CC0000FF0033000033330033660033990033CC0033FF0066000066330066660066990066CC0066FF0099
310
000099330099660099990099CC0099FF00CC0000CC3300CC6600CC9900CCCC00CCFF00FF0000FF3300FF6600FF9900FFCC00FFFF3300003300333300663300993300CC3300FF3333003333333333663333993333CC3333FF3366003366333366663366993366CC3366FF3399003399333399663399993399CC3399FF33CC00
310
33CC3333CC6633CC9933CCCC33CCFF33FF0033FF3333FF6633FF9933FFCC33FFFF6600006600336600666600996600CC6600FF6633006633336633666633996633CC6633FF6666006666336666666666996666CC6666FF6699006699336699666699996699CC6699FF66CC0066CC3366CC6666CC9966CCCC66CCFF66FF0066
310
FF3366FF6666FF9966FFCC66FFFF9900009900339900669900999900CC9900FF9933009933339933669933999933CC9933FF9966009966339966669966999966CC9966FF9999009999339999669999999999CC9999FF99CC0099CC3399CC6699CC9999CCCC99CCFF99FF0099FF3399FF6699FF9999FFCC99FFFFCC0000CC00
310
33CC0066CC0099CC00CCCC00FFCC3300CC3333CC3366CC3399CC33CCCC33FFCC6600CC6633CC6666CC6699CC66CCCC66FFCC9900CC9933CC9966CC9999CC99CCCC99FFCCCC00CCCC33CCCC66CCCC99CCCCCCCCCCFFCCFF00CCFF33CCFF66CCFF99CCFFCCCCFFFFFF0000FF0033FF0066FF0099FF00CCFF00FFFF3300FF3333
310
FF3366FF3399FF33CCFF33FFFF6600FF6633FF6666FF6699FF66CCFF66FFFF9900FF9933FF9966FF9999FF99CCFF99FFFFCC00FFCC33FFCC66FFCC99FFCCCCFFCCFFFFFF00FFFF33FFFF66FFFF99FFFFCCFFFFFF0000000D0D0D1A1A1A2828283535354343435050505D5D5D6B6B6B787878868686939393A1A1A1AEAEAEBB
310
BBBBC9C9C9D6D6D6E4E4E4F1F1F1FFFFFF0000000000000000000000000000000000000000000000000000000000002E4550F10000003B4944415478DAEDC13101000000C2A0F54F6D0B2FA0000000000000000000000000000000000000000000000000000000000000000000000000CE06919100016C9A5B1B0000000049
310
454E44AE426082
  0
ENDSEC
  0
EOF
