  0
SECTION
  2
HEADER
  9
$ACADVER
  1
AC1027
  9
$ACADMAINTVER
 70
   125
  9
$DWGCODEPAGE
  3
ANSI_1252
  9
$LASTSAVEDBY
  1
andrea.ragusa
  9
$REQUIREDVERSIONS
160
                 0
  9
$INSBASE
 10
0.0
 20
0.0
 30
0.0
  9
$EXTMIN
 10
-0.0128164049386896
 20
0.0815741779300652
 30
-0.0015258207003583
  9
$EXTMAX
 10
24.30816702114908
 20
13.11067235808662
 30
0.0000000349246037
  9
$LIMMIN
 10
0.0
 20
0.0
  9
$LIMMAX
 10
420.0
 20
297.0
  9
$ORTHOMODE
 70
     0
  9
$REGENMODE
 70
     1
  9
$FILLMODE
 70
     1
  9
$QTEXTMODE
 70
     0
  9
$MIRRTEXT
 70
     0
  9
$LTSCALE
 40
1.0
  9
$ATTMODE
 70
     1
  9
$TEXTSIZE
 40
2.5
  9
$TRACEWID
 40
1.0
  9
$TEXTSTYLE
  7
Standard
  9
$CLAYER
  8
0
  9
$CELTYPE
  6
ByLayer
  9
$CECOLOR
 62
   256
  9
$CELTSCALE
 40
1.0
  9
$DISPSILH
 70
     0
  9
$DIMSCALE
 40
1.0
  9
$DIMASZ
 40
2.5
  9
$DIMEXO
 40
0.625
  9
$DIMDLI
 40
3.75
  9
$DIMRND
 40
0.0
  9
$DIMDLE
 40
0.0
  9
$DIMEXE
 40
1.25
  9
$DIMTP
 40
0.0
  9
$DIMTM
 40
0.0
  9
$DIMTXT
 40
2.5
  9
$DIMCEN
 40
2.5
  9
$DIMTSZ
 40
0.0
  9
$DIMTOL
 70
     0
  9
$DIMLIM
 70
     0
  9
$DIMTIH
 70
     0
  9
$DIMTOH
 70
     0
  9
$DIMSE1
 70
     0
  9
$DIMSE2
 70
     0
  9
$DIMTAD
 70
     1
  9
$DIMZIN
 70
     8
  9
$DIMBLK
  1

  9
$DIMASO
 70
     1
  9
$DIMSHO
 70
     1
  9
$DIMPOST
  1

  9
$DIMAPOST
  1

  9
$DIMALT
 70
     0
  9
$DIMALTD
 70
     3
  9
$DIMALTF
 40
0.03937007874016
  9
$DIMLFAC
 40
1.0
  9
$DIMTOFL
 70
     1
  9
$DIMTVP
 40
0.0
  9
$DIMTIX
 70
     0
  9
$DIMSOXD
 70
     0
  9
$DIMSAH
 70
     0
  9
$DIMBLK1
  1

  9
$DIMBLK2
  1

  9
$DIMSTYLE
  2
ISO-25
  9
$DIMCLRD
 70
     0
  9
$DIMCLRE
 70
     0
  9
$DIMCLRT
 70
     0
  9
$DIMTFAC
 40
1.0
  9
$DIMGAP
 40
0.625
  9
$DIMJUST
 70
     0
  9
$DIMSD1
 70
     0
  9
$DIMSD2
 70
     0
  9
$DIMTOLJ
 70
     0
  9
$DIMTZIN
 70
     8
  9
$DIMALTZ
 70
     0
  9
$DIMALTTZ
 70
     0
  9
$DIMUPT
 70
     0
  9
$DIMDEC
 70
     2
  9
$DIMTDEC
 70
     2
  9
$DIMALTU
 70
     2
  9
$DIMALTTD
 70
     3
  9
$DIMTXSTY
  7
Standard
  9
$DIMAUNIT
 70
     0
  9
$DIMADEC
 70
     0
  9
$DIMALTRND
 40
0.0
  9
$DIMAZIN
 70
     0
  9
$DIMDSEP
 70
    44
  9
$DIMATFIT
 70
     3
  9
$DIMFRAC
 70
     0
  9
$DIMLDRBLK
  1

  9
$DIMLUNIT
 70
     2
  9
$DIMLWD
 70
    -2
  9
$DIMLWE
 70
    -2
  9
$DIMTMOVE
 70
     0
  9
$DIMFXL
 40
1.0
  9
$DIMFXLON
 70
     0
  9
$DIMJOGANG
 40
0.7853981633974483
  9
$DIMTFILL
 70
     0
  9
$DIMTFILLCLR
 70
     0
  9
$DIMARCSYM
 70
     0
  9
$DIMLTYPE
  6

  9
$DIMLTEX1
  6

  9
$DIMLTEX2
  6

  9
$DIMTXTDIRECTION
 70
     0
  9
$LUNITS
 70
     2
  9
$LUPREC
 70
     4
  9
$SKETCHINC
 40
1.0
  9
$FILLETRAD
 40
0.0
  9
$AUNITS
 70
     0
  9
$AUPREC
 70
     0
  9
$MENU
  1
.
  9
$ELEVATION
 40
0.0
  9
$PELEVATION
 40
0.0
  9
$THICKNESS
 40
0.0
  9
$LIMCHECK
 70
     0
  9
$CHAMFERA
 40
0.0
  9
$CHAMFERB
 40
0.0
  9
$CHAMFERC
 40
0.0
  9
$CHAMFERD
 40
0.0
  9
$SKPOLY
 70
     0
  9
$TDCREATE
 40
2459045.727708333
  9
$TDUCREATE
 40
2459045.644375000
  9
$TDUPDATE
 40
2459045.728043982
  9
$TDUUPDATE
 40
2459045.644710649
  9
$TDINDWG
 40
0.0003356481
  9
$TDUSRTIMER
 40
0.0003356481
  9
$USRTIMER
 70
     1
  9
$ANGBASE
 50
0.0
  9
$ANGDIR
 70
     0
  9
$PDMODE
 70
     0
  9
$PDSIZE
 40
0.0
  9
$PLINEWID
 40
0.0
  9
$SPLFRAME
 70
     0
  9
$SPLINETYPE
 70
     6
  9
$SPLINESEGS
 70
     8
  9
$HANDSEED
  5
77A
  9
$SURFTAB1
 70
     6
  9
$SURFTAB2
 70
     6
  9
$SURFTYPE
 70
     6
  9
$SURFU
 70
     6
  9
$SURFV
 70
     6
  9
$UCSBASE
  2

  9
$UCSNAME
  2

  9
$UCSORG
 10
0.0
 20
0.0
 30
0.0
  9
$UCSXDIR
 10
1.0
 20
0.0
 30
0.0
  9
$UCSYDIR
 10
0.0
 20
1.0
 30
0.0
  9
$UCSORTHOREF
  2

  9
$UCSORTHOVIEW
 70
     0
  9
$UCSORGTOP
 10
0.0
 20
0.0
 30
0.0
  9
$UCSORGBOTTOM
 10
0.0
 20
0.0
 30
0.0
  9
$UCSORGLEFT
 10
0.0
 20
0.0
 30
0.0
  9
$UCSORGRIGHT
 10
0.0
 20
0.0
 30
0.0
  9
$UCSORGFRONT
 10
0.0
 20
0.0
 30
0.0
  9
$UCSORGBACK
 10
0.0
 20
0.0
 30
0.0
  9
$PUCSBASE
  2

  9
$PUCSNAME
  2

  9
$PUCSORG
 10
0.0
 20
0.0
 30
0.0
  9
$PUCSXDIR
 10
1.0
 20
0.0
 30
0.0
  9
$PUCSYDIR
 10
0.0
 20
1.0
 30
0.0
  9
$PUCSORTHOREF
  2

  9
$PUCSORTHOVIEW
 70
     0
  9
$PUCSORGTOP
 10
0.0
 20
0.0
 30
0.0
  9
$PUCSORGBOTTOM
 10
0.0
 20
0.0
 30
0.0
  9
$PUCSORGLEFT
 10
0.0
 20
0.0
 30
0.0
  9
$PUCSORGRIGHT
 10
0.0
 20
0.0
 30
0.0
  9
$PUCSORGFRONT
 10
0.0
 20
0.0
 30
0.0
  9
$PUCSORGBACK
 10
0.0
 20
0.0
 30
0.0
  9
$USERI1
 70
     0
  9
$USERI2
 70
     0
  9
$USERI3
 70
     0
  9
$USERI4
 70
     0
  9
$USERI5
 70
     0
  9
$USERR1
 40
0.0
  9
$USERR2
 40
0.0
  9
$USERR3
 40
0.0
  9
$USERR4
 40
0.0
  9
$USERR5
 40
0.0
  9
$WORLDVIEW
 70
     1
  9
$SHADEDGE
 70
     3
  9
$SHADEDIF
 70
    70
  9
$TILEMODE
 70
     1
  9
$MAXACTVP
 70
    64
  9
$PINSBASE
 10
0.0
 20
0.0
 30
0.0
  9
$PLIMCHECK
 70
     0
  9
$PEXTMIN
 10
0.0
 20
0.0
 30
0.0
  9
$PEXTMAX
 10
0.0
 20
0.0
 30
0.0
  9
$PLIMMIN
 10
0.0
 20
0.0
  9
$PLIMMAX
 10
12.0
 20
9.0
  9
$UNITMODE
 70
     0
  9
$VISRETAIN
 70
     1
  9
$PLINEGEN
 70
     0
  9
$PSLTSCALE
 70
     1
  9
$TREEDEPTH
 70
  3020
  9
$CMLSTYLE
  2
Standard
  9
$CMLJUST
 70
     0
  9
$CMLSCALE
 40
20.0
  9
$PROXYGRAPHICS
 70
     1
  9
$MEASUREMENT
 70
     1
  9
$CELWEIGHT
370
    -1
  9
$ENDCAPS
280
     0
  9
$JOINSTYLE
280
     0
  9
$LWDISPLAY
290
     0
  9
$INSUNITS
 70
     4
  9
$HYPERLINKBASE
  1

  9
$STYLESHEET
  1

  9
$XEDIT
290
     1
  9
$CEPSNTYPE
380
     0
  9
$PSTYLEMODE
290
     1
  9
$FINGERPRINTGUID
  2
{06A2F2D0-9F6B-3E47-8AF2-B17514F73956}
  9
$VERSIONGUID
  2
{BD861F6F-8936-784D-AAF6-1B0A01AFCCBC}
  9
$EXTNAMES
290
     1
  9
$PSVPSCALE
 40
0.0
  9
$OLESTARTUP
290
     0
  9
$SORTENTS
280
   127
  9
$INDEXCTL
280
     0
  9
$HIDETEXT
280
     1
  9
$XCLIPFRAME
280
     2
  9
$HALOGAP
280
     0
  9
$OBSCOLOR
 70
   257
  9
$OBSLTYPE
280
     0
  9
$INTERSECTIONDISPLAY
280
     0
  9
$INTERSECTIONCOLOR
 70
   257
  9
$DIMASSOC
280
     2
  9
$PROJECTNAME
  1

  9
$CAMERADISPLAY
290
     0
  9
$LENSLENGTH
 40
50.0
  9
$CAMERAHEIGHT
 40
0.0
  9
$STEPSPERSEC
 40
2.0
  9
$STEPSIZE
 40
6.0
  9
$3DDWFPREC
 40
2.0
  9
$PSOLWIDTH
 40
5.0
  9
$PSOLHEIGHT
 40
80.0
  9
$LOFTANG1
 40
1.570796326794896
  9
$LOFTANG2
 40
1.570796326794896
  9
$LOFTMAG1
 40
0.0
  9
$LOFTMAG2
 40
0.0
  9
$LOFTPARAM
 70
     7
  9
$LOFTNORMALS
280
     1
  9
$LATITUDE
 40
37.795
  9
$LONGITUDE
 40
-122.394
  9
$NORTHDIRECTION
 40
0.0
  9
$TIMEZONE
 70
 -8000
  9
$LIGHTGLYPHDISPLAY
280
     1
  9
$TILEMODELIGHTSYNCH
280
     1
  9
$CMATERIAL
347
EC
  9
$SOLIDHIST
280
     0
  9
$SHOWHIST
280
     1
  9
$DWFFRAME
280
     2
  9
$DGNFRAME
280
     0
  9
$REALWORLDSCALE
290
     1
  9
$INTERFERECOLOR
 62
     1
  9
$INTERFEREOBJVS
345
F9
  9
$INTERFEREVPVS
346
F6
  9
$CSHADOW
280
     0
  9
$SHADOWPLANELOCATION
 40
0.0
  0
ENDSEC
  0
SECTION
  2
CLASSES
  0
CLASS
  1
ACDBDICTIONARYWDFLT
  2
AcDbDictionaryWithDefault
  3
ObjectDBX Classes
 90
        0
 91
        1
280
     0
281
     0
  0
CLASS
  1
DICTIONARYVAR
  2
AcDbDictionaryVar
  3
ObjectDBX Classes
 90
        0
 91
       11
280
     0
281
     0
  0
CLASS
  1
TABLESTYLE
  2
AcDbTableStyle
  3
ObjectDBX Classes
 90
     4095
 91
        1
280
     0
281
     0
  0
CLASS
  1
MATERIAL
  2
AcDbMaterial
  3
ObjectDBX Classes
 90
     1153
 91
        3
280
     0
281
     0
  0
CLASS
  1
VISUALSTYLE
  2
AcDbVisualStyle
  3
ObjectDBX Classes
 90
     4095
 91
       24
280
     0
281
     0
  0
CLASS
  1
SCALE
  2
AcDbScale
  3
ObjectDBX Classes
 90
     1153
 91
       17
280
     0
281
     0
  0
CLASS
  1
MLEADERSTYLE
  2
AcDbMLeaderStyle
  3
ACDB_MLEADERSTYLE_CLASS
 90
     4095
 91
        2
280
     0
281
     0
  0
CLASS
  1
CELLSTYLEMAP
  2
AcDbCellStyleMap
  3
ObjectDBX Classes
 90
     1152
 91
        2
280
     0
281
     0
  0
CLASS
  1
EXACXREFPANELOBJECT
  2
ExAcXREFPanelObject
  3
EXAC_ESW
 90
     1025
 91
        0
280
     0
281
     0
  0
CLASS
  1
NPOCOLLECTION
  2
AcDbImpNonPersistentObjectsCollection
  3
ObjectDBX Classes
 90
     1153
 91
        0
280
     0
281
     0
  0
CLASS
  1
LAYER_INDEX
  2
AcDbLayerIndex
  3
ObjectDBX Classes
 90
        0
 91
        0
280
     0
281
     0
  0
CLASS
  1
SPATIAL_INDEX
  2
AcDbSpatialIndex
  3
ObjectDBX Classes
 90
        0
 91
        0
280
     0
281
     0
  0
CLASS
  1
IDBUFFER
  2
AcDbIdBuffer
  3
ObjectDBX Classes
 90
        0
 91
        0
280
     0
281
     0
  0
CLASS
  1
ACDBSECTIONVIEWSTYLE
  2
AcDbSectionViewStyle
  3
ObjectDBX Classes
 90
     1025
 91
        2
280
     0
281
     0
  0
CLASS
  1
ACDBDETAILVIEWSTYLE
  2
AcDbDetailViewStyle
  3
ObjectDBX Classes
 90
     1025
 91
        2
280
     0
281
     0
  0
CLASS
  1
SORTENTSTABLE
  2
AcDbSortentsTable
  3
ObjectDBX Classes
 90
        0
 91
        1
280
     0
281
     0
  0
ENDSEC
  0
SECTION
  2
TABLES
  0
TABLE
  2
VPORT
  5
8
330
0
100
AcDbSymbolTable
 70
     1
1001
ACAD
1000
DbSaveVer
1071
      208
  0
VPORT
  5
EA
330
8
100
AcDbSymbolTableRecord
100
AcDbViewportTableRecord
  2
*Active
 70
     0
 10
0.0
 20
0.0
 11
1.0
 21
1.0
 12
12.14767530810519
 22
6.596123268008341
 13
0.0
 23
0.0
 14
10.0
 24
10.0
 15
10.0
 25
10.0
 16
0.0
 26
0.0
 36
1.0
 17
0.0
 27
0.0
 37
0.0
 40
13.12238527929848
 41
2.283154121863799
 42
50.0
 43
0.0
 44
0.0
 50
0.0
 51
0.0
 71
     0
 72
  1000
 73
     1
 74
     3
 75
     0
 76
     1
 77
     0
 78
     0
281
     0
 65
     1
110
0.0
120
0.0
130
0.0
111
1.0
121
0.0
131
0.0
112
0.0
122
1.0
132
0.0
 79
     0
146
0.0
348
F5
 60
     3
 61
     5
292
     1
282
     1
141
0.0
142
0.0
 63
   250
421
  3355443
1001
ACAD_NAV_VCDISPLAY
1070
     3
  0
ENDTAB
  0
TABLE
  2
LTYPE
  5
5
330
0
100
AcDbSymbolTable
 70
     1
  0
LTYPE
  5
14
330
5
100
AcDbSymbolTableRecord
100
AcDbLinetypeTableRecord
  2
ByBlock
 70
     0
  3

 72
    65
 73
     0
 40
0.0
  0
LTYPE
  5
15
330
5
100
AcDbSymbolTableRecord
100
AcDbLinetypeTableRecord
  2
ByLayer
 70
     0
  3

 72
    65
 73
     0
 40
0.0
  0
LTYPE
  5
16
330
5
100
AcDbSymbolTableRecord
100
AcDbLinetypeTableRecord
  2
Continuous
 70
     0
  3
Solid line
 72
    65
 73
     0
 40
0.0
  0
ENDTAB
  0
TABLE
  2
LAYER
  5
2
102
{ACAD_XDICTIONARY
360
1FF
102
}
330
0
100
AcDbSymbolTable
 70
     2
  0
LAYER
  5
10
102
{ACAD_XDICTIONARY
360
13C
102
}
330
2
100
AcDbSymbolTableRecord
100
AcDbLayerTableRecord
  2
0
 70
     0
 62
     7
  6
Continuous
370
    -3
390
F
347
EE
348
0
  0
LAYER
  5
28C
330
2
100
AcDbSymbolTableRecord
100
AcDbLayerTableRecord
  2
Livello 1
 70
     0
 62
     7
  6
Continuous
370
    -3
390
F
347
EE
348
0
  0
ENDTAB
  0
TABLE
  2
STYLE
  5
3
330
0
100
AcDbSymbolTable
 70
     2
  0
STYLE
  5
11
330
3
100
AcDbSymbolTableRecord
100
AcDbTextStyleTableRecord
  2
Standard
 70
     0
 40
0.0
 41
1.0
 50
0.0
 71
     0
 42
2.5
  3
arial.ttf
  4

1001
ACAD
1000
Arial
1071
       34
  0
STYLE
  5
132
330
3
100
AcDbSymbolTableRecord
100
AcDbTextStyleTableRecord
  2
Annotativa
 70
     0
 40
0.0
 41
1.0
 50
0.0
 71
     0
 42
2.5
  3
arial.ttf
  4

1001
AcadAnnotative
1000
AnnotativeData
1002
{
1070
     1
1070
     1
1002
}
1001
ACAD
1000
Arial
1071
       34
  0
ENDTAB
  0
TABLE
  2
VIEW
  5
6
330
0
100
AcDbSymbolTable
 70
     1
  0
ENDTAB
  0
TABLE
  2
UCS
  5
7
330
0
100
AcDbSymbolTable
 70
     0
  0
ENDTAB
  0
TABLE
  2
APPID
  5
9
330
0
100
AcDbSymbolTable
 70
     8
  0
APPID
  5
12
330
9
100
AcDbSymbolTableRecord
100
AcDbRegAppTableRecord
  2
ACAD
 70
     0
  0
APPID
  5
9E
330
9
100
AcDbSymbolTableRecord
100
AcDbRegAppTableRecord
  2
ACAD_PSEXT
 70
     0
  0
APPID
  5
133
330
9
100
AcDbSymbolTableRecord
100
AcDbRegAppTableRecord
  2
AcadAnnoPO
 70
     0
  0
APPID
  5
134
330
9
100
AcDbSymbolTableRecord
100
AcDbRegAppTableRecord
  2
AcadAnnotative
 70
     0
  0
APPID
  5
135
330
9
100
AcDbSymbolTableRecord
100
AcDbRegAppTableRecord
  2
ACAD_DSTYLE_DIMJAG
 70
     0
  0
APPID
  5
136
330
9
100
AcDbSymbolTableRecord
100
AcDbRegAppTableRecord
  2
ACAD_DSTYLE_DIMTALN
 70
     0
  0
APPID
  5
165
330
9
100
AcDbSymbolTableRecord
100
AcDbRegAppTableRecord
  2
ACAD_MLEADERVER
 70
     0
  0
APPID
  5
217
330
9
100
AcDbSymbolTableRecord
100
AcDbRegAppTableRecord
  2
ACAD_NAV_VCDISPLAY
 70
     0
  0
ENDTAB
  0
TABLE
  2
DIMSTYLE
  5
A
330
0
100
AcDbSymbolTable
 70
     3
100
AcDbDimStyleTable
 71
     2
340
27
340
137
  0
DIMSTYLE
105
1B0
330
A
100
AcDbSymbolTableRecord
100
AcDbDimStyleTableRecord
  2
Standard
 70
     0
340
11
  0
DIMSTYLE
105
137
330
A
100
AcDbSymbolTableRecord
100
AcDbDimStyleTableRecord
  2
Annotativa
 70
     0
 40
0.0
 41
2.5
 42
0.625
 43
3.75
 44
1.25
 73
     0
 74
     0
 77
     1
 78
     8
140
2.5
141
2.5
143
0.03937007874016
147
0.625
171
     3
172
     1
271
     2
272
     2
274
     3
278
    44
283
     0
284
     8
340
11
1001
AcadAnnotative
1000
AnnotativeData
1002
{
1070
     1
1070
     1
1002
}
1001
ACAD_DSTYLE_DIMJAG
1070
   388
1040
1.5
1001
ACAD_DSTYLE_DIMTALN
1070
   392
1070
     0
  0
DIMSTYLE
105
27
330
A
100
AcDbSymbolTableRecord
100
AcDbDimStyleTableRecord
  2
ISO-25
 70
     0
 41
2.5
 42
0.625
 43
3.75
 44
1.25
 73
     0
 74
     0
 77
     1
 78
     8
140
2.5
141
2.5
143
0.03937007874016
147
0.625
171
     3
172
     1
271
     2
272
     2
274
     3
278
    44
283
     0
284
     8
340
11
  0
ENDTAB
  0
TABLE
  2
BLOCK_RECORD
  5
1
330
0
100
AcDbSymbolTable
 70
     2
  0
BLOCK_RECORD
  5
1F
102
{ACAD_XDICTIONARY
360
1CE
102
}
330
1
100
AcDbSymbolTableRecord
100
AcDbBlockTableRecord
  2
*Model_Space
340
22
 70
     0
280
     1
281
     0
  0
BLOCK_RECORD
  5
D2
330
1
100
AcDbSymbolTableRecord
100
AcDbBlockTableRecord
  2
*Paper_Space
340
D3
 70
     0
280
     1
281
     0
  0
BLOCK_RECORD
  5
D6
330
1
100
AcDbSymbolTableRecord
100
AcDbBlockTableRecord
  2
*Paper_Space0
340
D7
 70
     0
280
     1
281
     0
  0
ENDTAB
  0
ENDSEC
  0
SECTION
  2
BLOCKS
  0
BLOCK
  5
20
330
1F
100
AcDbEntity
  8
0
100
AcDbBlockBegin
  2
*Model_Space
 70
     0
 10
0.0
 20
0.0
 30
0.0
  3
*Model_Space
  1

  0
ENDBLK
  5
21
330
1F
100
AcDbEntity
  8
0
100
AcDbBlockEnd
  0
BLOCK
  5
D4
330
D2
100
AcDbEntity
 67
     1
  8
0
100
AcDbBlockBegin
  2
*Paper_Space
 70
     0
 10
0.0
 20
0.0
 30
0.0
  3
*Paper_Space
  1

  0
ENDBLK
  5
D5
330
D2
100
AcDbEntity
 67
     1
  8
0
100
AcDbBlockEnd
  0
BLOCK
  5
D8
330
D6
100
AcDbEntity
 67
     1
  8
0
100
AcDbBlockBegin
  2
*Paper_Space0
 70
     0
 10
0.0
 20
0.0
 30
0.0
  3
*Paper_Space0
  1

  0
ENDBLK
  5
D9
330
D6
100
AcDbEntity
 67
     1
  8
0
100
AcDbBlockEnd
  0
ENDSEC
  0
SECTION
  2
ENTITIES
  0
POLYLINE
  5
4F3
330
1F
100
AcDbEntity
  8
Livello 1
370
     9
100
AcDb2dPolyline
 66
     1
 10
0.0
 20
0.0
 30
0.0
  0
VERTEX
  5
4F4
330
4F3
100
AcDbEntity
  8
Livello 1
370
     9
100
AcDbVertex
100
AcDb2dVertex
 10
10.66094412683336
 20
3.852127452801312
 30
0.0
  0
VERTEX
  5
4F5
330
4F3
100
AcDbEntity
  8
Livello 1
370
     9
100
AcDbVertex
100
AcDb2dVertex
 10
-0.0000007455827244
 20
3.852127452801312
 30
0.0
  0
SEQEND
  5
4F6
330
4F3
100
AcDbEntity
  8
Livello 1
370
     9
  0
POLYLINE
  5
4F7
330
1F
100
AcDbEntity
  8
Livello 1
370
     9
100
AcDb2dPolyline
 66
     1
 10
0.0
 20
0.0
 30
0.0
  0
VERTEX
  5
4F8
330
4F7
100
AcDbEntity
  8
Livello 1
370
     9
100
AcDbVertex
100
AcDb2dVertex
 10
18.81946588168935
 20
3.852127452801312
 30
0.0
  0
VERTEX
  5
4F9
330
4F7
100
AcDbEntity
  8
Livello 1
370
     9
100
AcDbVertex
100
AcDb2dVertex
 10
16.04451144682264
 20
3.852127452801312
 30
0.0
  0
SEQEND
  5
4FA
330
4F7
100
AcDbEntity
  8
Livello 1
370
     9
  0
MTEXT
  5
4FB
330
1F
100
AcDbEntity
  8
Livello 1
100
AcDbMText
 10
0.7290440360258686
 20
0.8809842502326006
 30
0.0
 40
1.998133332833799
 41
0.0
 46
0.0
 71
     7
 72
     1
  1
\fSource Sans Pro Light|b0|i0|c0|p34;\W1;113 mm
 73
     1
 44
1.0
  0
MTEXT
  5
4FC
330
1F
100
AcDbEntity
  8
Livello 1
100
AcDbMText
 10
13.50512954603434
 20
0.8809842502326006
 30
0.0
 40
1.998133332833799
 41
0.0
 46
0.0
 71
     7
 72
     1
  1
\fSource Sans Pro Light|b0|i0|c0|p34;\W1;32 mm
 73
     1
 44
1.0
  0
MTEXT
  5
4FD
330
1F
100
AcDbEntity
  8
Livello 1
100
AcDbMText
 10
23.48975217886238
 20
4.731831345943248
 30
0.0
 40
1.998133332833799
 41
0.0
 46
0.0
 71
     7
 72
     1
  1
\fSource Sans Pro Light|b0|i0|c0|p34;\W1;51 mm
 11
-0.0000000000000002
 21
1.0
 31
0.0
 73
     1
 44
1.0
  0
SPLINE
  5
4FE
330
1F
100
AcDbEntity
  8
Livello 1
370
     5
100
AcDbSpline
210
0.0
220
0.0
230
1.0
 70
     9
 71
     3
 72
    23
 73
    19
 74
     0
 42
0.000000001
 43
0.0000000001
 40
0.0
 40
0.0
 40
0.0
 40
0.0
 40
1.0
 40
1.0
 40
1.0
 40
2.0
 40
2.0
 40
2.0
 40
3.0
 40
3.0
 40
3.0
 40
4.0
 40
4.0
 40
4.0
 40
5.0
 40
5.0
 40
5.0
 40
6.0
 40
6.0
 40
6.0
 40
6.0
 10
19.14488352227241
 20
7.275920898796073
 30
0.0
 10
19.14488352227241
 20
7.275920898796073
 30
0.0
 10
19.11912605055841
 20
7.275920898796073
 30
0.0
 10
19.11912605055841
 20
7.275920898796073
 30
0.0
 10
19.1092483158468
 20
7.275920898796073
 30
0.0
 10
19.1011361925714
 20
7.284034367811983
 30
0.0
 10
19.1011361925714
 20
7.293912102523577
 30
0.0
 10
19.1011361925714
 20
7.303789837235186
 30
0.0
 10
19.1092483158468
 20
7.311903979121282
 30
0.0
 10
19.11912605055841
 20
7.311903979121282
 30
0.0
 10
19.11912605055841
 20
7.311903979121282
 30
0.0
 10
19.14488352227241
 20
7.311903979121282
 30
0.0
 10
19.14488352227241
 20
7.311903979121282
 30
0.0
 10
19.15476125698399
 20
7.311903979121282
 30
0.0
 10
19.16287338025941
 20
7.303789837235186
 30
0.0
 10
19.16287338025941
 20
7.293912102523577
 30
0.0
 10
19.16287338025941
 20
7.284034367811983
 30
0.0
 10
19.15476125698399
 20
7.275920898796073
 30
0.0
 10
19.14488352227241
 20
7.275920898796073
 30
0.0
  0
SPLINE
  5
4FF
330
1F
100
AcDbEntity
  8
Livello 1
370
     5
100
AcDbSpline
210
0.0
220
0.0
230
1.0
 70
     9
 71
     3
 72
    23
 73
    19
 74
     0
 42
0.000000001
 43
0.0000000001
 40
0.0
 40
0.0
 40
0.0
 40
0.0
 40
1.0
 40
1.0
 40
1.0
 40
2.0
 40
2.0
 40
2.0
 40
3.0
 40
3.0
 40
3.0
 40
4.0
 40
4.0
 40
4.0
 40
5.0
 40
5.0
 40
5.0
 40
6.0
 40
6.0
 40
6.0
 40
6.0
 10
16.18112708889057
 20
7.909615934148277
 30
0.0
 10
16.18112708889057
 20
7.909615934148277
 30
0.0
 10
16.1553696171766
 20
7.909615934148277
 30
0.0
 10
16.1553696171766
 20
7.909615934148277
 30
0.0
 10
16.14549188246499
 20
7.909615934148277
 30
0.0
 10
16.1373797591896
 20
7.917729403164173
 30
0.0
 10
16.1373797591896
 20
7.927607137875781
 30
0.0
 10
16.1373797591896
 20
7.937484872587376
 30
0.0
 10
16.14549188246499
 20
7.945599014473373
 30
0.0
 10
16.1553696171766
 20
7.945599014473373
 30
0.0
 10
16.1553696171766
 20
7.945599014473373
 30
0.0
 10
16.18112708889057
 20
7.945599014473373
 30
0.0
 10
16.18112708889057
 20
7.945599014473373
 30
0.0
 10
16.19100482360218
 20
7.945599014473373
 30
0.0
 10
16.19911694687758
 20
7.937484872587376
 30
0.0
 10
16.19911694687758
 20
7.927607137875781
 30
0.0
 10
16.19911694687758
 20
7.917729403164173
 30
0.0
 10
16.19100482360218
 20
7.909615934148277
 30
0.0
 10
16.18112708889057
 20
7.909615934148277
 30
0.0
  0
SPLINE
  5
500
330
1F
100
AcDbEntity
  8
Livello 1
370
     5
100
AcDbSpline
210
0.0
220
0.0
230
1.0
 70
     9
 71
     3
 72
    26
 73
    22
 74
     0
 42
0.000000001
 43
0.0000000001
 40
0.0
 40
0.0
 40
0.0
 40
0.0
 40
1.0
 40
1.0
 40
1.0
 40
2.0
 40
2.0
 40
2.0
 40
3.0
 40
3.0
 40
3.0
 40
4.0
 40
4.0
 40
4.0
 40
5.0
 40
5.0
 40
5.0
 40
6.0
 40
6.0
 40
6.0
 40
7.0
 40
7.0
 40
7.0
 40
7.0
 10
16.16126396023341
 20
7.247522411500185
 30
0.0
 10
16.15209139350398
 20
7.247522411500185
 30
0.0
 10
16.14432916273867
 20
7.254224871681572
 30
0.0
 10
16.14326871928466
 20
7.263396765540861
 30
0.0
 10
16.14221365879231
 20
7.273275173122684
 30
0.0
 10
16.14926533861367
 20
7.282094482990871
 30
0.0
 10
16.15914307332528
 20
7.283152907834278
 30
0.0
 10
16.15914307332528
 20
7.283152907834278
 30
0.0
 10
16.18489516207759
 20
7.285974925503268
 30
0.0
 10
16.18489516207759
 20
7.285974925503268
 30
0.0
 10
16.19547806477132
 20
7.287033350346675
 30
0.0
 10
16.2035955710084
 20
7.279977633304071
 30
0.0
 10
16.20465063150081
 20
7.270099898592377
 30
0.0
 10
16.2057110749549
 20
7.260574747871871
 30
0.0
 10
16.1986540121718
 20
7.251402854012582
 30
0.0
 10
16.18877627746016
 20
7.250344429169174
 30
0.0
 10
16.18877627746016
 20
7.250344429169174
 30
0.0
 10
16.1633794641798
 20
7.247522411500185
 30
0.0
 10
16.1633794641798
 20
7.247522411500185
 30
0.0
 10
16.16267429619768
 20
7.247522411500185
 30
0.0
 10
16.16196912821559
 20
7.247522411500185
 30
0.0
 10
16.16126396023341
 20
7.247522411500185
 30
0.0
  0
SPLINE
  5
501
330
1F
100
AcDbEntity
  8
Livello 1
370
     5
100
AcDbSpline
210
0.0
220
0.0
230
1.0
 70
     9
 71
     3
 72
    23
 73
    19
 74
     0
 42
0.000000001
 43
0.0000000001
 40
0.0
 40
0.0
 40
0.0
 40
0.0
 40
1.0
 40
1.0
 40
1.0
 40
2.0
 40
2.0
 40
2.0
 40
3.0
 40
3.0
 40
3.0
 40
4.0
 40
4.0
 40
4.0
 40
5.0
 40
5.0
 40
5.0
 40
6.0
 40
6.0
 40
6.0
 40
6.0
 10
16.18112708889057
 20
7.906758254358081
 30
0.0
 10
16.18112708889057
 20
7.906758254358081
 30
0.0
 10
16.15854556457708
 20
7.906758254358081
 30
0.0
 10
16.15854556457708
 20
7.906758254358081
 30
0.0
 10
16.1486678298655
 20
7.906758254358081
 30
0.0
 10
16.14055570659008
 20
7.914871723373863
 30
0.0
 10
16.14055570659008
 20
7.924749458085571
 30
0.0
 10
16.14055570659008
 20
7.934627192797179
 30
0.0
 10
16.1486678298655
 20
7.942741334683191
 30
0.0
 10
16.15854556457708
 20
7.942741334683191
 30
0.0
 10
16.15854556457708
 20
7.942741334683191
 30
0.0
 10
16.18112708889057
 20
7.942741334683191
 30
0.0
 10
16.18112708889057
 20
7.942741334683191
 30
0.0
 10
16.19100482360218
 20
7.942741334683191
 30
0.0
 10
16.19911694687758
 20
7.934627192797179
 30
0.0
 10
16.19911694687758
 20
7.924749458085571
 30
0.0
 10
16.19911694687758
 20
7.914871723373863
 30
0.0
 10
16.19100482360218
 20
7.906758254358081
 30
0.0
 10
16.18112708889057
 20
7.906758254358081
 30
0.0
  0
SPLINE
  5
502
330
1F
100
AcDbEntity
  8
Livello 1
370
     5
100
AcDbSpline
210
0.0
220
0.0
230
1.0
 70
     9
 71
     3
 72
    23
 73
    19
 74
     0
 42
0.000000001
 43
0.0000000001
 40
0.0
 40
0.0
 40
0.0
 40
0.0
 40
1.0
 40
1.0
 40
1.0
 40
2.0
 40
2.0
 40
2.0
 40
3.0
 40
3.0
 40
3.0
 40
4.0
 40
4.0
 40
4.0
 40
5.0
 40
5.0
 40
5.0
 40
6.0
 40
6.0
 40
6.0
 40
6.0
 10
16.18680611347949
 20
7.250345102039375
 30
0.0
 10
16.18680611347949
 20
7.250345102039375
 30
0.0
 10
16.16422458916608
 20
7.250345102039375
 30
0.0
 10
16.16422458916608
 20
7.250345102039375
 30
0.0
 10
16.15434685445447
 20
7.250345102039375
 30
0.0
 10
16.14623473117899
 20
7.258458571055271
 30
0.0
 10
16.14623473117899
 20
7.268336305766865
 30
0.0
 10
16.14623473117899
 20
7.278214040478474
 30
0.0
 10
16.15434685445447
 20
7.28632818236457
 30
0.0
 10
16.16422458916608
 20
7.28632818236457
 30
0.0
 10
16.16422458916608
 20
7.28632818236457
 30
0.0
 10
16.18680611347949
 20
7.28632818236457
 30
0.0
 10
16.18680611347949
 20
7.28632818236457
 30
0.0
 10
16.19668384819116
 20
7.28632818236457
 30
0.0
 10
16.20479597146658
 20
7.278214040478474
 30
0.0
 10
16.20479597146658
 20
7.268336305766865
 30
0.0
 10
16.20479597146658
 20
7.258458571055271
 30
0.0
 10
16.19668384819116
 20
7.250345102039375
 30
0.0
 10
16.18680611347949
 20
7.250345102039375
 30
0.0
  0
SPLINE
  5
503
330
1F
100
AcDbEntity
  8
Livello 1
370
     5
100
AcDbSpline
210
0.0
220
0.0
230
1.0
 70
     9
 71
     3
 72
    23
 73
    19
 74
     0
 42
0.000000001
 43
0.0000000001
 40
0.0
 40
0.0
 40
0.0
 40
0.0
 40
1.0
 40
1.0
 40
1.0
 40
2.0
 40
2.0
 40
2.0
 40
3.0
 40
3.0
 40
3.0
 40
4.0
 40
4.0
 40
4.0
 40
5.0
 40
5.0
 40
5.0
 40
6.0
 40
6.0
 40
6.0
 40
6.0
 10
17.34053091075782
 20
11.86213832225418
 30
0.0
 10
17.34053091075782
 20
11.86213832225418
 30
0.0
 10
17.00785849500167
 20
11.86213832225418
 30
0.0
 10
17.00785849500167
 20
11.86213832225418
 30
0.0
 10
16.99833603576198
 20
11.86213832225418
 30
0.0
 10
16.99021852952489
 20
11.87025179127008
 30
0.0
 10
16.99021852952489
 20
11.88012952598168
 30
0.0
 10
16.99021852952489
 20
11.89000726069328
 30
0.0
 10
16.99833603576198
 20
11.89812072970906
 30
0.0
 10
17.00785849500167
 20
11.89812072970906
 30
0.0
 10
17.00785849500167
 20
11.89812072970906
 30
0.0
 10
17.34053091075782
 20
11.89812072970906
 30
0.0
 10
17.34053091075782
 20
11.89812072970906
 30
0.0
 10
17.35040864546948
 20
11.89812072970906
 30
0.0
 10
17.35852076874488
 20
11.89000726069328
 30
0.0
 10
17.35852076874488
 20
11.88012952598168
 30
0.0
 10
17.35852076874488
 20
11.87025179127008
 30
0.0
 10
17.35040864546948
 20
11.86213832225418
 30
0.0
 10
17.34053091075782
 20
11.86213832225418
 30
0.0
  0
SPLINE
  5
504
330
1F
100
AcDbEntity
  8
Livello 1
370
     5
100
AcDbSpline
210
0.0
220
0.0
230
1.0
 70
     9
 71
     3
 72
    26
 73
    22
 74
     0
 42
0.000000001
 43
0.0000000001
 40
0.0
 40
0.0
 40
0.0
 40
0.0
 40
1.0
 40
1.0
 40
1.0
 40
2.0
 40
2.0
 40
2.0
 40
3.0
 40
3.0
 40
3.0
 40
4.0
 40
4.0
 40
4.0
 40
5.0
 40
5.0
 40
5.0
 40
6.0
 40
6.0
 40
6.0
 40
7.0
 40
7.0
 40
7.0
 40
7.0
 10
17.38878916235978
 20
11.51835681929857
 30
0.0
 10
17.37996648814058
 20
11.51835681929857
 30
0.0
 10
17.37220425737539
 20
11.52470602261868
 30
0.0
 10
17.37114919688298
 20
11.53387858934806
 30
0.0
 10
17.37114919688298
 20
11.53387858934806
 30
0.0
 10
17.32281558381728
 20
11.87748380030818
 30
0.0
 10
17.32281558381728
 20
11.87748380030818
 30
0.0
 10
17.32140524785299
 20
11.88736153501978
 30
0.0
 10
17.32810703516418
 20
11.89653410174928
 30
0.0
 10
17.33798476987579
 20
11.89794443771357
 30
0.0
 10
17.34821778005931
 20
11.89970870340936
 30
0.0
 10
17.35703507131688
 20
11.89230040237568
 30
0.0
 10
17.35809551477089
 20
11.88242266766397
 30
0.0
 10
17.35809551477089
 20
11.88242266766397
 30
0.0
 10
17.4064237448749
 20
11.53881745670386
 30
0.0
 10
17.4064237448749
 20
11.53881745670386
 30
0.0
 10
17.40783408083916
 20
11.52893972199227
 30
0.0
 10
17.40113229352809
 20
11.51976715526277
 30
0.0
 10
17.3912545588164
 20
11.51870940328957
 30
0.0
 10
17.39054939083431
 20
11.51835681929857
 30
0.0
 10
17.3894943303419
 20
11.51835681929857
 30
0.0
 10
17.38878916235978
 20
11.51835681929857
 30
0.0
  0
SPLINE
  5
505
330
1F
100
AcDbEntity
  8
Livello 1
370
     5
100
AcDbSpline
210
0.0
220
0.0
230
1.0
 70
     9
 71
     3
 72
    26
 73
    22
 74
     0
 42
0.000000001
 43
0.0000000001
 40
0.0
 40
0.0
 40
0.0
 40
0.0
 40
1.0
 40
1.0
 40
1.0
 40
2.0
 40
2.0
 40
2.0
 40
3.0
 40
3.0
 40
3.0
 40
4.0
 40
4.0
 40
4.0
 40
5.0
 40
5.0
 40
5.0
 40
6.0
 40
6.0
 40
6.0
 40
7.0
 40
7.0
 40
7.0
 40
7.0
 10
17.87181308123857
 20
10.96710520666718
 30
0.0
 10
17.86687152240199
 20
10.96710520666718
 30
0.0
 10
17.8619299635653
 20
10.96922071061357
 30
0.0
 10
17.85840412365456
 20
10.97310182599618
 30
0.0
 10
17.85840412365456
 20
10.97310182599618
 30
0.0
 10
17.3754501832779
 20
11.52449339563169
 30
0.0
 10
17.3754501832779
 20
11.52449339563169
 30
0.0
 10
17.36874839596669
 20
11.53190169666538
 30
0.0
 10
17.36945356394881
 20
11.54319111308167
 30
0.0
 10
17.37686051924217
 20
11.54989290039277
 30
0.0
 10
17.38427285749708
 20
11.55624344945327
 30
0.0
 10
17.39556092817298
 20
11.55553828147118
 30
0.0
 10
17.40226271548417
 20
11.54812998043748
 30
0.0
 10
17.40226271548417
 20
11.54812998043748
 30
0.0
 10
17.88521665586091
 20
10.99673841080198
 30
0.0
 10
17.88521665586091
 20
10.99673841080198
 30
0.0
 10
17.89191844317207
 20
10.98933010976827
 30
0.0
 10
17.8912132751899
 20
10.97804069335197
 30
0.0
 10
17.88380631989667
 20
10.97169014429147
 30
0.0
 10
17.88027509702431
 20
10.96851554263138
 30
0.0
 10
17.87604408913139
 20
10.96710520666718
 30
0.0
 10
17.87181308123857
 20
10.96710520666718
 30
0.0
  0
SPLINE
  5
506
330
1F
100
AcDbEntity
  8
Livello 1
370
     5
100
AcDbSpline
210
0.0
220
0.0
230
1.0
 70
     9
 71
     3
 72
    26
 73
    22
 74
     0
 42
0.000000001
 43
0.0000000001
 40
0.0
 40
0.0
 40
0.0
 40
0.0
 40
1.0
 40
1.0
 40
1.0
 40
2.0
 40
2.0
 40
2.0
 40
3.0
 40
3.0
 40
3.0
 40
4.0
 40
4.0
 40
4.0
 40
5.0
 40
5.0
 40
5.0
 40
6.0
 40
6.0
 40
6.0
 40
7.0
 40
7.0
 40
7.0
 40
7.0
 10
17.953515673856
 20
10.85174699178778
 30
0.0
 10
17.94786894703719
 20
10.85174699178778
 30
0.0
 10
17.94222222021838
 20
10.85456900945678
 30
0.0
 10
17.93869638030767
 20
10.85915529282148
 30
0.0
 10
17.93869638030767
 20
10.85915529282148
 30
0.0
 10
17.85720372319647
 20
10.97451350770088
 30
0.0
 10
17.85720372319647
 20
10.97451350770088
 30
0.0
 10
17.85156237933938
 20
10.98262697671668
 30
0.0
 10
17.85332260781391
 20
10.99391639313299
 30
0.0
 10
17.86144011405099
 20
10.99956042847097
 30
0.0
 10
17.86955223732639
 20
11.00520446380888
 30
0.0
 10
17.88084030800229
 20
11.00344019811308
 30
0.0
 10
17.88648703482107
 20
10.99532672909727
 30
0.0
 10
17.88648703482107
 20
10.99532672909727
 30
0.0
 10
17.96832958444258
 20
10.87996851421798
 30
0.0
 10
17.96832958444258
 20
10.87996851421798
 30
0.0
 10
17.97397631126139
 20
10.87185504520208
 30
0.0
 10
17.97185542435329
 20
10.86056562878578
 30
0.0
 10
17.9637433010779
 20
10.85492159344778
 30
0.0
 10
17.96056735367739
 20
10.85280474376098
 30
0.0
 10
17.95704151376668
 20
10.85174699178778
 30
0.0
 10
17.953515673856
 20
10.85174699178778
 30
0.0
  0
SPLINE
  5
507
330
1F
100
AcDbEntity
  8
Livello 1
370
     5
100
AcDbSpline
210
0.0
220
0.0
230
1.0
 70
     9
 71
     3
 72
    26
 73
    22
 74
     0
 42
0.000000001
 43
0.0000000001
 40
0.0
 40
0.0
 40
0.0
 40
0.0
 40
1.0
 40
1.0
 40
1.0
 40
2.0
 40
2.0
 40
2.0
 40
3.0
 40
3.0
 40
3.0
 40
4.0
 40
4.0
 40
4.0
 40
5.0
 40
5.0
 40
5.0
 40
6.0
 40
6.0
 40
6.0
 40
7.0
 40
7.0
 40
7.0
 40
7.0
 10
17.00521546080907
 20
11.80537633691337
 30
0.0
 10
17.00521546080907
 20
11.80537633691337
 30
0.0
 10
17.00415501735509
 20
11.80537633691337
 30
0.0
 10
17.00415501735509
 20
11.80537633691337
 30
0.0
 10
16.99427728264348
 20
11.80572892090448
 30
0.0
 10
16.98687032735017
 20
11.81419497391138
 30
0.0
 10
16.9872202198604
 20
11.82407270862299
 30
0.0
 10
16.9872202198604
 20
11.82407270862299
 30
0.0
 10
16.99004089178891
 20
11.88086968321477
 30
0.0
 10
16.99004089178891
 20
11.88086968321477
 30
0.0
 10
16.9907514427328
 20
11.89074741792636
 30
0.0
 10
16.9992134585184
 20
11.89780313496908
 30
0.0
 10
17.0087413007198
 20
11.89815571896018
 30
0.0
 10
17.01896892794167
 20
11.89745055097796
 30
0.0
 10
17.02638126619658
 20
11.88898449797108
 30
0.0
 10
17.02602599072469
 20
11.87910676325948
 30
0.0
 10
17.02602599072469
 20
11.87910676325948
 30
0.0
 10
17.02320531879619
 20
11.82230844292728
 30
0.0
 10
17.02320531879619
 20
11.82230844292728
 30
0.0
 10
17.02250015081398
 20
11.81278463794717
 30
0.0
 10
17.01473792004879
 20
11.80537633691337
 30
0.0
 10
17.00521546080907
 20
11.80537633691337
 30
0.0
  0
SPLINE
  5
508
330
1F
100
AcDbEntity
  8
Livello 1
370
     5
100
AcDbSpline
210
0.0
220
0.0
230
1.0
 70
     9
 71
     3
 72
    35
 73
    31
 74
     0
 42
0.000000001
 43
0.0000000001
 40
0.0
 40
0.0
 40
0.0
 40
0.0
 40
1.0
 40
1.0
 40
1.0
 40
2.0
 40
2.0
 40
2.0
 40
3.0
 40
3.0
 40
3.0
 40
4.0
 40
4.0
 40
4.0
 40
5.0
 40
5.0
 40
5.0
 40
6.0
 40
6.0
 40
6.0
 40
7.0
 40
7.0
 40
7.0
 40
8.0
 40
8.0
 40
8.0
 40
9.0
 40
9.0
 40
9.0
 40
10.0
 40
10.0
 40
10.0
 40
10.0
 10
17.43348927628091
 20
10.85488660419678
 30
0.0
 10
17.42748727399018
 20
10.85488660419678
 30
0.0
 10
17.42149065466117
 20
10.85806120585687
 30
0.0
 10
17.41796481475049
 20
10.86370524119478
 30
0.0
 10
17.41796481475049
 20
10.86370524119478
 30
0.0
 10
17.04366595620149
 20
11.49870497188799
 30
0.0
 10
17.04366595620149
 20
11.49870497188799
 30
0.0
 10
17.04261089570917
 20
11.50082182157477
 30
0.0
 10
17.041905727727
 20
11.50258608727058
 30
0.0
 10
17.04155045225508
 20
11.50505552094849
 30
0.0
 10
17.04155045225508
 20
11.50505552094849
 30
0.0
 10
16.98757549533229
 20
11.82043920947838
 30
0.0
 10
16.98757549533229
 20
11.82043920947838
 30
0.0
 10
16.98580988389608
 20
11.82996436019897
 30
0.0
 10
16.99251705416898
 20
11.83913558118799
 30
0.0
 10
17.00239478888059
 20
11.84089984688377
 30
0.0
 10
17.01191724812031
 20
11.84231152858848
 30
0.0
 10
17.0210898148498
 20
11.83596097952798
 30
0.0
 10
17.0228554262859
 20
11.82643582880749
 30
0.0
 10
17.0228554262859
 20
11.82643582880749
 30
0.0
 10
17.0764751077368
 20
11.51422808767798
 30
0.0
 10
17.0764751077368
 20
11.51422808767798
 30
0.0
 10
17.0764751077368
 20
11.51422808767798
 30
0.0
 10
17.44900835484958
 20
10.88205037465377
 30
0.0
 10
17.44900835484958
 20
10.88205037465377
 30
0.0
 10
17.4539499136863
 20
10.87323039191537
 30
0.0
 10
17.45112385879608
 20
10.86229490523048
 30
0.0
 10
17.44265646004868
 20
10.85735603787468
 30
0.0
 10
17.43983578812018
 20
10.85559177217897
 30
0.0
 10
17.43665984071967
 20
10.85488660419678
 30
0.0
 10
17.43348927628091
 20
10.85488660419678
 30
0.0
  0
SPLINE
  5
509
330
1F
100
AcDbEntity
  8
Livello 1
370
     5
100
AcDbSpline
210
0.0
220
0.0
230
1.0
 70
     9
 71
     3
 72
    23
 73
    19
 74
     0
 42
0.000000001
 43
0.0000000001
 40
0.0
 40
0.0
 40
0.0
 40
0.0
 40
1.0
 40
1.0
 40
1.0
 40
2.0
 40
2.0
 40
2.0
 40
3.0
 40
3.0
 40
3.0
 40
4.0
 40
4.0
 40
4.0
 40
5.0
 40
5.0
 40
5.0
 40
6.0
 40
6.0
 40
6.0
 40
6.0
 10
18.24977773670238
 20
10.84490390173208
 30
0.0
 10
18.24977773670238
 20
10.84490390173208
 30
0.0
 10
17.89452917959448
 20
10.84490390173208
 30
0.0
 10
17.89452917959448
 20
10.84490390173208
 30
0.0
 10
17.8846514448829
 20
10.84490390173208
 30
0.0
 10
17.87653393864568
 20
10.85301737074797
 30
0.0
 10
17.87653393864568
 20
10.86289510545957
 30
0.0
 10
17.87653393864568
 20
10.87277284017118
 30
0.0
 10
17.8846514448829
 20
10.88088630918706
 30
0.0
 10
17.89452917959448
 20
10.88088630918706
 30
0.0
 10
17.89452917959448
 20
10.88088630918706
 30
0.0
 10
18.24977773670238
 20
10.88088630918706
 30
0.0
 10
18.24977773670238
 20
10.88088630918706
 30
0.0
 10
18.25965547141399
 20
10.88088630918706
 30
0.0
 10
18.26776759468947
 20
10.87277284017118
 30
0.0
 10
18.26776759468947
 20
10.86289510545957
 30
0.0
 10
18.26776759468947
 20
10.85301737074797
 30
0.0
 10
18.25965547141399
 20
10.84490390173208
 30
0.0
 10
18.24977773670238
 20
10.84490390173208
 30
0.0
  0
SPLINE
  5
50A
330
1F
100
AcDbEntity
  8
Livello 1
370
     5
100
AcDbSpline
210
0.0
220
0.0
230
1.0
 70
     9
 71
     3
 72
    23
 73
    19
 74
     0
 42
0.000000001
 43
0.0000000001
 40
0.0
 40
0.0
 40
0.0
 40
0.0
 40
1.0
 40
1.0
 40
1.0
 40
2.0
 40
2.0
 40
2.0
 40
3.0
 40
3.0
 40
3.0
 40
4.0
 40
4.0
 40
4.0
 40
5.0
 40
5.0
 40
5.0
 40
6.0
 40
6.0
 40
6.0
 40
6.0
 10
17.4314383678749
 20
10.84490390173208
 30
0.0
 10
17.4314383678749
 20
10.84490390173208
 30
0.0
 10
17.1234629803786
 20
10.84490390173208
 30
0.0
 10
17.1234629803786
 20
10.84490390173208
 30
0.0
 10
17.113585245667
 20
10.84490390173208
 30
0.0
 10
17.1058230149018
 20
10.85301737074797
 30
0.0
 10
17.1058230149018
 20
10.86289510545957
 30
0.0
 10
17.1058230149018
 20
10.87277284017118
 30
0.0
 10
17.113585245667
 20
10.88088630918706
 30
0.0
 10
17.1234629803786
 20
10.88088630918706
 30
0.0
 10
17.1234629803786
 20
10.88088630918706
 30
0.0
 10
17.4314383678749
 20
10.88088630918706
 30
0.0
 10
17.4314383678749
 20
10.88088630918706
 30
0.0
 10
17.44131610258648
 20
10.88088630918706
 30
0.0
 10
17.44942822586191
 20
10.87277284017118
 30
0.0
 10
17.44942822586191
 20
10.86289510545957
 30
0.0
 10
17.44942822586191
 20
10.85301737074797
 30
0.0
 10
17.44131610258648
 20
10.84490390173208
 30
0.0
 10
17.4314383678749
 20
10.84490390173208
 30
0.0
  0
SPLINE
  5
50B
330
1F
100
AcDbEntity
  8
Livello 1
370
     5
100
AcDbSpline
210
0.0
220
0.0
230
1.0
 70
     9
 71
     3
 72
    23
 73
    19
 74
     0
 42
0.000000001
 43
0.0000000001
 40
0.0
 40
0.0
 40
0.0
 40
0.0
 40
1.0
 40
1.0
 40
1.0
 40
2.0
 40
2.0
 40
2.0
 40
3.0
 40
3.0
 40
3.0
 40
4.0
 40
4.0
 40
4.0
 40
5.0
 40
5.0
 40
5.0
 40
6.0
 40
6.0
 40
6.0
 40
6.0
 10
17.4314383678749
 20
10.61471634796007
 30
0.0
 10
17.42155525020158
 20
10.61471634796007
 30
0.0
 10
17.41344312692607
 20
10.62282981697588
 30
0.0
 10
17.41344312692607
 20
10.63270755168749
 30
0.0
 10
17.41344312692607
 20
10.63270755168749
 30
0.0
 10
17.41344312692607
 20
10.86271881346407
 30
0.0
 10
17.41344312692607
 20
10.86271881346407
 30
0.0
 10
17.41344312692607
 20
10.87259654817568
 30
0.0
 10
17.42155525020158
 20
10.88071001719149
 30
0.0
 10
17.4314383678749
 20
10.88071001719149
 30
0.0
 10
17.44131610258648
 20
10.88071001719149
 30
0.0
 10
17.44942822586191
 20
10.87259654817568
 30
0.0
 10
17.44942822586191
 20
10.86271881346407
 30
0.0
 10
17.44942822586191
 20
10.86271881346407
 30
0.0
 10
17.44942822586191
 20
10.63270755168749
 30
0.0
 10
17.44942822586191
 20
10.63270755168749
 30
0.0
 10
17.44942822586191
 20
10.62282981697588
 30
0.0
 10
17.44131610258648
 20
10.61471634796007
 30
0.0
 10
17.4314383678749
 20
10.61471634796007
 30
0.0
  0
SPLINE
  5
50C
330
1F
100
AcDbEntity
  8
Livello 1
370
     5
100
AcDbSpline
210
0.0
220
0.0
230
1.0
 70
     9
 71
     3
 72
    23
 73
    19
 74
     0
 42
0.000000001
 43
0.0000000001
 40
0.0
 40
0.0
 40
0.0
 40
0.0
 40
1.0
 40
1.0
 40
1.0
 40
2.0
 40
2.0
 40
2.0
 40
3.0
 40
3.0
 40
3.0
 40
4.0
 40
4.0
 40
4.0
 40
5.0
 40
5.0
 40
5.0
 40
6.0
 40
6.0
 40
6.0
 40
6.0
 10
17.89456686032639
 20
10.61471634796007
 30
0.0
 10
17.89456686032639
 20
10.61471634796007
 30
0.0
 10
17.43136838937281
 20
10.61471634796007
 30
0.0
 10
17.43136838937281
 20
10.61471634796007
 30
0.0
 10
17.42149065466117
 20
10.61471634796007
 30
0.0
 10
17.41337314842408
 20
10.62282981697588
 30
0.0
 10
17.41337314842408
 20
10.63270755168749
 30
0.0
 10
17.41337314842408
 20
10.64258528639919
 30
0.0
 10
17.42149065466117
 20
10.65069875541498
 30
0.0
 10
17.43136838937281
 20
10.65069875541498
 30
0.0
 10
17.43136838937281
 20
10.65069875541498
 30
0.0
 10
17.89456686032639
 20
10.65069875541498
 30
0.0
 10
17.89456686032639
 20
10.65069875541498
 30
0.0
 10
17.904444595038
 20
10.65069875541498
 30
0.0
 10
17.91255671831339
 20
10.64258528639919
 30
0.0
 10
17.91255671831339
 20
10.63270755168749
 30
0.0
 10
17.91255671831339
 20
10.62282981697588
 30
0.0
 10
17.904444595038
 20
10.61471634796007
 30
0.0
 10
17.89456686032639
 20
10.61471634796007
 30
0.0
  0
SPLINE
  5
50D
330
1F
100
AcDbEntity
  8
Livello 1
370
     5
100
AcDbSpline
210
0.0
220
0.0
230
1.0
 70
     9
 71
     3
 72
    23
 73
    19
 74
     0
 42
0.000000001
 43
0.0000000001
 40
0.0
 40
0.0
 40
0.0
 40
0.0
 40
1.0
 40
1.0
 40
1.0
 40
2.0
 40
2.0
 40
2.0
 40
3.0
 40
3.0
 40
3.0
 40
4.0
 40
4.0
 40
4.0
 40
5.0
 40
5.0
 40
5.0
 40
6.0
 40
6.0
 40
6.0
 40
6.0
 10
17.89456686032639
 20
10.61471634796007
 30
0.0
 10
17.88468374265298
 20
10.61471634796007
 30
0.0
 10
17.87657161937758
 20
10.62282981697588
 30
0.0
 10
17.87657161937758
 20
10.63270755168749
 30
0.0
 10
17.87657161937758
 20
10.63270755168749
 30
0.0
 10
17.87657161937758
 20
10.85989679579508
 30
0.0
 10
17.87657161937758
 20
10.85989679579508
 30
0.0
 10
17.87657161937758
 20
10.86977453050669
 30
0.0
 10
17.88468374265298
 20
10.87929968122728
 30
0.0
 10
17.89456686032639
 20
10.87929968122728
 30
0.0
 10
17.904444595038
 20
10.87929968122728
 30
0.0
 10
17.91255671831339
 20
10.87259654817568
 30
0.0
 10
17.91255671831339
 20
10.86271881346407
 30
0.0
 10
17.91255671831339
 20
10.86271881346407
 30
0.0
 10
17.91255671831339
 20
10.63270755168749
 30
0.0
 10
17.91255671831339
 20
10.63270755168749
 30
0.0
 10
17.91255671831339
 20
10.62282981697588
 30
0.0
 10
17.904444595038
 20
10.61471634796007
 30
0.0
 10
17.89456686032639
 20
10.61471634796007
 30
0.0
  0
SPLINE
  5
50E
330
1F
100
AcDbEntity
  8
Livello 1
370
     5
100
AcDbSpline
210
0.0
220
0.0
230
1.0
 70
     9
 71
     3
 72
    23
 73
    19
 74
     0
 42
0.000000001
 43
0.0000000001
 40
0.0
 40
0.0
 40
0.0
 40
0.0
 40
1.0
 40
1.0
 40
1.0
 40
2.0
 40
2.0
 40
2.0
 40
3.0
 40
3.0
 40
3.0
 40
4.0
 40
4.0
 40
4.0
 40
5.0
 40
5.0
 40
5.0
 40
6.0
 40
6.0
 40
6.0
 40
6.0
 10
19.11359236593517
 20
8.259077807433271
 30
0.0
 10
19.11359236593517
 20
8.259077807433271
 30
0.0
 10
18.26692246970319
 20
8.259077807433271
 30
0.0
 10
18.26692246970319
 20
8.259077807433271
 30
0.0
 10
18.25669484248138
 20
8.259077807433271
 30
0.0
 10
18.24893261171618
 20
8.267191276449182
 30
0.0
 10
18.24893261171618
 20
8.277069011160776
 30
0.0
 10
18.24893261171618
 20
8.286946745872384
 30
0.0
 10
18.25669484248138
 20
8.295060887758481
 30
0.0
 10
18.26692246970319
 20
8.295060887758481
 30
0.0
 10
18.26692246970319
 20
8.295060887758481
 30
0.0
 10
19.11359236593517
 20
8.295060887758481
 30
0.0
 10
19.11359236593517
 20
8.295060887758481
 30
0.0
 10
19.1234701006469
 20
8.295060887758481
 30
0.0
 10
19.13158222392229
 20
8.286946745872384
 30
0.0
 10
19.13158222392229
 20
8.277069011160776
 30
0.0
 10
19.13158222392229
 20
8.267191276449182
 30
0.0
 10
19.1234701006469
 20
8.259077807433271
 30
0.0
 10
19.11359236593517
 20
8.259077807433271
 30
0.0
  0
SPLINE
  5
50F
330
1F
100
AcDbEntity
  8
Livello 1
370
     5
100
AcDbSpline
210
0.0
220
0.0
230
1.0
 70
     9
 71
     3
 72
    23
 73
    19
 74
     0
 42
0.000000001
 43
0.0000000001
 40
0.0
 40
0.0
 40
0.0
 40
0.0
 40
1.0
 40
1.0
 40
1.0
 40
2.0
 40
2.0
 40
2.0
 40
3.0
 40
3.0
 40
3.0
 40
4.0
 40
4.0
 40
4.0
 40
5.0
 40
5.0
 40
5.0
 40
6.0
 40
6.0
 40
6.0
 40
6.0
 10
19.11359236593517
 20
7.972092606199282
 30
0.0
 10
19.11359236593517
 20
7.972092606199282
 30
0.0
 10
16.21234288376388
 20
7.972092606199282
 30
0.0
 10
16.21234288376388
 20
7.972092606199282
 30
0.0
 10
16.2024651490523
 20
7.972092606199282
 30
0.0
 10
16.1943530257769
 20
7.980206075215065
 30
0.0
 10
16.1943530257769
 20
7.990083809926673
 30
0.0
 10
16.1943530257769
 20
7.999961544638267
 30
0.0
 10
16.2024651490523
 20
8.008075686524364
 30
0.0
 10
16.21234288376388
 20
8.008075686524364
 30
0.0
 10
16.21234288376388
 20
8.008075686524364
 30
0.0
 10
19.11359236593517
 20
8.008075686524364
 30
0.0
 10
19.11359236593517
 20
8.008075686524364
 30
0.0
 10
19.1234701006469
 20
8.008075686524364
 30
0.0
 10
19.13158222392229
 20
7.999961544638267
 30
0.0
 10
19.13158222392229
 20
7.990083809926673
 30
0.0
 10
19.13158222392229
 20
7.980206075215065
 30
0.0
 10
19.1234701006469
 20
7.972092606199282
 30
0.0
 10
19.11359236593517
 20
7.972092606199282
 30
0.0
  0
SPLINE
  5
510
330
1F
100
AcDbEntity
  8
Livello 1
370
     5
100
AcDbSpline
210
0.0
220
0.0
230
1.0
 70
     9
 71
     3
 72
    23
 73
    19
 74
     0
 42
0.000000001
 43
0.0000000001
 40
0.0
 40
0.0
 40
0.0
 40
0.0
 40
1.0
 40
1.0
 40
1.0
 40
2.0
 40
2.0
 40
2.0
 40
3.0
 40
3.0
 40
3.0
 40
4.0
 40
4.0
 40
4.0
 40
5.0
 40
5.0
 40
5.0
 40
6.0
 40
6.0
 40
6.0
 40
6.0
 10
16.21241824522769
 20
7.972092606199282
 30
0.0
 10
16.2025351275544
 20
7.972092606199282
 30
0.0
 10
16.19442300427897
 20
7.980206075215065
 30
0.0
 10
16.19442300427897
 20
7.990083809926673
 30
0.0
 10
16.19442300427897
 20
7.990083809926673
 30
0.0
 10
16.19442300427897
 20
8.276892046295074
 30
0.0
 10
16.19442300427897
 20
8.276892046295074
 30
0.0
 10
16.19442300427897
 20
8.286769781006682
 30
0.0
 10
16.2025351275544
 20
8.29488392289268
 30
0.0
 10
16.21241824522769
 20
8.29488392289268
 30
0.0
 10
16.2222959799393
 20
8.29488392289268
 30
0.0
 10
16.2304081032147
 20
8.286769781006682
 30
0.0
 10
16.2304081032147
 20
8.276892046295074
 30
0.0
 10
16.2304081032147
 20
8.276892046295074
 30
0.0
 10
16.2304081032147
 20
7.990083809926673
 30
0.0
 10
16.2304081032147
 20
7.990083809926673
 30
0.0
 10
16.2304081032147
 20
7.980206075215065
 30
0.0
 10
16.2222959799393
 20
7.972092606199282
 30
0.0
 10
16.21241824522769
 20
7.972092606199282
 30
0.0
  0
SPLINE
  5
511
330
1F
100
AcDbEntity
  8
Livello 1
370
     5
100
AcDbSpline
210
0.0
220
0.0
230
1.0
 70
     9
 71
     3
 72
    23
 73
    19
 74
     0
 42
0.000000001
 43
0.0000000001
 40
0.0
 40
0.0
 40
0.0
 40
0.0
 40
1.0
 40
1.0
 40
1.0
 40
2.0
 40
2.0
 40
2.0
 40
3.0
 40
3.0
 40
3.0
 40
4.0
 40
4.0
 40
4.0
 40
5.0
 40
5.0
 40
5.0
 40
6.0
 40
6.0
 40
6.0
 40
6.0
 10
18.26678251269908
 20
8.259077807433271
 30
0.0
 10
18.25689939502581
 20
8.259077807433271
 30
0.0
 10
18.24878727175039
 20
8.267191276449182
 30
0.0
 10
18.24878727175039
 20
8.277069011160776
 30
0.0
 10
18.24878727175039
 20
8.277069011160776
 30
0.0
 10
18.24878727175039
 20
10.56730187560386
 30
0.0
 10
18.24878727175039
 20
10.56730187560386
 30
0.0
 10
18.24878727175039
 20
10.57717961031547
 30
0.0
 10
18.25689939502581
 20
10.58529442507176
 30
0.0
 10
18.26678251269908
 20
10.58529442507176
 30
0.0
 10
18.2766602474108
 20
10.58529442507176
 30
0.0
 10
18.28477237068617
 20
10.57717961031547
 30
0.0
 10
18.28477237068617
 20
10.56730187560386
 30
0.0
 10
18.28477237068617
 20
10.56730187560386
 30
0.0
 10
18.28477237068617
 20
8.277069011160776
 30
0.0
 10
18.28477237068617
 20
8.277069011160776
 30
0.0
 10
18.28477237068617
 20
8.267191276449182
 30
0.0
 10
18.2766602474108
 20
8.259077807433271
 30
0.0
 10
18.26678251269908
 20
8.259077807433271
 30
0.0
  0
SPLINE
  5
512
330
1F
100
AcDbEntity
  8
Livello 1
370
     5
100
AcDbSpline
210
0.0
220
0.0
230
1.0
 70
     9
 71
     3
 72
    23
 73
    19
 74
     0
 42
0.000000001
 43
0.0000000001
 40
0.0
 40
0.0
 40
0.0
 40
0.0
 40
1.0
 40
1.0
 40
1.0
 40
2.0
 40
2.0
 40
2.0
 40
3.0
 40
3.0
 40
3.0
 40
4.0
 40
4.0
 40
4.0
 40
5.0
 40
5.0
 40
5.0
 40
6.0
 40
6.0
 40
6.0
 40
6.0
 10
19.11359236593517
 20
7.253202108959371
 30
0.0
 10
19.11359236593517
 20
7.253202108959371
 30
0.0
 10
16.21234288376388
 20
7.253202108959371
 30
0.0
 10
16.21234288376388
 20
7.253202108959371
 30
0.0
 10
16.2024651490523
 20
7.253202108959371
 30
0.0
 10
16.1943530257769
 20
7.261315577975267
 30
0.0
 10
16.1943530257769
 20
7.271193312686875
 30
0.0
 10
16.1943530257769
 20
7.281071047398484
 30
0.0
 10
16.2024651490523
 20
7.289185189284566
 30
0.0
 10
16.21234288376388
 20
7.289185189284566
 30
0.0
 10
16.21234288376388
 20
7.289185189284566
 30
0.0
 10
19.11359236593517
 20
7.289185189284566
 30
0.0
 10
19.11359236593517
 20
7.289185189284566
 30
0.0
 10
19.1234701006469
 20
7.289185189284566
 30
0.0
 10
19.13158222392229
 20
7.281071047398484
 30
0.0
 10
19.13158222392229
 20
7.271193312686875
 30
0.0
 10
19.13158222392229
 20
7.261315577975267
 30
0.0
 10
19.1234701006469
 20
7.253202108959371
 30
0.0
 10
19.11359236593517
 20
7.253202108959371
 30
0.0
  0
SPLINE
  5
513
330
1F
100
AcDbEntity
  8
Livello 1
370
     5
100
AcDbSpline
210
0.0
220
0.0
230
1.0
 70
     9
 71
     3
 72
    53
 73
    49
 74
     0
 42
0.000000001
 43
0.0000000001
 40
0.0
 40
0.0
 40
0.0
 40
0.0
 40
1.0
 40
1.0
 40
1.0
 40
2.0
 40
2.0
 40
2.0
 40
3.0
 40
3.0
 40
3.0
 40
4.0
 40
4.0
 40
4.0
 40
5.0
 40
5.0
 40
5.0
 40
6.0
 40
6.0
 40
6.0
 40
7.0
 40
7.0
 40
7.0
 40
8.0
 40
8.0
 40
8.0
 40
9.0
 40
9.0
 40
9.0
 40
10.0
 40
10.0
 40
10.0
 40
11.0
 40
11.0
 40
11.0
 40
12.0
 40
12.0
 40
12.0
 40
13.0
 40
13.0
 40
13.0
 40
14.0
 40
14.0
 40
14.0
 40
15.0
 40
15.0
 40
15.0
 40
16.0
 40
16.0
 40
16.0
 40
16.0
 10
16.92569835064017
 20
6.471622985551775
 30
0.0
 10
16.92428801467588
 20
6.471622985551775
 30
0.0
 10
16.92287767871167
 20
6.471976242413077
 30
0.0
 10
16.92181723525758
 20
6.472328826404194
 30
0.0
 10
16.92181723525758
 20
6.472328826404194
 30
0.0
 10
16.80822059459319
 20
6.497729004035562
 30
0.0
 10
16.80822059459319
 20
6.497729004035562
 30
0.0
 10
16.80575519813649
 20
6.498434172017681
 30
0.0
 10
16.80328441871816
 20
6.499492596861074
 30
0.0
 10
16.80151880728198
 20
6.500903605695569
 30
0.0
 10
16.80151880728198
 20
6.500903605695569
 30
0.0
 10
16.7189710896784
 20
6.560523270826564
 30
0.0
 10
16.7189710896784
 20
6.560523270826564
 30
0.0
 10
16.71720547824216
 20
6.561581695669971
 30
0.0
 10
16.71579514227798
 20
6.563345288495568
 30
0.0
 10
16.71438480631366
 20
6.565462138182368
 30
0.0
 10
16.71438480631366
 20
6.565462138182368
 30
0.0
 10
16.66887724813818
 20
6.636370546859467
 30
0.0
 10
16.66887724813818
 20
6.636370546859467
 30
0.0
 10
16.6350076531489
 20
6.714333999708969
 30
0.0
 10
16.63536292862079
 20
6.795473399958879
 30
0.0
 10
16.6685219726663
 20
6.867439560609184
 30
0.0
 10
16.70274146016589
 20
6.94152324381649
 30
0.0
 10
16.76977009920079
 20
6.998673475269583
 30
0.0
 10
16.85196792429417
 20
7.02407298003078
 30
0.0
 10
16.85196792429417
 20
7.02407298003078
 30
0.0
 10
16.9232275712219
 20
7.033245546760269
 30
0.0
 10
16.9232275712219
 20
7.033245546760269
 30
0.0
 10
16.92499318265808
 20
7.033598130751286
 30
0.0
 10
16.92710868660447
 20
7.033598130751286
 30
0.0
 10
16.92887429804068
 20
7.032892289898981
 30
0.0
 10
16.92887429804068
 20
7.032892289898981
 30
0.0
 10
17.01988941439157
 20
7.015959511014884
 30
0.0
 10
17.01988941439157
 20
7.015959511014884
 30
0.0
 10
17.12960493967338
 20
6.975036890463769
 30
0.0
 10
17.1994542506369
 20
6.879081561016576
 30
0.0
 10
17.20509559449399
 20
6.764781770980675
 30
0.0
 10
17.21074232131281
 20
6.651892316908984
 30
0.0
 10
17.1500655770788
 20
6.550292279253696
 30
0.0
 10
17.04705183910809
 20
6.499140012870086
 30
0.0
 10
17.04705183910809
 20
6.499140012870086
 30
0.0
 10
16.96450412150449
 20
6.475150844073183
 30
0.0
 10
16.96450412150449
 20
6.475150844073183
 30
0.0
 10
16.96450412150449
 20
6.475150844073183
 30
0.0
 10
16.92710868660447
 20
6.471622985551775
 30
0.0
 10
16.92710868660447
 20
6.471622985551775
 30
0.0
 10
16.92675341113258
 20
6.471622985551775
 30
0.0
 10
16.92604824315037
 20
6.471622985551775
 30
0.0
 10
16.92569835064017
 20
6.471622985551775
 30
0.0
  0
SPLINE
  5
514
330
1F
100
AcDbEntity
  8
Livello 1
370
     5
100
AcDbSpline
210
0.0
220
0.0
230
1.0
 70
    11
 71
     3
 72
    38
 73
    34
 74
     0
 42
0.000000001
 43
0.0000000001
 40
0.0
 40
0.0
 40
0.0
 40
0.0
 40
1.0
 40
1.0
 40
1.0
 40
2.0
 40
2.0
 40
2.0
 40
3.0
 40
3.0
 40
3.0
 40
4.0
 40
4.0
 40
4.0
 40
5.0
 40
5.0
 40
5.0
 40
6.0
 40
6.0
 40
6.0
 40
7.0
 40
7.0
 40
7.0
 40
8.0
 40
8.0
 40
8.0
 40
9.0
 40
9.0
 40
9.0
 40
10.0
 40
10.0
 40
10.0
 40
11.0
 40
11.0
 40
11.0
 40
11.0
 10
16.81951404823081
 20
6.531948491535189
 30
0.0
 10
16.81951404823081
 20
6.531948491535189
 30
0.0
 10
16.92675341113258
 20
6.507959322738287
 30
0.0
 10
16.92675341113258
 20
6.507959322738287
 30
0.0
 10
16.92675341113258
 20
6.507959322738287
 30
0.0
 10
16.95815222670359
 20
6.510428756416189
 30
0.0
 10
16.95815222670359
 20
6.510428756416189
 30
0.0
 10
16.95815222670359
 20
6.510428756416189
 30
0.0
 10
17.03435343246801
 20
6.532653659517279
 30
0.0
 10
17.03435343246801
 20
6.532653659517279
 30
0.0
 10
17.12254787689031
 20
6.57639829773737
 30
0.0
 10
17.17440732986668
 20
6.663181733325274
 30
0.0
 10
17.16946577103007
 20
6.763017505284878
 30
0.0
 10
17.16417431968318
 20
6.862500693253366
 30
0.0
 10
17.10349757544918
 20
6.946462111172266
 30
0.0
 10
17.01001167967999
 20
6.981740023515271
 30
0.0
 10
17.01001167967999
 20
6.981740023515271
 30
0.0
 10
16.92499318265808
 20
6.997261793564874
 30
0.0
 10
16.92499318265808
 20
6.997261793564874
 30
0.0
 10
16.92499318265808
 20
6.997261793564874
 30
0.0
 10
16.85973015505931
 20
6.989148324548992
 30
0.0
 10
16.85973015505931
 20
6.989148324548992
 30
0.0
 10
16.78987546113416
 20
6.967276005438975
 30
0.0
 10
16.7309643283364
 20
6.917181491028571
 30
0.0
 10
16.70097584872968
 20
6.852622958541772
 30
0.0
 10
16.67240308804889
 20
6.790181275741787
 30
0.0
 10
16.67204781257697
 20
6.719272867064773
 30
0.0
 10
16.70062595621948
 20
6.653303998613679
 30
0.0
 10
16.70062595621948
 20
6.653303998613679
 30
0.0
 10
16.7429575669945
 20
6.587687041283473
 30
0.0
 10
16.7429575669945
 20
6.587687041283473
 30
0.0
 10
16.7429575669945
 20
6.587687041283473
 30
0.0
 10
16.81951404823081
 20
6.531948491535189
 30
0.0
 10
16.81951404823081
 20
6.531948491535189
 30
0.0
  0
SPLINE
  5
515
330
1F
100
AcDbEntity
  8
Livello 1
370
     5
100
AcDbSpline
210
0.0
220
0.0
230
1.0
 70
     9
 71
     3
 72
    83
 73
    79
 74
     0
 42
0.000000001
 43
0.0000000001
 40
0.0
 40
0.0
 40
0.0
 40
0.0
 40
1.0
 40
1.0
 40
1.0
 40
2.0
 40
2.0
 40
2.0
 40
3.0
 40
3.0
 40
3.0
 40
4.0
 40
4.0
 40
4.0
 40
5.0
 40
5.0
 40
5.0
 40
6.0
 40
6.0
 40
6.0
 40
7.0
 40
7.0
 40
7.0
 40
8.0
 40
8.0
 40
8.0
 40
9.0
 40
9.0
 40
9.0
 40
10.0
 40
10.0
 40
10.0
 40
11.0
 40
11.0
 40
11.0
 40
12.0
 40
12.0
 40
12.0
 40
13.0
 40
13.0
 40
13.0
 40
14.0
 40
14.0
 40
14.0
 40
15.0
 40
15.0
 40
15.0
 40
16.0
 40
16.0
 40
16.0
 40
17.0
 40
17.0
 40
17.0
 40
18.0
 40
18.0
 40
18.0
 40
19.0
 40
19.0
 40
19.0
 40
20.0
 40
20.0
 40
20.0
 40
21.0
 40
21.0
 40
21.0
 40
22.0
 40
22.0
 40
22.0
 40
23.0
 40
23.0
 40
23.0
 40
24.0
 40
24.0
 40
24.0
 40
25.0
 40
25.0
 40
25.0
 40
26.0
 40
26.0
 40
26.0
 40
26.0
 10
18.29323976943348
 20
10.80010016579837
 30
0.0
 10
18.28935865405088
 20
10.80010016579837
 30
0.0
 10
18.28547753866832
 20
10.80151050176269
 30
0.0
 10
18.28230159126781
 20
10.80468510342267
 30
0.0
 10
18.28230159126781
 20
10.80468510342267
 30
0.0
 10
18.2794809193393
 20
10.80750846683207
 30
0.0
 10
18.2794809193393
 20
10.80750846683207
 30
0.0
 10
18.2763049719388
 20
10.81103565248317
 30
0.0
 10
18.27453936050259
 20
10.81562193584798
 30
0.0
 10
18.27453936050259
 20
10.82020821921269
 30
0.0
 10
18.27453936050259
 20
10.82020821921269
 30
0.0
 10
18.27453936050259
 20
10.82585225455057
 30
0.0
 10
18.27453936050259
 20
10.82585225455057
 30
0.0
 10
18.27347891704858
 20
10.82726393625528
 30
0.0
 10
18.27242385655617
 20
10.82902685621069
 30
0.0
 10
18.27206858108431
 20
10.83079112190637
 30
0.0
 10
18.27065824511999
 20
10.8325553876022
 30
0.0
 10
18.2699530771379
 20
10.83431830755748
 30
0.0
 10
18.26924790915581
 20
10.83643515724438
 30
0.0
 10
18.26854274117357
 20
10.83714167096698
 30
0.0
 10
18.26748229771957
 20
10.83784683894906
 30
0.0
 10
18.26677712973739
 20
10.83890459092228
 30
0.0
 10
18.26677712973739
 20
10.83890459092228
 30
0.0
 10
18.2660719617553
 20
10.83961110464487
 30
0.0
 10
18.2660719617553
 20
10.83961110464487
 30
0.0
 10
18.2632512898268
 20
10.84031627262699
 30
0.0
 10
18.26078051040841
 20
10.84137402460018
 30
0.0
 10
18.25866500646199
 20
10.84278570630486
 30
0.0
 10
18.25725467049767
 20
10.84349087428697
 30
0.0
 10
18.25584433453349
 20
10.84419738800959
 30
0.0
 10
18.2544339985692
 20
10.84490255599168
 30
0.0
 10
18.2544339985692
 20
10.84490255599168
 30
0.0
 10
18.24984771520448
 20
10.84490255599168
 30
0.0
 10
18.24984771520448
 20
10.84490255599168
 30
0.0
 10
18.23996998049281
 20
10.84490255599168
 30
0.0
 10
18.23185247425567
 20
10.85301602500756
 30
0.0
 10
18.23185247425567
 20
10.86289375971918
 30
0.0
 10
18.23185247425567
 20
10.87277149443076
 30
0.0
 10
18.23996998049281
 20
10.88088496344669
 30
0.0
 10
18.24984771520448
 20
10.88088496344669
 30
0.0
 10
18.24984771520448
 20
10.88088496344669
 30
0.0
 10
18.26395645780889
 20
10.88088496344669
 30
0.0
 10
18.26395645780889
 20
10.88088496344669
 30
0.0
 10
18.26818746570168
 20
10.88088496344669
 30
0.0
 10
18.27171868857408
 20
10.87947462748236
 30
0.0
 10
18.27453936050259
 20
10.87735777779548
 30
0.0
 10
18.276654864449
 20
10.87665260981336
 30
0.0
 10
18.27877575135719
 20
10.87559351209978
 30
0.0
 10
18.28053597983168
 20
10.87418317613547
 30
0.0
 10
18.2851222631964
 20
10.87277149443076
 30
0.0
 10
18.28935865405088
 20
10.86959689277078
 30
0.0
 10
18.2914741579973
 20
10.86501060940597
 30
0.0
 10
18.2918240505075
 20
10.86501060940597
 30
0.0
 10
18.29217932597947
 20
10.86465802541487
 30
0.0
 10
18.29217932597947
 20
10.86430544142386
 30
0.0
 10
18.29323976943348
 20
10.86324634371028
 30
0.0
 10
18.29429482992589
 20
10.86254117572807
 30
0.0
 10
18.29499999790798
 20
10.86148342375487
 30
0.0
 10
18.29606044136207
 20
10.86042432604128
 30
0.0
 10
18.29747077732631
 20
10.85936657406806
 30
0.0
 10
18.29817594530848
 20
10.85830747635437
 30
0.0
 10
18.30099661723699
 20
10.85583804267648
 30
0.0
 10
18.30311750414509
 20
10.85266344101647
 30
0.0
 10
18.3041725646375
 20
10.84948883935648
 30
0.0
 10
18.30558290060167
 20
10.84772457366067
 30
0.0
 10
18.30628806858388
 20
10.84560772397385
 30
0.0
 10
18.306993236566
 20
10.84384345827809
 30
0.0
 10
18.30911412347407
 20
10.84102144060907
 30
0.0
 10
18.31016918396648
 20
10.83784683894906
 30
0.0
 10
18.31016918396648
 20
10.83431830755748
 30
0.0
 10
18.31016918396648
 20
10.83431830755748
 30
0.0
 10
18.31016918396648
 20
10.82373540486377
 30
0.0
 10
18.31016918396648
 20
10.82373540486377
 30
0.0
 10
18.31193479540269
 20
10.81738620154368
 30
0.0
 10
18.3108743519486
 20
10.81068306849207
 30
0.0
 10
18.30628806858388
 20
10.80609678512736
 30
0.0
 10
18.30240695320128
 20
10.80221566974477
 30
0.0
 10
18.29782066983657
 20
10.80010016579837
 30
0.0
 10
18.29323976943348
 20
10.80010016579837
 30
0.0
  0
SPLINE
  5
516
330
1F
100
AcDbEntity
  8
Livello 1
370
     5
100
AcDbSpline
210
0.0
220
0.0
230
1.0
 70
     9
 71
     3
 72
    32
 73
    28
 74
     0
 42
0.000000001
 43
0.0000000001
 40
0.0
 40
0.0
 40
0.0
 40
0.0
 40
1.0
 40
1.0
 40
1.0
 40
2.0
 40
2.0
 40
2.0
 40
3.0
 40
3.0
 40
3.0
 40
4.0
 40
4.0
 40
4.0
 40
5.0
 40
5.0
 40
5.0
 40
6.0
 40
6.0
 40
6.0
 40
7.0
 40
7.0
 40
7.0
 40
8.0
 40
8.0
 40
8.0
 40
9.0
 40
9.0
 40
9.0
 40
9.0
 10
18.29521531637581
 20
10.54938199611886
 30
0.0
 10
18.29521531637581
 20
10.54938199611886
 30
0.0
 10
18.2666371727334
 20
10.54938199611886
 30
0.0
 10
18.2666371727334
 20
10.54938199611886
 30
0.0
 10
18.25675943802167
 20
10.54938199611886
 30
0.0
 10
18.24899720725648
 20
10.55749546513476
 30
0.0
 10
18.24899720725648
 20
10.56737319984637
 30
0.0
 10
18.24899720725648
 20
10.57725093455799
 30
0.0
 10
18.25675943802167
 20
10.58536440357378
 30
0.0
 10
18.2666371727334
 20
10.58536440357378
 30
0.0
 10
18.2666371727334
 20
10.58536440357378
 30
0.0
 10
18.27722007542707
 20
10.58536440357378
 30
0.0
 10
18.27722007542707
 20
10.58536440357378
 30
0.0
 10
18.27722007542707
 20
10.58536440357378
 30
0.0
 10
18.27722007542707
 20
10.81749251503719
 30
0.0
 10
18.27722007542707
 20
10.81749251503719
 30
0.0
 10
18.27722007542707
 20
10.82737024974878
 30
0.0
 10
18.28533219870249
 20
10.83548371876468
 30
0.0
 10
18.29521531637581
 20
10.83548371876468
 30
0.0
 10
18.3050930510874
 20
10.83548371876468
 30
0.0
 10
18.31320517436288
 20
10.82737024974878
 30
0.0
 10
18.31320517436288
 20
10.81749251503719
 30
0.0
 10
18.31320517436288
 20
10.81749251503719
 30
0.0
 10
18.31320517436288
 20
10.56737319984637
 30
0.0
 10
18.31320517436288
 20
10.56737319984637
 30
0.0
 10
18.31320517436288
 20
10.55749546513476
 30
0.0
 10
18.3050930510874
 20
10.54938199611886
 30
0.0
 10
18.29521531637581
 20
10.54938199611886
 30
0.0
  0
SPLINE
  5
517
330
1F
100
AcDbEntity
  8
Livello 1
370
     5
100
AcDbSpline
210
0.0
220
0.0
230
1.0
 70
     9
 71
     3
 72
    23
 73
    19
 74
     0
 42
0.000000001
 43
0.0000000001
 40
0.0
 40
0.0
 40
0.0
 40
0.0
 40
1.0
 40
1.0
 40
1.0
 40
2.0
 40
2.0
 40
2.0
 40
3.0
 40
3.0
 40
3.0
 40
4.0
 40
4.0
 40
4.0
 40
5.0
 40
5.0
 40
5.0
 40
6.0
 40
6.0
 40
6.0
 40
6.0
 10
18.29048907600699
 20
10.54938199611886
 30
0.0
 10
18.29048907600699
 20
10.54938199611886
 30
0.0
 10
17.03071455036166
 20
10.54938199611886
 30
0.0
 10
17.03071455036166
 20
10.54938199611886
 30
0.0
 10
17.02083681565
 20
10.54938199611886
 30
0.0
 10
17.01272469237457
 20
10.55749546513476
 30
0.0
 10
17.01272469237457
 20
10.56737319984637
 30
0.0
 10
17.01272469237457
 20
10.57725093455799
 30
0.0
 10
17.02083681565
 20
10.58536440357378
 30
0.0
 10
17.03071455036166
 20
10.58536440357378
 30
0.0
 10
17.03071455036166
 20
10.58536440357378
 30
0.0
 10
18.29048907600699
 20
10.58536440357378
 30
0.0
 10
18.29048907600699
 20
10.58536440357378
 30
0.0
 10
18.30036681071857
 20
10.58536440357378
 30
0.0
 10
18.30847893399399
 20
10.57725093455799
 30
0.0
 10
18.30847893399399
 20
10.56737319984637
 30
0.0
 10
18.30847893399399
 20
10.55749546513476
 30
0.0
 10
18.30036681071857
 20
10.54938199611886
 30
0.0
 10
18.29048907600699
 20
10.54938199611886
 30
0.0
  0
SPLINE
  5
518
330
1F
100
AcDbEntity
  8
Livello 1
370
     5
100
AcDbSpline
210
0.0
220
0.0
230
1.0
 70
     9
 71
     3
 72
    41
 73
    37
 74
     0
 42
0.000000001
 43
0.0000000001
 40
0.0
 40
0.0
 40
0.0
 40
0.0
 40
1.0
 40
1.0
 40
1.0
 40
2.0
 40
2.0
 40
2.0
 40
3.0
 40
3.0
 40
3.0
 40
4.0
 40
4.0
 40
4.0
 40
5.0
 40
5.0
 40
5.0
 40
6.0
 40
6.0
 40
6.0
 40
7.0
 40
7.0
 40
7.0
 40
8.0
 40
8.0
 40
8.0
 40
9.0
 40
9.0
 40
9.0
 40
10.0
 40
10.0
 40
10.0
 40
11.0
 40
11.0
 40
11.0
 40
12.0
 40
12.0
 40
12.0
 40
12.0
 10
17.01752629420719
 20
8.259077807433271
 30
0.0
 10
17.01752629420719
 20
8.259077807433271
 30
0.0
 10
16.2124828407681
 20
8.259077807433271
 30
0.0
 10
16.2124828407681
 20
8.259077807433271
 30
0.0
 10
16.20260510605638
 20
8.259077807433271
 30
0.0
 10
16.19449298278098
 20
8.267191276449182
 30
0.0
 10
16.19449298278098
 20
8.277069011160776
 30
0.0
 10
16.19449298278098
 20
8.286946745872384
 30
0.0
 10
16.20260510605638
 20
8.295060887758481
 30
0.0
 10
16.2124828407681
 20
8.295060887758481
 30
0.0
 10
16.2124828407681
 20
8.295060887758481
 30
0.0
 10
17.0044726120951
 20
8.295060887758481
 30
0.0
 10
17.0044726120951
 20
8.295060887758481
 30
0.0
 10
17.0044726120951
 20
8.295060887758481
 30
0.0
 10
17.0129400108425
 20
8.322224658215361
 30
0.0
 10
17.0129400108425
 20
8.322224658215361
 30
0.0
 10
17.0129400108425
 20
8.322224658215361
 30
0.0
 10
17.0129400108425
 20
10.56730187560386
 30
0.0
 10
17.0129400108425
 20
10.56730187560386
 30
0.0
 10
17.0129400108425
 20
10.57717961031547
 30
0.0
 10
17.020696858646
 20
10.58529442507176
 30
0.0
 10
17.03057459335758
 20
10.58529442507176
 30
0.0
 10
17.04080760354108
 20
10.58529442507176
 30
0.0
 10
17.0485698343063
 20
10.57717961031547
 30
0.0
 10
17.0485698343063
 20
10.56730187560386
 30
0.0
 10
17.0485698343063
 20
10.56730187560386
 30
0.0
 10
17.0485698343063
 20
8.319755224537487
 30
0.0
 10
17.0485698343063
 20
8.319755224537487
 30
0.0
 10
17.0485698343063
 20
8.317991631711976
 30
0.0
 10
17.0485698343063
 20
8.315874782025062
 30
0.0
 10
17.04786466632419
 20
8.314463773190567
 30
0.0
 10
17.04786466632419
 20
8.314463773190567
 30
0.0
 10
17.03481098421207
 20
8.271777559813884
 30
0.0
 10
17.03481098421207
 20
8.271777559813884
 30
0.0
 10
17.0323402047938
 20
8.264016674789075
 30
0.0
 10
17.02528314201066
 20
8.259077807433271
 30
0.0
 10
17.01752629420719
 20
8.259077807433271
 30
0.0
  0
SPLINE
  5
519
330
1F
100
AcDbEntity
  8
Livello 1
370
     5
100
AcDbSpline
210
0.0
220
0.0
230
1.0
 70
     9
 71
     3
 72
    23
 73
    19
 74
     0
 42
0.000000001
 43
0.0000000001
 40
0.0
 40
0.0
 40
0.0
 40
0.0
 40
1.0
 40
1.0
 40
1.0
 40
2.0
 40
2.0
 40
2.0
 40
3.0
 40
3.0
 40
3.0
 40
4.0
 40
4.0
 40
4.0
 40
5.0
 40
5.0
 40
5.0
 40
6.0
 40
6.0
 40
6.0
 40
6.0
 10
19.1391345191814
 20
8.332984525774875
 30
0.0
 10
19.12925140150798
 20
8.332984525774875
 30
0.0
 10
19.12113927823259
 20
8.341097994790786
 30
0.0
 10
19.12113927823259
 20
8.350975729502366
 30
0.0
 10
19.12113927823259
 20
8.350975729502366
 30
0.0
 10
19.12113927823259
 20
8.45222318316658
 30
0.0
 10
19.12113927823259
 20
8.45222318316658
 30
0.0
 10
19.12113927823259
 20
8.462100917878288
 30
0.0
 10
19.12925140150798
 20
8.470215059764271
 30
0.0
 10
19.1391345191814
 20
8.470215059764271
 30
0.0
 10
19.149012253893
 20
8.470215059764271
 30
0.0
 10
19.1571243771684
 20
8.462100917878288
 30
0.0
 10
19.1571243771684
 20
8.45222318316658
 30
0.0
 10
19.1571243771684
 20
8.45222318316658
 30
0.0
 10
19.1571243771684
 20
8.350975729502366
 30
0.0
 10
19.1571243771684
 20
8.350975729502366
 30
0.0
 10
19.1571243771684
 20
8.341097994790786
 30
0.0
 10
19.149012253893
 20
8.332984525774875
 30
0.0
 10
19.1391345191814
 20
8.332984525774875
 30
0.0
  0
SPLINE
  5
51A
330
1F
100
AcDbEntity
  8
Livello 1
370
     5
100
AcDbSpline
210
0.0
220
0.0
230
1.0
 70
     9
 71
     3
 72
    23
 73
    19
 74
     0
 42
0.000000001
 43
0.0000000001
 40
0.0
 40
0.0
 40
0.0
 40
0.0
 40
1.0
 40
1.0
 40
1.0
 40
2.0
 40
2.0
 40
2.0
 40
3.0
 40
3.0
 40
3.0
 40
4.0
 40
4.0
 40
4.0
 40
5.0
 40
5.0
 40
5.0
 40
6.0
 40
6.0
 40
6.0
 40
6.0
 10
19.142025169612
 20
7.94365912965236
 30
0.0
 10
19.142025169612
 20
7.94365912965236
 30
0.0
 10
19.11344702596941
 20
7.94365912965236
 30
0.0
 10
19.11344702596941
 20
7.94365912965236
 30
0.0
 10
19.1035692912578
 20
7.94365912965236
 30
0.0
 10
19.09580706049257
 20
7.951772598668185
 30
0.0
 10
19.09580706049257
 20
7.961650333379779
 30
0.0
 10
19.09580706049257
 20
7.971528068091373
 30
0.0
 10
19.1035692912578
 20
7.97964220997747
 30
0.0
 10
19.11344702596941
 20
7.97964220997747
 30
0.0
 10
19.11344702596941
 20
7.97964220997747
 30
0.0
 10
19.142025169612
 20
7.97964220997747
 30
0.0
 10
19.142025169612
 20
7.97964220997747
 30
0.0
 10
19.15190290432358
 20
7.97964220997747
 30
0.0
 10
19.160015027599
 20
7.971528068091373
 30
0.0
 10
19.160015027599
 20
7.961650333379779
 30
0.0
 10
19.160015027599
 20
7.951772598668185
 30
0.0
 10
19.15190290432358
 20
7.94365912965236
 30
0.0
 10
19.142025169612
 20
7.94365912965236
 30
0.0
  0
SPLINE
  5
51B
330
1F
100
AcDbEntity
  8
Livello 1
370
     5
100
AcDbSpline
210
0.0
220
0.0
230
1.0
 70
     9
 71
     3
 72
    23
 73
    19
 74
     0
 42
0.000000001
 43
0.0000000001
 40
0.0
 40
0.0
 40
0.0
 40
0.0
 40
1.0
 40
1.0
 40
1.0
 40
2.0
 40
2.0
 40
2.0
 40
3.0
 40
3.0
 40
3.0
 40
4.0
 40
4.0
 40
4.0
 40
5.0
 40
5.0
 40
5.0
 40
6.0
 40
6.0
 40
6.0
 40
6.0
 10
19.11927139052417
 20
7.267384194416976
 30
0.0
 10
19.10938827285091
 20
7.267384194416976
 30
0.0
 10
19.10127614957548
 20
7.275497663432787
 30
0.0
 10
19.10127614957548
 20
7.285022814153364
 30
0.0
 10
19.10127614957548
 20
7.285022814153364
 30
0.0
 10
19.09563480571839
 20
7.961297749388691
 30
0.0
 10
19.09563480571839
 20
7.961297749388691
 30
0.0
 10
19.09563480571839
 20
7.971175484100371
 30
0.0
 10
19.10339165352189
 20
7.979289625986368
 30
0.0
 10
19.11362466370539
 20
7.97964220997747
 30
0.0
 10
19.12244195496299
 20
7.977878617151873
 30
0.0
 10
19.1316145216924
 20
7.971528068091373
 30
0.0
 10
19.1316145216924
 20
7.961650333379779
 30
0.0
 10
19.1316145216924
 20
7.961650333379779
 30
0.0
 10
19.13726124851118
 20
7.285375398144381
 30
0.0
 10
19.13726124851118
 20
7.285375398144381
 30
0.0
 10
19.13726124851118
 20
7.275497663432787
 30
0.0
 10
19.1294990177461
 20
7.267384194416976
 30
0.0
 10
19.11927139052417
 20
7.267384194416976
 30
0.0
  0
SPLINE
  5
51C
330
1F
100
AcDbEntity
  8
Livello 1
370
     5
100
AcDbSpline
210
0.0
220
0.0
230
1.0
 70
     9
 71
     3
 72
    23
 73
    19
 74
     0
 42
0.000000001
 43
0.0000000001
 40
0.0
 40
0.0
 40
0.0
 40
0.0
 40
1.0
 40
1.0
 40
1.0
 40
2.0
 40
2.0
 40
2.0
 40
3.0
 40
3.0
 40
3.0
 40
4.0
 40
4.0
 40
4.0
 40
5.0
 40
5.0
 40
5.0
 40
6.0
 40
6.0
 40
6.0
 40
6.0
 10
19.14770419420091
 20
7.267384194416976
 30
0.0
 10
19.14770419420091
 20
7.267384194416976
 30
0.0
 10
19.11912605055841
 20
7.267384194416976
 30
0.0
 10
19.11912605055841
 20
7.267384194416976
 30
0.0
 10
19.1092483158468
 20
7.267384194416976
 30
0.0
 10
19.10148608508157
 20
7.275497663432787
 30
0.0
 10
19.10148608508157
 20
7.285375398144381
 30
0.0
 10
19.10148608508157
 20
7.295253132855989
 30
0.0
 10
19.1092483158468
 20
7.303367274742072
 30
0.0
 10
19.11912605055841
 20
7.303367274742072
 30
0.0
 10
19.11912605055841
 20
7.303367274742072
 30
0.0
 10
19.14770419420091
 20
7.303367274742072
 30
0.0
 10
19.14770419420091
 20
7.303367274742072
 30
0.0
 10
19.15758192891249
 20
7.303367274742072
 30
0.0
 10
19.165694052188
 20
7.295253132855989
 30
0.0
 10
19.165694052188
 20
7.285375398144381
 30
0.0
 10
19.165694052188
 20
7.275497663432787
 30
0.0
 10
19.15758192891249
 20
7.267384194416976
 30
0.0
 10
19.14770419420091
 20
7.267384194416976
 30
0.0
  0
SPLINE
  5
51D
330
1F
100
AcDbEntity
  8
Livello 1
370
     5
100
AcDbSpline
210
0.0
220
0.0
230
1.0
 70
     9
 71
     3
 72
    23
 73
    19
 74
     0
 42
0.000000001
 43
0.0000000001
 40
0.0
 40
0.0
 40
0.0
 40
0.0
 40
1.0
 40
1.0
 40
1.0
 40
2.0
 40
2.0
 40
2.0
 40
3.0
 40
3.0
 40
3.0
 40
4.0
 40
4.0
 40
4.0
 40
5.0
 40
5.0
 40
5.0
 40
6.0
 40
6.0
 40
6.0
 40
6.0
 10
19.142025169612
 20
7.94365912965236
 30
0.0
 10
19.13214205193859
 20
7.94365912965236
 30
0.0
 10
19.12402992866319
 20
7.951772598668185
 30
0.0
 10
19.12402992866319
 20
7.961297749388691
 30
0.0
 10
19.12402992866319
 20
7.961297749388691
 30
0.0
 10
19.12120925673469
 20
8.350764448255787
 30
0.0
 10
19.12120925673469
 20
8.350764448255787
 30
0.0
 10
19.12120925673469
 20
8.360642182967367
 30
0.0
 10
19.12897148749988
 20
8.368756324853478
 30
0.0
 10
19.13919911472169
 20
8.368756324853478
 30
0.0
 10
19.1490768494333
 20
8.368756324853478
 30
0.0
 10
19.15719435567038
 20
8.360994766958484
 30
0.0
 10
19.15719435567038
 20
8.351117032246875
 30
0.0
 10
19.15719435567038
 20
8.351117032246875
 30
0.0
 10
19.160015027599
 20
7.961650333379779
 30
0.0
 10
19.160015027599
 20
7.961650333379779
 30
0.0
 10
19.160015027599
 20
7.951772598668185
 30
0.0
 10
19.15190290432358
 20
7.94365912965236
 30
0.0
 10
19.142025169612
 20
7.94365912965236
 30
0.0
  0
SPLINE
  5
51E
330
1F
100
AcDbEntity
  8
Livello 1
370
     5
100
AcDbSpline
210
0.0
220
0.0
230
1.0
 70
     9
 71
     3
 72
    38
 73
    34
 74
     0
 42
0.000000001
 43
0.0000000001
 40
0.0
 40
0.0
 40
0.0
 40
0.0
 40
1.0
 40
1.0
 40
1.0
 40
2.0
 40
2.0
 40
2.0
 40
3.0
 40
3.0
 40
3.0
 40
4.0
 40
4.0
 40
4.0
 40
5.0
 40
5.0
 40
5.0
 40
6.0
 40
6.0
 40
6.0
 40
7.0
 40
7.0
 40
7.0
 40
8.0
 40
8.0
 40
8.0
 40
9.0
 40
9.0
 40
9.0
 40
10.0
 40
10.0
 40
10.0
 40
11.0
 40
11.0
 40
11.0
 40
11.0
 10
17.6700973576155
 20
5.50850482469707
 30
0.0
 10
17.66056951541418
 20
5.50850482469707
 30
0.0
 10
17.65245739213867
 20
5.516265709721864
 30
0.0
 10
17.65210211666678
 20
5.52579086044237
 30
0.0
 10
17.65175222415658
 20
5.535668595153978
 30
0.0
 10
17.65950907196009
 20
5.544135321031191
 30
0.0
 10
17.66974208214358
 20
5.54448790502218
 30
0.0
 10
17.66974208214358
 20
5.54448790502218
 30
0.0
 10
17.8450705275344
 20
5.549426772377984
 30
0.0
 10
17.8450705275344
 20
5.549426772377984
 30
0.0
 10
17.8450705275344
 20
5.549426772377984
 30
0.0
 10
17.84260513107767
 20
5.799193503577782
 30
0.0
 10
17.84260513107767
 20
5.799193503577782
 30
0.0
 10
17.84260513107767
 20
5.809071238289376
 30
0.0
 10
17.85036197888118
 20
5.817185380175473
 30
0.0
 10
17.8602397135929
 20
5.817185380175473
 30
0.0
 10
17.8602397135929
 20
5.817185380175473
 30
0.0
 10
17.86059498906482
 20
5.817185380175473
 30
0.0
 10
17.86059498906482
 20
5.817185380175473
 30
0.0
 10
17.87011744830448
 20
5.817185380175473
 30
0.0
 10
17.8782349545416
 20
5.809423822280479
 30
0.0
 10
17.8782349545416
 20
5.79954608756887
 30
0.0
 10
17.8782349545416
 20
5.79954608756887
 30
0.0
 10
17.88141090194207
 20
5.532140736632683
 30
0.0
 10
17.88141090194207
 20
5.532140736632683
 30
0.0
 10
17.88141090194207
 20
5.522615585912191
 30
0.0
 10
17.87364867117688
 20
5.514501444026066
 30
0.0
 10
17.8637709364653
 20
5.514148860035078
 30
0.0
 10
17.8637709364653
 20
5.514148860035078
 30
0.0
 10
17.67044725012581
 20
5.50850482469707
 30
0.0
 10
17.67044725012581
 20
5.50850482469707
 30
0.0
 10
17.67044725012581
 20
5.50850482469707
 30
0.0
 10
17.6700973576155
 20
5.50850482469707
 30
0.0
 10
17.6700973576155
 20
5.50850482469707
 30
0.0
  0
SPLINE
  5
51F
330
1F
100
AcDbEntity
  8
Livello 1
370
     5
100
AcDbSpline
210
0.0
220
0.0
230
1.0
 70
     9
 71
     3
 72
    23
 73
    19
 74
     0
 42
0.000000001
 43
0.0000000001
 40
0.0
 40
0.0
 40
0.0
 40
0.0
 40
1.0
 40
1.0
 40
1.0
 40
2.0
 40
2.0
 40
2.0
 40
3.0
 40
3.0
 40
3.0
 40
4.0
 40
4.0
 40
4.0
 40
5.0
 40
5.0
 40
5.0
 40
6.0
 40
6.0
 40
6.0
 40
6.0
 10
19.11263958171509
 20
8.469368589037685
 30
0.0
 10
19.11263958171509
 20
8.469368589037685
 30
0.0
 10
18.29525299710766
 20
8.469368589037685
 30
0.0
 10
18.29525299710766
 20
8.469368589037685
 30
0.0
 10
18.28537526239609
 20
8.469368589037685
 30
0.0
 10
18.27725775615897
 20
8.477482058053467
 30
0.0
 10
18.27725775615897
 20
8.487359792765076
 30
0.0
 10
18.27725775615897
 20
8.497237527476684
 30
0.0
 10
18.28537526239609
 20
8.505351669362767
 30
0.0
 10
18.29525299710766
 20
8.505351669362767
 30
0.0
 10
18.29525299710766
 20
8.505351669362767
 30
0.0
 10
19.11263958171509
 20
8.505351669362767
 30
0.0
 10
19.11263958171509
 20
8.505351669362767
 30
0.0
 10
19.12251731642666
 20
8.505351669362767
 30
0.0
 10
19.13062943970206
 20
8.497237527476684
 30
0.0
 10
19.13062943970206
 20
8.487359792765076
 30
0.0
 10
19.13062943970206
 20
8.477482058053467
 30
0.0
 10
19.12251731642666
 20
8.469368589037685
 30
0.0
 10
19.11263958171509
 20
8.469368589037685
 30
0.0
  0
SPLINE
  5
520
330
1F
100
AcDbEntity
  8
Livello 1
370
     5
100
AcDbSpline
210
0.0
220
0.0
230
1.0
 70
     9
 71
     3
 72
    26
 73
    22
 74
     0
 42
0.000000001
 43
0.0000000001
 40
0.0
 40
0.0
 40
0.0
 40
0.0
 40
1.0
 40
1.0
 40
1.0
 40
2.0
 40
2.0
 40
2.0
 40
3.0
 40
3.0
 40
3.0
 40
4.0
 40
4.0
 40
4.0
 40
5.0
 40
5.0
 40
5.0
 40
6.0
 40
6.0
 40
6.0
 40
7.0
 40
7.0
 40
7.0
 40
7.0
 10
19.14770419420091
 20
7.270206212085867
 30
0.0
 10
19.14099702392801
 20
7.270206212085867
 30
0.0
 10
19.1346505120888
 20
7.27373339773699
 30
0.0
 10
19.1314745646884
 20
7.280083946797574
 30
0.0
 10
19.1314745646884
 20
7.280083946797574
 30
0.0
 10
19.12865389275981
 20
7.286080566126571
 30
0.0
 10
19.12865389275981
 20
7.286080566126571
 30
0.0
 10
19.1244175019053
 20
7.294900548864973
 30
0.0
 10
19.12794334181598
 20
7.305483451558686
 30
0.0
 10
19.13711590854541
 20
7.310069734923473
 30
0.0
 10
19.14593858276467
 20
7.314303434297087
 30
0.0
 10
19.15652148545848
 20
7.310775575775778
 30
0.0
 10
19.16110776882317
 20
7.301955593037376
 30
0.0
 10
19.16110776882317
 20
7.301955593037376
 30
0.0
 10
19.16392844075167
 20
7.29595897370838
 30
0.0
 10
19.16392844075167
 20
7.29595897370838
 30
0.0
 10
19.1681648316063
 20
7.287138990969978
 30
0.0
 10
19.16463360873391
 20
7.276556088276194
 30
0.0
 10
19.15546104200439
 20
7.271969804911478
 30
0.0
 10
19.1529956455478
 20
7.270911380068071
 30
0.0
 10
19.1505248661295
 20
7.270206212085867
 30
0.0
 10
19.14770419420091
 20
7.270206212085867
 30
0.0
  0
SPLINE
  5
521
330
1F
100
AcDbEntity
  8
Livello 1
370
     5
100
AcDbSpline
210
0.0
220
0.0
230
1.0
 70
     9
 71
     3
 72
    41
 73
    37
 74
     0
 42
0.000000001
 43
0.0000000001
 40
0.0
 40
0.0
 40
0.0
 40
0.0
 40
1.0
 40
1.0
 40
1.0
 40
2.0
 40
2.0
 40
2.0
 40
3.0
 40
3.0
 40
3.0
 40
4.0
 40
4.0
 40
4.0
 40
5.0
 40
5.0
 40
5.0
 40
6.0
 40
6.0
 40
6.0
 40
7.0
 40
7.0
 40
7.0
 40
8.0
 40
8.0
 40
8.0
 40
9.0
 40
9.0
 40
9.0
 40
10.0
 40
10.0
 40
10.0
 40
11.0
 40
11.0
 40
11.0
 40
12.0
 40
12.0
 40
12.0
 40
12.0
 10
16.37152244406758
 20
8.304586038478987
 30
0.0
 10
16.36163932639428
 20
8.304586038478987
 30
0.0
 10
16.3535272031188
 20
8.312699507494869
 30
0.0
 10
16.3535272031188
 20
8.322577242206477
 30
0.0
 10
16.3535272031188
 20
8.322577242206477
 30
0.0
 10
16.3535272031188
 20
8.447460607806377
 30
0.0
 10
16.3535272031188
 20
8.447460607806377
 30
0.0
 10
16.3535272031188
 20
8.457338342517985
 30
0.0
 10
16.36128943388408
 20
8.465452484403982
 30
0.0
 10
16.37116716859569
 20
8.465452484403982
 30
0.0
 10
16.37116716859569
 20
8.465452484403982
 30
0.0
 10
16.7691026119505
 20
8.471096519741976
 30
0.0
 10
16.7691026119505
 20
8.471096519741976
 30
0.0
 10
16.7691026119505
 20
8.471096519741976
 30
0.0
 10
16.99346445542741
 20
8.476741227950071
 30
0.0
 10
16.99346445542741
 20
8.476741227950071
 30
0.0
 10
16.99346445542741
 20
8.476741227950071
 30
0.0
 10
16.9938197308993
 20
8.476741227950071
 30
0.0
 10
16.9938197308993
 20
8.476741227950071
 30
0.0
 10
17.00369746561088
 20
8.476741227950071
 30
0.0
 10
17.01145969637608
 20
8.468980342925377
 30
0.0
 10
17.01180958888631
 20
8.459455192204771
 30
0.0
 10
17.01216486435828
 20
8.449577457493191
 30
0.0
 10
17.0040527410828
 20
8.441110731616078
 30
0.0
 10
16.99417500637116
 20
8.44075814762499
 30
0.0
 10
16.99417500637116
 20
8.44075814762499
 30
0.0
 10
16.76980777993259
 20
8.435466023407869
 30
0.0
 10
16.76980777993259
 20
8.435466023407869
 30
0.0
 10
16.76980777993259
 20
8.435466023407869
 30
0.0
 10
16.38951230205458
 20
8.429821988069988
 30
0.0
 10
16.38951230205458
 20
8.429821988069988
 30
0.0
 10
16.38951230205458
 20
8.429821988069988
 30
0.0
 10
16.38951230205458
 20
8.322577242206477
 30
0.0
 10
16.38951230205458
 20
8.322577242206477
 30
0.0
 10
16.38951230205458
 20
8.312699507494869
 30
0.0
 10
16.38140017877919
 20
8.304586038478987
 30
0.0
 10
16.37152244406758
 20
8.304586038478987
 30
0.0
  0
SPLINE
  5
522
330
1F
100
AcDbEntity
  8
Livello 1
370
     5
100
AcDbSpline
210
0.0
220
0.0
230
1.0
 70
     9
 71
     3
 72
    23
 73
    19
 74
     0
 42
0.000000001
 43
0.0000000001
 40
0.0
 40
0.0
 40
0.0
 40
0.0
 40
1.0
 40
1.0
 40
1.0
 40
2.0
 40
2.0
 40
2.0
 40
3.0
 40
3.0
 40
3.0
 40
4.0
 40
4.0
 40
4.0
 40
5.0
 40
5.0
 40
5.0
 40
6.0
 40
6.0
 40
6.0
 40
6.0
 10
16.14986823032359
 20
8.307408056147977
 30
0.0
 10
16.13998511265029
 20
8.307408056147977
 30
0.0
 10
16.13187298937489
 20
8.315521525163774
 30
0.0
 10
16.13187298937489
 20
8.325399259875368
 30
0.0
 10
16.13187298937489
 20
8.325399259875368
 30
0.0
 10
16.13187298937489
 20
8.441815899598182
 30
0.0
 10
16.13187298937489
 20
8.441815899598182
 30
0.0
 10
16.13187298937489
 20
8.451693634309791
 30
0.0
 10
16.13998511265029
 20
8.459807776195873
 30
0.0
 10
16.14986823032359
 20
8.459807776195873
 30
0.0
 10
16.15974596503517
 20
8.459807776195873
 30
0.0
 10
16.16785808831068
 20
8.451693634309791
 30
0.0
 10
16.16785808831068
 20
8.441815899598182
 30
0.0
 10
16.16785808831068
 20
8.441815899598182
 30
0.0
 10
16.16785808831068
 20
8.325399259875368
 30
0.0
 10
16.16785808831068
 20
8.325399259875368
 30
0.0
 10
16.16785808831068
 20
8.315521525163774
 30
0.0
 10
16.15974596503517
 20
8.307408056147977
 30
0.0
 10
16.14986823032359
 20
8.307408056147977
 30
0.0
  0
SPLINE
  5
523
330
1F
100
AcDbEntity
  8
Livello 1
370
     5
100
AcDbSpline
210
0.0
220
0.0
230
1.0
 70
     9
 71
     3
 72
    38
 73
    34
 74
     0
 42
0.000000001
 43
0.0000000001
 40
0.0
 40
0.0
 40
0.0
 40
0.0
 40
1.0
 40
1.0
 40
1.0
 40
2.0
 40
2.0
 40
2.0
 40
3.0
 40
3.0
 40
3.0
 40
4.0
 40
4.0
 40
4.0
 40
5.0
 40
5.0
 40
5.0
 40
6.0
 40
6.0
 40
6.0
 40
7.0
 40
7.0
 40
7.0
 40
8.0
 40
8.0
 40
8.0
 40
9.0
 40
9.0
 40
9.0
 40
10.0
 40
10.0
 40
10.0
 40
11.0
 40
11.0
 40
11.0
 40
11.0
 10
16.14986823032359
 20
8.423895347242975
 30
0.0
 10
16.14034038812218
 20
8.423895347242975
 30
0.0
 10
16.13222826484681
 20
8.431303648276681
 30
0.0
 10
16.13187298937489
 20
8.440828126126973
 30
0.0
 10
16.13152309686469
 20
8.450705860838681
 30
0.0
 10
16.138930052158
 20
8.459172586715766
 30
0.0
 10
16.14880778686958
 20
8.459878427568071
 30
0.0
 10
16.14880778686958
 20
8.459878427568071
 30
0.0
 10
16.20877936312141
 20
8.462700445237075
 30
0.0
 10
16.20877936312141
 20
8.462700445237075
 30
0.0
 10
16.20877936312141
 20
8.462700445237075
 30
0.0
 10
16.28357023292148
 20
8.462700445237075
 30
0.0
 10
16.28357023292148
 20
8.462700445237075
 30
0.0
 10
16.28357023292148
 20
8.462700445237075
 30
0.0
 10
16.3710595093618
 20
8.465522462906065
 30
0.0
 10
16.3710595093618
 20
8.465522462906065
 30
0.0
 10
16.38128713658358
 20
8.465875719767382
 30
0.0
 10
16.3890493673488
 20
8.458114161872359
 30
0.0
 10
16.389399259859
 20
8.448236427160779
 30
0.0
 10
16.38975453533089
 20
8.438358692449071
 30
0.0
 10
16.38199230456567
 20
8.429891966571972
 30
0.0
 10
16.37211456985409
 20
8.42953938258087
 30
0.0
 10
16.37211456985409
 20
8.42953938258087
 30
0.0
 10
16.28392012543168
 20
8.426717364911979
 30
0.0
 10
16.28392012543168
 20
8.426717364911979
 30
0.0
 10
16.28392012543168
 20
8.426717364911979
 30
0.0
 10
16.20948453110347
 20
8.426717364911979
 30
0.0
 10
16.20948453110347
 20
8.426717364911979
 30
0.0
 10
16.20948453110347
 20
8.426717364911979
 30
0.0
 10
16.15092329081599
 20
8.423895347242975
 30
0.0
 10
16.15092329081599
 20
8.423895347242975
 30
0.0
 10
16.15092329081599
 20
8.423895347242975
 30
0.0
 10
16.14986823032359
 20
8.423895347242975
 30
0.0
 10
16.14986823032359
 20
8.423895347242975
 30
0.0
  0
SPLINE
  5
524
330
1F
100
AcDbEntity
  8
Livello 1
370
     5
100
AcDbSpline
210
0.0
220
0.0
230
1.0
 70
     9
 71
     3
 72
    38
 73
    34
 74
     0
 42
0.000000001
 43
0.0000000001
 40
0.0
 40
0.0
 40
0.0
 40
0.0
 40
1.0
 40
1.0
 40
1.0
 40
2.0
 40
2.0
 40
2.0
 40
3.0
 40
3.0
 40
3.0
 40
4.0
 40
4.0
 40
4.0
 40
5.0
 40
5.0
 40
5.0
 40
6.0
 40
6.0
 40
6.0
 40
7.0
 40
7.0
 40
7.0
 40
8.0
 40
8.0
 40
8.0
 40
9.0
 40
9.0
 40
9.0
 40
10.0
 40
10.0
 40
10.0
 40
11.0
 40
11.0
 40
11.0
 40
11.0
 10
17.02129975035589
 20
10.57873259476469
 30
0.0
 10
17.01141663268257
 20
10.57873259476469
 30
0.0
 10
17.00330450940717
 20
10.58684606378057
 30
0.0
 10
17.00330450940717
 20
10.59672379849218
 30
0.0
 10
17.00330450940717
 20
10.59672379849218
 30
0.0
 10
17.00330450940717
 20
10.80309847546287
 30
0.0
 10
17.00330450940717
 20
10.80309847546287
 30
0.0
 10
17.00330450940717
 20
10.80556790914077
 30
0.0
 10
17.00365978487909
 20
10.80768475882756
 30
0.0
 10
17.00471484537141
 20
10.80980160851447
 30
0.0
 10
17.01706335950141
 20
10.84155166233617
 30
0.0
 10
17.03223254555991
 20
10.87047969848886
 30
0.0
 10
17.0780953792073
 20
10.87788799952257
 30
0.0
 10
17.0780953792073
 20
10.87788799952257
 30
0.0
 10
17.09149895382947
 20
10.88035743320047
 30
0.0
 10
17.09149895382947
 20
10.88035743320047
 30
0.0
 10
17.10173196401308
 20
10.88247293714687
 30
0.0
 10
17.1109045307426
 20
10.87612373382677
 30
0.0
 10
17.11266475921707
 20
10.86624599911518
 30
0.0
 10
17.1147856461252
 20
10.85672084839458
 30
0.0
 10
17.10843375132418
 20
10.84719569767408
 30
0.0
 10
17.09855601661258
 20
10.84507884798728
 30
0.0
 10
17.09855601661258
 20
10.84507884798728
 30
0.0
 10
17.08444189104648
 20
10.84225683031827
 30
0.0
 10
17.08444189104648
 20
10.84225683031827
 30
0.0
 10
17.05975024574829
 20
10.83837571493568
 30
0.0
 10
17.0505776790188
 20
10.82744022825086
 30
0.0
 10
17.03928960834289
 20
10.79957128981178
 30
0.0
 10
17.03928960834289
 20
10.79957128981178
 30
0.0
 10
17.03928960834289
 20
10.59672379849218
 30
0.0
 10
17.03928960834289
 20
10.59672379849218
 30
0.0
 10
17.03928960834289
 20
10.58684606378057
 30
0.0
 10
17.03117748506747
 20
10.57873259476469
 30
0.0
 10
17.02129975035589
 20
10.57873259476469
 30
0.0
  0
SPLINE
  5
525
330
1F
100
AcDbEntity
  8
Livello 1
370
     5
100
AcDbSpline
210
0.0
220
0.0
230
1.0
 70
     9
 71
     3
 72
    47
 73
    43
 74
     0
 42
0.000000001
 43
0.0000000001
 40
0.0
 40
0.0
 40
0.0
 40
0.0
 40
1.0
 40
1.0
 40
1.0
 40
2.0
 40
2.0
 40
2.0
 40
3.0
 40
3.0
 40
3.0
 40
4.0
 40
4.0
 40
4.0
 40
5.0
 40
5.0
 40
5.0
 40
6.0
 40
6.0
 40
6.0
 40
7.0
 40
7.0
 40
7.0
 40
8.0
 40
8.0
 40
8.0
 40
9.0
 40
9.0
 40
9.0
 40
10.0
 40
10.0
 40
10.0
 40
11.0
 40
11.0
 40
11.0
 40
12.0
 40
12.0
 40
12.0
 40
13.0
 40
13.0
 40
13.0
 40
14.0
 40
14.0
 40
14.0
 40
14.0
 10
16.17262200941138
 20
5.778414598562179
 30
0.0
 10
16.16803572604658
 20
5.778414598562179
 30
0.0
 10
16.16344944268189
 20
5.78017819138769
 30
0.0
 10
16.1599182198095
 20
5.783353465917983
 30
0.0
 10
16.15674227240899
 20
5.786880651569077
 30
0.0
 10
16.15462676846258
 20
5.791466934933779
 30
0.0
 10
16.15462676846258
 20
5.796053218298567
 30
0.0
 10
16.15462676846258
 20
5.796053218298567
 30
0.0
 10
16.14333869778667
 20
7.256906259476281
 30
0.0
 10
16.14333869778667
 20
7.256906259476281
 30
0.0
 10
16.14333869778667
 20
7.266783994187861
 30
0.0
 10
16.15110092855189
 20
7.274897463203672
 30
0.0
 10
16.1609786632635
 20
7.274897463203672
 30
0.0
 10
16.17297190192158
 20
7.275250720064974
 30
0.0
 10
16.17896852125056
 20
7.266783994187861
 30
0.0
 10
16.17932379672248
 20
7.256906259476281
 30
0.0
 10
16.17932379672248
 20
7.256906259476281
 30
0.0
 10
16.19025659192647
 20
5.814397678887274
 30
0.0
 10
16.19025659192647
 20
5.814397678887274
 30
0.0
 10
16.19025659192647
 20
5.814397678887274
 30
0.0
 10
19.14371541958439
 20
5.839797856518686
 30
0.0
 10
19.14371541958439
 20
5.839797856518686
 30
0.0
 10
19.14371541958439
 20
5.839797856518686
 30
0.0
 10
19.1296012940183
 20
7.285128454776568
 30
0.0
 10
19.1296012940183
 20
7.285128454776568
 30
0.0
 10
19.1296012940183
 20
7.295006189488177
 30
0.0
 10
19.13771880025538
 20
7.303119658504087
 30
0.0
 10
19.14759653496699
 20
7.303119658504087
 30
0.0
 10
19.15747426967857
 20
7.303119658504087
 30
0.0
 10
19.16558639295397
 20
7.295358773479264
 30
0.0
 10
19.16558639295397
 20
7.285481038767684
 30
0.0
 10
19.16558639295397
 20
7.285481038767684
 30
0.0
 10
19.17969513555849
 20
5.822158563912083
 30
0.0
 10
19.17969513555849
 20
5.822158563912083
 30
0.0
 10
19.17969513555849
 20
5.817219696556279
 30
0.0
 10
19.17793490708399
 20
5.812986670052779
 30
0.0
 10
19.17475895968349
 20
5.809458811531484
 30
0.0
 10
19.17123311977281
 20
5.805930953010175
 30
0.0
 10
19.16664683640809
 20
5.804167360184564
 30
0.0
 10
19.16206055304337
 20
5.804167360184564
 30
0.0
 10
19.16206055304337
 20
5.804167360184564
 30
0.0
 10
16.17262200941138
 20
5.778414598562179
 30
0.0
 10
16.17262200941138
 20
5.778414598562179
 30
0.0
  0
SPLINE
  5
526
330
1F
100
AcDbEntity
  8
Livello 1
370
     5
100
AcDbSpline
210
0.0
220
0.0
230
1.0
 70
     9
 71
     3
 72
    26
 73
    22
 74
     0
 42
0.000000001
 43
0.0000000001
 40
0.0
 40
0.0
 40
0.0
 40
0.0
 40
1.0
 40
1.0
 40
1.0
 40
2.0
 40
2.0
 40
2.0
 40
3.0
 40
3.0
 40
3.0
 40
4.0
 40
4.0
 40
4.0
 40
5.0
 40
5.0
 40
5.0
 40
6.0
 40
6.0
 40
6.0
 40
7.0
 40
7.0
 40
7.0
 40
7.0
 10
16.16126396023341
 20
7.238950044999768
 30
0.0
 10
16.15244128601418
 20
7.238950044999768
 30
0.0
 10
16.14432916273867
 20
7.245652505181169
 30
0.0
 10
16.14326871928466
 20
7.254824399040487
 30
0.0
 10
16.14221365879231
 20
7.264702806622267
 30
0.0
 10
16.14926533861367
 20
7.273522116490468
 30
0.0
 10
16.15914307332528
 20
7.274580541333861
 30
0.0
 10
16.15914307332528
 20
7.274580541333861
 30
0.0
 10
16.18489516207759
 20
7.277755142993868
 30
0.0
 10
16.18489516207759
 20
7.277755142993868
 30
0.0
 10
16.19477289678917
 20
7.27810772698497
 30
0.0
 10
16.2035955710084
 20
7.271405266803569
 30
0.0
 10
16.20465063150081
 20
7.261880116083062
 30
0.0
 10
16.2057110749549
 20
7.252002381371482
 30
0.0
 10
16.1986540121718
 20
7.243183071503267
 30
0.0
 10
16.18877627746016
 20
7.241772062668772
 30
0.0
 10
16.18877627746016
 20
7.241772062668772
 30
0.0
 10
16.1633794641798
 20
7.238950044999768
 30
0.0
 10
16.1633794641798
 20
7.238950044999768
 30
0.0
 10
16.16267429619768
 20
7.238950044999768
 30
0.0
 10
16.16196912821559
 20
7.238950044999768
 30
0.0
 10
16.16126396023341
 20
7.238950044999768
 30
0.0
  0
SPLINE
  5
527
330
1F
100
AcDbEntity
  8
Livello 1
370
     5
100
AcDbSpline
210
0.0
220
0.0
230
1.0
 70
     9
 71
     3
 72
    23
 73
    19
 74
     0
 42
0.000000001
 43
0.0000000001
 40
0.0
 40
0.0
 40
0.0
 40
0.0
 40
1.0
 40
1.0
 40
1.0
 40
2.0
 40
2.0
 40
2.0
 40
3.0
 40
3.0
 40
3.0
 40
4.0
 40
4.0
 40
4.0
 40
5.0
 40
5.0
 40
5.0
 40
6.0
 40
6.0
 40
6.0
 40
6.0
 10
16.18680611347949
 20
7.241807724789978
 30
0.0
 10
16.17692299580619
 20
7.241807724789978
 30
0.0
 10
16.1688108725308
 20
7.24992119380586
 30
0.0
 10
16.1688108725308
 20
7.259446344526367
 30
0.0
 10
16.1688108725308
 20
7.259446344526367
 30
0.0
 10
16.16316952867367
 20
7.936073863752881
 30
0.0
 10
16.16316952867367
 20
7.936073863752881
 30
0.0
 10
16.16316952867367
 20
7.945951598464489
 30
0.0
 10
16.17092637647715
 20
7.954065740350571
 30
0.0
 10
16.18115938666068
 20
7.954065740350571
 30
0.0
 10
16.1910371213724
 20
7.954065740350571
 30
0.0
 10
16.1991492446478
 20
7.945951598464489
 30
0.0
 10
16.1991492446478
 20
7.936073863752881
 30
0.0
 10
16.1991492446478
 20
7.936073863752881
 30
0.0
 10
16.20479597146658
 20
7.259798928517469
 30
0.0
 10
16.20479597146658
 20
7.259798928517469
 30
0.0
 10
16.20479597146658
 20
7.24992119380586
 30
0.0
 10
16.19703374070138
 20
7.241807724789978
 30
0.0
 10
16.18680611347949
 20
7.241807724789978
 30
0.0
  0
SPLINE
  5
528
330
1F
100
AcDbEntity
  8
Livello 1
370
     5
100
AcDbSpline
210
0.0
220
0.0
230
1.0
 70
     9
 71
     3
 72
    23
 73
    19
 74
     0
 42
0.000000001
 43
0.0000000001
 40
0.0
 40
0.0
 40
0.0
 40
0.0
 40
1.0
 40
1.0
 40
1.0
 40
2.0
 40
2.0
 40
2.0
 40
3.0
 40
3.0
 40
3.0
 40
4.0
 40
4.0
 40
4.0
 40
5.0
 40
5.0
 40
5.0
 40
6.0
 40
6.0
 40
6.0
 40
6.0
 10
16.18112708889057
 20
7.918117649276368
 30
0.0
 10
16.18112708889057
 20
7.918117649276368
 30
0.0
 10
16.1553696171766
 20
7.918117649276368
 30
0.0
 10
16.1553696171766
 20
7.918117649276368
 30
0.0
 10
16.14549188246499
 20
7.918117649276368
 30
0.0
 10
16.1373797591896
 20
7.926231118292264
 30
0.0
 10
16.1373797591896
 20
7.936108853003887
 30
0.0
 10
16.1373797591896
 20
7.945986587715495
 30
0.0
 10
16.14549188246499
 20
7.954100729601577
 30
0.0
 10
16.1553696171766
 20
7.954100729601577
 30
0.0
 10
16.1553696171766
 20
7.954100729601577
 30
0.0
 10
16.18112708889057
 20
7.954100729601577
 30
0.0
 10
16.18112708889057
 20
7.954100729601577
 30
0.0
 10
16.19100482360218
 20
7.954100729601577
 30
0.0
 10
16.19911694687758
 20
7.945986587715495
 30
0.0
 10
16.19911694687758
 20
7.936108853003887
 30
0.0
 10
16.19911694687758
 20
7.926231118292264
 30
0.0
 10
16.19100482360218
 20
7.918117649276368
 30
0.0
 10
16.18112708889057
 20
7.918117649276368
 30
0.0
  0
SPLINE
  5
529
330
1F
100
AcDbEntity
  8
Livello 1
370
     5
100
AcDbSpline
210
0.0
220
0.0
230
1.0
 70
     9
 71
     3
 72
    26
 73
    22
 74
     0
 42
0.000000001
 43
0.0000000001
 40
0.0
 40
0.0
 40
0.0
 40
0.0
 40
1.0
 40
1.0
 40
1.0
 40
2.0
 40
2.0
 40
2.0
 40
3.0
 40
3.0
 40
3.0
 40
4.0
 40
4.0
 40
4.0
 40
5.0
 40
5.0
 40
5.0
 40
6.0
 40
6.0
 40
6.0
 40
7.0
 40
7.0
 40
7.0
 40
7.0
 10
16.1555149571424
 20
7.918117649276368
 30
0.0
 10
16.1456318394691
 20
7.918117649276368
 30
0.0
 10
16.13787499166557
 20
7.925878534301176
 30
0.0
 10
16.13751971619368
 20
7.93575626901287
 30
0.0
 10
16.13751971619368
 20
7.93575626901287
 30
0.0
 10
16.13187837233659
 20
8.325222967879867
 30
0.0
 10
16.13187837233659
 20
8.325222967879867
 30
0.0
 10
16.13187837233659
 20
8.335100702591475
 30
0.0
 10
16.13963522014006
 20
8.343214844477572
 30
0.0
 10
16.14951295485167
 20
8.343214844477572
 30
0.0
 10
16.15833562907099
 20
8.344272596450778
 30
0.0
 10
16.16785808831068
 20
8.335453286582577
 30
0.0
 10
16.16785808831068
 20
8.325575551870969
 30
0.0
 10
16.16785808831068
 20
8.325575551870969
 30
0.0
 10
16.17350481512949
 20
7.936461436994989
 30
0.0
 10
16.17350481512949
 20
7.936461436994989
 30
0.0
 10
16.17350481512949
 20
7.926231118292264
 30
0.0
 10
16.16574258436418
 20
7.918117649276368
 30
0.0
 10
16.15586484965257
 20
7.918117649276368
 30
0.0
 10
16.15586484965257
 20
7.918117649276368
 30
0.0
 10
16.1555149571424
 20
7.918117649276368
 30
0.0
 10
16.1555149571424
 20
7.918117649276368
 30
0.0
  0
SPLINE
  5
52A
330
1F
100
AcDbEntity
  8
Livello 1
370
     5
100
AcDbSpline
210
0.0
220
0.0
230
1.0
 70
     9
 71
     3
 72
    23
 73
    19
 74
     0
 42
0.000000001
 43
0.0000000001
 40
0.0
 40
0.0
 40
0.0
 40
0.0
 40
1.0
 40
1.0
 40
1.0
 40
2.0
 40
2.0
 40
2.0
 40
3.0
 40
3.0
 40
3.0
 40
4.0
 40
4.0
 40
4.0
 40
5.0
 40
5.0
 40
5.0
 40
6.0
 40
6.0
 40
6.0
 40
6.0
 10
17.6672013242233
 20
5.778414598562179
 30
0.0
 10
17.65731820655
 20
5.778414598562179
 30
0.0
 10
17.64920608327449
 20
5.786528067577989
 30
0.0
 10
17.64920608327449
 20
5.796405802289697
 30
0.0
 10
17.64920608327449
 20
5.796405802289697
 30
0.0
 10
17.64920608327449
 20
5.822158563912083
 30
0.0
 10
17.64920608327449
 20
5.822158563912083
 30
0.0
 10
17.64920608327449
 20
5.832036298623691
 30
0.0
 10
17.65731820655
 20
5.839797856518686
 30
0.0
 10
17.6672013242233
 20
5.839797856518686
 30
0.0
 10
17.67707905893491
 20
5.839797856518686
 30
0.0
 10
17.6851911822103
 20
5.832036298623691
 30
0.0
 10
17.6851911822103
 20
5.822158563912083
 30
0.0
 10
17.6851911822103
 20
5.822158563912083
 30
0.0
 10
17.6851911822103
 20
5.796405802289697
 30
0.0
 10
17.6851911822103
 20
5.796405802289697
 30
0.0
 10
17.6851911822103
 20
5.786528067577989
 30
0.0
 10
17.67707905893491
 20
5.778414598562179
 30
0.0
 10
17.6672013242233
 20
5.778414598562179
 30
0.0
  0
SPLINE
  5
52B
330
1F
100
AcDbEntity
  8
Livello 1
370
     5
100
AcDbSpline
210
0.0
220
0.0
230
1.0
 70
     9
 71
     3
 72
    32
 73
    28
 74
     0
 42
0.000000001
 43
0.0000000001
 40
0.0
 40
0.0
 40
0.0
 40
0.0
 40
1.0
 40
1.0
 40
1.0
 40
2.0
 40
2.0
 40
2.0
 40
3.0
 40
3.0
 40
3.0
 40
4.0
 40
4.0
 40
4.0
 40
5.0
 40
5.0
 40
5.0
 40
6.0
 40
6.0
 40
6.0
 40
7.0
 40
7.0
 40
7.0
 40
8.0
 40
8.0
 40
8.0
 40
9.0
 40
9.0
 40
9.0
 40
9.0
 10
17.6700973576155
 20
5.50850482469707
 30
0.0
 10
17.6700973576155
 20
5.50850482469707
 30
0.0
 10
17.4739476163858
 20
5.50850482469707
 30
0.0
 10
17.4739476163858
 20
5.50850482469707
 30
0.0
 10
17.46406988167419
 20
5.50850482469707
 30
0.0
 10
17.45631303387068
 20
5.516265709721864
 30
0.0
 10
17.45595775839879
 20
5.526143444433472
 30
0.0
 10
17.45595775839879
 20
5.526143444433472
 30
0.0
 10
17.45313708647018
 20
5.796018229047575
 30
0.0
 10
17.45313708647018
 20
5.796018229047575
 30
0.0
 10
17.45313708647018
 20
5.805895963759184
 30
0.0
 10
17.46124920974569
 20
5.814362689636283
 30
0.0
 10
17.47112694445729
 20
5.814362689636283
 30
0.0
 10
17.4810046791689
 20
5.814362689636283
 30
0.0
 10
17.48912218540599
 20
5.806249220620472
 30
0.0
 10
17.48912218540599
 20
5.796371485908778
 30
0.0
 10
17.48912218540599
 20
5.796371485908778
 30
0.0
 10
17.49194285733458
 20
5.54448790502218
 30
0.0
 10
17.49194285733458
 20
5.54448790502218
 30
0.0
 10
17.49194285733458
 20
5.54448790502218
 30
0.0
 10
17.6700973576155
 20
5.54448790502218
 30
0.0
 10
17.6700973576155
 20
5.54448790502218
 30
0.0
 10
17.67997509232717
 20
5.54448790502218
 30
0.0
 10
17.68808721560259
 20
5.536373763136168
 30
0.0
 10
17.68808721560259
 20
5.52649602842456
 30
0.0
 10
17.68808721560259
 20
5.51661829371298
 30
0.0
 10
17.67997509232717
 20
5.50850482469707
 30
0.0
 10
17.6700973576155
 20
5.50850482469707
 30
0.0
  0
SPLINE
  5
52C
330
1F
100
AcDbEntity
  8
Livello 1
370
     5
100
AcDbSpline
210
0.0
220
0.0
230
1.0
 70
     9
 71
     3
 72
    29
 73
    25
 74
     0
 42
0.000000001
 43
0.0000000001
 40
0.0
 40
0.0
 40
0.0
 40
0.0
 40
1.0
 40
1.0
 40
1.0
 40
2.0
 40
2.0
 40
2.0
 40
3.0
 40
3.0
 40
3.0
 40
4.0
 40
4.0
 40
4.0
 40
5.0
 40
5.0
 40
5.0
 40
6.0
 40
6.0
 40
6.0
 40
7.0
 40
7.0
 40
7.0
 40
8.0
 40
8.0
 40
8.0
 40
8.0
 10
17.6700973576155
 20
5.50850482469707
 30
0.0
 10
17.66021423994217
 20
5.50850482469707
 30
0.0
 10
17.65210211666678
 20
5.516265709721864
 30
0.0
 10
17.65210211666678
 20
5.526143444433472
 30
0.0
 10
17.65210211666678
 20
5.526143444433472
 30
0.0
 10
17.6492814447383
 20
5.796018229047575
 30
0.0
 10
17.6492814447383
 20
5.796018229047575
 30
0.0
 10
17.6492814447383
 20
5.805895963759184
 30
0.0
 10
17.65704367550347
 20
5.814362689636283
 30
0.0
 10
17.66692141021508
 20
5.814362689636283
 30
0.0
 10
17.66692141021508
 20
5.814362689636283
 30
0.0
 10
17.66727130272531
 20
5.814362689636283
 30
0.0
 10
17.66727130272531
 20
5.814362689636283
 30
0.0
 10
17.67714903743689
 20
5.814362689636283
 30
0.0
 10
17.68491126820208
 20
5.806249220620472
 30
0.0
 10
17.685266543674
 20
5.796371485908778
 30
0.0
 10
17.685266543674
 20
5.796371485908778
 30
0.0
 10
17.68808721560259
 20
5.52649602842456
 30
0.0
 10
17.68808721560259
 20
5.52649602842456
 30
0.0
 10
17.68808721560259
 20
5.51661829371298
 30
0.0
 10
17.6803249848374
 20
5.50850482469707
 30
0.0
 10
17.67044725012581
 20
5.50850482469707
 30
0.0
 10
17.67044725012581
 20
5.50850482469707
 30
0.0
 10
17.6700973576155
 20
5.50850482469707
 30
0.0
 10
17.6700973576155
 20
5.50850482469707
 30
0.0
  0
SPLINE
  5
52D
330
1F
100
AcDbEntity
  8
Livello 1
370
     5
100
AcDbSpline
210
0.0
220
0.0
230
1.0
 70
     9
 71
     3
 72
    23
 73
    19
 74
     0
 42
0.000000001
 43
0.0000000001
 40
0.0
 40
0.0
 40
0.0
 40
0.0
 40
1.0
 40
1.0
 40
1.0
 40
2.0
 40
2.0
 40
2.0
 40
3.0
 40
3.0
 40
3.0
 40
4.0
 40
4.0
 40
4.0
 40
5.0
 40
5.0
 40
5.0
 40
6.0
 40
6.0
 40
6.0
 40
6.0
 10
16.1555149571424
 20
7.909615934148277
 30
0.0
 10
16.1456318394691
 20
7.909615934148277
 30
0.0
 10
16.13751971619368
 20
7.917729403164173
 30
0.0
 10
16.13751971619368
 20
7.927607137875781
 30
0.0
 10
16.13751971619368
 20
7.927607137875781
 30
0.0
 10
16.13751971619368
 20
7.933251846083862
 30
0.0
 10
16.13751971619368
 20
7.933251846083862
 30
0.0
 10
16.13751971619368
 20
7.943129580795471
 30
0.0
 10
16.1456318394691
 20
7.951243049811381
 30
0.0
 10
16.1555149571424
 20
7.951243049811381
 30
0.0
 10
16.16539269185398
 20
7.951243049811381
 30
0.0
 10
16.17350481512949
 20
7.943129580795471
 30
0.0
 10
16.17350481512949
 20
7.933251846083862
 30
0.0
 10
16.17350481512949
 20
7.933251846083862
 30
0.0
 10
16.17350481512949
 20
7.927607137875781
 30
0.0
 10
16.17350481512949
 20
7.927607137875781
 30
0.0
 10
16.17350481512949
 20
7.917729403164173
 30
0.0
 10
16.16539269185398
 20
7.909615934148277
 30
0.0
 10
16.1555149571424
 20
7.909615934148277
 30
0.0
  0
SPLINE
  5
52E
330
1F
100
AcDbEntity
  8
Livello 1
370
     5
100
AcDbSpline
210
0.0
220
0.0
230
1.0
 70
     9
 71
     3
 72
    20
 73
    16
 74
     0
 42
0.000000001
 43
0.0000000001
 40
0.0
 40
0.0
 40
0.0
 40
0.0
 40
1.0
 40
1.0
 40
1.0
 40
2.0
 40
2.0
 40
2.0
 40
3.0
 40
3.0
 40
3.0
 40
4.0
 40
4.0
 40
4.0
 40
5.0
 40
5.0
 40
5.0
 40
5.0
 10
16.1555149571424
 20
7.916706640441987
 30
0.0
 10
16.1456318394691
 20
7.916706640441987
 30
0.0
 10
16.13751971619368
 20
7.923409100623274
 30
0.0
 10
16.13751971619368
 20
7.933286835334868
 30
0.0
 10
16.13751971619368
 20
7.933286835334868
 30
0.0
 10
16.13751971619368
 20
7.936108853003887
 30
0.0
 10
16.13751971619368
 20
7.936108853003887
 30
0.0
 10
16.13751971619368
 20
7.945986587715495
 30
0.0
 10
16.1456318394691
 20
7.954100729601577
 30
0.0
 10
16.1555149571424
 20
7.954100729601577
 30
0.0
 10
16.16539269185398
 20
7.954100729601577
 30
0.0
 10
16.17350481512949
 20
7.945986587715495
 30
0.0
 10
16.17350481512949
 20
7.936108853003887
 30
0.0
 10
16.17350481512949
 20
7.926231118292264
 30
0.0
 10
16.16539269185398
 20
7.916706640441987
 30
0.0
 10
16.1555149571424
 20
7.916706640441987
 30
0.0
  0
SPLINE
  5
52F
330
1F
100
AcDbEntity
  8
Livello 1
370
     5
100
AcDbSpline
210
0.0
220
0.0
230
1.0
 70
     9
 71
     3
 72
    20
 73
    16
 74
     0
 42
0.000000001
 43
0.0000000001
 40
0.0
 40
0.0
 40
0.0
 40
0.0
 40
1.0
 40
1.0
 40
1.0
 40
2.0
 40
2.0
 40
2.0
 40
3.0
 40
3.0
 40
3.0
 40
4.0
 40
4.0
 40
4.0
 40
5.0
 40
5.0
 40
5.0
 40
5.0
 10
16.16126396023341
 20
7.246076413414684
 30
0.0
 10
16.15138084256009
 20
7.246076413414684
 30
0.0
 10
16.14326871928466
 20
7.252778873596071
 30
0.0
 10
16.14326871928466
 20
7.262656608307679
 30
0.0
 10
16.14326871928466
 20
7.262656608307679
 30
0.0
 10
16.14326871928466
 20
7.265478625976669
 30
0.0
 10
16.14326871928466
 20
7.265478625976669
 30
0.0
 10
16.14326871928466
 20
7.275356360688277
 30
0.0
 10
16.15138084256009
 20
7.28347050257436
 30
0.0
 10
16.16126396023341
 20
7.28347050257436
 30
0.0
 10
16.17114169494508
 20
7.28347050257436
 30
0.0
 10
16.17925381822047
 20
7.275356360688277
 30
0.0
 10
16.17925381822047
 20
7.265478625976669
 30
0.0
 10
16.17925381822047
 20
7.255600891265061
 30
0.0
 10
16.17114169494508
 20
7.246076413414684
 30
0.0
 10
16.16126396023341
 20
7.246076413414684
 30
0.0
  0
SPLINE
  5
530
330
1F
100
AcDbEntity
  8
Livello 1
370
     5
100
AcDbSpline
210
0.0
220
0.0
230
1.0
 70
     9
 71
     3
 72
    26
 73
    22
 74
     0
 42
0.000000001
 43
0.0000000001
 40
0.0
 40
0.0
 40
0.0
 40
0.0
 40
1.0
 40
1.0
 40
1.0
 40
2.0
 40
2.0
 40
2.0
 40
3.0
 40
3.0
 40
3.0
 40
4.0
 40
4.0
 40
4.0
 40
5.0
 40
5.0
 40
5.0
 40
6.0
 40
6.0
 40
6.0
 40
7.0
 40
7.0
 40
7.0
 40
7.0
 10
16.16691068705216
 20
7.901043567647874
 30
0.0
 10
16.1633794641798
 20
7.901043567647874
 30
0.0
 10
16.15985362426917
 20
7.902101319621081
 30
0.0
 10
16.1570275693789
 20
7.903865585316864
 30
0.0
 10
16.1570275693789
 20
7.903865585316864
 30
0.0
 10
16.1485655535933
 20
7.909862877516076
 30
0.0
 10
16.1485655535933
 20
7.909862877516076
 30
0.0
 10
16.1400981548459
 20
7.915154328862982
 30
0.0
 10
16.13798265089949
 20
7.926443072409071
 30
0.0
 10
16.14362399475658
 20
7.934557214295082
 30
0.0
 10
16.14891544610347
 20
7.943023940172267
 30
0.0
 10
16.16020351677937
 20
7.945140789859081
 30
0.0
 10
16.16832102301649
 20
7.939496081650858
 30
0.0
 10
16.16832102301649
 20
7.939496081650858
 30
0.0
 10
16.1767884217638
 20
7.933851373442777
 30
0.0
 10
16.1767884217638
 20
7.933851373442777
 30
0.0
 10
16.18525043754948
 20
7.928559922095871
 30
0.0
 10
16.18737132445758
 20
7.917271178549782
 30
0.0
 10
16.1817245976388
 20
7.909157036663771
 30
0.0
 10
16.17819875772809
 20
7.903865585316864
 30
0.0
 10
16.17255203090929
 20
7.901043567647874
 30
0.0
 10
16.16691068705216
 20
7.901043567647874
 30
0.0
  0
SPLINE
  5
531
330
1F
100
AcDbEntity
  8
Livello 1
370
     5
100
AcDbSpline
210
0.0
220
0.0
230
1.0
 70
     9
 71
     3
 72
    29
 73
    25
 74
     0
 42
0.000000001
 43
0.0000000001
 40
0.0
 40
0.0
 40
0.0
 40
0.0
 40
1.0
 40
1.0
 40
1.0
 40
2.0
 40
2.0
 40
2.0
 40
3.0
 40
3.0
 40
3.0
 40
4.0
 40
4.0
 40
4.0
 40
5.0
 40
5.0
 40
5.0
 40
6.0
 40
6.0
 40
6.0
 40
7.0
 40
7.0
 40
7.0
 40
8.0
 40
8.0
 40
8.0
 40
8.0
 10
16.1791515419483
 20
7.898891728709983
 30
0.0
 10
16.17632548705799
 20
7.898891728709983
 30
0.0
 10
16.17385470763969
 20
7.899596896692173
 30
0.0
 10
16.1713893111831
 20
7.901007905526697
 30
0.0
 10
16.1713893111831
 20
7.901007905526697
 30
0.0
 10
16.1668030278183
 20
7.901007905526697
 30
0.0
 10
16.1668030278183
 20
7.901007905526697
 30
0.0
 10
16.15692529310666
 20
7.901007905526697
 30
0.0
 10
16.14880778686958
 20
7.909122047412679
 30
0.0
 10
16.14880778686958
 20
7.918999782124274
 30
0.0
 10
16.14880778686958
 20
7.928877516835882
 30
0.0
 10
16.15692529310666
 20
7.936991658721979
 30
0.0
 10
16.1668030278183
 20
7.936991658721979
 30
0.0
 10
16.1668030278183
 20
7.936991658721979
 30
0.0
 10
16.17809109849418
 20
7.936991658721979
 30
0.0
 10
16.17809109849418
 20
7.936991658721979
 30
0.0
 10
16.18302727436918
 20
7.936991658721979
 30
0.0
 10
16.18761355773389
 20
7.935227393026181
 30
0.0
 10
16.1907895051344
 20
7.931699534504872
 30
0.0
 10
16.19784656791739
 20
7.92499707432357
 30
0.0
 10
16.19961217935358
 20
7.911944065081684
 30
0.0
 10
16.1925551165705
 20
7.90488834803898
 30
0.0
 10
16.1886740011879
 20
7.901007905526697
 30
0.0
 10
16.1837324423513
 20
7.898891728709983
 30
0.0
 10
16.1791515419483
 20
7.898891728709983
 30
0.0
  0
SPLINE
  5
532
330
1F
100
AcDbEntity
  8
Livello 1
370
     5
100
AcDbSpline
210
0.0
220
0.0
230
1.0
 70
     9
 71
     3
 72
    23
 73
    19
 74
     0
 42
0.000000001
 43
0.0000000001
 40
0.0
 40
0.0
 40
0.0
 40
0.0
 40
1.0
 40
1.0
 40
1.0
 40
2.0
 40
2.0
 40
2.0
 40
3.0
 40
3.0
 40
3.0
 40
4.0
 40
4.0
 40
4.0
 40
5.0
 40
5.0
 40
5.0
 40
6.0
 40
6.0
 40
6.0
 40
6.0
 10
17.03075761405517
 20
9.486603682429858
 30
0.0
 10
17.03075761405517
 20
9.486603682429858
 30
0.0
 10
17.00817608974168
 20
9.486603682429858
 30
0.0
 10
17.00817608974168
 20
9.486603682429858
 30
0.0
 10
16.99829835503007
 20
9.486603682429858
 30
0.0
 10
16.99018623175468
 20
9.494717151445783
 30
0.0
 10
16.99018623175468
 20
9.504594886157377
 30
0.0
 10
16.99018623175468
 20
9.514472620868986
 30
0.0
 10
16.99829835503007
 20
9.522586089884867
 30
0.0
 10
17.00817608974168
 20
9.522586089884867
 30
0.0
 10
17.00817608974168
 20
9.522586089884867
 30
0.0
 10
17.03075761405517
 20
9.522586089884867
 30
0.0
 10
17.03075761405517
 20
9.522586089884867
 30
0.0
 10
17.0406353487669
 20
9.522586089884867
 30
0.0
 10
17.04874747204229
 20
9.514472620868986
 30
0.0
 10
17.04874747204229
 20
9.504594886157377
 30
0.0
 10
17.04874747204229
 20
9.494717151445783
 30
0.0
 10
17.0406353487669
 20
9.486603682429858
 30
0.0
 10
17.03075761405517
 20
9.486603682429858
 30
0.0
  0
SPLINE
  5
533
330
1F
100
AcDbEntity
  8
Livello 1
370
     5
100
AcDbSpline
210
0.0
220
0.0
230
1.0
 70
    11
 71
     3
 72
    38
 73
    34
 74
     0
 42
0.000000001
 43
0.0000000001
 40
0.0
 40
0.0
 40
0.0
 40
0.0
 40
1.0
 40
1.0
 40
1.0
 40
2.0
 40
2.0
 40
2.0
 40
3.0
 40
3.0
 40
3.0
 40
4.0
 40
4.0
 40
4.0
 40
5.0
 40
5.0
 40
5.0
 40
6.0
 40
6.0
 40
6.0
 40
7.0
 40
7.0
 40
7.0
 40
8.0
 40
8.0
 40
8.0
 40
9.0
 40
9.0
 40
9.0
 40
10.0
 40
10.0
 40
10.0
 40
11.0
 40
11.0
 40
11.0
 40
11.0
 10
18.36760538525959
 20
6.446010853803684
 30
0.0
 10
18.36760538525959
 20
6.446010853803684
 30
0.0
 10
18.24483617786581
 20
6.475291473947478
 30
0.0
 10
18.24483617786581
 20
6.475291473947478
 30
0.0
 10
18.24483617786581
 20
6.475291473947478
 30
0.0
 10
18.1577021768974
 20
6.539850006434193
 30
0.0
 10
18.1577021768974
 20
6.539850006434193
 30
0.0
 10
18.1577021768974
 20
6.539850006434193
 30
0.0
 10
18.1121946187219
 20
6.610758415111277
 30
0.0
 10
18.1121946187219
 20
6.610758415111277
 30
0.0
 10
18.07832502373259
 20
6.688721867960779
 30
0.0
 10
18.07868029920448
 20
6.769861268210775
 30
0.0
 10
18.11183934324998
 20
6.84182742886098
 30
0.0
 10
18.14605883074958
 20
6.915911112068357
 30
0.0
 10
18.21273219431256
 20
6.973061343521365
 30
0.0
 10
18.29528529487788
 20
6.998460848282576
 30
0.0
 10
18.29528529487788
 20
6.998460848282576
 30
0.0
 10
18.36936561373409
 20
7.007985999003182
 30
0.0
 10
18.36936561373409
 20
7.007985999003182
 30
0.0
 10
18.36936561373409
 20
7.007985999003182
 30
0.0
 10
18.46320678497531
 20
6.990347379266779
 30
0.0
 10
18.46320678497531
 20
6.990347379266779
 30
0.0
 10
18.57292231025707
 20
6.949424758715565
 30
0.0
 10
18.64277162122059
 20
6.853469429268372
 30
0.0
 10
18.64841296507768
 20
6.739169639232486
 30
0.0
 10
18.65405969189649
 20
6.626280185160865
 30
0.0
 10
18.59338294766249
 20
6.524680147505478
 30
0.0
 10
18.4903692096918
 20
6.473527881121881
 30
0.0
 10
18.4903692096918
 20
6.473527881121881
 30
0.0
 10
18.40782149208817
 20
6.449538712324979
 30
0.0
 10
18.40782149208817
 20
6.449538712324979
 30
0.0
 10
18.40782149208817
 20
6.449538712324979
 30
0.0
 10
18.36760538525959
 20
6.446010853803684
 30
0.0
 10
18.36760538525959
 20
6.446010853803684
 30
0.0
  0
SPLINE
  5
534
330
1F
100
AcDbEntity
  8
Livello 1
370
     5
100
AcDbSpline
210
0.0
220
0.0
230
1.0
 70
    11
 71
     3
 72
    38
 73
    34
 74
     0
 42
0.000000001
 43
0.0000000001
 40
0.0
 40
0.0
 40
0.0
 40
0.0
 40
1.0
 40
1.0
 40
1.0
 40
2.0
 40
2.0
 40
2.0
 40
3.0
 40
3.0
 40
3.0
 40
4.0
 40
4.0
 40
4.0
 40
5.0
 40
5.0
 40
5.0
 40
6.0
 40
6.0
 40
6.0
 40
7.0
 40
7.0
 40
7.0
 40
8.0
 40
8.0
 40
8.0
 40
9.0
 40
9.0
 40
9.0
 40
10.0
 40
10.0
 40
10.0
 40
11.0
 40
11.0
 40
11.0
 40
11.0
 10
18.2628314188145
 20
6.506336359786985
 30
0.0
 10
18.2628314188145
 20
6.506336359786985
 30
0.0
 10
18.37007078171632
 20
6.482347190990083
 30
0.0
 10
18.37007078171632
 20
6.482347190990083
 30
0.0
 10
18.37007078171632
 20
6.482347190990083
 30
0.0
 10
18.4014695972873
 20
6.484816624667985
 30
0.0
 10
18.4014695972873
 20
6.484816624667985
 30
0.0
 10
18.4014695972873
 20
6.484816624667985
 30
0.0
 10
18.47767080305169
 20
6.507041527769061
 30
0.0
 10
18.47767080305169
 20
6.507041527769061
 30
0.0
 10
18.56586524747408
 20
6.550786165989279
 30
0.0
 10
18.61772470045048
 20
6.637569601577183
 30
0.0
 10
18.61278314161381
 20
6.737405373536773
 30
0.0
 10
18.60749169026689
 20
6.836888561505176
 30
0.0
 10
18.54681494603298
 20
6.92084997942419
 30
0.0
 10
18.45332905026367
 20
6.956127891767181
 30
0.0
 10
18.45332905026367
 20
6.956127891767181
 30
0.0
 10
18.3683105532418
 20
6.971649661816684
 30
0.0
 10
18.3683105532418
 20
6.971649661816684
 30
0.0
 10
18.3683105532418
 20
6.971649661816684
 30
0.0
 10
18.30304752564308
 20
6.963536192800859
 30
0.0
 10
18.30304752564308
 20
6.963536192800859
 30
0.0
 10
18.2331928317179
 20
6.941663873690771
 30
0.0
 10
18.17428169892017
 20
6.891569359280367
 30
0.0
 10
18.1442932193134
 20
6.827010826793568
 30
0.0
 10
18.11572045863258
 20
6.764569143993682
 30
0.0
 10
18.11536518316066
 20
6.693660735316584
 30
0.0
 10
18.14394332680317
 20
6.627691866865575
 30
0.0
 10
18.14394332680317
 20
6.627691866865575
 30
0.0
 10
18.18627493757819
 20
6.562074909535368
 30
0.0
 10
18.18627493757819
 20
6.562074909535368
 30
0.0
 10
18.18627493757819
 20
6.562074909535368
 30
0.0
 10
18.2628314188145
 20
6.506336359786985
 30
0.0
 10
18.2628314188145
 20
6.506336359786985
 30
0.0
  0
SPLINE
  5
535
330
1F
100
AcDbEntity
  8
Livello 1
370
     5
100
AcDbSpline
210
0.0
220
0.0
230
1.0
 70
     9
 71
     3
 72
    23
 73
    19
 74
     0
 42
0.000000001
 43
0.0000000001
 40
0.0
 40
0.0
 40
0.0
 40
0.0
 40
1.0
 40
1.0
 40
1.0
 40
2.0
 40
2.0
 40
2.0
 40
3.0
 40
3.0
 40
3.0
 40
4.0
 40
4.0
 40
4.0
 40
5.0
 40
5.0
 40
5.0
 40
6.0
 40
6.0
 40
6.0
 40
6.0
 10
17.89188614540191
 20
10.84451498274957
 30
0.0
 10
17.89188614540191
 20
10.84451498274957
 30
0.0
 10
17.39305785098449
 20
10.84451498274957
 30
0.0
 10
17.39305785098449
 20
10.84451498274957
 30
0.0
 10
17.38318011627288
 20
10.84451498274957
 30
0.0
 10
17.3750626100358
 20
10.85262845176548
 30
0.0
 10
17.3750626100358
 20
10.86250618647706
 30
0.0
 10
17.3750626100358
 20
10.87238392118867
 30
0.0
 10
17.38318011627288
 20
10.88049739020458
 30
0.0
 10
17.39305785098449
 20
10.88049739020458
 30
0.0
 10
17.39305785098449
 20
10.88049739020458
 30
0.0
 10
17.89188614540191
 20
10.88049739020458
 30
0.0
 10
17.89188614540191
 20
10.88049739020458
 30
0.0
 10
17.90176388011349
 20
10.88049739020458
 30
0.0
 10
17.909876003389
 20
10.87238392118867
 30
0.0
 10
17.909876003389
 20
10.86250618647706
 30
0.0
 10
17.909876003389
 20
10.85262845176548
 30
0.0
 10
17.90176388011349
 20
10.84451498274957
 30
0.0
 10
17.89188614540191
 20
10.84451498274957
 30
0.0
  0
SPLINE
  5
536
330
1F
100
AcDbEntity
  8
Livello 1
370
     5
100
AcDbSpline
210
0.0
220
0.0
230
1.0
 70
     9
 71
     3
 72
    23
 73
    19
 74
     0
 42
0.000000001
 43
0.0000000001
 40
0.0
 40
0.0
 40
0.0
 40
0.0
 40
1.0
 40
1.0
 40
1.0
 40
2.0
 40
2.0
 40
2.0
 40
3.0
 40
3.0
 40
3.0
 40
4.0
 40
4.0
 40
4.0
 40
5.0
 40
5.0
 40
5.0
 40
6.0
 40
6.0
 40
6.0
 40
6.0
 10
17.34053091075782
 20
11.86492535067218
 30
0.0
 10
17.34053091075782
 20
11.86492535067218
 30
0.0
 10
17.00785849500167
 20
11.86492535067218
 30
0.0
 10
17.00785849500167
 20
11.86492535067218
 30
0.0
 10
16.99480481288958
 20
11.86492535067218
 30
0.0
 10
16.98422191019588
 20
11.87550825336588
 30
0.0
 10
16.98422191019588
 20
11.88856058973756
 30
0.0
 10
16.98422191019588
 20
11.90161292610918
 30
0.0
 10
16.99480481288958
 20
11.91219717454338
 30
0.0
 10
17.00785849500167
 20
11.91219717454338
 30
0.0
 10
17.00785849500167
 20
11.91219717454338
 30
0.0
 10
17.34053091075782
 20
11.91219717454338
 30
0.0
 10
17.34053091075782
 20
11.91219717454338
 30
0.0
 10
17.35357920990819
 20
11.91219717454338
 30
0.0
 10
17.36416211260197
 20
11.90161292610918
 30
0.0
 10
17.36416211260197
 20
11.88856058973756
 30
0.0
 10
17.36416211260197
 20
11.87550825336588
 30
0.0
 10
17.35357920990819
 20
11.86492535067218
 30
0.0
 10
17.34053091075782
 20
11.86492535067218
 30
0.0
  0
POLYLINE
  5
537
330
1F
100
AcDbEntity
  8
Livello 1
370
     5
100
AcDb2dPolyline
 66
     1
 10
0.0
 20
0.0
 30
0.0
  0
VERTEX
  5
538
330
537
100
AcDbEntity
  8
Livello 1
370
     5
100
AcDbVertex
100
AcDb2dVertex
 10
11.12854969423739
 20
8.107128658365411
 30
0.0
  0
VERTEX
  5
539
330
537
100
AcDbEntity
  8
Livello 1
370
     5
100
AcDbVertex
100
AcDb2dVertex
 10
11.12854969423739
 20
6.885106188832466
 30
0.0
  0
SEQEND
  5
53A
330
537
100
AcDbEntity
  8
Livello 1
370
     5
  0
POLYLINE
  5
53B
330
1F
100
AcDbEntity
  8
Livello 1
370
     5
100
AcDb2dPolyline
 66
     1
 10
0.0
 20
0.0
 30
0.0
  0
VERTEX
  5
53C
330
53B
100
AcDbEntity
  8
Livello 1
370
     5
100
AcDbVertex
100
AcDb2dVertex
 10
11.12854969423739
 20
10.50256007035746
 30
0.0
  0
VERTEX
  5
53D
330
53B
100
AcDbEntity
  8
Livello 1
370
     5
100
AcDbVertex
100
AcDb2dVertex
 10
11.12854969423739
 20
8.107198636867451
 30
0.0
  0
SEQEND
  5
53E
330
53B
100
AcDbEntity
  8
Livello 1
370
     5
  0
POLYLINE
  5
53F
330
1F
100
AcDbEntity
  8
Livello 1
370
     5
100
AcDb2dPolyline
 66
     1
 10
0.0
 20
0.0
 30
0.0
  0
VERTEX
  5
540
330
53F
100
AcDbEntity
  8
Livello 1
370
     5
100
AcDbVertex
100
AcDb2dVertex
 10
8.764374449331398
 20
6.797158014907651
 30
0.0
  0
VERTEX
  5
541
330
53F
100
AcDbEntity
  8
Livello 1
370
     5
100
AcDbVertex
100
AcDb2dVertex
 10
8.764374449331398
 20
5.956134845494418
 30
0.0
  0
SEQEND
  5
542
330
53F
100
AcDbEntity
  8
Livello 1
370
     5
  0
POLYLINE
  5
543
330
1F
100
AcDbEntity
  8
Livello 1
370
     5
100
AcDb2dPolyline
 66
     1
 10
0.0
 20
0.0
 30
0.0
  0
VERTEX
  5
544
330
543
100
AcDbEntity
  8
Livello 1
370
     5
100
AcDbVertex
100
AcDb2dVertex
 10
11.08307981679377
 20
6.836951559243161
 30
0.0
  0
VERTEX
  5
545
330
543
100
AcDbEntity
  8
Livello 1
370
     5
100
AcDbVertex
100
AcDb2dVertex
 10
11.08590048872227
 20
6.839773576912108
 30
0.0
  0
VERTEX
  5
546
330
543
100
AcDbEntity
  8
Livello 1
370
     5
100
AcDbVertex
100
AcDb2dVertex
 10
11.10000923132676
 20
6.839773576912108
 30
0.0
  0
VERTEX
  5
547
330
543
100
AcDbEntity
  8
Livello 1
370
     5
100
AcDbVertex
100
AcDb2dVertex
 10
11.10000923132676
 20
6.842595594581084
 30
0.0
  0
VERTEX
  5
548
330
543
100
AcDbEntity
  8
Livello 1
370
     5
100
AcDbVertex
100
AcDb2dVertex
 10
11.10565595814549
 20
6.842595594581084
 30
0.0
  0
VERTEX
  5
549
330
543
100
AcDbEntity
  8
Livello 1
370
     5
100
AcDbVertex
100
AcDb2dVertex
 10
11.10847663007408
 20
6.845417612250059
 30
0.0
  0
VERTEX
  5
54A
330
543
100
AcDbEntity
  8
Livello 1
370
     5
100
AcDbVertex
100
AcDb2dVertex
 10
11.1116525774745
 20
6.845417612250059
 30
0.0
  0
VERTEX
  5
54B
330
543
100
AcDbEntity
  8
Livello 1
370
     5
100
AcDbVertex
100
AcDb2dVertex
 10
11.1116525774745
 20
6.848239629919021
 30
0.0
  0
VERTEX
  5
54C
330
543
100
AcDbEntity
  8
Livello 1
370
     5
100
AcDbVertex
100
AcDb2dVertex
 10
11.11412335689289
 20
6.848239629919021
 30
0.0
  0
VERTEX
  5
54D
330
543
100
AcDbEntity
  8
Livello 1
370
     5
100
AcDbVertex
100
AcDb2dVertex
 10
11.11729392133159
 20
6.851061647588011
 30
0.0
  0
VERTEX
  5
54E
330
543
100
AcDbEntity
  8
Livello 1
370
     5
100
AcDbVertex
100
AcDb2dVertex
 10
11.1201199762219
 20
6.851061647588011
 30
0.0
  0
VERTEX
  5
54F
330
543
100
AcDbEntity
  8
Livello 1
370
     5
100
AcDbVertex
100
AcDb2dVertex
 10
11.1201199762219
 20
6.853883665256972
 30
0.0
  0
VERTEX
  5
550
330
543
100
AcDbEntity
  8
Livello 1
370
     5
100
AcDbVertex
100
AcDb2dVertex
 10
11.1229406481504
 20
6.856707028666377
 30
0.0
  0
VERTEX
  5
551
330
543
100
AcDbEntity
  8
Livello 1
370
     5
100
AcDbVertex
100
AcDb2dVertex
 10
11.1229406481504
 20
6.859529046335325
 30
0.0
  0
VERTEX
  5
552
330
543
100
AcDbEntity
  8
Livello 1
370
     5
100
AcDbVertex
100
AcDb2dVertex
 10
11.12576132007899
 20
6.859529046335325
 30
0.0
  0
VERTEX
  5
553
330
543
100
AcDbEntity
  8
Livello 1
370
     5
100
AcDbVertex
100
AcDb2dVertex
 10
11.12576132007899
 20
6.862351064004315
 30
0.0
  0
VERTEX
  5
554
330
543
100
AcDbEntity
  8
Livello 1
370
     5
100
AcDbVertex
100
AcDb2dVertex
 10
11.12858737496918
 20
6.865525665664335
 30
0.0
  0
VERTEX
  5
555
330
543
100
AcDbEntity
  8
Livello 1
370
     5
100
AcDbVertex
100
AcDb2dVertex
 10
11.12858737496918
 20
6.871169701002301
 30
0.0
  0
VERTEX
  5
556
330
543
100
AcDbEntity
  8
Livello 1
370
     5
100
AcDbVertex
100
AcDb2dVertex
 10
11.13140804689777
 20
6.871169701002301
 30
0.0
  0
VERTEX
  5
557
330
543
100
AcDbEntity
  8
Livello 1
370
     5
100
AcDbVertex
100
AcDb2dVertex
 10
11.13140804689777
 20
6.885281135087581
 30
0.0
  0
SEQEND
  5
558
330
543
100
AcDbEntity
  8
Livello 1
370
     5
  0
POLYLINE
  5
559
330
1F
100
AcDbEntity
  8
Livello 1
370
     5
100
AcDb2dPolyline
 66
     1
 10
0.0
 20
0.0
 30
0.0
  0
VERTEX
  5
55A
330
559
100
AcDbEntity
  8
Livello 1
370
     5
100
AcDbVertex
100
AcDb2dVertex
 10
11.12854969423739
 20
10.50538208802642
 30
0.0
  0
VERTEX
  5
55B
330
559
100
AcDbEntity
  8
Livello 1
370
     5
100
AcDbVertex
100
AcDb2dVertex
 10
11.12854969423739
 20
10.50255872461701
 30
0.0
  0
SEQEND
  5
55C
330
559
100
AcDbEntity
  8
Livello 1
370
     5
  0
POLYLINE
  5
55D
330
1F
100
AcDbEntity
  8
Livello 1
370
     5
100
AcDb2dPolyline
 66
     1
 10
0.0
 20
0.0
 30
0.0
  0
VERTEX
  5
55E
330
55D
100
AcDbEntity
  8
Livello 1
370
     5
100
AcDbVertex
100
AcDb2dVertex
 10
0.1487989153931721
 20
7.541625654644619
 30
0.0
  0
VERTEX
  5
55F
330
55D
100
AcDbEntity
  8
Livello 1
370
     5
100
AcDbVertex
100
AcDb2dVertex
 10
0.1516195873217896
 20
7.541625654644619
 30
0.0
  0
VERTEX
  5
560
330
55D
100
AcDbEntity
  8
Livello 1
370
     5
100
AcDbVertex
100
AcDb2dVertex
 10
0.1516195873217896
 20
7.524692202890392
 30
0.0
  0
VERTEX
  5
561
330
55D
100
AcDbEntity
  8
Livello 1
370
     5
100
AcDbVertex
100
AcDb2dVertex
 10
0.1544402592502934
 20
7.521868839480987
 30
0.0
  0
VERTEX
  5
562
330
55D
100
AcDbEntity
  8
Livello 1
370
     5
100
AcDbVertex
100
AcDb2dVertex
 10
0.1544402592502934
 20
7.516224804143035
 30
0.0
  0
VERTEX
  5
563
330
55D
100
AcDbEntity
  8
Livello 1
370
     5
100
AcDbVertex
100
AcDb2dVertex
 10
0.1572609311788824
 20
7.513050202482972
 30
0.0
  0
VERTEX
  5
564
330
55D
100
AcDbEntity
  8
Livello 1
370
     5
100
AcDbVertex
100
AcDb2dVertex
 10
0.1572609311788824
 20
7.51058076880507
 30
0.0
  0
VERTEX
  5
565
330
55D
100
AcDbEntity
  8
Livello 1
370
     5
100
AcDbVertex
100
AcDb2dVertex
 10
0.160086986069075
 20
7.507406167145049
 30
0.0
  0
VERTEX
  5
566
330
55D
100
AcDbEntity
  8
Livello 1
370
     5
100
AcDbVertex
100
AcDb2dVertex
 10
0.160086986069075
 20
7.504582803735672
 30
0.0
  0
VERTEX
  5
567
330
55D
100
AcDbEntity
  8
Livello 1
370
     5
100
AcDbVertex
100
AcDb2dVertex
 10
0.162907657997664
 20
7.504582803735672
 30
0.0
  0
VERTEX
  5
568
330
55D
100
AcDbEntity
  8
Livello 1
370
     5
100
AcDbVertex
100
AcDb2dVertex
 10
0.162907657997664
 20
7.498938768397678
 30
0.0
  0
VERTEX
  5
569
330
55D
100
AcDbEntity
  8
Livello 1
370
     5
100
AcDbVertex
100
AcDb2dVertex
 10
0.1657283299261678
 20
7.498938768397678
 30
0.0
  0
VERTEX
  5
56A
330
55D
100
AcDbEntity
  8
Livello 1
370
     5
100
AcDbVertex
100
AcDb2dVertex
 10
0.1657283299261678
 20
7.496116750728731
 30
0.0
  0
VERTEX
  5
56B
330
55D
100
AcDbEntity
  8
Livello 1
370
     5
100
AcDbVertex
100
AcDb2dVertex
 10
0.1685543848164741
 20
7.496116750728731
 30
0.0
  0
VERTEX
  5
56C
330
55D
100
AcDbEntity
  8
Livello 1
370
     5
100
AcDbVertex
100
AcDb2dVertex
 10
0.1685543848164741
 20
7.493294733059784
 30
0.0
  0
VERTEX
  5
56D
330
55D
100
AcDbEntity
  8
Livello 1
370
     5
100
AcDbVertex
100
AcDb2dVertex
 10
0.1713750567449779
 20
7.493294733059784
 30
0.0
  0
VERTEX
  5
56E
330
55D
100
AcDbEntity
  8
Livello 1
370
     5
100
AcDbVertex
100
AcDb2dVertex
 10
0.1713750567449779
 20
7.490472715390765
 30
0.0
  0
VERTEX
  5
56F
330
55D
100
AcDbEntity
  8
Livello 1
370
     5
100
AcDbVertex
100
AcDb2dVertex
 10
0.1741957286735669
 20
7.490472715390765
 30
0.0
  0
VERTEX
  5
570
330
55D
100
AcDbEntity
  8
Livello 1
370
     5
100
AcDbVertex
100
AcDb2dVertex
 10
0.1741957286735669
 20
7.487649351981389
 30
0.0
  0
VERTEX
  5
571
330
55D
100
AcDbEntity
  8
Livello 1
370
     5
100
AcDbVertex
100
AcDb2dVertex
 10
0.1773716760739887
 20
7.487649351981389
 30
0.0
  0
VERTEX
  5
572
330
55D
100
AcDbEntity
  8
Livello 1
370
     5
100
AcDbVertex
100
AcDb2dVertex
 10
0.1773716760739887
 20
7.484827334312413
 30
0.0
  0
VERTEX
  5
573
330
55D
100
AcDbEntity
  8
Livello 1
370
     5
100
AcDbVertex
100
AcDb2dVertex
 10
0.1801923480025778
 20
7.484827334312413
 30
0.0
  0
VERTEX
  5
574
330
55D
100
AcDbEntity
  8
Livello 1
370
     5
100
AcDbVertex
100
AcDb2dVertex
 10
0.1801923480025778
 20
7.482005316643466
 30
0.0
  0
VERTEX
  5
575
330
55D
100
AcDbEntity
  8
Livello 1
370
     5
100
AcDbVertex
100
AcDb2dVertex
 10
0.1858390748213026
 20
7.482005316643466
 30
0.0
  0
VERTEX
  5
576
330
55D
100
AcDbEntity
  8
Livello 1
370
     5
100
AcDbVertex
100
AcDb2dVertex
 10
0.1858390748213026
 20
7.479183298974461
 30
0.0
  0
VERTEX
  5
577
330
55D
100
AcDbEntity
  8
Livello 1
370
     5
100
AcDbVertex
100
AcDb2dVertex
 10
0.1886597467498916
 20
7.479183298974461
 30
0.0
  0
VERTEX
  5
578
330
55D
100
AcDbEntity
  8
Livello 1
370
     5
100
AcDbVertex
100
AcDb2dVertex
 10
0.1914804186783954
 20
7.476361281305514
 30
0.0
  0
VERTEX
  5
579
330
55D
100
AcDbEntity
  8
Livello 1
370
     5
100
AcDbVertex
100
AcDb2dVertex
 10
0.1943064735686732
 20
7.476361281305514
 30
0.0
  0
VERTEX
  5
57A
330
55D
100
AcDbEntity
  8
Livello 1
370
     5
100
AcDbVertex
100
AcDb2dVertex
 10
0.1971271454972907
 20
7.473539263636538
 30
0.0
  0
VERTEX
  5
57B
330
55D
100
AcDbEntity
  8
Livello 1
370
     5
100
AcDbVertex
100
AcDb2dVertex
 10
0.2027738723159871
 20
7.473539263636538
 30
0.0
  0
VERTEX
  5
57C
330
55D
100
AcDbEntity
  8
Livello 1
370
     5
100
AcDbVertex
100
AcDb2dVertex
 10
0.2055945442445761
 20
7.470717245967549
 30
0.0
  0
VERTEX
  5
57D
330
55D
100
AcDbEntity
  8
Livello 1
370
     5
100
AcDbVertex
100
AcDb2dVertex
 10
0.2225293417391754
 20
7.470717245967549
 30
0.0
  0
VERTEX
  5
57E
330
55D
100
AcDbEntity
  8
Livello 1
370
     5
100
AcDbVertex
100
AcDb2dVertex
 10
0.2225293417391754
 20
7.467893882558172
 30
0.0
  0
SEQEND
  5
57F
330
55D
100
AcDbEntity
  8
Livello 1
370
     5
  0
POLYLINE
  5
580
330
1F
100
AcDbEntity
  8
Livello 1
370
     5
100
AcDb2dPolyline
 66
     1
 10
0.0
 20
0.0
 30
0.0
  0
VERTEX
  5
581
330
580
100
AcDbEntity
  8
Livello 1
370
     5
100
AcDbVertex
100
AcDb2dVertex
 10
0.1487989153931721
 20
7.541625654644619
 30
0.0
  0
VERTEX
  5
582
330
580
100
AcDbEntity
  8
Livello 1
370
     5
100
AcDbVertex
100
AcDb2dVertex
 10
0.1346847898270767
 20
8.132528163126593
 30
0.0
  0
SEQEND
  5
583
330
580
100
AcDbEntity
  8
Livello 1
370
     5
  0
POLYLINE
  5
584
330
1F
100
AcDbEntity
  8
Livello 1
370
     5
100
AcDb2dPolyline
 66
     1
 10
0.0
 20
0.0
 30
0.0
  0
VERTEX
  5
585
330
584
100
AcDbEntity
  8
Livello 1
370
     5
100
AcDbVertex
100
AcDb2dVertex
 10
8.716046219227365
 20
5.913450650728336
 30
0.0
  0
VERTEX
  5
586
330
584
100
AcDbEntity
  8
Livello 1
370
     5
100
AcDbVertex
100
AcDb2dVertex
 10
8.718866891155983
 20
5.910627287318959
 30
0.0
  0
SEQEND
  5
587
330
584
100
AcDbEntity
  8
Livello 1
370
     5
  0
POLYLINE
  5
588
330
1F
100
AcDbEntity
  8
Livello 1
370
     5
100
AcDb2dPolyline
 66
     1
 10
0.0
 20
0.0
 30
0.0
  0
VERTEX
  5
589
330
588
100
AcDbEntity
  8
Livello 1
370
     5
100
AcDbVertex
100
AcDb2dVertex
 10
0.7256640055131811
 20
7.325689491961952
 30
0.0
  0
VERTEX
  5
58A
330
588
100
AcDbEntity
  8
Livello 1
370
     5
100
AcDbVertex
100
AcDb2dVertex
 10
0.731305349370274
 20
7.328511509630899
 30
0.0
  0
SEQEND
  5
58B
330
588
100
AcDbEntity
  8
Livello 1
370
     5
  0
POLYLINE
  5
58C
330
1F
100
AcDbEntity
  8
Livello 1
370
     5
100
AcDb2dPolyline
 66
     1
 10
0.0
 20
0.0
 30
0.0
  0
VERTEX
  5
58D
330
58C
100
AcDbEntity
  8
Livello 1
370
     5
100
AcDbVertex
100
AcDb2dVertex
 10
7.789719255822376
 20
5.973139621491156
 30
0.0
  0
VERTEX
  5
58E
330
58C
100
AcDbEntity
  8
Livello 1
370
     5
100
AcDbVertex
100
AcDb2dVertex
 10
7.789719255822376
 20
8.223508290226533
 30
0.0
  0
SEQEND
  5
58F
330
58C
100
AcDbEntity
  8
Livello 1
370
     5
  0
POLYLINE
  5
590
330
1F
100
AcDbEntity
  8
Livello 1
370
     5
100
AcDb2dPolyline
 66
     1
 10
0.0
 20
0.0
 30
0.0
  0
VERTEX
  5
591
330
590
100
AcDbEntity
  8
Livello 1
370
     5
100
AcDbVertex
100
AcDb2dVertex
 10
8.113676656593185
 20
6.785834954980742
 30
0.0
  0
VERTEX
  5
592
330
590
100
AcDbEntity
  8
Livello 1
370
     5
100
AcDbVertex
100
AcDb2dVertex
 10
8.110850601702992
 20
6.785834954980742
 30
0.0
  0
SEQEND
  5
593
330
590
100
AcDbEntity
  8
Livello 1
370
     5
  0
POLYLINE
  5
594
330
1F
100
AcDbEntity
  8
Livello 1
370
     5
100
AcDb2dPolyline
 66
     1
 10
0.0
 20
0.0
 30
0.0
  0
VERTEX
  5
595
330
594
100
AcDbEntity
  8
Livello 1
370
     5
100
AcDbVertex
100
AcDb2dVertex
 10
7.789719255822376
 20
6.785834954980742
 30
0.0
  0
VERTEX
  5
596
330
594
100
AcDbEntity
  8
Livello 1
370
     5
100
AcDbVertex
100
AcDb2dVertex
 10
10.40415377292316
 20
6.825698477818249
 30
0.0
  0
SEQEND
  5
597
330
594
100
AcDbEntity
  8
Livello 1
370
     5
  0
POLYLINE
  5
598
330
1F
100
AcDbEntity
  8
Livello 1
370
     5
100
AcDb2dPolyline
 66
     1
 10
0.0
 20
0.0
 30
0.0
  0
VERTEX
  5
599
330
598
100
AcDbEntity
  8
Livello 1
370
     5
100
AcDbVertex
100
AcDb2dVertex
 10
10.94101269172077
 20
8.229329963300415
 30
0.0
  0
VERTEX
  5
59A
330
598
100
AcDbEntity
  8
Livello 1
370
     5
100
AcDbVertex
100
AcDb2dVertex
 10
7.789643894358675
 20
8.28330492022323
 30
0.0
  0
SEQEND
  5
59B
330
598
100
AcDbEntity
  8
Livello 1
370
     5
  0
POLYLINE
  5
59C
330
1F
100
AcDbEntity
  8
Livello 1
370
     5
100
AcDb2dPolyline
 66
     1
 10
0.0
 20
0.0
 30
0.0
  0
VERTEX
  5
59D
330
59C
100
AcDbEntity
  8
Livello 1
370
     5
100
AcDbVertex
100
AcDb2dVertex
 10
10.94101269172077
 20
8.229329963300415
 30
0.0
  0
VERTEX
  5
59E
330
59C
100
AcDbEntity
  8
Livello 1
370
     5
100
AcDbVertex
100
AcDb2dVertex
 10
11.13151032316997
 20
8.229329963300415
 30
0.0
  0
SEQEND
  5
59F
330
59C
100
AcDbEntity
  8
Livello 1
370
     5
  0
SPLINE
  5
5A0
330
1F
100
AcDbEntity
  8
Livello 1
370
     5
100
AcDbSpline
210
0.0
220
0.0
230
1.0
 70
     8
 71
     3
 72
    20
 73
    16
 74
     0
 42
0.000000001
 43
0.0000000001
 40
0.0
 40
0.0
 40
0.0
 40
0.0
 40
1.0
 40
1.0
 40
1.0
 40
2.0
 40
2.0
 40
2.0
 40
3.0
 40
3.0
 40
3.0
 40
4.0
 40
4.0
 40
4.0
 40
5.0
 40
5.0
 40
5.0
 40
5.0
 10
7.195817091935481
 20
5.919129675317321
 30
0.0
 10
7.195817091935481
 20
5.919129675317321
 30
0.0
 10
7.195817091935481
 20
5.905018241232028
 30
0.0
 10
7.195817091935481
 20
5.905018241232028
 30
0.0
 10
7.195817091935481
 20
5.905018241232028
 30
0.0
 10
7.269897410791799
 20
5.905018241232028
 30
0.0
 10
7.269897410791799
 20
5.905018241232028
 30
0.0
 10
7.446991467618687
 20
5.908545426883151
 30
0.0
 10
7.623735631935375
 20
5.90925059486527
 30
0.0
 10
7.801179581272492
 20
5.902196223563052
 30
0.0
 10
7.801179581272492
 20
5.902196223563052
 30
0.0
 10
7.804005636162798
 20
5.902196223563052
 30
0.0
 10
7.804005636162798
 20
5.902196223563052
 30
0.0
 10
7.804005636162798
 20
5.902196223563052
 30
0.0
 10
8.718753848960375
 20
5.910662276569965
 30
0.0
 10
8.718753848960375
 20
5.910662276569965
 30
0.0
  0
POLYLINE
  5
5A1
330
1F
100
AcDbEntity
  8
Livello 1
370
     5
100
AcDb2dPolyline
 66
     1
 10
0.0
 20
0.0
 30
0.0
  0
VERTEX
  5
5A2
330
5A1
100
AcDbEntity
  8
Livello 1
370
     5
100
AcDbVertex
100
AcDb2dVertex
 10
10.49488897526598
 20
6.82841418199375
 30
0.0
  0
VERTEX
  5
5A3
330
5A1
100
AcDbEntity
  8
Livello 1
370
     5
100
AcDbVertex
100
AcDb2dVertex
 10
10.45220208901906
 20
6.82841418199375
 30
0.0
  0
VERTEX
  5
5A4
330
5A1
100
AcDbEntity
  8
Livello 1
370
     5
100
AcDbVertex
100
AcDb2dVertex
 10
10.4296205647056
 20
6.825590818584359
 30
0.0
  0
VERTEX
  5
5A5
330
5A1
100
AcDbEntity
  8
Livello 1
370
     5
100
AcDbVertex
100
AcDb2dVertex
 10
10.4038684759534
 20
6.825590818584359
 30
0.0
  0
SEQEND
  5
5A6
330
5A1
100
AcDbEntity
  8
Livello 1
370
     5
  0
POLYLINE
  5
5A7
330
1F
100
AcDbEntity
  8
Livello 1
370
     5
100
AcDb2dPolyline
 66
     1
 10
0.0
 20
0.0
 30
0.0
  0
VERTEX
  5
5A8
330
5A7
100
AcDbEntity
  8
Livello 1
370
     5
100
AcDbVertex
100
AcDb2dVertex
 10
8.764374449331398
 20
5.956101201983827
 30
0.0
  0
VERTEX
  5
5A9
330
5A7
100
AcDbEntity
  8
Livello 1
370
     5
100
AcDbVertex
100
AcDb2dVertex
 10
8.764374449331398
 20
5.947633803236513
 30
0.0
  0
VERTEX
  5
5AA
330
5A7
100
AcDbEntity
  8
Livello 1
370
     5
100
AcDbVertex
100
AcDb2dVertex
 10
8.758727722512674
 20
5.933522369151219
 30
0.0
  0
VERTEX
  5
5AB
330
5A7
100
AcDbEntity
  8
Livello 1
370
     5
100
AcDbVertex
100
AcDb2dVertex
 10
8.747439651836771
 20
5.921881714484243
 30
0.0
  0
VERTEX
  5
5AC
330
5A7
100
AcDbEntity
  8
Livello 1
370
     5
100
AcDbVertex
100
AcDb2dVertex
 10
8.732975633760389
 20
5.913414315736901
 30
0.0
  0
VERTEX
  5
5AD
330
5A7
100
AcDbEntity
  8
Livello 1
370
     5
100
AcDbVertex
100
AcDb2dVertex
 10
8.718861508194294
 20
5.910592298067939
 30
0.0
  0
SEQEND
  5
5AE
330
5A7
100
AcDbEntity
  8
Livello 1
370
     5
  0
SPLINE
  5
5AF
330
1F
100
AcDbEntity
  8
Livello 1
370
     5
100
AcDbSpline
210
0.0
220
0.0
230
1.0
 70
     8
 71
     3
 72
    14
 73
    10
 74
     0
 42
0.000000001
 43
0.0000000001
 40
0.0
 40
0.0
 40
0.0
 40
0.0
 40
1.0
 40
1.0
 40
1.0
 40
2.0
 40
2.0
 40
2.0
 40
3.0
 40
3.0
 40
3.0
 40
3.0
 10
10.49488897526598
 20
6.82841418199375
 30
0.0
 10
10.49488897526598
 20
6.82841418199375
 30
0.0
 10
10.58872476354548
 20
6.82841418199375
 30
0.0
 10
10.58872476354548
 20
6.82841418199375
 30
0.0
 10
10.74923929834966
 20
6.83123619966274
 30
0.0
 10
10.91116416911808
 20
6.837585402982824
 30
0.0
 10
11.07167870392228
 20
6.836880235000663
 30
0.0
 10
11.07167870392228
 20
6.836880235000663
 30
0.0
 10
11.08296677459816
 20
6.836880235000663
 30
0.0
 10
11.08296677459816
 20
6.836880235000663
 30
0.0
  0
POLYLINE
  5
5B0
330
1F
100
AcDbEntity
  8
Livello 1
370
     5
100
AcDb2dPolyline
 66
     1
 10
0.0
 20
0.0
 30
0.0
  0
VERTEX
  5
5B1
330
5B0
100
AcDbEntity
  8
Livello 1
370
     5
100
AcDbVertex
100
AcDb2dVertex
 10
7.789719255822376
 20
8.868669706860742
 30
0.0
  0
VERTEX
  5
5B2
330
5B0
100
AcDbEntity
  8
Livello 1
370
     5
100
AcDbVertex
100
AcDb2dVertex
 10
7.789719255822376
 20
8.428402652730895
 30
0.0
  0
SEQEND
  5
5B3
330
5B0
100
AcDbEntity
  8
Livello 1
370
     5
  0
POLYLINE
  5
5B4
330
1F
100
AcDbEntity
  8
Livello 1
370
     5
100
AcDb2dPolyline
 66
     1
 10
0.0
 20
0.0
 30
0.0
  0
VERTEX
  5
5B5
330
5B4
100
AcDbEntity
  8
Livello 1
370
     5
100
AcDbVertex
100
AcDb2dVertex
 10
7.789719255822376
 20
10.54799765003086
 30
0.0
  0
VERTEX
  5
5B6
330
5B4
100
AcDbEntity
  8
Livello 1
370
     5
100
AcDbVertex
100
AcDb2dVertex
 10
7.789719255822376
 20
9.346083233912224
 30
0.0
  0
SEQEND
  5
5B7
330
5B4
100
AcDbEntity
  8
Livello 1
370
     5
  0
POLYLINE
  5
5B8
330
1F
100
AcDbEntity
  8
Livello 1
370
     5
100
AcDb2dPolyline
 66
     1
 10
0.0
 20
0.0
 30
0.0
  0
VERTEX
  5
5B9
330
5B8
100
AcDbEntity
  8
Livello 1
370
     5
100
AcDbVertex
100
AcDb2dVertex
 10
7.789719255822376
 20
8.294664315141588
 30
0.0
  0
VERTEX
  5
5BA
330
5B8
100
AcDbEntity
  8
Livello 1
370
     5
100
AcDbVertex
100
AcDb2dVertex
 10
7.789719255822376
 20
8.28337489872527
 30
0.0
  0
SEQEND
  5
5BB
330
5B8
100
AcDbEntity
  8
Livello 1
370
     5
  0
POLYLINE
  5
5BC
330
1F
100
AcDbEntity
  8
Livello 1
370
     5
100
AcDb2dPolyline
 66
     1
 10
0.0
 20
0.0
 30
0.0
  0
VERTEX
  5
5BD
330
5BC
100
AcDbEntity
  8
Livello 1
370
     5
100
AcDbVertex
100
AcDb2dVertex
 10
8.363688312550067
 20
10.68441670254464
 30
0.0
  0
VERTEX
  5
5BE
330
5BC
100
AcDbEntity
  8
Livello 1
370
     5
100
AcDbVertex
100
AcDb2dVertex
 10
8.363688312550067
 20
10.68159333913526
 30
0.0
  0
SEQEND
  5
5BF
330
5BC
100
AcDbEntity
  8
Livello 1
370
     5
  0
POLYLINE
  5
5C0
330
1F
100
AcDbEntity
  8
Livello 1
370
     5
100
AcDb2dPolyline
 66
     1
 10
0.0
 20
0.0
 30
0.0
  0
VERTEX
  5
5C1
330
5C0
100
AcDbEntity
  8
Livello 1
370
     5
100
AcDbVertex
100
AcDb2dVertex
 10
8.363688312550067
 20
10.68441670254464
 30
0.0
  0
VERTEX
  5
5C2
330
5C0
100
AcDbEntity
  8
Livello 1
370
     5
100
AcDbVertex
100
AcDb2dVertex
 10
7.789713872860659
 20
10.69570477322052
 30
0.0
  0
SEQEND
  5
5C3
330
5C0
100
AcDbEntity
  8
Livello 1
370
     5
  0
POLYLINE
  5
5C4
330
1F
100
AcDbEntity
  8
Livello 1
370
     5
100
AcDb2dPolyline
 66
     1
 10
0.0
 20
0.0
 30
0.0
  0
VERTEX
  5
5C5
330
5C4
100
AcDbEntity
  8
Livello 1
370
     5
100
AcDbVertex
100
AcDb2dVertex
 10
10.97791289414476
 20
10.63608578095977
 30
0.0
  0
VERTEX
  5
5C6
330
5C4
100
AcDbEntity
  8
Livello 1
370
     5
100
AcDbVertex
100
AcDb2dVertex
 10
10.96661944050717
 20
10.63608578095977
 30
0.0
  0
VERTEX
  5
5C7
330
5C4
100
AcDbEntity
  8
Livello 1
370
     5
100
AcDbVertex
100
AcDb2dVertex
 10
10.95533136983127
 20
10.63326241755038
 30
0.0
  0
VERTEX
  5
5C8
330
5C4
100
AcDbEntity
  8
Livello 1
370
     5
100
AcDbVertex
100
AcDb2dVertex
 10
10.940867351755
 20
10.63326241755038
 30
0.0
  0
SEQEND
  5
5C9
330
5C4
100
AcDbEntity
  8
Livello 1
370
     5
  0
POLYLINE
  5
5CA
330
1F
100
AcDbEntity
  8
Livello 1
370
     5
100
AcDb2dPolyline
 66
     1
 10
0.0
 20
0.0
 30
0.0
  0
VERTEX
  5
5CB
330
5CA
100
AcDbEntity
  8
Livello 1
370
     5
100
AcDbVertex
100
AcDb2dVertex
 10
8.363688312550067
 20
10.68155969562464
 30
0.0
  0
VERTEX
  5
5CC
330
5CA
100
AcDbEntity
  8
Livello 1
370
     5
100
AcDbVertex
100
AcDb2dVertex
 10
10.97776755417899
 20
10.63605079170875
 30
0.0
  0
SEQEND
  5
5CD
330
5CA
100
AcDbEntity
  8
Livello 1
370
     5
  0
POLYLINE
  5
5CE
330
1F
100
AcDbEntity
  8
Livello 1
370
     5
100
AcDb2dPolyline
 66
     1
 10
0.0
 20
0.0
 30
0.0
  0
VERTEX
  5
5CF
330
5CE
100
AcDbEntity
  8
Livello 1
370
     5
100
AcDbVertex
100
AcDb2dVertex
 10
7.789719255822376
 20
10.68723872021361
 30
0.0
  0
VERTEX
  5
5D0
330
5CE
100
AcDbEntity
  8
Livello 1
370
     5
100
AcDbVertex
100
AcDb2dVertex
 10
7.789719255822376
 20
10.69570477322052
 30
0.0
  0
SEQEND
  5
5D1
330
5CE
100
AcDbEntity
  8
Livello 1
370
     5
  0
POLYLINE
  5
5D2
330
1F
100
AcDbEntity
  8
Livello 1
370
     5
100
AcDb2dPolyline
 66
     1
 10
0.0
 20
0.0
 30
0.0
  0
VERTEX
  5
5D3
330
5D2
100
AcDbEntity
  8
Livello 1
370
     5
100
AcDbVertex
100
AcDb2dVertex
 10
11.02338815455008
 20
10.63608578095977
 30
0.0
  0
VERTEX
  5
5D4
330
5D2
100
AcDbEntity
  8
Livello 1
370
     5
100
AcDbVertex
100
AcDb2dVertex
 10
11.06324898590677
 20
10.61068493045818
 30
0.0
  0
VERTEX
  5
5D5
330
5D2
100
AcDbEntity
  8
Livello 1
370
     5
100
AcDbVertex
100
AcDb2dVertex
 10
11.09429252600588
 20
10.57646544295858
 30
0.0
  0
VERTEX
  5
5D6
330
5D2
100
AcDbEntity
  8
Livello 1
370
     5
100
AcDbVertex
100
AcDb2dVertex
 10
11.11158259897249
 20
10.53377990245209
 30
0.0
  0
VERTEX
  5
5D7
330
5D2
100
AcDbEntity
  8
Livello 1
370
     5
100
AcDbVertex
100
AcDb2dVertex
 10
11.11440327090108
 20
10.50520445029046
 30
0.0
  0
SEQEND
  5
5D8
330
5D2
100
AcDbEntity
  8
Livello 1
370
     5
  0
POLYLINE
  5
5D9
330
1F
100
AcDbEntity
  8
Livello 1
370
     5
100
AcDb2dPolyline
 66
     1
 10
0.0
 20
0.0
 30
0.0
  0
VERTEX
  5
5DA
330
5D9
100
AcDbEntity
  8
Livello 1
370
     5
100
AcDbVertex
100
AcDb2dVertex
 10
11.12854969423739
 20
10.50538208802642
 30
0.0
  0
VERTEX
  5
5DB
330
5D9
100
AcDbEntity
  8
Livello 1
370
     5
100
AcDbVertex
100
AcDb2dVertex
 10
11.11443556867118
 20
10.50538208802642
 30
0.0
  0
VERTEX
  5
5DC
330
5D9
100
AcDbEntity
  8
Livello 1
370
     5
100
AcDbVertex
100
AcDb2dVertex
 10
11.10314749799539
 20
10.55088964620189
 30
0.0
  0
VERTEX
  5
5DD
330
5D9
100
AcDbEntity
  8
Livello 1
370
     5
100
AcDbVertex
100
AcDb2dVertex
 10
11.08021608117167
 20
10.59075316903941
 30
0.0
  0
VERTEX
  5
5DE
330
5D9
100
AcDbEntity
  8
Livello 1
370
     5
100
AcDbVertex
100
AcDb2dVertex
 10
11.04317592174348
 20
10.61897603720997
 30
0.0
  0
VERTEX
  5
5DF
330
5D9
100
AcDbEntity
  8
Livello 1
370
     5
100
AcDbVertex
100
AcDb2dVertex
 10
10.99766836356809
 20
10.63308747129525
 30
0.0
  0
VERTEX
  5
5E0
330
5D9
100
AcDbEntity
  8
Livello 1
370
     5
100
AcDbVertex
100
AcDb2dVertex
 10
10.97791289414476
 20
10.63626207295529
 30
0.0
  0
SEQEND
  5
5E1
330
5D9
100
AcDbEntity
  8
Livello 1
370
     5
  0
POLYLINE
  5
5E2
330
1F
100
AcDbEntity
  8
Livello 1
370
     5
100
AcDb2dPolyline
 66
     1
 10
0.0
 20
0.0
 30
0.0
  0
VERTEX
  5
5E3
330
5E2
100
AcDbEntity
  8
Livello 1
370
     5
100
AcDbVertex
100
AcDb2dVertex
 10
11.02338815455008
 20
10.63608578095977
 30
0.0
  0
VERTEX
  5
5E4
330
5E2
100
AcDbEntity
  8
Livello 1
370
     5
100
AcDbVertex
100
AcDb2dVertex
 10
10.97787521341297
 20
10.63608578095977
 30
0.0
  0
SEQEND
  5
5E5
330
5E2
100
AcDbEntity
  8
Livello 1
370
     5
  0
POLYLINE
  5
5E6
330
1F
100
AcDbEntity
  8
Livello 1
370
     5
100
AcDb2dPolyline
 66
     1
 10
0.0
 20
0.0
 30
0.0
  0
VERTEX
  5
5E7
330
5E6
100
AcDbEntity
  8
Livello 1
370
     5
100
AcDbVertex
100
AcDb2dVertex
 10
4.695296810239085
 20
11.25556374160338
 30
0.0
  0
VERTEX
  5
5E8
330
5E6
100
AcDbEntity
  8
Livello 1
370
     5
100
AcDbVertex
100
AcDb2dVertex
 10
4.669539338525169
 20
11.30389331744783
 30
0.0
  0
SEQEND
  5
5E9
330
5E6
100
AcDbEntity
  8
Livello 1
370
     5
  0
POLYLINE
  5
5EA
330
1F
100
AcDbEntity
  8
Livello 1
370
     5
100
AcDb2dPolyline
 66
     1
 10
0.0
 20
0.0
 30
0.0
  0
VERTEX
  5
5EB
330
5EA
100
AcDbEntity
  8
Livello 1
370
     5
100
AcDbVertex
100
AcDb2dVertex
 10
4.879975460095266
 20
11.36069163778003
 30
0.0
  0
VERTEX
  5
5EC
330
5EA
100
AcDbEntity
  8
Livello 1
370
     5
100
AcDbVertex
100
AcDb2dVertex
 10
4.695119172503183
 20
11.25556374160338
 30
0.0
  0
SEQEND
  5
5ED
330
5EA
100
AcDbEntity
  8
Livello 1
370
     5
  0
POLYLINE
  5
5EE
330
1F
100
AcDbEntity
  8
Livello 1
370
     5
100
AcDb2dPolyline
 66
     1
 10
0.0
 20
0.0
 30
0.0
  0
VERTEX
  5
5EF
330
5EE
100
AcDbEntity
  8
Livello 1
370
     5
100
AcDbVertex
100
AcDb2dVertex
 10
5.010679153028661
 20
11.36069163778003
 30
0.0
  0
VERTEX
  5
5F0
330
5EE
100
AcDbEntity
  8
Livello 1
370
     5
100
AcDbVertex
100
AcDb2dVertex
 10
4.99091830064367
 20
11.37197970845591
 30
0.0
  0
VERTEX
  5
5F1
330
5EE
100
AcDbEntity
  8
Livello 1
370
     5
100
AcDbVertex
100
AcDb2dVertex
 10
4.967992266781692
 20
11.37762374379386
 30
0.0
  0
VERTEX
  5
5F2
330
5EE
100
AcDbEntity
  8
Livello 1
370
     5
100
AcDbVertex
100
AcDb2dVertex
 10
4.922484708606276
 20
11.37762374379386
 30
0.0
  0
VERTEX
  5
5F3
330
5EE
100
AcDbEntity
  8
Livello 1
370
     5
100
AcDbVertex
100
AcDb2dVertex
 10
4.902723856221285
 20
11.37197970845591
 30
0.0
  0
VERTEX
  5
5F4
330
5EE
100
AcDbEntity
  8
Livello 1
370
     5
100
AcDbVertex
100
AcDb2dVertex
 10
4.879797822359392
 20
11.36069163778003
 30
0.0
  0
SEQEND
  5
5F5
330
5EE
100
AcDbEntity
  8
Livello 1
370
     5
  0
POLYLINE
  5
5F6
330
1F
100
AcDbEntity
  8
Livello 1
370
     5
100
AcDb2dPolyline
 66
     1
 10
0.0
 20
0.0
 30
0.0
  0
VERTEX
  5
5F7
330
5F6
100
AcDbEntity
  8
Livello 1
370
     5
100
AcDbVertex
100
AcDb2dVertex
 10
5.039111956705397
 20
11.4090225593649
 30
0.0
  0
VERTEX
  5
5F8
330
5F6
100
AcDbEntity
  8
Livello 1
370
     5
100
AcDbVertex
100
AcDb2dVertex
 10
5.002066414315493
 20
11.42595466537874
 30
0.0
  0
VERTEX
  5
5F9
330
5F6
100
AcDbEntity
  8
Livello 1
370
     5
100
AcDbVertex
100
AcDb2dVertex
 10
4.965376147397591
 20
11.43160004645709
 30
0.0
  0
VERTEX
  5
5FA
330
5F6
100
AcDbEntity
  8
Livello 1
370
     5
100
AcDbVertex
100
AcDb2dVertex
 10
4.925515316040872
 20
11.43160004645709
 30
0.0
  0
VERTEX
  5
5FB
330
5F6
100
AcDbEntity
  8
Livello 1
370
     5
100
AcDbVertex
100
AcDb2dVertex
 10
4.888475156612798
 20
11.42595466537874
 30
0.0
  0
VERTEX
  5
5FC
330
5F6
100
AcDbEntity
  8
Livello 1
370
     5
100
AcDbVertex
100
AcDb2dVertex
 10
4.854255669113172
 20
11.4090225593649
 30
0.0
  0
SEQEND
  5
5FD
330
5F6
100
AcDbEntity
  8
Livello 1
370
     5
  0
POLYLINE
  5
5FE
330
1F
100
AcDbEntity
  8
Livello 1
370
     5
100
AcDb2dPolyline
 66
     1
 10
0.0
 20
0.0
 30
0.0
  0
VERTEX
  5
5FF
330
5FE
100
AcDbEntity
  8
Livello 1
370
     5
100
AcDbVertex
100
AcDb2dVertex
 10
4.669684678490995
 20
11.30385967393721
 30
0.0
  0
VERTEX
  5
600
330
5FE
100
AcDbEntity
  8
Livello 1
370
     5
100
AcDbVertex
100
AcDb2dVertex
 10
4.854535583121389
 20
11.40898622437346
 30
0.0
  0
SEQEND
  5
601
330
5FE
100
AcDbEntity
  8
Livello 1
370
     5
  0
POLYLINE
  5
602
330
1F
100
AcDbEntity
  8
Livello 1
370
     5
100
AcDb2dPolyline
 66
     1
 10
0.0
 20
0.0
 30
0.0
  0
VERTEX
  5
603
330
602
100
AcDbEntity
  8
Livello 1
370
     5
100
AcDbVertex
100
AcDb2dVertex
 10
6.170045294164083
 20
10.69291909054301
 30
0.0
  0
VERTEX
  5
604
330
602
100
AcDbEntity
  8
Livello 1
370
     5
100
AcDbVertex
100
AcDb2dVertex
 10
5.010813727070996
 20
11.36072662703105
 30
0.0
  0
SEQEND
  5
605
330
602
100
AcDbEntity
  8
Livello 1
370
     5
  0
POLYLINE
  5
606
330
1F
100
AcDbEntity
  8
Livello 1
370
     5
100
AcDb2dPolyline
 66
     1
 10
0.0
 20
0.0
 30
0.0
  0
VERTEX
  5
607
330
606
100
AcDbEntity
  8
Livello 1
370
     5
100
AcDbVertex
100
AcDb2dVertex
 10
5.039111956705397
 20
11.4090225593649
 30
0.0
  0
VERTEX
  5
608
330
606
100
AcDbEntity
  8
Livello 1
370
     5
100
AcDbVertex
100
AcDb2dVertex
 10
6.280885858440285
 20
10.69288275555156
 30
0.0
  0
SEQEND
  5
609
330
606
100
AcDbEntity
  8
Livello 1
370
     5
  0
POLYLINE
  5
60A
330
1F
100
AcDbEntity
  8
Livello 1
370
     5
100
AcDb2dPolyline
 66
     1
 10
0.0
 20
0.0
 30
0.0
  0
VERTEX
  5
60B
330
60A
100
AcDbEntity
  8
Livello 1
370
     5
100
AcDbVertex
100
AcDb2dVertex
 10
1.81394813745689
 20
7.916734648928837
 30
0.0
  0
VERTEX
  5
60C
330
60A
100
AcDbEntity
  8
Livello 1
370
     5
100
AcDbVertex
100
AcDb2dVertex
 10
1.81394813745689
 20
8.146744564964933
 30
0.0
  0
SEQEND
  5
60D
330
60A
100
AcDbEntity
  8
Livello 1
370
     5
  0
POLYLINE
  5
60E
330
1F
100
AcDbEntity
  8
Livello 1
370
     5
100
AcDb2dPolyline
 66
     1
 10
0.0
 20
0.0
 30
0.0
  0
VERTEX
  5
60F
330
60E
100
AcDbEntity
  8
Livello 1
370
     5
100
AcDbVertex
100
AcDb2dVertex
 10
1.507065491184789
 20
7.916734648928837
 30
0.0
  0
VERTEX
  5
610
330
60E
100
AcDbEntity
  8
Livello 1
370
     5
100
AcDbVertex
100
AcDb2dVertex
 10
1.813980435226994
 20
7.916734648928837
 30
0.0
  0
SEQEND
  5
611
330
60E
100
AcDbEntity
  8
Livello 1
370
     5
  0
POLYLINE
  5
612
330
1F
100
AcDbEntity
  8
Livello 1
370
     5
100
AcDb2dPolyline
 66
     1
 10
0.0
 20
0.0
 30
0.0
  0
VERTEX
  5
613
330
612
100
AcDbEntity
  8
Livello 1
370
     5
100
AcDbVertex
100
AcDb2dVertex
 10
6.678681344790987
 20
7.396739203383518
 30
0.0
  0
VERTEX
  5
614
330
612
100
AcDbEntity
  8
Livello 1
370
     5
100
AcDbVertex
100
AcDb2dVertex
 10
1.14606254802419
 20
7.393915839974141
 30
0.0
  0
SEQEND
  5
615
330
612
100
AcDbEntity
  8
Livello 1
370
     5
  0
POLYLINE
  5
616
330
1F
100
AcDbEntity
  8
Livello 1
370
     5
100
AcDb2dPolyline
 66
     1
 10
0.0
 20
0.0
 30
0.0
  0
VERTEX
  5
617
330
616
100
AcDbEntity
  8
Livello 1
370
     5
100
AcDbVertex
100
AcDb2dVertex
 10
6.678681344790987
 20
5.964603589982175
 30
0.0
  0
VERTEX
  5
618
330
616
100
AcDbEntity
  8
Livello 1
370
     5
100
AcDbVertex
100
AcDb2dVertex
 10
6.678681344790987
 20
7.396880506128013
 30
0.0
  0
SEQEND
  5
619
330
616
100
AcDbEntity
  8
Livello 1
370
     5
  0
POLYLINE
  5
61A
330
1F
100
AcDbEntity
  8
Livello 1
370
     5
100
AcDb2dPolyline
 66
     1
 10
0.0
 20
0.0
 30
0.0
  0
VERTEX
  5
61B
330
61A
100
AcDbEntity
  8
Livello 1
370
     5
100
AcDbVertex
100
AcDb2dVertex
 10
7.789719255822376
 20
5.902126245061026
 30
0.0
  0
VERTEX
  5
61C
330
61A
100
AcDbEntity
  8
Livello 1
370
     5
100
AcDbVertex
100
AcDb2dVertex
 10
7.789719255822376
 20
8.223755906464532
 30
0.0
  0
SEQEND
  5
61D
330
61A
100
AcDbEntity
  8
Livello 1
370
     5
  0
POLYLINE
  5
61E
330
1F
100
AcDbEntity
  8
Livello 1
370
     5
100
AcDb2dPolyline
 66
     1
 10
0.0
 20
0.0
 30
0.0
  0
VERTEX
  5
61F
330
61E
100
AcDbEntity
  8
Livello 1
370
     5
100
AcDbVertex
100
AcDb2dVertex
 10
1.507065491184789
 20
8.146885867709457
 30
0.0
  0
VERTEX
  5
620
330
61E
100
AcDbEntity
  8
Livello 1
370
     5
100
AcDbVertex
100
AcDb2dVertex
 10
1.507065491184789
 20
8.223438311724478
 30
0.0
  0
SEQEND
  5
621
330
61E
100
AcDbEntity
  8
Livello 1
370
     5
  0
SPLINE
  5
622
330
1F
100
AcDbEntity
  8
Livello 1
370
     5
100
AcDbSpline
210
0.0
220
0.0
230
1.0
 70
     8
 71
     3
 72
    14
 73
    10
 74
     0
 42
0.000000001
 43
0.0000000001
 40
0.0
 40
0.0
 40
0.0
 40
0.0
 40
1.0
 40
1.0
 40
1.0
 40
2.0
 40
2.0
 40
2.0
 40
3.0
 40
3.0
 40
3.0
 40
3.0
 10
6.678681344790987
 20
5.964603589982175
 30
0.0
 10
6.678681344790987
 20
5.964603589982175
 30
0.0
 10
6.596128244225695
 20
5.964603589982175
 30
0.0
 10
6.596128244225695
 20
5.964603589982175
 30
0.0
 10
6.452898399426373
 20
5.96283932428642
 30
0.0
 10
6.304382486241991
 20
5.968130775633312
 30
0.0
 10
6.161507916914672
 20
5.961780226572813
 30
0.0
 10
6.161507916914672
 20
5.961780226572813
 30
0.0
 10
6.107532959991885
 20
5.961780226572813
 30
0.0
 10
6.107532959991885
 20
5.961780226572813
 30
0.0
  0
POLYLINE
  5
623
330
1F
100
AcDbEntity
  8
Livello 1
370
     5
100
AcDb2dPolyline
 66
     1
 10
0.0
 20
0.0
 30
0.0
  0
VERTEX
  5
624
330
623
100
AcDbEntity
  8
Livello 1
370
     5
100
AcDbVertex
100
AcDb2dVertex
 10
1.507065491184789
 20
8.223615949460437
 30
0.0
  0
VERTEX
  5
625
330
623
100
AcDbEntity
  8
Livello 1
370
     5
100
AcDbVertex
100
AcDb2dVertex
 10
1.507065491184789
 20
8.232082002467336
 30
0.0
  0
VERTEX
  5
626
330
623
100
AcDbEntity
  8
Livello 1
370
     5
100
AcDbVertex
100
AcDb2dVertex
 10
1.507065491184789
 20
8.266301489966934
 30
0.0
  0
VERTEX
  5
627
330
623
100
AcDbEntity
  8
Livello 1
370
     5
100
AcDbVertex
100
AcDb2dVertex
 10
1.507065491184789
 20
8.269123507635896
 30
0.0
  0
SEQEND
  5
628
330
623
100
AcDbEntity
  8
Livello 1
370
     5
  0
POLYLINE
  5
629
330
1F
100
AcDbEntity
  8
Livello 1
370
     5
100
AcDb2dPolyline
 66
     1
 10
0.0
 20
0.0
 30
0.0
  0
VERTEX
  5
62A
330
629
100
AcDbEntity
  8
Livello 1
370
     5
100
AcDbVertex
100
AcDb2dVertex
 10
7.789719255822376
 20
8.223615949460437
 30
0.0
  0
VERTEX
  5
62B
330
629
100
AcDbEntity
  8
Livello 1
370
     5
100
AcDbVertex
100
AcDb2dVertex
 10
7.789719255822376
 20
8.232082002467336
 30
0.0
  0
VERTEX
  5
62C
330
629
100
AcDbEntity
  8
Livello 1
370
     5
100
AcDbVertex
100
AcDb2dVertex
 10
7.789719255822376
 20
8.266301489966934
 30
0.0
  0
VERTEX
  5
62D
330
629
100
AcDbEntity
  8
Livello 1
370
     5
100
AcDbVertex
100
AcDb2dVertex
 10
7.789719255822376
 20
8.269123507635896
 30
0.0
  0
SEQEND
  5
62E
330
629
100
AcDbEntity
  8
Livello 1
370
     5
  0
POLYLINE
  5
62F
330
1F
100
AcDbEntity
  8
Livello 1
370
     5
100
AcDb2dPolyline
 66
     1
 10
0.0
 20
0.0
 30
0.0
  0
VERTEX
  5
630
330
62F
100
AcDbEntity
  8
Livello 1
370
     5
100
AcDbVertex
100
AcDb2dVertex
 10
1.146175590219797
 20
7.916734648928837
 30
0.0
  0
VERTEX
  5
631
330
62F
100
AcDbEntity
  8
Livello 1
370
     5
100
AcDbVertex
100
AcDb2dVertex
 10
1.180389694757678
 20
7.916734648928837
 30
0.0
  0
VERTEX
  5
632
330
62F
100
AcDbEntity
  8
Livello 1
370
     5
100
AcDbVertex
100
AcDb2dVertex
 10
1.455911206190563
 20
7.916734648928837
 30
0.0
  0
VERTEX
  5
633
330
62F
100
AcDbEntity
  8
Livello 1
370
     5
100
AcDbVertex
100
AcDb2dVertex
 10
1.507065491184789
 20
7.916734648928837
 30
0.0
  0
SEQEND
  5
634
330
62F
100
AcDbEntity
  8
Livello 1
370
     5
  0
SPLINE
  5
635
330
1F
100
AcDbEntity
  8
Livello 1
370
     5
100
AcDbSpline
210
0.0
220
0.0
230
1.0
 70
     8
 71
     3
 72
    14
 73
    10
 74
     0
 42
0.000000001
 43
0.0000000001
 40
0.0
 40
0.0
 40
0.0
 40
0.0
 40
1.0
 40
1.0
 40
1.0
 40
2.0
 40
2.0
 40
2.0
 40
3.0
 40
3.0
 40
3.0
 40
3.0
 10
7.19017574807836
 20
5.904913273478982
 30
0.0
 10
7.19017574807836
 20
5.904913273478982
 30
0.0
 10
7.116439938770696
 20
5.904913273478982
 30
0.0
 10
7.116439938770696
 20
5.904913273478982
 30
0.0
 10
6.940761600869677
 20
5.905265857470041
 30
0.0
 10
6.760136321170364
 20
5.903854175765332
 30
0.0
 10
6.584807875779574
 20
5.896445874731611
 30
0.0
 10
6.584807875779574
 20
5.896445874731611
 30
0.0
 10
6.579161148960878
 20
5.89362385706265
 30
0.0
 10
6.579161148960878
 20
5.89362385706265
 30
0.0
  0
POLYLINE
  5
636
330
1F
100
AcDbEntity
  8
Livello 1
370
     5
100
AcDb2dPolyline
 66
     1
 10
0.0
 20
0.0
 30
0.0
  0
VERTEX
  5
637
330
636
100
AcDbEntity
  8
Livello 1
370
     5
100
AcDbVertex
100
AcDb2dVertex
 10
5.721068608010597
 20
5.896410885480619
 30
0.0
  0
VERTEX
  5
638
330
636
100
AcDbEntity
  8
Livello 1
370
     5
100
AcDbVertex
100
AcDb2dVertex
 10
5.965541196382588
 20
5.896410885480619
 30
0.0
  0
SEQEND
  5
639
330
636
100
AcDbEntity
  8
Livello 1
370
     5
  0
POLYLINE
  5
63A
330
1F
100
AcDbEntity
  8
Livello 1
370
     5
100
AcDb2dPolyline
 66
     1
 10
0.0
 20
0.0
 30
0.0
  0
VERTEX
  5
63B
330
63A
100
AcDbEntity
  8
Livello 1
370
     5
100
AcDbVertex
100
AcDb2dVertex
 10
5.965438920110386
 20
5.893553878560609
 30
0.0
  0
VERTEX
  5
63C
330
63A
100
AcDbEntity
  8
Livello 1
370
     5
100
AcDbVertex
100
AcDb2dVertex
 10
6.579268808194768
 20
5.893553878560609
 30
0.0
  0
SEQEND
  5
63D
330
63A
100
AcDbEntity
  8
Livello 1
370
     5
  0
POLYLINE
  5
63E
330
1F
100
AcDbEntity
  8
Livello 1
370
     5
100
AcDb2dPolyline
 66
     1
 10
0.0
 20
0.0
 30
0.0
  0
VERTEX
  5
63F
330
63E
100
AcDbEntity
  8
Livello 1
370
     5
100
AcDbVertex
100
AcDb2dVertex
 10
7.789719255822376
 20
8.28330492022323
 30
0.0
  0
VERTEX
  5
640
330
63E
100
AcDbEntity
  8
Livello 1
370
     5
100
AcDbVertex
100
AcDb2dVertex
 10
2.311075415978393
 20
8.28330492022323
 30
0.0
  0
VERTEX
  5
641
330
63E
100
AcDbEntity
  8
Livello 1
370
     5
100
AcDbVertex
100
AcDb2dVertex
 10
2.095175588287162
 20
8.28330492022323
 30
0.0
  0
VERTEX
  5
642
330
63E
100
AcDbEntity
  8
Livello 1
370
     5
100
AcDbVertex
100
AcDb2dVertex
 10
0.879153775304502
 20
8.28330492022323
 30
0.0
  0
SEQEND
  5
643
330
63E
100
AcDbEntity
  8
Livello 1
370
     5
  0
POLYLINE
  5
644
330
1F
100
AcDbEntity
  8
Livello 1
370
     5
100
AcDb2dPolyline
 66
     1
 10
0.0
 20
0.0
 30
0.0
  0
VERTEX
  5
645
330
644
100
AcDbEntity
  8
Livello 1
370
     5
100
AcDbVertex
100
AcDb2dVertex
 10
0.6801887451078983
 20
8.28330492022323
 30
0.0
  0
VERTEX
  5
646
330
644
100
AcDbEntity
  8
Livello 1
370
     5
100
AcDbVertex
100
AcDb2dVertex
 10
0.879153775304502
 20
8.28330492022323
 30
0.0
  0
SEQEND
  5
647
330
644
100
AcDbEntity
  8
Livello 1
370
     5
  0
POLYLINE
  5
648
330
1F
100
AcDbEntity
  8
Livello 1
370
     5
100
AcDb2dPolyline
 66
     1
 10
0.0
 20
0.0
 30
0.0
  0
VERTEX
  5
649
330
648
100
AcDbEntity
  8
Livello 1
370
     5
100
AcDbVertex
100
AcDb2dVertex
 10
7.789719255822376
 20
8.269088518384904
 30
0.0
  0
VERTEX
  5
64A
330
648
100
AcDbEntity
  8
Livello 1
370
     5
100
AcDbVertex
100
AcDb2dVertex
 10
7.789719255822376
 20
8.28319860672974
 30
0.0
  0
SEQEND
  5
64B
330
648
100
AcDbEntity
  8
Livello 1
370
     5
  0
POLYLINE
  5
64C
330
1F
100
AcDbEntity
  8
Livello 1
370
     5
100
AcDb2dPolyline
 66
     1
 10
0.0
 20
0.0
 30
0.0
  0
VERTEX
  5
64D
330
64C
100
AcDbEntity
  8
Livello 1
370
     5
100
AcDbVertex
100
AcDb2dVertex
 10
5.667093651087668
 20
7.325689491961952
 30
0.0
  0
VERTEX
  5
64E
330
64C
100
AcDbEntity
  8
Livello 1
370
     5
100
AcDbVertex
100
AcDb2dVertex
 10
0.7257339840152781
 20
7.325689491961952
 30
0.0
  0
SEQEND
  5
64F
330
64C
100
AcDbEntity
  8
Livello 1
370
     5
  0
SPLINE
  5
650
330
1F
100
AcDbEntity
  8
Livello 1
370
     5
100
AcDbSpline
210
0.0
220
0.0
230
1.0
 70
     8
 71
     3
 72
    29
 73
    25
 74
     0
 42
0.000000001
 43
0.0000000001
 40
0.0
 40
0.0
 40
0.0
 40
0.0
 40
1.0
 40
1.0
 40
1.0
 40
2.0
 40
2.0
 40
2.0
 40
3.0
 40
3.0
 40
3.0
 40
4.0
 40
4.0
 40
4.0
 40
5.0
 40
5.0
 40
5.0
 40
6.0
 40
6.0
 40
6.0
 40
7.0
 40
7.0
 40
7.0
 40
8.0
 40
8.0
 40
8.0
 40
8.0
 10
1.146175590219797
 20
7.393917185714542
 30
0.0
 10
1.146175590219797
 20
7.393917185714542
 30
0.0
 10
1.060801817726002
 20
7.391093822305151
 30
0.0
 10
1.060801817726002
 20
7.391093822305151
 30
0.0
 10
0.9500258489900943
 20
7.388976972618308
 30
0.0
 10
0.7951580410046973
 20
7.388624388627249
 30
0.0
 10
0.6857977911948013
 20
7.374160370550896
 30
0.0
 10
0.6857977911948013
 20
7.374160370550896
 30
0.0
 10
0.6801510643759912
 20
7.37133835288192
 30
0.0
 10
0.6801510643759912
 20
7.37133835288192
 30
0.0
 10
0.6801510643759912
 20
7.37133835288192
 30
0.0
 10
0.6829771192662975
 20
7.356874334805581
 30
0.0
 10
0.6829771192662975
 20
7.356874334805581
 30
0.0
 10
0.6829771192662975
 20
7.356874334805581
 30
0.0
 10
0.6914445180135829
 20
7.342764246460703
 30
0.0
 10
0.6914445180135829
 20
7.342764246460703
 30
0.0
 10
0.6914445180135829
 20
7.342764246460703
 30
0.0
 10
0.7027325886894858
 20
7.331474830044371
 30
0.0
 10
0.7027325886894858
 20
7.331474830044371
 30
0.0
 10
0.7027325886894858
 20
7.331474830044371
 30
0.0
 10
0.7171966067658957
 20
7.325830794706448
 30
0.0
 10
0.7171966067658957
 20
7.325830794706448
 30
0.0
 10
0.7171966067658957
 20
7.325830794706448
 30
0.0
 10
0.7256640055131811
 20
7.325830794706448
 30
0.0
 10
0.7256640055131811
 20
7.325830794706448
 30
0.0
  0
POLYLINE
  5
651
330
1F
100
AcDbEntity
  8
Livello 1
370
     5
100
AcDb2dPolyline
 66
     1
 10
0.0
 20
0.0
 30
0.0
  0
VERTEX
  5
652
330
651
100
AcDbEntity
  8
Livello 1
370
     5
100
AcDbVertex
100
AcDb2dVertex
 10
0.6801887451078983
 20
8.146885867709457
 30
0.0
  0
VERTEX
  5
653
330
651
100
AcDbEntity
  8
Livello 1
370
     5
100
AcDbVertex
100
AcDb2dVertex
 10
0.6801887451078983
 20
10.41736258985911
 30
0.0
  0
SEQEND
  5
654
330
651
100
AcDbEntity
  8
Livello 1
370
     5
  0
POLYLINE
  5
655
330
1F
100
AcDbEntity
  8
Livello 1
370
     5
100
AcDb2dPolyline
 66
     1
 10
0.0
 20
0.0
 30
0.0
  0
VERTEX
  5
656
330
655
100
AcDbEntity
  8
Livello 1
370
     5
100
AcDbVertex
100
AcDb2dVertex
 10
0.6801887451078983
 20
8.146885867709457
 30
0.0
  0
VERTEX
  5
657
330
655
100
AcDbEntity
  8
Livello 1
370
     5
100
AcDbVertex
100
AcDb2dVertex
 10
0.6858300889649911
 20
8.146885867709457
 30
0.0
  0
VERTEX
  5
658
330
655
100
AcDbEntity
  8
Livello 1
370
     5
100
AcDbVertex
100
AcDb2dVertex
 10
1.060834115496191
 20
8.146885867709457
 30
0.0
  0
VERTEX
  5
659
330
655
100
AcDbEntity
  8
Livello 1
370
     5
100
AcDbVertex
100
AcDb2dVertex
 10
1.146207887989987
 20
8.146885867709457
 30
0.0
  0
VERTEX
  5
65A
330
655
100
AcDbEntity
  8
Livello 1
370
     5
100
AcDbVertex
100
AcDb2dVertex
 10
1.507097788954979
 20
8.146885867709457
 30
0.0
  0
VERTEX
  5
65B
330
655
100
AcDbEntity
  8
Livello 1
370
     5
100
AcDbVertex
100
AcDb2dVertex
 10
1.814012732997184
 20
8.146885867709457
 30
0.0
  0
SEQEND
  5
65C
330
655
100
AcDbEntity
  8
Livello 1
370
     5
  0
POLYLINE
  5
65D
330
1F
100
AcDbEntity
  8
Livello 1
370
     5
100
AcDb2dPolyline
 66
     1
 10
0.0
 20
0.0
 30
0.0
  0
VERTEX
  5
65E
330
65D
100
AcDbEntity
  8
Livello 1
370
     5
100
AcDbVertex
100
AcDb2dVertex
 10
0.6801887451078983
 20
7.37116340662682
 30
0.0
  0
VERTEX
  5
65F
330
65D
100
AcDbEntity
  8
Livello 1
370
     5
100
AcDbVertex
100
AcDb2dVertex
 10
0.6801887451078983
 20
7.916909595183938
 30
0.0
  0
SEQEND
  5
660
330
65D
100
AcDbEntity
  8
Livello 1
370
     5
  0
POLYLINE
  5
661
330
1F
100
AcDbEntity
  8
Livello 1
370
     5
100
AcDb2dPolyline
 66
     1
 10
0.0
 20
0.0
 30
0.0
  0
VERTEX
  5
662
330
661
100
AcDbEntity
  8
Livello 1
370
     5
100
AcDbVertex
100
AcDb2dVertex
 10
1.146175590219797
 20
7.916734648928837
 30
0.0
  0
VERTEX
  5
663
330
661
100
AcDbEntity
  8
Livello 1
370
     5
100
AcDbVertex
100
AcDb2dVertex
 10
1.060801817726002
 20
7.916734648928837
 30
0.0
  0
VERTEX
  5
664
330
661
100
AcDbEntity
  8
Livello 1
370
     5
100
AcDbVertex
100
AcDb2dVertex
 10
0.6857977911948013
 20
7.916734648928837
 30
0.0
  0
VERTEX
  5
665
330
661
100
AcDbEntity
  8
Livello 1
370
     5
100
AcDbVertex
100
AcDb2dVertex
 10
0.6801510643759912
 20
7.916734648928837
 30
0.0
  0
SEQEND
  5
666
330
661
100
AcDbEntity
  8
Livello 1
370
     5
  0
SPLINE
  5
667
330
1F
100
AcDbEntity
  8
Livello 1
370
     5
100
AcDbSpline
210
0.0
220
0.0
230
1.0
 70
     8
 71
     3
 72
    29
 73
    25
 74
     0
 42
0.000000001
 43
0.0000000001
 40
0.0
 40
0.0
 40
0.0
 40
0.0
 40
1.0
 40
1.0
 40
1.0
 40
2.0
 40
2.0
 40
2.0
 40
3.0
 40
3.0
 40
3.0
 40
4.0
 40
4.0
 40
4.0
 40
5.0
 40
5.0
 40
5.0
 40
6.0
 40
6.0
 40
6.0
 40
7.0
 40
7.0
 40
7.0
 40
8.0
 40
8.0
 40
8.0
 40
8.0
 10
6.107500662221667
 20
5.961780226572813
 30
0.0
 10
6.107500662221667
 20
5.961780226572813
 30
0.0
 10
6.019306217799282
 20
5.958956863163393
 30
0.0
 10
6.019306217799282
 20
5.958956863163393
 30
0.0
 10
5.911706196463882
 20
5.962132810563858
 30
0.0
 10
5.802345946653986
 20
5.949785642174333
 30
0.0
 10
5.695451093300675
 20
5.947668792487505
 30
0.0
 10
5.695451093300675
 20
5.947668792487505
 30
0.0
 10
5.675695623877487
 20
5.944846774818543
 30
0.0
 10
5.675695623877487
 20
5.944846774818543
 30
0.0
 10
5.675695623877487
 20
5.944846774818543
 30
0.0
 10
5.67852167876768
 20
5.927560739073229
 30
0.0
 10
5.67852167876768
 20
5.927560739073229
 30
0.0
 10
5.67852167876768
 20
5.927560739073229
 30
0.0
 10
5.686989077515079
 20
5.916271322656896
 30
0.0
 10
5.686989077515079
 20
5.916271322656896
 30
0.0
 10
5.686989077515079
 20
5.916271322656896
 30
0.0
 10
5.698277148190982
 20
5.904981906240593
 30
0.0
 10
5.698277148190982
 20
5.904981906240593
 30
0.0
 10
5.698277148190982
 20
5.904981906240593
 30
0.0
 10
5.71238589079536
 20
5.899337870902641
 30
0.0
 10
5.71238589079536
 20
5.899337870902641
 30
0.0
 10
5.71238589079536
 20
5.899337870902641
 30
0.0
 10
5.721208565014677
 20
5.896515853233651
 30
0.0
 10
5.721208565014677
 20
5.896515853233651
 30
0.0
  0
POLYLINE
  5
668
330
1F
100
AcDbEntity
  8
Livello 1
370
     5
100
AcDb2dPolyline
 66
     1
 10
0.0
 20
0.0
 30
0.0
  0
VERTEX
  5
669
330
668
100
AcDbEntity
  8
Livello 1
370
     5
100
AcDbVertex
100
AcDb2dVertex
 10
5.667093651087668
 20
5.708873882964056
 30
0.0
  0
VERTEX
  5
66A
330
668
100
AcDbEntity
  8
Livello 1
370
     5
100
AcDbVertex
100
AcDb2dVertex
 10
5.667093651087668
 20
7.325654502710904
 30
0.0
  0
SEQEND
  5
66B
330
668
100
AcDbEntity
  8
Livello 1
370
     5
  0
POLYLINE
  5
66C
330
1F
100
AcDbEntity
  8
Livello 1
370
     5
100
AcDb2dPolyline
 66
     1
 10
0.0
 20
0.0
 30
0.0
  0
VERTEX
  5
66D
330
66C
100
AcDbEntity
  8
Livello 1
370
     5
100
AcDbVertex
100
AcDb2dVertex
 10
5.675631028337193
 20
5.708873882964056
 30
0.0
  0
VERTEX
  5
66E
330
66C
100
AcDbEntity
  8
Livello 1
370
     5
100
AcDbVertex
100
AcDb2dVertex
 10
5.667163629589794
 20
5.708873882964056
 30
0.0
  0
SEQEND
  5
66F
330
66C
100
AcDbEntity
  8
Livello 1
370
     5
  0
POLYLINE
  5
670
330
1F
100
AcDbEntity
  8
Livello 1
370
     5
100
AcDb2dPolyline
 66
     1
 10
0.0
 20
0.0
 30
0.0
  0
VERTEX
  5
671
330
670
100
AcDbEntity
  8
Livello 1
370
     5
100
AcDbVertex
100
AcDb2dVertex
 10
5.675631028337193
 20
5.944706817814463
 30
0.0
  0
VERTEX
  5
672
330
670
100
AcDbEntity
  8
Livello 1
370
     5
100
AcDbVertex
100
AcDb2dVertex
 10
5.675631028337193
 20
5.709050174959557
 30
0.0
  0
SEQEND
  5
673
330
670
100
AcDbEntity
  8
Livello 1
370
     5
  0
SPLINE
  5
674
330
1F
100
AcDbEntity
  8
Livello 1
370
     5
100
AcDbSpline
210
0.0
220
0.0
230
1.0
 70
    11
 71
     3
 72
    29
 73
    25
 74
     0
 42
0.000000001
 43
0.0000000001
 40
0.0
 40
0.0
 40
0.0
 40
0.0
 40
1.0
 40
1.0
 40
1.0
 40
2.0
 40
2.0
 40
2.0
 40
3.0
 40
3.0
 40
3.0
 40
4.0
 40
4.0
 40
4.0
 40
5.0
 40
5.0
 40
5.0
 40
6.0
 40
6.0
 40
6.0
 40
7.0
 40
7.0
 40
7.0
 40
8.0
 40
8.0
 40
8.0
 40
8.0
 10
5.746643059026865
 20
6.666454321974313
 30
0.0
 10
5.746643059026865
 20
6.666454321974313
 30
0.0
 10
5.746643059026865
 20
6.575436514142509
 30
0.0
 10
5.746643059026865
 20
6.575436514142509
 30
0.0
 10
5.746643059026865
 20
6.575436514142509
 30
0.0
 10
5.75510507481249
 20
6.49041801712056
 30
0.0
 10
5.75510507481249
 20
6.49041801712056
 30
0.0
 10
5.804493748370589
 20
6.220189302775025
 30
0.0
 10
5.987939699998378
 20
6.392698421977613
 30
0.0
 10
6.010871116822073
 20
6.561326425797602
 30
0.0
 10
6.010871116822073
 20
6.561326425797602
 30
0.0
 10
6.016517843640883
 20
6.64952087022003
 30
0.0
 10
6.016517843640883
 20
6.64952087022003
 30
0.0
 10
6.016517843640883
 20
6.64952087022003
 30
0.0
 10
6.005224390003292
 20
6.726073314235051
 30
0.0
 10
6.005224390003292
 20
6.726073314235051
 30
0.0
 10
5.973125789411881
 20
6.882000219934042
 30
0.0
 10
5.812611254607674
 20
7.029815002357608
 30
0.0
 10
5.757931129702683
 20
6.791336341833755
 30
0.0
 10
5.757931129702683
 20
6.791336341833755
 30
0.0
 10
5.752284402883873
 20
6.749003385318331
 30
0.0
 10
5.752284402883873
 20
6.749003385318331
 30
0.0
 10
5.752284402883873
 20
6.749003385318331
 30
0.0
 10
5.746643059026865
 20
6.666454321974313
 30
0.0
 10
5.746643059026865
 20
6.666454321974313
 30
0.0
  0
POLYLINE
  5
675
330
1F
100
AcDbEntity
  8
Livello 1
370
     5
100
AcDb2dPolyline
 66
     1
 10
0.0
 20
0.0
 30
0.0
  0
VERTEX
  5
676
330
675
100
AcDbEntity
  8
Livello 1
370
     5
100
AcDbVertex
100
AcDb2dVertex
 10
2.09528863048277
 20
8.479379299989233
 30
0.0
  0
VERTEX
  5
677
330
675
100
AcDbEntity
  8
Livello 1
370
     5
100
AcDbVertex
100
AcDb2dVertex
 10
2.09528863048277
 20
8.283233595980746
 30
0.0
  0
SEQEND
  5
678
330
675
100
AcDbEntity
  8
Livello 1
370
     5
  0
POLYLINE
  5
679
330
1F
100
AcDbEntity
  8
Livello 1
370
     5
100
AcDb2dPolyline
 66
     1
 10
0.0
 20
0.0
 30
0.0
  0
VERTEX
  5
67A
330
679
100
AcDbEntity
  8
Livello 1
370
     5
100
AcDbVertex
100
AcDb2dVertex
 10
2.311220755944191
 20
8.28330492022323
 30
0.0
  0
VERTEX
  5
67B
330
679
100
AcDbEntity
  8
Livello 1
370
     5
100
AcDbVertex
100
AcDb2dVertex
 10
2.311220755944191
 20
8.479449278491259
 30
0.0
  0
SEQEND
  5
67C
330
679
100
AcDbEntity
  8
Livello 1
370
     5
  0
POLYLINE
  5
67D
330
1F
100
AcDbEntity
  8
Livello 1
370
     5
100
AcDb2dPolyline
 66
     1
 10
0.0
 20
0.0
 30
0.0
  0
VERTEX
  5
67E
330
67D
100
AcDbEntity
  8
Livello 1
370
     5
100
AcDbVertex
100
AcDb2dVertex
 10
7.789719255822376
 20
10.68723872021361
 30
0.0
  0
VERTEX
  5
67F
330
67D
100
AcDbEntity
  8
Livello 1
370
     5
100
AcDbVertex
100
AcDb2dVertex
 10
1.021323176649673
 20
10.68723872021361
 30
0.0
  0
SEQEND
  5
680
330
67D
100
AcDbEntity
  8
Livello 1
370
     5
  0
POLYLINE
  5
681
330
1F
100
AcDbEntity
  8
Livello 1
370
     5
100
AcDb2dPolyline
 66
     1
 10
0.0
 20
0.0
 30
0.0
  0
VERTEX
  5
682
330
681
100
AcDbEntity
  8
Livello 1
370
     5
100
AcDbVertex
100
AcDb2dVertex
 10
1.021150921875374
 20
10.54799765003086
 30
0.0
  0
VERTEX
  5
683
330
681
100
AcDbEntity
  8
Livello 1
370
     5
100
AcDbVertex
100
AcDb2dVertex
 10
1.021150921875374
 20
10.57657175645208
 30
0.0
  0
VERTEX
  5
684
330
681
100
AcDbEntity
  8
Livello 1
370
     5
100
AcDbVertex
100
AcDb2dVertex
 10
1.021150921875374
 20
10.68452167029768
 30
0.0
  0
VERTEX
  5
685
330
681
100
AcDbEntity
  8
Livello 1
370
     5
100
AcDbVertex
100
AcDb2dVertex
 10
1.021150921875374
 20
10.6873436879667
 30
0.0
  0
SEQEND
  5
686
330
681
100
AcDbEntity
  8
Livello 1
370
     5
  0
POLYLINE
  5
687
330
1F
100
AcDbEntity
  8
Livello 1
370
     5
100
AcDb2dPolyline
 66
     1
 10
0.0
 20
0.0
 30
0.0
  0
VERTEX
  5
688
330
687
100
AcDbEntity
  8
Livello 1
370
     5
100
AcDbVertex
100
AcDb2dVertex
 10
1.021150921875374
 20
10.54799765003086
 30
0.0
  0
VERTEX
  5
689
330
687
100
AcDbEntity
  8
Livello 1
370
     5
100
AcDbVertex
100
AcDb2dVertex
 10
7.789541618086389
 20
10.54799765003086
 30
0.0
  0
SEQEND
  5
68A
330
687
100
AcDbEntity
  8
Livello 1
370
     5
  0
POLYLINE
  5
68B
330
1F
100
AcDbEntity
  8
Livello 1
370
     5
100
AcDb2dPolyline
 66
     1
 10
0.0
 20
0.0
 30
0.0
  0
VERTEX
  5
68C
330
68B
100
AcDbEntity
  8
Livello 1
370
     5
100
AcDbVertex
100
AcDb2dVertex
 10
3.442159476364594
 20
9.647250520603819
 30
0.0
  0
VERTEX
  5
68D
330
68B
100
AcDbEntity
  8
Livello 1
370
     5
100
AcDbVertex
100
AcDb2dVertex
 10
3.442159476364594
 20
9.434172710581549
 30
0.0
  0
VERTEX
  5
68E
330
68B
100
AcDbEntity
  8
Livello 1
370
     5
100
AcDbVertex
100
AcDb2dVertex
 10
2.859723020889475
 20
9.434172710581549
 30
0.0
  0
SEQEND
  5
68F
330
68B
100
AcDbEntity
  8
Livello 1
370
     5
  0
POLYLINE
  5
690
330
1F
100
AcDbEntity
  8
Livello 1
370
     5
100
AcDb2dPolyline
 66
     1
 10
0.0
 20
0.0
 30
0.0
  0
VERTEX
  5
691
330
690
100
AcDbEntity
  8
Livello 1
370
     5
100
AcDbVertex
100
AcDb2dVertex
 10
3.220505262620577
 20
8.826054144856314
 30
0.0
  0
VERTEX
  5
692
330
690
100
AcDbEntity
  8
Livello 1
370
     5
100
AcDbVertex
100
AcDb2dVertex
 10
2.859609978693868
 20
8.826054144856314
 30
0.0
  0
SEQEND
  5
693
330
690
100
AcDbEntity
  8
Livello 1
370
     5
  0
POLYLINE
  5
694
330
1F
100
AcDbEntity
  8
Livello 1
370
     5
100
AcDb2dPolyline
 66
     1
 10
0.0
 20
0.0
 30
0.0
  0
VERTEX
  5
695
330
694
100
AcDbEntity
  8
Livello 1
370
     5
100
AcDbVertex
100
AcDb2dVertex
 10
1.632090159529184
 20
8.479379299989233
 30
0.0
  0
VERTEX
  5
696
330
694
100
AcDbEntity
  8
Livello 1
370
     5
100
AcDbVertex
100
AcDb2dVertex
 10
1.632090159529184
 20
8.82615911260936
 30
0.0
  0
SEQEND
  5
697
330
694
100
AcDbEntity
  8
Livello 1
370
     5
  0
POLYLINE
  5
698
330
1F
100
AcDbEntity
  8
Livello 1
370
     5
100
AcDb2dPolyline
 66
     1
 10
0.0
 20
0.0
 30
0.0
  0
VERTEX
  5
699
330
698
100
AcDbEntity
  8
Livello 1
370
     5
100
AcDbVertex
100
AcDb2dVertex
 10
1.188824795734859
 20
8.826054144856314
 30
0.0
  0
VERTEX
  5
69A
330
698
100
AcDbEntity
  8
Livello 1
370
     5
100
AcDbVertex
100
AcDb2dVertex
 10
1.188824795734859
 20
9.084639513054042
 30
0.0
  0
VERTEX
  5
69B
330
698
100
AcDbEntity
  8
Livello 1
370
     5
100
AcDbVertex
100
AcDb2dVertex
 10
1.632262414303482
 20
9.084639513054042
 30
0.0
  0
VERTEX
  5
69C
330
698
100
AcDbEntity
  8
Livello 1
370
     5
100
AcDbVertex
100
AcDb2dVertex
 10
1.632262414303482
 20
10.43718938352481
 30
0.0
  0
SEQEND
  5
69D
330
698
100
AcDbEntity
  8
Livello 1
370
     5
  0
POLYLINE
  5
69E
330
1F
100
AcDbEntity
  8
Livello 1
370
     5
100
AcDb2dPolyline
 66
     1
 10
0.0
 20
0.0
 30
0.0
  0
VERTEX
  5
69F
330
69E
100
AcDbEntity
  8
Livello 1
370
     5
100
AcDbVertex
100
AcDb2dVertex
 10
2.859653042387492
 20
10.3320628330886
 30
0.0
  0
VERTEX
  5
6A0
330
69E
100
AcDbEntity
  8
Livello 1
370
     5
100
AcDbVertex
100
AcDb2dVertex
 10
3.442084114900893
 20
10.3320628330886
 30
0.0
  0
VERTEX
  5
6A1
330
69E
100
AcDbEntity
  8
Livello 1
370
     5
100
AcDbVertex
100
AcDb2dVertex
 10
3.442084114900893
 20
10.11898502306631
 30
0.0
  0
VERTEX
  5
6A2
330
69E
100
AcDbEntity
  8
Livello 1
370
     5
100
AcDbVertex
100
AcDb2dVertex
 10
3.032865983831783
 20
10.11898502306631
 30
0.0
  0
SEQEND
  5
6A3
330
69E
100
AcDbEntity
  8
Livello 1
370
     5
  0
POLYLINE
  5
6A4
330
1F
100
AcDbEntity
  8
Livello 1
370
     5
100
AcDb2dPolyline
 66
     1
 10
0.0
 20
0.0
 30
0.0
  0
VERTEX
  5
6A5
330
6A4
100
AcDbEntity
  8
Livello 1
370
     5
100
AcDbVertex
100
AcDb2dVertex
 10
2.859653042387492
 20
10.0450419697333
 30
0.0
  0
VERTEX
  5
6A6
330
6A4
100
AcDbEntity
  8
Livello 1
370
     5
100
AcDbVertex
100
AcDb2dVertex
 10
3.032865983831783
 20
10.11877239607933
 30
0.0
  0
SEQEND
  5
6A7
330
6A4
100
AcDbEntity
  8
Livello 1
370
     5
  0
POLYLINE
  5
6A8
330
1F
100
AcDbEntity
  8
Livello 1
370
     5
100
AcDb2dPolyline
 66
     1
 10
0.0
 20
0.0
 30
0.0
  0
VERTEX
  5
6A9
330
6A8
100
AcDbEntity
  8
Livello 1
370
     5
100
AcDbVertex
100
AcDb2dVertex
 10
2.859653042387492
 20
10.0450419697333
 30
0.0
  0
VERTEX
  5
6AA
330
6A8
100
AcDbEntity
  8
Livello 1
370
     5
100
AcDbVertex
100
AcDb2dVertex
 10
2.859653042387492
 20
9.64710787211888
 30
0.0
  0
SEQEND
  5
6AB
330
6A8
100
AcDbEntity
  8
Livello 1
370
     5
  0
POLYLINE
  5
6AC
330
1F
100
AcDbEntity
  8
Livello 1
370
     5
100
AcDb2dPolyline
 66
     1
 10
0.0
 20
0.0
 30
0.0
  0
VERTEX
  5
6AD
330
6AC
100
AcDbEntity
  8
Livello 1
370
     5
100
AcDbVertex
100
AcDb2dVertex
 10
4.138327146546373
 20
10.30077033101105
 30
0.0
  0
VERTEX
  5
6AE
330
6AC
100
AcDbEntity
  8
Livello 1
370
     5
100
AcDbVertex
100
AcDb2dVertex
 10
7.093546202678794
 20
10.30077033101105
 30
0.0
  0
VERTEX
  5
6AF
330
6AC
100
AcDbEntity
  8
Livello 1
370
     5
100
AcDbVertex
100
AcDb2dVertex
 10
7.093546202678794
 20
8.672700294847842
 30
0.0
  0
VERTEX
  5
6B0
330
6AC
100
AcDbEntity
  8
Livello 1
370
     5
100
AcDbVertex
100
AcDb2dVertex
 10
4.138327146546373
 20
8.672700294847842
 30
0.0
  0
VERTEX
  5
6B1
330
6AC
100
AcDbEntity
  8
Livello 1
370
     5
100
AcDbVertex
100
AcDb2dVertex
 10
4.138327146546373
 20
10.30077033101105
 30
0.0
  0
SEQEND
  5
6B2
330
6AC
100
AcDbEntity
  8
Livello 1
370
     5
  0
POLYLINE
  5
6B3
330
1F
100
AcDbEntity
  8
Livello 1
370
     5
100
AcDb2dPolyline
 66
     1
 10
0.0
 20
0.0
 30
0.0
  0
VERTEX
  5
6B4
330
6B3
100
AcDbEntity
  8
Livello 1
370
     5
100
AcDbVertex
100
AcDb2dVertex
 10
2.859653042387492
 20
10.43719072926527
 30
0.0
  0
VERTEX
  5
6B5
330
6B3
100
AcDbEntity
  8
Livello 1
370
     5
100
AcDbVertex
100
AcDb2dVertex
 10
2.859653042387492
 20
10.3320628330886
 30
0.0
  0
SEQEND
  5
6B6
330
6B3
100
AcDbEntity
  8
Livello 1
370
     5
  0
POLYLINE
  5
6B7
330
1F
100
AcDbEntity
  8
Livello 1
370
     5
100
AcDb2dPolyline
 66
     1
 10
0.0
 20
0.0
 30
0.0
  0
VERTEX
  5
6B8
330
6B7
100
AcDbEntity
  8
Livello 1
370
     5
100
AcDbVertex
100
AcDb2dVertex
 10
2.859653042387492
 20
9.647250520603819
 30
0.0
  0
VERTEX
  5
6B9
330
6B7
100
AcDbEntity
  8
Livello 1
370
     5
100
AcDbVertex
100
AcDb2dVertex
 10
3.442084114900893
 20
9.647250520603819
 30
0.0
  0
SEQEND
  5
6BA
330
6B7
100
AcDbEntity
  8
Livello 1
370
     5
  0
POLYLINE
  5
6BB
330
1F
100
AcDbEntity
  8
Livello 1
370
     5
100
AcDb2dPolyline
 66
     1
 10
0.0
 20
0.0
 30
0.0
  0
VERTEX
  5
6BC
330
6BB
100
AcDbEntity
  8
Livello 1
370
     5
100
AcDbVertex
100
AcDb2dVertex
 10
1.632090159529184
 20
8.826054144856314
 30
0.0
  0
VERTEX
  5
6BD
330
6BB
100
AcDbEntity
  8
Livello 1
370
     5
100
AcDbVertex
100
AcDb2dVertex
 10
1.188647157998872
 20
8.826054144856314
 30
0.0
  0
SEQEND
  5
6BE
330
6BB
100
AcDbEntity
  8
Livello 1
370
     5
  0
POLYLINE
  5
6BF
330
1F
100
AcDbEntity
  8
Livello 1
370
     5
100
AcDb2dPolyline
 66
     1
 10
0.0
 20
0.0
 30
0.0
  0
VERTEX
  5
6C0
330
6BF
100
AcDbEntity
  8
Livello 1
370
     5
100
AcDbVertex
100
AcDb2dVertex
 10
2.859653042387492
 20
9.084639513054042
 30
0.0
  0
VERTEX
  5
6C1
330
6BF
100
AcDbEntity
  8
Livello 1
370
     5
100
AcDbVertex
100
AcDb2dVertex
 10
3.220542943352484
 20
9.084639513054042
 30
0.0
  0
SEQEND
  5
6C2
330
6BF
100
AcDbEntity
  8
Livello 1
370
     5
  0
POLYLINE
  5
6C3
330
1F
100
AcDbEntity
  8
Livello 1
370
     5
100
AcDb2dPolyline
 66
     1
 10
0.0
 20
0.0
 30
0.0
  0
VERTEX
  5
6C4
330
6C3
100
AcDbEntity
  8
Livello 1
370
     5
100
AcDbVertex
100
AcDb2dVertex
 10
2.859653042387492
 20
9.434137721330515
 30
0.0
  0
VERTEX
  5
6C5
330
6C3
100
AcDbEntity
  8
Livello 1
370
     5
100
AcDbVertex
100
AcDb2dVertex
 10
2.859653042387492
 20
9.084534545300968
 30
0.0
  0
SEQEND
  5
6C6
330
6C3
100
AcDbEntity
  8
Livello 1
370
     5
  0
POLYLINE
  5
6C7
330
1F
100
AcDbEntity
  8
Livello 1
370
     5
100
AcDb2dPolyline
 66
     1
 10
0.0
 20
0.0
 30
0.0
  0
VERTEX
  5
6C8
330
6C7
100
AcDbEntity
  8
Livello 1
370
     5
100
AcDbVertex
100
AcDb2dVertex
 10
3.220505262620577
 20
9.084639513054042
 30
0.0
  0
VERTEX
  5
6C9
330
6C7
100
AcDbEntity
  8
Livello 1
370
     5
100
AcDbVertex
100
AcDb2dVertex
 10
3.220505262620577
 20
8.826052799115856
 30
0.0
  0
SEQEND
  5
6CA
330
6C7
100
AcDbEntity
  8
Livello 1
370
     5
  0
POLYLINE
  5
6CB
330
1F
100
AcDbEntity
  8
Livello 1
370
     5
100
AcDb2dPolyline
 66
     1
 10
0.0
 20
0.0
 30
0.0
  0
VERTEX
  5
6CC
330
6CB
100
AcDbEntity
  8
Livello 1
370
     5
100
AcDbVertex
100
AcDb2dVertex
 10
2.859653042387492
 20
8.826054144856314
 30
0.0
  0
VERTEX
  5
6CD
330
6CB
100
AcDbEntity
  8
Livello 1
370
     5
100
AcDbVertex
100
AcDb2dVertex
 10
2.859653042387492
 20
8.479272986495729
 30
0.0
  0
VERTEX
  5
6CE
330
6CB
100
AcDbEntity
  8
Livello 1
370
     5
100
AcDbVertex
100
AcDb2dVertex
 10
2.311080798940082
 20
8.479272986495729
 30
0.0
  0
SEQEND
  5
6CF
330
6CB
100
AcDbEntity
  8
Livello 1
370
     5
  0
POLYLINE
  5
6D0
330
1F
100
AcDbEntity
  8
Livello 1
370
     5
100
AcDb2dPolyline
 66
     1
 10
0.0
 20
0.0
 30
0.0
  0
VERTEX
  5
6D1
330
6D0
100
AcDbEntity
  8
Livello 1
370
     5
100
AcDbVertex
100
AcDb2dVertex
 10
1.632090159529184
 20
10.43719072926527
 30
0.0
  0
VERTEX
  5
6D2
330
6D0
100
AcDbEntity
  8
Livello 1
370
     5
100
AcDbVertex
100
AcDb2dVertex
 10
2.859755318659665
 20
10.43719072926527
 30
0.0
  0
SEQEND
  5
6D3
330
6D0
100
AcDbEntity
  8
Livello 1
370
     5
  0
POLYLINE
  5
6D4
330
1F
100
AcDbEntity
  8
Livello 1
370
     5
100
AcDb2dPolyline
 66
     1
 10
0.0
 20
0.0
 30
0.0
  0
VERTEX
  5
6D5
330
6D4
100
AcDbEntity
  8
Livello 1
370
     5
100
AcDbVertex
100
AcDb2dVertex
 10
2.09528863048277
 20
8.479379299989233
 30
0.0
  0
VERTEX
  5
6D6
330
6D4
100
AcDbEntity
  8
Livello 1
370
     5
100
AcDbVertex
100
AcDb2dVertex
 10
1.632090159529184
 20
8.479379299989233
 30
0.0
  0
SEQEND
  5
6D7
330
6D4
100
AcDbEntity
  8
Livello 1
370
     5
  0
POLYLINE
  5
6D8
330
1F
100
AcDbEntity
  8
Livello 1
370
     5
100
AcDb2dPolyline
 66
     1
 10
0.0
 20
0.0
 30
0.0
  0
VERTEX
  5
6D9
330
6D8
100
AcDbEntity
  8
Livello 1
370
     5
100
AcDbVertex
100
AcDb2dVertex
 10
7.789719255822376
 20
9.346048244661176
 30
0.0
  0
VERTEX
  5
6DA
330
6D8
100
AcDbEntity
  8
Livello 1
370
     5
100
AcDbVertex
100
AcDb2dVertex
 10
7.789719255822376
 20
8.868739685362811
 30
0.0
  0
SEQEND
  5
6DB
330
6D8
100
AcDbEntity
  8
Livello 1
370
     5
  0
POLYLINE
  5
6DC
330
1F
100
AcDbEntity
  8
Livello 1
370
     5
100
AcDb2dPolyline
 66
     1
 10
0.0
 20
0.0
 30
0.0
  0
VERTEX
  5
6DD
330
6DC
100
AcDbEntity
  8
Livello 1
370
     5
100
AcDbVertex
100
AcDb2dVertex
 10
7.789719255822376
 20
8.428191371484331
 30
0.0
  0
VERTEX
  5
6DE
330
6DC
100
AcDbEntity
  8
Livello 1
370
     5
100
AcDbVertex
100
AcDb2dVertex
 10
7.789719255822376
 20
8.294488023146044
 30
0.0
  0
SEQEND
  5
6DF
330
6DC
100
AcDbEntity
  8
Livello 1
370
     5
  0
POLYLINE
  5
6E0
330
1F
100
AcDbEntity
  8
Livello 1
370
     5
100
AcDb2dPolyline
 66
     1
 10
0.0
 20
0.0
 30
0.0
  0
VERTEX
  5
6E1
330
6E0
100
AcDbEntity
  8
Livello 1
370
     5
100
AcDbVertex
100
AcDb2dVertex
 10
0.958638587703291
 20
10.69577609746301
 30
0.0
  0
VERTEX
  5
6E2
330
6E0
100
AcDbEntity
  8
Livello 1
370
     5
100
AcDbVertex
100
AcDb2dVertex
 10
0.8647974164620961
 20
10.67884264570874
 30
0.0
  0
VERTEX
  5
6E3
330
6E0
100
AcDbEntity
  8
Livello 1
370
     5
100
AcDbVertex
100
AcDb2dVertex
 10
0.7854202632971976
 20
10.63615575946181
 30
0.0
  0
VERTEX
  5
6E4
330
6E0
100
AcDbEntity
  8
Livello 1
370
     5
100
AcDbVertex
100
AcDb2dVertex
 10
0.7226280151167828
 20
10.5648947667937
 30
0.0
  0
VERTEX
  5
6E5
330
6E0
100
AcDbEntity
  8
Livello 1
370
     5
100
AcDbVertex
100
AcDb2dVertex
 10
0.6859377481988816
 20
10.47987492403132
 30
0.0
  0
VERTEX
  5
6E6
330
6E0
100
AcDbEntity
  8
Livello 1
370
     5
100
AcDbVertex
100
AcDb2dVertex
 10
0.6802964043417888
 20
10.41743391410159
 30
0.0
  0
SEQEND
  5
6E7
330
6E0
100
AcDbEntity
  8
Livello 1
370
     5
  0
POLYLINE
  5
6E8
330
1F
100
AcDbEntity
  8
Livello 1
370
     5
100
AcDb2dPolyline
 66
     1
 10
0.0
 20
0.0
 30
0.0
  0
VERTEX
  5
6E9
330
6E8
100
AcDbEntity
  8
Livello 1
370
     5
100
AcDbVertex
100
AcDb2dVertex
 10
1.021150921875374
 20
10.68723872021361
 30
0.0
  0
VERTEX
  5
6EA
330
6E8
100
AcDbEntity
  8
Livello 1
370
     5
100
AcDbVertex
100
AcDb2dVertex
 10
0.9841053794855838
 20
10.69006073788259
 30
0.0
  0
VERTEX
  5
6EB
330
6E8
100
AcDbEntity
  8
Livello 1
370
     5
100
AcDbVertex
100
AcDb2dVertex
 10
0.9643499100623671
 20
10.69288275555156
 30
0.0
  0
VERTEX
  5
6EC
330
6E8
100
AcDbEntity
  8
Livello 1
370
     5
100
AcDbVertex
100
AcDb2dVertex
 10
0.9587085662052743
 20
10.69570477322052
 30
0.0
  0
SEQEND
  5
6ED
330
6E8
100
AcDbEntity
  8
Livello 1
370
     5
  0
POLYLINE
  5
6EE
330
1F
100
AcDbEntity
  8
Livello 1
370
     5
100
AcDb2dPolyline
 66
     1
 10
0.0
 20
0.0
 30
0.0
  0
VERTEX
  5
6EF
330
6EE
100
AcDbEntity
  8
Livello 1
370
     5
100
AcDbVertex
100
AcDb2dVertex
 10
7.789719255822376
 20
10.69577609746301
 30
0.0
  0
VERTEX
  5
6F0
330
6EE
100
AcDbEntity
  8
Livello 1
370
     5
100
AcDbVertex
100
AcDb2dVertex
 10
6.32921408854429
 20
10.69577609746301
 30
0.0
  0
SEQEND
  5
6F1
330
6EE
100
AcDbEntity
  8
Livello 1
370
     5
  0
POLYLINE
  5
6F2
330
1F
100
AcDbEntity
  8
Livello 1
370
     5
100
AcDb2dPolyline
 66
     1
 10
0.0
 20
0.0
 30
0.0
  0
VERTEX
  5
6F3
330
6F2
100
AcDbEntity
  8
Livello 1
370
     5
100
AcDbVertex
100
AcDb2dVertex
 10
6.334866198324789
 20
10.69291909054301
 30
0.0
  0
VERTEX
  5
6F4
330
6F2
100
AcDbEntity
  8
Livello 1
370
     5
100
AcDbVertex
100
AcDb2dVertex
 10
6.329219471505979
 20
10.69574110821196
 30
0.0
  0
SEQEND
  5
6F5
330
6F2
100
AcDbEntity
  8
Livello 1
370
     5
  0
POLYLINE
  5
6F6
330
1F
100
AcDbEntity
  8
Livello 1
370
     5
100
AcDb2dPolyline
 66
     1
 10
0.0
 20
0.0
 30
0.0
  0
VERTEX
  5
6F7
330
6F6
100
AcDbEntity
  8
Livello 1
370
     5
100
AcDbVertex
100
AcDb2dVertex
 10
5.985334346537683
 20
10.69291909054301
 30
0.0
  0
VERTEX
  5
6F8
330
6F6
100
AcDbEntity
  8
Livello 1
370
     5
100
AcDbVertex
100
AcDb2dVertex
 10
6.334936176826801
 20
10.69291909054301
 30
0.0
  0
SEQEND
  5
6F9
330
6F6
100
AcDbEntity
  8
Livello 1
370
     5
  0
POLYLINE
  5
6FA
330
1F
100
AcDbEntity
  8
Livello 1
370
     5
100
AcDb2dPolyline
 66
     1
 10
0.0
 20
0.0
 30
0.0
  0
VERTEX
  5
6FB
330
6FA
100
AcDbEntity
  8
Livello 1
370
     5
100
AcDbVertex
100
AcDb2dVertex
 10
5.979655321948797
 20
10.69577609746301
 30
0.0
  0
VERTEX
  5
6FC
330
6FA
100
AcDbEntity
  8
Livello 1
370
     5
100
AcDbVertex
100
AcDb2dVertex
 10
5.98529666580589
 20
10.69295273405362
 30
0.0
  0
SEQEND
  5
6FD
330
6FA
100
AcDbEntity
  8
Livello 1
370
     5
  0
POLYLINE
  5
6FE
330
1F
100
AcDbEntity
  8
Livello 1
370
     5
100
AcDb2dPolyline
 66
     1
 10
0.0
 20
0.0
 30
0.0
  0
VERTEX
  5
6FF
330
6FE
100
AcDbEntity
  8
Livello 1
370
     5
100
AcDbVertex
100
AcDb2dVertex
 10
5.979655321948797
 20
10.69577609746301
 30
0.0
  0
VERTEX
  5
700
330
6FE
100
AcDbEntity
  8
Livello 1
370
     5
100
AcDbVertex
100
AcDb2dVertex
 10
0.9585686092011656
 20
10.69577609746301
 30
0.0
  0
SEQEND
  5
701
330
6FE
100
AcDbEntity
  8
Livello 1
370
     5
  0
POLYLINE
  5
702
330
1F
100
AcDbEntity
  8
Livello 1
370
     5
100
AcDb2dPolyline
 66
     1
 10
0.0
 20
0.0
 30
0.0
  0
VERTEX
  5
703
330
702
100
AcDbEntity
  8
Livello 1
370
     5
100
AcDbVertex
100
AcDb2dVertex
 10
7.789719255822376
 20
10.68723872021361
 30
0.0
  0
VERTEX
  5
704
330
702
100
AcDbEntity
  8
Livello 1
370
     5
100
AcDbVertex
100
AcDb2dVertex
 10
7.789719255822376
 20
10.69570477322052
 30
0.0
  0
SEQEND
  5
705
330
702
100
AcDbEntity
  8
Livello 1
370
     5
  0
POLYLINE
  5
706
330
1F
100
AcDbEntity
  8
Livello 1
370
     5
100
AcDb2dPolyline
 66
     1
 10
0.0
 20
0.0
 30
0.0
  0
VERTEX
  5
707
330
706
100
AcDbEntity
  8
Livello 1
370
     5
100
AcDbVertex
100
AcDb2dVertex
 10
5.965438920110386
 20
5.708873882964056
 30
0.0
  0
VERTEX
  5
708
330
706
100
AcDbEntity
  8
Livello 1
370
     5
100
AcDbVertex
100
AcDb2dVertex
 10
5.675453390601177
 20
5.708873882964056
 30
0.0
  0
SEQEND
  5
709
330
706
100
AcDbEntity
  8
Livello 1
370
     5
  0
POLYLINE
  5
70A
330
1F
100
AcDbEntity
  8
Livello 1
370
     5
100
AcDb2dPolyline
 66
     1
 10
0.0
 20
0.0
 30
0.0
  0
VERTEX
  5
70B
330
70A
100
AcDbEntity
  8
Livello 1
370
     5
100
AcDbVertex
100
AcDb2dVertex
 10
5.965438920110386
 20
5.896410885480619
 30
0.0
  0
VERTEX
  5
70C
330
70A
100
AcDbEntity
  8
Livello 1
370
     5
100
AcDbVertex
100
AcDb2dVertex
 10
5.965438920110386
 20
5.708732580219447
 30
0.0
  0
SEQEND
  5
70D
330
70A
100
AcDbEntity
  8
Livello 1
370
     5
  0
POLYLINE
  5
70E
330
1F
100
AcDbEntity
  8
Livello 1
370
     5
100
AcDb2dPolyline
 66
     1
 10
0.0
 20
0.0
 30
0.0
  0
VERTEX
  5
70F
330
70E
100
AcDbEntity
  8
Livello 1
370
     5
100
AcDbVertex
100
AcDb2dVertex
 10
0.6801564473377937
 20
7.467788914805097
 30
0.0
  0
VERTEX
  5
710
330
70E
100
AcDbEntity
  8
Livello 1
370
     5
100
AcDbVertex
100
AcDb2dVertex
 10
0.5778478773491714
 20
7.467788914805097
 30
0.0
  0
VERTEX
  5
711
330
70E
100
AcDbEntity
  8
Livello 1
370
     5
100
AcDbVertex
100
AcDb2dVertex
 10
0.4896534329267866
 20
7.467788914805097
 30
0.0
  0
VERTEX
  5
712
330
70E
100
AcDbEntity
  8
Livello 1
370
     5
100
AcDbVertex
100
AcDb2dVertex
 10
0.2310667189886715
 20
7.467788914805097
 30
0.0
  0
SEQEND
  5
713
330
70E
100
AcDbEntity
  8
Livello 1
370
     5
  0
POLYLINE
  5
714
330
1F
100
AcDbEntity
  8
Livello 1
370
     5
100
AcDb2dPolyline
 66
     1
 10
0.0
 20
0.0
 30
0.0
  0
VERTEX
  5
715
330
714
100
AcDbEntity
  8
Livello 1
370
     5
100
AcDbVertex
100
AcDb2dVertex
 10
0.2312120589543838
 20
7.467788914805097
 30
0.0
  0
VERTEX
  5
716
330
714
100
AcDbEntity
  8
Livello 1
370
     5
100
AcDbVertex
100
AcDb2dVertex
 10
0.2227446602070984
 20
7.467788914805097
 30
0.0
  0
SEQEND
  5
717
330
714
100
AcDbEntity
  8
Livello 1
370
     5
  0
POLYLINE
  5
718
330
1F
100
AcDbEntity
  8
Livello 1
370
     5
100
AcDb2dPolyline
 66
     1
 10
0.0
 20
0.0
 30
0.0
  0
VERTEX
  5
719
330
718
100
AcDbEntity
  8
Livello 1
370
     5
100
AcDbVertex
100
AcDb2dVertex
 10
0.1545156207140792
 20
8.132704455122137
 30
0.0
  0
VERTEX
  5
71A
330
718
100
AcDbEntity
  8
Livello 1
370
     5
100
AcDbVertex
100
AcDb2dVertex
 10
0.1347547683290884
 20
8.132704455122137
 30
0.0
  0
VERTEX
  5
71B
330
718
100
AcDbEntity
  8
Livello 1
370
     5
100
AcDbVertex
100
AcDb2dVertex
 10
0.6801510643759912
 20
8.146814543466973
 30
0.0
  0
VERTEX
  5
71C
330
718
100
AcDbEntity
  8
Livello 1
370
     5
100
AcDbVertex
100
AcDb2dVertex
 10
0.6801510643759912
 20
10.41729261135708
 30
0.0
  0
SEQEND
  5
71D
330
718
100
AcDbEntity
  8
Livello 1
370
     5
  0
POLYLINE
  5
71E
330
1F
100
AcDbEntity
  8
Livello 1
370
     5
100
AcDb2dPolyline
 66
     1
 10
0.0
 20
0.0
 30
0.0
  0
VERTEX
  5
71F
330
71E
100
AcDbEntity
  8
Livello 1
370
     5
100
AcDbVertex
100
AcDb2dVertex
 10
0.6801887451078983
 20
10.41732894634854
 30
0.0
  0
VERTEX
  5
720
330
71E
100
AcDbEntity
  8
Livello 1
370
     5
100
AcDbVertex
100
AcDb2dVertex
 10
0.6971181596408656
 20
10.51116742610887
 30
0.0
  0
VERTEX
  5
721
330
71E
100
AcDbEntity
  8
Livello 1
370
     5
100
AcDbVertex
100
AcDb2dVertex
 10
0.7398050458877777
 20
10.59054188779287
 30
0.0
  0
VERTEX
  5
722
330
71E
100
AcDbEntity
  8
Livello 1
370
     5
100
AcDbVertex
100
AcDb2dVertex
 10
0.8110646928155915
 20
10.65333682745408
 30
0.0
  0
VERTEX
  5
723
330
71E
100
AcDbEntity
  8
Livello 1
370
     5
100
AcDbVertex
100
AcDb2dVertex
 10
0.8960885727991865
 20
10.69002574863158
 30
0.0
  0
VERTEX
  5
724
330
71E
100
AcDbEntity
  8
Livello 1
370
     5
100
AcDbVertex
100
AcDb2dVertex
 10
0.958525545507598
 20
10.69566978396951
 30
0.0
  0
SEQEND
  5
725
330
71E
100
AcDbEntity
  8
Livello 1
370
     5
  0
POLYLINE
  5
726
330
1F
100
AcDbEntity
  8
Livello 1
370
     5
100
AcDb2dPolyline
 66
     1
 10
0.0
 20
0.0
 30
0.0
  0
VERTEX
  5
727
330
726
100
AcDbEntity
  8
Livello 1
370
     5
100
AcDbVertex
100
AcDb2dVertex
 10
5.979655321948797
 20
10.69577609746301
 30
0.0
  0
VERTEX
  5
728
330
726
100
AcDbEntity
  8
Livello 1
370
     5
100
AcDbVertex
100
AcDb2dVertex
 10
0.9585686092011656
 20
10.69577609746301
 30
0.0
  0
SEQEND
  5
729
330
726
100
AcDbEntity
  8
Livello 1
370
     5
  0
POLYLINE
  5
72A
330
1F
100
AcDbEntity
  8
Livello 1
370
     5
100
AcDb2dPolyline
 66
     1
 10
0.0
 20
0.0
 30
0.0
  0
VERTEX
  5
72B
330
72A
100
AcDbEntity
  8
Livello 1
370
     5
100
AcDbVertex
100
AcDb2dVertex
 10
5.667093651087668
 20
5.708873882964056
 30
0.0
  0
VERTEX
  5
72C
330
72A
100
AcDbEntity
  8
Livello 1
370
     5
100
AcDbVertex
100
AcDb2dVertex
 10
5.667093651087668
 20
7.325654502710904
 30
0.0
  0
SEQEND
  5
72D
330
72A
100
AcDbEntity
  8
Livello 1
370
     5
  0
POLYLINE
  5
72E
330
1F
100
AcDbEntity
  8
Livello 1
370
     5
100
AcDb2dPolyline
 66
     1
 10
0.0
 20
0.0
 30
0.0
  0
VERTEX
  5
72F
330
72E
100
AcDbEntity
  8
Livello 1
370
     5
100
AcDbVertex
100
AcDb2dVertex
 10
0.6801564473377937
 20
7.37116340662682
 30
0.0
  0
VERTEX
  5
730
330
72E
100
AcDbEntity
  8
Livello 1
370
     5
100
AcDbVertex
100
AcDb2dVertex
 10
0.6801564473377937
 20
7.916909595183938
 30
0.0
  0
SEQEND
  5
731
330
72E
100
AcDbEntity
  8
Livello 1
370
     5
  0
POLYLINE
  5
732
330
1F
100
AcDbEntity
  8
Livello 1
370
     5
100
AcDb2dPolyline
 66
     1
 10
0.0
 20
0.0
 30
0.0
  0
VERTEX
  5
733
330
732
100
AcDbEntity
  8
Livello 1
370
     5
100
AcDbVertex
100
AcDb2dVertex
 10
5.667093651087668
 20
7.325689491961952
 30
0.0
  0
VERTEX
  5
734
330
732
100
AcDbEntity
  8
Livello 1
370
     5
100
AcDbVertex
100
AcDb2dVertex
 10
0.7257339840152781
 20
7.325689491961952
 30
0.0
  0
SEQEND
  5
735
330
732
100
AcDbEntity
  8
Livello 1
370
     5
  0
POLYLINE
  5
736
330
1F
100
AcDbEntity
  8
Livello 1
370
     5
100
AcDb2dPolyline
 66
     1
 10
0.0
 20
0.0
 30
0.0
  0
VERTEX
  5
737
330
736
100
AcDbEntity
  8
Livello 1
370
     5
100
AcDbVertex
100
AcDb2dVertex
 10
5.965438920110386
 20
5.893553878560609
 30
0.0
  0
VERTEX
  5
738
330
736
100
AcDbEntity
  8
Livello 1
370
     5
100
AcDbVertex
100
AcDb2dVertex
 10
6.579268808194768
 20
5.893553878560609
 30
0.0
  0
SEQEND
  5
739
330
736
100
AcDbEntity
  8
Livello 1
370
     5
  0
POLYLINE
  5
73A
330
1F
100
AcDbEntity
  8
Livello 1
370
     5
100
AcDb2dPolyline
 66
     1
 10
0.0
 20
0.0
 30
0.0
  0
VERTEX
  5
73B
330
73A
100
AcDbEntity
  8
Livello 1
370
     5
100
AcDbVertex
100
AcDb2dVertex
 10
7.789719255822376
 20
10.69577609746301
 30
0.0
  0
VERTEX
  5
73C
330
73A
100
AcDbEntity
  8
Livello 1
370
     5
100
AcDbVertex
100
AcDb2dVertex
 10
6.32921408854429
 20
10.69577609746301
 30
0.0
  0
SEQEND
  5
73D
330
73A
100
AcDbEntity
  8
Livello 1
370
     5
  0
POLYLINE
  5
73E
330
1F
100
AcDbEntity
  8
Livello 1
370
     5
100
AcDb2dPolyline
 66
     1
 10
0.0
 20
0.0
 30
0.0
  0
VERTEX
  5
73F
330
73E
100
AcDbEntity
  8
Livello 1
370
     5
100
AcDbVertex
100
AcDb2dVertex
 10
1.649164914027977
 20
10.43436736585586
 30
0.0
  0
VERTEX
  5
740
330
73E
100
AcDbEntity
  8
Livello 1
370
     5
100
AcDbVertex
100
AcDb2dVertex
 10
1.632230116533293
 20
10.43436736585586
 30
0.0
  0
SEQEND
  5
741
330
73E
100
AcDbEntity
  8
Livello 1
370
     5
  0
POLYLINE
  5
742
330
1F
100
AcDbEntity
  8
Livello 1
370
     5
100
AcDb2dPolyline
 66
     1
 10
0.0
 20
0.0
 30
0.0
  0
VERTEX
  5
743
330
742
100
AcDbEntity
  8
Livello 1
370
     5
100
AcDbVertex
100
AcDb2dVertex
 10
0.9103426553693907
 20
8.146885867709457
 30
0.0
  0
VERTEX
  5
744
330
742
100
AcDbEntity
  8
Livello 1
370
     5
100
AcDbVertex
100
AcDb2dVertex
 10
0.9075166004791697
 20
8.146885867709457
 30
0.0
  0
SEQEND
  5
745
330
742
100
AcDbEntity
  8
Livello 1
370
     5
  0
POLYLINE
  5
746
330
1F
100
AcDbEntity
  8
Livello 1
370
     5
100
AcDb2dPolyline
 66
     1
 10
0.0
 20
0.0
 30
0.0
  0
VERTEX
  5
747
330
746
100
AcDbEntity
  8
Livello 1
370
     5
100
AcDbVertex
100
AcDb2dVertex
 10
2.859615361655585
 20
10.43436736585586
 30
0.0
  0
VERTEX
  5
748
330
746
100
AcDbEntity
  8
Livello 1
370
     5
100
AcDbVertex
100
AcDb2dVertex
 10
2.757306791667076
 20
10.43436736585586
 30
0.0
  0
SEQEND
  5
749
330
746
100
AcDbEntity
  8
Livello 1
370
     5
  0
POLYLINE
  5
74A
330
1F
100
AcDbEntity
  8
Livello 1
370
     5
100
AcDb2dPolyline
 66
     1
 10
0.0
 20
0.0
 30
0.0
  0
VERTEX
  5
74B
330
74A
100
AcDbEntity
  8
Livello 1
370
     5
100
AcDbVertex
100
AcDb2dVertex
 10
2.859615361655585
 20
8.479379299989233
 30
0.0
  0
VERTEX
  5
74C
330
74A
100
AcDbEntity
  8
Livello 1
370
     5
100
AcDbVertex
100
AcDb2dVertex
 10
2.816928475408673
 20
8.479379299989233
 30
0.0
  0
SEQEND
  5
74D
330
74A
100
AcDbEntity
  8
Livello 1
370
     5
  0
LINE
  5
74E
330
1F
100
AcDbEntity
  8
Livello 1
370
     9
100
AcDbLine
 10
20.24710667007454
 20
10.80078935080438
 30
0.0
 11
20.24710667007454
 21
6.720208322568367
 31
0.0
  0
ENDSEC
  0
SECTION
  2
OBJECTS
  0
DICTIONARY
  5
C
330
0
100
AcDbDictionary
281
     1
  3
ACAD_CIP_PREVIOUS_PRODUCT_INFO
350
216
  3
ACAD_COLOR
350
6B
  3
ACAD_DETAILVIEWSTYLE
350
21B
  3
ACAD_GROUP
350
D
  3
ACAD_LAYOUT
350
1A
  3
ACAD_MATERIAL
350
6A
  3
ACAD_MLEADERSTYLE
350
12D
  3
ACAD_MLINESTYLE
350
17
  3
ACAD_PLOTSETTINGS
350
19
  3
ACAD_PLOTSTYLENAME
350
E
  3
ACAD_SCALELIST
350
10C
  3
ACAD_SECTIONVIEWSTYLE
350
219
  3
ACAD_TABLESTYLE
350
7E
  3
ACAD_VISUALSTYLE
350
EF
  3
ACDB_RECOMPOSE_DATA
350
769
  3
AcDbVariableDictionary
350
5E
  3
AcDsDecomposeData
350
76F
  0
DICTIONARY
  5
1FF
330
2
100
AcDbDictionary
280
     1
281
     1
  3
ACAD_LAYERSTATES
360
200
  0
DICTIONARY
  5
13C
330
10
100
AcDbDictionary
280
     1
281
     1
  0
DICTIONARY
  5
1CE
330
1F
100
AcDbDictionary
280
     1
281
     1
  0
XRECORD
  5
216
102
{ACAD_REACTORS
330
C
102
}
330
C
100
AcDbXrecord
280
     1
300
ACD
300
2020
300

  0
DICTIONARY
  5
6B
102
{ACAD_REACTORS
330
C
102
}
330
C
100
AcDbDictionary
281
     1
  0
DICTIONARY
  5
21B
102
{ACAD_REACTORS
330
C
102
}
330
C
100
AcDbDictionary
281
     1
  3
Imperial24
350
28E
  3
Metric50
350
21C
  0
DICTIONARY
  5
D
102
{ACAD_REACTORS
330
C
102
}
330
C
100
AcDbDictionary
281
     1
  0
DICTIONARY
  5
1A
102
{ACAD_REACTORS
330
C
102
}
330
C
100
AcDbDictionary
281
     1
  3
Layout1
350
D3
  3
Layout2
350
D7
  3
Model
350
22
  0
DICTIONARY
  5
6A
102
{ACAD_REACTORS
330
C
102
}
330
C
100
AcDbDictionary
281
     1
  3
ByBlock
350
ED
  3
ByLayer
350
EC
  3
Global
350
EE
  0
DICTIONARY
  5
12D
102
{ACAD_REACTORS
330
C
102
}
330
C
100
AcDbDictionary
281
     1
  3
Annotativa
350
13B
  3
Standard
350
12E
  0
DICTIONARY
  5
17
102
{ACAD_REACTORS
330
C
102
}
330
C
100
AcDbDictionary
281
     1
  3
Standard
350
18
  0
DICTIONARY
  5
19
102
{ACAD_REACTORS
330
C
102
}
330
C
100
AcDbDictionary
281
     1
  0
ACDBDICTIONARYWDFLT
  5
E
102
{ACAD_REACTORS
330
C
102
}
330
C
100
AcDbDictionary
281
     1
  3
Normal
350
F
100
AcDbDictionaryWithDefault
340
F
  0
DICTIONARY
  5
10C
102
{ACAD_REACTORS
330
C
102
}
330
C
100
AcDbDictionary
281
     1
  3
A0
350
10D
  3
A1
350
1BE
  3
A2
350
1BF
  3
A3
350
1C0
  3
A4
350
1C1
  3
A5
350
1C2
  3
A6
350
1C3
  3
A7
350
1C4
  3
A8
350
1C5
  3
A9
350
1C6
  3
B0
350
1C7
  3
B1
350
1C8
  3
B2
350
1C9
  3
B3
350
1CA
  3
B4
350
1CB
  3
B5
350
1CC
  3
B6
350
1CD
  0
DICTIONARY
  5
219
102
{ACAD_REACTORS
330
C
102
}
330
C
100
AcDbDictionary
281
     1
  3
Imperial24
350
28D
  3
Metric50
350
21A
  0
DICTIONARY
  5
7E
102
{ACAD_REACTORS
330
C
102
}
330
C
100
AcDbDictionary
281
     1
  3
Standard
350
7F
  0
DICTIONARY
  5
EF
102
{ACAD_REACTORS
330
C
102
}
330
C
100
AcDbDictionary
281
     1
  3
2dWireframe
350
F5
  3
Basic
350
F4
  3
Brighten
350
FB
  3
ColorChange
350
FF
  3
Conceptual
350
F8
  3
Dim
350
FA
  3
EdgeColorOff
350
1E6
  3
Facepattern
350
FE
  3
Flat
350
F0
  3
FlatWithEdges
350
F1
  3
Gouraud
350
F2
  3
GouraudWithEdges
350
F3
  3
Hidden
350
F7
  3
JitterOff
350
1E4
  3
Linepattern
350
FD
  3
OverhangOff
350
1E5
  3
Realistic
350
F9
  3
Shaded
350
1F3
  3
Shaded with edges
350
1F2
  3
Shades of Gray
350
1EF
  3
Sketchy
350
1F0
  3
Thicken
350
FC
  3
Wireframe
350
F6
  3
X-Ray
350
1F1
  0
XRECORD
  5
769
102
{ACAD_REACTORS
330
C
102
}
330
C
100
AcDbXrecord
280
     1
 90
        1
330
7F
  0
DICTIONARY
  5
5E
102
{ACAD_REACTORS
330
C
102
}
330
C
100
AcDbDictionary
281
     1
  3
CANNOSCALE
350
146
  3
CENTEREXE
350
259
  3
CENTERLTYPEFILE
350
25A
  3
CMLEADERSTYLE
350
145
  3
CTABLESTYLE
350
84
  3
CVIEWDETAILSTYLE
350
227
  3
CVIEWSECTIONSTYLE
350
228
  3
DIMASSOC
350
5F
  3
HIDETEXT
350
63
  3
LAYEREVAL
350
1AE
  3
LAYERNOTIFY
350
1AF
  0
DICTIONARY
  5
76F
102
{ACAD_REACTORS
330
C
102
}
330
C
100
AcDbDictionary
281
     1
  3
AcDsRecords
350
771
  3
AcDsSchemas
350
770
1001
ACAD
1070
     2
  0
DICTIONARY
  5
200
102
{ACAD_REACTORS
330
1FF
102
}
330
1FF
100
AcDbDictionary
281
     1
  0
ACDBDETAILVIEWSTYLE
  5
28E
102
{ACAD_XDICTIONARY
360
778
102
}
102
{ACAD_REACTORS
330
21B
102
}
330
21B
100
AcDbModelDocViewStyle
 70
     0
  3
Imperial24
290
     0
100
AcDbDetailViewStyle
 70
     0
 71
     0
 90
        3
 71
     1
340
11
 62
   256
 40
0.24
340
0
 62
   256
 40
0.24
300

 40
0.36
280
     3
 71
     2
340
16
 90
       25
 62
   256
 71
     3
340
11
 62
   256
 40
0.24
 90
        1
 40
0.75
 90
        1
300
%<\AcVar ViewType \f "%tc1">% %<\AcVar ViewDetailId>%\PSCALA %<\AcVar ViewScale \f "%sn">%
 71
     4
340
16
 90
       25
 62
   256
340
16
 90
       25
 62
   256
280
     0
  0
ACDBDETAILVIEWSTYLE
  5
21C
102
{ACAD_XDICTIONARY
360
774
102
}
102
{ACAD_REACTORS
330
21B
102
}
330
21B
100
AcDbModelDocViewStyle
 70
     0
  3
Metric50
290
     0
100
AcDbDetailViewStyle
 70
     0
 71
     0
 90
        3
 71
     1
340
11
 62
   256
 40
5.0
340
0
 62
   256
 40
5.0
300

 40
0.0
280
     1
 71
     2
340
16
 90
       25
 62
   256
 71
     3
340
11
 62
   256
 40
5.0
 90
        0
 40
15.0
 90
        1
300
%<\AcVar ViewDetailId>% (%<\AcVar ViewScale \f "%sn">%)
 71
     4
340
16
 90
       25
 62
   256
340
16
 90
       25
 62
   256
280
     0
  0
LAYOUT
  5
D3
102
{ACAD_REACTORS
330
1A
102
}
330
1A
100
AcDbPlotSettings
  1

  2
C:\Documents and Settings\basas\Application Data\Autodesk\AutoCAD 2005\R16.1\enu\plotters\Default Windows System Printer.pc3
  4

  6

 40
0.0
 41
0.0
 42
0.0
 43
0.0
 44
0.0
 45
0.0
 46
0.0
 47
0.0
 48
0.0
 49
0.0
140
0.0
141
0.0
142
1.0
143
1.0
 70
   688
 72
     0
 73
     0
 74
     5
  7

 75
    16
147
1.0
 76
     0
 77
     2
 78
   300
148
0.0
149
0.0
100
AcDbLayout
  1
Layout1
 70
     1
 71
     1
 10
0.0
 20
0.0
 11
12.0
 21
9.0
 12
0.0
 22
0.0
 32
0.0
 14
0.0
 24
0.0
 34
0.0
 15
0.0
 25
0.0
 35
0.0
146
0.0
 13
0.0
 23
0.0
 33
0.0
 16
1.0
 26
0.0
 36
0.0
 17
0.0
 27
1.0
 37
0.0
 76
     0
330
D2
  0
LAYOUT
  5
D7
102
{ACAD_REACTORS
330
1A
102
}
330
1A
100
AcDbPlotSettings
  1

  2
C:\Documents and Settings\basas\Application Data\Autodesk\AutoCAD 2005\R16.1\enu\plotters\Default Windows System Printer.pc3
  4

  6

 40
0.0
 41
0.0
 42
0.0
 43
0.0
 44
0.0
 45
0.0
 46
0.0
 47
0.0
 48
0.0
 49
0.0
140
0.0
141
0.0
142
1.0
143
1.0
 70
   688
 72
     0
 73
     0
 74
     5
  7

 75
    16
147
1.0
 76
     0
 77
     2
 78
   300
148
0.0
149
0.0
100
AcDbLayout
  1
Layout2
 70
     1
 71
     2
 10
0.0
 20
0.0
 11
12.0
 21
9.0
 12
0.0
 22
0.0
 32
0.0
 14
0.0
 24
0.0
 34
0.0
 15
0.0
 25
0.0
 35
0.0
146
0.0
 13
0.0
 23
0.0
 33
0.0
 16
1.0
 26
0.0
 36
0.0
 17
0.0
 27
1.0
 37
0.0
 76
     0
330
D6
  0
LAYOUT
  5
22
102
{ACAD_XDICTIONARY
360
205
102
}
102
{ACAD_REACTORS
330
1A
102
}
330
1A
100
AcDbPlotSettings
  1

  2
none_device
  4
ISO_A4_(210.00_x_297.00_MM)
  6

 40
7.5
 41
20.0
 42
7.5
 43
20.0
 44
210.0
 45
297.0
 46
11.54999923706054
 47
-13.65000009536743
 48
0.0
 49
0.0
140
0.0
141
0.0
142
1.0
143
8.704084754739808
 70
 11952
 72
     1
 73
     0
 74
     0
  7

 75
     0
147
0.1148885871608098
 76
     0
 77
     2
 78
   300
148
0.0
149
0.0
100
AcDbLayout
  1
Model
 70
     1
 71
     0
 10
0.0
 20
0.0
 11
12.0
 21
9.0
 12
0.0
 22
0.0
 32
0.0
 14
0.0
 24
0.0
 34
0.0
 15
0.0
 25
0.0
 35
0.0
146
0.0
 13
0.0
 23
0.0
 33
0.0
 16
1.0
 26
0.0
 36
0.0
 17
0.0
 27
1.0
 37
0.0
 76
     0
330
1F
331
EA
1001
ACAD_PSEXT
1000
None
1000
None
1000
Not applicable
1000
The layout will not be plotted unless a new plotter configuration name is selected.
1070
     0
  0
MATERIAL
  5
ED
102
{ACAD_XDICTIONARY
360
1F9
102
}
102
{ACAD_REACTORS
330
6A
102
}
330
6A
100
AcDbMaterial
  1
ByBlock
 94
       63
  0
MATERIAL
  5
EC
102
{ACAD_XDICTIONARY
360
1F7
102
}
102
{ACAD_REACTORS
330
6A
102
}
330
6A
100
AcDbMaterial
  1
ByLayer
 94
       63
  0
MATERIAL
  5
EE
102
{ACAD_XDICTIONARY
360
173
102
}
102
{ACAD_REACTORS
330
6A
102
}
330
6A
100
AcDbMaterial
  1
Global
 43
0.0007999999797903
 43
0.0
 43
0.0
 43
0.0
 43
0.0
 43
0.0007999999797903
 43
0.0
 43
0.0
 43
0.0
 43
0.0
 43
1.0
 43
0.0
 43
0.0
 43
0.0
 43
0.0
 43
1.0
 49
0.0007999999797903
 49
0.0
 49
0.0
 49
0.0
 49
0.0
 49
0.0007999999797903
 49
0.0
 49
0.0
 49
0.0
 49
0.0
 49
1.0
 49
0.0
 49
0.0
 49
0.0
 49
0.0
 49
1.0
142
0.0007999999797903
142
0.0
142
0.0
142
0.0
142
0.0
142
0.0007999999797903
142
0.0
142
0.0
142
0.0
142
0.0
142
1.0
142
0.0
142
0.0
142
0.0
142
0.0
142
1.0
144
0.0007999999797903
144
0.0
144
0.0
144
0.0
144
0.0
144
0.0007999999797903
144
0.0
144
0.0
144
0.0
144
0.0
144
1.0
144
0.0
144
0.0
144
0.0
144
0.0
144
1.0
 94
       63
1001
ACAD
1070
    -1
1070
     3
1070
     0
1000

1071
        0
1070
     0
  0
MLEADERSTYLE
  5
13B
102
{ACAD_REACTORS
330
12D
102
}
330
12D
100
AcDbMLeaderStyle
179
     2
170
     2
171
     1
172
     0
 90
        2
 40
0.0
 41
0.0
173
     1
 91
-1056964608
340
14
 92
       -2
290
     1
 42
2.0
291
     1
 43
8.0
  3
Standard
 44
4.0
300

342
11
174
     1
178
     1
175
     1
176
     0
 93
-1056964608
 45
4.0
292
     0
297
     0
 46
4.0
 94
-1056964608
 47
1.0
 49
1.0
140
1.0
293
     1
141
0.0
294
     1
177
     0
142
1.0
295
     0
296
     1
143
3.75
271
     0
272
     9
273
     9
298
     0
  0
MLEADERSTYLE
  5
12E
102
{ACAD_REACTORS
330
12D
102
}
330
12D
100
AcDbMLeaderStyle
179
     2
170
     2
171
     1
172
     0
 90
        2
 40
0.0
 41
0.0
173
     1
 91
-1056964608
340
14
 92
       -2
290
     1
 42
2.0
291
     1
 43
8.0
  3
Standard
 44
4.0
300

342
11
174
     1
178
     1
175
     1
176
     0
 93
-1056964608
 45
4.0
292
     0
297
     0
 46
4.0
 94
-1056964608
 47
1.0
 49
1.0
140
1.0
293
     1
141
0.0
294
     1
177
     0
142
1.0
295
     0
296
     0
143
3.75
271
     0
272
     9
273
     9
298
     0
  0
MLINESTYLE
  5
18
102
{ACAD_REACTORS
330
17
102
}
330
17
100
AcDbMlineStyle
  2
STANDARD
 70
     0
  3

 62
   256
 51
90.0
 52
90.0
 71
     2
 49
0.5
 62
   256
  6
BYLAYER
 49
-0.5
 62
   256
  6
BYLAYER
  0
ACDBPLACEHOLDER
  5
F
102
{ACAD_REACTORS
330
E
102
}
330
E
  0
SCALE
  5
10D
102
{ACAD_REACTORS
330
10C
102
}
330
10C
100
AcDbScale
 70
     0
300
1:1
140
1.0
141
1.0
290
     1
  0
SCALE
  5
1BE
102
{ACAD_REACTORS
330
10C
102
}
330
10C
100
AcDbScale
 70
     0
300
1:2
140
1.0
141
2.0
290
     0
  0
SCALE
  5
1BF
102
{ACAD_REACTORS
330
10C
102
}
330
10C
100
AcDbScale
 70
     0
300
1:4
140
1.0
141
4.0
290
     0
  0
SCALE
  5
1C0
102
{ACAD_REACTORS
330
10C
102
}
330
10C
100
AcDbScale
 70
     0
300
1:5
140
1.0
141
5.0
290
     0
  0
SCALE
  5
1C1
102
{ACAD_REACTORS
330
10C
102
}
330
10C
100
AcDbScale
 70
     0
300
1:8
140
1.0
141
8.0
290
     0
  0
SCALE
  5
1C2
102
{ACAD_REACTORS
330
10C
102
}
330
10C
100
AcDbScale
 70
     0
300
1:10
140
1.0
141
10.0
290
     0
  0
SCALE
  5
1C3
102
{ACAD_REACTORS
330
10C
102
}
330
10C
100
AcDbScale
 70
     0
300
1:16
140
1.0
141
16.0
290
     0
  0
SCALE
  5
1C4
102
{ACAD_REACTORS
330
10C
102
}
330
10C
100
AcDbScale
 70
     0
300
1:20
140
1.0
141
20.0
290
     0
  0
SCALE
  5
1C5
102
{ACAD_REACTORS
330
10C
102
}
330
10C
100
AcDbScale
 70
     0
300
1:30
140
1.0
141
30.0
290
     0
  0
SCALE
  5
1C6
102
{ACAD_REACTORS
330
10C
102
}
330
10C
100
AcDbScale
 70
     0
300
1:40
140
1.0
141
40.0
290
     0
  0
SCALE
  5
1C7
102
{ACAD_REACTORS
330
10C
102
}
330
10C
100
AcDbScale
 70
     0
300
1:50
140
1.0
141
50.0
290
     0
  0
SCALE
  5
1C8
102
{ACAD_REACTORS
330
10C
102
}
330
10C
100
AcDbScale
 70
     0
300
1:100
140
1.0
141
100.0
290
     0
  0
SCALE
  5
1C9
102
{ACAD_REACTORS
330
10C
102
}
330
10C
100
AcDbScale
 70
     0
300
2:1
140
2.0
141
1.0
290
     0
  0
SCALE
  5
1CA
102
{ACAD_REACTORS
330
10C
102
}
330
10C
100
AcDbScale
 70
     0
300
4:1
140
4.0
141
1.0
290
     0
  0
SCALE
  5
1CB
102
{ACAD_REACTORS
330
10C
102
}
330
10C
100
AcDbScale
 70
     0
300
8:1
140
8.0
141
1.0
290
     0
  0
SCALE
  5
1CC
102
{ACAD_REACTORS
330
10C
102
}
330
10C
100
AcDbScale
 70
     0
300
10:1
140
10.0
141
1.0
290
     0
  0
SCALE
  5
1CD
102
{ACAD_REACTORS
330
10C
102
}
330
10C
100
AcDbScale
 70
     0
300
100:1
140
100.0
141
1.0
290
     0
  0
ACDBSECTIONVIEWSTYLE
  5
28D
102
{ACAD_XDICTIONARY
360
776
102
}
102
{ACAD_REACTORS
330
219
102
}
330
219
100
AcDbModelDocViewStyle
 70
     0
  3
Imperial24
290
     0
100
AcDbSectionViewStyle
 70
     0
 71
     0
 90
       78
 71
     1
340
11
 62
   256
 40
0.24
340
0
340
0
 62
   256
 40
0.24
300
I, O, Q, S, X, Z
 40
0.48
 90
        3
 40
0.18
 90
        1
 71
     2
340
16
 90
       25
 62
   256
340
16
 90
       50
 62
   256
 40
0.24
 40
0.0
 40
0.24
 71
     3
340
11
 62
   256
 40
0.24
 90
        1
 40
0.75
 90
        1
300
%<\AcVar ViewType \f "%tc1">% %<\AcVar ViewSectionStartId>%-%<\AcVar ViewSectionEndId>%\PSCALA %<\AcVar ViewScale \f "%sn">%
 71
     4
 62
   256
 62
   257
300
ANSI31
 40
1.0
 90
        0
290
     0
290
     0
 90
        6
 40
0.0
 40
1.570796326794896
 40
0.2617993877991494
 40
1.308996938995747
 40
-0.2617993877991494
 40
1.832595714594046
  0
ACDBSECTIONVIEWSTYLE
  5
21A
102
{ACAD_XDICTIONARY
360
772
102
}
102
{ACAD_REACTORS
330
219
102
}
330
219
100
AcDbModelDocViewStyle
 70
     0
  3
Metric50
290
     0
100
AcDbSectionViewStyle
 70
     0
 71
     0
 90
      102
 71
     1
340
11
 62
   256
 40
5.0
340
0
340
0
 62
   256
 40
5.0
300
I, O, Q, S, X, Z
 40
10.0
 90
        0
 40
2.5
 90
        0
 71
     2
340
16
 90
       25
 62
   256
340
16
 90
       50
 62
   256
 40
5.0
 40
2.5
 40
5.0
 71
     3
340
11
 62
   256
 40
5.0
 90
        0
 40
15.0
 90
        1
300
%<\AcVar ViewSectionStartId>%-%<\AcVar ViewSectionEndId>% (%<\AcVar ViewScale \f "%sn">%)
 71
     4
 62
   256
 62
   257
300
ANSI31
 40
1.0
 90
        0
290
     0
290
     0
 90
        6
 40
0.0
 40
1.570796326794896
 40
0.2617993877991494
 40
1.308996938995747
 40
-0.2617993877991494
 40
1.832595714594046
  0
TABLESTYLE
  5
7F
102
{ACAD_XDICTIONARY
360
162
102
}
102
{ACAD_REACTORS
330
7E
102
}
330
7E
100
AcDbTableStyle
280
     0
  3
Standard
 70
     0
 71
     0
 40
1.5
 41
1.5
280
     0
281
     0
  7
Standard
140
4.5
170
     2
 62
     0
 63
     7
283
     0
 90
      512
 91
        0
  1

274
    -2
284
     1
 64
     0
275
    -2
285
     1
 65
     0
276
    -2
286
     1
 66
     0
277
    -2
287
     1
 67
     0
278
    -2
288
     1
 68
     0
279
    -2
289
     1
 69
     0
  7
Standard
140
6.0
170
     5
 62
     0
 63
     7
283
     0
 90
      512
 91
        0
  1

274
    -2
284
     1
 64
     0
275
    -2
285
     1
 65
     0
276
    -2
286
     1
 66
     0
277
    -2
287
     1
 67
     0
278
    -2
288
     1
 68
     0
279
    -2
289
     1
 69
     0
  7
Standard
140
4.5
170
     5
 62
     0
 63
     7
283
     0
 90
      512
 91
        0
  1

274
    -2
284
     1
 64
     0
275
    -2
285
     1
 65
     0
276
    -2
286
     1
 66
     0
277
    -2
287
     1
 67
     0
278
    -2
288
     1
 68
     0
279
    -2
289
     1
 69
     0
  0
VISUALSTYLE
  5
F5
102
{ACAD_REACTORS
330
EF
102
}
330
EF
100
AcDbVisualStyle
  2
2dWireframe
 70
     4
177
     3
291
     0
 70
    58
 90
        0
176
     1
 90
        2
176
     1
 90
        1
176
     1
 90
        0
176
     1
 40
0.6
176
     1
 40
30.0
176
     1
 62
     7
420
 16777215
176
     1
 90
        1
176
     1
 90
        4
176
     1
 62
     7
176
     1
 62
   257
176
     1
 90
        1
176
     1
 90
        1
176
     1
 40
1.0
176
     1
 90
        0
176
     1
 62
   257
176
     1
 40
1.0
176
     1
 90
        1
176
     1
 90
        6
176
     1
 90
        2
176
     1
 62
     7
176
     1
 90
        5
176
     1
 90
        0
176
     1
 90
        0
176
     1
290
     0
176
     1
 90
        1
176
     1
 40
0.0
176
     1
 90
        0
176
     1
290
     1
176
     1
290
     1
176
     1
290
     0
176
     1
290
     0
176
     1
290
     0
176
     1
290
     0
176
     1
290
     0
176
     1
290
     0
176
     1
290
     0
176
     1
 90
       50
176
     1
 40
0.0
176
     1
 40
1.0
176
     1
 90
        0
176
     1
 62
    18
420
        0
176
     1
 90
       50
176
     1
 90
        3
176
     1
 62
     5
420
      255
176
     1
290
     0
176
     1
 90
       50
176
     1
 90
       50
176
     1
 90
       50
176
     1
290
     0
176
     1
 90
       50
176
     1
 62
   256
176
     0
 40
1.0
176
     0
 90
        2
176
     1
  1
strokes_ogs.tif
176
     1
290
     0
176
     1
 40
1.0
176
     1
 40
1.0
176
     1
1001
ACAD
1000
AcDbSavedByObjectVersion
1070
     0
  0
VISUALSTYLE
  5
F4
102
{ACAD_REACTORS
330
EF
102
}
330
EF
100
AcDbVisualStyle
  2
Basic
 70
     7
177
     3
291
     1
 70
    58
 90
        1
176
     1
 90
        0
176
     1
 90
        1
176
     1
 90
        0
176
     1
 40
0.6
176
     1
 40
30.0
176
     1
 62
     7
420
 16777215
176
     1
 90
        0
176
     1
 90
        4
176
     1
 62
     7
176
     1
 62
   257
176
     1
 90
        1
176
     1
 90
        1
176
     1
 40
1.0
176
     1
 90
        8
176
     1
 62
     7
176
     1
 40
1.0
176
     1
 90
        1
176
     1
 90
        6
176
     1
 90
        2
176
     1
 62
     7
176
     1
 90
        5
176
     1
 90
        0
176
     1
 90
        0
176
     1
290
     0
176
     1
 90
        1
176
     1
 40
0.0
176
     1
 90
        0
176
     1
290
     0
176
     1
290
     1
176
     1
290
     1
176
     1
290
     0
176
     1
290
     0
176
     1
290
     0
176
     1
290
     0
176
     1
290
     0
176
     1
290
     0
176
     1
 90
       50
176
     1
 40
0.0
176
     1
 40
1.0
176
     1
 90
        0
176
     1
 62
    18
420
        0
176
     1
 90
       50
176
     1
 90
        3
176
     1
 62
     5
420
      255
176
     1
290
     0
176
     1
 90
       50
176
     1
 90
       50
176
     1
 90
       50
176
     1
290
     0
176
     1
 90
       50
176
     1
 62
   256
176
     0
 40
1.0
176
     0
 90
        2
176
     1
  1
strokes_ogs.tif
176
     1
290
     0
176
     1
 40
1.0
176
     1
 40
1.0
176
     1
1001
ACAD
1000
AcDbSavedByObjectVersion
1070
     0
  0
VISUALSTYLE
  5
FB
102
{ACAD_REACTORS
330
EF
102
}
330
EF
100
AcDbVisualStyle
  2
Brighten
 70
    12
177
     3
291
     1
 70
    58
 90
        2
176
     1
 90
        2
176
     1
 90
        1
176
     1
 90
        0
176
     1
 40
0.6
176
     1
 40
30.0
176
     1
 62
     7
420
 16777215
176
     1
 90
        1
176
     1
 90
        4
176
     1
 62
     7
176
     1
 62
   257
176
     1
 90
        1
176
     1
 90
        1
176
     1
 40
1.0
176
     1
 90
        8
176
     1
 62
     7
176
     1
 40
1.0
176
     1
 90
        1
176
     1
 90
        6
176
     1
 90
        2
176
     1
 62
     7
176
     1
 90
        5
176
     1
 90
        0
176
     1
 90
        0
176
     1
290
     0
176
     1
 90
        1
176
     1
 40
50.0
176
     1
 90
        0
176
     1
290
     0
176
     1
290
     1
176
     1
290
     1
176
     1
290
     0
176
     1
290
     0
176
     1
290
     0
176
     1
290
     0
176
     1
290
     0
176
     1
290
     0
176
     1
 90
       50
176
     1
 40
0.0
176
     1
 40
1.0
176
     1
 90
        0
176
     1
 62
    18
420
        0
176
     1
 90
       50
176
     1
 90
        3
176
     1
 62
     5
420
      255
176
     1
290
     0
176
     1
 90
       50
176
     1
 90
       50
176
     1
 90
       50
176
     1
290
     0
176
     1
 90
       50
176
     1
 62
   256
176
     0
 40
1.0
176
     0
 90
        2
176
     1
  1
strokes_ogs.tif
176
     1
290
     0
176
     1
 40
1.0
176
     1
 40
1.0
176
     1
1001
ACAD
1000
AcDbSavedByObjectVersion
1070
     0
  0
VISUALSTYLE
  5
FF
102
{ACAD_REACTORS
330
EF
102
}
330
EF
100
AcDbVisualStyle
  2
ColorChange
 70
    16
177
     3
291
     1
 70
    58
 90
        2
176
     1
 90
        2
176
     1
 90
        3
176
     1
 90
        0
176
     1
 40
0.6
176
     1
 40
30.0
176
     1
 62
     8
420
  8421504
176
     1
 90
        1
176
     1
 90
        4
176
     1
 62
     7
176
     1
 62
   257
176
     1
 90
        1
176
     1
 90
        1
176
     1
 40
1.0
176
     1
 90
        8
176
     1
 62
     8
420
  8421504
176
     1
 40
1.0
176
     1
 90
        1
176
     1
 90
        6
176
     1
 90
        2
176
     1
 62
     7
176
     1
 90
        5
176
     1
 90
        0
176
     1
 90
        0
176
     1
290
     0
176
     1
 90
        1
176
     1
 40
0.0
176
     1
 90
        0
176
     1
290
     0
176
     1
290
     1
176
     1
290
     1
176
     1
290
     0
176
     1
290
     0
176
     1
290
     0
176
     1
290
     0
176
     1
290
     0
176
     1
290
     0
176
     1
 90
       50
176
     1
 40
0.0
176
     1
 40
1.0
176
     1
 90
        0
176
     1
 62
    18
420
        0
176
     1
 90
       50
176
     1
 90
        3
176
     1
 62
     5
420
      255
176
     1
290
     0
176
     1
 90
       50
176
     1
 90
       50
176
     1
 90
       50
176
     1
290
     0
176
     1
 90
       50
176
     1
 62
   256
176
     0
 40
1.0
176
     0
 90
        2
176
     1
  1
strokes_ogs.tif
176
     1
290
     0
176
     1
 40
1.0
176
     1
 40
1.0
176
     1
1001
ACAD
1000
AcDbSavedByObjectVersion
1070
     0
  0
VISUALSTYLE
  5
F8
102
{ACAD_REACTORS
330
EF
102
}
330
EF
100
AcDbVisualStyle
  2
Conceptual
 70
     9
177
     3
291
     0
 70
    58
 90
        3
176
     1
 90
        2
176
     1
 90
        1
176
     1
 90
        0
176
     1
 40
0.6
176
     1
 40
30.0
176
     1
 62
     7
420
 16777215
176
     1
 90
        2
176
     1
 90
        2
176
     1
 62
     7
176
     1
 62
   257
176
     1
 90
        1
176
     1
 90
        1
176
     1
 40
40.0
176
     1
 90
        8
176
     1
 62
     7
176
     1
 40
1.0
176
     1
 90
        1
176
     1
 90
        6
176
     1
 90
        2
176
     1
 62
     7
176
     1
 90
        3
176
     1
 90
        0
176
     1
 90
        0
176
     1
290
     0
176
     1
 90
        1
176
     1
 40
0.0
176
     1
 90
        0
176
     1
290
     0
176
     1
290
     1
176
     1
290
     1
176
     1
290
     0
176
     1
290
     0
176
     1
290
     0
176
     1
290
     0
176
     1
290
     0
176
     1
290
     0
176
     1
 90
       50
176
     1
 40
0.0
176
     1
 40
1.0
176
     1
 90
        0
176
     1
 62
    18
420
        0
176
     1
 90
       50
176
     1
 90
        3
176
     1
 62
     5
420
      255
176
     1
290
     0
176
     1
 90
       50
176
     1
 90
       50
176
     1
 90
       50
176
     1
290
     0
176
     1
 90
       50
176
     1
 62
   256
176
     0
 40
1.0
176
     0
 90
        2
176
     1
  1
strokes_ogs.tif
176
     1
290
     0
176
     1
 40
1.0
176
     1
 40
1.0
176
     1
1001
ACAD
1000
AcDbSavedByObjectVersion
1070
     0
  0
VISUALSTYLE
  5
FA
102
{ACAD_REACTORS
330
EF
102
}
330
EF
100
AcDbVisualStyle
  2
Dim
 70
    11
177
     3
291
     1
 70
    58
 90
        2
176
     1
 90
        2
176
     1
 90
        1
176
     1
 90
        0
176
     1
 40
0.6
176
     1
 40
30.0
176
     1
 62
     7
420
 16777215
176
     1
 90
        1
176
     1
 90
        4
176
     1
 62
     7
176
     1
 62
   257
176
     1
 90
        1
176
     1
 90
        1
176
     1
 40
1.0
176
     1
 90
        8
176
     1
 62
     7
176
     1
 40
1.0
176
     1
 90
        1
176
     1
 90
        6
176
     1
 90
        2
176
     1
 62
     7
176
     1
 90
        5
176
     1
 90
        0
176
     1
 90
        0
176
     1
290
     0
176
     1
 90
        1
176
     1
 40
-50.0
176
     1
 90
        0
176
     1
290
     0
176
     1
290
     1
176
     1
290
     1
176
     1
290
     0
176
     1
290
     0
176
     1
290
     0
176
     1
290
     0
176
     1
290
     0
176
     1
290
     0
176
     1
 90
       50
176
     1
 40
0.0
176
     1
 40
1.0
176
     1
 90
        0
176
     1
 62
    18
420
        0
176
     1
 90
       50
176
     1
 90
        3
176
     1
 62
     5
420
      255
176
     1
290
     0
176
     1
 90
       50
176
     1
 90
       50
176
     1
 90
       50
176
     1
290
     0
176
     1
 90
       50
176
     1
 62
   256
176
     0
 40
1.0
176
     0
 90
        2
176
     1
  1
strokes_ogs.tif
176
     1
290
     0
176
     1
 40
1.0
176
     1
 40
1.0
176
     1
1001
ACAD
1000
AcDbSavedByObjectVersion
1070
     0
  0
VISUALSTYLE
  5
1E6
102
{ACAD_REACTORS
330
EF
102
}
330
EF
100
AcDbVisualStyle
  2
EdgeColorOff
 70
    22
177
     3
291
     1
 70
    58
 90
        2
176
     0
 90
        2
176
     0
 90
        0
176
     0
 90
        0
176
     0
 40
0.6
176
     0
 40
30.0
176
     0
 62
     7
420
 16777215
176
     0
 90
        1
176
     0
 90
        4
176
     0
 62
     7
176
     0
 62
   257
176
     0
 90
        1
176
     0
 90
        1
176
     0
 40
1.0
176
     0
 90
        8
176
     2
 62
     7
176
     0
 40
1.0
176
     0
 90
        1
176
     0
 90
        6
176
     0
 90
        2
176
     0
 62
     7
176
     0
 90
        5
176
     0
 90
        0
176
     0
 90
        0
176
     0
290
     0
176
     0
 90
        1
176
     0
 40
0.0
176
     0
 90
        0
176
     0
290
     0
176
     1
290
     1
176
     1
290
     1
176
     1
290
     0
176
     1
290
     0
176
     1
290
     0
176
     1
290
     0
176
     1
290
     0
176
     1
290
     0
176
     1
 90
       50
176
     1
 40
0.0
176
     1
 40
1.0
176
     1
 90
        0
176
     1
 62
    18
420
        0
176
     1
 90
       50
176
     1
 90
        3
176
     1
 62
     5
420
      255
176
     1
290
     0
176
     1
 90
       50
176
     1
 90
       50
176
     1
 90
       50
176
     1
290
     0
176
     1
 90
       50
176
     1
 62
   256
176
     0
 40
1.0
176
     0
 90
        2
176
     1
  1
strokes_ogs.tif
176
     1
290
     0
176
     1
 40
1.0
176
     1
 40
1.0
176
     1
1001
ACAD
1000
AcDbSavedByObjectVersion
1070
     0
  0
VISUALSTYLE
  5
FE
102
{ACAD_REACTORS
330
EF
102
}
330
EF
100
AcDbVisualStyle
  2
Facepattern
 70
    15
177
     3
291
     1
 70
    58
 90
        2
176
     1
 90
        2
176
     1
 90
        1
176
     1
 90
        0
176
     1
 40
0.6
176
     1
 40
30.0
176
     1
 62
     7
420
 16777215
176
     1
 90
        1
176
     1
 90
        4
176
     1
 62
     7
176
     1
 62
   257
176
     1
 90
        1
176
     1
 90
        1
176
     1
 40
1.0
176
     1
 90
        8
176
     1
 62
     7
176
     1
 40
1.0
176
     1
 90
        1
176
     1
 90
        6
176
     1
 90
        2
176
     1
 62
     7
176
     1
 90
        5
176
     1
 90
        0
176
     1
 90
        0
176
     1
290
     0
176
     1
 90
        1
176
     1
 40
0.0
176
     1
 90
        0
176
     1
290
     0
176
     1
290
     1
176
     1
290
     1
176
     1
290
     0
176
     1
290
     0
176
     1
290
     0
176
     1
290
     0
176
     1
290
     0
176
     1
290
     0
176
     1
 90
       50
176
     1
 40
0.0
176
     1
 40
1.0
176
     1
 90
        0
176
     1
 62
    18
420
        0
176
     1
 90
       50
176
     1
 90
        3
176
     1
 62
     5
420
      255
176
     1
290
     0
176
     1
 90
       50
176
     1
 90
       50
176
     1
 90
       50
176
     1
290
     0
176
     1
 90
       50
176
     1
 62
   256
176
     0
 40
1.0
176
     0
 90
        2
176
     1
  1
strokes_ogs.tif
176
     1
290
     0
176
     1
 40
1.0
176
     1
 40
1.0
176
     1
1001
ACAD
1000
AcDbSavedByObjectVersion
1070
     0
  0
VISUALSTYLE
  5
F0
102
{ACAD_REACTORS
330
EF
102
}
330
EF
100
AcDbVisualStyle
  2
Flat
 70
     0
177
     3
291
     1
 70
    58
 90
        2
176
     1
 90
        1
176
     1
 90
        1
176
     1
 90
        2
176
     1
 40
0.6
176
     1
 40
30.0
176
     1
 62
     7
420
 16777215
176
     1
 90
        0
176
     1
 90
        0
176
     1
 62
     7
176
     1
 62
   257
176
     1
 90
        1
176
     1
 90
        1
176
     1
 40
1.0
176
     1
 90
        8
176
     1
 62
     7
176
     1
 40
1.0
176
     1
 90
        1
176
     1
 90
        6
176
     1
 90
        2
176
     1
 62
     7
176
     1
 90
        5
176
     1
 90
        0
176
     1
 90
        0
176
     1
290
     0
176
     1
 90
       13
176
     1
 40
0.0
176
     1
 90
        0
176
     1
290
     0
176
     1
290
     1
176
     1
290
     1
176
     1
290
     0
176
     1
290
     0
176
     1
290
     0
176
     1
290
     0
176
     1
290
     0
176
     1
290
     0
176
     1
 90
       50
176
     1
 40
0.0
176
     1
 40
1.0
176
     1
 90
        0
176
     1
 62
    18
420
        0
176
     1
 90
       50
176
     1
 90
        3
176
     1
 62
     5
420
      255
176
     1
290
     0
176
     1
 90
       50
176
     1
 90
       50
176
     1
 90
       50
176
     1
290
     0
176
     1
 90
       50
176
     1
 62
   256
176
     0
 40
1.0
176
     0
 90
        2
176
     1
  1
strokes_ogs.tif
176
     1
290
     0
176
     1
 40
1.0
176
     1
 40
1.0
176
     1
1001
ACAD
1000
AcDbSavedByObjectVersion
1070
     0
  0
VISUALSTYLE
  5
F1
102
{ACAD_REACTORS
330
EF
102
}
330
EF
100
AcDbVisualStyle
  2
FlatWithEdges
 70
     1
177
     3
291
     1
 70
    58
 90
        2
176
     1
 90
        1
176
     1
 90
        1
176
     1
 90
        2
176
     1
 40
0.6
176
     1
 40
30.0
176
     1
 62
     7
420
 16777215
176
     1
 90
        1
176
     1
 90
        0
176
     1
 62
     7
176
     1
 62
   257
176
     1
 90
        1
176
     1
 90
        1
176
     1
 40
1.0
176
     1
 90
        0
176
     1
 62
   257
176
     1
 40
1.0
176
     1
 90
        1
176
     1
 90
        6
176
     1
 90
        2
176
     1
 62
     7
176
     1
 90
        5
176
     1
 90
        0
176
     1
 90
        0
176
     1
290
     0
176
     1
 90
       13
176
     1
 40
0.0
176
     1
 90
        0
176
     1
290
     0
176
     1
290
     1
176
     1
290
     1
176
     1
290
     0
176
     1
290
     0
176
     1
290
     0
176
     1
290
     0
176
     1
290
     0
176
     1
290
     0
176
     1
 90
       50
176
     1
 40
0.0
176
     1
 40
1.0
176
     1
 90
        0
176
     1
 62
    18
420
        0
176
     1
 90
       50
176
     1
 90
        3
176
     1
 62
     5
420
      255
176
     1
290
     0
176
     1
 90
       50
176
     1
 90
       50
176
     1
 90
       50
176
     1
290
     0
176
     1
 90
       50
176
     1
 62
   256
176
     0
 40
1.0
176
     0
 90
        2
176
     1
  1
strokes_ogs.tif
176
     1
290
     0
176
     1
 40
1.0
176
     1
 40
1.0
176
     1
1001
ACAD
1000
AcDbSavedByObjectVersion
1070
     0
  0
VISUALSTYLE
  5
F2
102
{ACAD_REACTORS
330
EF
102
}
330
EF
100
AcDbVisualStyle
  2
Gouraud
 70
     2
177
     3
291
     1
 70
    58
 90
        2
176
     1
 90
        2
176
     1
 90
        1
176
     1
 90
        2
176
     1
 40
0.6
176
     1
 40
30.0
176
     1
 62
     7
420
 16777215
176
     1
 90
        0
176
     1
 90
        0
176
     1
 62
     7
176
     1
 62
   257
176
     1
 90
        1
176
     1
 90
        1
176
     1
 40
1.0
176
     1
 90
        0
176
     1
 62
     7
176
     1
 40
1.0
176
     1
 90
        1
176
     1
 90
        6
176
     1
 90
        2
176
     1
 62
     7
176
     1
 90
        5
176
     1
 90
        0
176
     1
 90
        0
176
     1
290
     0
176
     1
 90
       13
176
     1
 40
0.0
176
     1
 90
        0
176
     1
290
     0
176
     1
290
     1
176
     1
290
     1
176
     1
290
     0
176
     1
290
     0
176
     1
290
     0
176
     1
290
     0
176
     1
290
     0
176
     1
290
     0
176
     1
 90
       50
176
     1
 40
0.0
176
     1
 40
1.0
176
     1
 90
        0
176
     1
 62
    18
420
        0
176
     1
 90
       50
176
     1
 90
        3
176
     1
 62
     5
420
      255
176
     1
290
     0
176
     1
 90
       50
176
     1
 90
       50
176
     1
 90
       50
176
     1
290
     0
176
     1
 90
       50
176
     1
 62
   256
176
     0
 40
1.0
176
     0
 90
        2
176
     1
  1
strokes_ogs.tif
176
     1
290
     0
176
     1
 40
1.0
176
     1
 40
1.0
176
     1
1001
ACAD
1000
AcDbSavedByObjectVersion
1070
     0
  0
VISUALSTYLE
  5
F3
102
{ACAD_REACTORS
330
EF
102
}
330
EF
100
AcDbVisualStyle
  2
GouraudWithEdges
 70
     3
177
     3
291
     1
 70
    58
 90
        2
176
     1
 90
        2
176
     1
 90
        1
176
     1
 90
        2
176
     1
 40
0.6
176
     1
 40
30.0
176
     1
 62
     7
420
 16777215
176
     1
 90
        1
176
     1
 90
        0
176
     1
 62
     7
176
     1
 62
   257
176
     1
 90
        1
176
     1
 90
        1
176
     1
 40
1.0
176
     1
 90
        0
176
     1
 62
   257
176
     1
 40
1.0
176
     1
 90
        1
176
     1
 90
        6
176
     1
 90
        2
176
     1
 62
     7
176
     1
 90
        5
176
     1
 90
        0
176
     1
 90
        0
176
     1
290
     0
176
     1
 90
       13
176
     1
 40
0.0
176
     1
 90
        0
176
     1
290
     0
176
     1
290
     1
176
     1
290
     1
176
     1
290
     0
176
     1
290
     0
176
     1
290
     0
176
     1
290
     0
176
     1
290
     0
176
     1
290
     0
176
     1
 90
       50
176
     1
 40
0.0
176
     1
 40
1.0
176
     1
 90
        0
176
     1
 62
    18
420
        0
176
     1
 90
       50
176
     1
 90
        3
176
     1
 62
     5
420
      255
176
     1
290
     0
176
     1
 90
       50
176
     1
 90
       50
176
     1
 90
       50
176
     1
290
     0
176
     1
 90
       50
176
     1
 62
   256
176
     0
 40
1.0
176
     0
 90
        2
176
     1
  1
strokes_ogs.tif
176
     1
290
     0
176
     1
 40
1.0
176
     1
 40
1.0
176
     1
1001
ACAD
1000
AcDbSavedByObjectVersion
1070
     0
  0
VISUALSTYLE
  5
F7
102
{ACAD_REACTORS
330
EF
102
}
330
EF
100
AcDbVisualStyle
  2
Hidden
 70
     6
177
     3
291
     0
 70
    58
 90
        1
176
     1
 90
        2
176
     1
 90
        2
176
     1
 90
        0
176
     1
 40
0.6
176
     1
 40
30.0
176
     1
 62
     7
420
 16777215
176
     1
 90
        2
176
     1
 90
        2
176
     1
 62
     7
176
     1
 62
   257
176
     1
 90
        2
176
     1
 90
        1
176
     1
 40
40.0
176
     1
 90
        0
176
     1
 62
   257
176
     1
 40
1.0
176
     1
 90
        1
176
     1
 90
        6
176
     1
 90
        2
176
     1
 62
     7
176
     1
 90
        3
176
     1
 90
        0
176
     1
 90
        0
176
     1
290
     0
176
     1
 90
        1
176
     1
 40
0.0
176
     1
 90
        0
176
     1
290
     0
176
     1
290
     1
176
     1
290
     1
176
     1
290
     0
176
     1
290
     0
176
     1
290
     0
176
     1
290
     0
176
     1
290
     0
176
     1
290
     0
176
     1
 90
       50
176
     1
 40
0.0
176
     1
 40
1.0
176
     1
 90
        0
176
     1
 62
    18
420
        0
176
     1
 90
       50
176
     1
 90
        3
176
     1
 62
     5
420
      255
176
     1
290
     0
176
     1
 90
       50
176
     1
 90
       50
176
     1
 90
       50
176
     1
290
     0
176
     1
 90
       50
176
     1
 62
   256
176
     0
 40
1.0
176
     0
 90
        2
176
     1
  1
strokes_ogs.tif
176
     1
290
     0
176
     1
 40
1.0
176
     1
 40
1.0
176
     1
1001
ACAD
1000
AcDbSavedByObjectVersion
1070
     0
  0
VISUALSTYLE
  5
1E4
102
{ACAD_REACTORS
330
EF
102
}
330
EF
100
AcDbVisualStyle
  2
JitterOff
 70
    20
177
     3
291
     1
 70
    58
 90
        2
176
     0
 90
        2
176
     0
 90
        0
176
     0
 90
        0
176
     0
 40
0.6
176
     0
 40
30.0
176
     0
 62
     7
420
 16777215
176
     0
 90
        1
176
     0
 90
        4
176
     0
 62
     7
176
     0
 62
   257
176
     0
 90
        1
176
     0
 90
        1
176
     0
 40
1.0
176
     0
 90
       10
176
     2
 62
     7
176
     0
 40
1.0
176
     0
 90
        1
176
     0
 90
        6
176
     0
 90
        2
176
     0
 62
     7
176
     0
 90
        5
176
     0
 90
        0
176
     0
 90
        0
176
     0
290
     0
176
     0
 90
        1
176
     0
 40
0.0
176
     0
 90
        0
176
     0
290
     0
176
     1
290
     1
176
     1
290
     1
176
     1
290
     0
176
     1
290
     0
176
     1
290
     0
176
     1
290
     0
176
     1
290
     0
176
     1
290
     0
176
     1
 90
       50
176
     1
 40
0.0
176
     1
 40
1.0
176
     1
 90
        0
176
     1
 62
    18
420
        0
176
     1
 90
       50
176
     1
 90
        3
176
     1
 62
     5
420
      255
176
     1
290
     0
176
     1
 90
       50
176
     1
 90
       50
176
     1
 90
       50
176
     1
290
     0
176
     1
 90
       50
176
     1
 62
   256
176
     0
 40
1.0
176
     0
 90
        2
176
     1
  1
strokes_ogs.tif
176
     1
290
     0
176
     1
 40
1.0
176
     1
 40
1.0
176
     1
1001
ACAD
1000
AcDbSavedByObjectVersion
1070
     0
  0
VISUALSTYLE
  5
FD
102
{ACAD_REACTORS
330
EF
102
}
330
EF
100
AcDbVisualStyle
  2
Linepattern
 70
    14
177
     3
291
     1
 70
    58
 90
        2
176
     1
 90
        2
176
     1
 90
        1
176
     1
 90
        0
176
     1
 40
0.6
176
     1
 40
30.0
176
     1
 62
     7
420
 16777215
176
     1
 90
        1
176
     1
 90
        4
176
     1
 62
     7
176
     1
 62
   257
176
     1
 90
        7
176
     1
 90
        7
176
     1
 40
1.0
176
     1
 90
        8
176
     1
 62
     7
176
     1
 40
1.0
176
     1
 90
        1
176
     1
 90
        6
176
     1
 90
        2
176
     1
 62
     7
176
     1
 90
        5
176
     1
 90
        0
176
     1
 90
        0
176
     1
290
     0
176
     1
 90
        1
176
     1
 40
0.0
176
     1
 90
        0
176
     1
290
     0
176
     1
290
     1
176
     1
290
     1
176
     1
290
     0
176
     1
290
     0
176
     1
290
     0
176
     1
290
     0
176
     1
290
     0
176
     1
290
     0
176
     1
 90
       50
176
     1
 40
0.0
176
     1
 40
1.0
176
     1
 90
        0
176
     1
 62
    18
420
        0
176
     1
 90
       50
176
     1
 90
        3
176
     1
 62
     5
420
      255
176
     1
290
     0
176
     1
 90
       50
176
     1
 90
       50
176
     1
 90
       50
176
     1
290
     0
176
     1
 90
       50
176
     1
 62
   256
176
     0
 40
1.0
176
     0
 90
        2
176
     1
  1
strokes_ogs.tif
176
     1
290
     0
176
     1
 40
1.0
176
     1
 40
1.0
176
     1
1001
ACAD
1000
AcDbSavedByObjectVersion
1070
     0
  0
VISUALSTYLE
  5
1E5
102
{ACAD_REACTORS
330
EF
102
}
330
EF
100
AcDbVisualStyle
  2
OverhangOff
 70
    21
177
     3
291
     1
 70
    58
 90
        2
176
     0
 90
        2
176
     0
 90
        0
176
     0
 90
        0
176
     0
 40
0.6
176
     0
 40
30.0
176
     0
 62
     7
420
 16777215
176
     0
 90
        1
176
     0
 90
        4
176
     0
 62
     7
176
     0
 62
   257
176
     0
 90
        1
176
     0
 90
        1
176
     0
 40
1.0
176
     0
 90
        9
176
     2
 62
     7
176
     0
 40
1.0
176
     0
 90
        1
176
     0
 90
        6
176
     0
 90
        2
176
     0
 62
     7
176
     0
 90
        5
176
     0
 90
        0
176
     0
 90
        0
176
     0
290
     0
176
     0
 90
        1
176
     0
 40
0.0
176
     0
 90
        0
176
     0
290
     0
176
     1
290
     1
176
     1
290
     1
176
     1
290
     0
176
     1
290
     0
176
     1
290
     0
176
     1
290
     0
176
     1
290
     0
176
     1
290
     0
176
     1
 90
       50
176
     1
 40
0.0
176
     1
 40
1.0
176
     1
 90
        0
176
     1
 62
    18
420
        0
176
     1
 90
       50
176
     1
 90
        3
176
     1
 62
     5
420
      255
176
     1
290
     0
176
     1
 90
       50
176
     1
 90
       50
176
     1
 90
       50
176
     1
290
     0
176
     1
 90
       50
176
     1
 62
   256
176
     0
 40
1.0
176
     0
 90
        2
176
     1
  1
strokes_ogs.tif
176
     1
290
     0
176
     1
 40
1.0
176
     1
 40
1.0
176
     1
1001
ACAD
1000
AcDbSavedByObjectVersion
1070
     0
  0
VISUALSTYLE
  5
F9
102
{ACAD_REACTORS
330
EF
102
}
330
EF
100
AcDbVisualStyle
  2
Realistic
 70
     8
177
     3
291
     0
 70
    58
 90
        2
176
     1
 90
        3
176
     1
 90
        0
176
     1
 90
        2
176
     1
 40
0.6
176
     1
 40
30.0
176
     1
 62
     7
420
 16777215
176
     1
 90
        0
176
     1
 90
        0
176
     1
 62
     7
176
     1
 62
   257
176
     1
 90
        1
176
     1
 90
        1
176
     1
 40
1.0
176
     1
 90
        8
176
     1
 62
   257
176
     1
 40
1.0
176
     1
 90
        1
176
     1
 90
        6
176
     1
 90
        2
176
     1
 62
     7
176
     1
 90
        3
176
     1
 90
        0
176
     1
 90
        0
176
     1
290
     0
176
     1
 90
       13
176
     1
 40
0.0
176
     1
 90
        0
176
     1
290
     0
176
     1
290
     1
176
     1
290
     1
176
     1
290
     0
176
     1
290
     0
176
     1
290
     0
176
     1
290
     0
176
     1
290
     0
176
     1
290
     0
176
     1
 90
       50
176
     1
 40
0.0
176
     1
 40
1.0
176
     1
 90
        0
176
     1
 62
    18
420
        0
176
     1
 90
       50
176
     1
 90
        3
176
     1
 62
     5
420
      255
176
     1
290
     0
176
     1
 90
       50
176
     1
 90
       50
176
     1
 90
       50
176
     1
290
     0
176
     1
 90
       50
176
     1
 62
   256
176
     0
 40
1.0
176
     0
 90
        2
176
     1
  1
strokes_ogs.tif
176
     1
290
     0
176
     1
 40
1.0
176
     1
 40
1.0
176
     1
1001
ACAD
1000
AcDbSavedByObjectVersion
1070
     0
  0
VISUALSTYLE
  5
1F3
102
{ACAD_REACTORS
330
EF
102
}
330
EF
100
AcDbVisualStyle
  2
Shaded
 70
    27
177
     3
291
     0
 70
    58
 90
        2
176
     1
 90
        2
176
     1
 90
        1
176
     1
 90
        2
176
     1
 40
0.6
176
     1
 40
30.0
176
     1
 62
     7
420
 16777215
176
     1
 90
        0
176
     1
 90
        4
176
     1
 62
     7
176
     1
 62
   257
176
     1
 90
        1
176
     1
 90
        1
176
     1
 40
1.0
176
     1
 90
        8
176
     1
 62
   257
176
     1
 40
1.0
176
     1
 90
        1
176
     1
 90
        6
176
     1
 90
        2
176
     1
 62
     8
420
  7895160
176
     1
 90
        3
176
     1
 90
        0
176
     1
 90
        0
176
     1
290
     0
176
     1
 90
        5
176
     1
 40
0.0
176
     1
 90
        0
176
     1
290
     0
176
     1
290
     1
176
     1
290
     1
176
     1
290
     0
176
     1
290
     0
176
     1
290
     0
176
     1
290
     0
176
     1
290
     0
176
     1
290
     0
176
     1
 90
       50
176
     1
 40
0.0
176
     1
 40
1.0
176
     1
 90
        0
176
     1
 62
    18
420
        0
176
     1
 90
       50
176
     1
 90
        3
176
     1
 62
     5
420
      255
176
     1
290
     0
176
     1
 90
       50
176
     1
 90
       50
176
     1
 90
       50
176
     1
290
     0
176
     1
 90
       50
176
     1
 62
   256
176
     0
 40
1.0
176
     0
 90
        2
176
     1
  1
strokes_ogs.tif
176
     1
290
     0
176
     1
 40
1.0
176
     1
 40
1.0
176
     1
1001
ACAD
1000
AcDbSavedByObjectVersion
1070
     0
  0
VISUALSTYLE
  5
1F2
102
{ACAD_REACTORS
330
EF
102
}
330
EF
100
AcDbVisualStyle
  2
Shaded with edges
 70
    26
177
     3
291
     0
 70
    58
 90
        2
176
     1
 90
        2
176
     1
 90
        1
176
     1
 90
        2
176
     1
 40
0.6
176
     1
 40
30.0
176
     1
 62
     7
420
 16777215
176
     1
 90
        1
176
     1
 90
        2
176
     1
 62
     7
176
     1
 62
   257
176
     1
 90
        2
176
     1
 90
        1
176
     1
 40
1.0
176
     1
 90
        8
176
     1
 62
   257
176
     1
 40
1.0
176
     1
 90
        1
176
     1
 90
        6
176
     1
 90
        2
176
     1
 62
     7
176
     1
 90
        3
176
     1
 90
        0
176
     1
 90
        0
176
     1
290
     0
176
     1
 90
        5
176
     1
 40
0.0
176
     1
 90
        0
176
     1
290
     0
176
     1
290
     1
176
     1
290
     1
176
     1
290
     0
176
     1
290
     0
176
     1
290
     0
176
     1
290
     0
176
     1
290
     0
176
     1
290
     0
176
     1
 90
       50
176
     1
 40
0.0
176
     1
 40
1.0
176
     1
 90
        0
176
     1
 62
    18
420
        0
176
     1
 90
       50
176
     1
 90
        3
176
     1
 62
     5
420
      255
176
     1
290
     0
176
     1
 90
       50
176
     1
 90
       50
176
     1
 90
       50
176
     1
290
     0
176
     1
 90
       50
176
     1
 62
   256
176
     0
 40
1.0
176
     0
 90
        2
176
     1
  1
strokes_ogs.tif
176
     1
290
     0
176
     1
 40
1.0
176
     1
 40
1.0
176
     1
1001
ACAD
1000
AcDbSavedByObjectVersion
1070
     0
  0
VISUALSTYLE
  5
1EF
102
{ACAD_REACTORS
330
EF
102
}
330
EF
100
AcDbVisualStyle
  2
Shades of Gray
 70
    23
177
     3
291
     0
 70
    58
 90
        2
176
     1
 90
        2
176
     1
 90
        3
176
     1
 90
        0
176
     1
 40
0.6
176
     1
 40
30.0
176
     1
 62
     7
420
 16777215
176
     1
 90
        2
176
     1
 90
        2
176
     1
 62
     7
176
     1
 62
     7
176
     1
 90
        1
176
     1
 90
        1
176
     1
 40
40.0
176
     1
 90
        8
176
     1
 62
     7
176
     1
 40
1.0
176
     1
 90
        1
176
     1
 90
        6
176
     1
 90
        2
176
     1
 62
     7
176
     1
 90
        3
176
     1
 90
        0
176
     1
 90
        0
176
     1
290
     0
176
     1
 90
        1
176
     1
 40
0.0
176
     1
 90
        0
176
     1
290
     0
176
     1
290
     1
176
     1
290
     1
176
     1
290
     0
176
     1
290
     0
176
     1
290
     0
176
     1
290
     0
176
     1
290
     0
176
     1
290
     0
176
     1
 90
       50
176
     1
 40
0.0
176
     1
 40
1.0
176
     1
 90
        0
176
     1
 62
    18
420
        0
176
     1
 90
       50
176
     1
 90
        3
176
     1
 62
     5
420
      255
176
     1
290
     0
176
     1
 90
       50
176
     1
 90
       50
176
     1
 90
       50
176
     1
290
     0
176
     1
 90
       50
176
     1
 62
   256
176
     0
 40
1.0
176
     0
 90
        2
176
     1
  1
strokes_ogs.tif
176
     1
290
     0
176
     1
 40
1.0
176
     1
 40
1.0
176
     1
1001
ACAD
1000
AcDbSavedByObjectVersion
1070
     0
  0
VISUALSTYLE
  5
1F0
102
{ACAD_REACTORS
330
EF
102
}
330
EF
100
AcDbVisualStyle
  2
Sketchy
 70
    24
177
     3
291
     0
 70
    58
 90
        1
176
     1
 90
        2
176
     1
 90
        2
176
     1
 90
        0
176
     1
 40
0.6
176
     1
 40
30.0
176
     1
 62
     7
420
 16777215
176
     1
 90
        2
176
     1
 90
        2
176
     1
 62
     7
176
     1
 62
     7
176
     1
 90
        1
176
     1
 90
        1
176
     1
 40
40.0
176
     1
 90
       11
176
     1
 62
     7
176
     1
 40
1.0
176
     1
 90
        1
176
     1
 90
        6
176
     1
 90
        2
176
     1
 62
     7
176
     1
 90
        6
176
     1
 90
        0
176
     1
 90
        0
176
     1
290
     0
176
     1
 90
        1
176
     1
 40
0.0
176
     1
 90
        0
176
     1
290
     0
176
     1
290
     1
176
     1
290
     1
176
     1
290
     0
176
     1
290
     0
176
     1
290
     0
176
     1
290
     0
176
     1
290
     0
176
     1
290
     0
176
     1
 90
       50
176
     1
 40
0.0
176
     1
 40
1.0
176
     1
 90
        0
176
     1
 62
    18
420
        0
176
     1
 90
       50
176
     1
 90
        3
176
     1
 62
     5
420
      255
176
     1
290
     0
176
     1
 90
       50
176
     1
 90
       50
176
     1
 90
       50
176
     1
290
     0
176
     1
 90
       50
176
     1
 62
   256
176
     0
 40
1.0
176
     0
 90
        2
176
     1
  1
strokes_ogs.tif
176
     1
290
     0
176
     1
 40
1.0
176
     1
 40
1.0
176
     1
1001
ACAD
1000
AcDbSavedByObjectVersion
1070
     0
  0
VISUALSTYLE
  5
FC
102
{ACAD_REACTORS
330
EF
102
}
330
EF
100
AcDbVisualStyle
  2
Thicken
 70
    13
177
     3
291
     1
 70
    58
 90
        2
176
     1
 90
        2
176
     1
 90
        1
176
     1
 90
        0
176
     1
 40
0.6
176
     1
 40
30.0
176
     1
 62
     7
420
 16777215
176
     1
 90
        1
176
     1
 90
        4
176
     1
 62
     7
176
     1
 62
   257
176
     1
 90
        1
176
     1
 90
        1
176
     1
 40
1.0
176
     1
 90
       12
176
     1
 62
     7
176
     1
 40
1.0
176
     1
 90
        1
176
     1
 90
        6
176
     1
 90
        2
176
     1
 62
     7
176
     1
 90
        5
176
     1
 90
        0
176
     1
 90
        0
176
     1
290
     0
176
     1
 90
        1
176
     1
 40
0.0
176
     1
 90
        0
176
     1
290
     0
176
     1
290
     1
176
     1
290
     1
176
     1
290
     0
176
     1
290
     0
176
     1
290
     0
176
     1
290
     0
176
     1
290
     0
176
     1
290
     0
176
     1
 90
       50
176
     1
 40
0.0
176
     1
 40
1.0
176
     1
 90
        0
176
     1
 62
    18
420
        0
176
     1
 90
       50
176
     1
 90
        3
176
     1
 62
     5
420
      255
176
     1
290
     0
176
     1
 90
       50
176
     1
 90
       50
176
     1
 90
       50
176
     1
290
     0
176
     1
 90
       50
176
     1
 62
   256
176
     0
 40
1.0
176
     0
 90
        2
176
     1
  1
strokes_ogs.tif
176
     1
290
     0
176
     1
 40
1.0
176
     1
 40
1.0
176
     1
1001
ACAD
1000
AcDbSavedByObjectVersion
1070
     0
  0
VISUALSTYLE
  5
F6
102
{ACAD_REACTORS
330
EF
102
}
330
EF
100
AcDbVisualStyle
  2
Wireframe
 70
     5
177
     3
291
     0
 70
    58
 90
        0
176
     1
 90
        2
176
     1
 90
        0
176
     1
 90
        0
176
     1
 40
0.6
176
     1
 40
30.0
176
     1
 62
     7
420
 16777215
176
     1
 90
        1
176
     1
 90
        4
176
     1
 62
     7
176
     1
 62
   257
176
     1
 90
        1
176
     1
 90
        1
176
     1
 40
1.0
176
     1
 90
        0
176
     1
 62
   257
176
     1
 40
1.0
176
     1
 90
        1
176
     1
 90
        6
176
     1
 90
        2
176
     1
 62
     7
176
     1
 90
        3
176
     1
 90
        0
176
     1
 90
        0
176
     1
290
     0
176
     1
 90
        1
176
     1
 40
0.0
176
     1
 90
        0
176
     1
290
     0
176
     1
290
     1
176
     1
290
     1
176
     1
290
     0
176
     1
290
     0
176
     1
290
     0
176
     1
290
     0
176
     1
290
     0
176
     1
290
     0
176
     1
 90
       50
176
     1
 40
0.0
176
     1
 40
1.0
176
     1
 90
        0
176
     1
 62
    18
420
        0
176
     1
 90
       50
176
     1
 90
        3
176
     1
 62
     5
420
      255
176
     1
290
     0
176
     1
 90
       50
176
     1
 90
       50
176
     1
 90
       50
176
     1
290
     0
176
     1
 90
       50
176
     1
 62
   256
176
     0
 40
1.0
176
     0
 90
        2
176
     1
  1
strokes_ogs.tif
176
     1
290
     0
176
     1
 40
1.0
176
     1
 40
1.0
176
     1
1001
ACAD
1000
AcDbSavedByObjectVersion
1070
     0
  0
VISUALSTYLE
  5
1F1
102
{ACAD_REACTORS
330
EF
102
}
330
EF
100
AcDbVisualStyle
  2
X-Ray
 70
    25
177
     3
291
     0
 70
    58
 90
        2
176
     1
 90
        2
176
     1
 90
        1
176
     1
 90
        1
176
     1
 40
0.5
176
     1
 40
30.0
176
     1
 62
     7
420
 16777215
176
     1
 90
        1
176
     1
 90
        0
176
     1
 62
     7
176
     1
 62
   257
176
     1
 90
        1
176
     1
 90
        1
176
     1
 40
1.0
176
     1
 90
        8
176
     1
 62
     7
176
     1
 40
1.0
176
     1
 90
        1
176
     1
 90
        6
176
     1
 90
        2
176
     1
 62
     7
176
     1
 90
        3
176
     1
 90
        0
176
     1
 90
        0
176
     1
290
     0
176
     1
 90
       13
176
     1
 40
0.0
176
     1
 90
        0
176
     1
290
     0
176
     1
290
     1
176
     1
290
     1
176
     1
290
     0
176
     1
290
     0
176
     1
290
     0
176
     1
290
     0
176
     1
290
     0
176
     1
290
     0
176
     1
 90
       50
176
     1
 40
0.0
176
     1
 40
1.0
176
     1
 90
        0
176
     1
 62
    18
420
        0
176
     1
 90
       50
176
     1
 90
        3
176
     1
 62
     5
420
      255
176
     1
290
     0
176
     1
 90
       50
176
     1
 90
       50
176
     1
 90
       50
176
     1
290
     0
176
     1
 90
       50
176
     1
 62
   256
176
     0
 40
1.0
176
     0
 90
        2
176
     1
  1
strokes_ogs.tif
176
     1
290
     0
176
     1
 40
1.0
176
     1
 40
1.0
176
     1
1001
ACAD
1000
AcDbSavedByObjectVersion
1070
     0
  0
DICTIONARYVAR
  5
146
102
{ACAD_REACTORS
330
5E
102
}
330
5E
100
DictionaryVariables
280
     0
  1
1:1
  0
DICTIONARYVAR
  5
259
102
{ACAD_REACTORS
330
5E
102
}
330
5E
100
DictionaryVariables
280
     0
  1
3.500000
  0
DICTIONARYVAR
  5
25A
102
{ACAD_REACTORS
330
5E
102
}
330
5E
100
DictionaryVariables
280
     0
  1
acadiso.lin
  0
DICTIONARYVAR
  5
145
102
{ACAD_REACTORS
330
5E
102
}
330
5E
100
DictionaryVariables
280
     0
  1
STANDARD
  0
DICTIONARYVAR
  5
84
102
{ACAD_REACTORS
330
5E
102
}
330
5E
100
DictionaryVariables
280
     0
  1
STANDARD
  0
DICTIONARYVAR
  5
227
102
{ACAD_REACTORS
330
5E
102
}
330
5E
100
DictionaryVariables
280
     0
  1
Metric50
  0
DICTIONARYVAR
  5
228
102
{ACAD_REACTORS
330
5E
102
}
330
5E
100
DictionaryVariables
280
     0
  1
Metric50
  0
DICTIONARYVAR
  5
5F
102
{ACAD_REACTORS
330
5E
102
}
330
5E
100
DictionaryVariables
280
     0
  1
2
  0
DICTIONARYVAR
  5
63
102
{ACAD_REACTORS
330
5E
102
}
330
5E
100
DictionaryVariables
280
     0
  1
1
  0
DICTIONARYVAR
  5
1AE
102
{ACAD_REACTORS
330
5E
102
}
330
5E
100
DictionaryVariables
280
     0
  1
0
  0
DICTIONARYVAR
  5
1AF
102
{ACAD_REACTORS
330
5E
102
}
330
5E
100
DictionaryVariables
280
     0
  1
0
  0
DICTIONARY
  5
771
102
{ACAD_REACTORS
330
76F
102
}
330
76F
100
AcDbDictionary
281
     1
  0
DICTIONARY
  5
770
102
{ACAD_REACTORS
330
76F
102
}
330
76F
100
AcDbDictionary
281
     1
  3
3103389568800
350
76A
  3
3103389568816
350
76B
  3
3103389568832
350
76C
  3
3103389568848
350
76D
  3
3103389568864
350
76E
  0
DICTIONARY
  5
778
330
28E
100
AcDbDictionary
280
     1
281
     1
  3
ACAD_XREC_ROUNDTRIP
360
779
  0
DICTIONARY
  5
774
330
21C
100
AcDbDictionary
280
     1
281
     1
  3
ACAD_XREC_ROUNDTRIP
360
775
  0
DICTIONARY
  5
205
330
22
100
AcDbDictionary
280
     1
281
     1
  0
DICTIONARY
  5
1F9
330
ED
100
AcDbDictionary
280
     1
281
     1
  3
FBXASSET
360
1FA
  0
DICTIONARY
  5
1F7
330
EC
100
AcDbDictionary
280
     1
281
     1
  3
FBXASSET
360
1F8
  0
DICTIONARY
  5
173
330
EE
100
AcDbDictionary
280
     1
281
     1
  3
BUMPTILE
360
175
  3
DIFFUSETILE
360
174
  3
FBXASSET
360
1FB
  3
OPACITYTILE
360
176
  3
REFLECTIONTILE
360
177
  0
DICTIONARY
  5
776
330
28D
100
AcDbDictionary
280
     1
281
     1
  3
ACAD_XREC_ROUNDTRIP
360
777
  0
DICTIONARY
  5
772
330
21A
100
AcDbDictionary
280
     1
281
     1
  3
ACAD_XREC_ROUNDTRIP
360
773
  0
DICTIONARY
  5
162
330
7F
100
AcDbDictionary
280
     1
281
     1
  3
ACAD_ROUNDTRIP_2008_TABLESTYLE_CELLSTYLEMAP
360
768
  0
XRECORD
  5
76A
102
{ACAD_REACTORS
330
770
102
}
330
770
100
AcDbXrecord
280
     1
  1
AcDb_Thumbnail_Schema
102
{ATTRRECORD
341
76B
  2
AcDbDs::TreatedAsObjectData
280
     1
291
     1
102
ATTRRECORD}
102
{ATTRRECORD
341
76C
  2
AcDbDs::Legacy
280
     1
291
     1
102
ATTRRECORD}
  2
AcDbDs::ID
280
    10
 91
        8
102
{ATTRRECORD
341
76D
  2
AcDs:Indexable
280
     1
291
     1
102
ATTRRECORD}
102
{ATTRRECORD
341
76E
  2
AcDbDs::HandleAttribute
280
     7
282
     1
102
ATTRRECORD}
  2
Thumbnail_Data
280
    15
 91
        0
  0
XRECORD
  5
76B
102
{ACAD_REACTORS
330
770
102
}
330
770
100
AcDbXrecord
280
     1
  1
AcDbDs::TreatedAsObjectDataSchema
  2
AcDbDs::TreatedAsObjectData
280
     1
 91
        0
  0
XRECORD
  5
76C
102
{ACAD_REACTORS
330
770
102
}
330
770
100
AcDbXrecord
280
     1
  1
AcDbDs::LegacySchema
  2
AcDbDs::Legacy
280
     1
 91
        0
  0
XRECORD
  5
76D
102
{ACAD_REACTORS
330
770
102
}
330
770
100
AcDbXrecord
280
     1
  1
AcDbDs::IndexedPropertySchema
  2
AcDs:Indexable
280
     1
 91
        0
  0
XRECORD
  5
76E
102
{ACAD_REACTORS
330
770
102
}
330
770
100
AcDbXrecord
280
     1
  1
AcDbDs::HandleAttributeSchema
  2
AcDbDs::HandleAttribute
280
     7
 91
        1
284
     1
  0
XRECORD
  5
779
102
{ACAD_REACTORS
330
778
102
}
330
778
100
AcDbXrecord
280
     1
102
DISPLAYNAME
  1
Imperial24
102
FLAGS
 90
        0
  0
XRECORD
  5
775
102
{ACAD_REACTORS
330
774
102
}
330
774
100
AcDbXrecord
280
     1
102
DISPLAYNAME
  1
Metric50
102
FLAGS
 90
        0
  0
XRECORD
  5
1FA
102
{ACAD_REACTORS
330
1F9
102
}
330
1F9
100
AcDbXrecord
280
     1
 70
     1
 90
429727718
  1
D62C5603-E3A1-4AEA-B7FB-FE5D8D0755AF
310
504B03040A0000080000CC70623B3DEE336E79000000790000001B0000006175746F6465736B2D64657369676E2D7061636B6167652E786D6C3C3F786D6C2076657273696F6E3D22312E302220656E636F64696E673D227574662D3822203F3E3C666F726D6174733E3C666F726D61743E687474703A2F2F736368656D612E
310
6175746F6465736B2E636F6D2F64657369676E2D7061636B6167652F323030393C2F666F726D61743E3C2F666F726D6174733E504B0304140006080800CC70623BD486FD9CA0000000F4000000130000005B436F6E74656E745F54797065735D2E786D6C7D8EC10E82300C865F65E91D8A1E8C310C0EEA1BF002731658846E
310
D98AC1B77784ABF1D8FE5FBFBF75BBCE937A534CCEB38643598122B6FEE978D0B0485F9C41B54DDD7D022595594E1A469170414C76A4D9A4D207E29CF43ECE46F218070CC6BECC4078ACAA135ACF422C856C0E68EA1BF5669944DDD7BCDE7B1F8E415D77AECB980613C2E4AC91FC167A2B244592486606FC29C8FD7F045B9A
310
EF7053A7E60B504B0304140006080800CC70623B853B8169EB0000007C01000008000000636F72652E786D6C8D90416EC3201045AF62CDB6C206821CC7C244919D9CA01740401C94182C03558F5F9C3852BBEB6A467FFE9B197D7EFC9E1EC5975982F5AE035262288C535E5B377690E21535501C055FBC8FBF6C503839990E
310
5619041F179FE64D52DE45E362569DD7661365082642A11EB9E920A89B99642953CC8E702F67A9EE7234257977194EC9EAE275C4EABCCF5EAD5940D4AC6F0E35A568B8F43562CD7046CD199FD07E60174276A7BE677B5EADB0E0D14EEFFB6A31321A0D82627C4084204C3F096B71DD52F6819B16635EADF63F509AF53FA164
310
5DDCD1EDDD17164090FCC8732078B56691CB33A85CD7DCC40F504B0304140006080800CC70623B55019EA25F0000007C00000007000000636E782E786D6C4DCB3B0E80201045D1AD90E915ED2CF8AC45050C11660C8261F98AB1B07AC9C97D42D718D865D3E909258CFD00CCE24AC6E326A164D74DC0B4128928FF32603847
310
2BA13128B1252AC747C6BAB984FC68F0B87FE8960A5C09FE86CFB69FBA01504B0304140006080800CC70623BDBABAAF470010000D40300000C0000006662782F636F72652E786D6CC553D16E823014FD95A6AF4B694182CC941A83FA05FB810A9511A125A5257EFE2E82712ECEB8A7F100CD39F7F69E734AF9FADC366850B6
310
AF8DCE7018308C942E4C59EB2AC3DE1D498AD15A706B8CFB56869196ADCAF00863C12B6B7C374385D14E6907A836A59A41D9F7CA615434B0C8705F7CAA5606D23BA8E84F41278B93AC54100640439DE0BDB320004D43C63716C7C399D30917DCFBBA9CD9BA8469F5B156168B24CED3F7248AC8769F27244EB73B92EED8862C
310
B7F13E0C179B3C8F979C8ECD82BBBABDAA2BAC924E9558448CBD9330242CFA08E3154B5651FCC6D215639C8EE5774DBE2B5F6CF2B5768B68963BB5F5588420E442FC700B1139D4CB01F450C1E918227C2E09DF070D8140C84E1E9AAB8F1340832A9CB13130A5F1376A908D57309505ECF2A0DF179C4E9D30F5B239B87E3823
310
7A79C6F31DE1A8A5AEC08474B03C7837EAE4938639B44E5932B833D2C6B6B279CDC613877FA26EE21F4A2A4C63EC7F29A2F301D1F9F7A0E37D145F504B0304140006080800CC70623B9C113CC27E0000009D0000000B0000006662782F636E782E786D6C4DCCDF0A83201C86E15B91DFB94BFB330DD428C8FB886521330DA7
310
6397BF1A1DECE883878F57749FCDA1B7892F1BBC047A23808C7F84D9FA55424E0BE6803A256208E9EF06C84F9B91703228B1C690F78B66B34CD9A5439DF5CF0BFBF65E35BCA1B8D6A5C6F540381E886698B5741C695F9503EBA150A2F8958E3DC3EA0B504B0304140006080800CC70623B7DF2F77C2A010000120200003100
310
00006662782F41393633353835312D344632462D344230382D423046372D3739314545314133324237412F636F72652E786D6C8D51DB8EC22014FC15C2939B0D2DB4B45643319AE817EC0F6041255A68B86CFCFC856D4D76DF7CE190393373060EDB3DC707F856CE6B6B7A480A0C81328395DA5C7B18C3057510EC3873D686
310
3F34088C18550F330C39BB3A1BA7051AAC09CA84841A2BD5020AEF55806078A44B0FFD7053A328440C89E1EFC52486BBB8AA8214A99D789CF9E05200300FC927E4FB4D5B375D43103D5527440FB843077C5AA3F5861C8F645F5787F59E95B390B318B55CE45AA638FAA2957BD7248B390B7A7CC51F9C124149C82B8C378810
310
84AB2F42B7B8DD56F413775B8C5999E9FF4471926F8AA236A1AE96B8B3CC434E5839373893369E1FAF30EA395917409EB7F26AF8801C171837A4A6AC9C89E9F9C9B1A58BA30FD6A5EF5DDDCF894B9AD9B6A59C957943A9FCAE2FD5BC4DFE03504B0304140006080800CC70623BAD7543B64E01000033030000300000006662
310
782F41393633353835312D344632462D344230382D423046372D3739314545314133324237412F636E782E786D6CD593CD6EC32010845F0571AD6CE3D48AD20813A9873E410FBD12D82434182C7EAAE6EDBB2424CD25871E7B41D6EC30B3FA84F9E67BB2E40B4234DE8DB46F1925E094D7C6ED479AD3AE5951B2113C789FEE
310
6C943839C1488B4C05DF079FE72A69D8C96C13AAD6B8631503449F83828872B949AC57D26200B826A308D316B4064D6E46FCDA41C05550DC9E483A00797BFD207EFB092A45DE9514C1BBD22178396BD39D891265658C238DEA00936C654E5E433CB65A26D9F6EDB5EBC14EBF49A45CB856E66048291F6939A9A81BB5C89177
310
38143CA680F4AA299D66A042CEB3354A2684DC9D8D178FE0D9B8B41CAAD720F880EE7EF93C0C18769E099ECC04D5A102C8049A8A05632F4DDF376CF1DE0F6BB65C2F8627B65A33C6BB62177CEBBDAD973006829F89F22E814B54F4BC2BE347F8AA8F681390B50FA73F804400B5F542E796F19FF974E7F78DB802FE05E20750
310
4B0304140006080800CC70623BE75B7789680500003C100000340000006662782F41393633353835312D344632462D344230382D423046372D3739314545314133324237412F6F626A656374732E786D6CAD575B8F9B3818FD2B887D06C22499CB8AA1CA655245D5B455A356FB305264C061D8018C6C3393D95FBFC7600890
310
A4CD5EF210B0B1BFEBF98E3F7B1FF6596ABC522E1296DF9BAE3D320D9A872C4AF2F8DE2CE5CEBA358D0FBEC719939D65A691938CDE9B6ADAF4BD98B3B2D05311DD91329583D9D5FC0F438434A7A611A644887B5384CF34233629258BA878B12322891DEFF6B66BD70BFB62634E8AE781D082709A4B588AF91C528CDA28B73F
310
1C998EEF39EABBEFA97FBD6A7C7E9553F9D3D79FE442923C3C523610337627CB87ABE99D359D4CC6D6E4FACAB5E6ABF9D2726FC6A3C5F56271377BB88362213924694B38DD99FE47C48627A1E7D49F5A8BB5E1A74C0A599ED3B0F21F1E56366B89112D681E218F0915D0D6F17AD41FBA2A369DCF6335D62ABBD39779D5DDD1
310
11D4D8DE3CBB96B2E04FB8202E41051754A1AA8E8F76B4C6DFE810B580B1547F4B84911149794252234D024EF8BBE963A95AE27B3D310A9D5C215C7960FAEE415ED75694C6AFB17BCACA5D99A60A9AA65F217B0BFC53292ACB92BF283FAD0D3621576592CB5BED907C2FA8E9DF794E35E97BEA31BED21FEB401ABB94C44839
310
DCACBF0E1C5DA8DA5B2F4DFFD32AD86F543D9E565E7056502E157C00AD2671CD534549AB752FCA9CDA00677A313F04E51B22FF19E57B300579E3C97EB29F682D92935CEC18CF901B7B54FD8C51F362B56FC72FE0B3C1EAE335EDCCBF5AEC39ADB17DC238973F804BA5E6F6BFE7AF1FB32E523BE9F3BD571418E3631DCA4D48
310
5250CF639223210A9446CA30052EDF057BD35F8329C1ECD84552BF0DC8D18BE7BCE23BFE6BD960AB4A7DE79923A103BEBD80F911CBAA2C60DB19B01CF164A5583B772EE6D3FFA56666CBCDA74DC97724A48F9A58967497E489C4D979006FD7A05E227A1EBDD0F737C623387A9C844D3709995625106D157315F8B8392CD4E0
310
A0B9A720C4BE9829CEF37EA1E13111214D53925356365ADA634861B52519DD27A00AEB808EAF0628E6F435519D446F45CF2C9CF5214F0A15B2F6D06B79DA3EE3CBF7F56780D2F4E7EF73A0F5E5B02A38D07DC852C6B7C1FBB6664213E0C39E3EBA7FF4E1AD23EA2829407C85E586727488B751B2DB9502BC7B228A3FD68B6E
310
A65A22397E690AA8D158D7E404EC8CDA235CC3B7D1898680131CEC2CDF2638C65196279577750F15884AEE19F94199155B92B13297978469D4F8D358DF0AEF7631E28DC8F0D9F437D5D39A83B2231A1D52D543813A824EF8D44BCFF2FA6A31BD1E8DAD87F1CCB526B3879935BF59CDADD5C37479BB1CDD4CA7B3556B516589
310
EF352754B706114D9C885EC9131DE6EFEB43D99AFE2391C2F958179413D7CFEF6B1B6DB1E7600F00DE6E5C67454A339A4BA2E0FBA85ED26F045D454F463DBFCE484C2F90F2E5E3666003662ED8F755951A7D1BECD5B30B550B2785C8E7320B7292A4838DDA71BBC863ED7613CAF659337A3354231D4FF4A182A54904C2898C
310
98B28C4AD0CE056CCF332A80986E571EE9DBC305BB5FEB7E509220A58D25CF042D712A806AC0AD0C657FDEF80D2D9CEAA2EE4D1C76F60BFE74219A06527D6F82DF6412526107381E55E353090704D085B52408A8913C4ED159D79BDA71BB4BC506F4831350EB6F975CD22D69BF7AC49B91A2C0A9DDA3D5CA36AD20FC478E37
310
E61844E2352865EBCB61A275A65283CAAA9DD27703B4102F5AF51EF5F573B75CBB5AD38BC845F7A49F82A0966A49C2E3EA5EA0ECD326CD965F1DB402C6FA8B51A4658C5C5E2EC9E214602E55810345408596591009A82E7E7FFACA19EEA299B14A0081A705CB3296EBC14CDF658DCD336EA6D1136881AAEB87B81AB9EE53D5
310
F5EB8BC8362082DA24122F98680A4E7930C01A0079749CEA14382A0783E5EBA5A10F8C098456A03D6A4AEB6BB881E2513747552A5DB22C7EDAF83BD5528081A365F7FF06504B0304140006080000CC70623B000000000000000000000000350000006662782F41393633353835312D344632462D344230382D423046372D37
310
39314545314133324237412F76657274696365732E62696E504B0304140006080800CC70623BF270F1330600000004000000360000006662782F41393633353835312D344632462D344230382D423046372D3739314545314133324237412F747269616E676C65732E62696E636660600000504B0304140006080000CC7062
310
3B000000000000000000000000370000006662782F41393633353835312D344632462D344230382D423046372D3739314545314133324237412F617474726962757465732E62696E504B0304140006080800CC70623B08DA0BD19000000041010000360000006662782F41393633353835312D344632462D344230382D4230
310
46372D3739314545314133324237412F6469726563746F72792E786D6C858F410AC3201045AF22B36F53E9A60B35CBEEBAE80D244E44489C6234F4F835464A48035D0DF398FF9F8AF63D0E6CC63039F212F8F9020C7D47C6792B21C5FE7403D62A1188E2E60C98D7234A5830286103A55745067B9D86B8A3CF9C7F90C11DE6
310
07FB144396D7B6A82D282E9A152AD114D5EF2CB866EEE831B8EEA07A7BB5A8D7D61A2BAAEB7FD5F70921FF497D00504B0304140006080800CC70623BEDD1DC58FD000000A00100003B0000006662782F41393633353835312D344632462D344230382D423046372D3739314545314133324237412F7265736F75726365732F
310
636F72652E786D6C8D504B6E833010BD0A9A6D65B00922041947112427E8052C33A156828DFCA97AFC9A40A576D7CDCCE87D344F8F9FBFE667F689CE6B6B3A6039850C8DB2A336530731DC4903D95970676DF82583CCC8193B5861107C72362E3BA4AC096842428D1D7107A5F7182053CF7474E0D507CE32973124857FE48B
310
540F3961CEF244279DE03EB81420DB9EAC1384436FA353E879B1B182C7A8C75DA3C7F453DF353A1075D537A7BA6464B8F535A99AE14A9A2BBD90E350DD183B5CFABE3AF262350B1EF4FC9351399401471025A527C218A1E53BAB5A5AB765F5469B96525EACF23FA6B88CFF34456DC2A1DCE36E360F82A5202F42F062ED2BAD
310
579969AFDD8A6F504B010214000A0000080000CC70623B3DEE336E79000000790000001B00000000000000000000000000000000006175746F6465736B2D64657369676E2D7061636B6167652E786D6C504B01021400140006080800CC70623BD486FD9CA0000000F40000001300000000000000000000000000B20000005B
310
436F6E74656E745F54797065735D2E786D6C504B01021400140006080800CC70623B853B8169EB0000007C010000080000000000000000000000000083010000636F72652E786D6C504B01021400140006080800CC70623B55019EA25F0000007C000000070000000000000000000000000094020000636E782E786D6C504B
310
01021400140006080800CC70623BDBABAAF470010000D40300000C00000000000000000000000000180300006662782F636F72652E786D6C504B01021400140006080800CC70623B9C113CC27E0000009D0000000B00000000000000000000000000B20400006662782F636E782E786D6C504B01021400140006080800CC70
310
623B7DF2F77C2A010000120200003100000000000000000000000000590500006662782F41393633353835312D344632462D344230382D423046372D3739314545314133324237412F636F72652E786D6C504B01021400140006080800CC70623BAD7543B64E010000330300003000000000000000000000000000D2060000
310
6662782F41393633353835312D344632462D344230382D423046372D3739314545314133324237412F636E782E786D6C504B01021400140006080800CC70623BE75B7789680500003C10000034000000000000000000000000006E0800006662782F41393633353835312D344632462D344230382D423046372D3739314545
310
314133324237412F6F626A656374732E786D6C504B01021400140006080000CC70623B0000000000000000000000003500000000000000000000000000280E00006662782F41393633353835312D344632462D344230382D423046372D3739314545314133324237412F76657274696365732E62696E504B01021400140006
310
080800CC70623BF270F133060000000400000036000000000000000000000000007B0E00006662782F41393633353835312D344632462D344230382D423046372D3739314545314133324237412F747269616E676C65732E62696E504B01021400140006080000CC70623B0000000000000000000000003700000000000000
310
000000000000D50E00006662782F41393633353835312D344632462D344230382D423046372D3739314545314133324237412F617474726962757465732E62696E504B01021400140006080800CC70623B08DA0BD1900000004101000036000000000000000000000000002A0F00006662782F41393633353835312D344632
310
462D344230382D423046372D3739314545314133324237412F6469726563746F72792E786D6C504B01021400140006080800CC70623BEDD1DC58FD000000A00100003B000000000000000000000000000E1000006662782F41393633353835312D344632462D344230382D423046372D3739314545314133324237412F7265
310
736F75726365732F636F72652E786D6C504B0506000000000E000E0080040000641100000000
  0
XRECORD
  5
1F8
102
{ACAD_REACTORS
330
1F7
102
}
330
1F7
100
AcDbXrecord
280
     1
 70
     1
 90
429727718
  1
30362254-06B7-45E0-A893-8CFA70E3D6BC
310
504B03040A0000080000CC70623B3DEE336E79000000790000001B0000006175746F6465736B2D64657369676E2D7061636B6167652E786D6C3C3F786D6C2076657273696F6E3D22312E302220656E636F64696E673D227574662D3822203F3E3C666F726D6174733E3C666F726D61743E687474703A2F2F736368656D612E
310
6175746F6465736B2E636F6D2F64657369676E2D7061636B6167652F323030393C2F666F726D61743E3C2F666F726D6174733E504B0304140006080800CC70623BD486FD9CA0000000F4000000130000005B436F6E74656E745F54797065735D2E786D6C7D8EC10E82300C865F65E91D8A1E8C310C0EEA1BF002731658846E
310
D98AC1B77784ABF1D8FE5FBFBF75BBCE937A534CCEB38643598122B6FEE978D0B0485F9C41B54DDD7D022595594E1A469170414C76A4D9A4D207E29CF43ECE46F218070CC6BECC4078ACAA135ACF422C856C0E68EA1BF5669944DDD7BCDE7B1F8E415D77AECB980613C2E4AC91FC167A2B244592486606FC29C8FD7F045B9A
310
EF7053A7E60B504B0304140006080800CC70623B1EC5D7A3EB0000007C01000008000000636F72652E786D6C8D90416EC3201045AF82665B6103C6756C6122AB4D4ED00B204C5C94182C03558F5F9C3852BBEB6A467FFE9B197D71FC9E6FE8CBACC17AD7032D0820E3B41FAD9B7A48F1820F808E52ACDEC75F36404ECDA687
310
4D0629A6D5A76597B477D1B89855E747B38B2A041301E95B6E7A08FAD3CCAA50296647B8168BD2573599823EBB0CA76447F43862C7BCCF5EAC59410E4DDD9C7973C2755553CCCFA4C603E3040F1565ED3B1FDE4E432BCA0D9622DAF9795FAF464533826484B498524CD807E51D79ED187F21878E10516EF63F505AC67F42C9
310
BA58B1FDDD071640D2FCC87D2045B96591CB3DA85CB7DCE40F504B0304140006080800CC70623B55019EA25F0000007C00000007000000636E782E786D6C4DCB3B0E80201045D1AD90E915ED2CF8AC45050C11660C8261F98AB1B07AC9C97D42D718D865D3E909258CFD00CCE24AC6E326A164D74DC0B4128928FF32603847
310
2BA13128B1252AC747C6BAB984FC68F0B87FE8960A5C09FE86CFB69FBA01504B0304140006080800CC70623B8C9102E971010000D40300000C0000006662782F636F72652E786D6CC5535B6E833010BC8AE5DF0A6C08340F1947A84D4ED00B38C6A128602363A31CBFCB234A53A551FA553EC09AD9F5CE8C31DB9E9B1AF5CA
310
7695D1198E428A91D2D214952E33ECDD315861B4E5CC1AE3BE9561A445A3323CC098B3D21ADFCE9034DA29ED00D5A6503328BA4E398C640D8B0C77F253352214DE4145770A5B214FA2546114020D759C75CE8200340D19DE981F0F6746269C33EFAB6266AB02A655C74A59CCF365BADC27CB5D902ED22848F6340DF238A141
310
BE88E2F57B92BFEDF23523433367AE6A2EEAA455C2A902F398D2751045018D3FA264435F3771F242571B4A1919CA6F9A7C5B3CD9E42BED16F12C776AEB308F40C848FC700B1139D4891EF410CEC810227CC6846F8386402064270EF5C5C709A05E49676C024C61FC95EA45ED154CA5211D1FF4FB8291A913A68E9B83EBBB33
310
E2A7673CDE118E5AE8124C0807CB8377834E366998436B950D7A7746DAD846D4CFD978E0F04FD455FC5D49D2D4C6FE9722321F10997F0F32DC47FE05504B0304140006080800CC70623BFFEA85907E0000009D0000000B0000006662782F636E782E786D6C4DCCD10A83201886E15B91FFDC95D95A811AB6F23E625948A6C3
310
E9D8E5AF46073BFAE0E1E365ED67B3E8ADC3CB78C7815C7240DA3DFC64DCC221C519D7805AC182F7F1EF06C88D9BE6703008B6049F9E274D7A1E938DBB5AE3D6131B2589BA0D3D965551E0B2EA732C9B9A624AAEB41E3A557677029960D9AFB4EF11165F504B0304140006080800CC70623B4FEEA4082C0100001202000031
310
0000006662782F39464131463745442D413632322D343644302D413938332D3331353338454246344243312F636F72652E786D6C8D515B6EC32010BC0AE2AB55850DD871ED0813254D72825EC00192A2C460F1A872FC42ED48ED5F7E00CDCECCCEB26C731F6FE05B39AFADE921293004CA082BB5B9F43086336A21D870E6AC
310
0D7F68109861543DCC30E4ECE26C9C164858139409093556AA051CBC570102714B8F1E7AF1A5C6A11862480C7F2DA6415C878B2A4891CA89C7990F2E050073937C42DE1DB7E4F87ED8A36D4329AA9B3D46DBAEAD504556557BD81DEBDD0761E52CE42C462D17B996298E3E6BE59E35C962CE821E1FF18553435012728A7187
310
0841987E927A8D9B35ADDF70BBC6989599FE4F1427F9A4286A132ABAC49D651EF234CD5CE04CDA78BA3DC2A8FB645D00B9DF8B57E215725C60BCA2A463E54C4CE327C7A65E1C7DB02E7DEFCBF594B864C5CA6CDBD49C957943E9FA5D5FBAF336F90F504B0304140006080800CC70623BAD7543B64E01000033030000300000
310
006662782F39464131463745442D413632322D343644302D413938332D3331353338454246344243312F636E782E786D6CD593CD6EC32010845F0571AD6CE3D48AD20813A9873E410FBD12D82434182C7EAAE6EDBB2424CD25871E7B41D6EC30B3FA84F9E67BB2E40B4234DE8DB46F1925E094D7C6ED479AD3AE5951B2113C
310
789FEE6C943839C1488B4C05DF079FE72A69D8C96C13AAD6B8631503449F83828872B949AC57D26200B826A308D316B4064D6E46FCDA41C05550DC9E483A00797BFD207EFB092A45DE9514C1BBD22178396BD39D891265658C238DEA00936C654E5E433CB65A26D9F6EDB5EBC14EBF49A45CB856E66048291F6939A9A81BB5
310
C8917738143CA680F4AA299D66A042CEB3354A2684DC9D8D178FE0D9B8B41CAAD720F880EE7EF93C0C18769E099ECC04D5A102C8049A8A05632F4DDF376CF1DE0F6BB65C2F8627B65A33C6BB62177CEBBDAD973006829F89F22E814B54F4BC2BE347F8AA8F681390B50FA73F804400B5F542E796F19FF974E7F78DB802FE05
310
E207504B0304140006080800CC70623B16AB87BA640500003C100000340000006662782F39464131463745442D413632322D343644302D413938332D3331353338454246344243312F6F626A656374732E786D6CAD575B6FA33818FD2B887DE6924B3BED8A326A92B68A663B534DD4D13E548A0C38942D60649B369D5FBFC7
310
600890A493BDE42160637FD7F31D7FF63E6FB3D478A55C242CBF3247B66B1A340F5994E4F19559CA8D75611A9F7D8F33263BCB4C232719BD32D5B4E97B316765A1A722BA21652A07B3B7B33F0D11D29C9A46981221AE4C113ED38CD8A4942CA2E2C58E882476BCD9DA23BB5ED8171B73523C0F841684D35CC252CCE79062D4
310
468DFA43D7747CCF51DF7D4FFDEB5593E3AB9CCA9FBEFE241792E4E19EB28198C968BAB8199F5D5A67D3E9C49A9E8F47D6EC76B6B0469F26EEFC7C3EBFBCBEB98462213924694B38DD98FE1D62C393D073EA4FADC5DAF04326852CCF6958F90F0F2B9BB5C48816348F90C7840A68EB78EDF68723159BCEE7891A6B95DDE9D3
310
BCEAEEE8086A6C6F9E5D4B59F0175C10A7A0820BAA5055C7473B5AE3CFDD452D602CD5DF12616444529E90D448938013FE6EFA58AA96F85E4F8C42275708571E98FE6827AF6B2B4AE3D7D83D64E5A64C53054DD3AF90BD06FEA9149565C94FCA0F6B834DC85599E4F2423B24DF0B6AFA979E534DFA9E7A4CC6FA631D486393
310
921829879BF5D781A373557BCB85E97FB90DB62B558F8795179C15944B051F40AB495CF35451D26A4727654E6D8033BD98EF82F21D91FF8AF2DD9982BCF1643BDD4EB516C9492E368C67C88DED563FC36D5EACF66DFF057C3658BDBFA69DF9578B3DA735B64F18C7F20770A9D45CFCF7FCF563D6456A277DBEF78A02637CA2
310
43B90A490AEAB94F72244481D24819A6C0E59B606BFA4B3025981DBB48EAB701D97BF19C577CC77F2D1B6C55A9EF3C732474C0B727303F625995056C3B02963D9EAC146BE78EC5FCEC7FA999EBC5EACBAAE41B12D27B4D2C0BBA49F244E2ECDC81B76B502F113D8F5EE8FB1BE3111CDD4FC2AA9B844CAB1288B68AB90A7CDC
310
1C166AB0D3DC5310625FCC14E779BFD0709F8890A629C9292B1B2DED31A4B0DA928CEE135085754027E3018A397D4D5427D15BD1330B677DC8934285AC3DF45A9EB68FF8F2B8FC0A509AFEECFD0FF2DE25CC6047F7214B195F07EFEB9A094D800F7BFAE8FED187B78EA8A3A400F115961BCAD1215E47C966530AF0EE8128FE
310
58CEBB996A8964FFA529A046635D9353B0336A8F700DDF46271A024E70B0B37C9DE01847591E54DED53D54202AB947E4076556AC49C6CA5C9E1226B7F1A7B1BE15DEED62C41B91E1B3E9AFAAA735036547343A925075041DF0A9979E893B391F8FCFA6967B3EFB644DCF6E5CEBFAE272625DCC6FAF3FB93793C5F90CE1EF57
310
407342756B10D1C489E8953CD1617E5CEECAD6F4EF8914CE5D5D504E5C3F1F9736DA62CFC11E00BCDDB8CC8A9466349744C1F75EBDA4DF09BA8A9E8C7A7E9991989E20E5DBDD6A6003664ED8F7A04A8DBE0DF6EAD9B9AA858342E47399053949D2C146EDB85DE4B176BB0965FBAC19BD19AA918E27FA50C1D22402E144464C
310
59462568E704B6E71915404CB72B8FF4EDE184DDAF753F284990D2C6926782963815403548A70C657FDEF80D2D9CEAA2AE4C1C76F60BFE74219A06527D6582DF6412526107381E55E353090704D085B52408D0933C4ED159D79BDA71BB4BC506F4831350EB6F979CD22D69BF7AC49B91A2C0A9DDA3D5CA36AD20FC478E37E6
310
1844E2352865EBCB6EA275A652E3836BE04EFB400BF1A2556F515F1FBB35B2AB35BD889C744FFA1004B5544B121E57F70215746DD2F5E2C1412B602CBF19455AC6C8E5E9922C4E01E65215385004546899059180EAFCF7A707CE7017CD8CDB0410789AB32C63B91E5CEBBBACB17AC6CD347A022D5075FD106377347AAABA7E
310
7D11590744509B44E205134DC1290F06580320F78E537D3D73540E06CB970B431F185308AD40BBD794D6D77003C5A36E8EAA54BA64597CD8F83BD552A080A365F7FF06504B0304140006080000CC70623B000000000000000000000000350000006662782F39464131463745442D413632322D343644302D413938332D3331
310
353338454246344243312F76657274696365732E62696E504B0304140006080800CC70623BF270F1330600000004000000360000006662782F39464131463745442D413632322D343644302D413938332D3331353338454246344243312F747269616E676C65732E62696E636660600000504B0304140006080000CC70623B
310
000000000000000000000000370000006662782F39464131463745442D413632322D343644302D413938332D3331353338454246344243312F617474726962757465732E62696E504B0304140006080800CC70623B08DA0BD19000000041010000360000006662782F39464131463745442D413632322D343644302D413938
310
332D3331353338454246344243312F6469726563746F72792E786D6C858F410AC3201045AF22B36F53E9A60B35CBEEBAE80D244E44489C6234F4F835464A48035D0DF398FF9F8AF63D0E6CC63039F212F8F9020C7D47C6792B21C5FE7403D62A1188E2E60C98D7234A5830286103A55745067B9D86B8A3CF9C7F90C11DE607
310
FB144396D7B6A82D282E9A152AD114D5EF2CB866EEE831B8EEA07A7BB5A8D7D61A2BAAEB7FD5F70921FF497D00504B0304140006080800CC70623B0D6EF93BFE000000A00100003B0000006662782F39464131463745442D413632322D343644302D413938332D3331353338454246344243312F7265736F75726365732F63
310
6F72652E786D6C8D50596E833010BD0A9ADFCA60B334011947A8694ED00B586642AC041B79A97AFC9A40A5F6AF3F33A3B7689E1E3F7DCD8FEC139DD7D6F4C0720A191A65476DA61E62B892236427C19DB5E1970C322367EC618541F0C9D9B8EC90B226A009093576C41D94DE63804C3DD2D18357379C652E63480A7FCF17A9
310
EE72C29CE5894E3AC17D702940B63D59270887DE46A7D0F36263058F518FBB468FE9A7BE6A7420864373B8D4873369AA8691FA421B3294352543C5CAF65C0F6FEF43CB8BD52C78D0F34F46E550061C419494B6843142CB0F5677F4B52BEB177AEC28E5C52AFF638ACBF84F53D42654E51E77B379102C05791282176B5F693D
310
CB4C7BED567C03504B010214000A0000080000CC70623B3DEE336E79000000790000001B00000000000000000000000000000000006175746F6465736B2D64657369676E2D7061636B6167652E786D6C504B01021400140006080800CC70623BD486FD9CA0000000F40000001300000000000000000000000000B20000005B
310
436F6E74656E745F54797065735D2E786D6C504B01021400140006080800CC70623B1EC5D7A3EB0000007C010000080000000000000000000000000083010000636F72652E786D6C504B01021400140006080800CC70623B55019EA25F0000007C000000070000000000000000000000000094020000636E782E786D6C504B
310
01021400140006080800CC70623B8C9102E971010000D40300000C00000000000000000000000000180300006662782F636F72652E786D6C504B01021400140006080800CC70623BFFEA85907E0000009D0000000B00000000000000000000000000B30400006662782F636E782E786D6C504B01021400140006080800CC70
310
623B4FEEA4082C0100001202000031000000000000000000000000005A0500006662782F39464131463745442D413632322D343644302D413938332D3331353338454246344243312F636F72652E786D6C504B01021400140006080800CC70623BAD7543B64E010000330300003000000000000000000000000000D5060000
310
6662782F39464131463745442D413632322D343644302D413938332D3331353338454246344243312F636E782E786D6C504B01021400140006080800CC70623B16AB87BA640500003C1000003400000000000000000000000000710800006662782F39464131463745442D413632322D343644302D413938332D3331353338
310
454246344243312F6F626A656374732E786D6C504B01021400140006080000CC70623B0000000000000000000000003500000000000000000000000000270E00006662782F39464131463745442D413632322D343644302D413938332D3331353338454246344243312F76657274696365732E62696E504B01021400140006
310
080800CC70623BF270F133060000000400000036000000000000000000000000007A0E00006662782F39464131463745442D413632322D343644302D413938332D3331353338454246344243312F747269616E676C65732E62696E504B01021400140006080000CC70623B0000000000000000000000003700000000000000
310
000000000000D40E00006662782F39464131463745442D413632322D343644302D413938332D3331353338454246344243312F617474726962757465732E62696E504B01021400140006080800CC70623B08DA0BD190000000410100003600000000000000000000000000290F00006662782F39464131463745442D413632
310
322D343644302D413938332D3331353338454246344243312F6469726563746F72792E786D6C504B01021400140006080800CC70623B0D6EF93BFE000000A00100003B000000000000000000000000000D1000006662782F39464131463745442D413632322D343644302D413938332D3331353338454246344243312F7265
310
736F75726365732F636F72652E786D6C504B0506000000000E000E0080040000641100000000
  0
XRECORD
  5
175
102
{ACAD_REACTORS
330
173
102
}
330
173
100
AcDbXrecord
280
     1
270
     1
271
     1
  0
XRECORD
  5
174
102
{ACAD_REACTORS
330
173
102
}
330
173
100
AcDbXrecord
280
     1
270
     1
271
     1
  0
XRECORD
  5
1FB
102
{ACAD_REACTORS
330
173
102
}
330
173
100
AcDbXrecord
280
     1
 70
     0
 90
1673772943
  1
ECE7A1D2-D628-4531-984C-D00F80459256
310
504B03040A0000080000CC70623B3DEE336E79000000790000001B0000006175746F6465736B2D64657369676E2D7061636B6167652E786D6C3C3F786D6C2076657273696F6E3D22312E302220656E636F64696E673D227574662D3822203F3E3C666F726D6174733E3C666F726D61743E687474703A2F2F736368656D612E
310
6175746F6465736B2E636F6D2F64657369676E2D7061636B6167652F323030393C2F666F726D61743E3C2F666F726D6174733E504B0304140006080800CC70623BD486FD9CA0000000F4000000130000005B436F6E74656E745F54797065735D2E786D6C7D8EC10E82300C865F65E91D8A1E8C310C0EEA1BF002731658846E
310
D98AC1B77784ABF1D8FE5FBFBF75BBCE937A534CCEB38643598122B6FEE978D0B0485F9C41B54DDD7D022595594E1A469170414C76A4D9A4D207E29CF43ECE46F218070CC6BECC4078ACAA135ACF422C856C0E68EA1BF5669944DDD7BCDE7B1F8E415D77AECB980613C2E4AC91FC167A2B244592486606FC29C8FD7F045B9A
310
EF7053A7E60B504B0304140006080800CC70623BD9DDAED0EC0000007C01000008000000636F72652E786D6C8D90416EC3201045AF82665B61836D9CD8C2444DD39CA01740405C94182C03558F5F9C3852BBEB6A467FFE9B197D7EF89E6EE8CB2CC17A37002D0820E394D7D68D03A478C17B4007C117EFE32F1B20272733C0
310
2A83E0E3E2D3BC49CABB685CCCAAF3DA6CA20CC14440EA969B0182FA34932C648AD911AEC52CD5558EA6A0CF2EC329598D1E47ACCEFBECC59A050463A7EA5833865FEBDD0E37353BE3EE8DBDE3F6786A48D375FBF6CC78B9C282473B3DEFABC5C86834888A900E538A49F5419B9EB47DD5BC907D4F082F57FB1F28CDFA9F50
310
B22ED6D5F6EE030B20687EE43E10BC5CB3C8E51E54AE6B6EE207504B0304140006080800CC70623B55019EA25F0000007C00000007000000636E782E786D6C4DCB3B0E80201045D1AD90E915ED2CF8AC45050C11660C8261F98AB1B07AC9C97D42D718D865D3E909258CFD00CCE24AC6E326A164D74DC0B4128928FF326038
310
472BA13128B1252AC747C6BAB984FC68F0B87FE8960A5C09FE86CFB69FBA01504B0304140006080800CC70623BA24EB22D72010000D40300000C0000006662782F636F72652E786D6CC5535B6E833010BC8AE5DF0A6C5E49888CA3A6694ED00B38E05014B091B1518EDFE511A5A9D228FD2A1F60CDEC7A67C6986DCE4D8D7A
310
69BA4AAB0C073EC548AA5C17952A33ECECD15B61B4E1CC686DBF9561A44423333CC098B3D268D7CE50AE9595CA02AA74216750749DB418E5352C32DCE59FB211BE70162ABA93DF8AFC244AE9073ED050C759670D0840D390E18DF9F1706664C23973AE2A66B62A605A75ACA4C13C4976E1364A12EF355A2EBD384AF65EFA96
310
BC7B8BED2EA6719AAE16FB8491A199335B351775B991C2CA02F390D2D40B028F861F41BCA68B7518BFD0D59A524686F29B26D7164F36B94AD9289CE54E6D1DE6010819891F6E21228B3AD1831EC219194284CF98F06DD01008846CC5A1BEF83801D4CBDC6A1303536877A57A513B0953A94FC707FDBE6064EA84A9E3E6E0FA
310
EE8CF0E9198F7784A316AA0413C2C2F2E0ECA0934D1AE6D05A69BCDE9E91D2A611F573361E38FC1375157F5752AE6B6DFE4B11990F88CCBF0719EE23FF02504B0304140006080800CC70623B408A7D3B7C0000009D0000000B0000006662782F636E782E786D6C4DCCD10A83201886E15B91FFDC552A92A0064DBC8F581632
310
D3703A76F9ABD1C18E3E78F878E5F0D9027ABBFCF2292AE86E2D20171F69F6715550CB827B40839639A5F2770314A7CD293819B45C73AAFB45B35BA61ACAA1C1C7E7855C58C15BC331339661262CC762340413D68D77DA5B42298546CBE6573AF60CEB2F504B0304140006080800CC70623B449FB9BD290100001202000031
310
0000006662782F36394639363044362D344446342D343946362D394244322D3234314243333846323333332F636F72652E786D6C8D515B6EC32010BC0AE22B55850D98B871848994463E412FE002495162B07854397EA176A4F62F3F2C9A9D991D587EB84F37F0AD7D30CEF6905418026DA553C65E7A98E219ED203808EE9D
310
8B7F6810D871D23D2C3014FCE25D9A57483A1BB58D19B54EE9151C43D0110279CB971E06F9A5A7B11A53CC8C70ADE6515EC78BAE4895DB992778883E0700CB907242D17643D7E2538BD869608875438BBAE38922CAC8F1BDD90DB4691A5E2F42C153326A951B95E398B3D1FE599322163C9AE9115F7A3D46ADA0A018778810
310
84E907617BDCEE297BC5BB3DC6BC2EF47FA234AB2745C9D8D8D035EE220B50105E2F0DC1954B9FB747187D9F9D8FA0CCDB042D5FA0C015C65B42DF78BD10F3F3B363CB56C7109DCFDFBBB97E662ED92EB62D13BC2E1BCAE5777DB9966D8A1F504B0304140006080800CC70623BAD7543B64E01000033030000300000006662
310
782F36394639363044362D344446342D343946362D394244322D3234314243333846323333332F636E782E786D6CD593CD6EC32010845F0571AD6CE3D48AD20813A9873E410FBD12D82434182C7EAAE6EDBB2424CD25871E7B41D6EC30B3FA84F9E67BB2E40B4234DE8DB46F1925E094D7C6ED479AD3AE5951B2113C789FEE
310
6C943839C1488B4C05DF079FE72A69D8C96C13AAD6B8631503449F83828872B949AC57D26200B826A308D316B4064D6E46FCDA41C05550DC9E483A00797BFD207EFB092A45DE9514C1BBD22178396BD39D891265658C238DEA00936C654E5E433CB65A26D9F6EDB5EBC14EBF49A45CB856E66048291F6939A9A81BB5C89177
310
38143CA680F4AA299D66A042CEB3354A2684DC9D8D178FE0D9B8B41CAAD720F880EE7EF93C0C18769E099ECC04D5A102C8049A8A05632F4DDF376CF1DE0F6BB65C2F8627B65A33C6BB62177CEBBDAD973006829F89F22E814B54F4BC2BE347F8AA8F681390B50FA73F804400B5F542E796F19FF974E7F78DB802FE05E20750
310
4B0304140006080800CC70623B8D05915C650500003B100000340000006662782F36394639363044362D344446342D343946362D394244322D3234314243333846323333332F6F626A656374732E786D6CAD575B6FA33814FE2B887D06429276DA1565D4266D158D3A339A6846FB502932E050B66023DB74D2FDF5FB190C01
310
9276B2973C046C8ECFF53B17071F77456EBD502133CEAE6CDF9DD81665314F32965ED995DA3A17B6F5310C04E7AA47665B8C14F4CAD6DB7618A48257A5D94AE89654B91AEDDEDDFC61C998326A5B714EA4BCB265FC440BE2924AF184CA6737218AB8E976E7FA6E4338649B0A523E8D98964450A6A029F619B8588D52FE7039
310
B1BD30F0F4F730D0FF866AF6369557DB33949F31A9088B0F848DD8CCFCF9F2767A76E99CCDE733677E3EF59D9BBB9BA5E37F984D16E78BC5E5F5ED25044B25C0C96822E8D60EEFE11B91C581D77CEA34368A1F5329E68CD1B8B61F16D63A1B8E092D294B10C78C4A48EB593D192E7DED9BDEE7995E1B91FDEDD3ACEA9FE831
310
6A756F9F7D4D79F4274C90A7A04248AA51D5F8C718DAE06FB2F75AC4796EBE65D22A88A22223B995679120E2D50E41AA49C260C046A35368846B0BECD0DFF3EBEB8AD4F835768F69B9ADF25C43D30E6B646F807FAA64AD59F61715C7A54127C4AACA98BA3006A9D792DAE165E0D59B61A01FB3A9F9D838D2DAE62445C86166
310
F37564E842E7DE6A69879FEEA2DD5AE7E371E1A5E025154AC307D06A03D73EB5978C58FFA4C8E9033066E0F3BD53BEC1F39F91BE7B55103791EDE6BBB991A2046172CB4581D8B893FA674DDA17A77B3B7C413D1B511FD2743BFF8A38F03A658705E3ADF8015C3A3417FF3D7E439FF591DA0B5F18BC20C1B8981957AE6392A3
310
F43C640C01D1A0B4728E2DD4F26DB4B3C3152A252A3B4E913CEC1C72F012782FF88EFF8637AA552DBEF76408E8A8DE9E50F9E1CB3A2DA0DB1B6039A893B56063DC5B3E3FFB5F72E67AB9FEB4AEC496C4F4C1149625DD662C53E89D7BF0F6151A046260D1337DFDC94502430F83B0EE07A130A224BCAD7DAE1D9FB6CD422FF6
310
920702629C4BB9AE79C12F243C6432A6794E18E5552BA56B431AAB5D91317302B2B071E86C3A42B1A02F999E24061403B5D0EB639195DA655DD3EBEAB4FB862DDF579F014AD0E73C22F99E28DA57FB98E75C6CA2D74D53086D600F4786E0FE3144B771A8A7B900F03594DB8A633CBC49B2EDB69228BB479CF863B5E807AAAB
310
23872F6DFEB4129B949CA33823F58830E86D65621E10047D9DB34D862E8EAC3C2ABC2F7B2C40D67CDFE01F5545B92105AF983AC54D93D69E56FB8E797F88913F898A9FEC705D3F9D1B54EC8426FB500D40A03BD0119B06E1B95DDC7EB8F6975367793EBD70E66733DFB9BC982F9CE564727731999F5D4ECFCE3B8D6A4DC2A0
310
6D50FD148437D110834A64C6CDDF57FBACB5C307A2A477DFE4939736CFEF2B175371E0E10CF0DD1D5C15654E0BCA14D1E87DD02FF93782A162C0A3D95F1524A52770F972BF1EE9809D13CE7DD599467F8ECE9ADD85CE85A34CD45355448C64F9E8A031DC2D596ACC6E5DD93D9B82DE2EF5CAF81363A8E47996A0DE24564A79
310
4115AACE09C55E14540231FDA13C319787134EBF34E3A022514E5B4D9E0826E25C02D5805B15ABE1BEF51B26383D445DD9E875EE33FE4C22DA16427D65A3BCA92CA6D28DD01DF5DC53330704308475351050232CCD31583787BA75774AFB06E5070DD0C8EF484E19968C5D83BA5B90B244D31E54D55A372320FE4786B7EA58
310
44E135AA5467CB7EA333A61683CC6A8C3257034C10CF46F40EF9F5BE59BE5BD30C3C72D235E95D10345C1D45445A5F0BB47E46A5EBE5570F9380B5FA629579952296A773720405982B9DE04011506178964401AA8BDF1FBF0A8EAB6861DD6580C0E38217056766716DAEB2D6FA0917D3E4116581EADB879C4E7CFFB11EFACD
310
3D641311495D92C8676CB409A72D18610D803CE8A626049E8EC1887CB5B44CC39883690DDA8399B4B9855B481E7D71D4A9D22F96E5BB73BF5793020C02137BF837504B0304140006080000CC70623B000000000000000000000000350000006662782F36394639363044362D344446342D343946362D394244322D32343142
310
43333846323333332F76657274696365732E62696E504B0304140006080800CC70623BF270F1330600000004000000360000006662782F36394639363044362D344446342D343946362D394244322D3234314243333846323333332F747269616E676C65732E62696E636660600000504B0304140006080000CC70623B0000
310
00000000000000000000370000006662782F36394639363044362D344446342D343946362D394244322D3234314243333846323333332F617474726962757465732E62696E504B0304140006080800CC70623B08DA0BD19000000041010000360000006662782F36394639363044362D344446342D343946362D394244322D
310
3234314243333846323333332F6469726563746F72792E786D6C858F410AC3201045AF22B36F53E9A60B35CBEEBAE80D244E44489C6234F4F835464A48035D0DF398FF9F8AF63D0E6CC63039F212F8F9020C7D47C6792B21C5FE7403D62A1188E2E60C98D7234A5830286103A55745067B9D86B8A3CF9C7F90C11DE607FB14
310
4396D7B6A82D282E9A152AD114D5EF2CB866EEE831B8EEA07A7BB5A8D7D61A2BAAEB7FD5F70921FF497D00504B0304140006080800CC70623BCA768048FE000000A00100003B0000006662782F36394639363044362D344446342D343946362D394244322D3234314243333846323333332F7265736F75726365732F636F72
310
652E786D6C8D50596E833010BD0A9ADFCA60D600328E9AA639412F609909B1126CE4A5EAF16B0295DABFFECC8CDEA2797AECF8353F924FB44E193D409E5248504B332A3D0D10FC95B4901C39B3C6F85F3248B49871801506CE266BC2B243D2688FDA47549B11775038871E12F988C7004EDE7016A9083E2ADC3D5D84BC8B09
310
D33C8D74D471E6BC8D0192EDC93A815B742658898E651BCB59086ADC356A8C3FD555A1055ED7E7E254D615792D0F075295F585746FF53B694EE78A565DD736979A65AB9933AFE69F8CD2A2F038022F28ED489E135A7CE4554F9BBEA85E68DB53CAB255FEC71496F19FA6A0B42F8B3DEE6673C0F318E4497096AD7DC5F52C33
310
EEB55BFE0D504B010214000A0000080000CC70623B3DEE336E79000000790000001B00000000000000000000000000000000006175746F6465736B2D64657369676E2D7061636B6167652E786D6C504B01021400140006080800CC70623BD486FD9CA0000000F40000001300000000000000000000000000B20000005B436F
310
6E74656E745F54797065735D2E786D6C504B01021400140006080800CC70623BD9DDAED0EC0000007C010000080000000000000000000000000083010000636F72652E786D6C504B01021400140006080800CC70623B55019EA25F0000007C000000070000000000000000000000000095020000636E782E786D6C504B0102
310
1400140006080800CC70623BA24EB22D72010000D40300000C00000000000000000000000000190300006662782F636F72652E786D6C504B01021400140006080800CC70623B408A7D3B7C0000009D0000000B00000000000000000000000000B50400006662782F636E782E786D6C504B01021400140006080800CC70623B
310
449FB9BD290100001202000031000000000000000000000000005A0500006662782F36394639363044362D344446342D343946362D394244322D3234314243333846323333332F636F72652E786D6C504B01021400140006080800CC70623BAD7543B64E010000330300003000000000000000000000000000D20600006662
310
782F36394639363044362D344446342D343946362D394244322D3234314243333846323333332F636E782E786D6C504B01021400140006080800CC70623B8D05915C650500003B10000034000000000000000000000000006E0800006662782F36394639363044362D344446342D343946362D394244322D32343142433338
310
46323333332F6F626A656374732E786D6C504B01021400140006080000CC70623B0000000000000000000000003500000000000000000000000000250E00006662782F36394639363044362D344446342D343946362D394244322D3234314243333846323333332F76657274696365732E62696E504B010214001400060808
310
00CC70623BF270F13306000000040000003600000000000000000000000000780E00006662782F36394639363044362D344446342D343946362D394244322D3234314243333846323333332F747269616E676C65732E62696E504B01021400140006080000CC70623B00000000000000000000000037000000000000000000
310
00000000D20E00006662782F36394639363044362D344446342D343946362D394244322D3234314243333846323333332F617474726962757465732E62696E504B01021400140006080800CC70623B08DA0BD190000000410100003600000000000000000000000000270F00006662782F36394639363044362D344446342D
310
343946362D394244322D3234314243333846323333332F6469726563746F72792E786D6C504B01021400140006080800CC70623BCA768048FE000000A00100003B000000000000000000000000000B1000006662782F36394639363044362D344446342D343946362D394244322D3234314243333846323333332F7265736F
310
75726365732F636F72652E786D6C504B0506000000000E000E0080040000621100000000
  0
XRECORD
  5
176
102
{ACAD_REACTORS
330
173
102
}
330
173
100
AcDbXrecord
280
     1
270
     1
271
     1
  0
XRECORD
  5
177
102
{ACAD_REACTORS
330
173
102
}
330
173
100
AcDbXrecord
280
     1
270
     1
271
     1
  0
XRECORD
  5
777
102
{ACAD_REACTORS
330
776
102
}
330
776
100
AcDbXrecord
280
     1
102
DISPLAYNAME
  1
Imperial24
102
FLAGS
 90
        0
  0
XRECORD
  5
773
102
{ACAD_REACTORS
330
772
102
}
330
772
100
AcDbXrecord
280
     1
102
DISPLAYNAME
  1
Metric50
102
FLAGS
 90
        0
  0
CELLSTYLEMAP
  5
768
102
{ACAD_REACTORS
330
162
102
}
330
162
100
AcDbCellStyleMap
 90
        3
300
CELLSTYLE
  1
TABLEFORMAT_BEGIN
 90
        5
170
     1
 91
        0
 92
    32768
 62
   257
 93
        1
300
CONTENTFORMAT
  1
CONTENTFORMAT_BEGIN
 90
        0
 91
        0
 92
      512
 93
        0
300

 40
0.0
140
1.0
 94
        5
 62
     0
340
11
144
6.0
309
CONTENTFORMAT_END
171
     1
301
MARGIN
  1
CELLMARGIN_BEGIN
 40
1.5
 40
1.5
 40
1.5
 40
1.5
 40
4.5
 40
4.5
309
CELLMARGIN_END
 94
        6
 95
        1
302
GRIDFORMAT
  1
GRIDFORMAT_BEGIN
 90
        0
 91
        1
 62
     0
 92
       -2
340
14
 93
        0
 40
1.125
309
GRIDFORMAT_END
 95
        2
302
GRIDFORMAT
  1
GRIDFORMAT_BEGIN
 90
        0
 91
        1
 62
     0
 92
       -2
340
14
 93
        0
 40
1.125
309
GRIDFORMAT_END
 95
        4
302
GRIDFORMAT
  1
GRIDFORMAT_BEGIN
 90
        0
 91
        1
 62
     0
 92
       -2
340
14
 93
        0
 40
1.125
309
GRIDFORMAT_END
 95
        8
302
GRIDFORMAT
  1
GRIDFORMAT_BEGIN
 90
        0
 91
        1
 62
     0
 92
       -2
340
14
 93
        0
 40
1.125
309
GRIDFORMAT_END
 95
       16
302
GRIDFORMAT
  1
GRIDFORMAT_BEGIN
 90
        0
 91
        1
 62
     0
 92
       -2
340
14
 93
        0
 40
1.125
309
GRIDFORMAT_END
 95
       32
302
GRIDFORMAT
  1
GRIDFORMAT_BEGIN
 90
        0
 91
        1
 62
     0
 92
       -2
340
14
 93
        0
 40
1.125
309
GRIDFORMAT_END
309
TABLEFORMAT_END
  1
CELLSTYLE_BEGIN
 90
        1
 91
        1
300
_TITLE
309
CELLSTYLE_END
300
CELLSTYLE
  1
TABLEFORMAT_BEGIN
 90
        5
170
     1
 91
        0
 92
        0
 62
   257
 93
        1
300
CONTENTFORMAT
  1
CONTENTFORMAT_BEGIN
 90
        0
 91
        0
 92
      512
 93
        0
300

 40
0.0
140
1.0
 94
        5
 62
     0
340
11
144
4.5
309
CONTENTFORMAT_END
171
     1
301
MARGIN
  1
CELLMARGIN_BEGIN
 40
1.5
 40
1.5
 40
1.5
 40
1.5
 40
4.5
 40
4.5
309
CELLMARGIN_END
 94
        6
 95
        1
302
GRIDFORMAT
  1
GRIDFORMAT_BEGIN
 90
        0
 91
        1
 62
     0
 92
       -2
340
14
 93
        0
 40
1.125
309
GRIDFORMAT_END
 95
        2
302
GRIDFORMAT
  1
GRIDFORMAT_BEGIN
 90
        0
 91
        1
 62
     0
 92
       -2
340
14
 93
        0
 40
1.125
309
GRIDFORMAT_END
 95
        4
302
GRIDFORMAT
  1
GRIDFORMAT_BEGIN
 90
        0
 91
        1
 62
     0
 92
       -2
340
14
 93
        0
 40
1.125
309
GRIDFORMAT_END
 95
        8
302
GRIDFORMAT
  1
GRIDFORMAT_BEGIN
 90
        0
 91
        1
 62
     0
 92
       -2
340
14
 93
        0
 40
1.125
309
GRIDFORMAT_END
 95
       16
302
GRIDFORMAT
  1
GRIDFORMAT_BEGIN
 90
        0
 91
        1
 62
     0
 92
       -2
340
14
 93
        0
 40
1.125
309
GRIDFORMAT_END
 95
       32
302
GRIDFORMAT
  1
GRIDFORMAT_BEGIN
 90
        0
 91
        1
 62
     0
 92
       -2
340
14
 93
        0
 40
1.125
309
GRIDFORMAT_END
309
TABLEFORMAT_END
  1
CELLSTYLE_BEGIN
 90
        2
 91
        1
300
_HEADER
309
CELLSTYLE_END
300
CELLSTYLE
  1
TABLEFORMAT_BEGIN
 90
        5
170
     1
 91
        0
 92
        0
 62
   257
 93
        1
300
CONTENTFORMAT
  1
CONTENTFORMAT_BEGIN
 90
        0
 91
        0
 92
      512
 93
        0
300

 40
0.0
140
1.0
 94
        2
 62
     0
340
11
144
4.5
309
CONTENTFORMAT_END
171
     1
301
MARGIN
  1
CELLMARGIN_BEGIN
 40
1.5
 40
1.5
 40
1.5
 40
1.5
 40
4.5
 40
4.5
309
CELLMARGIN_END
 94
        6
 95
        1
302
GRIDFORMAT
  1
GRIDFORMAT_BEGIN
 90
        0
 91
        1
 62
     0
 92
       -2
340
14
 93
        0
 40
1.125
309
GRIDFORMAT_END
 95
        2
302
GRIDFORMAT
  1
GRIDFORMAT_BEGIN
 90
        0
 91
        1
 62
     0
 92
       -2
340
14
 93
        0
 40
1.125
309
GRIDFORMAT_END
 95
        4
302
GRIDFORMAT
  1
GRIDFORMAT_BEGIN
 90
        0
 91
        1
 62
     0
 92
       -2
340
14
 93
        0
 40
1.125
309
GRIDFORMAT_END
 95
        8
302
GRIDFORMAT
  1
GRIDFORMAT_BEGIN
 90
        0
 91
        1
 62
     0
 92
       -2
340
14
 93
        0
 40
1.125
309
GRIDFORMAT_END
 95
       16
302
GRIDFORMAT
  1
GRIDFORMAT_BEGIN
 90
        0
 91
        1
 62
     0
 92
       -2
340
14
 93
        0
 40
1.125
309
GRIDFORMAT_END
 95
       32
302
GRIDFORMAT
  1
GRIDFORMAT_BEGIN
 90
        0
 91
        1
 62
     0
 92
       -2
340
14
 93
        0
 40
1.125
309
GRIDFORMAT_END
309
TABLEFORMAT_END
  1
CELLSTYLE_BEGIN
 90
        3
 91
        2
300
_DATA
309
CELLSTYLE_END
  0
ENDSEC
  0
SECTION
  2
ACDSDATA
 70
     2
 71
     8
  0
ACDSSCHEMA
 90
        0
  1
AcDb_Thumbnail_Schema
  2
AcDbDs::ID
280
    10
 91
        8
  2
Thumbnail_Data
280
    15
 91
        0
101
ACDSRECORD
 95
        0
 90
        1
  2
AcDbDs::TreatedAsObjectData
280
     1
291
     1
101
ACDSRECORD
 95
        0
 90
        2
  2
AcDbDs::Legacy
280
     1
291
     1
101
ACDSRECORD
  1
AcDbDs::ID
 90
        3
  2
AcDs:Indexable
280
     1
291
     1
101
ACDSRECORD
  1
AcDbDs::ID
 90
        4
  2
AcDbDs::HandleAttribute
280
     7
282
     1
  0
ACDSSCHEMA
 90
        1
  1
AcDbDs::TreatedAsObjectDataSchema
  2
AcDbDs::TreatedAsObjectData
280
     1
 91
        0
  0
ACDSSCHEMA
 90
        2
  1
AcDbDs::LegacySchema
  2
AcDbDs::Legacy
280
     1
 91
        0
  0
ACDSSCHEMA
 90
        3
  1
AcDbDs::IndexedPropertySchema
  2
AcDs:Indexable
280
     1
 91
        0
  0
ACDSSCHEMA
 90
        4
  1
AcDbDs::HandleAttributeSchema
  2
AcDbDs::HandleAttribute
280
     7
 91
        1
284
     1
  0
ACDSRECORD
 90
        0
  2
AcDbDs::ID
280
    10
320
22
  2
Thumbnail_Data
280
    15
 94
     1527
310
89504E470D0A1A0A0000000D4948445200000100000000700803000000C6F95E2100000300504C5445212830FFFFFF2128300000000000000000000000000000000000000000000000000000330000660000990000CC0000FF0033000033330033660033990033CC0033FF0066000066330066660066990066CC0066FF0099
310
000099330099660099990099CC0099FF00CC0000CC3300CC6600CC9900CCCC00CCFF00FF0000FF3300FF6600FF9900FFCC00FFFF3300003300333300663300993300CC3300FF3333003333333333663333993333CC3333FF3366003366333366663366993366CC3366FF3399003399333399663399993399CC3399FF33CC00
310
33CC3333CC6633CC9933CCCC33CCFF33FF0033FF3333FF6633FF9933FFCC33FFFF6600006600336600666600996600CC6600FF6633006633336633666633996633CC6633FF6666006666336666666666996666CC6666FF6699006699336699666699996699CC6699FF66CC0066CC3366CC6666CC9966CCCC66CCFF66FF0066
310
FF3366FF6666FF9966FFCC66FFFF9900009900339900669900999900CC9900FF9933009933339933669933999933CC9933FF9966009966339966669966999966CC9966FF9999009999339999669999999999CC9999FF99CC0099CC3399CC6699CC9999CCCC99CCFF99FF0099FF3399FF6699FF9999FFCC99FFFFCC0000CC00
310
33CC0066CC0099CC00CCCC00FFCC3300CC3333CC3366CC3399CC33CCCC33FFCC6600CC6633CC6666CC6699CC66CCCC66FFCC9900CC9933CC9966CC9999CC99CCCC99FFCCCC00CCCC33CCCC66CCCC99CCCCCCCCCCFFCCFF00CCFF33CCFF66CCFF99CCFFCCCCFFFFFF0000FF0033FF0066FF0099FF00CCFF00FFFF3300FF3333
310
FF3366FF3399FF33CCFF33FFFF6600FF6633FF6666FF6699FF66CCFF66FFFF9900FF9933FF9966FF9999FF99CCFF99FFFFCC00FFCC33FFCC66FFCC99FFCCCCFFCCFFFFFF00FFFF33FFFF66FFFF99FFFFCCFFFFFF0000000D0D0D1A1A1A2828283535354343435050505D5D5D6B6B6B787878868686939393A1A1A1AEAEAEBB
310
BBBBC9C9C9D6D6D6E4E4E4F1F1F1FFFFFF0000000000000000000000000000000000000000000000000000000000002E4550F1000002B24944415478DAED9CDB72C3200C44F9FFFFDDF776DAA40D1830064908D87D4A3353238E75011927048AA2B613FE75E8FC0FBFFFC707000110000990C09EB5FDF932005BDD55B4CE7F
310
57B7C6D129E0FBBE36DE5A98C7A69D0BC01F0098051D9C12B0CB3B689D1B2685A8C910680C4BFB32A83E58F3AC306B1DA03C5C7956B01955549D45E0F75F0D016004816CC6C0140FC04056816CA246999E0580E446DC84C76C00724910F9216E66381B806032AE7B805300D00D8186810880007606E03F074812581340C0D9
310
2120D9145D33070887400CF2E3AF5392204AB610C02900560B01E532D8D22C3904C0BC7E4052E22CB6C33FD79AD310B94CE50E80645354AD09A8094030008650A28A328C7B923280C4C85100031E300BC0683691CE01E5B0D204209040D7F600023818C068195D1D40F73A602B001D66CA0318418D1D008C78C03E00804BCF
310
6B59003D4BE1C8E39194281F002E6D00A9C311EF73687F7D18843200819318DD00027A62E101808F00289E9702E679802E80643B5CBCEE3C009756A92480F822B59EE4440041154067823B1E402000CB32287728B096D8FD7A00ACD16AEE65FB174226B5F62E5E80BAF3ACAA8683D2F1C4F77B7BA61180D33C61568C088000
310
CE0580E656C1C608B0711590AD1914455114453D6C4318BF36AAD366A2288AA2288A7AD8544072164365F915AD805C2C08F39F532062ACA3A73A1E167C99A30941A5E7165DD451570F85CF6AE6417D04410051FFF91523F18B75972F1F659DA4C52F34828607BC7EEC2E3EC397FDB2D70304475001907B308DAEA7D5501F41
310
0A40AE42C6990CCF7366F2AA12E447100280BCA563E6A172D0D11B80C45C410F80B28F29E78071F30A6F09BB0410A0611EAAE9E01C00C8A7DC830004BF00AE4E2A605E72D1D2AAD387075C768312E6C5BBC1E001C0E76388E4F72192EDBA8879D91F2B9CEE0114455114B5ABBE00C9D7ABB389C0070B0000000049454E44AE
310
426082
  0
ENDSEC
  0
EOF
