  0
SECTION
  2
HEADER
  9
$ACADVER
  1
AC1027
  9
$ACADMAINTVER
 70
   125
  9
$DWGCODEPAGE
  3
ANSI_1252
  9
$LASTSAVEDBY
  1
andrea.ragusa
  9
$REQUIREDVERSIONS
160
                 0
  9
$INSBASE
 10
0.0
 20
0.0
 30
0.0
  9
$EXTMIN
 10
0.0192270521298497
 20
0.0589148761458773
 30
-0.0015258207003583
  9
$EXTMAX
 10
14.56695607230881
 20
8.465515492327426
 30
0.0000000349246037
  9
$LIMMIN
 10
0.0
 20
0.0
  9
$LIMMAX
 10
420.0
 20
297.0
  9
$ORTHOMODE
 70
     0
  9
$REGENMODE
 70
     1
  9
$FILLMODE
 70
     1
  9
$QTEXTMODE
 70
     0
  9
$MIRRTEXT
 70
     0
  9
$LTSCALE
 40
1.0
  9
$ATTMODE
 70
     1
  9
$TEXTSIZE
 40
2.5
  9
$TRACEWID
 40
1.0
  9
$TEXTSTYLE
  7
Standard
  9
$CLAYER
  8
0
  9
$CELTYPE
  6
ByLayer
  9
$CECOLOR
 62
   256
  9
$CELTSCALE
 40
1.0
  9
$DISPSILH
 70
     0
  9
$DIMSCALE
 40
1.0
  9
$DIMASZ
 40
2.5
  9
$DIMEXO
 40
0.625
  9
$DIMDLI
 40
3.75
  9
$DIMRND
 40
0.0
  9
$DIMDLE
 40
0.0
  9
$DIMEXE
 40
1.25
  9
$DIMTP
 40
0.0
  9
$DIMTM
 40
0.0
  9
$DIMTXT
 40
2.5
  9
$DIMCEN
 40
2.5
  9
$DIMTSZ
 40
0.0
  9
$DIMTOL
 70
     0
  9
$DIMLIM
 70
     0
  9
$DIMTIH
 70
     0
  9
$DIMTOH
 70
     0
  9
$DIMSE1
 70
     0
  9
$DIMSE2
 70
     0
  9
$DIMTAD
 70
     1
  9
$DIMZIN
 70
     8
  9
$DIMBLK
  1

  9
$DIMASO
 70
     1
  9
$DIMSHO
 70
     1
  9
$DIMPOST
  1

  9
$DIMAPOST
  1

  9
$DIMALT
 70
     0
  9
$DIMALTD
 70
     3
  9
$DIMALTF
 40
0.03937007874016
  9
$DIMLFAC
 40
1.0
  9
$DIMTOFL
 70
     1
  9
$DIMTVP
 40
0.0
  9
$DIMTIX
 70
     0
  9
$DIMSOXD
 70
     0
  9
$DIMSAH
 70
     0
  9
$DIMBLK1
  1

  9
$DIMBLK2
  1

  9
$DIMSTYLE
  2
ISO-25
  9
$DIMCLRD
 70
     0
  9
$DIMCLRE
 70
     0
  9
$DIMCLRT
 70
     0
  9
$DIMTFAC
 40
1.0
  9
$DIMGAP
 40
0.625
  9
$DIMJUST
 70
     0
  9
$DIMSD1
 70
     0
  9
$DIMSD2
 70
     0
  9
$DIMTOLJ
 70
     0
  9
$DIMTZIN
 70
     8
  9
$DIMALTZ
 70
     0
  9
$DIMALTTZ
 70
     0
  9
$DIMUPT
 70
     0
  9
$DIMDEC
 70
     2
  9
$DIMTDEC
 70
     2
  9
$DIMALTU
 70
     2
  9
$DIMALTTD
 70
     3
  9
$DIMTXSTY
  7
Standard
  9
$DIMAUNIT
 70
     0
  9
$DIMADEC
 70
     0
  9
$DIMALTRND
 40
0.0
  9
$DIMAZIN
 70
     0
  9
$DIMDSEP
 70
    44
  9
$DIMATFIT
 70
     3
  9
$DIMFRAC
 70
     0
  9
$DIMLDRBLK
  1

  9
$DIMLUNIT
 70
     2
  9
$DIMLWD
 70
    -2
  9
$DIMLWE
 70
    -2
  9
$DIMTMOVE
 70
     0
  9
$DIMFXL
 40
1.0
  9
$DIMFXLON
 70
     0
  9
$DIMJOGANG
 40
0.7853981633974483
  9
$DIMTFILL
 70
     0
  9
$DIMTFILLCLR
 70
     0
  9
$DIMARCSYM
 70
     0
  9
$DIMLTYPE
  6

  9
$DIMLTEX1
  6

  9
$DIMLTEX2
  6

  9
$DIMTXTDIRECTION
 70
     0
  9
$LUNITS
 70
     2
  9
$LUPREC
 70
     4
  9
$SKETCHINC
 40
1.0
  9
$FILLETRAD
 40
0.0
  9
$AUNITS
 70
     0
  9
$AUPREC
 70
     0
  9
$MENU
  1
.
  9
$ELEVATION
 40
0.0
  9
$PELEVATION
 40
0.0
  9
$THICKNESS
 40
0.0
  9
$LIMCHECK
 70
     0
  9
$CHAMFERA
 40
0.0
  9
$CHAMFERB
 40
0.0
  9
$CHAMFERC
 40
0.0
  9
$CHAMFERD
 40
0.0
  9
$SKPOLY
 70
     0
  9
$TDCREATE
 40
2459060.503634259
  9
$TDUCREATE
 40
2459060.420300926
  9
$TDUPDATE
 40
2459060.503796296
  9
$TDUUPDATE
 40
2459060.420462964
  9
$TDINDWG
 40
0.0001620370
  9
$TDUSRTIMER
 40
0.0001620370
  9
$USRTIMER
 70
     1
  9
$ANGBASE
 50
0.0
  9
$ANGDIR
 70
     0
  9
$PDMODE
 70
     0
  9
$PDSIZE
 40
0.0
  9
$PLINEWID
 40
0.0
  9
$SPLFRAME
 70
     0
  9
$SPLINETYPE
 70
     6
  9
$SPLINESEGS
 70
     8
  9
$HANDSEED
  5
8FB
  9
$SURFTAB1
 70
     6
  9
$SURFTAB2
 70
     6
  9
$SURFTYPE
 70
     6
  9
$SURFU
 70
     6
  9
$SURFV
 70
     6
  9
$UCSBASE
  2

  9
$UCSNAME
  2

  9
$UCSORG
 10
0.0
 20
0.0
 30
0.0
  9
$UCSXDIR
 10
1.0
 20
0.0
 30
0.0
  9
$UCSYDIR
 10
0.0
 20
1.0
 30
0.0
  9
$UCSORTHOREF
  2

  9
$UCSORTHOVIEW
 70
     0
  9
$UCSORGTOP
 10
0.0
 20
0.0
 30
0.0
  9
$UCSORGBOTTOM
 10
0.0
 20
0.0
 30
0.0
  9
$UCSORGLEFT
 10
0.0
 20
0.0
 30
0.0
  9
$UCSORGRIGHT
 10
0.0
 20
0.0
 30
0.0
  9
$UCSORGFRONT
 10
0.0
 20
0.0
 30
0.0
  9
$UCSORGBACK
 10
0.0
 20
0.0
 30
0.0
  9
$PUCSBASE
  2

  9
$PUCSNAME
  2

  9
$PUCSORG
 10
0.0
 20
0.0
 30
0.0
  9
$PUCSXDIR
 10
1.0
 20
0.0
 30
0.0
  9
$PUCSYDIR
 10
0.0
 20
1.0
 30
0.0
  9
$PUCSORTHOREF
  2

  9
$PUCSORTHOVIEW
 70
     0
  9
$PUCSORGTOP
 10
0.0
 20
0.0
 30
0.0
  9
$PUCSORGBOTTOM
 10
0.0
 20
0.0
 30
0.0
  9
$PUCSORGLEFT
 10
0.0
 20
0.0
 30
0.0
  9
$PUCSORGRIGHT
 10
0.0
 20
0.0
 30
0.0
  9
$PUCSORGFRONT
 10
0.0
 20
0.0
 30
0.0
  9
$PUCSORGBACK
 10
0.0
 20
0.0
 30
0.0
  9
$USERI1
 70
     0
  9
$USERI2
 70
     0
  9
$USERI3
 70
     0
  9
$USERI4
 70
     0
  9
$USERI5
 70
     0
  9
$USERR1
 40
0.0
  9
$USERR2
 40
0.0
  9
$USERR3
 40
0.0
  9
$USERR4
 40
0.0
  9
$USERR5
 40
0.0
  9
$WORLDVIEW
 70
     1
  9
$SHADEDGE
 70
     3
  9
$SHADEDIF
 70
    70
  9
$TILEMODE
 70
     1
  9
$MAXACTVP
 70
    64
  9
$PINSBASE
 10
0.0
 20
0.0
 30
0.0
  9
$PLIMCHECK
 70
     0
  9
$PEXTMIN
 10
0.0
 20
0.0
 30
0.0
  9
$PEXTMAX
 10
0.0
 20
0.0
 30
0.0
  9
$PLIMMIN
 10
0.0
 20
0.0
  9
$PLIMMAX
 10
12.0
 20
9.0
  9
$UNITMODE
 70
     0
  9
$VISRETAIN
 70
     1
  9
$PLINEGEN
 70
     0
  9
$PSLTSCALE
 70
     1
  9
$TREEDEPTH
 70
  3020
  9
$CMLSTYLE
  2
Standard
  9
$CMLJUST
 70
     0
  9
$CMLSCALE
 40
20.0
  9
$PROXYGRAPHICS
 70
     1
  9
$MEASUREMENT
 70
     1
  9
$CELWEIGHT
370
    -1
  9
$ENDCAPS
280
     0
  9
$JOINSTYLE
280
     0
  9
$LWDISPLAY
290
     0
  9
$INSUNITS
 70
     4
  9
$HYPERLINKBASE
  1

  9
$STYLESHEET
  1

  9
$XEDIT
290
     1
  9
$CEPSNTYPE
380
     0
  9
$PSTYLEMODE
290
     1
  9
$FINGERPRINTGUID
  2
{A325CF54-A299-A44B-9036-2EED63611245}
  9
$VERSIONGUID
  2
{87F2571A-7672-DA4F-B6AF-1B35472FB34E}
  9
$EXTNAMES
290
     1
  9
$PSVPSCALE
 40
0.0
  9
$OLESTARTUP
290
     0
  9
$SORTENTS
280
   127
  9
$INDEXCTL
280
     0
  9
$HIDETEXT
280
     1
  9
$XCLIPFRAME
280
     2
  9
$HALOGAP
280
     0
  9
$OBSCOLOR
 70
   257
  9
$OBSLTYPE
280
     0
  9
$INTERSECTIONDISPLAY
280
     0
  9
$INTERSECTIONCOLOR
 70
   257
  9
$DIMASSOC
280
     2
  9
$PROJECTNAME
  1

  9
$CAMERADISPLAY
290
     0
  9
$LENSLENGTH
 40
50.0
  9
$CAMERAHEIGHT
 40
0.0
  9
$STEPSPERSEC
 40
2.0
  9
$STEPSIZE
 40
6.0
  9
$3DDWFPREC
 40
2.0
  9
$PSOLWIDTH
 40
5.0
  9
$PSOLHEIGHT
 40
80.0
  9
$LOFTANG1
 40
1.570796326794896
  9
$LOFTANG2
 40
1.570796326794896
  9
$LOFTMAG1
 40
0.0
  9
$LOFTMAG2
 40
0.0
  9
$LOFTPARAM
 70
     7
  9
$LOFTNORMALS
280
     1
  9
$LATITUDE
 40
37.795
  9
$LONGITUDE
 40
-122.394
  9
$NORTHDIRECTION
 40
0.0
  9
$TIMEZONE
 70
 -8000
  9
$LIGHTGLYPHDISPLAY
280
     1
  9
$TILEMODELIGHTSYNCH
280
     1
  9
$CMATERIAL
347
EC
  9
$SOLIDHIST
280
     0
  9
$SHOWHIST
280
     1
  9
$DWFFRAME
280
     2
  9
$DGNFRAME
280
     0
  9
$REALWORLDSCALE
290
     1
  9
$INTERFERECOLOR
 62
     1
  9
$INTERFEREOBJVS
345
F9
  9
$INTERFEREVPVS
346
F6
  9
$CSHADOW
280
     0
  9
$SHADOWPLANELOCATION
 40
0.0
  0
ENDSEC
  0
SECTION
  2
CLASSES
  0
CLASS
  1
ACDBDICTIONARYWDFLT
  2
AcDbDictionaryWithDefault
  3
ObjectDBX Classes
 90
        0
 91
        1
280
     0
281
     0
  0
CLASS
  1
DICTIONARYVAR
  2
AcDbDictionaryVar
  3
ObjectDBX Classes
 90
        0
 91
       11
280
     0
281
     0
  0
CLASS
  1
TABLESTYLE
  2
AcDbTableStyle
  3
ObjectDBX Classes
 90
     4095
 91
        1
280
     0
281
     0
  0
CLASS
  1
MATERIAL
  2
AcDbMaterial
  3
ObjectDBX Classes
 90
     1153
 91
        3
280
     0
281
     0
  0
CLASS
  1
VISUALSTYLE
  2
AcDbVisualStyle
  3
ObjectDBX Classes
 90
     4095
 91
       24
280
     0
281
     0
  0
CLASS
  1
SCALE
  2
AcDbScale
  3
ObjectDBX Classes
 90
     1153
 91
       17
280
     0
281
     0
  0
CLASS
  1
MLEADERSTYLE
  2
AcDbMLeaderStyle
  3
ACDB_MLEADERSTYLE_CLASS
 90
     4095
 91
        2
280
     0
281
     0
  0
CLASS
  1
CELLSTYLEMAP
  2
AcDbCellStyleMap
  3
ObjectDBX Classes
 90
     1152
 91
        1
280
     0
281
     0
  0
CLASS
  1
EXACXREFPANELOBJECT
  2
ExAcXREFPanelObject
  3
EXAC_ESW
 90
     1025
 91
        0
280
     0
281
     0
  0
CLASS
  1
NPOCOLLECTION
  2
AcDbImpNonPersistentObjectsCollection
  3
ObjectDBX Classes
 90
     1153
 91
        0
280
     0
281
     0
  0
CLASS
  1
LAYER_INDEX
  2
AcDbLayerIndex
  3
ObjectDBX Classes
 90
        0
 91
        0
280
     0
281
     0
  0
CLASS
  1
SPATIAL_INDEX
  2
AcDbSpatialIndex
  3
ObjectDBX Classes
 90
        0
 91
        0
280
     0
281
     0
  0
CLASS
  1
IDBUFFER
  2
AcDbIdBuffer
  3
ObjectDBX Classes
 90
        0
 91
        0
280
     0
281
     0
  0
CLASS
  1
ACDBSECTIONVIEWSTYLE
  2
AcDbSectionViewStyle
  3
ObjectDBX Classes
 90
     1025
 91
        2
280
     0
281
     0
  0
CLASS
  1
ACDBDETAILVIEWSTYLE
  2
AcDbDetailViewStyle
  3
ObjectDBX Classes
 90
     1025
 91
        2
280
     0
281
     0
  0
CLASS
  1
SORTENTSTABLE
  2
AcDbSortentsTable
  3
ObjectDBX Classes
 90
        0
 91
        2
280
     0
281
     0
  0
ENDSEC
  0
SECTION
  2
TABLES
  0
TABLE
  2
VPORT
  5
8
330
0
100
AcDbSymbolTable
 70
     1
1001
ACAD
1000
DbSaveVer
1071
      208
  0
VPORT
  5
EA
330
8
100
AcDbSymbolTableRecord
100
AcDbViewportTableRecord
  2
*Active
 70
     0
 10
0.0
 20
0.0
 11
1.0
 21
1.0
 12
7.293091562219331
 22
4.262215184236652
 13
0.0
 23
0.0
 14
10.0
 24
10.0
 15
10.0
 25
10.0
 16
0.0
 26
0.0
 36
1.0
 17
0.0
 27
0.0
 37
0.0
 40
8.466791074053972
 41
2.283154121863799
 42
50.0
 43
0.0
 44
0.0
 50
0.0
 51
0.0
 71
     0
 72
  1000
 73
     1
 74
     3
 75
     0
 76
     1
 77
     0
 78
     0
281
     0
 65
     1
110
0.0
120
0.0
130
0.0
111
1.0
121
0.0
131
0.0
112
0.0
122
1.0
132
0.0
 79
     0
146
0.0
348
F5
 60
     3
 61
     5
292
     1
282
     1
141
0.0
142
0.0
 63
   250
421
  3355443
1001
ACAD_NAV_VCDISPLAY
1070
     3
  0
ENDTAB
  0
TABLE
  2
LTYPE
  5
5
330
0
100
AcDbSymbolTable
 70
     1
  0
LTYPE
  5
14
330
5
100
AcDbSymbolTableRecord
100
AcDbLinetypeTableRecord
  2
ByBlock
 70
     0
  3

 72
    65
 73
     0
 40
0.0
  0
LTYPE
  5
15
330
5
100
AcDbSymbolTableRecord
100
AcDbLinetypeTableRecord
  2
ByLayer
 70
     0
  3

 72
    65
 73
     0
 40
0.0
  0
LTYPE
  5
16
330
5
100
AcDbSymbolTableRecord
100
AcDbLinetypeTableRecord
  2
Continuous
 70
     0
  3
Solid line
 72
    65
 73
     0
 40
0.0
  0
ENDTAB
  0
TABLE
  2
LAYER
  5
2
102
{ACAD_XDICTIONARY
360
1FF
102
}
330
0
100
AcDbSymbolTable
 70
     2
  0
LAYER
  5
10
102
{ACAD_XDICTIONARY
360
13C
102
}
330
2
100
AcDbSymbolTableRecord
100
AcDbLayerTableRecord
  2
0
 70
     0
 62
     7
  6
Continuous
370
    -3
390
F
347
EE
348
0
  0
LAYER
  5
28D
330
2
100
AcDbSymbolTableRecord
100
AcDbLayerTableRecord
  2
Livello 1
 70
     0
 62
     7
  6
Continuous
370
    -3
390
F
347
EE
348
0
  0
ENDTAB
  0
TABLE
  2
STYLE
  5
3
330
0
100
AcDbSymbolTable
 70
     2
  0
STYLE
  5
11
330
3
100
AcDbSymbolTableRecord
100
AcDbTextStyleTableRecord
  2
Standard
 70
     0
 40
0.0
 41
1.0
 50
0.0
 71
     0
 42
2.5
  3
arial.ttf
  4

1001
ACAD
1000
Arial
1071
       34
  0
STYLE
  5
132
330
3
100
AcDbSymbolTableRecord
100
AcDbTextStyleTableRecord
  2
Annotativa
 70
     0
 40
0.0
 41
1.0
 50
0.0
 71
     0
 42
2.5
  3
arial.ttf
  4

1001
AcadAnnotative
1000
AnnotativeData
1002
{
1070
     1
1070
     1
1002
}
1001
ACAD
1000
Arial
1071
       34
  0
ENDTAB
  0
TABLE
  2
VIEW
  5
6
330
0
100
AcDbSymbolTable
 70
     0
  0
ENDTAB
  0
TABLE
  2
UCS
  5
7
330
0
100
AcDbSymbolTable
 70
     0
  0
ENDTAB
  0
TABLE
  2
APPID
  5
9
330
0
100
AcDbSymbolTable
 70
     8
  0
APPID
  5
12
330
9
100
AcDbSymbolTableRecord
100
AcDbRegAppTableRecord
  2
ACAD
 70
     0
  0
APPID
  5
9E
330
9
100
AcDbSymbolTableRecord
100
AcDbRegAppTableRecord
  2
ACAD_PSEXT
 70
     0
  0
APPID
  5
133
330
9
100
AcDbSymbolTableRecord
100
AcDbRegAppTableRecord
  2
AcadAnnoPO
 70
     0
  0
APPID
  5
134
330
9
100
AcDbSymbolTableRecord
100
AcDbRegAppTableRecord
  2
AcadAnnotative
 70
     0
  0
APPID
  5
135
330
9
100
AcDbSymbolTableRecord
100
AcDbRegAppTableRecord
  2
ACAD_DSTYLE_DIMJAG
 70
     0
  0
APPID
  5
136
330
9
100
AcDbSymbolTableRecord
100
AcDbRegAppTableRecord
  2
ACAD_DSTYLE_DIMTALN
 70
     0
  0
APPID
  5
165
330
9
100
AcDbSymbolTableRecord
100
AcDbRegAppTableRecord
  2
ACAD_MLEADERVER
 70
     0
  0
APPID
  5
217
330
9
100
AcDbSymbolTableRecord
100
AcDbRegAppTableRecord
  2
ACAD_NAV_VCDISPLAY
 70
     0
  0
ENDTAB
  0
TABLE
  2
DIMSTYLE
  5
A
330
0
100
AcDbSymbolTable
 70
     3
100
AcDbDimStyleTable
 71
     2
340
27
340
137
  0
DIMSTYLE
105
1B0
330
A
100
AcDbSymbolTableRecord
100
AcDbDimStyleTableRecord
  2
Standard
 70
     0
340
11
  0
DIMSTYLE
105
137
330
A
100
AcDbSymbolTableRecord
100
AcDbDimStyleTableRecord
  2
Annotativa
 70
     0
 40
0.0
 41
2.5
 42
0.625
 43
3.75
 44
1.25
 73
     0
 74
     0
 77
     1
 78
     8
140
2.5
141
2.5
143
0.03937007874016
147
0.625
171
     3
172
     1
271
     2
272
     2
274
     3
278
    44
283
     0
284
     8
340
11
1001
AcadAnnotative
1000
AnnotativeData
1002
{
1070
     1
1070
     1
1002
}
1001
ACAD_DSTYLE_DIMJAG
1070
   388
1040
1.5
1001
ACAD_DSTYLE_DIMTALN
1070
   392
1070
     0
  0
DIMSTYLE
105
27
330
A
100
AcDbSymbolTableRecord
100
AcDbDimStyleTableRecord
  2
ISO-25
 70
     0
 41
2.5
 42
0.625
 43
3.75
 44
1.25
 73
     0
 74
     0
 77
     1
 78
     8
140
2.5
141
2.5
143
0.03937007874016
147
0.625
171
     3
172
     1
271
     2
272
     2
274
     3
278
    44
283
     0
284
     8
340
11
  0
ENDTAB
  0
TABLE
  2
BLOCK_RECORD
  5
1
330
0
100
AcDbSymbolTable
 70
     3
  0
BLOCK_RECORD
  5
1F
102
{ACAD_XDICTIONARY
360
1CE
102
}
330
1
100
AcDbSymbolTableRecord
100
AcDbBlockTableRecord
  2
*Model_Space
340
22
 70
     0
280
     1
281
     0
  0
BLOCK_RECORD
  5
D2
330
1
100
AcDbSymbolTableRecord
100
AcDbBlockTableRecord
  2
*Paper_Space
340
D3
 70
     0
280
     1
281
     0
  0
BLOCK_RECORD
  5
D6
330
1
100
AcDbSymbolTableRecord
100
AcDbBlockTableRecord
  2
*Paper_Space0
340
D7
 70
     0
280
     1
281
     0
  0
BLOCK_RECORD
  5
6CB
102
{ACAD_XDICTIONARY
360
8E5
102
}
330
1
100
AcDbSymbolTableRecord
100
AcDbBlockTableRecord
  2
A$Cbe9fbe39
340
0
 70
     4
280
     1
281
     0
  0
ENDTAB
  0
ENDSEC
  0
SECTION
  2
BLOCKS
  0
BLOCK
  5
20
330
1F
100
AcDbEntity
  8
0
100
AcDbBlockBegin
  2
*Model_Space
 70
     0
 10
0.0
 20
0.0
 30
0.0
  3
*Model_Space
  1

  0
ENDBLK
  5
21
330
1F
100
AcDbEntity
  8
0
100
AcDbBlockEnd
  0
BLOCK
  5
D4
330
D2
100
AcDbEntity
 67
     1
  8
0
100
AcDbBlockBegin
  2
*Paper_Space
 70
     0
 10
0.0
 20
0.0
 30
0.0
  3
*Paper_Space
  1

  0
ENDBLK
  5
D5
330
D2
100
AcDbEntity
 67
     1
  8
0
100
AcDbBlockEnd
  0
BLOCK
  5
D8
330
D6
100
AcDbEntity
 67
     1
  8
0
100
AcDbBlockBegin
  2
*Paper_Space0
 70
     0
 10
0.0
 20
0.0
 30
0.0
  3
*Paper_Space0
  1

  0
ENDBLK
  5
D9
330
D6
100
AcDbEntity
 67
     1
  8
0
100
AcDbBlockEnd
  0
BLOCK
  5
8E7
330
6CB
100
AcDbEntity
  8
0
100
AcDbBlockBegin
  2
A$Cbe9fbe39
 70
     0
 10
0.0
 20
0.0
 30
0.0
  3
A$Cbe9fbe39
  1

  0
POLYLINE
  5
6CC
330
6CB
100
AcDbEntity
  8
Livello 1
100
AcDb2dPolyline
 66
     1
 10
0.0
 20
0.0
 30
0.0
  0
VERTEX
  5
6CD
330
6CC
100
AcDbEntity
  8
Livello 1
100
AcDbVertex
100
AcDb2dVertex
 10
13.09720008500541
 20
3.839092044615199
 30
0.0
  0
VERTEX
  5
6CE
330
6CC
100
AcDbEntity
  8
Livello 1
100
AcDbVertex
100
AcDb2dVertex
 10
7.201929813058683
 20
3.839092044615199
 30
0.0
  0
SEQEND
  5
6CF
330
6CC
100
AcDbEntity
  8
Livello 1
  0
MTEXT
  5
6D0
330
6CB
100
AcDbEntity
  8
Livello 1
100
AcDbMText
 10
6.223960060885502
 20
0.8678208429448517
 30
0.0
 40
1.998133332833799
 41
0.0
 46
0.0
 71
     7
 72
     1
  1
\fSource Sans Pro Light|b0|i0|c0|p34;\W1;89 mm
 73
     1
 44
1.0
  0
MTEXT
  5
6D1
330
6CB
100
AcDbEntity
  8
Livello 1
100
AcDbMText
 10
0.3078698388402188
 20
5.251015828828222
 30
0.0
 40
2.123016666135912
 41
0.0
 46
0.0
 71
     7
 72
     1
  1
\fSource Sans Pro SemiBold|b0|i0|c0|p34;\W1;R
 73
     1
 44
1.0
  0
SPLINE
  5
6D2
330
6CB
100
AcDbEntity
  8
Livello 1
100
AcDbSpline
210
0.0
220
0.0
230
1.0
 70
     8
 71
     3
 72
    14
 73
    10
 74
     0
 42
0.000000001
 43
0.0000000001
 40
0.0
 40
0.0
 40
0.0
 40
0.0
 40
1.0
 40
1.0
 40
1.0
 40
2.0
 40
2.0
 40
2.0
 40
3.0
 40
3.0
 40
3.0
 40
3.0
 10
6.883367485647411
 20
6.970360863005545
 30
0.0
 10
6.883367485647411
 20
6.970360863005545
 30
0.0
 10
6.875605254882216
 20
6.967890083587235
 30
0.0
 10
6.875605254882216
 20
6.967890083587235
 30
0.0
 10
6.36866349144897
 20
6.740702185220094
 30
0.0
 10
6.372897190822627
 20
6.029501248762542
 30
0.0
 10
6.88089670622908
 20
5.806545704028664
 30
0.0
 10
6.88089670622908
 20
5.806545704028664
 30
0.0
 10
6.883367485647411
 20
5.804076270350755
 30
0.0
 10
6.883367485647411
 20
5.804076270350755
 30
0.0
  0
POLYLINE
  5
6D3
330
6CB
100
AcDbEntity
  8
Livello 1
100
AcDb2dPolyline
 66
     1
 10
0.0
 20
0.0
 30
0.0
  0
VERTEX
  5
6D4
330
6D3
100
AcDbEntity
  8
Livello 1
100
AcDbVertex
100
AcDb2dVertex
 10
6.883367485647411
 20
5.801396901166718
 30
0.0
  0
VERTEX
  5
6D5
330
6D3
100
AcDbEntity
  8
Livello 1
100
AcDbVertex
100
AcDb2dVertex
 10
6.996608850839905
 20
5.801396901166718
 30
0.0
  0
SEQEND
  5
6D6
330
6D3
100
AcDbEntity
  8
Livello 1
  0
POLYLINE
  5
6D7
330
6CB
100
AcDbEntity
  8
Livello 1
100
AcDb2dPolyline
 66
     1
 10
0.0
 20
0.0
 30
0.0
  0
VERTEX
  5
6D8
330
6D7
100
AcDbEntity
  8
Livello 1
100
AcDbVertex
100
AcDb2dVertex
 10
6.996432558844375
 20
6.970360863005545
 30
0.0
  0
VERTEX
  5
6D9
330
6D7
100
AcDbEntity
  8
Livello 1
100
AcDbVertex
100
AcDb2dVertex
 10
6.883189847911452
 20
6.970360863005545
 30
0.0
  0
SEQEND
  5
6DA
330
6D7
100
AcDbEntity
  8
Livello 1
  0
POLYLINE
  5
6DB
330
6CB
100
AcDbEntity
  8
Livello 1
100
AcDb2dPolyline
 66
     1
 10
0.0
 20
0.0
 30
0.0
  0
VERTEX
  5
6DC
330
6DB
100
AcDbEntity
  8
Livello 1
100
AcDbVertex
100
AcDb2dVertex
 10
4.897369523192239
 20
5.572868645337351
 30
0.0
  0
VERTEX
  5
6DD
330
6DB
100
AcDbEntity
  8
Livello 1
100
AcDbVertex
100
AcDb2dVertex
 10
4.897369523192239
 20
5.562638326634669
 30
0.0
  0
VERTEX
  5
6DE
330
6DB
100
AcDbEntity
  8
Livello 1
100
AcDbVertex
100
AcDb2dVertex
 10
4.897369523192239
 20
5.524186485501836
 30
0.0
  0
VERTEX
  5
6DF
330
6DB
100
AcDbEntity
  8
Livello 1
100
AcDbVertex
100
AcDb2dVertex
 10
4.897369523192239
 20
5.518893688414543
 30
0.0
  0
VERTEX
  5
6E0
330
6DB
100
AcDbEntity
  8
Livello 1
100
AcDbVertex
100
AcDb2dVertex
 10
6.996396223852926
 20
5.518893688414543
 30
0.0
  0
SEQEND
  5
6E1
330
6DB
100
AcDbEntity
  8
Livello 1
  0
POLYLINE
  5
6E2
330
6CB
100
AcDbEntity
  8
Livello 1
100
AcDb2dPolyline
 66
     1
 10
0.0
 20
0.0
 30
0.0
  0
VERTEX
  5
6E3
330
6E2
100
AcDbEntity
  8
Livello 1
100
AcDbVertex
100
AcDb2dVertex
 10
4.89740585818366
 20
7.204253240164696
 30
0.0
  0
VERTEX
  5
6E4
330
6E2
100
AcDbEntity
  8
Livello 1
100
AcDbVertex
100
AcDb2dVertex
 10
4.89740585818366
 20
7.201783806486794
 30
0.0
  0
SEQEND
  5
6E5
330
6E2
100
AcDbEntity
  8
Livello 1
  0
POLYLINE
  5
6E6
330
6CB
100
AcDbEntity
  8
Livello 1
100
AcDb2dPolyline
 66
     1
 10
0.0
 20
0.0
 30
0.0
  0
VERTEX
  5
6E7
330
6E6
100
AcDbEntity
  8
Livello 1
100
AcDbVertex
100
AcDb2dVertex
 10
4.89740585818366
 20
7.258193207836491
 30
0.0
  0
VERTEX
  5
6E8
330
6E6
100
AcDbEntity
  8
Livello 1
100
AcDbVertex
100
AcDb2dVertex
 10
4.89740585818366
 20
7.255723774158582
 30
0.0
  0
VERTEX
  5
6E9
330
6E6
100
AcDbEntity
  8
Livello 1
100
AcDbVertex
100
AcDb2dVertex
 10
4.89740585818366
 20
7.214449915356773
 30
0.0
  0
VERTEX
  5
6EA
330
6E6
100
AcDbEntity
  8
Livello 1
100
AcDbVertex
100
AcDb2dVertex
 10
4.89740585818366
 20
7.204218250913662
 30
0.0
  0
SEQEND
  5
6EB
330
6E6
100
AcDbEntity
  8
Livello 1
  0
POLYLINE
  5
6EC
330
6CB
100
AcDbEntity
  8
Livello 1
100
AcDb2dPolyline
 66
     1
 10
0.0
 20
0.0
 30
0.0
  0
VERTEX
  5
6ED
330
6EC
100
AcDbEntity
  8
Livello 1
100
AcDbVertex
100
AcDb2dVertex
 10
6.996432558844375
 20
7.258193207836491
 30
0.0
  0
VERTEX
  5
6EE
330
6EC
100
AcDbEntity
  8
Livello 1
100
AcDbVertex
100
AcDb2dVertex
 10
4.897404512443259
 20
7.258193207836491
 30
0.0
  0
SEQEND
  5
6EF
330
6EC
100
AcDbEntity
  8
Livello 1
  0
POLYLINE
  5
6F0
330
6CB
100
AcDbEntity
  8
Livello 1
100
AcDb2dPolyline
 66
     1
 10
0.0
 20
0.0
 30
0.0
  0
VERTEX
  5
6F1
330
6F0
100
AcDbEntity
  8
Livello 1
100
AcDbVertex
100
AcDb2dVertex
 10
4.897475836685728
 20
5.696164037237011
 30
0.0
  0
VERTEX
  5
6F2
330
6F0
100
AcDbEntity
  8
Livello 1
100
AcDbVertex
100
AcDb2dVertex
 10
4.897475836685728
 20
5.572692353341814
 30
0.0
  0
SEQEND
  5
6F3
330
6F0
100
AcDbEntity
  8
Livello 1
  0
POLYLINE
  5
6F4
330
6CB
100
AcDbEntity
  8
Livello 1
100
AcDb2dPolyline
 66
     1
 10
0.0
 20
0.0
 30
0.0
  0
VERTEX
  5
6F5
330
6F4
100
AcDbEntity
  8
Livello 1
100
AcDbVertex
100
AcDb2dVertex
 10
4.897475836685728
 20
5.804078961831613
 30
0.0
  0
VERTEX
  5
6F6
330
6F4
100
AcDbEntity
  8
Livello 1
100
AcDbVertex
100
AcDb2dVertex
 10
4.897475836685728
 20
5.696129047985976
 30
0.0
  0
SEQEND
  5
6F7
330
6F4
100
AcDbEntity
  8
Livello 1
  0
POLYLINE
  5
6F8
330
6CB
100
AcDbEntity
  8
Livello 1
100
AcDb2dPolyline
 66
     1
 10
0.0
 20
0.0
 30
0.0
  0
VERTEX
  5
6F9
330
6F8
100
AcDbEntity
  8
Livello 1
100
AcDbVertex
100
AcDb2dVertex
 10
4.897475836685728
 20
7.080922859014023
 30
0.0
  0
VERTEX
  5
6FA
330
6F8
100
AcDbEntity
  8
Livello 1
100
AcDbVertex
100
AcDb2dVertex
 10
4.897475836685728
 20
5.78517130887544
 30
0.0
  0
SEQEND
  5
6FB
330
6F8
100
AcDbEntity
  8
Livello 1
  0
POLYLINE
  5
6FC
330
6CB
100
AcDbEntity
  8
Livello 1
100
AcDb2dPolyline
 66
     1
 10
0.0
 20
0.0
 30
0.0
  0
VERTEX
  5
6FD
330
6FC
100
AcDbEntity
  8
Livello 1
100
AcDbVertex
100
AcDb2dVertex
 10
4.897475836685728
 20
7.080922859014023
 30
0.0
  0
VERTEX
  5
6FE
330
6FC
100
AcDbEntity
  8
Livello 1
100
AcDbVertex
100
AcDb2dVertex
 10
4.897475836685728
 20
7.201573870980659
 30
0.0
  0
SEQEND
  5
6FF
330
6FC
100
AcDbEntity
  8
Livello 1
  0
SPLINE
  5
700
330
6CB
100
AcDbEntity
  8
Livello 1
100
AcDbSpline
210
0.0
220
0.0
230
1.0
 70
     8
 71
     3
 72
   134
 73
   130
 74
     0
 42
0.000000001
 43
0.0000000001
 40
0.0
 40
0.0
 40
0.0
 40
0.0
 40
1.0
 40
1.0
 40
1.0
 40
2.0
 40
2.0
 40
2.0
 40
3.0
 40
3.0
 40
3.0
 40
4.0
 40
4.0
 40
4.0
 40
5.0
 40
5.0
 40
5.0
 40
6.0
 40
6.0
 40
6.0
 40
7.0
 40
7.0
 40
7.0
 40
8.0
 40
8.0
 40
8.0
 40
9.0
 40
9.0
 40
9.0
 40
10.0
 40
10.0
 40
10.0
 40
11.0
 40
11.0
 40
11.0
 40
12.0
 40
12.0
 40
12.0
 40
13.0
 40
13.0
 40
13.0
 40
14.0
 40
14.0
 40
14.0
 40
15.0
 40
15.0
 40
15.0
 40
16.0
 40
16.0
 40
16.0
 40
17.0
 40
17.0
 40
17.0
 40
18.0
 40
18.0
 40
18.0
 40
19.0
 40
19.0
 40
19.0
 40
20.0
 40
20.0
 40
20.0
 40
21.0
 40
21.0
 40
21.0
 40
22.0
 40
22.0
 40
22.0
 40
23.0
 40
23.0
 40
23.0
 40
24.0
 40
24.0
 40
24.0
 40
25.0
 40
25.0
 40
25.0
 40
26.0
 40
26.0
 40
26.0
 40
27.0
 40
27.0
 40
27.0
 40
28.0
 40
28.0
 40
28.0
 40
29.0
 40
29.0
 40
29.0
 40
30.0
 40
30.0
 40
30.0
 40
31.0
 40
31.0
 40
31.0
 40
32.0
 40
32.0
 40
32.0
 40
33.0
 40
33.0
 40
33.0
 40
34.0
 40
34.0
 40
34.0
 40
35.0
 40
35.0
 40
35.0
 40
36.0
 40
36.0
 40
36.0
 40
37.0
 40
37.0
 40
37.0
 40
38.0
 40
38.0
 40
38.0
 40
39.0
 40
39.0
 40
39.0
 40
40.0
 40
40.0
 40
40.0
 40
41.0
 40
41.0
 40
41.0
 40
42.0
 40
42.0
 40
42.0
 40
43.0
 40
43.0
 40
43.0
 40
43.0
 10
5.48580394373674
 20
5.518892342674121
 30
0.0
 10
5.48580394373674
 20
5.518892342674121
 30
0.0
 10
5.539778900659527
 20
5.462447952073397
 30
0.0
 10
5.539778900659527
 20
5.462447952073397
 30
0.0
 10
5.539778900659527
 20
5.462447952073397
 30
0.0
 10
5.542248334337458
 20
5.457156500726519
 30
0.0
 10
5.542248334337458
 20
5.457156500726519
 30
0.0
 10
5.542248334337458
 20
5.457156500726519
 30
0.0
 10
5.54471776801536
 20
5.454687067048624
 30
0.0
 10
5.54471776801536
 20
5.454687067048624
 30
0.0
 10
5.54471776801536
 20
5.454687067048624
 30
0.0
 10
5.552478653040125
 20
5.446926182023837
 30
0.0
 10
5.552478653040125
 20
5.446926182023837
 30
0.0
 10
5.552478653040125
 20
5.446926182023837
 30
0.0
 10
5.557770104387017
 20
5.444456748345942
 30
0.0
 10
5.557770104387017
 20
5.444456748345942
 30
0.0
 10
5.557770104387017
 20
5.444456748345942
 30
0.0
 10
5.560239538064919
 20
5.439165296999057
 30
0.0
 10
5.560239538064919
 20
5.439165296999057
 30
0.0
 10
5.560239538064919
 20
5.439165296999057
 30
0.0
 10
5.565530989411783
 20
5.436695863321155
 30
0.0
 10
5.565530989411783
 20
5.436695863321155
 30
0.0
 10
5.565530989411783
 20
5.436695863321155
 30
0.0
 10
5.568000423089685
 20
5.434226429643246
 30
0.0
 10
5.568000423089685
 20
5.434226429643246
 30
0.0
 10
5.568000423089685
 20
5.434226429643246
 30
0.0
 10
5.572939290445489
 20
5.431404411974277
 30
0.0
 10
5.572939290445489
 20
5.431404411974277
 30
0.0
 10
5.572939290445489
 20
5.431404411974277
 30
0.0
 10
5.575761308114479
 20
5.42646554461848
 30
0.0
 10
5.575761308114479
 20
5.42646554461848
 30
0.0
 10
5.575761308114479
 20
5.42646554461848
 30
0.0
 10
5.585991626817147
 20
5.421174093271595
 30
0.0
 10
5.585991626817147
 20
5.421174093271595
 30
0.0
 10
5.585991626817147
 20
5.421174093271595
 30
0.0
 10
5.588461060495049
 20
5.418704659593693
 30
0.0
 10
5.588461060495049
 20
5.418704659593693
 30
0.0
 10
5.588461060495049
 20
5.418704659593693
 30
0.0
 10
5.593753857582342
 20
5.416235225915791
 30
0.0
 10
5.593753857582342
 20
5.416235225915791
 30
0.0
 10
5.593753857582342
 20
5.416235225915791
 30
0.0
 10
5.596223291260244
 20
5.410942428828484
 30
0.0
 10
5.596223291260244
 20
5.410942428828484
 30
0.0
 10
5.596223291260244
 20
5.410942428828484
 30
0.0
 10
5.601514742607136
 20
5.408472995150589
 30
0.0
 10
5.601514742607136
 20
5.408472995150589
 30
0.0
 10
5.601514742607136
 20
5.408472995150589
 30
0.0
 10
5.60645360996294
 20
5.406003561472672
 30
0.0
 10
5.60645360996294
 20
5.406003561472672
 30
0.0
 10
5.60645360996294
 20
5.406003561472672
 30
0.0
 10
5.608923043640842
 20
5.403181543803711
 30
0.0
 10
5.608923043640842
 20
5.403181543803711
 30
0.0
 10
5.608923043640842
 20
5.403181543803711
 30
0.0
 10
5.614214494987706
 20
5.400712110125809
 30
0.0
 10
5.614214494987706
 20
5.400712110125809
 30
0.0
 10
5.614214494987706
 20
5.400712110125809
 30
0.0
 10
5.624444813690402
 20
5.395420658778924
 30
0.0
 10
5.624444813690402
 20
5.395420658778924
 30
0.0
 10
5.624444813690402
 20
5.395420658778924
 30
0.0
 10
5.627266831359392
 20
5.392951225101029
 30
0.0
 10
5.627266831359392
 20
5.392951225101029
 30
0.0
 10
5.627266831359392
 20
5.392951225101029
 30
0.0
 10
5.632205698715196
 20
5.39048179142312
 30
0.0
 10
5.632205698715196
 20
5.39048179142312
 30
0.0
 10
5.632205698715196
 20
5.39048179142312
 30
0.0
 10
5.63749715006206
 20
5.388012357745225
 30
0.0
 10
5.63749715006206
 20
5.388012357745225
 30
0.0
 10
5.644905451095766
 20
5.384837756085175
 30
0.0
 10
5.651256000156294
 20
5.376017773346767
 30
0.0
 10
5.660428566885755
 20
5.377429455051469
 30
0.0
 10
5.660428566885755
 20
5.377429455051469
 30
0.0
 10
5.665720018232647
 20
5.374960021373553
 30
0.0
 10
5.665720018232647
 20
5.374960021373553
 30
0.0
 10
5.665720018232647
 20
5.374960021373553
 30
0.0
 10
5.668189451910521
 20
5.372490587695665
 30
0.0
 10
5.668189451910521
 20
5.372490587695665
 30
0.0
 10
5.668189451910521
 20
5.372490587695665
 30
0.0
 10
5.673480903257413
 20
5.370021154017763
 30
0.0
 10
5.673480903257413
 20
5.370021154017763
 30
0.0
 10
5.673480903257413
 20
5.370021154017763
 30
0.0
 10
5.678419770613217
 20
5.36719913634878
 30
0.0
 10
5.678419770613217
 20
5.36719913634878
 30
0.0
 10
5.678419770613217
 20
5.36719913634878
 30
0.0
 10
5.683711221960081
 20
5.36719913634878
 30
0.0
 10
5.683711221960081
 20
5.36719913634878
 30
0.0
 10
5.683711221960081
 20
5.36719913634878
 30
0.0
 10
5.693941540662777
 20
5.362260268992983
 30
0.0
 10
5.693941540662777
 20
5.362260268992983
 30
0.0
 10
5.693941540662777
 20
5.362260268992983
 30
0.0
 10
5.698880408018581
 20
5.362260268992983
 30
0.0
 10
5.698880408018581
 20
5.362260268992983
 30
0.0
 10
5.698880408018581
 20
5.362260268992983
 30
0.0
 10
5.701703771427972
 20
5.359436905583578
 30
0.0
 10
5.701703771427972
 20
5.359436905583578
 30
0.0
 10
5.701703771427972
 20
5.359436905583578
 30
0.0
 10
5.706642638783776
 20
5.356967471905676
 30
0.0
 10
5.706642638783776
 20
5.356967471905676
 30
0.0
 10
5.706642638783776
 20
5.356967471905676
 30
0.0
 10
5.711934090130668
 20
5.356967471905676
 30
0.0
 10
5.711934090130668
 20
5.356967471905676
 30
0.0
 10
5.711934090130668
 20
5.356967471905676
 30
0.0
 10
5.716872957486472
 20
5.354498038227774
 30
0.0
 10
5.716872957486472
 20
5.354498038227774
 30
0.0
 10
5.716872957486472
 20
5.354498038227774
 30
0.0
 10
5.722164408833336
 20
5.354498038227774
 30
0.0
 10
5.722164408833336
 20
5.354498038227774
 30
0.0
 10
5.722164408833336
 20
5.354498038227774
 30
0.0
 10
5.727455860180228
 20
5.352028604549872
 30
0.0
 10
5.727455860180228
 20
5.352028604549872
 30
0.0
 10
5.727455860180228
 20
5.352028604549872
 30
0.0
 10
5.732394727536032
 20
5.352028604549872
 30
0.0
 10
5.732394727536032
 20
5.352028604549872
 30
0.0
 10
5.732394727536032
 20
5.352028604549872
 30
0.0
 10
5.737686178882896
 20
5.349206586880903
 30
0.0
 10
5.737686178882896
 20
5.349206586880903
 30
0.0
 10
5.737686178882896
 20
5.349206586880903
 30
0.0
 10
5.7426250462387
 20
5.349206586880903
 30
0.0
 10
5.7426250462387
 20
5.349206586880903
 30
0.0
 10
5.7426250462387
 20
5.349206586880903
 30
0.0
 10
5.747916497585592
 20
5.346737153203001
 30
0.0
 10
5.747916497585592
 20
5.346737153203001
 30
0.0
 10
5.747916497585592
 20
5.346737153203001
 30
0.0
 10
5.752856710681825
 20
5.346737153203001
 30
0.0
 10
5.752856710681825
 20
5.346737153203001
 30
0.0
 10
5.77296476409613
 20
5.343562551542945
 30
0.0
 10
5.799423366570934
 20
5.338271100196081
 30
0.0
 10
5.819884003976298
 20
5.338976268178221
 30
0.0
 10
5.819884003976298
 20
5.338976268178221
 30
0.0
 10
5.83505319003477
 20
5.338976268178221
 30
0.0
 10
5.83505319003477
 20
5.338976268178221
 30
0.0
  0
POLYLINE
  5
701
330
6CB
100
AcDbEntity
  8
Livello 1
100
AcDb2dPolyline
 66
     1
 10
0.0
 20
0.0
 30
0.0
  0
VERTEX
  5
702
330
701
100
AcDbEntity
  8
Livello 1
100
AcDbVertex
100
AcDb2dVertex
 10
5.8352294820303
 20
5.34162199385166
 30
0.0
  0
VERTEX
  5
703
330
701
100
AcDbEntity
  8
Livello 1
100
AcDbVertex
100
AcDb2dVertex
 10
6.08182026582962
 20
5.34162199385166
 30
0.0
  0
VERTEX
  5
704
330
701
100
AcDbEntity
  8
Livello 1
100
AcDbVertex
100
AcDb2dVertex
 10
6.08182026582962
 20
5.519069980410066
 30
0.0
  0
SEQEND
  5
705
330
701
100
AcDbEntity
  8
Livello 1
  0
SPLINE
  5
706
330
6CB
100
AcDbEntity
  8
Livello 1
100
AcDbSpline
210
0.0
220
0.0
230
1.0
 70
     8
 71
     3
 72
   104
 73
   100
 74
     0
 42
0.000000001
 43
0.0000000001
 40
0.0
 40
0.0
 40
0.0
 40
0.0
 40
1.0
 40
1.0
 40
1.0
 40
2.0
 40
2.0
 40
2.0
 40
3.0
 40
3.0
 40
3.0
 40
4.0
 40
4.0
 40
4.0
 40
5.0
 40
5.0
 40
5.0
 40
6.0
 40
6.0
 40
6.0
 40
7.0
 40
7.0
 40
7.0
 40
8.0
 40
8.0
 40
8.0
 40
9.0
 40
9.0
 40
9.0
 40
10.0
 40
10.0
 40
10.0
 40
11.0
 40
11.0
 40
11.0
 40
12.0
 40
12.0
 40
12.0
 40
13.0
 40
13.0
 40
13.0
 40
14.0
 40
14.0
 40
14.0
 40
15.0
 40
15.0
 40
15.0
 40
16.0
 40
16.0
 40
16.0
 40
17.0
 40
17.0
 40
17.0
 40
18.0
 40
18.0
 40
18.0
 40
19.0
 40
19.0
 40
19.0
 40
20.0
 40
20.0
 40
20.0
 40
21.0
 40
21.0
 40
21.0
 40
22.0
 40
22.0
 40
22.0
 40
23.0
 40
23.0
 40
23.0
 40
24.0
 40
24.0
 40
24.0
 40
25.0
 40
25.0
 40
25.0
 40
26.0
 40
26.0
 40
26.0
 40
27.0
 40
27.0
 40
27.0
 40
28.0
 40
28.0
 40
28.0
 40
29.0
 40
29.0
 40
29.0
 40
30.0
 40
30.0
 40
30.0
 40
31.0
 40
31.0
 40
31.0
 40
32.0
 40
32.0
 40
32.0
 40
33.0
 40
33.0
 40
33.0
 40
33.0
 10
6.081821611570049
 20
7.409781446408743
 30
0.0
 10
6.081821611570049
 20
7.409781446408743
 30
0.0
 10
5.8352294820303
 20
7.409781446408743
 30
0.0
 10
5.8352294820303
 20
7.409781446408743
 30
0.0
 10
5.8352294820303
 20
7.409781446408743
 30
0.0
 10
5.829938030683464
 20
7.407312012730841
 30
0.0
 10
5.829938030683464
 20
7.407312012730841
 30
0.0
 10
5.829938030683464
 20
7.407312012730841
 30
0.0
 10
5.81970771198074
 20
7.407312012730841
 30
0.0
 10
5.81970771198074
 20
7.407312012730841
 30
0.0
 10
5.791132259819121
 20
7.409076278426617
 30
0.0
 10
5.783018790803239
 20
7.403784827079739
 30
0.0
 10
5.75797052429273
 20
7.40202056138397
 30
0.0
 10
5.75797052429273
 20
7.40202056138397
 30
0.0
 10
5.753031656936926
 20
7.399551127706068
 30
0.0
 10
5.753031656936926
 20
7.399551127706068
 30
0.0
 10
5.753031656936926
 20
7.399551127706068
 30
0.0
 10
5.742801338234258
 20
7.399551127706068
 30
0.0
 10
5.742801338234258
 20
7.399551127706068
 30
0.0
 10
5.742801338234258
 20
7.399551127706068
 30
0.0
 10
5.737509886887394
 20
7.397081694028152
 30
0.0
 10
5.737509886887394
 20
7.397081694028152
 30
0.0
 10
5.737509886887394
 20
7.397081694028152
 30
0.0
 10
5.732571019531562
 20
7.397081694028152
 30
0.0
 10
5.732571019531562
 20
7.397081694028152
 30
0.0
 10
5.732571019531562
 20
7.397081694028152
 30
0.0
 10
5.72727956818467
 20
7.39425967635919
 30
0.0
 10
5.72727956818467
 20
7.39425967635919
 30
0.0
 10
5.72727956818467
 20
7.39425967635919
 30
0.0
 10
5.721988116837806
 20
7.39425967635919
 30
0.0
 10
5.721988116837806
 20
7.39425967635919
 30
0.0
 10
5.721988116837806
 20
7.39425967635919
 30
0.0
 10
5.717049249482002
 20
7.391790242681288
 30
0.0
 10
5.717049249482002
 20
7.391790242681288
 30
0.0
 10
5.717049249482002
 20
7.391790242681288
 30
0.0
 10
5.711756452394709
 20
7.391790242681288
 30
0.0
 10
5.711756452394709
 20
7.391790242681288
 30
0.0
 10
5.711756452394709
 20
7.391790242681288
 30
0.0
 10
5.709287018716807
 20
7.389320809003379
 30
0.0
 10
5.709287018716807
 20
7.389320809003379
 30
0.0
 10
5.709287018716807
 20
7.389320809003379
 30
0.0
 10
5.703995567369943
 20
7.386498791334403
 30
0.0
 10
5.703995567369943
 20
7.386498791334403
 30
0.0
 10
5.703995567369943
 20
7.386498791334403
 30
0.0
 10
5.699056700014111
 20
7.386498791334403
 30
0.0
 10
5.699056700014111
 20
7.386498791334403
 30
0.0
 10
5.699056700014111
 20
7.386498791334403
 30
0.0
 10
5.693765248667247
 20
7.384029357656515
 30
0.0
 10
5.693765248667247
 20
7.384029357656515
 30
0.0
 10
5.693765248667247
 20
7.384029357656515
 30
0.0
 10
5.688826381311443
 20
7.381559923978613
 30
0.0
 10
5.688826381311443
 20
7.381559923978613
 30
0.0
 10
5.688826381311443
 20
7.381559923978613
 30
0.0
 10
5.683534929964551
 20
7.381559923978613
 30
0.0
 10
5.683534929964551
 20
7.381559923978613
 30
0.0
 10
5.683534929964551
 20
7.381559923978613
 30
0.0
 10
5.678596062608747
 20
7.379090490300697
 30
0.0
 10
5.678596062608747
 20
7.379090490300697
 30
0.0
 10
5.678596062608747
 20
7.379090490300697
 30
0.0
 10
5.675774044939785
 20
7.376268472631728
 30
0.0
 10
5.675774044939785
 20
7.376268472631728
 30
0.0
 10
5.675774044939785
 20
7.376268472631728
 30
0.0
 10
5.670835177583981
 20
7.373799038953826
 30
0.0
 10
5.670835177583981
 20
7.373799038953826
 30
0.0
 10
5.670835177583981
 20
7.373799038953826
 30
0.0
 10
5.665543726237089
 20
7.373799038953826
 30
0.0
 10
5.665543726237089
 20
7.373799038953826
 30
0.0
 10
5.646846008787079
 20
7.364273888233277
 30
0.0
 10
5.629559973041736
 20
7.353690985539522
 30
0.0
 10
5.611568769314274
 20
7.343106737105344
 30
0.0
 10
5.611568769314274
 20
7.343106737105344
 30
0.0
 10
5.601337104871177
 20
7.33781528575848
 30
0.0
 10
5.601337104871177
 20
7.33781528575848
 30
0.0
 10
5.601337104871177
 20
7.33781528575848
 30
0.0
 10
5.598867671193275
 20
7.335345852080564
 30
0.0
 10
5.598867671193275
 20
7.335345852080564
 30
0.0
 10
5.598867671193275
 20
7.335345852080564
 30
0.0
 10
5.593576219846383
 20
7.332876418402669
 30
0.0
 10
5.593576219846383
 20
7.332876418402669
 30
0.0
 10
5.593576219846383
 20
7.332876418402669
 30
0.0
 10
5.591106786168481
 20
7.330054400733693
 30
0.0
 10
5.591106786168481
 20
7.330054400733693
 30
0.0
 10
5.591106786168481
 20
7.330054400733693
 30
0.0
 10
5.585815334821617
 20
7.327584967055791
 30
0.0
 10
5.585815334821617
 20
7.327584967055791
 30
0.0
 10
5.585815334821617
 20
7.327584967055791
 30
0.0
 10
5.580876467465813
 20
7.322293515708921
 30
0.0
 10
5.580876467465813
 20
7.322293515708921
 30
0.0
 10
5.580876467465813
 20
7.322293515708921
 30
0.0
 10
5.578054449796823
 20
7.319824082031011
 30
0.0
 10
5.578054449796823
 20
7.319824082031011
 30
0.0
 10
5.578054449796823
 20
7.319824082031011
 30
0.0
 10
5.573115582441019
 20
7.317354648353116
 30
0.0
 10
5.573115582441019
 20
7.317354648353116
 30
0.0
 10
5.562532679747292
 20
7.305360063954658
 30
0.0
 10
5.564295599702617
 20
7.309593763328329
 30
0.0
 10
5.555124378713557
 20
7.30183153256312
 30
0.0
 10
5.555124378713557
 20
7.30183153256312
 30
0.0
 10
5.539601262923568
 20
7.286309762513567
 30
0.0
 10
5.539601262923568
 20
7.286309762513567
 30
0.0
  0
POLYLINE
  5
707
330
6CB
100
AcDbEntity
  8
Livello 1
100
AcDb2dPolyline
 66
     1
 10
0.0
 20
0.0
 30
0.0
  0
VERTEX
  5
708
330
707
100
AcDbEntity
  8
Livello 1
100
AcDbVertex
100
AcDb2dVertex
 10
5.539742565668106
 20
7.289025466689047
 30
0.0
  0
VERTEX
  5
709
330
707
100
AcDbEntity
  8
Livello 1
100
AcDbVertex
100
AcDb2dVertex
 10
5.508697679828529
 20
7.258334510580993
 30
0.0
  0
SEQEND
  5
70A
330
707
100
AcDbEntity
  8
Livello 1
  0
POLYLINE
  5
70B
330
6CB
100
AcDbEntity
  8
Livello 1
100
AcDb2dPolyline
 66
     1
 10
0.0
 20
0.0
 30
0.0
  0
VERTEX
  5
70C
330
70B
100
AcDbEntity
  8
Livello 1
100
AcDbVertex
100
AcDb2dVertex
 10
6.081821611570049
 20
7.258193207836491
 30
0.0
  0
VERTEX
  5
70D
330
70B
100
AcDbEntity
  8
Livello 1
100
AcDbVertex
100
AcDb2dVertex
 10
6.081821611570049
 20
7.409887759902233
 30
0.0
  0
SEQEND
  5
70E
330
70B
100
AcDbEntity
  8
Livello 1
  0
POLYLINE
  5
70F
330
6CB
100
AcDbEntity
  8
Livello 1
100
AcDb2dPolyline
 66
     1
 10
0.0
 20
0.0
 30
0.0
  0
VERTEX
  5
710
330
70F
100
AcDbEntity
  8
Livello 1
100
AcDbVertex
100
AcDb2dVertex
 10
7.004158454618121
 20
5.785980098870219
 30
0.0
  0
VERTEX
  5
711
330
70F
100
AcDbEntity
  8
Livello 1
100
AcDbVertex
100
AcDb2dVertex
 10
7.004158454618121
 20
5.780687301782926
 30
0.0
  0
VERTEX
  5
712
330
70F
100
AcDbEntity
  8
Livello 1
100
AcDbVertex
100
AcDb2dVertex
 10
7.004158454618121
 20
5.74752691199697
 30
0.0
  0
VERTEX
  5
713
330
70F
100
AcDbEntity
  8
Livello 1
100
AcDbVertex
100
AcDb2dVertex
 10
7.004158454618121
 20
5.742235460650093
 30
0.0
  0
SEQEND
  5
714
330
70F
100
AcDbEntity
  8
Livello 1
  0
POLYLINE
  5
715
330
6CB
100
AcDbEntity
  8
Livello 1
100
AcDb2dPolyline
 66
     1
 10
0.0
 20
0.0
 30
0.0
  0
VERTEX
  5
716
330
715
100
AcDbEntity
  8
Livello 1
100
AcDbVertex
100
AcDb2dVertex
 10
7.004158454618121
 20
7.0320267264511
 30
0.0
  0
VERTEX
  5
717
330
715
100
AcDbEntity
  8
Livello 1
100
AcDbVertex
100
AcDb2dVertex
 10
7.004158454618121
 20
7.024264495685905
 30
0.0
  0
VERTEX
  5
718
330
715
100
AcDbEntity
  8
Livello 1
100
AcDbVertex
100
AcDb2dVertex
 10
7.004158454618121
 20
6.990751521908883
 30
0.0
  0
VERTEX
  5
719
330
715
100
AcDbEntity
  8
Livello 1
100
AcDbVertex
100
AcDb2dVertex
 10
7.004158454618121
 20
6.988282088230967
 30
0.0
  0
SEQEND
  5
71A
330
715
100
AcDbEntity
  8
Livello 1
  0
SPLINE
  5
71B
330
6CB
100
AcDbEntity
  8
Livello 1
100
AcDbSpline
210
0.0
220
0.0
230
1.0
 70
    11
 71
     3
 72
    29
 73
    25
 74
     0
 42
0.000000001
 43
0.0000000001
 40
0.0
 40
0.0
 40
0.0
 40
0.0
 40
1.0
 40
1.0
 40
1.0
 40
2.0
 40
2.0
 40
2.0
 40
3.0
 40
3.0
 40
3.0
 40
4.0
 40
4.0
 40
4.0
 40
5.0
 40
5.0
 40
5.0
 40
6.0
 40
6.0
 40
6.0
 40
7.0
 40
7.0
 40
7.0
 40
8.0
 40
8.0
 40
8.0
 40
8.0
 10
3.22153512216262
 20
6.976500130819502
 30
0.0
 10
3.22153512216262
 20
6.976500130819502
 30
0.0
 10
3.262808980964436
 20
6.9740306971416
 30
0.0
 10
3.262808980964436
 20
6.9740306971416
 30
0.0
 10
3.262808980964436
 20
6.9740306971416
 30
0.0
 10
3.301262167837691
 20
6.963800378438918
 30
0.0
 10
3.301262167837691
 20
6.963800378438918
 30
0.0
 10
3.531273429614216
 20
6.879487049399124
 30
0.0
 10
3.521748278893667
 20
6.553520458175405
 30
0.0
 10
3.280801530432299
 20
6.491078102505262
 30
0.0
 10
3.280801530432299
 20
6.491078102505262
 30
0.0
 10
3.241995759567984
 20
6.483317217480475
 30
0.0
 10
3.241995759567984
 20
6.483317217480475
 30
0.0
 10
3.241995759567984
 20
6.483317217480475
 30
0.0
 10
3.203542572694729
 20
6.483317217480475
 30
0.0
 10
3.203542572694729
 20
6.483317217480475
 30
0.0
 10
2.93155093839384
 20
6.517184120988993
 30
0.0
 10
2.892039999547378
 20
6.869609314687508
 30
0.0
 10
3.14427616442505
 20
6.963800378438918
 30
0.0
 10
3.14427616442505
 20
6.963800378438918
 30
0.0
 10
3.183081935289365
 20
6.9740306971416
 30
0.0
 10
3.183081935289365
 20
6.9740306971416
 30
0.0
 10
3.183081935289365
 20
6.9740306971416
 30
0.0
 10
3.22153512216262
 20
6.976500130819502
 30
0.0
 10
3.22153512216262
 20
6.976500130819502
 30
0.0
  0
POLYLINE
  5
71C
330
6CB
100
AcDbEntity
  8
Livello 1
100
AcDb2dPolyline
 66
     1
 10
0.0
 20
0.0
 30
0.0
  0
VERTEX
  5
71D
330
71C
100
AcDbEntity
  8
Livello 1
100
AcDbVertex
100
AcDb2dVertex
 10
2.820779006879249
 20
6.262302230437889
 30
0.0
  0
VERTEX
  5
71E
330
71C
100
AcDbEntity
  8
Livello 1
100
AcDbVertex
100
AcDb2dVertex
 10
2.823248440557151
 20
6.485964288894344
 30
0.0
  0
SEQEND
  5
71F
330
71C
100
AcDbEntity
  8
Livello 1
  0
POLYLINE
  5
720
330
6CB
100
AcDbEntity
  8
Livello 1
100
AcDb2dPolyline
 66
     1
 10
0.0
 20
0.0
 30
0.0
  0
VERTEX
  5
721
330
720
100
AcDbEntity
  8
Livello 1
100
AcDbVertex
100
AcDb2dVertex
 10
2.82335475405064
 20
7.004757988241095
 30
0.0
  0
VERTEX
  5
722
330
720
100
AcDbEntity
  8
Livello 1
100
AcDbVertex
100
AcDb2dVertex
 10
2.82335475405064
 20
6.979005899488868
 30
0.0
  0
VERTEX
  5
723
330
720
100
AcDbEntity
  8
Livello 1
100
AcDbVertex
100
AcDb2dVertex
 10
2.82335475405064
 20
6.943022146293515
 30
0.0
  0
SEQEND
  5
724
330
720
100
AcDbEntity
  8
Livello 1
  0
POLYLINE
  5
725
330
6CB
100
AcDbEntity
  8
Livello 1
100
AcDb2dPolyline
 66
     1
 10
0.0
 20
0.0
 30
0.0
  0
VERTEX
  5
726
330
725
100
AcDbEntity
  8
Livello 1
100
AcDbVertex
100
AcDb2dVertex
 10
2.82335475405064
 20
6.485786651158385
 30
0.0
  0
VERTEX
  5
727
330
725
100
AcDbEntity
  8
Livello 1
100
AcDbVertex
100
AcDb2dVertex
 10
2.82335475405064
 20
6.529531289378503
 30
0.0
  0
SEQEND
  5
728
330
725
100
AcDbEntity
  8
Livello 1
  0
POLYLINE
  5
729
330
6CB
100
AcDbEntity
  8
Livello 1
100
AcDb2dPolyline
 66
     1
 10
0.0
 20
0.0
 30
0.0
  0
VERTEX
  5
72A
330
729
100
AcDbEntity
  8
Livello 1
100
AcDbVertex
100
AcDb2dVertex
 10
2.820779006879249
 20
6.529494954387061
 30
0.0
  0
VERTEX
  5
72B
330
729
100
AcDbEntity
  8
Livello 1
100
AcDbVertex
100
AcDb2dVertex
 10
2.820779006879249
 20
6.473050563786344
 30
0.0
  0
VERTEX
  5
72C
330
729
100
AcDbEntity
  8
Livello 1
100
AcDbVertex
100
AcDb2dVertex
 10
2.823248440557151
 20
6.473050563786344
 30
0.0
  0
SEQEND
  5
72D
330
729
100
AcDbEntity
  8
Livello 1
  0
POLYLINE
  5
72E
330
6CB
100
AcDbEntity
  8
Livello 1
100
AcDb2dPolyline
 66
     1
 10
0.0
 20
0.0
 30
0.0
  0
VERTEX
  5
72F
330
72E
100
AcDbEntity
  8
Livello 1
100
AcDbVertex
100
AcDb2dVertex
 10
2.820779006879249
 20
6.472980585284304
 30
0.0
  0
VERTEX
  5
730
330
72E
100
AcDbEntity
  8
Livello 1
100
AcDbVertex
100
AcDb2dVertex
 10
2.820779006879249
 20
6.293064510788411
 30
0.0
  0
VERTEX
  5
731
330
72E
100
AcDbEntity
  8
Livello 1
100
AcDbVertex
100
AcDb2dVertex
 10
2.820779006879249
 20
6.21615948278233
 30
0.0
  0
VERTEX
  5
732
330
72E
100
AcDbEntity
  8
Livello 1
100
AcDbVertex
100
AcDb2dVertex
 10
2.820779006879249
 20
6.262373554680365
 30
0.0
  0
SEQEND
  5
733
330
72E
100
AcDbEntity
  8
Livello 1
  0
POLYLINE
  5
734
330
6CB
100
AcDbEntity
  8
Livello 1
100
AcDb2dPolyline
 66
     1
 10
0.0
 20
0.0
 30
0.0
  0
VERTEX
  5
735
330
734
100
AcDbEntity
  8
Livello 1
100
AcDbVertex
100
AcDb2dVertex
 10
2.82335475405064
 20
6.529494954387061
 30
0.0
  0
VERTEX
  5
736
330
734
100
AcDbEntity
  8
Livello 1
100
AcDbVertex
100
AcDb2dVertex
 10
2.820883974632309
 20
6.529494954387061
 30
0.0
  0
SEQEND
  5
737
330
734
100
AcDbEntity
  8
Livello 1
  0
POLYLINE
  5
738
330
6CB
100
AcDbEntity
  8
Livello 1
100
AcDb2dPolyline
 66
     1
 10
0.0
 20
0.0
 30
0.0
  0
VERTEX
  5
739
330
738
100
AcDbEntity
  8
Livello 1
100
AcDbVertex
100
AcDb2dVertex
 10
3.072591263523392
 20
6.216051823548411
 30
0.0
  0
VERTEX
  5
73A
330
738
100
AcDbEntity
  8
Livello 1
100
AcDbVertex
100
AcDb2dVertex
 10
2.99039343842999
 20
6.216051823548411
 30
0.0
  0
SEQEND
  5
73B
330
738
100
AcDbEntity
  8
Livello 1
  0
POLYLINE
  5
73C
330
6CB
100
AcDbEntity
  8
Livello 1
100
AcDb2dPolyline
 66
     1
 10
0.0
 20
0.0
 30
0.0
  0
VERTEX
  5
73D
330
73C
100
AcDbEntity
  8
Livello 1
100
AcDbVertex
100
AcDb2dVertex
 10
3.072591263523392
 20
5.948859099599225
 30
0.0
  0
VERTEX
  5
73E
330
73C
100
AcDbEntity
  8
Livello 1
100
AcDbVertex
100
AcDb2dVertex
 10
3.072591263523392
 20
6.215913212284746
 30
0.0
  0
SEQEND
  5
73F
330
73C
100
AcDbEntity
  8
Livello 1
  0
POLYLINE
  5
740
330
6CB
100
AcDbEntity
  8
Livello 1
100
AcDb2dPolyline
 66
     1
 10
0.0
 20
0.0
 30
0.0
  0
VERTEX
  5
741
330
740
100
AcDbEntity
  8
Livello 1
100
AcDbVertex
100
AcDb2dVertex
 10
2.990394784170419
 20
5.948859099599225
 30
0.0
  0
VERTEX
  5
742
330
740
100
AcDbEntity
  8
Livello 1
100
AcDbVertex
100
AcDb2dVertex
 10
3.072591263523392
 20
5.948859099599225
 30
0.0
  0
SEQEND
  5
743
330
740
100
AcDbEntity
  8
Livello 1
  0
POLYLINE
  5
744
330
6CB
100
AcDbEntity
  8
Livello 1
100
AcDb2dPolyline
 66
     1
 10
0.0
 20
0.0
 30
0.0
  0
VERTEX
  5
745
330
744
100
AcDbEntity
  8
Livello 1
100
AcDbVertex
100
AcDb2dVertex
 10
2.918463612771191
 20
5.668823974784523
 30
0.0
  0
VERTEX
  5
746
330
744
100
AcDbEntity
  8
Livello 1
100
AcDbVertex
100
AcDb2dVertex
 10
2.918463612771191
 20
5.671294754202861
 30
0.0
  0
SEQEND
  5
747
330
744
100
AcDbEntity
  8
Livello 1
  0
POLYLINE
  5
748
330
6CB
100
AcDbEntity
  8
Livello 1
100
AcDb2dPolyline
 66
     1
 10
0.0
 20
0.0
 30
0.0
  0
VERTEX
  5
749
330
748
100
AcDbEntity
  8
Livello 1
100
AcDbVertex
100
AcDb2dVertex
 10
2.918463612771191
 20
5.671398376215492
 30
0.0
  0
VERTEX
  5
74A
330
748
100
AcDbEntity
  8
Livello 1
100
AcDbVertex
100
AcDb2dVertex
 10
2.877188408228946
 20
5.69715181070817
 30
0.0
  0
VERTEX
  5
74B
330
748
100
AcDbEntity
  8
Livello 1
100
AcDbVertex
100
AcDb2dVertex
 10
2.848965540058358
 20
5.733135563903509
 30
0.0
  0
VERTEX
  5
74C
330
748
100
AcDbEntity
  8
Livello 1
100
AcDbVertex
100
AcDb2dVertex
 10
2.828504902652994
 20
5.774056838714244
 30
0.0
  0
VERTEX
  5
74D
330
748
100
AcDbEntity
  8
Livello 1
100
AcDbVertex
100
AcDb2dVertex
 10
2.823213451306131
 20
5.820270910612272
 30
0.0
  0
SEQEND
  5
74E
330
748
100
AcDbEntity
  8
Livello 1
  0
POLYLINE
  5
74F
330
6CB
100
AcDbEntity
  8
Livello 1
100
AcDb2dPolyline
 66
     1
 10
0.0
 20
0.0
 30
0.0
  0
VERTEX
  5
750
330
74F
100
AcDbEntity
  8
Livello 1
100
AcDbVertex
100
AcDb2dVertex
 10
2.820779006879249
 20
5.948859099599225
 30
0.0
  0
VERTEX
  5
751
330
74F
100
AcDbEntity
  8
Livello 1
100
AcDbVertex
100
AcDb2dVertex
 10
2.990464762672459
 20
5.948859099599225
 30
0.0
  0
SEQEND
  5
752
330
74F
100
AcDbEntity
  8
Livello 1
  0
POLYLINE
  5
753
330
6CB
100
AcDbEntity
  8
Livello 1
100
AcDb2dPolyline
 66
     1
 10
0.0
 20
0.0
 30
0.0
  0
VERTEX
  5
754
330
753
100
AcDbEntity
  8
Livello 1
100
AcDbVertex
100
AcDb2dVertex
 10
2.820779006879249
 20
5.820412213356789
 30
0.0
  0
VERTEX
  5
755
330
753
100
AcDbEntity
  8
Livello 1
100
AcDbVertex
100
AcDb2dVertex
 10
2.820779006879249
 20
5.948824110348205
 30
0.0
  0
SEQEND
  5
756
330
753
100
AcDbEntity
  8
Livello 1
  0
POLYLINE
  5
757
330
6CB
100
AcDbEntity
  8
Livello 1
100
AcDb2dPolyline
 66
     1
 10
0.0
 20
0.0
 30
0.0
  0
VERTEX
  5
758
330
757
100
AcDbEntity
  8
Livello 1
100
AcDbVertex
100
AcDb2dVertex
 10
2.82335475405064
 20
5.820412213356789
 30
0.0
  0
VERTEX
  5
759
330
757
100
AcDbEntity
  8
Livello 1
100
AcDbVertex
100
AcDb2dVertex
 10
2.820883974632309
 20
5.820412213356789
 30
0.0
  0
SEQEND
  5
75A
330
757
100
AcDbEntity
  8
Livello 1
  0
POLYLINE
  5
75B
330
6CB
100
AcDbEntity
  8
Livello 1
100
AcDb2dPolyline
 66
     1
 10
0.0
 20
0.0
 30
0.0
  0
VERTEX
  5
75C
330
75B
100
AcDbEntity
  8
Livello 1
100
AcDbVertex
100
AcDb2dVertex
 10
2.820779006879249
 20
6.216051823548411
 30
0.0
  0
VERTEX
  5
75D
330
75B
100
AcDbEntity
  8
Livello 1
100
AcDbVertex
100
AcDb2dVertex
 10
2.990464762672459
 20
6.216051823548411
 30
0.0
  0
SEQEND
  5
75E
330
75B
100
AcDbEntity
  8
Livello 1
  0
POLYLINE
  5
75F
330
6CB
100
AcDbEntity
  8
Livello 1
100
AcDb2dPolyline
 66
     1
 10
0.0
 20
0.0
 30
0.0
  0
VERTEX
  5
760
330
75F
100
AcDbEntity
  8
Livello 1
100
AcDbVertex
100
AcDb2dVertex
 10
2.82335475405064
 20
7.004757988241095
 30
0.0
  0
VERTEX
  5
761
330
75F
100
AcDbEntity
  8
Livello 1
100
AcDbVertex
100
AcDb2dVertex
 10
2.833585072753336
 20
7.046033192783333
 30
0.0
  0
VERTEX
  5
762
330
75F
100
AcDbEntity
  8
Livello 1
100
AcDbVertex
100
AcDb2dVertex
 10
2.85439829414976
 20
7.084486379656581
 30
0.0
  0
VERTEX
  5
763
330
75F
100
AcDbEntity
  8
Livello 1
100
AcDbVertex
100
AcDb2dVertex
 10
2.882268578329259
 20
7.115178681505049
 30
0.0
  0
VERTEX
  5
764
330
75F
100
AcDbEntity
  8
Livello 1
100
AcDbVertex
100
AcDb2dVertex
 10
2.918603569775243
 20
7.138461336579389
 30
0.0
  0
SEQEND
  5
765
330
75F
100
AcDbEntity
  8
Livello 1
  0
POLYLINE
  5
766
330
6CB
100
AcDbEntity
  8
Livello 1
100
AcDb2dPolyline
 66
     1
 10
0.0
 20
0.0
 30
0.0
  0
VERTEX
  5
767
330
766
100
AcDbEntity
  8
Livello 1
100
AcDbVertex
100
AcDb2dVertex
 10
2.820779006879249
 20
6.914834267373962
 30
0.0
  0
VERTEX
  5
768
330
766
100
AcDbEntity
  8
Livello 1
100
AcDbVertex
100
AcDb2dVertex
 10
2.820779006879249
 20
6.940587701866625
 30
0.0
  0
SEQEND
  5
769
330
766
100
AcDbEntity
  8
Livello 1
  0
POLYLINE
  5
76A
330
6CB
100
AcDbEntity
  8
Livello 1
100
AcDb2dPolyline
 66
     1
 10
0.0
 20
0.0
 30
0.0
  0
VERTEX
  5
76B
330
76A
100
AcDbEntity
  8
Livello 1
100
AcDbVertex
100
AcDb2dVertex
 10
2.820779006879249
 20
6.986801773764653
 30
0.0
  0
VERTEX
  5
76C
330
76A
100
AcDbEntity
  8
Livello 1
100
AcDbVertex
100
AcDb2dVertex
 10
2.823248440557151
 20
6.986801773764653
 30
0.0
  0
SEQEND
  5
76D
330
76A
100
AcDbEntity
  8
Livello 1
  0
POLYLINE
  5
76E
330
6CB
100
AcDbEntity
  8
Livello 1
100
AcDb2dPolyline
 66
     1
 10
0.0
 20
0.0
 30
0.0
  0
VERTEX
  5
76F
330
76E
100
AcDbEntity
  8
Livello 1
100
AcDbVertex
100
AcDb2dVertex
 10
2.820779006879249
 20
6.914834267373962
 30
0.0
  0
VERTEX
  5
770
330
76E
100
AcDbEntity
  8
Livello 1
100
AcDbVertex
100
AcDb2dVertex
 10
2.823248440557151
 20
6.914834267373962
 30
0.0
  0
SEQEND
  5
771
330
76E
100
AcDbEntity
  8
Livello 1
  0
POLYLINE
  5
772
330
6CB
100
AcDbEntity
  8
Livello 1
100
AcDb2dPolyline
 66
     1
 10
0.0
 20
0.0
 30
0.0
  0
VERTEX
  5
773
330
772
100
AcDbEntity
  8
Livello 1
100
AcDbVertex
100
AcDb2dVertex
 10
2.820779006879249
 20
6.529494954387061
 30
0.0
  0
VERTEX
  5
774
330
772
100
AcDbEntity
  8
Livello 1
100
AcDbVertex
100
AcDb2dVertex
 10
2.820779006879249
 20
6.914729299620901
 30
0.0
  0
SEQEND
  5
775
330
772
100
AcDbEntity
  8
Livello 1
  0
POLYLINE
  5
776
330
6CB
100
AcDbEntity
  8
Livello 1
100
AcDb2dPolyline
 66
     1
 10
0.0
 20
0.0
 30
0.0
  0
VERTEX
  5
777
330
776
100
AcDbEntity
  8
Livello 1
100
AcDbVertex
100
AcDb2dVertex
 10
2.820779006879249
 20
5.948859099599225
 30
0.0
  0
VERTEX
  5
778
330
776
100
AcDbEntity
  8
Livello 1
100
AcDbVertex
100
AcDb2dVertex
 10
2.820779006879249
 20
5.820448548348231
 30
0.0
  0
VERTEX
  5
779
330
776
100
AcDbEntity
  8
Livello 1
100
AcDbVertex
100
AcDb2dVertex
 10
2.823248440557151
 20
5.820448548348231
 30
0.0
  0
SEQEND
  5
77A
330
776
100
AcDbEntity
  8
Livello 1
  0
POLYLINE
  5
77B
330
6CB
100
AcDbEntity
  8
Livello 1
100
AcDb2dPolyline
 66
     1
 10
0.0
 20
0.0
 30
0.0
  0
VERTEX
  5
77C
330
77B
100
AcDbEntity
  8
Livello 1
100
AcDbVertex
100
AcDb2dVertex
 10
2.820779006879249
 20
5.948859099599225
 30
0.0
  0
VERTEX
  5
77D
330
77B
100
AcDbEntity
  8
Livello 1
100
AcDbVertex
100
AcDb2dVertex
 10
2.823248440557151
 20
5.948859099599225
 30
0.0
  0
SEQEND
  5
77E
330
77B
100
AcDbEntity
  8
Livello 1
  0
POLYLINE
  5
77F
330
6CB
100
AcDbEntity
  8
Livello 1
100
AcDb2dPolyline
 66
     1
 10
0.0
 20
0.0
 30
0.0
  0
VERTEX
  5
780
330
77F
100
AcDbEntity
  8
Livello 1
100
AcDbVertex
100
AcDb2dVertex
 10
2.938959239427546
 20
5.66113306826179
 30
0.0
  0
VERTEX
  5
781
330
77F
100
AcDbEntity
  8
Livello 1
100
AcDbVertex
100
AcDb2dVertex
 10
2.918497256281753
 20
5.668895299026985
 30
0.0
  0
SEQEND
  5
782
330
77F
100
AcDbEntity
  8
Livello 1
  0
POLYLINE
  5
783
330
6CB
100
AcDbEntity
  8
Livello 1
100
AcDb2dPolyline
 66
     1
 10
0.0
 20
0.0
 30
0.0
  0
VERTEX
  5
784
330
783
100
AcDbEntity
  8
Livello 1
100
AcDbVertex
100
AcDb2dVertex
 10
2.938959239427546
 20
7.146080918859659
 30
0.0
  0
VERTEX
  5
785
330
783
100
AcDbEntity
  8
Livello 1
100
AcDbVertex
100
AcDb2dVertex
 10
2.918497256281753
 20
7.138320033834872
 30
0.0
  0
SEQEND
  5
786
330
783
100
AcDbEntity
  8
Livello 1
  0
POLYLINE
  5
787
330
6CB
100
AcDbEntity
  8
Livello 1
100
AcDb2dPolyline
 66
     1
 10
0.0
 20
0.0
 30
0.0
  0
VERTEX
  5
788
330
787
100
AcDbEntity
  8
Livello 1
100
AcDbVertex
100
AcDb2dVertex
 10
2.96210193749782
 20
5.655982919659422
 30
0.0
  0
VERTEX
  5
789
330
787
100
AcDbEntity
  8
Livello 1
100
AcDbVertex
100
AcDb2dVertex
 10
3.044298416850793
 20
5.643283167278838
 30
0.0
  0
VERTEX
  5
78A
330
787
100
AcDbEntity
  8
Livello 1
100
AcDbVertex
100
AcDb2dVertex
 10
3.110973126154178
 20
5.630230830907187
 30
0.0
  0
VERTEX
  5
78B
330
787
100
AcDbEntity
  8
Livello 1
100
AcDbVertex
100
AcDb2dVertex
 10
3.136726560646835
 20
5.625291963551376
 30
0.0
  0
VERTEX
  5
78C
330
787
100
AcDbEntity
  8
Livello 1
100
AcDbVertex
100
AcDb2dVertex
 10
3.157539782043258
 20
5.622469945882414
 30
0.0
  0
VERTEX
  5
78D
330
787
100
AcDbEntity
  8
Livello 1
100
AcDbVertex
100
AcDb2dVertex
 10
3.162478649399062
 20
5.622469945882414
 30
0.0
  0
VERTEX
  5
78E
330
787
100
AcDbEntity
  8
Livello 1
100
AcDbVertex
100
AcDb2dVertex
 10
3.167417516754895
 20
5.620000512204491
 30
0.0
  0
VERTEX
  5
78F
330
787
100
AcDbEntity
  8
Livello 1
100
AcDbVertex
100
AcDb2dVertex
 10
3.170239534423856
 20
5.620000512204491
 30
0.0
  0
VERTEX
  5
790
330
787
100
AcDbEntity
  8
Livello 1
100
AcDbVertex
100
AcDb2dVertex
 10
3.519490126462315
 20
5.620000512204491
 30
0.0
  0
VERTEX
  5
791
330
787
100
AcDbEntity
  8
Livello 1
100
AcDbVertex
100
AcDb2dVertex
 10
3.750559140212075
 20
5.620000512204491
 30
0.0
  0
SEQEND
  5
792
330
787
100
AcDbEntity
  8
Livello 1
  0
POLYLINE
  5
793
330
6CB
100
AcDbEntity
  8
Livello 1
100
AcDb2dPolyline
 66
     1
 10
0.0
 20
0.0
 30
0.0
  0
VERTEX
  5
794
330
793
100
AcDbEntity
  8
Livello 1
100
AcDbVertex
100
AcDb2dVertex
 10
2.938959239427546
 20
5.66113306826179
 30
0.0
  0
VERTEX
  5
795
330
793
100
AcDbEntity
  8
Livello 1
100
AcDbVertex
100
AcDb2dVertex
 10
2.9622418945019
 20
5.655841616914905
 30
0.0
  0
SEQEND
  5
796
330
793
100
AcDbEntity
  8
Livello 1
  0
POLYLINE
  5
797
330
6CB
100
AcDbEntity
  8
Livello 1
100
AcDb2dPolyline
 66
     1
 10
0.0
 20
0.0
 30
0.0
  0
VERTEX
  5
798
330
797
100
AcDbEntity
  8
Livello 1
100
AcDbVertex
100
AcDb2dVertex
 10
3.170169555921816
 20
7.189754232837309
 30
0.0
  0
VERTEX
  5
799
330
797
100
AcDbEntity
  8
Livello 1
100
AcDbVertex
100
AcDb2dVertex
 10
3.519418802219874
 20
7.189754232837309
 30
0.0
  0
VERTEX
  5
79A
330
797
100
AcDbEntity
  8
Livello 1
100
AcDbVertex
100
AcDb2dVertex
 10
3.70321599209835
 20
7.189754232837309
 30
0.0
  0
SEQEND
  5
79B
330
797
100
AcDbEntity
  8
Livello 1
  0
SPLINE
  5
79C
330
6CB
100
AcDbEntity
  8
Livello 1
100
AcDbSpline
210
0.0
220
0.0
230
1.0
 70
     8
 71
     3
 72
    14
 73
    10
 74
     0
 42
0.000000001
 43
0.0000000001
 40
0.0
 40
0.0
 40
0.0
 40
0.0
 40
1.0
 40
1.0
 40
1.0
 40
2.0
 40
2.0
 40
2.0
 40
3.0
 40
3.0
 40
3.0
 40
3.0
 10
2.96210193749782
 20
7.151196078211
 30
0.0
 10
2.96210193749782
 20
7.151196078211
 30
0.0
 10
3.008314663655411
 20
7.161427742654112
 30
0.0
 10
3.008314663655411
 20
7.161427742654112
 30
0.0
 10
3.061584452596079
 20
7.168836043687818
 30
0.0
 10
3.114501657545716
 20
7.181888380059476
 30
0.0
 10
3.167417516754895
 20
7.187179831406339
 30
0.0
 10
3.167417516754895
 20
7.187179831406339
 30
0.0
 10
3.170239534423856
 20
7.189649265084241
 30
0.0
 10
3.170239534423856
 20
7.189649265084241
 30
0.0
  0
POLYLINE
  5
79D
330
6CB
100
AcDbEntity
  8
Livello 1
100
AcDb2dPolyline
 66
     1
 10
0.0
 20
0.0
 30
0.0
  0
VERTEX
  5
79E
330
79D
100
AcDbEntity
  8
Livello 1
100
AcDbVertex
100
AcDb2dVertex
 10
2.96210193749782
 20
7.151196078211
 30
0.0
  0
VERTEX
  5
79F
330
79D
100
AcDbEntity
  8
Livello 1
100
AcDbVertex
100
AcDb2dVertex
 10
2.938817936683037
 20
7.145904626864115
 30
0.0
  0
SEQEND
  5
7A0
330
79D
100
AcDbEntity
  8
Livello 1
  0
POLYLINE
  5
7A1
330
6CB
100
AcDbEntity
  8
Livello 1
100
AcDb2dPolyline
 66
     1
 10
0.0
 20
0.0
 30
0.0
  0
VERTEX
  5
7A2
330
7A1
100
AcDbEntity
  8
Livello 1
100
AcDbVertex
100
AcDb2dVertex
 10
4.897369523192239
 20
5.831665294781664
 30
0.0
  0
VERTEX
  5
7A3
330
7A1
100
AcDbEntity
  8
Livello 1
100
AcDbVertex
100
AcDb2dVertex
 10
3.628427813779111
 20
5.831665294781664
 30
0.0
  0
SEQEND
  5
7A4
330
7A1
100
AcDbEntity
  8
Livello 1
  0
POLYLINE
  5
7A5
330
6CB
100
AcDbEntity
  8
Livello 1
100
AcDb2dPolyline
 66
     1
 10
0.0
 20
0.0
 30
0.0
  0
VERTEX
  5
7A6
330
7A5
100
AcDbEntity
  8
Livello 1
100
AcDbVertex
100
AcDb2dVertex
 10
3.506437790090686
 20
5.953691653461547
 30
0.0
  0
VERTEX
  5
7A7
330
7A5
100
AcDbEntity
  8
Livello 1
100
AcDbVertex
100
AcDb2dVertex
 10
3.506437790090686
 20
5.948752786105735
 30
0.0
  0
VERTEX
  5
7A8
330
7A5
100
AcDbEntity
  8
Livello 1
100
AcDbVertex
100
AcDb2dVertex
 10
3.506437790090686
 20
5.933936184038309
 30
0.0
  0
VERTEX
  5
7A9
330
7A5
100
AcDbEntity
  8
Livello 1
100
AcDbVertex
100
AcDb2dVertex
 10
3.506437790090686
 20
5.931466750360421
 30
0.0
  0
VERTEX
  5
7AA
330
7A5
100
AcDbEntity
  8
Livello 1
100
AcDbVertex
100
AcDb2dVertex
 10
3.508907223768559
 20
5.928644732691438
 30
0.0
  0
VERTEX
  5
7AB
330
7A5
100
AcDbEntity
  8
Livello 1
100
AcDbVertex
100
AcDb2dVertex
 10
3.508907223768559
 20
5.921236431657732
 30
0.0
  0
VERTEX
  5
7AC
330
7A5
100
AcDbEntity
  8
Livello 1
100
AcDbVertex
100
AcDb2dVertex
 10
3.511376657446461
 20
5.91876699797983
 30
0.0
  0
VERTEX
  5
7AD
330
7A5
100
AcDbEntity
  8
Livello 1
100
AcDbVertex
100
AcDb2dVertex
 10
3.511376657446461
 20
5.913828130624011
 30
0.0
  0
VERTEX
  5
7AE
330
7A5
100
AcDbEntity
  8
Livello 1
100
AcDbVertex
100
AcDb2dVertex
 10
3.513846091124392
 20
5.911358696946123
 30
0.0
  0
VERTEX
  5
7AF
330
7A5
100
AcDbEntity
  8
Livello 1
100
AcDbVertex
100
AcDb2dVertex
 10
3.513846091124392
 20
5.906419829590305
 30
0.0
  0
VERTEX
  5
7B0
330
7A5
100
AcDbEntity
  8
Livello 1
100
AcDbVertex
100
AcDb2dVertex
 10
3.516315524802294
 20
5.906419829590305
 30
0.0
  0
VERTEX
  5
7B1
330
7A5
100
AcDbEntity
  8
Livello 1
100
AcDbVertex
100
AcDb2dVertex
 10
3.516315524802294
 20
5.901480962234494
 30
0.0
  0
VERTEX
  5
7B2
330
7A5
100
AcDbEntity
  8
Livello 1
100
AcDbVertex
100
AcDb2dVertex
 10
3.518784958480196
 20
5.899011528556592
 30
0.0
  0
VERTEX
  5
7B3
330
7A5
100
AcDbEntity
  8
Livello 1
100
AcDbVertex
100
AcDb2dVertex
 10
3.518784958480196
 20
5.896542094878689
 30
0.0
  0
VERTEX
  5
7B4
330
7A5
100
AcDbEntity
  8
Livello 1
100
AcDbVertex
100
AcDb2dVertex
 10
3.521254392158098
 20
5.896542094878689
 30
0.0
  0
VERTEX
  5
7B5
330
7A5
100
AcDbEntity
  8
Livello 1
100
AcDbVertex
100
AcDb2dVertex
 10
3.521254392158098
 20
5.891603227522885
 30
0.0
  0
VERTEX
  5
7B6
330
7A5
100
AcDbEntity
  8
Livello 1
100
AcDbVertex
100
AcDb2dVertex
 10
3.523723825836
 20
5.891603227522885
 30
0.0
  0
VERTEX
  5
7B7
330
7A5
100
AcDbEntity
  8
Livello 1
100
AcDbVertex
100
AcDb2dVertex
 10
3.523723825836
 20
5.88878120985391
 30
0.0
  0
VERTEX
  5
7B8
330
7A5
100
AcDbEntity
  8
Livello 1
100
AcDbVertex
100
AcDb2dVertex
 10
3.526193259513902
 20
5.886311776176007
 30
0.0
  0
VERTEX
  5
7B9
330
7A5
100
AcDbEntity
  8
Livello 1
100
AcDbVertex
100
AcDb2dVertex
 10
3.526193259513902
 20
5.883842342498105
 30
0.0
  0
VERTEX
  5
7BA
330
7A5
100
AcDbEntity
  8
Livello 1
100
AcDbVertex
100
AcDb2dVertex
 10
3.528662693191805
 20
5.883842342498105
 30
0.0
  0
VERTEX
  5
7BB
330
7A5
100
AcDbEntity
  8
Livello 1
100
AcDbVertex
100
AcDb2dVertex
 10
3.528662693191805
 20
5.881372908820203
 30
0.0
  0
VERTEX
  5
7BC
330
7A5
100
AcDbEntity
  8
Livello 1
100
AcDbVertex
100
AcDb2dVertex
 10
3.531484710860766
 20
5.881372908820203
 30
0.0
  0
VERTEX
  5
7BD
330
7A5
100
AcDbEntity
  8
Livello 1
100
AcDbVertex
100
AcDb2dVertex
 10
3.531484710860766
 20
5.878903475142294
 30
0.0
  0
VERTEX
  5
7BE
330
7A5
100
AcDbEntity
  8
Livello 1
100
AcDbVertex
100
AcDb2dVertex
 10
3.533954144538668
 20
5.876434041464385
 30
0.0
  0
VERTEX
  5
7BF
330
7A5
100
AcDbEntity
  8
Livello 1
100
AcDbVertex
100
AcDb2dVertex
 10
3.533954144538668
 20
5.87396460778649
 30
0.0
  0
VERTEX
  5
7C0
330
7A5
100
AcDbEntity
  8
Livello 1
100
AcDbVertex
100
AcDb2dVertex
 10
3.536423578216599
 20
5.87396460778649
 30
0.0
  0
VERTEX
  5
7C1
330
7A5
100
AcDbEntity
  8
Livello 1
100
AcDbVertex
100
AcDb2dVertex
 10
3.538893011894501
 20
5.871495174108588
 30
0.0
  0
VERTEX
  5
7C2
330
7A5
100
AcDbEntity
  8
Livello 1
100
AcDbVertex
100
AcDb2dVertex
 10
3.538893011894501
 20
5.869025740430686
 30
0.0
  0
VERTEX
  5
7C3
330
7A5
100
AcDbEntity
  8
Livello 1
100
AcDbVertex
100
AcDb2dVertex
 10
3.541362445572403
 20
5.869025740430686
 30
0.0
  0
VERTEX
  5
7C4
330
7A5
100
AcDbEntity
  8
Livello 1
100
AcDbVertex
100
AcDb2dVertex
 10
3.541362445572403
 20
5.866556306752777
 30
0.0
  0
VERTEX
  5
7C5
330
7A5
100
AcDbEntity
  8
Livello 1
100
AcDbVertex
100
AcDb2dVertex
 10
3.543831879250276
 20
5.866556306752777
 30
0.0
  0
VERTEX
  5
7C6
330
7A5
100
AcDbEntity
  8
Livello 1
100
AcDbVertex
100
AcDb2dVertex
 10
3.546301312928207
 20
5.864086873074882
 30
0.0
  0
VERTEX
  5
7C7
330
7A5
100
AcDbEntity
  8
Livello 1
100
AcDbVertex
100
AcDb2dVertex
 10
3.546301312928207
 20
5.861617439396972
 30
0.0
  0
VERTEX
  5
7C8
330
7A5
100
AcDbEntity
  8
Livello 1
100
AcDbVertex
100
AcDb2dVertex
 10
3.548770746606109
 20
5.861617439396972
 30
0.0
  0
VERTEX
  5
7C9
330
7A5
100
AcDbEntity
  8
Livello 1
100
AcDbVertex
100
AcDb2dVertex
 10
3.551240180284011
 20
5.85914800571907
 30
0.0
  0
VERTEX
  5
7CA
330
7A5
100
AcDbEntity
  8
Livello 1
100
AcDbVertex
100
AcDb2dVertex
 10
3.553709613961885
 20
5.85914800571907
 30
0.0
  0
VERTEX
  5
7CB
330
7A5
100
AcDbEntity
  8
Livello 1
100
AcDbVertex
100
AcDb2dVertex
 10
3.553709613961885
 20
5.856678572041168
 30
0.0
  0
VERTEX
  5
7CC
330
7A5
100
AcDbEntity
  8
Livello 1
100
AcDbVertex
100
AcDb2dVertex
 10
3.556179047639815
 20
5.856678572041168
 30
0.0
  0
VERTEX
  5
7CD
330
7A5
100
AcDbEntity
  8
Livello 1
100
AcDbVertex
100
AcDb2dVertex
 10
3.556179047639815
 20
5.854209138363266
 30
0.0
  0
VERTEX
  5
7CE
330
7A5
100
AcDbEntity
  8
Livello 1
100
AcDbVertex
100
AcDb2dVertex
 10
3.558648481317717
 20
5.854209138363266
 30
0.0
  0
VERTEX
  5
7CF
330
7A5
100
AcDbEntity
  8
Livello 1
100
AcDbVertex
100
AcDb2dVertex
 10
3.56111791499562
 20
5.851739704685364
 30
0.0
  0
VERTEX
  5
7D0
330
7A5
100
AcDbEntity
  8
Livello 1
100
AcDbVertex
100
AcDb2dVertex
 10
3.563587348673522
 20
5.851739704685364
 30
0.0
  0
VERTEX
  5
7D1
330
7A5
100
AcDbEntity
  8
Livello 1
100
AcDbVertex
100
AcDb2dVertex
 10
3.563587348673522
 20
5.848917687016388
 30
0.0
  0
VERTEX
  5
7D2
330
7A5
100
AcDbEntity
  8
Livello 1
100
AcDbVertex
100
AcDb2dVertex
 10
3.568526216029326
 20
5.848917687016388
 30
0.0
  0
VERTEX
  5
7D3
330
7A5
100
AcDbEntity
  8
Livello 1
100
AcDbVertex
100
AcDb2dVertex
 10
3.568526216029326
 20
5.846448253338479
 30
0.0
  0
VERTEX
  5
7D4
330
7A5
100
AcDbEntity
  8
Livello 1
100
AcDbVertex
100
AcDb2dVertex
 10
3.571348233698316
 20
5.846448253338479
 30
0.0
  0
VERTEX
  5
7D5
330
7A5
100
AcDbEntity
  8
Livello 1
100
AcDbVertex
100
AcDb2dVertex
 10
3.573817667376218
 20
5.843978819660584
 30
0.0
  0
VERTEX
  5
7D6
330
7A5
100
AcDbEntity
  8
Livello 1
100
AcDbVertex
100
AcDb2dVertex
 10
3.578756534732022
 20
5.843978819660584
 30
0.0
  0
VERTEX
  5
7D7
330
7A5
100
AcDbEntity
  8
Livello 1
100
AcDbVertex
100
AcDb2dVertex
 10
3.578756534732022
 20
5.841509385982675
 30
0.0
  0
VERTEX
  5
7D8
330
7A5
100
AcDbEntity
  8
Livello 1
100
AcDbVertex
100
AcDb2dVertex
 10
3.583695402087826
 20
5.841509385982675
 30
0.0
  0
VERTEX
  5
7D9
330
7A5
100
AcDbEntity
  8
Livello 1
100
AcDbVertex
100
AcDb2dVertex
 10
3.586164835765728
 20
5.83903995230478
 30
0.0
  0
VERTEX
  5
7DA
330
7A5
100
AcDbEntity
  8
Livello 1
100
AcDbVertex
100
AcDb2dVertex
 10
3.591103703121532
 20
5.83903995230478
 30
0.0
  0
VERTEX
  5
7DB
330
7A5
100
AcDbEntity
  8
Livello 1
100
AcDbVertex
100
AcDb2dVertex
 10
3.593573136799463
 20
5.836570518626871
 30
0.0
  0
VERTEX
  5
7DC
330
7A5
100
AcDbEntity
  8
Livello 1
100
AcDbVertex
100
AcDb2dVertex
 10
3.600981437833141
 20
5.836570518626871
 30
0.0
  0
VERTEX
  5
7DD
330
7A5
100
AcDbEntity
  8
Livello 1
100
AcDbVertex
100
AcDb2dVertex
 10
3.603450871511043
 20
5.834101084948954
 30
0.0
  0
VERTEX
  5
7DE
330
7A5
100
AcDbEntity
  8
Livello 1
100
AcDbVertex
100
AcDb2dVertex
 10
3.605920305188945
 20
5.834101084948954
 30
0.0
  0
VERTEX
  5
7DF
330
7A5
100
AcDbEntity
  8
Livello 1
100
AcDbVertex
100
AcDb2dVertex
 10
3.623558924925347
 20
5.834101084948954
 30
0.0
  0
VERTEX
  5
7E0
330
7A5
100
AcDbEntity
  8
Livello 1
100
AcDbVertex
100
AcDb2dVertex
 10
3.628497792281152
 20
5.834101084948954
 30
0.0
  0
SEQEND
  5
7E1
330
7A5
100
AcDbEntity
  8
Livello 1
  0
POLYLINE
  5
7E2
330
6CB
100
AcDbEntity
  8
Livello 1
100
AcDb2dPolyline
 66
     1
 10
0.0
 20
0.0
 30
0.0
  0
VERTEX
  5
7E3
330
7E2
100
AcDbEntity
  8
Livello 1
100
AcDbVertex
100
AcDb2dVertex
 10
3.506437790090686
 20
5.953691653461547
 30
0.0
  0
VERTEX
  5
7E4
330
7E2
100
AcDbEntity
  8
Livello 1
100
AcDbVertex
100
AcDb2dVertex
 10
3.506437790090686
 20
6.885026116983993
 30
0.0
  0
SEQEND
  5
7E5
330
7E2
100
AcDbEntity
  8
Livello 1
  0
POLYLINE
  5
7E6
330
6CB
100
AcDbEntity
  8
Livello 1
100
AcDb2dPolyline
 66
     1
 10
0.0
 20
0.0
 30
0.0
  0
VERTEX
  5
7E7
330
7E6
100
AcDbEntity
  8
Livello 1
100
AcDbVertex
100
AcDb2dVertex
 10
3.628464148770561
 20
7.007192432667977
 30
0.0
  0
VERTEX
  5
7E8
330
7E6
100
AcDbEntity
  8
Livello 1
100
AcDbVertex
100
AcDb2dVertex
 10
3.623523935674327
 20
7.007192432667977
 30
0.0
  0
VERTEX
  5
7E9
330
7E6
100
AcDbEntity
  8
Livello 1
100
AcDbVertex
100
AcDb2dVertex
 10
3.606237899929013
 20
7.007192432667977
 30
0.0
  0
VERTEX
  5
7EA
330
7E6
100
AcDbEntity
  8
Livello 1
100
AcDbVertex
100
AcDb2dVertex
 10
3.603415882260023
 20
7.007192432667977
 30
0.0
  0
VERTEX
  5
7EB
330
7E6
100
AcDbEntity
  8
Livello 1
100
AcDbVertex
100
AcDb2dVertex
 10
3.600946448582121
 20
7.004722998990082
 30
0.0
  0
VERTEX
  5
7EC
330
7E6
100
AcDbEntity
  8
Livello 1
100
AcDbVertex
100
AcDb2dVertex
 10
3.593538147548443
 20
7.004722998990082
 30
0.0
  0
VERTEX
  5
7ED
330
7E6
100
AcDbEntity
  8
Livello 1
100
AcDbVertex
100
AcDb2dVertex
 10
3.591068713870512
 20
7.002253565312173
 30
0.0
  0
VERTEX
  5
7EE
330
7E6
100
AcDbEntity
  8
Livello 1
100
AcDbVertex
100
AcDb2dVertex
 10
3.586129846514708
 20
7.002253565312173
 30
0.0
  0
VERTEX
  5
7EF
330
7E6
100
AcDbEntity
  8
Livello 1
100
AcDbVertex
100
AcDb2dVertex
 10
3.583660412836806
 20
6.999784131634271
 30
0.0
  0
VERTEX
  5
7F0
330
7E6
100
AcDbEntity
  8
Livello 1
100
AcDbVertex
100
AcDb2dVertex
 10
3.578721545481002
 20
6.999784131634271
 30
0.0
  0
VERTEX
  5
7F1
330
7E6
100
AcDbEntity
  8
Livello 1
100
AcDbVertex
100
AcDb2dVertex
 10
3.578721545481002
 20
6.997314697956362
 30
0.0
  0
VERTEX
  5
7F2
330
7E6
100
AcDbEntity
  8
Livello 1
100
AcDbVertex
100
AcDb2dVertex
 10
3.573782678125169
 20
6.997314697956362
 30
0.0
  0
VERTEX
  5
7F3
330
7E6
100
AcDbEntity
  8
Livello 1
100
AcDbVertex
100
AcDb2dVertex
 10
3.571313244447267
 20
6.99484526427846
 30
0.0
  0
VERTEX
  5
7F4
330
7E6
100
AcDbEntity
  8
Livello 1
100
AcDbVertex
100
AcDb2dVertex
 10
3.568843810769394
 20
6.99484526427846
 30
0.0
  0
VERTEX
  5
7F5
330
7E6
100
AcDbEntity
  8
Livello 1
100
AcDbVertex
100
AcDb2dVertex
 10
3.568843810769394
 20
6.992375830600551
 30
0.0
  0
VERTEX
  5
7F6
330
7E6
100
AcDbEntity
  8
Livello 1
100
AcDbVertex
100
AcDb2dVertex
 10
3.563552359422502
 20
6.992375830600551
 30
0.0
  0
VERTEX
  5
7F7
330
7E6
100
AcDbEntity
  8
Livello 1
100
AcDbVertex
100
AcDb2dVertex
 10
3.563552359422502
 20
6.989906396922663
 30
0.0
  0
VERTEX
  5
7F8
330
7E6
100
AcDbEntity
  8
Livello 1
100
AcDbVertex
100
AcDb2dVertex
 10
3.561082925744599
 20
6.989906396922663
 30
0.0
  0
VERTEX
  5
7F9
330
7E6
100
AcDbEntity
  8
Livello 1
100
AcDbVertex
100
AcDb2dVertex
 10
3.558613492066669
 20
6.987436963244739
 30
0.0
  0
VERTEX
  5
7FA
330
7E6
100
AcDbEntity
  8
Livello 1
100
AcDbVertex
100
AcDb2dVertex
 10
3.556144058388795
 20
6.987436963244739
 30
0.0
  0
VERTEX
  5
7FB
330
7E6
100
AcDbEntity
  8
Livello 1
100
AcDbVertex
100
AcDb2dVertex
 10
3.556144058388795
 20
6.984967529566844
 30
0.0
  0
VERTEX
  5
7FC
330
7E6
100
AcDbEntity
  8
Livello 1
100
AcDbVertex
100
AcDb2dVertex
 10
3.553674624710893
 20
6.984967529566844
 30
0.0
  0
VERTEX
  5
7FD
330
7E6
100
AcDbEntity
  8
Livello 1
100
AcDbVertex
100
AcDb2dVertex
 10
3.553674624710893
 20
6.982145511897876
 30
0.0
  0
VERTEX
  5
7FE
330
7E6
100
AcDbEntity
  8
Livello 1
100
AcDbVertex
100
AcDb2dVertex
 10
3.551205191032991
 20
6.982145511897876
 30
0.0
  0
VERTEX
  5
7FF
330
7E6
100
AcDbEntity
  8
Livello 1
100
AcDbVertex
100
AcDb2dVertex
 10
3.548735757355061
 20
6.979676078219974
 30
0.0
  0
VERTEX
  5
800
330
7E6
100
AcDbEntity
  8
Livello 1
100
AcDbVertex
100
AcDb2dVertex
 10
3.546266323677187
 20
6.979676078219974
 30
0.0
  0
VERTEX
  5
801
330
7E6
100
AcDbEntity
  8
Livello 1
100
AcDbVertex
100
AcDb2dVertex
 10
3.546266323677187
 20
6.977206644542064
 30
0.0
  0
VERTEX
  5
802
330
7E6
100
AcDbEntity
  8
Livello 1
100
AcDbVertex
100
AcDb2dVertex
 10
3.543796889999285
 20
6.974737210864162
 30
0.0
  0
VERTEX
  5
803
330
7E6
100
AcDbEntity
  8
Livello 1
100
AcDbVertex
100
AcDb2dVertex
 10
3.541327456321383
 20
6.974737210864162
 30
0.0
  0
VERTEX
  5
804
330
7E6
100
AcDbEntity
  8
Livello 1
100
AcDbVertex
100
AcDb2dVertex
 10
3.541327456321383
 20
6.97226777718626
 30
0.0
  0
VERTEX
  5
805
330
7E6
100
AcDbEntity
  8
Livello 1
100
AcDbVertex
100
AcDb2dVertex
 10
3.538858022643481
 20
6.97226777718626
 30
0.0
  0
VERTEX
  5
806
330
7E6
100
AcDbEntity
  8
Livello 1
100
AcDbVertex
100
AcDb2dVertex
 10
3.538858022643481
 20
6.969798343508365
 30
0.0
  0
VERTEX
  5
807
330
7E6
100
AcDbEntity
  8
Livello 1
100
AcDbVertex
100
AcDb2dVertex
 10
3.53638858896555
 20
6.967328909830442
 30
0.0
  0
VERTEX
  5
808
330
7E6
100
AcDbEntity
  8
Livello 1
100
AcDbVertex
100
AcDb2dVertex
 10
3.533919155287648
 20
6.967328909830442
 30
0.0
  0
VERTEX
  5
809
330
7E6
100
AcDbEntity
  8
Livello 1
100
AcDbVertex
100
AcDb2dVertex
 10
3.533919155287648
 20
6.964859476152547
 30
0.0
  0
VERTEX
  5
80A
330
7E6
100
AcDbEntity
  8
Livello 1
100
AcDbVertex
100
AcDb2dVertex
 10
3.531449721609746
 20
6.962390042474645
 30
0.0
  0
VERTEX
  5
80B
330
7E6
100
AcDbEntity
  8
Livello 1
100
AcDbVertex
100
AcDb2dVertex
 10
3.531449721609746
 20
6.959920608796736
 30
0.0
  0
VERTEX
  5
80C
330
7E6
100
AcDbEntity
  8
Livello 1
100
AcDbVertex
100
AcDb2dVertex
 10
3.528980287931844
 20
6.959920608796736
 30
0.0
  0
VERTEX
  5
80D
330
7E6
100
AcDbEntity
  8
Livello 1
100
AcDbVertex
100
AcDb2dVertex
 10
3.528980287931844
 20
6.957451175118833
 30
0.0
  0
VERTEX
  5
80E
330
7E6
100
AcDbEntity
  8
Livello 1
100
AcDbVertex
100
AcDb2dVertex
 10
3.526510854253942
 20
6.957451175118833
 30
0.0
  0
VERTEX
  5
80F
330
7E6
100
AcDbEntity
  8
Livello 1
100
AcDbVertex
100
AcDb2dVertex
 10
3.526510854253942
 20
6.954981741440924
 30
0.0
  0
VERTEX
  5
810
330
7E6
100
AcDbEntity
  8
Livello 1
100
AcDbVertex
100
AcDb2dVertex
 10
3.52368883658498
 20
6.952512307763029
 30
0.0
  0
VERTEX
  5
811
330
7E6
100
AcDbEntity
  8
Livello 1
100
AcDbVertex
100
AcDb2dVertex
 10
3.52368883658498
 20
6.950042874085127
 30
0.0
  0
VERTEX
  5
812
330
7E6
100
AcDbEntity
  8
Livello 1
100
AcDbVertex
100
AcDb2dVertex
 10
3.521219402907078
 20
6.950042874085127
 30
0.0
  0
VERTEX
  5
813
330
7E6
100
AcDbEntity
  8
Livello 1
100
AcDbVertex
100
AcDb2dVertex
 10
3.521219402907078
 20
6.945104006729316
 30
0.0
  0
VERTEX
  5
814
330
7E6
100
AcDbEntity
  8
Livello 1
100
AcDbVertex
100
AcDb2dVertex
 10
3.518749969229176
 20
6.945104006729316
 30
0.0
  0
VERTEX
  5
815
330
7E6
100
AcDbEntity
  8
Livello 1
100
AcDbVertex
100
AcDb2dVertex
 10
3.518749969229176
 20
6.94228198906034
 30
0.0
  0
VERTEX
  5
816
330
7E6
100
AcDbEntity
  8
Livello 1
100
AcDbVertex
100
AcDb2dVertex
 10
3.516280535551274
 20
6.939812555382452
 30
0.0
  0
VERTEX
  5
817
330
7E6
100
AcDbEntity
  8
Livello 1
100
AcDbVertex
100
AcDb2dVertex
 10
3.516280535551274
 20
6.934873688026634
 30
0.0
  0
VERTEX
  5
818
330
7E6
100
AcDbEntity
  8
Livello 1
100
AcDbVertex
100
AcDb2dVertex
 10
3.513811101873372
 20
6.934873688026634
 30
0.0
  0
VERTEX
  5
819
330
7E6
100
AcDbEntity
  8
Livello 1
100
AcDbVertex
100
AcDb2dVertex
 10
3.513811101873372
 20
6.92993482067083
 30
0.0
  0
VERTEX
  5
81A
330
7E6
100
AcDbEntity
  8
Livello 1
100
AcDbVertex
100
AcDb2dVertex
 10
3.51134166819547
 20
6.927465386992921
 30
0.0
  0
VERTEX
  5
81B
330
7E6
100
AcDbEntity
  8
Livello 1
100
AcDbVertex
100
AcDb2dVertex
 10
3.51134166819547
 20
6.922526519637123
 30
0.0
  0
VERTEX
  5
81C
330
7E6
100
AcDbEntity
  8
Livello 1
100
AcDbVertex
100
AcDb2dVertex
 10
3.508872234517568
 20
6.920057085959221
 30
0.0
  0
VERTEX
  5
81D
330
7E6
100
AcDbEntity
  8
Livello 1
100
AcDbVertex
100
AcDb2dVertex
 10
3.508872234517568
 20
6.912648784925494
 30
0.0
  0
VERTEX
  5
81E
330
7E6
100
AcDbEntity
  8
Livello 1
100
AcDbVertex
100
AcDb2dVertex
 10
3.506402800839637
 20
6.910179351247592
 30
0.0
  0
VERTEX
  5
81F
330
7E6
100
AcDbEntity
  8
Livello 1
100
AcDbVertex
100
AcDb2dVertex
 10
3.506402800839637
 20
6.907709917569704
 30
0.0
  0
VERTEX
  5
820
330
7E6
100
AcDbEntity
  8
Livello 1
100
AcDbVertex
100
AcDb2dVertex
 10
3.506402800839637
 20
6.890071297833294
 30
0.0
  0
VERTEX
  5
821
330
7E6
100
AcDbEntity
  8
Livello 1
100
AcDbVertex
100
AcDb2dVertex
 10
3.506402800839637
 20
6.885132430477483
 30
0.0
  0
SEQEND
  5
822
330
7E6
100
AcDbEntity
  8
Livello 1
  0
POLYLINE
  5
823
330
6CB
100
AcDbEntity
  8
Livello 1
100
AcDb2dPolyline
 66
     1
 10
0.0
 20
0.0
 30
0.0
  0
VERTEX
  5
824
330
823
100
AcDbEntity
  8
Livello 1
100
AcDbVertex
100
AcDb2dVertex
 10
3.628464148770561
 20
7.007192432667977
 30
0.0
  0
VERTEX
  5
825
330
823
100
AcDbEntity
  8
Livello 1
100
AcDbVertex
100
AcDb2dVertex
 10
4.897404512443259
 20
7.007192432667977
 30
0.0
  0
SEQEND
  5
826
330
823
100
AcDbEntity
  8
Livello 1
  0
SPLINE
  5
827
330
6CB
100
AcDbEntity
  8
Livello 1
100
AcDbSpline
210
0.0
220
0.0
230
1.0
 70
     8
 71
     3
 72
   176
 73
   172
 74
     0
 42
0.000000001
 43
0.0000000001
 40
0.0
 40
0.0
 40
0.0
 40
0.0
 40
1.0
 40
1.0
 40
1.0
 40
2.0
 40
2.0
 40
2.0
 40
3.0
 40
3.0
 40
3.0
 40
4.0
 40
4.0
 40
4.0
 40
5.0
 40
5.0
 40
5.0
 40
6.0
 40
6.0
 40
6.0
 40
7.0
 40
7.0
 40
7.0
 40
8.0
 40
8.0
 40
8.0
 40
9.0
 40
9.0
 40
9.0
 40
10.0
 40
10.0
 40
10.0
 40
11.0
 40
11.0
 40
11.0
 40
12.0
 40
12.0
 40
12.0
 40
13.0
 40
13.0
 40
13.0
 40
14.0
 40
14.0
 40
14.0
 40
15.0
 40
15.0
 40
15.0
 40
16.0
 40
16.0
 40
16.0
 40
17.0
 40
17.0
 40
17.0
 40
18.0
 40
18.0
 40
18.0
 40
19.0
 40
19.0
 40
19.0
 40
20.0
 40
20.0
 40
20.0
 40
21.0
 40
21.0
 40
21.0
 40
22.0
 40
22.0
 40
22.0
 40
23.0
 40
23.0
 40
23.0
 40
24.0
 40
24.0
 40
24.0
 40
25.0
 40
25.0
 40
25.0
 40
26.0
 40
26.0
 40
26.0
 40
27.0
 40
27.0
 40
27.0
 40
28.0
 40
28.0
 40
28.0
 40
29.0
 40
29.0
 40
29.0
 40
30.0
 40
30.0
 40
30.0
 40
31.0
 40
31.0
 40
31.0
 40
32.0
 40
32.0
 40
32.0
 40
33.0
 40
33.0
 40
33.0
 40
34.0
 40
34.0
 40
34.0
 40
35.0
 40
35.0
 40
35.0
 40
36.0
 40
36.0
 40
36.0
 40
37.0
 40
37.0
 40
37.0
 40
38.0
 40
38.0
 40
38.0
 40
39.0
 40
39.0
 40
39.0
 40
40.0
 40
40.0
 40
40.0
 40
41.0
 40
41.0
 40
41.0
 40
42.0
 40
42.0
 40
42.0
 40
43.0
 40
43.0
 40
43.0
 40
44.0
 40
44.0
 40
44.0
 40
45.0
 40
45.0
 40
45.0
 40
46.0
 40
46.0
 40
46.0
 40
47.0
 40
47.0
 40
47.0
 40
48.0
 40
48.0
 40
48.0
 40
49.0
 40
49.0
 40
49.0
 40
50.0
 40
50.0
 40
50.0
 40
51.0
 40
51.0
 40
51.0
 40
52.0
 40
52.0
 40
52.0
 40
53.0
 40
53.0
 40
53.0
 40
54.0
 40
54.0
 40
54.0
 40
55.0
 40
55.0
 40
55.0
 40
56.0
 40
56.0
 40
56.0
 40
57.0
 40
57.0
 40
57.0
 40
57.0
 10
4.276022329099802
 20
7.410664252126835
 30
0.0
 10
4.276022329099802
 20
7.410664252126835
 30
0.0
 10
4.074232589753407
 20
7.410664252126835
 30
0.0
 10
4.074232589753407
 20
7.410664252126835
 30
0.0
 10
4.074232589753407
 20
7.410664252126835
 30
0.0
 10
4.029430199560081
 20
7.410664252126835
 30
0.0
 10
4.029430199560081
 20
7.410664252126835
 30
0.0
 10
4.029430199560081
 20
7.410664252126835
 30
0.0
 10
4.024491332204277
 20
7.40819481844894
 30
0.0
 10
4.024491332204277
 20
7.40819481844894
 30
0.0
 10
4.024491332204277
 20
7.40819481844894
 30
0.0
 10
4.01461359749264
 20
7.40819481844894
 30
0.0
 10
4.01461359749264
 20
7.40819481844894
 30
0.0
 10
4.01461359749264
 20
7.40819481844894
 30
0.0
 10
4.009674730136836
 20
7.405725384771038
 30
0.0
 10
4.009674730136836
 20
7.405725384771038
 30
0.0
 10
4.009674730136836
 20
7.405725384771038
 30
0.0
 10
3.999444411434168
 20
7.405725384771038
 30
0.0
 10
3.999444411434168
 20
7.405725384771038
 30
0.0
 10
3.999444411434168
 20
7.405725384771038
 30
0.0
 10
3.994505544078364
 20
7.403255951093136
 30
0.0
 10
3.994505544078364
 20
7.403255951093136
 30
0.0
 10
3.994505544078364
 20
7.403255951093136
 30
0.0
 10
3.984627809366756
 20
7.403255951093136
 30
0.0
 10
3.984627809366756
 20
7.403255951093136
 30
0.0
 10
3.984627809366756
 20
7.403255951093136
 30
0.0
 10
3.979688942010923
 20
7.400786517415227
 30
0.0
 10
3.979688942010923
 20
7.400786517415227
 30
0.0
 10
3.979688942010923
 20
7.400786517415227
 30
0.0
 10
3.974750074655119
 20
7.400786517415227
 30
0.0
 10
3.974750074655119
 20
7.400786517415227
 30
0.0
 10
3.974750074655119
 20
7.400786517415227
 30
0.0
 10
3.969811207299315
 20
7.398317083737332
 30
0.0
 10
3.969811207299315
 20
7.398317083737332
 30
0.0
 10
3.969811207299315
 20
7.398317083737332
 30
0.0
 10
3.964518410212022
 20
7.398317083737332
 30
0.0
 10
3.964518410212022
 20
7.398317083737332
 30
0.0
 10
3.964518410212022
 20
7.398317083737332
 30
0.0
 10
3.959579542856218
 20
7.395847650059423
 30
0.0
 10
3.959579542856218
 20
7.395847650059423
 30
0.0
 10
3.959579542856218
 20
7.395847650059423
 30
0.0
 10
3.954640675500414
 20
7.395847650059423
 30
0.0
 10
3.954640675500414
 20
7.395847650059423
 30
0.0
 10
3.954640675500414
 20
7.395847650059423
 30
0.0
 10
3.952171241822512
 20
7.39337821638152
 30
0.0
 10
3.952171241822512
 20
7.39337821638152
 30
0.0
 10
3.952171241822512
 20
7.39337821638152
 30
0.0
 10
3.947232374466707
 20
7.390908782703618
 30
0.0
 10
3.947232374466707
 20
7.390908782703618
 30
0.0
 10
3.947232374466707
 20
7.390908782703618
 30
0.0
 10
3.942293507110875
 20
7.390908782703618
 30
0.0
 10
3.942293507110875
 20
7.390908782703618
 30
0.0
 10
3.942293507110875
 20
7.390908782703618
 30
0.0
 10
3.937354639755071
 20
7.388439349025702
 30
0.0
 10
3.937354639755071
 20
7.388439349025702
 30
0.0
 10
3.937354639755071
 20
7.388439349025702
 30
0.0
 10
3.932415772399266
 20
7.385617331356733
 30
0.0
 10
3.932415772399266
 20
7.385617331356733
 30
0.0
 10
3.932415772399266
 20
7.385617331356733
 30
0.0
 10
3.927476905043462
 20
7.385617331356733
 30
0.0
 10
3.927476905043462
 20
7.385617331356733
 30
0.0
 10
3.927476905043462
 20
7.385617331356733
 30
0.0
 10
3.922185453696599
 20
7.383147897678838
 30
0.0
 10
3.922185453696599
 20
7.383147897678838
 30
0.0
 10
3.922185453696599
 20
7.383147897678838
 30
0.0
 10
3.919716020018697
 20
7.380678464000929
 30
0.0
 10
3.919716020018697
 20
7.380678464000929
 30
0.0
 10
3.919716020018697
 20
7.380678464000929
 30
0.0
 10
3.914777152662892
 20
7.378209030323027
 30
0.0
 10
3.914777152662892
 20
7.378209030323027
 30
0.0
 10
3.914777152662892
 20
7.378209030323027
 30
0.0
 10
3.90983828530706
 20
7.378209030323027
 30
0.0
 10
3.90983828530706
 20
7.378209030323027
 30
0.0
 10
3.891847081579598
 20
7.369390393325041
 30
0.0
 10
3.874913629825343
 20
7.35880614489087
 30
0.0
 10
3.857627594080028
 20
7.348575826188167
 30
0.0
 10
3.857627594080028
 20
7.348575826188167
 30
0.0
 10
3.84774985936842
 20
7.343284374841303
 30
0.0
 10
3.84774985936842
 20
7.343284374841303
 30
0.0
 10
3.84774985936842
 20
7.343284374841303
 30
0.0
 10
3.845280425690489
 20
7.340814941163401
 30
0.0
 10
3.845280425690489
 20
7.340814941163401
 30
0.0
 10
3.845280425690489
 20
7.340814941163401
 30
0.0
 10
3.840341558334685
 20
7.338345507485492
 30
0.0
 10
3.840341558334685
 20
7.338345507485492
 30
0.0
 10
3.840341558334685
 20
7.338345507485492
 30
0.0
 10
3.837519540665724
 20
7.335876073807597
 30
0.0
 10
3.837519540665724
 20
7.335876073807597
 30
0.0
 10
3.837519540665724
 20
7.335876073807597
 30
0.0
 10
3.832580673309919
 20
7.333406640129695
 30
0.0
 10
3.832580673309919
 20
7.333406640129695
 30
0.0
 10
3.832580673309919
 20
7.333406640129695
 30
0.0
 10
3.825171026535784
 20
7.325998339095981
 30
0.0
 10
3.825171026535784
 20
7.325998339095981
 30
0.0
 10
3.825171026535784
 20
7.325998339095981
 30
0.0
 10
3.82023215917998
 20
7.323528905418079
 30
0.0
 10
3.82023215917998
 20
7.323528905418079
 30
0.0
 10
3.810001840477283
 20
7.311886905010695
 30
0.0
 10
3.811766106173067
 20
7.315768020393299
 30
0.0
 10
3.802946123434637
 20
7.308712303350652
 30
0.0
 10
3.802946123434637
 20
7.308712303350652
 30
0.0
 10
3.780368636342458
 20
7.286134816258453
 30
0.0
 10
3.780368636342458
 20
7.286134816258453
 30
0.0
 10
3.745443980860741
 20
7.250151063063114
 30
0.0
 10
3.727098847401762
 20
7.215226407581376
 30
0.0
 10
3.70311102434529
 20
7.171481769361264
 30
0.0
 10
3.70311102434529
 20
7.171481769361264
 30
0.0
 10
3.70311102434529
 20
7.166542902005453
 30
0.0
 10
3.70311102434529
 20
7.166542902005453
 30
0.0
 10
3.70311102434529
 20
7.166542902005453
 30
0.0
 10
3.700641590667387
 20
7.161604034649634
 30
0.0
 10
3.700641590667387
 20
7.161604034649634
 30
0.0
 10
3.700641590667387
 20
7.161604034649634
 30
0.0
 10
3.698172156989514
 20
7.159134600971732
 30
0.0
 10
3.698172156989514
 20
7.159134600971732
 30
0.0
 10
3.698172156989514
 20
7.159134600971732
 30
0.0
 10
3.695702723311583
 20
7.154195733615921
 30
0.0
 10
3.695702723311583
 20
7.154195733615921
 30
0.0
 10
3.695702723311583
 20
7.154195733615921
 30
0.0
 10
3.695702723311583
 20
7.149256866260124
 30
0.0
 10
3.695702723311583
 20
7.149256866260124
 30
0.0
 10
3.695702723311583
 20
7.149256866260124
 30
0.0
 10
3.690763855955779
 20
7.139026547557435
 30
0.0
 10
3.690763855955779
 20
7.139026547557435
 30
0.0
 10
3.690763855955779
 20
7.139026547557435
 30
0.0
 10
3.690763855955779
 20
7.134087680201623
 30
0.0
 10
3.690763855955779
 20
7.134087680201623
 30
0.0
 10
3.690763855955779
 20
7.134087680201623
 30
0.0
 10
3.688294422277877
 20
7.129148812845826
 30
0.0
 10
3.688294422277877
 20
7.129148812845826
 30
0.0
 10
3.688294422277877
 20
7.129148812845826
 30
0.0
 10
3.685824988599947
 20
7.126679379167917
 30
0.0
 10
3.685824988599947
 20
7.126679379167917
 30
0.0
 10
3.685824988599947
 20
7.126679379167917
 30
0.0
 10
3.685824988599947
 20
7.12174051181212
 30
0.0
 10
3.685824988599947
 20
7.12174051181212
 30
0.0
 10
3.685824988599947
 20
7.12174051181212
 30
0.0
 10
3.683355554922073
 20
7.116801644456295
 30
0.0
 10
3.683355554922073
 20
7.116801644456295
 30
0.0
 10
3.683355554922073
 20
7.116801644456295
 30
0.0
 10
3.683355554922073
 20
7.11186277710049
 30
0.0
 10
3.683355554922073
 20
7.11186277710049
 30
0.0
 10
3.683355554922073
 20
7.11186277710049
 30
0.0
 10
3.680886121244171
 20
7.106923909744701
 30
0.0
 10
3.680886121244171
 20
7.106923909744701
 30
0.0
 10
3.680886121244171
 20
7.106923909744701
 30
0.0
 10
3.680886121244171
 20
7.101983696648453
 30
0.0
 10
3.680886121244171
 20
7.101983696648453
 30
0.0
 10
3.680886121244171
 20
7.101983696648453
 30
0.0
 10
3.678416687566269
 20
7.096692245301575
 30
0.0
 10
3.678416687566269
 20
7.096692245301575
 30
0.0
 10
3.678416687566269
 20
7.096692245301575
 30
0.0
 10
3.678416687566269
 20
7.086814510589967
 30
0.0
 10
3.678416687566269
 20
7.086814510589967
 30
0.0
 10
3.678416687566269
 20
7.086814510589967
 30
0.0
 10
3.675947253888338
 20
7.081875643234155
 30
0.0
 10
3.675947253888338
 20
7.081875643234155
 30
0.0
 10
3.675947253888338
 20
7.081875643234155
 30
0.0
 10
3.675947253888338
 20
7.071997908522547
 30
0.0
 10
3.675947253888338
 20
7.071997908522547
 30
0.0
 10
3.675947253888338
 20
7.071997908522547
 30
0.0
 10
3.673477820210464
 20
7.067059041166743
 30
0.0
 10
3.673477820210464
 20
7.067059041166743
 30
0.0
 10
3.673477820210464
 20
7.067059041166743
 30
0.0
 10
3.673477820210464
 20
7.056828722464054
 30
0.0
 10
3.673477820210464
 20
7.056828722464054
 30
0.0
 10
3.673477820210464
 20
7.056828722464054
 30
0.0
 10
3.670654456801074
 20
7.05188985510825
 30
0.0
 10
3.670654456801074
 20
7.05188985510825
 30
0.0
 10
3.670654456801074
 20
7.05188985510825
 30
0.0
 10
3.670654456801074
 20
7.00708746491491
 30
0.0
 10
3.670654456801074
 20
7.00708746491491
 30
0.0
  0
POLYLINE
  5
828
330
6CB
100
AcDbEntity
  8
Livello 1
100
AcDb2dPolyline
 66
     1
 10
0.0
 20
0.0
 30
0.0
  0
VERTEX
  5
829
330
828
100
AcDbEntity
  8
Livello 1
100
AcDbVertex
100
AcDb2dVertex
 10
4.315850862686303
 20
7.370835718540341
 30
0.0
  0
VERTEX
  5
82A
330
828
100
AcDbEntity
  8
Livello 1
100
AcDbVertex
100
AcDb2dVertex
 10
4.313380083267972
 20
7.373306497958665
 30
0.0
  0
VERTEX
  5
82B
330
828
100
AcDbEntity
  8
Livello 1
100
AcDbVertex
100
AcDb2dVertex
 10
4.313380083267972
 20
7.38565366634819
 30
0.0
  0
VERTEX
  5
82C
330
828
100
AcDbEntity
  8
Livello 1
100
AcDbVertex
100
AcDb2dVertex
 10
4.31091064959007
 20
7.38565366634819
 30
0.0
  0
VERTEX
  5
82D
330
828
100
AcDbEntity
  8
Livello 1
100
AcDbVertex
100
AcDb2dVertex
 10
4.31091064959007
 20
7.390592533703994
 30
0.0
  0
VERTEX
  5
82E
330
828
100
AcDbEntity
  8
Livello 1
100
AcDbVertex
100
AcDb2dVertex
 10
4.308441215912168
 20
7.390592533703994
 30
0.0
  0
VERTEX
  5
82F
330
828
100
AcDbEntity
  8
Livello 1
100
AcDbVertex
100
AcDb2dVertex
 10
4.308441215912168
 20
7.395883985050865
 30
0.0
  0
VERTEX
  5
830
330
828
100
AcDbEntity
  8
Livello 1
100
AcDbVertex
100
AcDb2dVertex
 10
4.305971782234266
 20
7.395883985050865
 30
0.0
  0
VERTEX
  5
831
330
828
100
AcDbEntity
  8
Livello 1
100
AcDbVertex
100
AcDb2dVertex
 10
4.305971782234266
 20
7.398353418728774
 30
0.0
  0
VERTEX
  5
832
330
828
100
AcDbEntity
  8
Livello 1
100
AcDbVertex
100
AcDb2dVertex
 10
4.303502348556364
 20
7.398353418728774
 30
0.0
  0
VERTEX
  5
833
330
828
100
AcDbEntity
  8
Livello 1
100
AcDbVertex
100
AcDb2dVertex
 10
4.303502348556364
 20
7.400822852406669
 30
0.0
  0
VERTEX
  5
834
330
828
100
AcDbEntity
  8
Livello 1
100
AcDbVertex
100
AcDb2dVertex
 10
4.301032914878462
 20
7.400822852406669
 30
0.0
  0
VERTEX
  5
835
330
828
100
AcDbEntity
  8
Livello 1
100
AcDbVertex
100
AcDb2dVertex
 10
4.301032914878462
 20
7.403292286084585
 30
0.0
  0
VERTEX
  5
836
330
828
100
AcDbEntity
  8
Livello 1
100
AcDbVertex
100
AcDb2dVertex
 10
4.298563481200559
 20
7.403292286084585
 30
0.0
  0
VERTEX
  5
837
330
828
100
AcDbEntity
  8
Livello 1
100
AcDbVertex
100
AcDb2dVertex
 10
4.298563481200559
 20
7.405761719762473
 30
0.0
  0
VERTEX
  5
838
330
828
100
AcDbEntity
  8
Livello 1
100
AcDbVertex
100
AcDb2dVertex
 10
4.293624613844755
 20
7.405761719762473
 30
0.0
  0
VERTEX
  5
839
330
828
100
AcDbEntity
  8
Livello 1
100
AcDbVertex
100
AcDb2dVertex
 10
4.293624613844755
 20
7.408231153440389
 30
0.0
  0
VERTEX
  5
83A
330
828
100
AcDbEntity
  8
Livello 1
100
AcDbVertex
100
AcDb2dVertex
 10
4.288333162497863
 20
7.408231153440389
 30
0.0
  0
VERTEX
  5
83B
330
828
100
AcDbEntity
  8
Livello 1
100
AcDbVertex
100
AcDb2dVertex
 10
4.288333162497863
 20
7.410700587118292
 30
0.0
  0
VERTEX
  5
83C
330
828
100
AcDbEntity
  8
Livello 1
100
AcDbVertex
100
AcDb2dVertex
 10
4.275985994108353
 20
7.410700587118292
 30
0.0
  0
SEQEND
  5
83D
330
828
100
AcDbEntity
  8
Livello 1
  0
POLYLINE
  5
83E
330
6CB
100
AcDbEntity
  8
Livello 1
100
AcDb2dPolyline
 66
     1
 10
0.0
 20
0.0
 30
0.0
  0
VERTEX
  5
83F
330
83E
100
AcDbEntity
  8
Livello 1
100
AcDbVertex
100
AcDb2dVertex
 10
4.315850862686303
 20
7.007192432667977
 30
0.0
  0
VERTEX
  5
840
330
83E
100
AcDbEntity
  8
Livello 1
100
AcDbVertex
100
AcDb2dVertex
 10
4.315850862686303
 20
7.37090704278281
 30
0.0
  0
SEQEND
  5
841
330
83E
100
AcDbEntity
  8
Livello 1
  0
POLYLINE
  5
842
330
6CB
100
AcDbEntity
  8
Livello 1
100
AcDb2dPolyline
 66
     1
 10
0.0
 20
0.0
 30
0.0
  0
VERTEX
  5
843
330
842
100
AcDbEntity
  8
Livello 1
100
AcDbVertex
100
AcDb2dVertex
 10
4.276022329099802
 20
5.455569872766723
 30
0.0
  0
VERTEX
  5
844
330
842
100
AcDbEntity
  8
Livello 1
100
AcDbVertex
100
AcDb2dVertex
 10
4.276022329099802
 20
5.458040652185047
 30
0.0
  0
VERTEX
  5
845
330
842
100
AcDbEntity
  8
Livello 1
100
AcDbVertex
100
AcDb2dVertex
 10
4.288369497489313
 20
5.458040652185047
 30
0.0
  0
VERTEX
  5
846
330
842
100
AcDbEntity
  8
Livello 1
100
AcDbVertex
100
AcDb2dVertex
 10
4.288369497489313
 20
5.460510085862935
 30
0.0
  0
VERTEX
  5
847
330
842
100
AcDbEntity
  8
Livello 1
100
AcDbVertex
100
AcDb2dVertex
 10
4.293308364845117
 20
5.460510085862935
 30
0.0
  0
VERTEX
  5
848
330
842
100
AcDbEntity
  8
Livello 1
100
AcDbVertex
100
AcDb2dVertex
 10
4.296130382514107
 20
5.462979519540851
 30
0.0
  0
VERTEX
  5
849
330
842
100
AcDbEntity
  8
Livello 1
100
AcDbVertex
100
AcDb2dVertex
 10
4.298247232200921
 20
5.462979519540851
 30
0.0
  0
VERTEX
  5
84A
330
842
100
AcDbEntity
  8
Livello 1
100
AcDbVertex
100
AcDb2dVertex
 10
4.298247232200921
 20
5.465448953218761
 30
0.0
  0
VERTEX
  5
84B
330
842
100
AcDbEntity
  8
Livello 1
100
AcDbVertex
100
AcDb2dVertex
 10
4.301069249869911
 20
5.465448953218761
 30
0.0
  0
VERTEX
  5
84C
330
842
100
AcDbEntity
  8
Livello 1
100
AcDbVertex
100
AcDb2dVertex
 10
4.303538683547813
 20
5.467918386896656
 30
0.0
  0
VERTEX
  5
84D
330
842
100
AcDbEntity
  8
Livello 1
100
AcDbVertex
100
AcDb2dVertex
 10
4.306008117225715
 20
5.467918386896656
 30
0.0
  0
VERTEX
  5
84E
330
842
100
AcDbEntity
  8
Livello 1
100
AcDbVertex
100
AcDb2dVertex
 10
4.306008117225715
 20
5.470387820574558
 30
0.0
  0
VERTEX
  5
84F
330
842
100
AcDbEntity
  8
Livello 1
100
AcDbVertex
100
AcDb2dVertex
 10
4.308477550903617
 20
5.472857254252467
 30
0.0
  0
VERTEX
  5
850
330
842
100
AcDbEntity
  8
Livello 1
100
AcDbVertex
100
AcDb2dVertex
 10
4.308477550903617
 20
5.475326687930369
 30
0.0
  0
VERTEX
  5
851
330
842
100
AcDbEntity
  8
Livello 1
100
AcDbVertex
100
AcDb2dVertex
 10
4.310946984581519
 20
5.475326687930369
 30
0.0
  0
VERTEX
  5
852
330
842
100
AcDbEntity
  8
Livello 1
100
AcDbVertex
100
AcDb2dVertex
 10
4.310946984581519
 20
5.477796121608264
 30
0.0
  0
VERTEX
  5
853
330
842
100
AcDbEntity
  8
Livello 1
100
AcDbVertex
100
AcDb2dVertex
 10
4.313416418259421
 20
5.480618139277233
 30
0.0
  0
VERTEX
  5
854
330
842
100
AcDbEntity
  8
Livello 1
100
AcDbVertex
100
AcDb2dVertex
 10
4.313416418259421
 20
5.485557006633051
 30
0.0
  0
VERTEX
  5
855
330
842
100
AcDbEntity
  8
Livello 1
100
AcDbVertex
100
AcDb2dVertex
 10
4.315885851937323
 20
5.485557006633051
 30
0.0
  0
VERTEX
  5
856
330
842
100
AcDbEntity
  8
Livello 1
100
AcDbVertex
100
AcDb2dVertex
 10
4.315885851937323
 20
5.497904175022561
 30
0.0
  0
VERTEX
  5
857
330
842
100
AcDbEntity
  8
Livello 1
100
AcDbVertex
100
AcDb2dVertex
 10
4.318355285615226
 20
5.497904175022561
 30
0.0
  0
SEQEND
  5
858
330
842
100
AcDbEntity
  8
Livello 1
  0
POLYLINE
  5
859
330
6CB
100
AcDbEntity
  8
Livello 1
100
AcDb2dPolyline
 66
     1
 10
0.0
 20
0.0
 30
0.0
  0
VERTEX
  5
85A
330
859
100
AcDbEntity
  8
Livello 1
100
AcDbVertex
100
AcDb2dVertex
 10
4.074268924744856
 20
5.455569872766723
 30
0.0
  0
VERTEX
  5
85B
330
859
100
AcDbEntity
  8
Livello 1
100
AcDbVertex
100
AcDb2dVertex
 10
4.276057318350822
 20
5.455569872766723
 30
0.0
  0
SEQEND
  5
85C
330
859
100
AcDbEntity
  8
Livello 1
  0
SPLINE
  5
85D
330
6CB
100
AcDbEntity
  8
Livello 1
100
AcDbSpline
210
0.0
220
0.0
230
1.0
 70
     8
 71
     3
 72
   227
 73
   223
 74
     0
 42
0.000000001
 43
0.0000000001
 40
0.0
 40
0.0
 40
0.0
 40
0.0
 40
1.0
 40
1.0
 40
1.0
 40
2.0
 40
2.0
 40
2.0
 40
3.0
 40
3.0
 40
3.0
 40
4.0
 40
4.0
 40
4.0
 40
5.0
 40
5.0
 40
5.0
 40
6.0
 40
6.0
 40
6.0
 40
7.0
 40
7.0
 40
7.0
 40
8.0
 40
8.0
 40
8.0
 40
9.0
 40
9.0
 40
9.0
 40
10.0
 40
10.0
 40
10.0
 40
11.0
 40
11.0
 40
11.0
 40
12.0
 40
12.0
 40
12.0
 40
13.0
 40
13.0
 40
13.0
 40
14.0
 40
14.0
 40
14.0
 40
15.0
 40
15.0
 40
15.0
 40
16.0
 40
16.0
 40
16.0
 40
17.0
 40
17.0
 40
17.0
 40
18.0
 40
18.0
 40
18.0
 40
19.0
 40
19.0
 40
19.0
 40
20.0
 40
20.0
 40
20.0
 40
21.0
 40
21.0
 40
21.0
 40
22.0
 40
22.0
 40
22.0
 40
23.0
 40
23.0
 40
23.0
 40
24.0
 40
24.0
 40
24.0
 40
25.0
 40
25.0
 40
25.0
 40
26.0
 40
26.0
 40
26.0
 40
27.0
 40
27.0
 40
27.0
 40
28.0
 40
28.0
 40
28.0
 40
29.0
 40
29.0
 40
29.0
 40
30.0
 40
30.0
 40
30.0
 40
31.0
 40
31.0
 40
31.0
 40
32.0
 40
32.0
 40
32.0
 40
33.0
 40
33.0
 40
33.0
 40
34.0
 40
34.0
 40
34.0
 40
35.0
 40
35.0
 40
35.0
 40
36.0
 40
36.0
 40
36.0
 40
37.0
 40
37.0
 40
37.0
 40
38.0
 40
38.0
 40
38.0
 40
39.0
 40
39.0
 40
39.0
 40
40.0
 40
40.0
 40
40.0
 40
41.0
 40
41.0
 40
41.0
 40
42.0
 40
42.0
 40
42.0
 40
43.0
 40
43.0
 40
43.0
 40
44.0
 40
44.0
 40
44.0
 40
45.0
 40
45.0
 40
45.0
 40
46.0
 40
46.0
 40
46.0
 40
47.0
 40
47.0
 40
47.0
 40
48.0
 40
48.0
 40
48.0
 40
49.0
 40
49.0
 40
49.0
 40
50.0
 40
50.0
 40
50.0
 40
51.0
 40
51.0
 40
51.0
 40
52.0
 40
52.0
 40
52.0
 40
53.0
 40
53.0
 40
53.0
 40
54.0
 40
54.0
 40
54.0
 40
55.0
 40
55.0
 40
55.0
 40
56.0
 40
56.0
 40
56.0
 40
57.0
 40
57.0
 40
57.0
 40
58.0
 40
58.0
 40
58.0
 40
59.0
 40
59.0
 40
59.0
 40
60.0
 40
60.0
 40
60.0
 40
61.0
 40
61.0
 40
61.0
 40
62.0
 40
62.0
 40
62.0
 40
63.0
 40
63.0
 40
63.0
 40
64.0
 40
64.0
 40
64.0
 40
65.0
 40
65.0
 40
65.0
 40
66.0
 40
66.0
 40
66.0
 40
67.0
 40
67.0
 40
67.0
 40
68.0
 40
68.0
 40
68.0
 40
69.0
 40
69.0
 40
69.0
 40
70.0
 40
70.0
 40
70.0
 40
71.0
 40
71.0
 40
71.0
 40
72.0
 40
72.0
 40
72.0
 40
73.0
 40
73.0
 40
73.0
 40
74.0
 40
74.0
 40
74.0
 40
74.0
 10
3.670797105286013
 20
5.831665294781664
 30
0.0
 10
3.670797105286013
 20
5.831665294781664
 30
0.0
 10
3.670797105286013
 20
5.814379259036329
 30
0.0
 10
3.670797105286013
 20
5.814379259036329
 30
0.0
 10
3.670797105286013
 20
5.814379259036329
 30
0.0
 10
3.673266538963886
 20
5.809440391680524
 30
0.0
 10
3.673266538963886
 20
5.809440391680524
 30
0.0
 10
3.673266538963886
 20
5.809440391680524
 30
0.0
 10
3.673266538963886
 20
5.794271205622024
 30
0.0
 10
3.673266538963886
 20
5.794271205622024
 30
0.0
 10
3.673266538963886
 20
5.794271205622024
 30
0.0
 10
3.675735972641788
 20
5.789332338266227
 30
0.0
 10
3.675735972641788
 20
5.789332338266227
 30
0.0
 10
3.675735972641788
 20
5.789332338266227
 30
0.0
 10
3.675735972641788
 20
5.784393470910416
 30
0.0
 10
3.675735972641788
 20
5.784393470910416
 30
0.0
 10
3.675735972641788
 20
5.784393470910416
 30
0.0
 10
3.67820540631969
 20
5.779454603554611
 30
0.0
 10
3.67820540631969
 20
5.779454603554611
 30
0.0
 10
3.67820540631969
 20
5.779454603554611
 30
0.0
 10
3.67820540631969
 20
5.769224284851922
 30
0.0
 10
3.67820540631969
 20
5.769224284851922
 30
0.0
 10
3.67820540631969
 20
5.769224284851922
 30
0.0
 10
3.680674839997621
 20
5.764285417496118
 30
0.0
 10
3.680674839997621
 20
5.764285417496118
 30
0.0
 10
3.680674839997621
 20
5.764285417496118
 30
0.0
 10
3.680674839997621
 20
5.759346550140314
 30
0.0
 10
3.680674839997621
 20
5.759346550140314
 30
0.0
 10
3.680674839997621
 20
5.759346550140314
 30
0.0
 10
3.683144273675523
 20
5.75440768278451
 30
0.0
 10
3.683144273675523
 20
5.75440768278451
 30
0.0
 10
3.683144273675523
 20
5.75440768278451
 30
0.0
 10
3.683144273675523
 20
5.749468815428699
 30
0.0
 10
3.683144273675523
 20
5.749468815428699
 30
0.0
 10
3.683144273675523
 20
5.749468815428699
 30
0.0
 10
3.688083141031327
 20
5.739591080717083
 30
0.0
 10
3.688083141031327
 20
5.739591080717083
 30
0.0
 10
3.688083141031327
 20
5.739591080717083
 30
0.0
 10
3.688083141031327
 20
5.734652213361279
 30
0.0
 10
3.688083141031327
 20
5.734652213361279
 30
0.0
 10
3.688083141031327
 20
5.734652213361279
 30
0.0
 10
3.690552574709229
 20
5.73218277968337
 30
0.0
 10
3.690552574709229
 20
5.73218277968337
 30
0.0
 10
3.690552574709229
 20
5.73218277968337
 30
0.0
 10
3.693022008387131
 20
5.726891328336492
 30
0.0
 10
3.693022008387131
 20
5.726891328336492
 30
0.0
 10
3.693022008387131
 20
5.726891328336492
 30
0.0
 10
3.693022008387131
 20
5.721952460980688
 30
0.0
 10
3.693022008387131
 20
5.721952460980688
 30
0.0
 10
3.693022008387131
 20
5.721952460980688
 30
0.0
 10
3.698313459733995
 20
5.712074726269058
 30
0.0
 10
3.698313459733995
 20
5.712074726269058
 30
0.0
 10
3.698313459733995
 20
5.712074726269058
 30
0.0
 10
3.698313459733995
 20
5.707135858913268
 30
0.0
 10
3.698313459733995
 20
5.707135858913268
 30
0.0
 10
3.698313459733995
 20
5.707135858913268
 30
0.0
 10
3.700782893411897
 20
5.70219699155745
 30
0.0
 10
3.700782893411897
 20
5.70219699155745
 30
0.0
 10
3.700782893411897
 20
5.70219699155745
 30
0.0
 10
3.703252327089799
 20
5.699727557879562
 30
0.0
 10
3.703252327089799
 20
5.699727557879562
 30
0.0
 10
3.703252327089799
 20
5.699727557879562
 30
0.0
 10
3.710660628123534
 20
5.684557026080632
 30
0.0
 10
3.710660628123534
 20
5.684557026080632
 30
0.0
 10
3.710660628123534
 20
5.684557026080632
 30
0.0
 10
3.710660628123534
 20
5.679618158724842
 30
0.0
 10
3.710660628123534
 20
5.679618158724842
 30
0.0
 10
3.710660628123534
 20
5.679618158724842
 30
0.0
 10
3.713130061801436
 20
5.67714872504694
 30
0.0
 10
3.713130061801436
 20
5.67714872504694
 30
0.0
 10
3.713130061801436
 20
5.67714872504694
 30
0.0
 10
3.720538362835142
 20
5.662332122979513
 30
0.0
 10
3.720538362835142
 20
5.662332122979513
 30
0.0
 10
3.720538362835142
 20
5.662332122979513
 30
0.0
 10
3.723007796513044
 20
5.659862689301611
 30
0.0
 10
3.723007796513044
 20
5.659862689301611
 30
0.0
 10
3.723007796513044
 20
5.659862689301611
 30
0.0
 10
3.727946663868848
 20
5.649984954589982
 30
0.0
 10
3.727946663868848
 20
5.649984954589982
 30
0.0
 10
3.727946663868848
 20
5.649984954589982
 30
0.0
 10
3.730416097546751
 20
5.647515520912094
 30
0.0
 10
3.730416097546751
 20
5.647515520912094
 30
0.0
 10
3.730416097546751
 20
5.647515520912094
 30
0.0
 10
3.735707548893614
 20
5.637285202209412
 30
0.0
 10
3.735707548893614
 20
5.637285202209412
 30
0.0
 10
3.735707548893614
 20
5.637285202209412
 30
0.0
 10
3.740646416249418
 20
5.634815768531488
 30
0.0
 10
3.740646416249418
 20
5.634815768531488
 30
0.0
 10
3.740646416249418
 20
5.634815768531488
 30
0.0
 10
3.745585283605251
 20
5.62493803381988
 30
0.0
 10
3.745585283605251
 20
5.62493803381988
 30
0.0
 10
3.745585283605251
 20
5.62493803381988
 30
0.0
 10
3.748054717283153
 20
5.622468600141978
 30
0.0
 10
3.748054717283153
 20
5.622468600141978
 30
0.0
 10
3.748054717283153
 20
5.622468600141978
 30
0.0
 10
3.750524150961027
 20
5.617529732786174
 30
0.0
 10
3.750524150961027
 20
5.617529732786174
 30
0.0
 10
3.750524150961027
 20
5.617529732786174
 30
0.0
 10
3.757932451994761
 20
5.61012143175246
 30
0.0
 10
3.757932451994761
 20
5.61012143175246
 30
0.0
 10
3.757932451994761
 20
5.61012143175246
 30
0.0
 10
3.760401885672663
 20
5.605182564396656
 30
0.0
 10
3.760401885672663
 20
5.605182564396656
 30
0.0
 10
3.760401885672663
 20
5.605182564396656
 30
0.0
 10
3.770279620384272
 20
5.594952245693974
 30
0.0
 10
3.770279620384272
 20
5.594952245693974
 30
0.0
 10
3.770279620384272
 20
5.594952245693974
 30
0.0
 10
3.772749054062174
 20
5.590013378338163
 30
0.0
 10
3.772749054062174
 20
5.590013378338163
 30
0.0
 10
3.772749054062174
 20
5.590013378338163
 30
0.0
 10
3.778040505409066
 20
5.587543944660261
 30
0.0
 10
3.778040505409066
 20
5.587543944660261
 30
0.0
 10
3.778040505409066
 20
5.587543944660261
 30
0.0
 10
3.780509939086968
 20
5.582605077304457
 30
0.0
 10
3.780509939086968
 20
5.582605077304457
 30
0.0
 10
3.780509939086968
 20
5.582605077304457
 30
0.0
 10
3.78297937276487
 20
5.580135643626555
 30
0.0
 10
3.78297937276487
 20
5.580135643626555
 30
0.0
 10
3.78297937276487
 20
5.580135643626555
 30
0.0
 10
3.787918240120674
 20
5.577666209948652
 30
0.0
 10
3.787918240120674
 20
5.577666209948652
 30
0.0
 10
3.787918240120674
 20
5.577666209948652
 30
0.0
 10
3.790387673798576
 20
5.572727342592834
 30
0.0
 10
3.790387673798576
 20
5.572727342592834
 30
0.0
 10
3.790387673798576
 20
5.572727342592834
 30
0.0
 10
3.795326541154381
 20
5.570257908914925
 30
0.0
 10
3.795326541154381
 20
5.570257908914925
 30
0.0
 10
3.795326541154381
 20
5.570257908914925
 30
0.0
 10
3.797795974832283
 20
5.565319041559128
 30
0.0
 10
3.797795974832283
 20
5.565319041559128
 30
0.0
 10
3.797795974832283
 20
5.565319041559128
 30
0.0
 10
3.800265408510213
 20
5.562849607881226
 30
0.0
 10
3.800265408510213
 20
5.562849607881226
 30
0.0
 10
3.800265408510213
 20
5.562849607881226
 30
0.0
 10
3.805204275865989
 20
5.56002759021225
 30
0.0
 10
3.805204275865989
 20
5.56002759021225
 30
0.0
 10
3.805204275865989
 20
5.56002759021225
 30
0.0
 10
3.807673709543891
 20
5.555088722856453
 30
0.0
 10
3.807673709543891
 20
5.555088722856453
 30
0.0
 10
3.807673709543891
 20
5.555088722856453
 30
0.0
 10
3.812612576899724
 20
5.552619289178551
 30
0.0
 10
3.812612576899724
 20
5.552619289178551
 30
0.0
 10
3.812612576899724
 20
5.552619289178551
 30
0.0
 10
3.815435940309114
 20
5.550149855500634
 30
0.0
 10
3.815435940309114
 20
5.550149855500634
 30
0.0
 10
3.815435940309114
 20
5.550149855500634
 30
0.0
 10
3.820374807664919
 20
5.547680421822725
 30
0.0
 10
3.820374807664919
 20
5.547680421822725
 30
0.0
 10
3.820374807664919
 20
5.547680421822725
 30
0.0
 10
3.827783108698625
 20
5.540272120789019
 30
0.0
 10
3.827783108698625
 20
5.540272120789019
 30
0.0
 10
3.827783108698625
 20
5.540272120789019
 30
0.0
 10
3.832721976054429
 20
5.537802687111117
 30
0.0
 10
3.832721976054429
 20
5.537802687111117
 30
0.0
 10
3.832721976054429
 20
5.537802687111117
 30
0.0
 10
3.835191409732331
 20
5.535333253433222
 30
0.0
 10
3.835191409732331
 20
5.535333253433222
 30
0.0
 10
3.835191409732331
 20
5.535333253433222
 30
0.0
 10
3.840130277088135
 20
5.532863819755313
 30
0.0
 10
3.840130277088135
 20
5.532863819755313
 30
0.0
 10
3.840130277088135
 20
5.532863819755313
 30
0.0
 10
3.845069144443939
 20
5.530394386077411
 30
0.0
 10
3.845069144443939
 20
5.530394386077411
 30
0.0
 10
3.845069144443939
 20
5.530394386077411
 30
0.0
 10
3.847538578121842
 20
5.525455518721599
 30
0.0
 10
3.847538578121842
 20
5.525455518721599
 30
0.0
 10
3.847538578121842
 20
5.525455518721599
 30
0.0
 10
3.852477445477674
 20
5.522984739303268
 30
0.0
 10
3.852477445477674
 20
5.522984739303268
 30
0.0
 10
3.852477445477674
 20
5.522984739303268
 30
0.0
 10
3.857416312833478
 20
5.520162721634299
 30
0.0
 10
3.857416312833478
 20
5.520162721634299
 30
0.0
 10
3.857416312833478
 20
5.520162721634299
 30
0.0
 10
3.85988574651138
 20
5.517693287956397
 30
0.0
 10
3.85988574651138
 20
5.517693287956397
 30
0.0
 10
3.85988574651138
 20
5.517693287956397
 30
0.0
 10
3.870116065214048
 20
5.512754420600593
 30
0.0
 10
3.870116065214048
 20
5.512754420600593
 30
0.0
 10
3.870116065214048
 20
5.512754420600593
 30
0.0
 10
3.87258549889195
 20
5.510284986922691
 30
0.0
 10
3.87258549889195
 20
5.510284986922691
 30
0.0
 10
3.87258549889195
 20
5.510284986922691
 30
0.0
 10
3.892340968315195
 20
5.500407252211061
 30
0.0
 10
3.892340968315195
 20
5.500407252211061
 30
0.0
 10
3.892340968315195
 20
5.500407252211061
 30
0.0
 10
3.894810401993098
 20
5.497937818533166
 30
0.0
 10
3.894810401993098
 20
5.497937818533166
 30
0.0
 10
3.894810401993098
 20
5.497937818533166
 30
0.0
 10
3.899749269348902
 20
5.497937818533166
 30
0.0
 10
3.899749269348902
 20
5.497937818533166
 30
0.0
 10
3.899749269348902
 20
5.497937818533166
 30
0.0
 10
3.905040720695765
 20
5.495468384855264
 30
0.0
 10
3.905040720695765
 20
5.495468384855264
 30
0.0
 10
3.905040720695765
 20
5.495468384855264
 30
0.0
 10
3.909979588051569
 20
5.492998951177362
 30
0.0
 10
3.909979588051569
 20
5.492998951177362
 30
0.0
 10
3.909979588051569
 20
5.492998951177362
 30
0.0
 10
3.914918455407402
 20
5.490529517499453
 30
0.0
 10
3.914918455407402
 20
5.490529517499453
 30
0.0
 10
3.914918455407402
 20
5.490529517499453
 30
0.0
 10
3.917387889085304
 20
5.488060083821551
 30
0.0
 10
3.917387889085304
 20
5.488060083821551
 30
0.0
 10
3.917387889085304
 20
5.488060083821551
 30
0.0
 10
3.922326756441108
 20
5.488060083821551
 30
0.0
 10
3.922326756441108
 20
5.488060083821551
 30
0.0
 10
3.922326756441108
 20
5.488060083821551
 30
0.0
 10
3.932204491152717
 20
5.483121216465747
 30
0.0
 10
3.932204491152717
 20
5.483121216465747
 30
0.0
 10
3.947021093220129
 20
5.480299198796764
 30
0.0
 10
3.965718810670139
 20
5.469009782380453
 30
0.0
 10
3.984769112111266
 20
5.467952030407261
 30
0.0
 10
3.984769112111266
 20
5.467952030407261
 30
0.0
 10
3.98970797946707
 20
5.467952030407261
 30
0.0
 10
3.98970797946707
 20
5.467952030407261
 30
0.0
 10
3.98970797946707
 20
5.467952030407261
 30
0.0
 10
3.994646846822874
 20
5.465482596729344
 30
0.0
 10
3.994646846822874
 20
5.465482596729344
 30
0.0
 10
4.013343218532483
 20
5.462660579060383
 30
0.0
 10
4.035215537642542
 20
5.459838561391407
 30
0.0
 10
4.054265839083612
 20
5.458074295695638
 30
0.0
 10
4.054265839083612
 20
5.458074295695638
 30
0.0
 10
4.074373892497916
 20
5.458074295695638
 30
0.0
 10
4.074373892497916
 20
5.458074295695638
 30
0.0
  0
POLYLINE
  5
85E
330
6CB
100
AcDbEntity
  8
Livello 1
100
AcDb2dPolyline
 66
     1
 10
0.0
 20
0.0
 30
0.0
  0
VERTEX
  5
85F
330
85E
100
AcDbEntity
  8
Livello 1
100
AcDbVertex
100
AcDb2dVertex
 10
4.315850862686303
 20
5.497902829282146
 30
0.0
  0
VERTEX
  5
860
330
85E
100
AcDbEntity
  8
Livello 1
100
AcDbVertex
100
AcDb2dVertex
 10
4.315850862686303
 20
5.831631651271052
 30
0.0
  0
SEQEND
  5
861
330
85E
100
AcDbEntity
  8
Livello 1
  0
POLYLINE
  5
862
330
6CB
100
AcDbEntity
  8
Livello 1
100
AcDb2dPolyline
 66
     1
 10
0.0
 20
0.0
 30
0.0
  0
VERTEX
  5
863
330
862
100
AcDbEntity
  8
Livello 1
100
AcDbVertex
100
AcDb2dVertex
 10
4.315850862686303
 20
5.62003415571511
 30
0.0
  0
VERTEX
  5
864
330
862
100
AcDbEntity
  8
Livello 1
100
AcDbVertex
100
AcDb2dVertex
 10
4.897228220447729
 20
5.62003415571511
 30
0.0
  0
SEQEND
  5
865
330
862
100
AcDbEntity
  8
Livello 1
  0
POLYLINE
  5
866
330
6CB
100
AcDbEntity
  8
Livello 1
100
AcDb2dPolyline
 66
     1
 10
0.0
 20
0.0
 30
0.0
  0
VERTEX
  5
867
330
866
100
AcDbEntity
  8
Livello 1
100
AcDbVertex
100
AcDb2dVertex
 10
4.315850862686303
 20
7.18848385387713
 30
0.0
  0
VERTEX
  5
868
330
866
100
AcDbEntity
  8
Livello 1
100
AcDbVertex
100
AcDb2dVertex
 10
4.897228220447729
 20
7.18848385387713
 30
0.0
  0
SEQEND
  5
869
330
866
100
AcDbEntity
  8
Livello 1
  0
POLYLINE
  5
86A
330
6CB
100
AcDbEntity
  8
Livello 1
100
AcDb2dPolyline
 66
     1
 10
0.0
 20
0.0
 30
0.0
  0
VERTEX
  5
86B
330
86A
100
AcDbEntity
  8
Livello 1
100
AcDbVertex
100
AcDb2dVertex
 10
13.16231777263833
 20
6.988353412473443
 30
0.0
  0
VERTEX
  5
86C
330
86A
100
AcDbEntity
  8
Livello 1
100
AcDbVertex
100
AcDb2dVertex
 10
13.16231777263833
 20
7.014105501225685
 30
0.0
  0
SEQEND
  5
86D
330
86A
100
AcDbEntity
  8
Livello 1
  0
POLYLINE
  5
86E
330
6CB
100
AcDbEntity
  8
Livello 1
100
AcDb2dPolyline
 66
     1
 10
0.0
 20
0.0
 30
0.0
  0
VERTEX
  5
86F
330
86E
100
AcDbEntity
  8
Livello 1
100
AcDbVertex
100
AcDb2dVertex
 10
13.16231777263833
 20
5.760297988620024
 30
0.0
  0
VERTEX
  5
870
330
86E
100
AcDbEntity
  8
Livello 1
100
AcDbVertex
100
AcDb2dVertex
 10
13.16231777263833
 20
5.786050077372273
 30
0.0
  0
SEQEND
  5
871
330
86E
100
AcDbEntity
  8
Livello 1
  0
POLYLINE
  5
872
330
6CB
100
AcDbEntity
  8
Livello 1
100
AcDb2dPolyline
 66
     1
 10
0.0
 20
0.0
 30
0.0
  0
VERTEX
  5
873
330
872
100
AcDbEntity
  8
Livello 1
100
AcDbVertex
100
AcDb2dVertex
 10
13.15974337120734
 20
5.742306784892562
 30
0.0
  0
VERTEX
  5
874
330
872
100
AcDbEntity
  8
Livello 1
100
AcDbVertex
100
AcDb2dVertex
 10
13.16221280488524
 20
5.760297988620024
 30
0.0
  0
SEQEND
  5
875
330
872
100
AcDbEntity
  8
Livello 1
  0
POLYLINE
  5
876
330
6CB
100
AcDbEntity
  8
Livello 1
100
AcDb2dPolyline
 66
     1
 10
0.0
 20
0.0
 30
0.0
  0
VERTEX
  5
877
330
876
100
AcDbEntity
  8
Livello 1
100
AcDbVertex
100
AcDb2dVertex
 10
13.07239539751161
 20
7.756526269777872
 30
0.0
  0
VERTEX
  5
878
330
876
100
AcDbEntity
  8
Livello 1
100
AcDbVertex
100
AcDb2dVertex
 10
13.07239539751161
 20
7.738533720309995
 30
0.0
  0
VERTEX
  5
879
330
876
100
AcDbEntity
  8
Livello 1
100
AcDbVertex
100
AcDb2dVertex
 10
13.07486483118951
 20
7.730772835285208
 30
0.0
  0
SEQEND
  5
87A
330
876
100
AcDbEntity
  8
Livello 1
  0
SPLINE
  5
87B
330
6CB
100
AcDbEntity
  8
Livello 1
100
AcDbSpline
210
0.0
220
0.0
230
1.0
 70
     8
 71
     3
 72
    14
 73
    10
 74
     0
 42
0.000000001
 43
0.0000000001
 40
0.0
 40
0.0
 40
0.0
 40
0.0
 40
1.0
 40
1.0
 40
1.0
 40
2.0
 40
2.0
 40
2.0
 40
3.0
 40
3.0
 40
3.0
 40
3.0
 10
7.779952239943256
 20
6.387184250297345
 30
0.0
 10
7.779952239943256
 20
6.387184250297345
 30
0.0
 10
7.775012026847022
 20
6.430927542777041
 30
0.0
 10
7.775012026847022
 20
6.430927542777041
 30
0.0
 10
7.721037069924207
 20
6.672228220969898
 30
0.0
 10
7.386604425693562
 20
6.671523052987758
 30
0.0
 10
7.332982052761835
 20
6.430927542777041
 30
0.0
 10
7.332982052761835
 20
6.430927542777041
 30
0.0
 10
7.327690601414943
 20
6.387184250297345
 30
0.0
 10
7.327690601414943
 20
6.387184250297345
 30
0.0
  0
SPLINE
  5
87C
330
6CB
100
AcDbEntity
  8
Livello 1
100
AcDbSpline
210
0.0
220
0.0
230
1.0
 70
     8
 71
     3
 72
    14
 73
    10
 74
     0
 42
0.000000001
 43
0.0000000001
 40
0.0
 40
0.0
 40
0.0
 40
0.0
 40
1.0
 40
1.0
 40
1.0
 40
2.0
 40
2.0
 40
2.0
 40
3.0
 40
3.0
 40
3.0
 40
3.0
 10
7.779952239943256
 20
6.387184250297345
 30
0.0
 10
7.779952239943256
 20
6.387184250297345
 30
0.0
 10
7.775012026847022
 20
6.343439612077212
 30
0.0
 10
7.775012026847022
 20
6.343439612077212
 30
0.0
 10
7.721390999655696
 20
6.100374668188599
 30
0.0
 10
7.385192743988866
 20
6.103198031597997
 30
0.0
 10
7.332982052761835
 20
6.343439612077212
 30
0.0
 10
7.332982052761835
 20
6.343439612077212
 30
0.0
 10
7.327690601414943
 20
6.387184250297345
 30
0.0
 10
7.327690601414943
 20
6.387184250297345
 30
0.0
  0
POLYLINE
  5
87D
330
6CB
100
AcDbEntity
  8
Livello 1
100
AcDb2dPolyline
 66
     1
 10
0.0
 20
0.0
 30
0.0
  0
VERTEX
  5
87E
330
87D
100
AcDbEntity
  8
Livello 1
100
AcDbVertex
100
AcDb2dVertex
 10
13.09814748626384
 20
7.56641486583031
 30
0.0
  0
VERTEX
  5
87F
330
87D
100
AcDbEntity
  8
Livello 1
100
AcDbVertex
100
AcDb2dVertex
 10
13.09814748626384
 20
7.56112206874301
 30
0.0
  0
SEQEND
  5
880
330
87D
100
AcDbEntity
  8
Livello 1
  0
SPLINE
  5
881
330
6CB
100
AcDbEntity
  8
Livello 1
100
AcDbSpline
210
0.0
220
0.0
230
1.0
 70
     8
 71
     3
 72
    14
 73
    10
 74
     0
 42
0.000000001
 43
0.0000000001
 40
0.0
 40
0.0
 40
0.0
 40
0.0
 40
1.0
 40
1.0
 40
1.0
 40
2.0
 40
2.0
 40
2.0
 40
3.0
 40
3.0
 40
3.0
 40
3.0
 10
13.08015628253638
 20
7.676869202604855
 30
0.0
 10
13.08015628253638
 20
7.676869202604855
 30
0.0
 10
13.08262571621428
 20
7.664168104483856
 30
0.0
 10
13.08262571621428
 20
7.664168104483856
 30
0.0
 10
13.08932750352544
 20
7.633124564384736
 30
0.0
 10
13.0921495211944
 20
7.610193147561027
 30
0.0
 10
13.09567805258594
 20
7.579149607461921
 30
0.0
 10
13.09567805258594
 20
7.579149607461921
 30
0.0
 10
13.09814748626384
 20
7.566448509340915
 30
0.0
 10
13.09814748626384
 20
7.566448509340915
 30
0.0
  0
POLYLINE
  5
882
330
6CB
100
AcDbEntity
  8
Livello 1
100
AcDb2dPolyline
 66
     1
 10
0.0
 20
0.0
 30
0.0
  0
VERTEX
  5
883
330
882
100
AcDbEntity
  8
Livello 1
100
AcDbVertex
100
AcDb2dVertex
 10
13.11614003573173
 20
5.785980098870219
 30
0.0
  0
VERTEX
  5
884
330
882
100
AcDbEntity
  8
Livello 1
100
AcDbVertex
100
AcDb2dVertex
 10
13.10590837128863
 20
5.785980098870219
 30
0.0
  0
SEQEND
  5
885
330
882
100
AcDbEntity
  8
Livello 1
  0
SPLINE
  5
886
330
6CB
100
AcDbEntity
  8
Livello 1
100
AcDbSpline
210
0.0
220
0.0
230
1.0
 70
     8
 71
     3
 72
    35
 73
    31
 74
     0
 42
0.000000001
 43
0.0000000001
 40
0.0
 40
0.0
 40
0.0
 40
0.0
 40
1.0
 40
1.0
 40
1.0
 40
2.0
 40
2.0
 40
2.0
 40
3.0
 40
3.0
 40
3.0
 40
4.0
 40
4.0
 40
4.0
 40
5.0
 40
5.0
 40
5.0
 40
6.0
 40
6.0
 40
6.0
 40
7.0
 40
7.0
 40
7.0
 40
8.0
 40
8.0
 40
8.0
 40
9.0
 40
9.0
 40
9.0
 40
10.0
 40
10.0
 40
10.0
 40
10.0
 10
13.15981334970938
 20
5.742306784892562
 30
0.0
 10
13.15981334970938
 20
5.742306784892562
 30
0.0
 10
13.14958168526628
 20
5.647409207418604
 30
0.0
 10
13.14958168526628
 20
5.647409207418604
 30
0.0
 10
13.14958168526628
 20
5.647409207418604
 30
0.0
 10
13.13935136656361
 20
5.549689612275649
 30
0.0
 10
13.13935136656361
 20
5.549689612275649
 30
0.0
 10
13.13935136656361
 20
5.549689612275649
 30
0.0
 10
13.12876846386986
 20
5.454439450810603
 30
0.0
 10
13.12876846386986
 20
5.454439450810603
 30
0.0
 10
13.12876846386986
 20
5.454439450810603
 30
0.0
 10
13.11606871148926
 20
5.359541873336638
 30
0.0
 10
13.11606871148926
 20
5.359541873336638
 30
0.0
 10
13.11606871148926
 20
5.359541873336638
 30
0.0
 10
13.10336761336826
 20
5.261822278193704
 30
0.0
 10
13.10336761336826
 20
5.261822278193704
 30
0.0
 10
13.10336761336826
 20
5.261822278193704
 30
0.0
 10
13.10054559569927
 20
5.236070189441463
 30
0.0
 10
13.10054559569927
 20
5.236070189441463
 30
0.0
 10
13.10054559569927
 20
5.236070189441463
 30
0.0
 10
13.10336761336826
 20
5.231131322085651
 30
0.0
 10
13.10336761336826
 20
5.231131322085651
 30
0.0
 10
13.10336761336826
 20
5.231131322085651
 30
0.0
 10
13.10054559569927
 20
5.215609552036099
 30
0.0
 10
13.10054559569927
 20
5.215609552036099
 30
0.0
 10
13.09525414435241
 20
5.182447816509714
 30
0.0
 10
13.0903152769966
 20
5.148933496992277
 30
0.0
 10
13.0853764096408
 20
5.115420523215249
 30
0.0
 10
13.0853764096408
 20
5.115420523215249
 30
0.0
 10
13.08008495829391
 20
5.099897407425274
 30
0.0
 10
13.08008495829391
 20
5.099897407425274
 30
0.0
  0
POLYLINE
  5
887
330
6CB
100
AcDbEntity
  8
Livello 1
100
AcDb2dPolyline
 66
     1
 10
0.0
 20
0.0
 30
0.0
  0
VERTEX
  5
888
330
887
100
AcDbEntity
  8
Livello 1
100
AcDbVertex
100
AcDb2dVertex
 10
6.996432558844375
 20
6.970360863005545
 30
0.0
  0
VERTEX
  5
889
330
887
100
AcDbEntity
  8
Livello 1
100
AcDbVertex
100
AcDb2dVertex
 10
13.16228278338728
 20
7.021159872527896
 30
0.0
  0
SEQEND
  5
88A
330
887
100
AcDbEntity
  8
Livello 1
  0
POLYLINE
  5
88B
330
6CB
100
AcDbEntity
  8
Livello 1
100
AcDb2dPolyline
 66
     1
 10
0.0
 20
0.0
 30
0.0
  0
VERTEX
  5
88C
330
88B
100
AcDbEntity
  8
Livello 1
100
AcDbVertex
100
AcDb2dVertex
 10
7.004158454618121
 20
5.785980098870219
 30
0.0
  0
VERTEX
  5
88D
330
88B
100
AcDbEntity
  8
Livello 1
100
AcDbVertex
100
AcDb2dVertex
 10
7.004158454618121
 20
5.780687301782926
 30
0.0
  0
VERTEX
  5
88E
330
88B
100
AcDbEntity
  8
Livello 1
100
AcDbVertex
100
AcDb2dVertex
 10
7.004158454618121
 20
5.74752691199697
 30
0.0
  0
VERTEX
  5
88F
330
88B
100
AcDbEntity
  8
Livello 1
100
AcDbVertex
100
AcDb2dVertex
 10
7.004158454618121
 20
5.742235460650093
 30
0.0
  0
SEQEND
  5
890
330
88B
100
AcDbEntity
  8
Livello 1
  0
POLYLINE
  5
891
330
6CB
100
AcDbEntity
  8
Livello 1
100
AcDb2dPolyline
 66
     1
 10
0.0
 20
0.0
 30
0.0
  0
VERTEX
  5
892
330
891
100
AcDbEntity
  8
Livello 1
100
AcDbVertex
100
AcDb2dVertex
 10
7.004158454618121
 20
5.785980098870219
 30
0.0
  0
VERTEX
  5
893
330
891
100
AcDbEntity
  8
Livello 1
100
AcDbVertex
100
AcDb2dVertex
 10
13.11109485488244
 20
5.785980098870219
 30
0.0
  0
SEQEND
  5
894
330
891
100
AcDbEntity
  8
Livello 1
  0
POLYLINE
  5
895
330
6CB
100
AcDbEntity
  8
Livello 1
100
AcDb2dPolyline
 66
     1
 10
0.0
 20
0.0
 30
0.0
  0
VERTEX
  5
896
330
895
100
AcDbEntity
  8
Livello 1
100
AcDbVertex
100
AcDb2dVertex
 10
7.004158454618121
 20
7.0320267264511
 30
0.0
  0
VERTEX
  5
897
330
895
100
AcDbEntity
  8
Livello 1
100
AcDbVertex
100
AcDb2dVertex
 10
7.004158454618121
 20
7.024264495685905
 30
0.0
  0
VERTEX
  5
898
330
895
100
AcDbEntity
  8
Livello 1
100
AcDbVertex
100
AcDb2dVertex
 10
7.004158454618121
 20
6.990751521908883
 30
0.0
  0
VERTEX
  5
899
330
895
100
AcDbEntity
  8
Livello 1
100
AcDbVertex
100
AcDb2dVertex
 10
7.004158454618121
 20
6.988282088230967
 30
0.0
  0
SEQEND
  5
89A
330
895
100
AcDbEntity
  8
Livello 1
  0
POLYLINE
  5
89B
330
6CB
100
AcDbEntity
  8
Livello 1
100
AcDb2dPolyline
 66
     1
 10
0.0
 20
0.0
 30
0.0
  0
VERTEX
  5
89C
330
89B
100
AcDbEntity
  8
Livello 1
100
AcDbVertex
100
AcDb2dVertex
 10
13.08015628253638
 20
5.100038710169783
 30
0.0
  0
VERTEX
  5
89D
330
89B
100
AcDbEntity
  8
Livello 1
100
AcDbVertex
100
AcDb2dVertex
 10
13.07768550311805
 20
5.087337612048763
 30
0.0
  0
VERTEX
  5
89E
330
89B
100
AcDbEntity
  8
Livello 1
100
AcDbVertex
100
AcDb2dVertex
 10
13.07239405177118
 20
5.089807045726672
 30
0.0
  0
SEQEND
  5
89F
330
89B
100
AcDbEntity
  8
Livello 1
  0
POLYLINE
  5
8A0
330
6CB
100
AcDbEntity
  8
Livello 1
100
AcDb2dPolyline
 66
     1
 10
0.0
 20
0.0
 30
0.0
  0
VERTEX
  5
8A1
330
8A0
100
AcDbEntity
  8
Livello 1
100
AcDbVertex
100
AcDb2dVertex
 10
7.004158454618121
 20
5.742306784892562
 30
0.0
  0
VERTEX
  5
8A2
330
8A0
100
AcDbEntity
  8
Livello 1
100
AcDbVertex
100
AcDb2dVertex
 10
7.004158454618121
 20
4.951731386751042
 30
0.0
  0
SEQEND
  5
8A3
330
8A0
100
AcDbEntity
  8
Livello 1
  0
POLYLINE
  5
8A4
330
6CB
100
AcDbEntity
  8
Livello 1
100
AcDb2dPolyline
 66
     1
 10
0.0
 20
0.0
 30
0.0
  0
VERTEX
  5
8A5
330
8A4
100
AcDbEntity
  8
Livello 1
100
AcDbVertex
100
AcDb2dVertex
 10
13.10068824418421
 20
5.785980098870219
 30
0.0
  0
VERTEX
  5
8A6
330
8A4
100
AcDbEntity
  8
Livello 1
100
AcDbVertex
100
AcDb2dVertex
 10
13.1059796955311
 20
5.785980098870219
 30
0.0
  0
SEQEND
  5
8A7
330
8A4
100
AcDbEntity
  8
Livello 1
  0
POLYLINE
  5
8A8
330
6CB
100
AcDbEntity
  8
Livello 1
100
AcDb2dPolyline
 66
     1
 10
0.0
 20
0.0
 30
0.0
  0
VERTEX
  5
8A9
330
8A8
100
AcDbEntity
  8
Livello 1
100
AcDbVertex
100
AcDb2dVertex
 10
7.004158454618121
 20
6.988353412473443
 30
0.0
  0
VERTEX
  5
8AA
330
8A8
100
AcDbEntity
  8
Livello 1
100
AcDbVertex
100
AcDb2dVertex
 10
7.004158454618121
 20
5.786086412363715
 30
0.0
  0
SEQEND
  5
8AB
330
8A8
100
AcDbEntity
  8
Livello 1
  0
POLYLINE
  5
8AC
330
6CB
100
AcDbEntity
  8
Livello 1
100
AcDb2dPolyline
 66
     1
 10
0.0
 20
0.0
 30
0.0
  0
VERTEX
  5
8AD
330
8AC
100
AcDbEntity
  8
Livello 1
100
AcDbVertex
100
AcDb2dVertex
 10
13.1623890968808
 20
6.988353412473443
 30
0.0
  0
VERTEX
  5
8AE
330
8AC
100
AcDbEntity
  8
Livello 1
100
AcDbVertex
100
AcDb2dVertex
 10
13.15709629979348
 20
6.988353412473443
 30
0.0
  0
SEQEND
  5
8AF
330
8AC
100
AcDbEntity
  8
Livello 1
  0
SPLINE
  5
8B0
330
6CB
100
AcDbEntity
  8
Livello 1
100
AcDbSpline
210
0.0
220
0.0
230
1.0
 70
     8
 71
     3
 72
    14
 73
    10
 74
     0
 42
0.000000001
 43
0.0000000001
 40
0.0
 40
0.0
 40
0.0
 40
0.0
 40
1.0
 40
1.0
 40
1.0
 40
2.0
 40
2.0
 40
2.0
 40
3.0
 40
3.0
 40
3.0
 40
3.0
 10
13.1623890968808
 20
5.785980098870219
 30
0.0
 10
13.1623890968808
 20
5.785980098870219
 30
0.0
 10
13.1673279642366
 20
5.883698348272744
 30
0.0
 10
13.1673279642366
 20
5.883698348272744
 30
0.0
 10
13.18955286733772
 20
6.238945559640235
 30
0.0
 10
13.18919893760623
 20
6.592077267061291
 30
0.0
 10
13.1648585305587
 20
6.947324478428797
 30
0.0
 10
13.1648585305587
 20
6.947324478428797
 30
0.0
 10
13.15991831746247
 20
6.988245753239517
 30
0.0
 10
13.15991831746247
 20
6.988245753239517
 30
0.0
  0
POLYLINE
  5
8B1
330
6CB
100
AcDbEntity
  8
Livello 1
100
AcDb2dPolyline
 66
     1
 10
0.0
 20
0.0
 30
0.0
  0
VERTEX
  5
8B2
330
8B1
100
AcDbEntity
  8
Livello 1
100
AcDbVertex
100
AcDb2dVertex
 10
13.15720261328697
 20
5.785980098870219
 30
0.0
  0
VERTEX
  5
8B3
330
8B1
100
AcDbEntity
  8
Livello 1
100
AcDbVertex
100
AcDb2dVertex
 10
13.16249406463386
 20
5.785980098870219
 30
0.0
  0
SEQEND
  5
8B4
330
8B1
100
AcDbEntity
  8
Livello 1
  0
POLYLINE
  5
8B5
330
6CB
100
AcDbEntity
  8
Livello 1
100
AcDb2dPolyline
 66
     1
 10
0.0
 20
0.0
 30
0.0
  0
VERTEX
  5
8B6
330
8B5
100
AcDbEntity
  8
Livello 1
100
AcDbVertex
100
AcDb2dVertex
 10
13.11614003573173
 20
5.785980098870219
 30
0.0
  0
VERTEX
  5
8B7
330
8B5
100
AcDbEntity
  8
Livello 1
100
AcDbVertex
100
AcDb2dVertex
 10
13.15706131054246
 20
5.785980098870219
 30
0.0
  0
SEQEND
  5
8B8
330
8B5
100
AcDbEntity
  8
Livello 1
  0
POLYLINE
  5
8B9
330
6CB
100
AcDbEntity
  8
Livello 1
100
AcDb2dPolyline
 66
     1
 10
0.0
 20
0.0
 30
0.0
  0
VERTEX
  5
8BA
330
8B9
100
AcDbEntity
  8
Livello 1
100
AcDbVertex
100
AcDb2dVertex
 10
13.1623890968808
 20
6.988353412473443
 30
0.0
  0
VERTEX
  5
8BB
330
8B9
100
AcDbEntity
  8
Livello 1
100
AcDbVertex
100
AcDb2dVertex
 10
13.1623890968808
 20
7.014105501225685
 30
0.0
  0
SEQEND
  5
8BC
330
8B9
100
AcDbEntity
  8
Livello 1
  0
POLYLINE
  5
8BD
330
6CB
100
AcDbEntity
  8
Livello 1
100
AcDb2dPolyline
 66
     1
 10
0.0
 20
0.0
 30
0.0
  0
VERTEX
  5
8BE
330
8BD
100
AcDbEntity
  8
Livello 1
100
AcDbVertex
100
AcDb2dVertex
 10
13.1623890968808
 20
5.760297988620024
 30
0.0
  0
VERTEX
  5
8BF
330
8BD
100
AcDbEntity
  8
Livello 1
100
AcDbVertex
100
AcDb2dVertex
 10
13.1623890968808
 20
5.786050077372273
 30
0.0
  0
SEQEND
  5
8C0
330
8BD
100
AcDbEntity
  8
Livello 1
  0
POLYLINE
  5
8C1
330
6CB
100
AcDbEntity
  8
Livello 1
100
AcDb2dPolyline
 66
     1
 10
0.0
 20
0.0
 30
0.0
  0
VERTEX
  5
8C2
330
8C1
100
AcDbEntity
  8
Livello 1
100
AcDbVertex
100
AcDb2dVertex
 10
13.15981334970938
 20
5.742306784892562
 30
0.0
  0
VERTEX
  5
8C3
330
8C1
100
AcDbEntity
  8
Livello 1
100
AcDbVertex
100
AcDb2dVertex
 10
13.14958168526628
 20
5.647409207418604
 30
0.0
  0
VERTEX
  5
8C4
330
8C1
100
AcDbEntity
  8
Livello 1
100
AcDbVertex
100
AcDb2dVertex
 10
13.13935136656361
 20
5.549689612275649
 30
0.0
  0
VERTEX
  5
8C5
330
8C1
100
AcDbEntity
  8
Livello 1
100
AcDbVertex
100
AcDb2dVertex
 10
13.12876846386986
 20
5.454439450810603
 30
0.0
  0
VERTEX
  5
8C6
330
8C1
100
AcDbEntity
  8
Livello 1
100
AcDbVertex
100
AcDb2dVertex
 10
13.11606871148926
 20
5.359541873336638
 30
0.0
  0
VERTEX
  5
8C7
330
8C1
100
AcDbEntity
  8
Livello 1
100
AcDbVertex
100
AcDb2dVertex
 10
13.10336761336826
 20
5.261822278193704
 30
0.0
  0
VERTEX
  5
8C8
330
8C1
100
AcDbEntity
  8
Livello 1
100
AcDbVertex
100
AcDb2dVertex
 10
13.10054559569927
 20
5.233600755763553
 30
0.0
  0
SEQEND
  5
8C9
330
8C1
100
AcDbEntity
  8
Livello 1
  0
POLYLINE
  5
8CA
330
6CB
100
AcDbEntity
  8
Livello 1
100
AcDb2dPolyline
 66
     1
 10
0.0
 20
0.0
 30
0.0
  0
VERTEX
  5
8CB
330
8CA
100
AcDbEntity
  8
Livello 1
100
AcDbVertex
100
AcDb2dVertex
 10
13.10068824418421
 20
5.210529381935771
 30
0.0
  0
VERTEX
  5
8CC
330
8CA
100
AcDbEntity
  8
Livello 1
100
AcDbVertex
100
AcDb2dVertex
 10
13.10315767786211
 20
5.230990019341135
 30
0.0
  0
SEQEND
  5
8CD
330
8CA
100
AcDbEntity
  8
Livello 1
  0
SPLINE
  5
8CE
330
6CB
100
AcDbEntity
  8
Livello 1
100
AcDbSpline
210
0.0
220
0.0
230
1.0
 70
     8
 71
     3
 72
    14
 73
    10
 74
     0
 42
0.000000001
 43
0.0000000001
 40
0.0
 40
0.0
 40
0.0
 40
0.0
 40
1.0
 40
1.0
 40
1.0
 40
2.0
 40
2.0
 40
2.0
 40
3.0
 40
3.0
 40
3.0
 40
3.0
 10
12.95425015421431
 20
7.856715298598707
 30
0.0
 10
12.95425015421431
 20
7.856715298598707
 30
0.0
 10
12.97471079161967
 20
7.854244519180397
 30
0.0
 10
12.97471079161967
 20
7.854244519180397
 30
0.0
 10
13.01845542983982
 20
7.84577846617347
 30
0.0
 10
13.05020548366149
 20
7.817909527734386
 30
0.0
 10
13.06713893541574
 20
7.776986907183236
 30
0.0
 10
13.06713893541574
 20
7.776986907183236
 30
0.0
 10
13.07243038676263
 20
7.756526269777872
 30
0.0
 10
13.07243038676263
 20
7.756526269777872
 30
0.0
  0
POLYLINE
  5
8CF
330
6CB
100
AcDbEntity
  8
Livello 1
100
AcDb2dPolyline
 66
     1
 10
0.0
 20
0.0
 30
0.0
  0
VERTEX
  5
8D0
330
8CF
100
AcDbEntity
  8
Livello 1
100
AcDbVertex
100
AcDb2dVertex
 10
13.074971144683
 20
7.73080917027665
 30
0.0
  0
VERTEX
  5
8D1
330
8CF
100
AcDbEntity
  8
Livello 1
100
AcDbVertex
100
AcDb2dVertex
 10
13.074971144683
 20
7.712816620808759
 30
0.0
  0
VERTEX
  5
8D2
330
8CF
100
AcDbEntity
  8
Livello 1
100
AcDbVertex
100
AcDb2dVertex
 10
13.08026259602987
 20
7.676832867613413
 30
0.0
  0
SEQEND
  5
8D3
330
8CF
100
AcDbEntity
  8
Livello 1
  0
POLYLINE
  5
8D4
330
6CB
100
AcDbEntity
  8
Livello 1
100
AcDb2dPolyline
 66
     1
 10
0.0
 20
0.0
 30
0.0
  0
VERTEX
  5
8D5
330
8D4
100
AcDbEntity
  8
Livello 1
100
AcDbVertex
100
AcDb2dVertex
 10
13.16623387727195
 20
6.991493024882458
 30
0.0
  0
VERTEX
  5
8D6
330
8D4
100
AcDbEntity
  8
Livello 1
100
AcDbVertex
100
AcDb2dVertex
 10
13.10061691994174
 20
7.563697815914395
 30
0.0
  0
SEQEND
  5
8D7
330
8D4
100
AcDbEntity
  8
Livello 1
  0
POLYLINE
  5
8D8
330
6CB
100
AcDbEntity
  8
Livello 1
100
AcDb2dPolyline
 66
     1
 10
0.0
 20
0.0
 30
0.0
  0
VERTEX
  5
8D9
330
8D8
100
AcDbEntity
  8
Livello 1
100
AcDbVertex
100
AcDb2dVertex
 10
12.96451546216802
 20
7.856715298598707
 30
0.0
  0
VERTEX
  5
8DA
330
8D8
100
AcDbEntity
  8
Livello 1
100
AcDbVertex
100
AcDb2dVertex
 10
7.00433474661365
 20
7.856715298598707
 30
0.0
  0
VERTEX
  5
8DB
330
8D8
100
AcDbEntity
  8
Livello 1
100
AcDbVertex
100
AcDb2dVertex
 10
7.003982162622591
 20
7.473950387042798
 30
0.0
  0
VERTEX
  5
8DC
330
8D8
100
AcDbEntity
  8
Livello 1
100
AcDbVertex
100
AcDb2dVertex
 10
7.003982162622591
 20
7.03192041295761
 30
0.0
  0
SEQEND
  5
8DD
330
8D8
100
AcDbEntity
  8
Livello 1
  0
SPLINE
  5
8DE
330
6CB
100
AcDbEntity
  8
Livello 1
100
AcDbSpline
210
0.0
220
0.0
230
1.0
 70
     8
 71
     3
 72
    14
 73
    10
 74
     0
 42
0.000000001
 43
0.0000000001
 40
0.0
 40
0.0
 40
0.0
 40
0.0
 40
1.0
 40
1.0
 40
1.0
 40
2.0
 40
2.0
 40
2.0
 40
3.0
 40
3.0
 40
3.0
 40
3.0
 10
6.996432558844375
 20
4.917653201995968
 30
0.0
 10
6.996432558844375
 20
4.917653201995968
 30
0.0
 10
12.95414384072084
 20
4.917653201995968
 30
0.0
 10
12.95414384072084
 20
4.917653201995968
 30
0.0
 10
12.95414384072084
 20
4.917653201995968
 30
0.0
 10
12.99859364692308
 20
4.926119255002895
 30
0.0
 10
13.07761552461603
 20
5.087338957789185
 30
0.0
 10
13.07761552461603
 20
5.087338957789185
 30
0.0
 10
13.06491577223544
 20
5.053824638271741
 30
0.0
 10
13.06491577223544
 20
5.053824638271741
 30
0.0
  0
SPLINE
  5
8DF
330
6CB
100
AcDbEntity
  8
Livello 1
 62
     1
370
    50
100
AcDbSpline
210
0.0
220
0.0
230
1.0
 70
    27
 71
     3
 72
    11
 73
     7
 74
     0
 42
0.000000001
 43
0.0000000001
 40
0.0
 40
0.0
 40
0.0
 40
0.0
 40
1.0
 40
1.0
 40
1.0
 40
2.0
 40
2.0
 40
2.0
 40
2.0
 10
2.823494711054721
 20
5.935876741729622
 30
0.0
 10
2.823494711054721
 20
5.935876741729622
 30
0.0
 10
13.15706131054246
 20
5.935876741729622
 30
0.0
 10
13.15706131054246
 20
5.935876741729622
 30
0.0
 10
13.15706131054246
 20
5.935876741729622
 30
0.0
 10
2.823494711054721
 20
5.935876741729622
 30
0.0
 10
2.823494711054721
 20
5.935876741729622
 30
0.0
  0
HATCH
  5
8E0
330
6CB
100
AcDbEntity
  8
Livello 1
 62
     1
370
    50
100
AcDbHatch
 10
0.0
 20
0.0
 30
0.0
210
0.0
220
0.0
230
1.0
  2
SOLID
 70
     1
 71
     0
 91
        1
 92
        1
 93
        1
 72
     4
 94
        3
 73
     0
 74
     0
 95
       11
 96
        7
 40
0.0
 40
0.0
 40
0.0
 40
0.0
 40
1.0
 40
1.0
 40
1.0
 40
2.0
 40
2.0
 40
2.0
 40
2.0
 10
2.823494711054721
 20
5.935876741729622
 10
2.823494711054721
 20
5.935876741729622
 10
13.15706131054246
 20
5.935876741729622
 10
13.15706131054246
 20
5.935876741729622
 10
13.15706131054246
 20
5.935876741729622
 10
2.823494711054721
 20
5.935876741729622
 10
2.823494711054721
 20
5.935876741729622
 97
        0
 97
        0
 75
     2
 76
     1
 98
        0
450
        0
451
        0
460
0.0
461
0.0
452
        0
462
0.0
453
        0
470

  0
POLYLINE
  5
8E1
330
6CB
100
AcDbEntity
  8
Livello 1
 62
     1
370
    50
100
AcDb2dPolyline
 66
     1
 10
0.0
 20
0.0
 30
0.0
  0
VERTEX
  5
8E2
330
8E1
100
AcDbEntity
  8
Livello 1
 62
     1
370
    50
100
AcDbVertex
100
AcDb2dVertex
 10
2.82335475405064
 20
5.935911730980635
 30
0.0
  0
VERTEX
  5
8E3
330
8E1
100
AcDbEntity
  8
Livello 1
 62
     1
370
    50
100
AcDbVertex
100
AcDb2dVertex
 10
13.15727393752944
 20
5.935911730980635
 30
0.0
  0
SEQEND
  5
8E4
330
8E1
100
AcDbEntity
  8
Livello 1
 62
     1
370
    50
  0
ENDBLK
  5
8E8
330
6CB
100
AcDbEntity
  8
0
100
AcDbBlockEnd
  0
ENDSEC
  0
SECTION
  2
ENTITIES
  0
POLYLINE
  5
4B2
330
1F
100
AcDbEntity
  8
Livello 1
100
AcDb2dPolyline
 66
     1
 10
0.0
 20
0.0
 30
0.0
  0
VERTEX
  5
4B3
330
4B2
100
AcDbEntity
  8
Livello 1
100
AcDbVertex
100
AcDb2dVertex
 10
13.09720008500541
 20
3.839092044615199
 30
0.0
  0
VERTEX
  5
4B4
330
4B2
100
AcDbEntity
  8
Livello 1
100
AcDbVertex
100
AcDb2dVertex
 10
7.201929813058683
 20
3.839092044615199
 30
0.0
  0
SEQEND
  5
4B5
330
4B2
100
AcDbEntity
  8
Livello 1
  0
MTEXT
  5
4B6
330
1F
100
AcDbEntity
  8
Livello 1
100
AcDbMText
 10
6.223960060885502
 20
0.8678208429448517
 30
0.0
 40
1.998133332833799
 41
0.0
 46
0.0
 71
     7
 72
     1
  1
\fSource Sans Pro Light|b0|i0|c0|p34;\W1;89 mm
 73
     1
 44
1.0
  0
MTEXT
  5
4B7
330
1F
100
AcDbEntity
  8
Livello 1
100
AcDbMText
 10
0.3078698388402188
 20
5.251015828828222
 30
0.0
 40
2.123016666135912
 41
0.0
 46
0.0
 71
     7
 72
     1
  1
\fSource Sans Pro SemiBold|b0|i0|c0|p34;\W1;R
 73
     1
 44
1.0
  0
SPLINE
  5
4B8
330
1F
100
AcDbEntity
  8
Livello 1
100
AcDbSpline
210
0.0
220
0.0
230
1.0
 70
     8
 71
     3
 72
    14
 73
    10
 74
     0
 42
0.000000001
 43
0.0000000001
 40
0.0
 40
0.0
 40
0.0
 40
0.0
 40
1.0
 40
1.0
 40
1.0
 40
2.0
 40
2.0
 40
2.0
 40
3.0
 40
3.0
 40
3.0
 40
3.0
 10
6.883367485647411
 20
6.970360863005545
 30
0.0
 10
6.883367485647411
 20
6.970360863005545
 30
0.0
 10
6.875605254882216
 20
6.967890083587235
 30
0.0
 10
6.875605254882216
 20
6.967890083587235
 30
0.0
 10
6.36866349144897
 20
6.740702185220094
 30
0.0
 10
6.372897190822627
 20
6.029501248762542
 30
0.0
 10
6.88089670622908
 20
5.806545704028664
 30
0.0
 10
6.88089670622908
 20
5.806545704028664
 30
0.0
 10
6.883367485647411
 20
5.804076270350755
 30
0.0
 10
6.883367485647411
 20
5.804076270350755
 30
0.0
  0
POLYLINE
  5
4B9
330
1F
100
AcDbEntity
  8
Livello 1
100
AcDb2dPolyline
 66
     1
 10
0.0
 20
0.0
 30
0.0
  0
VERTEX
  5
4BA
330
4B9
100
AcDbEntity
  8
Livello 1
100
AcDbVertex
100
AcDb2dVertex
 10
6.883367485647411
 20
5.801396901166718
 30
0.0
  0
VERTEX
  5
4BB
330
4B9
100
AcDbEntity
  8
Livello 1
100
AcDbVertex
100
AcDb2dVertex
 10
6.996608850839905
 20
5.801396901166718
 30
0.0
  0
SEQEND
  5
4BC
330
4B9
100
AcDbEntity
  8
Livello 1
  0
POLYLINE
  5
4BD
330
1F
100
AcDbEntity
  8
Livello 1
100
AcDb2dPolyline
 66
     1
 10
0.0
 20
0.0
 30
0.0
  0
VERTEX
  5
4BE
330
4BD
100
AcDbEntity
  8
Livello 1
100
AcDbVertex
100
AcDb2dVertex
 10
6.996432558844375
 20
6.970360863005545
 30
0.0
  0
VERTEX
  5
4BF
330
4BD
100
AcDbEntity
  8
Livello 1
100
AcDbVertex
100
AcDb2dVertex
 10
6.883189847911452
 20
6.970360863005545
 30
0.0
  0
SEQEND
  5
4C0
330
4BD
100
AcDbEntity
  8
Livello 1
  0
POLYLINE
  5
4C1
330
1F
100
AcDbEntity
  8
Livello 1
100
AcDb2dPolyline
 66
     1
 10
0.0
 20
0.0
 30
0.0
  0
VERTEX
  5
4C2
330
4C1
100
AcDbEntity
  8
Livello 1
100
AcDbVertex
100
AcDb2dVertex
 10
4.897369523192239
 20
5.572868645337351
 30
0.0
  0
VERTEX
  5
4C3
330
4C1
100
AcDbEntity
  8
Livello 1
100
AcDbVertex
100
AcDb2dVertex
 10
4.897369523192239
 20
5.562638326634669
 30
0.0
  0
VERTEX
  5
4C4
330
4C1
100
AcDbEntity
  8
Livello 1
100
AcDbVertex
100
AcDb2dVertex
 10
4.897369523192239
 20
5.524186485501836
 30
0.0
  0
VERTEX
  5
4C5
330
4C1
100
AcDbEntity
  8
Livello 1
100
AcDbVertex
100
AcDb2dVertex
 10
4.897369523192239
 20
5.518893688414543
 30
0.0
  0
VERTEX
  5
4C6
330
4C1
100
AcDbEntity
  8
Livello 1
100
AcDbVertex
100
AcDb2dVertex
 10
6.996396223852926
 20
5.518893688414543
 30
0.0
  0
SEQEND
  5
4C7
330
4C1
100
AcDbEntity
  8
Livello 1
  0
POLYLINE
  5
4C8
330
1F
100
AcDbEntity
  8
Livello 1
100
AcDb2dPolyline
 66
     1
 10
0.0
 20
0.0
 30
0.0
  0
VERTEX
  5
4C9
330
4C8
100
AcDbEntity
  8
Livello 1
100
AcDbVertex
100
AcDb2dVertex
 10
4.89740585818366
 20
7.204253240164696
 30
0.0
  0
VERTEX
  5
4CA
330
4C8
100
AcDbEntity
  8
Livello 1
100
AcDbVertex
100
AcDb2dVertex
 10
4.89740585818366
 20
7.201783806486794
 30
0.0
  0
SEQEND
  5
4CB
330
4C8
100
AcDbEntity
  8
Livello 1
  0
POLYLINE
  5
4CC
330
1F
100
AcDbEntity
  8
Livello 1
100
AcDb2dPolyline
 66
     1
 10
0.0
 20
0.0
 30
0.0
  0
VERTEX
  5
4CD
330
4CC
100
AcDbEntity
  8
Livello 1
100
AcDbVertex
100
AcDb2dVertex
 10
4.89740585818366
 20
7.258193207836491
 30
0.0
  0
VERTEX
  5
4CE
330
4CC
100
AcDbEntity
  8
Livello 1
100
AcDbVertex
100
AcDb2dVertex
 10
4.89740585818366
 20
7.255723774158582
 30
0.0
  0
VERTEX
  5
4CF
330
4CC
100
AcDbEntity
  8
Livello 1
100
AcDbVertex
100
AcDb2dVertex
 10
4.89740585818366
 20
7.214449915356773
 30
0.0
  0
VERTEX
  5
4D0
330
4CC
100
AcDbEntity
  8
Livello 1
100
AcDbVertex
100
AcDb2dVertex
 10
4.89740585818366
 20
7.204218250913662
 30
0.0
  0
SEQEND
  5
4D1
330
4CC
100
AcDbEntity
  8
Livello 1
  0
POLYLINE
  5
4D2
330
1F
100
AcDbEntity
  8
Livello 1
100
AcDb2dPolyline
 66
     1
 10
0.0
 20
0.0
 30
0.0
  0
VERTEX
  5
4D3
330
4D2
100
AcDbEntity
  8
Livello 1
100
AcDbVertex
100
AcDb2dVertex
 10
6.996432558844375
 20
7.258193207836491
 30
0.0
  0
VERTEX
  5
4D4
330
4D2
100
AcDbEntity
  8
Livello 1
100
AcDbVertex
100
AcDb2dVertex
 10
4.897404512443259
 20
7.258193207836491
 30
0.0
  0
SEQEND
  5
4D5
330
4D2
100
AcDbEntity
  8
Livello 1
  0
POLYLINE
  5
4D6
330
1F
100
AcDbEntity
  8
Livello 1
100
AcDb2dPolyline
 66
     1
 10
0.0
 20
0.0
 30
0.0
  0
VERTEX
  5
4D7
330
4D6
100
AcDbEntity
  8
Livello 1
100
AcDbVertex
100
AcDb2dVertex
 10
4.897475836685728
 20
5.696164037237011
 30
0.0
  0
VERTEX
  5
4D8
330
4D6
100
AcDbEntity
  8
Livello 1
100
AcDbVertex
100
AcDb2dVertex
 10
4.897475836685728
 20
5.572692353341814
 30
0.0
  0
SEQEND
  5
4D9
330
4D6
100
AcDbEntity
  8
Livello 1
  0
POLYLINE
  5
4DA
330
1F
100
AcDbEntity
  8
Livello 1
100
AcDb2dPolyline
 66
     1
 10
0.0
 20
0.0
 30
0.0
  0
VERTEX
  5
4DB
330
4DA
100
AcDbEntity
  8
Livello 1
100
AcDbVertex
100
AcDb2dVertex
 10
4.897475836685728
 20
5.804078961831613
 30
0.0
  0
VERTEX
  5
4DC
330
4DA
100
AcDbEntity
  8
Livello 1
100
AcDbVertex
100
AcDb2dVertex
 10
4.897475836685728
 20
5.696129047985976
 30
0.0
  0
SEQEND
  5
4DD
330
4DA
100
AcDbEntity
  8
Livello 1
  0
POLYLINE
  5
4DE
330
1F
100
AcDbEntity
  8
Livello 1
100
AcDb2dPolyline
 66
     1
 10
0.0
 20
0.0
 30
0.0
  0
VERTEX
  5
4DF
330
4DE
100
AcDbEntity
  8
Livello 1
100
AcDbVertex
100
AcDb2dVertex
 10
4.897475836685728
 20
7.080922859014023
 30
0.0
  0
VERTEX
  5
4E0
330
4DE
100
AcDbEntity
  8
Livello 1
100
AcDbVertex
100
AcDb2dVertex
 10
4.897475836685728
 20
5.78517130887544
 30
0.0
  0
SEQEND
  5
4E1
330
4DE
100
AcDbEntity
  8
Livello 1
  0
POLYLINE
  5
4E2
330
1F
100
AcDbEntity
  8
Livello 1
100
AcDb2dPolyline
 66
     1
 10
0.0
 20
0.0
 30
0.0
  0
VERTEX
  5
4E3
330
4E2
100
AcDbEntity
  8
Livello 1
100
AcDbVertex
100
AcDb2dVertex
 10
4.897475836685728
 20
7.080922859014023
 30
0.0
  0
VERTEX
  5
4E4
330
4E2
100
AcDbEntity
  8
Livello 1
100
AcDbVertex
100
AcDb2dVertex
 10
4.897475836685728
 20
7.201573870980659
 30
0.0
  0
SEQEND
  5
4E5
330
4E2
100
AcDbEntity
  8
Livello 1
  0
SPLINE
  5
4E6
330
1F
100
AcDbEntity
  8
Livello 1
100
AcDbSpline
210
0.0
220
0.0
230
1.0
 70
     8
 71
     3
 72
   134
 73
   130
 74
     0
 42
0.000000001
 43
0.0000000001
 40
0.0
 40
0.0
 40
0.0
 40
0.0
 40
1.0
 40
1.0
 40
1.0
 40
2.0
 40
2.0
 40
2.0
 40
3.0
 40
3.0
 40
3.0
 40
4.0
 40
4.0
 40
4.0
 40
5.0
 40
5.0
 40
5.0
 40
6.0
 40
6.0
 40
6.0
 40
7.0
 40
7.0
 40
7.0
 40
8.0
 40
8.0
 40
8.0
 40
9.0
 40
9.0
 40
9.0
 40
10.0
 40
10.0
 40
10.0
 40
11.0
 40
11.0
 40
11.0
 40
12.0
 40
12.0
 40
12.0
 40
13.0
 40
13.0
 40
13.0
 40
14.0
 40
14.0
 40
14.0
 40
15.0
 40
15.0
 40
15.0
 40
16.0
 40
16.0
 40
16.0
 40
17.0
 40
17.0
 40
17.0
 40
18.0
 40
18.0
 40
18.0
 40
19.0
 40
19.0
 40
19.0
 40
20.0
 40
20.0
 40
20.0
 40
21.0
 40
21.0
 40
21.0
 40
22.0
 40
22.0
 40
22.0
 40
23.0
 40
23.0
 40
23.0
 40
24.0
 40
24.0
 40
24.0
 40
25.0
 40
25.0
 40
25.0
 40
26.0
 40
26.0
 40
26.0
 40
27.0
 40
27.0
 40
27.0
 40
28.0
 40
28.0
 40
28.0
 40
29.0
 40
29.0
 40
29.0
 40
30.0
 40
30.0
 40
30.0
 40
31.0
 40
31.0
 40
31.0
 40
32.0
 40
32.0
 40
32.0
 40
33.0
 40
33.0
 40
33.0
 40
34.0
 40
34.0
 40
34.0
 40
35.0
 40
35.0
 40
35.0
 40
36.0
 40
36.0
 40
36.0
 40
37.0
 40
37.0
 40
37.0
 40
38.0
 40
38.0
 40
38.0
 40
39.0
 40
39.0
 40
39.0
 40
40.0
 40
40.0
 40
40.0
 40
41.0
 40
41.0
 40
41.0
 40
42.0
 40
42.0
 40
42.0
 40
43.0
 40
43.0
 40
43.0
 40
43.0
 10
5.48580394373674
 20
5.518892342674121
 30
0.0
 10
5.48580394373674
 20
5.518892342674121
 30
0.0
 10
5.539778900659527
 20
5.462447952073397
 30
0.0
 10
5.539778900659527
 20
5.462447952073397
 30
0.0
 10
5.539778900659527
 20
5.462447952073397
 30
0.0
 10
5.542248334337458
 20
5.457156500726519
 30
0.0
 10
5.542248334337458
 20
5.457156500726519
 30
0.0
 10
5.542248334337458
 20
5.457156500726519
 30
0.0
 10
5.54471776801536
 20
5.454687067048624
 30
0.0
 10
5.54471776801536
 20
5.454687067048624
 30
0.0
 10
5.54471776801536
 20
5.454687067048624
 30
0.0
 10
5.552478653040125
 20
5.446926182023837
 30
0.0
 10
5.552478653040125
 20
5.446926182023837
 30
0.0
 10
5.552478653040125
 20
5.446926182023837
 30
0.0
 10
5.557770104387017
 20
5.444456748345942
 30
0.0
 10
5.557770104387017
 20
5.444456748345942
 30
0.0
 10
5.557770104387017
 20
5.444456748345942
 30
0.0
 10
5.560239538064919
 20
5.439165296999057
 30
0.0
 10
5.560239538064919
 20
5.439165296999057
 30
0.0
 10
5.560239538064919
 20
5.439165296999057
 30
0.0
 10
5.565530989411783
 20
5.436695863321155
 30
0.0
 10
5.565530989411783
 20
5.436695863321155
 30
0.0
 10
5.565530989411783
 20
5.436695863321155
 30
0.0
 10
5.568000423089685
 20
5.434226429643246
 30
0.0
 10
5.568000423089685
 20
5.434226429643246
 30
0.0
 10
5.568000423089685
 20
5.434226429643246
 30
0.0
 10
5.572939290445489
 20
5.431404411974277
 30
0.0
 10
5.572939290445489
 20
5.431404411974277
 30
0.0
 10
5.572939290445489
 20
5.431404411974277
 30
0.0
 10
5.575761308114479
 20
5.42646554461848
 30
0.0
 10
5.575761308114479
 20
5.42646554461848
 30
0.0
 10
5.575761308114479
 20
5.42646554461848
 30
0.0
 10
5.585991626817147
 20
5.421174093271595
 30
0.0
 10
5.585991626817147
 20
5.421174093271595
 30
0.0
 10
5.585991626817147
 20
5.421174093271595
 30
0.0
 10
5.588461060495049
 20
5.418704659593693
 30
0.0
 10
5.588461060495049
 20
5.418704659593693
 30
0.0
 10
5.588461060495049
 20
5.418704659593693
 30
0.0
 10
5.593753857582342
 20
5.416235225915791
 30
0.0
 10
5.593753857582342
 20
5.416235225915791
 30
0.0
 10
5.593753857582342
 20
5.416235225915791
 30
0.0
 10
5.596223291260244
 20
5.410942428828484
 30
0.0
 10
5.596223291260244
 20
5.410942428828484
 30
0.0
 10
5.596223291260244
 20
5.410942428828484
 30
0.0
 10
5.601514742607136
 20
5.408472995150589
 30
0.0
 10
5.601514742607136
 20
5.408472995150589
 30
0.0
 10
5.601514742607136
 20
5.408472995150589
 30
0.0
 10
5.60645360996294
 20
5.406003561472672
 30
0.0
 10
5.60645360996294
 20
5.406003561472672
 30
0.0
 10
5.60645360996294
 20
5.406003561472672
 30
0.0
 10
5.608923043640842
 20
5.403181543803711
 30
0.0
 10
5.608923043640842
 20
5.403181543803711
 30
0.0
 10
5.608923043640842
 20
5.403181543803711
 30
0.0
 10
5.614214494987706
 20
5.400712110125809
 30
0.0
 10
5.614214494987706
 20
5.400712110125809
 30
0.0
 10
5.614214494987706
 20
5.400712110125809
 30
0.0
 10
5.624444813690402
 20
5.395420658778924
 30
0.0
 10
5.624444813690402
 20
5.395420658778924
 30
0.0
 10
5.624444813690402
 20
5.395420658778924
 30
0.0
 10
5.627266831359392
 20
5.392951225101029
 30
0.0
 10
5.627266831359392
 20
5.392951225101029
 30
0.0
 10
5.627266831359392
 20
5.392951225101029
 30
0.0
 10
5.632205698715196
 20
5.39048179142312
 30
0.0
 10
5.632205698715196
 20
5.39048179142312
 30
0.0
 10
5.632205698715196
 20
5.39048179142312
 30
0.0
 10
5.63749715006206
 20
5.388012357745225
 30
0.0
 10
5.63749715006206
 20
5.388012357745225
 30
0.0
 10
5.644905451095766
 20
5.384837756085175
 30
0.0
 10
5.651256000156294
 20
5.376017773346767
 30
0.0
 10
5.660428566885755
 20
5.377429455051469
 30
0.0
 10
5.660428566885755
 20
5.377429455051469
 30
0.0
 10
5.665720018232647
 20
5.374960021373553
 30
0.0
 10
5.665720018232647
 20
5.374960021373553
 30
0.0
 10
5.665720018232647
 20
5.374960021373553
 30
0.0
 10
5.668189451910521
 20
5.372490587695665
 30
0.0
 10
5.668189451910521
 20
5.372490587695665
 30
0.0
 10
5.668189451910521
 20
5.372490587695665
 30
0.0
 10
5.673480903257413
 20
5.370021154017763
 30
0.0
 10
5.673480903257413
 20
5.370021154017763
 30
0.0
 10
5.673480903257413
 20
5.370021154017763
 30
0.0
 10
5.678419770613217
 20
5.36719913634878
 30
0.0
 10
5.678419770613217
 20
5.36719913634878
 30
0.0
 10
5.678419770613217
 20
5.36719913634878
 30
0.0
 10
5.683711221960081
 20
5.36719913634878
 30
0.0
 10
5.683711221960081
 20
5.36719913634878
 30
0.0
 10
5.683711221960081
 20
5.36719913634878
 30
0.0
 10
5.693941540662777
 20
5.362260268992983
 30
0.0
 10
5.693941540662777
 20
5.362260268992983
 30
0.0
 10
5.693941540662777
 20
5.362260268992983
 30
0.0
 10
5.698880408018581
 20
5.362260268992983
 30
0.0
 10
5.698880408018581
 20
5.362260268992983
 30
0.0
 10
5.698880408018581
 20
5.362260268992983
 30
0.0
 10
5.701703771427972
 20
5.359436905583578
 30
0.0
 10
5.701703771427972
 20
5.359436905583578
 30
0.0
 10
5.701703771427972
 20
5.359436905583578
 30
0.0
 10
5.706642638783776
 20
5.356967471905676
 30
0.0
 10
5.706642638783776
 20
5.356967471905676
 30
0.0
 10
5.706642638783776
 20
5.356967471905676
 30
0.0
 10
5.711934090130668
 20
5.356967471905676
 30
0.0
 10
5.711934090130668
 20
5.356967471905676
 30
0.0
 10
5.711934090130668
 20
5.356967471905676
 30
0.0
 10
5.716872957486472
 20
5.354498038227774
 30
0.0
 10
5.716872957486472
 20
5.354498038227774
 30
0.0
 10
5.716872957486472
 20
5.354498038227774
 30
0.0
 10
5.722164408833336
 20
5.354498038227774
 30
0.0
 10
5.722164408833336
 20
5.354498038227774
 30
0.0
 10
5.722164408833336
 20
5.354498038227774
 30
0.0
 10
5.727455860180228
 20
5.352028604549872
 30
0.0
 10
5.727455860180228
 20
5.352028604549872
 30
0.0
 10
5.727455860180228
 20
5.352028604549872
 30
0.0
 10
5.732394727536032
 20
5.352028604549872
 30
0.0
 10
5.732394727536032
 20
5.352028604549872
 30
0.0
 10
5.732394727536032
 20
5.352028604549872
 30
0.0
 10
5.737686178882896
 20
5.349206586880903
 30
0.0
 10
5.737686178882896
 20
5.349206586880903
 30
0.0
 10
5.737686178882896
 20
5.349206586880903
 30
0.0
 10
5.7426250462387
 20
5.349206586880903
 30
0.0
 10
5.7426250462387
 20
5.349206586880903
 30
0.0
 10
5.7426250462387
 20
5.349206586880903
 30
0.0
 10
5.747916497585592
 20
5.346737153203001
 30
0.0
 10
5.747916497585592
 20
5.346737153203001
 30
0.0
 10
5.747916497585592
 20
5.346737153203001
 30
0.0
 10
5.752856710681825
 20
5.346737153203001
 30
0.0
 10
5.752856710681825
 20
5.346737153203001
 30
0.0
 10
5.77296476409613
 20
5.343562551542945
 30
0.0
 10
5.799423366570934
 20
5.338271100196081
 30
0.0
 10
5.819884003976298
 20
5.338976268178221
 30
0.0
 10
5.819884003976298
 20
5.338976268178221
 30
0.0
 10
5.83505319003477
 20
5.338976268178221
 30
0.0
 10
5.83505319003477
 20
5.338976268178221
 30
0.0
  0
POLYLINE
  5
4E7
330
1F
100
AcDbEntity
  8
Livello 1
100
AcDb2dPolyline
 66
     1
 10
0.0
 20
0.0
 30
0.0
  0
VERTEX
  5
4E8
330
4E7
100
AcDbEntity
  8
Livello 1
100
AcDbVertex
100
AcDb2dVertex
 10
5.8352294820303
 20
5.34162199385166
 30
0.0
  0
VERTEX
  5
4E9
330
4E7
100
AcDbEntity
  8
Livello 1
100
AcDbVertex
100
AcDb2dVertex
 10
6.08182026582962
 20
5.34162199385166
 30
0.0
  0
VERTEX
  5
4EA
330
4E7
100
AcDbEntity
  8
Livello 1
100
AcDbVertex
100
AcDb2dVertex
 10
6.08182026582962
 20
5.519069980410066
 30
0.0
  0
SEQEND
  5
4EB
330
4E7
100
AcDbEntity
  8
Livello 1
  0
SPLINE
  5
4EC
330
1F
100
AcDbEntity
  8
Livello 1
100
AcDbSpline
210
0.0
220
0.0
230
1.0
 70
     8
 71
     3
 72
   104
 73
   100
 74
     0
 42
0.000000001
 43
0.0000000001
 40
0.0
 40
0.0
 40
0.0
 40
0.0
 40
1.0
 40
1.0
 40
1.0
 40
2.0
 40
2.0
 40
2.0
 40
3.0
 40
3.0
 40
3.0
 40
4.0
 40
4.0
 40
4.0
 40
5.0
 40
5.0
 40
5.0
 40
6.0
 40
6.0
 40
6.0
 40
7.0
 40
7.0
 40
7.0
 40
8.0
 40
8.0
 40
8.0
 40
9.0
 40
9.0
 40
9.0
 40
10.0
 40
10.0
 40
10.0
 40
11.0
 40
11.0
 40
11.0
 40
12.0
 40
12.0
 40
12.0
 40
13.0
 40
13.0
 40
13.0
 40
14.0
 40
14.0
 40
14.0
 40
15.0
 40
15.0
 40
15.0
 40
16.0
 40
16.0
 40
16.0
 40
17.0
 40
17.0
 40
17.0
 40
18.0
 40
18.0
 40
18.0
 40
19.0
 40
19.0
 40
19.0
 40
20.0
 40
20.0
 40
20.0
 40
21.0
 40
21.0
 40
21.0
 40
22.0
 40
22.0
 40
22.0
 40
23.0
 40
23.0
 40
23.0
 40
24.0
 40
24.0
 40
24.0
 40
25.0
 40
25.0
 40
25.0
 40
26.0
 40
26.0
 40
26.0
 40
27.0
 40
27.0
 40
27.0
 40
28.0
 40
28.0
 40
28.0
 40
29.0
 40
29.0
 40
29.0
 40
30.0
 40
30.0
 40
30.0
 40
31.0
 40
31.0
 40
31.0
 40
32.0
 40
32.0
 40
32.0
 40
33.0
 40
33.0
 40
33.0
 40
33.0
 10
6.081821611570049
 20
7.409781446408743
 30
0.0
 10
6.081821611570049
 20
7.409781446408743
 30
0.0
 10
5.8352294820303
 20
7.409781446408743
 30
0.0
 10
5.8352294820303
 20
7.409781446408743
 30
0.0
 10
5.8352294820303
 20
7.409781446408743
 30
0.0
 10
5.829938030683464
 20
7.407312012730841
 30
0.0
 10
5.829938030683464
 20
7.407312012730841
 30
0.0
 10
5.829938030683464
 20
7.407312012730841
 30
0.0
 10
5.81970771198074
 20
7.407312012730841
 30
0.0
 10
5.81970771198074
 20
7.407312012730841
 30
0.0
 10
5.791132259819121
 20
7.409076278426617
 30
0.0
 10
5.783018790803239
 20
7.403784827079739
 30
0.0
 10
5.75797052429273
 20
7.40202056138397
 30
0.0
 10
5.75797052429273
 20
7.40202056138397
 30
0.0
 10
5.753031656936926
 20
7.399551127706068
 30
0.0
 10
5.753031656936926
 20
7.399551127706068
 30
0.0
 10
5.753031656936926
 20
7.399551127706068
 30
0.0
 10
5.742801338234258
 20
7.399551127706068
 30
0.0
 10
5.742801338234258
 20
7.399551127706068
 30
0.0
 10
5.742801338234258
 20
7.399551127706068
 30
0.0
 10
5.737509886887394
 20
7.397081694028152
 30
0.0
 10
5.737509886887394
 20
7.397081694028152
 30
0.0
 10
5.737509886887394
 20
7.397081694028152
 30
0.0
 10
5.732571019531562
 20
7.397081694028152
 30
0.0
 10
5.732571019531562
 20
7.397081694028152
 30
0.0
 10
5.732571019531562
 20
7.397081694028152
 30
0.0
 10
5.72727956818467
 20
7.39425967635919
 30
0.0
 10
5.72727956818467
 20
7.39425967635919
 30
0.0
 10
5.72727956818467
 20
7.39425967635919
 30
0.0
 10
5.721988116837806
 20
7.39425967635919
 30
0.0
 10
5.721988116837806
 20
7.39425967635919
 30
0.0
 10
5.721988116837806
 20
7.39425967635919
 30
0.0
 10
5.717049249482002
 20
7.391790242681288
 30
0.0
 10
5.717049249482002
 20
7.391790242681288
 30
0.0
 10
5.717049249482002
 20
7.391790242681288
 30
0.0
 10
5.711756452394709
 20
7.391790242681288
 30
0.0
 10
5.711756452394709
 20
7.391790242681288
 30
0.0
 10
5.711756452394709
 20
7.391790242681288
 30
0.0
 10
5.709287018716807
 20
7.389320809003379
 30
0.0
 10
5.709287018716807
 20
7.389320809003379
 30
0.0
 10
5.709287018716807
 20
7.389320809003379
 30
0.0
 10
5.703995567369943
 20
7.386498791334403
 30
0.0
 10
5.703995567369943
 20
7.386498791334403
 30
0.0
 10
5.703995567369943
 20
7.386498791334403
 30
0.0
 10
5.699056700014111
 20
7.386498791334403
 30
0.0
 10
5.699056700014111
 20
7.386498791334403
 30
0.0
 10
5.699056700014111
 20
7.386498791334403
 30
0.0
 10
5.693765248667247
 20
7.384029357656515
 30
0.0
 10
5.693765248667247
 20
7.384029357656515
 30
0.0
 10
5.693765248667247
 20
7.384029357656515
 30
0.0
 10
5.688826381311443
 20
7.381559923978613
 30
0.0
 10
5.688826381311443
 20
7.381559923978613
 30
0.0
 10
5.688826381311443
 20
7.381559923978613
 30
0.0
 10
5.683534929964551
 20
7.381559923978613
 30
0.0
 10
5.683534929964551
 20
7.381559923978613
 30
0.0
 10
5.683534929964551
 20
7.381559923978613
 30
0.0
 10
5.678596062608747
 20
7.379090490300697
 30
0.0
 10
5.678596062608747
 20
7.379090490300697
 30
0.0
 10
5.678596062608747
 20
7.379090490300697
 30
0.0
 10
5.675774044939785
 20
7.376268472631728
 30
0.0
 10
5.675774044939785
 20
7.376268472631728
 30
0.0
 10
5.675774044939785
 20
7.376268472631728
 30
0.0
 10
5.670835177583981
 20
7.373799038953826
 30
0.0
 10
5.670835177583981
 20
7.373799038953826
 30
0.0
 10
5.670835177583981
 20
7.373799038953826
 30
0.0
 10
5.665543726237089
 20
7.373799038953826
 30
0.0
 10
5.665543726237089
 20
7.373799038953826
 30
0.0
 10
5.646846008787079
 20
7.364273888233277
 30
0.0
 10
5.629559973041736
 20
7.353690985539522
 30
0.0
 10
5.611568769314274
 20
7.343106737105344
 30
0.0
 10
5.611568769314274
 20
7.343106737105344
 30
0.0
 10
5.601337104871177
 20
7.33781528575848
 30
0.0
 10
5.601337104871177
 20
7.33781528575848
 30
0.0
 10
5.601337104871177
 20
7.33781528575848
 30
0.0
 10
5.598867671193275
 20
7.335345852080564
 30
0.0
 10
5.598867671193275
 20
7.335345852080564
 30
0.0
 10
5.598867671193275
 20
7.335345852080564
 30
0.0
 10
5.593576219846383
 20
7.332876418402669
 30
0.0
 10
5.593576219846383
 20
7.332876418402669
 30
0.0
 10
5.593576219846383
 20
7.332876418402669
 30
0.0
 10
5.591106786168481
 20
7.330054400733693
 30
0.0
 10
5.591106786168481
 20
7.330054400733693
 30
0.0
 10
5.591106786168481
 20
7.330054400733693
 30
0.0
 10
5.585815334821617
 20
7.327584967055791
 30
0.0
 10
5.585815334821617
 20
7.327584967055791
 30
0.0
 10
5.585815334821617
 20
7.327584967055791
 30
0.0
 10
5.580876467465813
 20
7.322293515708921
 30
0.0
 10
5.580876467465813
 20
7.322293515708921
 30
0.0
 10
5.580876467465813
 20
7.322293515708921
 30
0.0
 10
5.578054449796823
 20
7.319824082031011
 30
0.0
 10
5.578054449796823
 20
7.319824082031011
 30
0.0
 10
5.578054449796823
 20
7.319824082031011
 30
0.0
 10
5.573115582441019
 20
7.317354648353116
 30
0.0
 10
5.573115582441019
 20
7.317354648353116
 30
0.0
 10
5.562532679747292
 20
7.305360063954658
 30
0.0
 10
5.564295599702617
 20
7.309593763328329
 30
0.0
 10
5.555124378713557
 20
7.30183153256312
 30
0.0
 10
5.555124378713557
 20
7.30183153256312
 30
0.0
 10
5.539601262923568
 20
7.286309762513567
 30
0.0
 10
5.539601262923568
 20
7.286309762513567
 30
0.0
  0
POLYLINE
  5
4ED
330
1F
100
AcDbEntity
  8
Livello 1
100
AcDb2dPolyline
 66
     1
 10
0.0
 20
0.0
 30
0.0
  0
VERTEX
  5
4EE
330
4ED
100
AcDbEntity
  8
Livello 1
100
AcDbVertex
100
AcDb2dVertex
 10
5.539742565668106
 20
7.289025466689047
 30
0.0
  0
VERTEX
  5
4EF
330
4ED
100
AcDbEntity
  8
Livello 1
100
AcDbVertex
100
AcDb2dVertex
 10
5.508697679828529
 20
7.258334510580993
 30
0.0
  0
SEQEND
  5
4F0
330
4ED
100
AcDbEntity
  8
Livello 1
  0
POLYLINE
  5
4F1
330
1F
100
AcDbEntity
  8
Livello 1
100
AcDb2dPolyline
 66
     1
 10
0.0
 20
0.0
 30
0.0
  0
VERTEX
  5
4F2
330
4F1
100
AcDbEntity
  8
Livello 1
100
AcDbVertex
100
AcDb2dVertex
 10
6.081821611570049
 20
7.258193207836491
 30
0.0
  0
VERTEX
  5
4F3
330
4F1
100
AcDbEntity
  8
Livello 1
100
AcDbVertex
100
AcDb2dVertex
 10
6.081821611570049
 20
7.409887759902233
 30
0.0
  0
SEQEND
  5
4F4
330
4F1
100
AcDbEntity
  8
Livello 1
  0
POLYLINE
  5
4F5
330
1F
100
AcDbEntity
  8
Livello 1
100
AcDb2dPolyline
 66
     1
 10
0.0
 20
0.0
 30
0.0
  0
VERTEX
  5
4F6
330
4F5
100
AcDbEntity
  8
Livello 1
100
AcDbVertex
100
AcDb2dVertex
 10
7.004158454618121
 20
5.785980098870219
 30
0.0
  0
VERTEX
  5
4F7
330
4F5
100
AcDbEntity
  8
Livello 1
100
AcDbVertex
100
AcDb2dVertex
 10
7.004158454618121
 20
5.780687301782926
 30
0.0
  0
VERTEX
  5
4F8
330
4F5
100
AcDbEntity
  8
Livello 1
100
AcDbVertex
100
AcDb2dVertex
 10
7.004158454618121
 20
5.74752691199697
 30
0.0
  0
VERTEX
  5
4F9
330
4F5
100
AcDbEntity
  8
Livello 1
100
AcDbVertex
100
AcDb2dVertex
 10
7.004158454618121
 20
5.742235460650093
 30
0.0
  0
SEQEND
  5
4FA
330
4F5
100
AcDbEntity
  8
Livello 1
  0
POLYLINE
  5
4FB
330
1F
100
AcDbEntity
  8
Livello 1
100
AcDb2dPolyline
 66
     1
 10
0.0
 20
0.0
 30
0.0
  0
VERTEX
  5
4FC
330
4FB
100
AcDbEntity
  8
Livello 1
100
AcDbVertex
100
AcDb2dVertex
 10
7.004158454618121
 20
7.0320267264511
 30
0.0
  0
VERTEX
  5
4FD
330
4FB
100
AcDbEntity
  8
Livello 1
100
AcDbVertex
100
AcDb2dVertex
 10
7.004158454618121
 20
7.024264495685905
 30
0.0
  0
VERTEX
  5
4FE
330
4FB
100
AcDbEntity
  8
Livello 1
100
AcDbVertex
100
AcDb2dVertex
 10
7.004158454618121
 20
6.990751521908883
 30
0.0
  0
VERTEX
  5
4FF
330
4FB
100
AcDbEntity
  8
Livello 1
100
AcDbVertex
100
AcDb2dVertex
 10
7.004158454618121
 20
6.988282088230967
 30
0.0
  0
SEQEND
  5
500
330
4FB
100
AcDbEntity
  8
Livello 1
  0
SPLINE
  5
501
330
1F
100
AcDbEntity
  8
Livello 1
100
AcDbSpline
210
0.0
220
0.0
230
1.0
 70
    11
 71
     3
 72
    29
 73
    25
 74
     0
 42
0.000000001
 43
0.0000000001
 40
0.0
 40
0.0
 40
0.0
 40
0.0
 40
1.0
 40
1.0
 40
1.0
 40
2.0
 40
2.0
 40
2.0
 40
3.0
 40
3.0
 40
3.0
 40
4.0
 40
4.0
 40
4.0
 40
5.0
 40
5.0
 40
5.0
 40
6.0
 40
6.0
 40
6.0
 40
7.0
 40
7.0
 40
7.0
 40
8.0
 40
8.0
 40
8.0
 40
8.0
 10
3.22153512216262
 20
6.976500130819502
 30
0.0
 10
3.22153512216262
 20
6.976500130819502
 30
0.0
 10
3.262808980964436
 20
6.9740306971416
 30
0.0
 10
3.262808980964436
 20
6.9740306971416
 30
0.0
 10
3.262808980964436
 20
6.9740306971416
 30
0.0
 10
3.301262167837691
 20
6.963800378438918
 30
0.0
 10
3.301262167837691
 20
6.963800378438918
 30
0.0
 10
3.531273429614216
 20
6.879487049399124
 30
0.0
 10
3.521748278893667
 20
6.553520458175405
 30
0.0
 10
3.280801530432299
 20
6.491078102505262
 30
0.0
 10
3.280801530432299
 20
6.491078102505262
 30
0.0
 10
3.241995759567984
 20
6.483317217480475
 30
0.0
 10
3.241995759567984
 20
6.483317217480475
 30
0.0
 10
3.241995759567984
 20
6.483317217480475
 30
0.0
 10
3.203542572694729
 20
6.483317217480475
 30
0.0
 10
3.203542572694729
 20
6.483317217480475
 30
0.0
 10
2.93155093839384
 20
6.517184120988993
 30
0.0
 10
2.892039999547378
 20
6.869609314687508
 30
0.0
 10
3.14427616442505
 20
6.963800378438918
 30
0.0
 10
3.14427616442505
 20
6.963800378438918
 30
0.0
 10
3.183081935289365
 20
6.9740306971416
 30
0.0
 10
3.183081935289365
 20
6.9740306971416
 30
0.0
 10
3.183081935289365
 20
6.9740306971416
 30
0.0
 10
3.22153512216262
 20
6.976500130819502
 30
0.0
 10
3.22153512216262
 20
6.976500130819502
 30
0.0
  0
POLYLINE
  5
502
330
1F
100
AcDbEntity
  8
Livello 1
100
AcDb2dPolyline
 66
     1
 10
0.0
 20
0.0
 30
0.0
  0
VERTEX
  5
503
330
502
100
AcDbEntity
  8
Livello 1
100
AcDbVertex
100
AcDb2dVertex
 10
2.820779006879249
 20
6.262302230437889
 30
0.0
  0
VERTEX
  5
504
330
502
100
AcDbEntity
  8
Livello 1
100
AcDbVertex
100
AcDb2dVertex
 10
2.823248440557151
 20
6.485964288894344
 30
0.0
  0
SEQEND
  5
505
330
502
100
AcDbEntity
  8
Livello 1
  0
POLYLINE
  5
506
330
1F
100
AcDbEntity
  8
Livello 1
100
AcDb2dPolyline
 66
     1
 10
0.0
 20
0.0
 30
0.0
  0
VERTEX
  5
507
330
506
100
AcDbEntity
  8
Livello 1
100
AcDbVertex
100
AcDb2dVertex
 10
2.82335475405064
 20
7.004757988241095
 30
0.0
  0
VERTEX
  5
508
330
506
100
AcDbEntity
  8
Livello 1
100
AcDbVertex
100
AcDb2dVertex
 10
2.82335475405064
 20
6.979005899488868
 30
0.0
  0
VERTEX
  5
509
330
506
100
AcDbEntity
  8
Livello 1
100
AcDbVertex
100
AcDb2dVertex
 10
2.82335475405064
 20
6.943022146293515
 30
0.0
  0
SEQEND
  5
50A
330
506
100
AcDbEntity
  8
Livello 1
  0
POLYLINE
  5
50B
330
1F
100
AcDbEntity
  8
Livello 1
100
AcDb2dPolyline
 66
     1
 10
0.0
 20
0.0
 30
0.0
  0
VERTEX
  5
50C
330
50B
100
AcDbEntity
  8
Livello 1
100
AcDbVertex
100
AcDb2dVertex
 10
2.82335475405064
 20
6.485786651158385
 30
0.0
  0
VERTEX
  5
50D
330
50B
100
AcDbEntity
  8
Livello 1
100
AcDbVertex
100
AcDb2dVertex
 10
2.82335475405064
 20
6.529531289378503
 30
0.0
  0
SEQEND
  5
50E
330
50B
100
AcDbEntity
  8
Livello 1
  0
POLYLINE
  5
50F
330
1F
100
AcDbEntity
  8
Livello 1
100
AcDb2dPolyline
 66
     1
 10
0.0
 20
0.0
 30
0.0
  0
VERTEX
  5
510
330
50F
100
AcDbEntity
  8
Livello 1
100
AcDbVertex
100
AcDb2dVertex
 10
2.820779006879249
 20
6.529494954387061
 30
0.0
  0
VERTEX
  5
511
330
50F
100
AcDbEntity
  8
Livello 1
100
AcDbVertex
100
AcDb2dVertex
 10
2.820779006879249
 20
6.473050563786344
 30
0.0
  0
VERTEX
  5
512
330
50F
100
AcDbEntity
  8
Livello 1
100
AcDbVertex
100
AcDb2dVertex
 10
2.823248440557151
 20
6.473050563786344
 30
0.0
  0
SEQEND
  5
513
330
50F
100
AcDbEntity
  8
Livello 1
  0
POLYLINE
  5
514
330
1F
100
AcDbEntity
  8
Livello 1
100
AcDb2dPolyline
 66
     1
 10
0.0
 20
0.0
 30
0.0
  0
VERTEX
  5
515
330
514
100
AcDbEntity
  8
Livello 1
100
AcDbVertex
100
AcDb2dVertex
 10
2.820779006879249
 20
6.472980585284304
 30
0.0
  0
VERTEX
  5
516
330
514
100
AcDbEntity
  8
Livello 1
100
AcDbVertex
100
AcDb2dVertex
 10
2.820779006879249
 20
6.293064510788411
 30
0.0
  0
VERTEX
  5
517
330
514
100
AcDbEntity
  8
Livello 1
100
AcDbVertex
100
AcDb2dVertex
 10
2.820779006879249
 20
6.21615948278233
 30
0.0
  0
VERTEX
  5
518
330
514
100
AcDbEntity
  8
Livello 1
100
AcDbVertex
100
AcDb2dVertex
 10
2.820779006879249
 20
6.262373554680365
 30
0.0
  0
SEQEND
  5
519
330
514
100
AcDbEntity
  8
Livello 1
  0
POLYLINE
  5
51A
330
1F
100
AcDbEntity
  8
Livello 1
100
AcDb2dPolyline
 66
     1
 10
0.0
 20
0.0
 30
0.0
  0
VERTEX
  5
51B
330
51A
100
AcDbEntity
  8
Livello 1
100
AcDbVertex
100
AcDb2dVertex
 10
2.82335475405064
 20
6.529494954387061
 30
0.0
  0
VERTEX
  5
51C
330
51A
100
AcDbEntity
  8
Livello 1
100
AcDbVertex
100
AcDb2dVertex
 10
2.820883974632309
 20
6.529494954387061
 30
0.0
  0
SEQEND
  5
51D
330
51A
100
AcDbEntity
  8
Livello 1
  0
POLYLINE
  5
51E
330
1F
100
AcDbEntity
  8
Livello 1
100
AcDb2dPolyline
 66
     1
 10
0.0
 20
0.0
 30
0.0
  0
VERTEX
  5
51F
330
51E
100
AcDbEntity
  8
Livello 1
100
AcDbVertex
100
AcDb2dVertex
 10
3.072591263523392
 20
6.216051823548411
 30
0.0
  0
VERTEX
  5
520
330
51E
100
AcDbEntity
  8
Livello 1
100
AcDbVertex
100
AcDb2dVertex
 10
2.99039343842999
 20
6.216051823548411
 30
0.0
  0
SEQEND
  5
521
330
51E
100
AcDbEntity
  8
Livello 1
  0
POLYLINE
  5
522
330
1F
100
AcDbEntity
  8
Livello 1
100
AcDb2dPolyline
 66
     1
 10
0.0
 20
0.0
 30
0.0
  0
VERTEX
  5
523
330
522
100
AcDbEntity
  8
Livello 1
100
AcDbVertex
100
AcDb2dVertex
 10
3.072591263523392
 20
5.948859099599225
 30
0.0
  0
VERTEX
  5
524
330
522
100
AcDbEntity
  8
Livello 1
100
AcDbVertex
100
AcDb2dVertex
 10
3.072591263523392
 20
6.215913212284746
 30
0.0
  0
SEQEND
  5
525
330
522
100
AcDbEntity
  8
Livello 1
  0
POLYLINE
  5
526
330
1F
100
AcDbEntity
  8
Livello 1
100
AcDb2dPolyline
 66
     1
 10
0.0
 20
0.0
 30
0.0
  0
VERTEX
  5
527
330
526
100
AcDbEntity
  8
Livello 1
100
AcDbVertex
100
AcDb2dVertex
 10
2.990394784170419
 20
5.948859099599225
 30
0.0
  0
VERTEX
  5
528
330
526
100
AcDbEntity
  8
Livello 1
100
AcDbVertex
100
AcDb2dVertex
 10
3.072591263523392
 20
5.948859099599225
 30
0.0
  0
SEQEND
  5
529
330
526
100
AcDbEntity
  8
Livello 1
  0
POLYLINE
  5
52A
330
1F
100
AcDbEntity
  8
Livello 1
100
AcDb2dPolyline
 66
     1
 10
0.0
 20
0.0
 30
0.0
  0
VERTEX
  5
52B
330
52A
100
AcDbEntity
  8
Livello 1
100
AcDbVertex
100
AcDb2dVertex
 10
2.918463612771191
 20
5.668823974784523
 30
0.0
  0
VERTEX
  5
52C
330
52A
100
AcDbEntity
  8
Livello 1
100
AcDbVertex
100
AcDb2dVertex
 10
2.918463612771191
 20
5.671294754202861
 30
0.0
  0
SEQEND
  5
52D
330
52A
100
AcDbEntity
  8
Livello 1
  0
POLYLINE
  5
52E
330
1F
100
AcDbEntity
  8
Livello 1
100
AcDb2dPolyline
 66
     1
 10
0.0
 20
0.0
 30
0.0
  0
VERTEX
  5
52F
330
52E
100
AcDbEntity
  8
Livello 1
100
AcDbVertex
100
AcDb2dVertex
 10
2.918463612771191
 20
5.671398376215492
 30
0.0
  0
VERTEX
  5
530
330
52E
100
AcDbEntity
  8
Livello 1
100
AcDbVertex
100
AcDb2dVertex
 10
2.877188408228946
 20
5.69715181070817
 30
0.0
  0
VERTEX
  5
531
330
52E
100
AcDbEntity
  8
Livello 1
100
AcDbVertex
100
AcDb2dVertex
 10
2.848965540058358
 20
5.733135563903509
 30
0.0
  0
VERTEX
  5
532
330
52E
100
AcDbEntity
  8
Livello 1
100
AcDbVertex
100
AcDb2dVertex
 10
2.828504902652994
 20
5.774056838714244
 30
0.0
  0
VERTEX
  5
533
330
52E
100
AcDbEntity
  8
Livello 1
100
AcDbVertex
100
AcDb2dVertex
 10
2.823213451306131
 20
5.820270910612272
 30
0.0
  0
SEQEND
  5
534
330
52E
100
AcDbEntity
  8
Livello 1
  0
POLYLINE
  5
535
330
1F
100
AcDbEntity
  8
Livello 1
100
AcDb2dPolyline
 66
     1
 10
0.0
 20
0.0
 30
0.0
  0
VERTEX
  5
536
330
535
100
AcDbEntity
  8
Livello 1
100
AcDbVertex
100
AcDb2dVertex
 10
2.820779006879249
 20
5.948859099599225
 30
0.0
  0
VERTEX
  5
537
330
535
100
AcDbEntity
  8
Livello 1
100
AcDbVertex
100
AcDb2dVertex
 10
2.990464762672459
 20
5.948859099599225
 30
0.0
  0
SEQEND
  5
538
330
535
100
AcDbEntity
  8
Livello 1
  0
POLYLINE
  5
539
330
1F
100
AcDbEntity
  8
Livello 1
100
AcDb2dPolyline
 66
     1
 10
0.0
 20
0.0
 30
0.0
  0
VERTEX
  5
53A
330
539
100
AcDbEntity
  8
Livello 1
100
AcDbVertex
100
AcDb2dVertex
 10
2.820779006879249
 20
5.820412213356789
 30
0.0
  0
VERTEX
  5
53B
330
539
100
AcDbEntity
  8
Livello 1
100
AcDbVertex
100
AcDb2dVertex
 10
2.820779006879249
 20
5.948824110348205
 30
0.0
  0
SEQEND
  5
53C
330
539
100
AcDbEntity
  8
Livello 1
  0
POLYLINE
  5
53D
330
1F
100
AcDbEntity
  8
Livello 1
100
AcDb2dPolyline
 66
     1
 10
0.0
 20
0.0
 30
0.0
  0
VERTEX
  5
53E
330
53D
100
AcDbEntity
  8
Livello 1
100
AcDbVertex
100
AcDb2dVertex
 10
2.82335475405064
 20
5.820412213356789
 30
0.0
  0
VERTEX
  5
53F
330
53D
100
AcDbEntity
  8
Livello 1
100
AcDbVertex
100
AcDb2dVertex
 10
2.820883974632309
 20
5.820412213356789
 30
0.0
  0
SEQEND
  5
540
330
53D
100
AcDbEntity
  8
Livello 1
  0
POLYLINE
  5
541
330
1F
100
AcDbEntity
  8
Livello 1
100
AcDb2dPolyline
 66
     1
 10
0.0
 20
0.0
 30
0.0
  0
VERTEX
  5
542
330
541
100
AcDbEntity
  8
Livello 1
100
AcDbVertex
100
AcDb2dVertex
 10
2.820779006879249
 20
6.216051823548411
 30
0.0
  0
VERTEX
  5
543
330
541
100
AcDbEntity
  8
Livello 1
100
AcDbVertex
100
AcDb2dVertex
 10
2.990464762672459
 20
6.216051823548411
 30
0.0
  0
SEQEND
  5
544
330
541
100
AcDbEntity
  8
Livello 1
  0
POLYLINE
  5
545
330
1F
100
AcDbEntity
  8
Livello 1
100
AcDb2dPolyline
 66
     1
 10
0.0
 20
0.0
 30
0.0
  0
VERTEX
  5
546
330
545
100
AcDbEntity
  8
Livello 1
100
AcDbVertex
100
AcDb2dVertex
 10
2.82335475405064
 20
7.004757988241095
 30
0.0
  0
VERTEX
  5
547
330
545
100
AcDbEntity
  8
Livello 1
100
AcDbVertex
100
AcDb2dVertex
 10
2.833585072753336
 20
7.046033192783333
 30
0.0
  0
VERTEX
  5
548
330
545
100
AcDbEntity
  8
Livello 1
100
AcDbVertex
100
AcDb2dVertex
 10
2.85439829414976
 20
7.084486379656581
 30
0.0
  0
VERTEX
  5
549
330
545
100
AcDbEntity
  8
Livello 1
100
AcDbVertex
100
AcDb2dVertex
 10
2.882268578329259
 20
7.115178681505049
 30
0.0
  0
VERTEX
  5
54A
330
545
100
AcDbEntity
  8
Livello 1
100
AcDbVertex
100
AcDb2dVertex
 10
2.918603569775243
 20
7.138461336579389
 30
0.0
  0
SEQEND
  5
54B
330
545
100
AcDbEntity
  8
Livello 1
  0
POLYLINE
  5
54C
330
1F
100
AcDbEntity
  8
Livello 1
100
AcDb2dPolyline
 66
     1
 10
0.0
 20
0.0
 30
0.0
  0
VERTEX
  5
54D
330
54C
100
AcDbEntity
  8
Livello 1
100
AcDbVertex
100
AcDb2dVertex
 10
2.820779006879249
 20
6.914834267373962
 30
0.0
  0
VERTEX
  5
54E
330
54C
100
AcDbEntity
  8
Livello 1
100
AcDbVertex
100
AcDb2dVertex
 10
2.820779006879249
 20
6.940587701866625
 30
0.0
  0
SEQEND
  5
54F
330
54C
100
AcDbEntity
  8
Livello 1
  0
POLYLINE
  5
550
330
1F
100
AcDbEntity
  8
Livello 1
100
AcDb2dPolyline
 66
     1
 10
0.0
 20
0.0
 30
0.0
  0
VERTEX
  5
551
330
550
100
AcDbEntity
  8
Livello 1
100
AcDbVertex
100
AcDb2dVertex
 10
2.820779006879249
 20
6.986801773764653
 30
0.0
  0
VERTEX
  5
552
330
550
100
AcDbEntity
  8
Livello 1
100
AcDbVertex
100
AcDb2dVertex
 10
2.823248440557151
 20
6.986801773764653
 30
0.0
  0
SEQEND
  5
553
330
550
100
AcDbEntity
  8
Livello 1
  0
POLYLINE
  5
554
330
1F
100
AcDbEntity
  8
Livello 1
100
AcDb2dPolyline
 66
     1
 10
0.0
 20
0.0
 30
0.0
  0
VERTEX
  5
555
330
554
100
AcDbEntity
  8
Livello 1
100
AcDbVertex
100
AcDb2dVertex
 10
2.820779006879249
 20
6.914834267373962
 30
0.0
  0
VERTEX
  5
556
330
554
100
AcDbEntity
  8
Livello 1
100
AcDbVertex
100
AcDb2dVertex
 10
2.823248440557151
 20
6.914834267373962
 30
0.0
  0
SEQEND
  5
557
330
554
100
AcDbEntity
  8
Livello 1
  0
POLYLINE
  5
558
330
1F
100
AcDbEntity
  8
Livello 1
100
AcDb2dPolyline
 66
     1
 10
0.0
 20
0.0
 30
0.0
  0
VERTEX
  5
559
330
558
100
AcDbEntity
  8
Livello 1
100
AcDbVertex
100
AcDb2dVertex
 10
2.820779006879249
 20
6.529494954387061
 30
0.0
  0
VERTEX
  5
55A
330
558
100
AcDbEntity
  8
Livello 1
100
AcDbVertex
100
AcDb2dVertex
 10
2.820779006879249
 20
6.914729299620901
 30
0.0
  0
SEQEND
  5
55B
330
558
100
AcDbEntity
  8
Livello 1
  0
POLYLINE
  5
55C
330
1F
100
AcDbEntity
  8
Livello 1
100
AcDb2dPolyline
 66
     1
 10
0.0
 20
0.0
 30
0.0
  0
VERTEX
  5
55D
330
55C
100
AcDbEntity
  8
Livello 1
100
AcDbVertex
100
AcDb2dVertex
 10
2.820779006879249
 20
5.948859099599225
 30
0.0
  0
VERTEX
  5
55E
330
55C
100
AcDbEntity
  8
Livello 1
100
AcDbVertex
100
AcDb2dVertex
 10
2.820779006879249
 20
5.820448548348231
 30
0.0
  0
VERTEX
  5
55F
330
55C
100
AcDbEntity
  8
Livello 1
100
AcDbVertex
100
AcDb2dVertex
 10
2.823248440557151
 20
5.820448548348231
 30
0.0
  0
SEQEND
  5
560
330
55C
100
AcDbEntity
  8
Livello 1
  0
POLYLINE
  5
561
330
1F
100
AcDbEntity
  8
Livello 1
100
AcDb2dPolyline
 66
     1
 10
0.0
 20
0.0
 30
0.0
  0
VERTEX
  5
562
330
561
100
AcDbEntity
  8
Livello 1
100
AcDbVertex
100
AcDb2dVertex
 10
2.820779006879249
 20
5.948859099599225
 30
0.0
  0
VERTEX
  5
563
330
561
100
AcDbEntity
  8
Livello 1
100
AcDbVertex
100
AcDb2dVertex
 10
2.823248440557151
 20
5.948859099599225
 30
0.0
  0
SEQEND
  5
564
330
561
100
AcDbEntity
  8
Livello 1
  0
POLYLINE
  5
565
330
1F
100
AcDbEntity
  8
Livello 1
100
AcDb2dPolyline
 66
     1
 10
0.0
 20
0.0
 30
0.0
  0
VERTEX
  5
566
330
565
100
AcDbEntity
  8
Livello 1
100
AcDbVertex
100
AcDb2dVertex
 10
2.938959239427546
 20
5.66113306826179
 30
0.0
  0
VERTEX
  5
567
330
565
100
AcDbEntity
  8
Livello 1
100
AcDbVertex
100
AcDb2dVertex
 10
2.918497256281753
 20
5.668895299026985
 30
0.0
  0
SEQEND
  5
568
330
565
100
AcDbEntity
  8
Livello 1
  0
POLYLINE
  5
569
330
1F
100
AcDbEntity
  8
Livello 1
100
AcDb2dPolyline
 66
     1
 10
0.0
 20
0.0
 30
0.0
  0
VERTEX
  5
56A
330
569
100
AcDbEntity
  8
Livello 1
100
AcDbVertex
100
AcDb2dVertex
 10
2.938959239427546
 20
7.146080918859659
 30
0.0
  0
VERTEX
  5
56B
330
569
100
AcDbEntity
  8
Livello 1
100
AcDbVertex
100
AcDb2dVertex
 10
2.918497256281753
 20
7.138320033834872
 30
0.0
  0
SEQEND
  5
56C
330
569
100
AcDbEntity
  8
Livello 1
  0
POLYLINE
  5
56D
330
1F
100
AcDbEntity
  8
Livello 1
100
AcDb2dPolyline
 66
     1
 10
0.0
 20
0.0
 30
0.0
  0
VERTEX
  5
56E
330
56D
100
AcDbEntity
  8
Livello 1
100
AcDbVertex
100
AcDb2dVertex
 10
2.96210193749782
 20
5.655982919659422
 30
0.0
  0
VERTEX
  5
56F
330
56D
100
AcDbEntity
  8
Livello 1
100
AcDbVertex
100
AcDb2dVertex
 10
3.044298416850793
 20
5.643283167278838
 30
0.0
  0
VERTEX
  5
570
330
56D
100
AcDbEntity
  8
Livello 1
100
AcDbVertex
100
AcDb2dVertex
 10
3.110973126154178
 20
5.630230830907187
 30
0.0
  0
VERTEX
  5
571
330
56D
100
AcDbEntity
  8
Livello 1
100
AcDbVertex
100
AcDb2dVertex
 10
3.136726560646835
 20
5.625291963551376
 30
0.0
  0
VERTEX
  5
572
330
56D
100
AcDbEntity
  8
Livello 1
100
AcDbVertex
100
AcDb2dVertex
 10
3.157539782043258
 20
5.622469945882414
 30
0.0
  0
VERTEX
  5
573
330
56D
100
AcDbEntity
  8
Livello 1
100
AcDbVertex
100
AcDb2dVertex
 10
3.162478649399062
 20
5.622469945882414
 30
0.0
  0
VERTEX
  5
574
330
56D
100
AcDbEntity
  8
Livello 1
100
AcDbVertex
100
AcDb2dVertex
 10
3.167417516754895
 20
5.620000512204491
 30
0.0
  0
VERTEX
  5
575
330
56D
100
AcDbEntity
  8
Livello 1
100
AcDbVertex
100
AcDb2dVertex
 10
3.170239534423856
 20
5.620000512204491
 30
0.0
  0
VERTEX
  5
576
330
56D
100
AcDbEntity
  8
Livello 1
100
AcDbVertex
100
AcDb2dVertex
 10
3.519490126462315
 20
5.620000512204491
 30
0.0
  0
VERTEX
  5
577
330
56D
100
AcDbEntity
  8
Livello 1
100
AcDbVertex
100
AcDb2dVertex
 10
3.750559140212075
 20
5.620000512204491
 30
0.0
  0
SEQEND
  5
578
330
56D
100
AcDbEntity
  8
Livello 1
  0
POLYLINE
  5
579
330
1F
100
AcDbEntity
  8
Livello 1
100
AcDb2dPolyline
 66
     1
 10
0.0
 20
0.0
 30
0.0
  0
VERTEX
  5
57A
330
579
100
AcDbEntity
  8
Livello 1
100
AcDbVertex
100
AcDb2dVertex
 10
2.938959239427546
 20
5.66113306826179
 30
0.0
  0
VERTEX
  5
57B
330
579
100
AcDbEntity
  8
Livello 1
100
AcDbVertex
100
AcDb2dVertex
 10
2.9622418945019
 20
5.655841616914905
 30
0.0
  0
SEQEND
  5
57C
330
579
100
AcDbEntity
  8
Livello 1
  0
POLYLINE
  5
57D
330
1F
100
AcDbEntity
  8
Livello 1
100
AcDb2dPolyline
 66
     1
 10
0.0
 20
0.0
 30
0.0
  0
VERTEX
  5
57E
330
57D
100
AcDbEntity
  8
Livello 1
100
AcDbVertex
100
AcDb2dVertex
 10
3.170169555921816
 20
7.189754232837309
 30
0.0
  0
VERTEX
  5
57F
330
57D
100
AcDbEntity
  8
Livello 1
100
AcDbVertex
100
AcDb2dVertex
 10
3.519418802219874
 20
7.189754232837309
 30
0.0
  0
VERTEX
  5
580
330
57D
100
AcDbEntity
  8
Livello 1
100
AcDbVertex
100
AcDb2dVertex
 10
3.70321599209835
 20
7.189754232837309
 30
0.0
  0
SEQEND
  5
581
330
57D
100
AcDbEntity
  8
Livello 1
  0
SPLINE
  5
582
330
1F
100
AcDbEntity
  8
Livello 1
100
AcDbSpline
210
0.0
220
0.0
230
1.0
 70
     8
 71
     3
 72
    14
 73
    10
 74
     0
 42
0.000000001
 43
0.0000000001
 40
0.0
 40
0.0
 40
0.0
 40
0.0
 40
1.0
 40
1.0
 40
1.0
 40
2.0
 40
2.0
 40
2.0
 40
3.0
 40
3.0
 40
3.0
 40
3.0
 10
2.96210193749782
 20
7.151196078211
 30
0.0
 10
2.96210193749782
 20
7.151196078211
 30
0.0
 10
3.008314663655411
 20
7.161427742654112
 30
0.0
 10
3.008314663655411
 20
7.161427742654112
 30
0.0
 10
3.061584452596079
 20
7.168836043687818
 30
0.0
 10
3.114501657545716
 20
7.181888380059476
 30
0.0
 10
3.167417516754895
 20
7.187179831406339
 30
0.0
 10
3.167417516754895
 20
7.187179831406339
 30
0.0
 10
3.170239534423856
 20
7.189649265084241
 30
0.0
 10
3.170239534423856
 20
7.189649265084241
 30
0.0
  0
POLYLINE
  5
583
330
1F
100
AcDbEntity
  8
Livello 1
100
AcDb2dPolyline
 66
     1
 10
0.0
 20
0.0
 30
0.0
  0
VERTEX
  5
584
330
583
100
AcDbEntity
  8
Livello 1
100
AcDbVertex
100
AcDb2dVertex
 10
2.96210193749782
 20
7.151196078211
 30
0.0
  0
VERTEX
  5
585
330
583
100
AcDbEntity
  8
Livello 1
100
AcDbVertex
100
AcDb2dVertex
 10
2.938817936683037
 20
7.145904626864115
 30
0.0
  0
SEQEND
  5
586
330
583
100
AcDbEntity
  8
Livello 1
  0
POLYLINE
  5
587
330
1F
100
AcDbEntity
  8
Livello 1
100
AcDb2dPolyline
 66
     1
 10
0.0
 20
0.0
 30
0.0
  0
VERTEX
  5
588
330
587
100
AcDbEntity
  8
Livello 1
100
AcDbVertex
100
AcDb2dVertex
 10
4.897369523192239
 20
5.831665294781664
 30
0.0
  0
VERTEX
  5
589
330
587
100
AcDbEntity
  8
Livello 1
100
AcDbVertex
100
AcDb2dVertex
 10
3.628427813779111
 20
5.831665294781664
 30
0.0
  0
SEQEND
  5
58A
330
587
100
AcDbEntity
  8
Livello 1
  0
POLYLINE
  5
58B
330
1F
100
AcDbEntity
  8
Livello 1
100
AcDb2dPolyline
 66
     1
 10
0.0
 20
0.0
 30
0.0
  0
VERTEX
  5
58C
330
58B
100
AcDbEntity
  8
Livello 1
100
AcDbVertex
100
AcDb2dVertex
 10
3.506437790090686
 20
5.953691653461547
 30
0.0
  0
VERTEX
  5
58D
330
58B
100
AcDbEntity
  8
Livello 1
100
AcDbVertex
100
AcDb2dVertex
 10
3.506437790090686
 20
5.948752786105735
 30
0.0
  0
VERTEX
  5
58E
330
58B
100
AcDbEntity
  8
Livello 1
100
AcDbVertex
100
AcDb2dVertex
 10
3.506437790090686
 20
5.933936184038309
 30
0.0
  0
VERTEX
  5
58F
330
58B
100
AcDbEntity
  8
Livello 1
100
AcDbVertex
100
AcDb2dVertex
 10
3.506437790090686
 20
5.931466750360421
 30
0.0
  0
VERTEX
  5
590
330
58B
100
AcDbEntity
  8
Livello 1
100
AcDbVertex
100
AcDb2dVertex
 10
3.508907223768559
 20
5.928644732691438
 30
0.0
  0
VERTEX
  5
591
330
58B
100
AcDbEntity
  8
Livello 1
100
AcDbVertex
100
AcDb2dVertex
 10
3.508907223768559
 20
5.921236431657732
 30
0.0
  0
VERTEX
  5
592
330
58B
100
AcDbEntity
  8
Livello 1
100
AcDbVertex
100
AcDb2dVertex
 10
3.511376657446461
 20
5.91876699797983
 30
0.0
  0
VERTEX
  5
593
330
58B
100
AcDbEntity
  8
Livello 1
100
AcDbVertex
100
AcDb2dVertex
 10
3.511376657446461
 20
5.913828130624011
 30
0.0
  0
VERTEX
  5
594
330
58B
100
AcDbEntity
  8
Livello 1
100
AcDbVertex
100
AcDb2dVertex
 10
3.513846091124392
 20
5.911358696946123
 30
0.0
  0
VERTEX
  5
595
330
58B
100
AcDbEntity
  8
Livello 1
100
AcDbVertex
100
AcDb2dVertex
 10
3.513846091124392
 20
5.906419829590305
 30
0.0
  0
VERTEX
  5
596
330
58B
100
AcDbEntity
  8
Livello 1
100
AcDbVertex
100
AcDb2dVertex
 10
3.516315524802294
 20
5.906419829590305
 30
0.0
  0
VERTEX
  5
597
330
58B
100
AcDbEntity
  8
Livello 1
100
AcDbVertex
100
AcDb2dVertex
 10
3.516315524802294
 20
5.901480962234494
 30
0.0
  0
VERTEX
  5
598
330
58B
100
AcDbEntity
  8
Livello 1
100
AcDbVertex
100
AcDb2dVertex
 10
3.518784958480196
 20
5.899011528556592
 30
0.0
  0
VERTEX
  5
599
330
58B
100
AcDbEntity
  8
Livello 1
100
AcDbVertex
100
AcDb2dVertex
 10
3.518784958480196
 20
5.896542094878689
 30
0.0
  0
VERTEX
  5
59A
330
58B
100
AcDbEntity
  8
Livello 1
100
AcDbVertex
100
AcDb2dVertex
 10
3.521254392158098
 20
5.896542094878689
 30
0.0
  0
VERTEX
  5
59B
330
58B
100
AcDbEntity
  8
Livello 1
100
AcDbVertex
100
AcDb2dVertex
 10
3.521254392158098
 20
5.891603227522885
 30
0.0
  0
VERTEX
  5
59C
330
58B
100
AcDbEntity
  8
Livello 1
100
AcDbVertex
100
AcDb2dVertex
 10
3.523723825836
 20
5.891603227522885
 30
0.0
  0
VERTEX
  5
59D
330
58B
100
AcDbEntity
  8
Livello 1
100
AcDbVertex
100
AcDb2dVertex
 10
3.523723825836
 20
5.88878120985391
 30
0.0
  0
VERTEX
  5
59E
330
58B
100
AcDbEntity
  8
Livello 1
100
AcDbVertex
100
AcDb2dVertex
 10
3.526193259513902
 20
5.886311776176007
 30
0.0
  0
VERTEX
  5
59F
330
58B
100
AcDbEntity
  8
Livello 1
100
AcDbVertex
100
AcDb2dVertex
 10
3.526193259513902
 20
5.883842342498105
 30
0.0
  0
VERTEX
  5
5A0
330
58B
100
AcDbEntity
  8
Livello 1
100
AcDbVertex
100
AcDb2dVertex
 10
3.528662693191805
 20
5.883842342498105
 30
0.0
  0
VERTEX
  5
5A1
330
58B
100
AcDbEntity
  8
Livello 1
100
AcDbVertex
100
AcDb2dVertex
 10
3.528662693191805
 20
5.881372908820203
 30
0.0
  0
VERTEX
  5
5A2
330
58B
100
AcDbEntity
  8
Livello 1
100
AcDbVertex
100
AcDb2dVertex
 10
3.531484710860766
 20
5.881372908820203
 30
0.0
  0
VERTEX
  5
5A3
330
58B
100
AcDbEntity
  8
Livello 1
100
AcDbVertex
100
AcDb2dVertex
 10
3.531484710860766
 20
5.878903475142294
 30
0.0
  0
VERTEX
  5
5A4
330
58B
100
AcDbEntity
  8
Livello 1
100
AcDbVertex
100
AcDb2dVertex
 10
3.533954144538668
 20
5.876434041464385
 30
0.0
  0
VERTEX
  5
5A5
330
58B
100
AcDbEntity
  8
Livello 1
100
AcDbVertex
100
AcDb2dVertex
 10
3.533954144538668
 20
5.87396460778649
 30
0.0
  0
VERTEX
  5
5A6
330
58B
100
AcDbEntity
  8
Livello 1
100
AcDbVertex
100
AcDb2dVertex
 10
3.536423578216599
 20
5.87396460778649
 30
0.0
  0
VERTEX
  5
5A7
330
58B
100
AcDbEntity
  8
Livello 1
100
AcDbVertex
100
AcDb2dVertex
 10
3.538893011894501
 20
5.871495174108588
 30
0.0
  0
VERTEX
  5
5A8
330
58B
100
AcDbEntity
  8
Livello 1
100
AcDbVertex
100
AcDb2dVertex
 10
3.538893011894501
 20
5.869025740430686
 30
0.0
  0
VERTEX
  5
5A9
330
58B
100
AcDbEntity
  8
Livello 1
100
AcDbVertex
100
AcDb2dVertex
 10
3.541362445572403
 20
5.869025740430686
 30
0.0
  0
VERTEX
  5
5AA
330
58B
100
AcDbEntity
  8
Livello 1
100
AcDbVertex
100
AcDb2dVertex
 10
3.541362445572403
 20
5.866556306752777
 30
0.0
  0
VERTEX
  5
5AB
330
58B
100
AcDbEntity
  8
Livello 1
100
AcDbVertex
100
AcDb2dVertex
 10
3.543831879250276
 20
5.866556306752777
 30
0.0
  0
VERTEX
  5
5AC
330
58B
100
AcDbEntity
  8
Livello 1
100
AcDbVertex
100
AcDb2dVertex
 10
3.546301312928207
 20
5.864086873074882
 30
0.0
  0
VERTEX
  5
5AD
330
58B
100
AcDbEntity
  8
Livello 1
100
AcDbVertex
100
AcDb2dVertex
 10
3.546301312928207
 20
5.861617439396972
 30
0.0
  0
VERTEX
  5
5AE
330
58B
100
AcDbEntity
  8
Livello 1
100
AcDbVertex
100
AcDb2dVertex
 10
3.548770746606109
 20
5.861617439396972
 30
0.0
  0
VERTEX
  5
5AF
330
58B
100
AcDbEntity
  8
Livello 1
100
AcDbVertex
100
AcDb2dVertex
 10
3.551240180284011
 20
5.85914800571907
 30
0.0
  0
VERTEX
  5
5B0
330
58B
100
AcDbEntity
  8
Livello 1
100
AcDbVertex
100
AcDb2dVertex
 10
3.553709613961885
 20
5.85914800571907
 30
0.0
  0
VERTEX
  5
5B1
330
58B
100
AcDbEntity
  8
Livello 1
100
AcDbVertex
100
AcDb2dVertex
 10
3.553709613961885
 20
5.856678572041168
 30
0.0
  0
VERTEX
  5
5B2
330
58B
100
AcDbEntity
  8
Livello 1
100
AcDbVertex
100
AcDb2dVertex
 10
3.556179047639815
 20
5.856678572041168
 30
0.0
  0
VERTEX
  5
5B3
330
58B
100
AcDbEntity
  8
Livello 1
100
AcDbVertex
100
AcDb2dVertex
 10
3.556179047639815
 20
5.854209138363266
 30
0.0
  0
VERTEX
  5
5B4
330
58B
100
AcDbEntity
  8
Livello 1
100
AcDbVertex
100
AcDb2dVertex
 10
3.558648481317717
 20
5.854209138363266
 30
0.0
  0
VERTEX
  5
5B5
330
58B
100
AcDbEntity
  8
Livello 1
100
AcDbVertex
100
AcDb2dVertex
 10
3.56111791499562
 20
5.851739704685364
 30
0.0
  0
VERTEX
  5
5B6
330
58B
100
AcDbEntity
  8
Livello 1
100
AcDbVertex
100
AcDb2dVertex
 10
3.563587348673522
 20
5.851739704685364
 30
0.0
  0
VERTEX
  5
5B7
330
58B
100
AcDbEntity
  8
Livello 1
100
AcDbVertex
100
AcDb2dVertex
 10
3.563587348673522
 20
5.848917687016388
 30
0.0
  0
VERTEX
  5
5B8
330
58B
100
AcDbEntity
  8
Livello 1
100
AcDbVertex
100
AcDb2dVertex
 10
3.568526216029326
 20
5.848917687016388
 30
0.0
  0
VERTEX
  5
5B9
330
58B
100
AcDbEntity
  8
Livello 1
100
AcDbVertex
100
AcDb2dVertex
 10
3.568526216029326
 20
5.846448253338479
 30
0.0
  0
VERTEX
  5
5BA
330
58B
100
AcDbEntity
  8
Livello 1
100
AcDbVertex
100
AcDb2dVertex
 10
3.571348233698316
 20
5.846448253338479
 30
0.0
  0
VERTEX
  5
5BB
330
58B
100
AcDbEntity
  8
Livello 1
100
AcDbVertex
100
AcDb2dVertex
 10
3.573817667376218
 20
5.843978819660584
 30
0.0
  0
VERTEX
  5
5BC
330
58B
100
AcDbEntity
  8
Livello 1
100
AcDbVertex
100
AcDb2dVertex
 10
3.578756534732022
 20
5.843978819660584
 30
0.0
  0
VERTEX
  5
5BD
330
58B
100
AcDbEntity
  8
Livello 1
100
AcDbVertex
100
AcDb2dVertex
 10
3.578756534732022
 20
5.841509385982675
 30
0.0
  0
VERTEX
  5
5BE
330
58B
100
AcDbEntity
  8
Livello 1
100
AcDbVertex
100
AcDb2dVertex
 10
3.583695402087826
 20
5.841509385982675
 30
0.0
  0
VERTEX
  5
5BF
330
58B
100
AcDbEntity
  8
Livello 1
100
AcDbVertex
100
AcDb2dVertex
 10
3.586164835765728
 20
5.83903995230478
 30
0.0
  0
VERTEX
  5
5C0
330
58B
100
AcDbEntity
  8
Livello 1
100
AcDbVertex
100
AcDb2dVertex
 10
3.591103703121532
 20
5.83903995230478
 30
0.0
  0
VERTEX
  5
5C1
330
58B
100
AcDbEntity
  8
Livello 1
100
AcDbVertex
100
AcDb2dVertex
 10
3.593573136799463
 20
5.836570518626871
 30
0.0
  0
VERTEX
  5
5C2
330
58B
100
AcDbEntity
  8
Livello 1
100
AcDbVertex
100
AcDb2dVertex
 10
3.600981437833141
 20
5.836570518626871
 30
0.0
  0
VERTEX
  5
5C3
330
58B
100
AcDbEntity
  8
Livello 1
100
AcDbVertex
100
AcDb2dVertex
 10
3.603450871511043
 20
5.834101084948954
 30
0.0
  0
VERTEX
  5
5C4
330
58B
100
AcDbEntity
  8
Livello 1
100
AcDbVertex
100
AcDb2dVertex
 10
3.605920305188945
 20
5.834101084948954
 30
0.0
  0
VERTEX
  5
5C5
330
58B
100
AcDbEntity
  8
Livello 1
100
AcDbVertex
100
AcDb2dVertex
 10
3.623558924925347
 20
5.834101084948954
 30
0.0
  0
VERTEX
  5
5C6
330
58B
100
AcDbEntity
  8
Livello 1
100
AcDbVertex
100
AcDb2dVertex
 10
3.628497792281152
 20
5.834101084948954
 30
0.0
  0
SEQEND
  5
5C7
330
58B
100
AcDbEntity
  8
Livello 1
  0
POLYLINE
  5
5C8
330
1F
100
AcDbEntity
  8
Livello 1
100
AcDb2dPolyline
 66
     1
 10
0.0
 20
0.0
 30
0.0
  0
VERTEX
  5
5C9
330
5C8
100
AcDbEntity
  8
Livello 1
100
AcDbVertex
100
AcDb2dVertex
 10
3.506437790090686
 20
5.953691653461547
 30
0.0
  0
VERTEX
  5
5CA
330
5C8
100
AcDbEntity
  8
Livello 1
100
AcDbVertex
100
AcDb2dVertex
 10
3.506437790090686
 20
6.885026116983993
 30
0.0
  0
SEQEND
  5
5CB
330
5C8
100
AcDbEntity
  8
Livello 1
  0
POLYLINE
  5
5CC
330
1F
100
AcDbEntity
  8
Livello 1
100
AcDb2dPolyline
 66
     1
 10
0.0
 20
0.0
 30
0.0
  0
VERTEX
  5
5CD
330
5CC
100
AcDbEntity
  8
Livello 1
100
AcDbVertex
100
AcDb2dVertex
 10
3.628464148770561
 20
7.007192432667977
 30
0.0
  0
VERTEX
  5
5CE
330
5CC
100
AcDbEntity
  8
Livello 1
100
AcDbVertex
100
AcDb2dVertex
 10
3.623523935674327
 20
7.007192432667977
 30
0.0
  0
VERTEX
  5
5CF
330
5CC
100
AcDbEntity
  8
Livello 1
100
AcDbVertex
100
AcDb2dVertex
 10
3.606237899929013
 20
7.007192432667977
 30
0.0
  0
VERTEX
  5
5D0
330
5CC
100
AcDbEntity
  8
Livello 1
100
AcDbVertex
100
AcDb2dVertex
 10
3.603415882260023
 20
7.007192432667977
 30
0.0
  0
VERTEX
  5
5D1
330
5CC
100
AcDbEntity
  8
Livello 1
100
AcDbVertex
100
AcDb2dVertex
 10
3.600946448582121
 20
7.004722998990082
 30
0.0
  0
VERTEX
  5
5D2
330
5CC
100
AcDbEntity
  8
Livello 1
100
AcDbVertex
100
AcDb2dVertex
 10
3.593538147548443
 20
7.004722998990082
 30
0.0
  0
VERTEX
  5
5D3
330
5CC
100
AcDbEntity
  8
Livello 1
100
AcDbVertex
100
AcDb2dVertex
 10
3.591068713870512
 20
7.002253565312173
 30
0.0
  0
VERTEX
  5
5D4
330
5CC
100
AcDbEntity
  8
Livello 1
100
AcDbVertex
100
AcDb2dVertex
 10
3.586129846514708
 20
7.002253565312173
 30
0.0
  0
VERTEX
  5
5D5
330
5CC
100
AcDbEntity
  8
Livello 1
100
AcDbVertex
100
AcDb2dVertex
 10
3.583660412836806
 20
6.999784131634271
 30
0.0
  0
VERTEX
  5
5D6
330
5CC
100
AcDbEntity
  8
Livello 1
100
AcDbVertex
100
AcDb2dVertex
 10
3.578721545481002
 20
6.999784131634271
 30
0.0
  0
VERTEX
  5
5D7
330
5CC
100
AcDbEntity
  8
Livello 1
100
AcDbVertex
100
AcDb2dVertex
 10
3.578721545481002
 20
6.997314697956362
 30
0.0
  0
VERTEX
  5
5D8
330
5CC
100
AcDbEntity
  8
Livello 1
100
AcDbVertex
100
AcDb2dVertex
 10
3.573782678125169
 20
6.997314697956362
 30
0.0
  0
VERTEX
  5
5D9
330
5CC
100
AcDbEntity
  8
Livello 1
100
AcDbVertex
100
AcDb2dVertex
 10
3.571313244447267
 20
6.99484526427846
 30
0.0
  0
VERTEX
  5
5DA
330
5CC
100
AcDbEntity
  8
Livello 1
100
AcDbVertex
100
AcDb2dVertex
 10
3.568843810769394
 20
6.99484526427846
 30
0.0
  0
VERTEX
  5
5DB
330
5CC
100
AcDbEntity
  8
Livello 1
100
AcDbVertex
100
AcDb2dVertex
 10
3.568843810769394
 20
6.992375830600551
 30
0.0
  0
VERTEX
  5
5DC
330
5CC
100
AcDbEntity
  8
Livello 1
100
AcDbVertex
100
AcDb2dVertex
 10
3.563552359422502
 20
6.992375830600551
 30
0.0
  0
VERTEX
  5
5DD
330
5CC
100
AcDbEntity
  8
Livello 1
100
AcDbVertex
100
AcDb2dVertex
 10
3.563552359422502
 20
6.989906396922663
 30
0.0
  0
VERTEX
  5
5DE
330
5CC
100
AcDbEntity
  8
Livello 1
100
AcDbVertex
100
AcDb2dVertex
 10
3.561082925744599
 20
6.989906396922663
 30
0.0
  0
VERTEX
  5
5DF
330
5CC
100
AcDbEntity
  8
Livello 1
100
AcDbVertex
100
AcDb2dVertex
 10
3.558613492066669
 20
6.987436963244739
 30
0.0
  0
VERTEX
  5
5E0
330
5CC
100
AcDbEntity
  8
Livello 1
100
AcDbVertex
100
AcDb2dVertex
 10
3.556144058388795
 20
6.987436963244739
 30
0.0
  0
VERTEX
  5
5E1
330
5CC
100
AcDbEntity
  8
Livello 1
100
AcDbVertex
100
AcDb2dVertex
 10
3.556144058388795
 20
6.984967529566844
 30
0.0
  0
VERTEX
  5
5E2
330
5CC
100
AcDbEntity
  8
Livello 1
100
AcDbVertex
100
AcDb2dVertex
 10
3.553674624710893
 20
6.984967529566844
 30
0.0
  0
VERTEX
  5
5E3
330
5CC
100
AcDbEntity
  8
Livello 1
100
AcDbVertex
100
AcDb2dVertex
 10
3.553674624710893
 20
6.982145511897876
 30
0.0
  0
VERTEX
  5
5E4
330
5CC
100
AcDbEntity
  8
Livello 1
100
AcDbVertex
100
AcDb2dVertex
 10
3.551205191032991
 20
6.982145511897876
 30
0.0
  0
VERTEX
  5
5E5
330
5CC
100
AcDbEntity
  8
Livello 1
100
AcDbVertex
100
AcDb2dVertex
 10
3.548735757355061
 20
6.979676078219974
 30
0.0
  0
VERTEX
  5
5E6
330
5CC
100
AcDbEntity
  8
Livello 1
100
AcDbVertex
100
AcDb2dVertex
 10
3.546266323677187
 20
6.979676078219974
 30
0.0
  0
VERTEX
  5
5E7
330
5CC
100
AcDbEntity
  8
Livello 1
100
AcDbVertex
100
AcDb2dVertex
 10
3.546266323677187
 20
6.977206644542064
 30
0.0
  0
VERTEX
  5
5E8
330
5CC
100
AcDbEntity
  8
Livello 1
100
AcDbVertex
100
AcDb2dVertex
 10
3.543796889999285
 20
6.974737210864162
 30
0.0
  0
VERTEX
  5
5E9
330
5CC
100
AcDbEntity
  8
Livello 1
100
AcDbVertex
100
AcDb2dVertex
 10
3.541327456321383
 20
6.974737210864162
 30
0.0
  0
VERTEX
  5
5EA
330
5CC
100
AcDbEntity
  8
Livello 1
100
AcDbVertex
100
AcDb2dVertex
 10
3.541327456321383
 20
6.97226777718626
 30
0.0
  0
VERTEX
  5
5EB
330
5CC
100
AcDbEntity
  8
Livello 1
100
AcDbVertex
100
AcDb2dVertex
 10
3.538858022643481
 20
6.97226777718626
 30
0.0
  0
VERTEX
  5
5EC
330
5CC
100
AcDbEntity
  8
Livello 1
100
AcDbVertex
100
AcDb2dVertex
 10
3.538858022643481
 20
6.969798343508365
 30
0.0
  0
VERTEX
  5
5ED
330
5CC
100
AcDbEntity
  8
Livello 1
100
AcDbVertex
100
AcDb2dVertex
 10
3.53638858896555
 20
6.967328909830442
 30
0.0
  0
VERTEX
  5
5EE
330
5CC
100
AcDbEntity
  8
Livello 1
100
AcDbVertex
100
AcDb2dVertex
 10
3.533919155287648
 20
6.967328909830442
 30
0.0
  0
VERTEX
  5
5EF
330
5CC
100
AcDbEntity
  8
Livello 1
100
AcDbVertex
100
AcDb2dVertex
 10
3.533919155287648
 20
6.964859476152547
 30
0.0
  0
VERTEX
  5
5F0
330
5CC
100
AcDbEntity
  8
Livello 1
100
AcDbVertex
100
AcDb2dVertex
 10
3.531449721609746
 20
6.962390042474645
 30
0.0
  0
VERTEX
  5
5F1
330
5CC
100
AcDbEntity
  8
Livello 1
100
AcDbVertex
100
AcDb2dVertex
 10
3.531449721609746
 20
6.959920608796736
 30
0.0
  0
VERTEX
  5
5F2
330
5CC
100
AcDbEntity
  8
Livello 1
100
AcDbVertex
100
AcDb2dVertex
 10
3.528980287931844
 20
6.959920608796736
 30
0.0
  0
VERTEX
  5
5F3
330
5CC
100
AcDbEntity
  8
Livello 1
100
AcDbVertex
100
AcDb2dVertex
 10
3.528980287931844
 20
6.957451175118833
 30
0.0
  0
VERTEX
  5
5F4
330
5CC
100
AcDbEntity
  8
Livello 1
100
AcDbVertex
100
AcDb2dVertex
 10
3.526510854253942
 20
6.957451175118833
 30
0.0
  0
VERTEX
  5
5F5
330
5CC
100
AcDbEntity
  8
Livello 1
100
AcDbVertex
100
AcDb2dVertex
 10
3.526510854253942
 20
6.954981741440924
 30
0.0
  0
VERTEX
  5
5F6
330
5CC
100
AcDbEntity
  8
Livello 1
100
AcDbVertex
100
AcDb2dVertex
 10
3.52368883658498
 20
6.952512307763029
 30
0.0
  0
VERTEX
  5
5F7
330
5CC
100
AcDbEntity
  8
Livello 1
100
AcDbVertex
100
AcDb2dVertex
 10
3.52368883658498
 20
6.950042874085127
 30
0.0
  0
VERTEX
  5
5F8
330
5CC
100
AcDbEntity
  8
Livello 1
100
AcDbVertex
100
AcDb2dVertex
 10
3.521219402907078
 20
6.950042874085127
 30
0.0
  0
VERTEX
  5
5F9
330
5CC
100
AcDbEntity
  8
Livello 1
100
AcDbVertex
100
AcDb2dVertex
 10
3.521219402907078
 20
6.945104006729316
 30
0.0
  0
VERTEX
  5
5FA
330
5CC
100
AcDbEntity
  8
Livello 1
100
AcDbVertex
100
AcDb2dVertex
 10
3.518749969229176
 20
6.945104006729316
 30
0.0
  0
VERTEX
  5
5FB
330
5CC
100
AcDbEntity
  8
Livello 1
100
AcDbVertex
100
AcDb2dVertex
 10
3.518749969229176
 20
6.94228198906034
 30
0.0
  0
VERTEX
  5
5FC
330
5CC
100
AcDbEntity
  8
Livello 1
100
AcDbVertex
100
AcDb2dVertex
 10
3.516280535551274
 20
6.939812555382452
 30
0.0
  0
VERTEX
  5
5FD
330
5CC
100
AcDbEntity
  8
Livello 1
100
AcDbVertex
100
AcDb2dVertex
 10
3.516280535551274
 20
6.934873688026634
 30
0.0
  0
VERTEX
  5
5FE
330
5CC
100
AcDbEntity
  8
Livello 1
100
AcDbVertex
100
AcDb2dVertex
 10
3.513811101873372
 20
6.934873688026634
 30
0.0
  0
VERTEX
  5
5FF
330
5CC
100
AcDbEntity
  8
Livello 1
100
AcDbVertex
100
AcDb2dVertex
 10
3.513811101873372
 20
6.92993482067083
 30
0.0
  0
VERTEX
  5
600
330
5CC
100
AcDbEntity
  8
Livello 1
100
AcDbVertex
100
AcDb2dVertex
 10
3.51134166819547
 20
6.927465386992921
 30
0.0
  0
VERTEX
  5
601
330
5CC
100
AcDbEntity
  8
Livello 1
100
AcDbVertex
100
AcDb2dVertex
 10
3.51134166819547
 20
6.922526519637123
 30
0.0
  0
VERTEX
  5
602
330
5CC
100
AcDbEntity
  8
Livello 1
100
AcDbVertex
100
AcDb2dVertex
 10
3.508872234517568
 20
6.920057085959221
 30
0.0
  0
VERTEX
  5
603
330
5CC
100
AcDbEntity
  8
Livello 1
100
AcDbVertex
100
AcDb2dVertex
 10
3.508872234517568
 20
6.912648784925494
 30
0.0
  0
VERTEX
  5
604
330
5CC
100
AcDbEntity
  8
Livello 1
100
AcDbVertex
100
AcDb2dVertex
 10
3.506402800839637
 20
6.910179351247592
 30
0.0
  0
VERTEX
  5
605
330
5CC
100
AcDbEntity
  8
Livello 1
100
AcDbVertex
100
AcDb2dVertex
 10
3.506402800839637
 20
6.907709917569704
 30
0.0
  0
VERTEX
  5
606
330
5CC
100
AcDbEntity
  8
Livello 1
100
AcDbVertex
100
AcDb2dVertex
 10
3.506402800839637
 20
6.890071297833294
 30
0.0
  0
VERTEX
  5
607
330
5CC
100
AcDbEntity
  8
Livello 1
100
AcDbVertex
100
AcDb2dVertex
 10
3.506402800839637
 20
6.885132430477483
 30
0.0
  0
SEQEND
  5
608
330
5CC
100
AcDbEntity
  8
Livello 1
  0
POLYLINE
  5
609
330
1F
100
AcDbEntity
  8
Livello 1
100
AcDb2dPolyline
 66
     1
 10
0.0
 20
0.0
 30
0.0
  0
VERTEX
  5
60A
330
609
100
AcDbEntity
  8
Livello 1
100
AcDbVertex
100
AcDb2dVertex
 10
3.628464148770561
 20
7.007192432667977
 30
0.0
  0
VERTEX
  5
60B
330
609
100
AcDbEntity
  8
Livello 1
100
AcDbVertex
100
AcDb2dVertex
 10
4.897404512443259
 20
7.007192432667977
 30
0.0
  0
SEQEND
  5
60C
330
609
100
AcDbEntity
  8
Livello 1
  0
SPLINE
  5
60D
330
1F
100
AcDbEntity
  8
Livello 1
100
AcDbSpline
210
0.0
220
0.0
230
1.0
 70
     8
 71
     3
 72
   176
 73
   172
 74
     0
 42
0.000000001
 43
0.0000000001
 40
0.0
 40
0.0
 40
0.0
 40
0.0
 40
1.0
 40
1.0
 40
1.0
 40
2.0
 40
2.0
 40
2.0
 40
3.0
 40
3.0
 40
3.0
 40
4.0
 40
4.0
 40
4.0
 40
5.0
 40
5.0
 40
5.0
 40
6.0
 40
6.0
 40
6.0
 40
7.0
 40
7.0
 40
7.0
 40
8.0
 40
8.0
 40
8.0
 40
9.0
 40
9.0
 40
9.0
 40
10.0
 40
10.0
 40
10.0
 40
11.0
 40
11.0
 40
11.0
 40
12.0
 40
12.0
 40
12.0
 40
13.0
 40
13.0
 40
13.0
 40
14.0
 40
14.0
 40
14.0
 40
15.0
 40
15.0
 40
15.0
 40
16.0
 40
16.0
 40
16.0
 40
17.0
 40
17.0
 40
17.0
 40
18.0
 40
18.0
 40
18.0
 40
19.0
 40
19.0
 40
19.0
 40
20.0
 40
20.0
 40
20.0
 40
21.0
 40
21.0
 40
21.0
 40
22.0
 40
22.0
 40
22.0
 40
23.0
 40
23.0
 40
23.0
 40
24.0
 40
24.0
 40
24.0
 40
25.0
 40
25.0
 40
25.0
 40
26.0
 40
26.0
 40
26.0
 40
27.0
 40
27.0
 40
27.0
 40
28.0
 40
28.0
 40
28.0
 40
29.0
 40
29.0
 40
29.0
 40
30.0
 40
30.0
 40
30.0
 40
31.0
 40
31.0
 40
31.0
 40
32.0
 40
32.0
 40
32.0
 40
33.0
 40
33.0
 40
33.0
 40
34.0
 40
34.0
 40
34.0
 40
35.0
 40
35.0
 40
35.0
 40
36.0
 40
36.0
 40
36.0
 40
37.0
 40
37.0
 40
37.0
 40
38.0
 40
38.0
 40
38.0
 40
39.0
 40
39.0
 40
39.0
 40
40.0
 40
40.0
 40
40.0
 40
41.0
 40
41.0
 40
41.0
 40
42.0
 40
42.0
 40
42.0
 40
43.0
 40
43.0
 40
43.0
 40
44.0
 40
44.0
 40
44.0
 40
45.0
 40
45.0
 40
45.0
 40
46.0
 40
46.0
 40
46.0
 40
47.0
 40
47.0
 40
47.0
 40
48.0
 40
48.0
 40
48.0
 40
49.0
 40
49.0
 40
49.0
 40
50.0
 40
50.0
 40
50.0
 40
51.0
 40
51.0
 40
51.0
 40
52.0
 40
52.0
 40
52.0
 40
53.0
 40
53.0
 40
53.0
 40
54.0
 40
54.0
 40
54.0
 40
55.0
 40
55.0
 40
55.0
 40
56.0
 40
56.0
 40
56.0
 40
57.0
 40
57.0
 40
57.0
 40
57.0
 10
4.276022329099802
 20
7.410664252126835
 30
0.0
 10
4.276022329099802
 20
7.410664252126835
 30
0.0
 10
4.074232589753407
 20
7.410664252126835
 30
0.0
 10
4.074232589753407
 20
7.410664252126835
 30
0.0
 10
4.074232589753407
 20
7.410664252126835
 30
0.0
 10
4.029430199560081
 20
7.410664252126835
 30
0.0
 10
4.029430199560081
 20
7.410664252126835
 30
0.0
 10
4.029430199560081
 20
7.410664252126835
 30
0.0
 10
4.024491332204277
 20
7.40819481844894
 30
0.0
 10
4.024491332204277
 20
7.40819481844894
 30
0.0
 10
4.024491332204277
 20
7.40819481844894
 30
0.0
 10
4.01461359749264
 20
7.40819481844894
 30
0.0
 10
4.01461359749264
 20
7.40819481844894
 30
0.0
 10
4.01461359749264
 20
7.40819481844894
 30
0.0
 10
4.009674730136836
 20
7.405725384771038
 30
0.0
 10
4.009674730136836
 20
7.405725384771038
 30
0.0
 10
4.009674730136836
 20
7.405725384771038
 30
0.0
 10
3.999444411434168
 20
7.405725384771038
 30
0.0
 10
3.999444411434168
 20
7.405725384771038
 30
0.0
 10
3.999444411434168
 20
7.405725384771038
 30
0.0
 10
3.994505544078364
 20
7.403255951093136
 30
0.0
 10
3.994505544078364
 20
7.403255951093136
 30
0.0
 10
3.994505544078364
 20
7.403255951093136
 30
0.0
 10
3.984627809366756
 20
7.403255951093136
 30
0.0
 10
3.984627809366756
 20
7.403255951093136
 30
0.0
 10
3.984627809366756
 20
7.403255951093136
 30
0.0
 10
3.979688942010923
 20
7.400786517415227
 30
0.0
 10
3.979688942010923
 20
7.400786517415227
 30
0.0
 10
3.979688942010923
 20
7.400786517415227
 30
0.0
 10
3.974750074655119
 20
7.400786517415227
 30
0.0
 10
3.974750074655119
 20
7.400786517415227
 30
0.0
 10
3.974750074655119
 20
7.400786517415227
 30
0.0
 10
3.969811207299315
 20
7.398317083737332
 30
0.0
 10
3.969811207299315
 20
7.398317083737332
 30
0.0
 10
3.969811207299315
 20
7.398317083737332
 30
0.0
 10
3.964518410212022
 20
7.398317083737332
 30
0.0
 10
3.964518410212022
 20
7.398317083737332
 30
0.0
 10
3.964518410212022
 20
7.398317083737332
 30
0.0
 10
3.959579542856218
 20
7.395847650059423
 30
0.0
 10
3.959579542856218
 20
7.395847650059423
 30
0.0
 10
3.959579542856218
 20
7.395847650059423
 30
0.0
 10
3.954640675500414
 20
7.395847650059423
 30
0.0
 10
3.954640675500414
 20
7.395847650059423
 30
0.0
 10
3.954640675500414
 20
7.395847650059423
 30
0.0
 10
3.952171241822512
 20
7.39337821638152
 30
0.0
 10
3.952171241822512
 20
7.39337821638152
 30
0.0
 10
3.952171241822512
 20
7.39337821638152
 30
0.0
 10
3.947232374466707
 20
7.390908782703618
 30
0.0
 10
3.947232374466707
 20
7.390908782703618
 30
0.0
 10
3.947232374466707
 20
7.390908782703618
 30
0.0
 10
3.942293507110875
 20
7.390908782703618
 30
0.0
 10
3.942293507110875
 20
7.390908782703618
 30
0.0
 10
3.942293507110875
 20
7.390908782703618
 30
0.0
 10
3.937354639755071
 20
7.388439349025702
 30
0.0
 10
3.937354639755071
 20
7.388439349025702
 30
0.0
 10
3.937354639755071
 20
7.388439349025702
 30
0.0
 10
3.932415772399266
 20
7.385617331356733
 30
0.0
 10
3.932415772399266
 20
7.385617331356733
 30
0.0
 10
3.932415772399266
 20
7.385617331356733
 30
0.0
 10
3.927476905043462
 20
7.385617331356733
 30
0.0
 10
3.927476905043462
 20
7.385617331356733
 30
0.0
 10
3.927476905043462
 20
7.385617331356733
 30
0.0
 10
3.922185453696599
 20
7.383147897678838
 30
0.0
 10
3.922185453696599
 20
7.383147897678838
 30
0.0
 10
3.922185453696599
 20
7.383147897678838
 30
0.0
 10
3.919716020018697
 20
7.380678464000929
 30
0.0
 10
3.919716020018697
 20
7.380678464000929
 30
0.0
 10
3.919716020018697
 20
7.380678464000929
 30
0.0
 10
3.914777152662892
 20
7.378209030323027
 30
0.0
 10
3.914777152662892
 20
7.378209030323027
 30
0.0
 10
3.914777152662892
 20
7.378209030323027
 30
0.0
 10
3.90983828530706
 20
7.378209030323027
 30
0.0
 10
3.90983828530706
 20
7.378209030323027
 30
0.0
 10
3.891847081579598
 20
7.369390393325041
 30
0.0
 10
3.874913629825343
 20
7.35880614489087
 30
0.0
 10
3.857627594080028
 20
7.348575826188167
 30
0.0
 10
3.857627594080028
 20
7.348575826188167
 30
0.0
 10
3.84774985936842
 20
7.343284374841303
 30
0.0
 10
3.84774985936842
 20
7.343284374841303
 30
0.0
 10
3.84774985936842
 20
7.343284374841303
 30
0.0
 10
3.845280425690489
 20
7.340814941163401
 30
0.0
 10
3.845280425690489
 20
7.340814941163401
 30
0.0
 10
3.845280425690489
 20
7.340814941163401
 30
0.0
 10
3.840341558334685
 20
7.338345507485492
 30
0.0
 10
3.840341558334685
 20
7.338345507485492
 30
0.0
 10
3.840341558334685
 20
7.338345507485492
 30
0.0
 10
3.837519540665724
 20
7.335876073807597
 30
0.0
 10
3.837519540665724
 20
7.335876073807597
 30
0.0
 10
3.837519540665724
 20
7.335876073807597
 30
0.0
 10
3.832580673309919
 20
7.333406640129695
 30
0.0
 10
3.832580673309919
 20
7.333406640129695
 30
0.0
 10
3.832580673309919
 20
7.333406640129695
 30
0.0
 10
3.825171026535784
 20
7.325998339095981
 30
0.0
 10
3.825171026535784
 20
7.325998339095981
 30
0.0
 10
3.825171026535784
 20
7.325998339095981
 30
0.0
 10
3.82023215917998
 20
7.323528905418079
 30
0.0
 10
3.82023215917998
 20
7.323528905418079
 30
0.0
 10
3.810001840477283
 20
7.311886905010695
 30
0.0
 10
3.811766106173067
 20
7.315768020393299
 30
0.0
 10
3.802946123434637
 20
7.308712303350652
 30
0.0
 10
3.802946123434637
 20
7.308712303350652
 30
0.0
 10
3.780368636342458
 20
7.286134816258453
 30
0.0
 10
3.780368636342458
 20
7.286134816258453
 30
0.0
 10
3.745443980860741
 20
7.250151063063114
 30
0.0
 10
3.727098847401762
 20
7.215226407581376
 30
0.0
 10
3.70311102434529
 20
7.171481769361264
 30
0.0
 10
3.70311102434529
 20
7.171481769361264
 30
0.0
 10
3.70311102434529
 20
7.166542902005453
 30
0.0
 10
3.70311102434529
 20
7.166542902005453
 30
0.0
 10
3.70311102434529
 20
7.166542902005453
 30
0.0
 10
3.700641590667387
 20
7.161604034649634
 30
0.0
 10
3.700641590667387
 20
7.161604034649634
 30
0.0
 10
3.700641590667387
 20
7.161604034649634
 30
0.0
 10
3.698172156989514
 20
7.159134600971732
 30
0.0
 10
3.698172156989514
 20
7.159134600971732
 30
0.0
 10
3.698172156989514
 20
7.159134600971732
 30
0.0
 10
3.695702723311583
 20
7.154195733615921
 30
0.0
 10
3.695702723311583
 20
7.154195733615921
 30
0.0
 10
3.695702723311583
 20
7.154195733615921
 30
0.0
 10
3.695702723311583
 20
7.149256866260124
 30
0.0
 10
3.695702723311583
 20
7.149256866260124
 30
0.0
 10
3.695702723311583
 20
7.149256866260124
 30
0.0
 10
3.690763855955779
 20
7.139026547557435
 30
0.0
 10
3.690763855955779
 20
7.139026547557435
 30
0.0
 10
3.690763855955779
 20
7.139026547557435
 30
0.0
 10
3.690763855955779
 20
7.134087680201623
 30
0.0
 10
3.690763855955779
 20
7.134087680201623
 30
0.0
 10
3.690763855955779
 20
7.134087680201623
 30
0.0
 10
3.688294422277877
 20
7.129148812845826
 30
0.0
 10
3.688294422277877
 20
7.129148812845826
 30
0.0
 10
3.688294422277877
 20
7.129148812845826
 30
0.0
 10
3.685824988599947
 20
7.126679379167917
 30
0.0
 10
3.685824988599947
 20
7.126679379167917
 30
0.0
 10
3.685824988599947
 20
7.126679379167917
 30
0.0
 10
3.685824988599947
 20
7.12174051181212
 30
0.0
 10
3.685824988599947
 20
7.12174051181212
 30
0.0
 10
3.685824988599947
 20
7.12174051181212
 30
0.0
 10
3.683355554922073
 20
7.116801644456295
 30
0.0
 10
3.683355554922073
 20
7.116801644456295
 30
0.0
 10
3.683355554922073
 20
7.116801644456295
 30
0.0
 10
3.683355554922073
 20
7.11186277710049
 30
0.0
 10
3.683355554922073
 20
7.11186277710049
 30
0.0
 10
3.683355554922073
 20
7.11186277710049
 30
0.0
 10
3.680886121244171
 20
7.106923909744701
 30
0.0
 10
3.680886121244171
 20
7.106923909744701
 30
0.0
 10
3.680886121244171
 20
7.106923909744701
 30
0.0
 10
3.680886121244171
 20
7.101983696648453
 30
0.0
 10
3.680886121244171
 20
7.101983696648453
 30
0.0
 10
3.680886121244171
 20
7.101983696648453
 30
0.0
 10
3.678416687566269
 20
7.096692245301575
 30
0.0
 10
3.678416687566269
 20
7.096692245301575
 30
0.0
 10
3.678416687566269
 20
7.096692245301575
 30
0.0
 10
3.678416687566269
 20
7.086814510589967
 30
0.0
 10
3.678416687566269
 20
7.086814510589967
 30
0.0
 10
3.678416687566269
 20
7.086814510589967
 30
0.0
 10
3.675947253888338
 20
7.081875643234155
 30
0.0
 10
3.675947253888338
 20
7.081875643234155
 30
0.0
 10
3.675947253888338
 20
7.081875643234155
 30
0.0
 10
3.675947253888338
 20
7.071997908522547
 30
0.0
 10
3.675947253888338
 20
7.071997908522547
 30
0.0
 10
3.675947253888338
 20
7.071997908522547
 30
0.0
 10
3.673477820210464
 20
7.067059041166743
 30
0.0
 10
3.673477820210464
 20
7.067059041166743
 30
0.0
 10
3.673477820210464
 20
7.067059041166743
 30
0.0
 10
3.673477820210464
 20
7.056828722464054
 30
0.0
 10
3.673477820210464
 20
7.056828722464054
 30
0.0
 10
3.673477820210464
 20
7.056828722464054
 30
0.0
 10
3.670654456801074
 20
7.05188985510825
 30
0.0
 10
3.670654456801074
 20
7.05188985510825
 30
0.0
 10
3.670654456801074
 20
7.05188985510825
 30
0.0
 10
3.670654456801074
 20
7.00708746491491
 30
0.0
 10
3.670654456801074
 20
7.00708746491491
 30
0.0
  0
POLYLINE
  5
60E
330
1F
100
AcDbEntity
  8
Livello 1
100
AcDb2dPolyline
 66
     1
 10
0.0
 20
0.0
 30
0.0
  0
VERTEX
  5
60F
330
60E
100
AcDbEntity
  8
Livello 1
100
AcDbVertex
100
AcDb2dVertex
 10
4.315850862686303
 20
7.370835718540341
 30
0.0
  0
VERTEX
  5
610
330
60E
100
AcDbEntity
  8
Livello 1
100
AcDbVertex
100
AcDb2dVertex
 10
4.313380083267972
 20
7.373306497958665
 30
0.0
  0
VERTEX
  5
611
330
60E
100
AcDbEntity
  8
Livello 1
100
AcDbVertex
100
AcDb2dVertex
 10
4.313380083267972
 20
7.38565366634819
 30
0.0
  0
VERTEX
  5
612
330
60E
100
AcDbEntity
  8
Livello 1
100
AcDbVertex
100
AcDb2dVertex
 10
4.31091064959007
 20
7.38565366634819
 30
0.0
  0
VERTEX
  5
613
330
60E
100
AcDbEntity
  8
Livello 1
100
AcDbVertex
100
AcDb2dVertex
 10
4.31091064959007
 20
7.390592533703994
 30
0.0
  0
VERTEX
  5
614
330
60E
100
AcDbEntity
  8
Livello 1
100
AcDbVertex
100
AcDb2dVertex
 10
4.308441215912168
 20
7.390592533703994
 30
0.0
  0
VERTEX
  5
615
330
60E
100
AcDbEntity
  8
Livello 1
100
AcDbVertex
100
AcDb2dVertex
 10
4.308441215912168
 20
7.395883985050865
 30
0.0
  0
VERTEX
  5
616
330
60E
100
AcDbEntity
  8
Livello 1
100
AcDbVertex
100
AcDb2dVertex
 10
4.305971782234266
 20
7.395883985050865
 30
0.0
  0
VERTEX
  5
617
330
60E
100
AcDbEntity
  8
Livello 1
100
AcDbVertex
100
AcDb2dVertex
 10
4.305971782234266
 20
7.398353418728774
 30
0.0
  0
VERTEX
  5
618
330
60E
100
AcDbEntity
  8
Livello 1
100
AcDbVertex
100
AcDb2dVertex
 10
4.303502348556364
 20
7.398353418728774
 30
0.0
  0
VERTEX
  5
619
330
60E
100
AcDbEntity
  8
Livello 1
100
AcDbVertex
100
AcDb2dVertex
 10
4.303502348556364
 20
7.400822852406669
 30
0.0
  0
VERTEX
  5
61A
330
60E
100
AcDbEntity
  8
Livello 1
100
AcDbVertex
100
AcDb2dVertex
 10
4.301032914878462
 20
7.400822852406669
 30
0.0
  0
VERTEX
  5
61B
330
60E
100
AcDbEntity
  8
Livello 1
100
AcDbVertex
100
AcDb2dVertex
 10
4.301032914878462
 20
7.403292286084585
 30
0.0
  0
VERTEX
  5
61C
330
60E
100
AcDbEntity
  8
Livello 1
100
AcDbVertex
100
AcDb2dVertex
 10
4.298563481200559
 20
7.403292286084585
 30
0.0
  0
VERTEX
  5
61D
330
60E
100
AcDbEntity
  8
Livello 1
100
AcDbVertex
100
AcDb2dVertex
 10
4.298563481200559
 20
7.405761719762473
 30
0.0
  0
VERTEX
  5
61E
330
60E
100
AcDbEntity
  8
Livello 1
100
AcDbVertex
100
AcDb2dVertex
 10
4.293624613844755
 20
7.405761719762473
 30
0.0
  0
VERTEX
  5
61F
330
60E
100
AcDbEntity
  8
Livello 1
100
AcDbVertex
100
AcDb2dVertex
 10
4.293624613844755
 20
7.408231153440389
 30
0.0
  0
VERTEX
  5
620
330
60E
100
AcDbEntity
  8
Livello 1
100
AcDbVertex
100
AcDb2dVertex
 10
4.288333162497863
 20
7.408231153440389
 30
0.0
  0
VERTEX
  5
621
330
60E
100
AcDbEntity
  8
Livello 1
100
AcDbVertex
100
AcDb2dVertex
 10
4.288333162497863
 20
7.410700587118292
 30
0.0
  0
VERTEX
  5
622
330
60E
100
AcDbEntity
  8
Livello 1
100
AcDbVertex
100
AcDb2dVertex
 10
4.275985994108353
 20
7.410700587118292
 30
0.0
  0
SEQEND
  5
623
330
60E
100
AcDbEntity
  8
Livello 1
  0
POLYLINE
  5
624
330
1F
100
AcDbEntity
  8
Livello 1
100
AcDb2dPolyline
 66
     1
 10
0.0
 20
0.0
 30
0.0
  0
VERTEX
  5
625
330
624
100
AcDbEntity
  8
Livello 1
100
AcDbVertex
100
AcDb2dVertex
 10
4.315850862686303
 20
7.007192432667977
 30
0.0
  0
VERTEX
  5
626
330
624
100
AcDbEntity
  8
Livello 1
100
AcDbVertex
100
AcDb2dVertex
 10
4.315850862686303
 20
7.37090704278281
 30
0.0
  0
SEQEND
  5
627
330
624
100
AcDbEntity
  8
Livello 1
  0
POLYLINE
  5
628
330
1F
100
AcDbEntity
  8
Livello 1
100
AcDb2dPolyline
 66
     1
 10
0.0
 20
0.0
 30
0.0
  0
VERTEX
  5
629
330
628
100
AcDbEntity
  8
Livello 1
100
AcDbVertex
100
AcDb2dVertex
 10
4.276022329099802
 20
5.455569872766723
 30
0.0
  0
VERTEX
  5
62A
330
628
100
AcDbEntity
  8
Livello 1
100
AcDbVertex
100
AcDb2dVertex
 10
4.276022329099802
 20
5.458040652185047
 30
0.0
  0
VERTEX
  5
62B
330
628
100
AcDbEntity
  8
Livello 1
100
AcDbVertex
100
AcDb2dVertex
 10
4.288369497489313
 20
5.458040652185047
 30
0.0
  0
VERTEX
  5
62C
330
628
100
AcDbEntity
  8
Livello 1
100
AcDbVertex
100
AcDb2dVertex
 10
4.288369497489313
 20
5.460510085862935
 30
0.0
  0
VERTEX
  5
62D
330
628
100
AcDbEntity
  8
Livello 1
100
AcDbVertex
100
AcDb2dVertex
 10
4.293308364845117
 20
5.460510085862935
 30
0.0
  0
VERTEX
  5
62E
330
628
100
AcDbEntity
  8
Livello 1
100
AcDbVertex
100
AcDb2dVertex
 10
4.296130382514107
 20
5.462979519540851
 30
0.0
  0
VERTEX
  5
62F
330
628
100
AcDbEntity
  8
Livello 1
100
AcDbVertex
100
AcDb2dVertex
 10
4.298247232200921
 20
5.462979519540851
 30
0.0
  0
VERTEX
  5
630
330
628
100
AcDbEntity
  8
Livello 1
100
AcDbVertex
100
AcDb2dVertex
 10
4.298247232200921
 20
5.465448953218761
 30
0.0
  0
VERTEX
  5
631
330
628
100
AcDbEntity
  8
Livello 1
100
AcDbVertex
100
AcDb2dVertex
 10
4.301069249869911
 20
5.465448953218761
 30
0.0
  0
VERTEX
  5
632
330
628
100
AcDbEntity
  8
Livello 1
100
AcDbVertex
100
AcDb2dVertex
 10
4.303538683547813
 20
5.467918386896656
 30
0.0
  0
VERTEX
  5
633
330
628
100
AcDbEntity
  8
Livello 1
100
AcDbVertex
100
AcDb2dVertex
 10
4.306008117225715
 20
5.467918386896656
 30
0.0
  0
VERTEX
  5
634
330
628
100
AcDbEntity
  8
Livello 1
100
AcDbVertex
100
AcDb2dVertex
 10
4.306008117225715
 20
5.470387820574558
 30
0.0
  0
VERTEX
  5
635
330
628
100
AcDbEntity
  8
Livello 1
100
AcDbVertex
100
AcDb2dVertex
 10
4.308477550903617
 20
5.472857254252467
 30
0.0
  0
VERTEX
  5
636
330
628
100
AcDbEntity
  8
Livello 1
100
AcDbVertex
100
AcDb2dVertex
 10
4.308477550903617
 20
5.475326687930369
 30
0.0
  0
VERTEX
  5
637
330
628
100
AcDbEntity
  8
Livello 1
100
AcDbVertex
100
AcDb2dVertex
 10
4.310946984581519
 20
5.475326687930369
 30
0.0
  0
VERTEX
  5
638
330
628
100
AcDbEntity
  8
Livello 1
100
AcDbVertex
100
AcDb2dVertex
 10
4.310946984581519
 20
5.477796121608264
 30
0.0
  0
VERTEX
  5
639
330
628
100
AcDbEntity
  8
Livello 1
100
AcDbVertex
100
AcDb2dVertex
 10
4.313416418259421
 20
5.480618139277233
 30
0.0
  0
VERTEX
  5
63A
330
628
100
AcDbEntity
  8
Livello 1
100
AcDbVertex
100
AcDb2dVertex
 10
4.313416418259421
 20
5.485557006633051
 30
0.0
  0
VERTEX
  5
63B
330
628
100
AcDbEntity
  8
Livello 1
100
AcDbVertex
100
AcDb2dVertex
 10
4.315885851937323
 20
5.485557006633051
 30
0.0
  0
VERTEX
  5
63C
330
628
100
AcDbEntity
  8
Livello 1
100
AcDbVertex
100
AcDb2dVertex
 10
4.315885851937323
 20
5.497904175022561
 30
0.0
  0
VERTEX
  5
63D
330
628
100
AcDbEntity
  8
Livello 1
100
AcDbVertex
100
AcDb2dVertex
 10
4.318355285615226
 20
5.497904175022561
 30
0.0
  0
SEQEND
  5
63E
330
628
100
AcDbEntity
  8
Livello 1
  0
POLYLINE
  5
63F
330
1F
100
AcDbEntity
  8
Livello 1
100
AcDb2dPolyline
 66
     1
 10
0.0
 20
0.0
 30
0.0
  0
VERTEX
  5
640
330
63F
100
AcDbEntity
  8
Livello 1
100
AcDbVertex
100
AcDb2dVertex
 10
4.074268924744856
 20
5.455569872766723
 30
0.0
  0
VERTEX
  5
641
330
63F
100
AcDbEntity
  8
Livello 1
100
AcDbVertex
100
AcDb2dVertex
 10
4.276057318350822
 20
5.455569872766723
 30
0.0
  0
SEQEND
  5
642
330
63F
100
AcDbEntity
  8
Livello 1
  0
SPLINE
  5
643
330
1F
100
AcDbEntity
  8
Livello 1
100
AcDbSpline
210
0.0
220
0.0
230
1.0
 70
     8
 71
     3
 72
   227
 73
   223
 74
     0
 42
0.000000001
 43
0.0000000001
 40
0.0
 40
0.0
 40
0.0
 40
0.0
 40
1.0
 40
1.0
 40
1.0
 40
2.0
 40
2.0
 40
2.0
 40
3.0
 40
3.0
 40
3.0
 40
4.0
 40
4.0
 40
4.0
 40
5.0
 40
5.0
 40
5.0
 40
6.0
 40
6.0
 40
6.0
 40
7.0
 40
7.0
 40
7.0
 40
8.0
 40
8.0
 40
8.0
 40
9.0
 40
9.0
 40
9.0
 40
10.0
 40
10.0
 40
10.0
 40
11.0
 40
11.0
 40
11.0
 40
12.0
 40
12.0
 40
12.0
 40
13.0
 40
13.0
 40
13.0
 40
14.0
 40
14.0
 40
14.0
 40
15.0
 40
15.0
 40
15.0
 40
16.0
 40
16.0
 40
16.0
 40
17.0
 40
17.0
 40
17.0
 40
18.0
 40
18.0
 40
18.0
 40
19.0
 40
19.0
 40
19.0
 40
20.0
 40
20.0
 40
20.0
 40
21.0
 40
21.0
 40
21.0
 40
22.0
 40
22.0
 40
22.0
 40
23.0
 40
23.0
 40
23.0
 40
24.0
 40
24.0
 40
24.0
 40
25.0
 40
25.0
 40
25.0
 40
26.0
 40
26.0
 40
26.0
 40
27.0
 40
27.0
 40
27.0
 40
28.0
 40
28.0
 40
28.0
 40
29.0
 40
29.0
 40
29.0
 40
30.0
 40
30.0
 40
30.0
 40
31.0
 40
31.0
 40
31.0
 40
32.0
 40
32.0
 40
32.0
 40
33.0
 40
33.0
 40
33.0
 40
34.0
 40
34.0
 40
34.0
 40
35.0
 40
35.0
 40
35.0
 40
36.0
 40
36.0
 40
36.0
 40
37.0
 40
37.0
 40
37.0
 40
38.0
 40
38.0
 40
38.0
 40
39.0
 40
39.0
 40
39.0
 40
40.0
 40
40.0
 40
40.0
 40
41.0
 40
41.0
 40
41.0
 40
42.0
 40
42.0
 40
42.0
 40
43.0
 40
43.0
 40
43.0
 40
44.0
 40
44.0
 40
44.0
 40
45.0
 40
45.0
 40
45.0
 40
46.0
 40
46.0
 40
46.0
 40
47.0
 40
47.0
 40
47.0
 40
48.0
 40
48.0
 40
48.0
 40
49.0
 40
49.0
 40
49.0
 40
50.0
 40
50.0
 40
50.0
 40
51.0
 40
51.0
 40
51.0
 40
52.0
 40
52.0
 40
52.0
 40
53.0
 40
53.0
 40
53.0
 40
54.0
 40
54.0
 40
54.0
 40
55.0
 40
55.0
 40
55.0
 40
56.0
 40
56.0
 40
56.0
 40
57.0
 40
57.0
 40
57.0
 40
58.0
 40
58.0
 40
58.0
 40
59.0
 40
59.0
 40
59.0
 40
60.0
 40
60.0
 40
60.0
 40
61.0
 40
61.0
 40
61.0
 40
62.0
 40
62.0
 40
62.0
 40
63.0
 40
63.0
 40
63.0
 40
64.0
 40
64.0
 40
64.0
 40
65.0
 40
65.0
 40
65.0
 40
66.0
 40
66.0
 40
66.0
 40
67.0
 40
67.0
 40
67.0
 40
68.0
 40
68.0
 40
68.0
 40
69.0
 40
69.0
 40
69.0
 40
70.0
 40
70.0
 40
70.0
 40
71.0
 40
71.0
 40
71.0
 40
72.0
 40
72.0
 40
72.0
 40
73.0
 40
73.0
 40
73.0
 40
74.0
 40
74.0
 40
74.0
 40
74.0
 10
3.670797105286013
 20
5.831665294781664
 30
0.0
 10
3.670797105286013
 20
5.831665294781664
 30
0.0
 10
3.670797105286013
 20
5.814379259036329
 30
0.0
 10
3.670797105286013
 20
5.814379259036329
 30
0.0
 10
3.670797105286013
 20
5.814379259036329
 30
0.0
 10
3.673266538963886
 20
5.809440391680524
 30
0.0
 10
3.673266538963886
 20
5.809440391680524
 30
0.0
 10
3.673266538963886
 20
5.809440391680524
 30
0.0
 10
3.673266538963886
 20
5.794271205622024
 30
0.0
 10
3.673266538963886
 20
5.794271205622024
 30
0.0
 10
3.673266538963886
 20
5.794271205622024
 30
0.0
 10
3.675735972641788
 20
5.789332338266227
 30
0.0
 10
3.675735972641788
 20
5.789332338266227
 30
0.0
 10
3.675735972641788
 20
5.789332338266227
 30
0.0
 10
3.675735972641788
 20
5.784393470910416
 30
0.0
 10
3.675735972641788
 20
5.784393470910416
 30
0.0
 10
3.675735972641788
 20
5.784393470910416
 30
0.0
 10
3.67820540631969
 20
5.779454603554611
 30
0.0
 10
3.67820540631969
 20
5.779454603554611
 30
0.0
 10
3.67820540631969
 20
5.779454603554611
 30
0.0
 10
3.67820540631969
 20
5.769224284851922
 30
0.0
 10
3.67820540631969
 20
5.769224284851922
 30
0.0
 10
3.67820540631969
 20
5.769224284851922
 30
0.0
 10
3.680674839997621
 20
5.764285417496118
 30
0.0
 10
3.680674839997621
 20
5.764285417496118
 30
0.0
 10
3.680674839997621
 20
5.764285417496118
 30
0.0
 10
3.680674839997621
 20
5.759346550140314
 30
0.0
 10
3.680674839997621
 20
5.759346550140314
 30
0.0
 10
3.680674839997621
 20
5.759346550140314
 30
0.0
 10
3.683144273675523
 20
5.75440768278451
 30
0.0
 10
3.683144273675523
 20
5.75440768278451
 30
0.0
 10
3.683144273675523
 20
5.75440768278451
 30
0.0
 10
3.683144273675523
 20
5.749468815428699
 30
0.0
 10
3.683144273675523
 20
5.749468815428699
 30
0.0
 10
3.683144273675523
 20
5.749468815428699
 30
0.0
 10
3.688083141031327
 20
5.739591080717083
 30
0.0
 10
3.688083141031327
 20
5.739591080717083
 30
0.0
 10
3.688083141031327
 20
5.739591080717083
 30
0.0
 10
3.688083141031327
 20
5.734652213361279
 30
0.0
 10
3.688083141031327
 20
5.734652213361279
 30
0.0
 10
3.688083141031327
 20
5.734652213361279
 30
0.0
 10
3.690552574709229
 20
5.73218277968337
 30
0.0
 10
3.690552574709229
 20
5.73218277968337
 30
0.0
 10
3.690552574709229
 20
5.73218277968337
 30
0.0
 10
3.693022008387131
 20
5.726891328336492
 30
0.0
 10
3.693022008387131
 20
5.726891328336492
 30
0.0
 10
3.693022008387131
 20
5.726891328336492
 30
0.0
 10
3.693022008387131
 20
5.721952460980688
 30
0.0
 10
3.693022008387131
 20
5.721952460980688
 30
0.0
 10
3.693022008387131
 20
5.721952460980688
 30
0.0
 10
3.698313459733995
 20
5.712074726269058
 30
0.0
 10
3.698313459733995
 20
5.712074726269058
 30
0.0
 10
3.698313459733995
 20
5.712074726269058
 30
0.0
 10
3.698313459733995
 20
5.707135858913268
 30
0.0
 10
3.698313459733995
 20
5.707135858913268
 30
0.0
 10
3.698313459733995
 20
5.707135858913268
 30
0.0
 10
3.700782893411897
 20
5.70219699155745
 30
0.0
 10
3.700782893411897
 20
5.70219699155745
 30
0.0
 10
3.700782893411897
 20
5.70219699155745
 30
0.0
 10
3.703252327089799
 20
5.699727557879562
 30
0.0
 10
3.703252327089799
 20
5.699727557879562
 30
0.0
 10
3.703252327089799
 20
5.699727557879562
 30
0.0
 10
3.710660628123534
 20
5.684557026080632
 30
0.0
 10
3.710660628123534
 20
5.684557026080632
 30
0.0
 10
3.710660628123534
 20
5.684557026080632
 30
0.0
 10
3.710660628123534
 20
5.679618158724842
 30
0.0
 10
3.710660628123534
 20
5.679618158724842
 30
0.0
 10
3.710660628123534
 20
5.679618158724842
 30
0.0
 10
3.713130061801436
 20
5.67714872504694
 30
0.0
 10
3.713130061801436
 20
5.67714872504694
 30
0.0
 10
3.713130061801436
 20
5.67714872504694
 30
0.0
 10
3.720538362835142
 20
5.662332122979513
 30
0.0
 10
3.720538362835142
 20
5.662332122979513
 30
0.0
 10
3.720538362835142
 20
5.662332122979513
 30
0.0
 10
3.723007796513044
 20
5.659862689301611
 30
0.0
 10
3.723007796513044
 20
5.659862689301611
 30
0.0
 10
3.723007796513044
 20
5.659862689301611
 30
0.0
 10
3.727946663868848
 20
5.649984954589982
 30
0.0
 10
3.727946663868848
 20
5.649984954589982
 30
0.0
 10
3.727946663868848
 20
5.649984954589982
 30
0.0
 10
3.730416097546751
 20
5.647515520912094
 30
0.0
 10
3.730416097546751
 20
5.647515520912094
 30
0.0
 10
3.730416097546751
 20
5.647515520912094
 30
0.0
 10
3.735707548893614
 20
5.637285202209412
 30
0.0
 10
3.735707548893614
 20
5.637285202209412
 30
0.0
 10
3.735707548893614
 20
5.637285202209412
 30
0.0
 10
3.740646416249418
 20
5.634815768531488
 30
0.0
 10
3.740646416249418
 20
5.634815768531488
 30
0.0
 10
3.740646416249418
 20
5.634815768531488
 30
0.0
 10
3.745585283605251
 20
5.62493803381988
 30
0.0
 10
3.745585283605251
 20
5.62493803381988
 30
0.0
 10
3.745585283605251
 20
5.62493803381988
 30
0.0
 10
3.748054717283153
 20
5.622468600141978
 30
0.0
 10
3.748054717283153
 20
5.622468600141978
 30
0.0
 10
3.748054717283153
 20
5.622468600141978
 30
0.0
 10
3.750524150961027
 20
5.617529732786174
 30
0.0
 10
3.750524150961027
 20
5.617529732786174
 30
0.0
 10
3.750524150961027
 20
5.617529732786174
 30
0.0
 10
3.757932451994761
 20
5.61012143175246
 30
0.0
 10
3.757932451994761
 20
5.61012143175246
 30
0.0
 10
3.757932451994761
 20
5.61012143175246
 30
0.0
 10
3.760401885672663
 20
5.605182564396656
 30
0.0
 10
3.760401885672663
 20
5.605182564396656
 30
0.0
 10
3.760401885672663
 20
5.605182564396656
 30
0.0
 10
3.770279620384272
 20
5.594952245693974
 30
0.0
 10
3.770279620384272
 20
5.594952245693974
 30
0.0
 10
3.770279620384272
 20
5.594952245693974
 30
0.0
 10
3.772749054062174
 20
5.590013378338163
 30
0.0
 10
3.772749054062174
 20
5.590013378338163
 30
0.0
 10
3.772749054062174
 20
5.590013378338163
 30
0.0
 10
3.778040505409066
 20
5.587543944660261
 30
0.0
 10
3.778040505409066
 20
5.587543944660261
 30
0.0
 10
3.778040505409066
 20
5.587543944660261
 30
0.0
 10
3.780509939086968
 20
5.582605077304457
 30
0.0
 10
3.780509939086968
 20
5.582605077304457
 30
0.0
 10
3.780509939086968
 20
5.582605077304457
 30
0.0
 10
3.78297937276487
 20
5.580135643626555
 30
0.0
 10
3.78297937276487
 20
5.580135643626555
 30
0.0
 10
3.78297937276487
 20
5.580135643626555
 30
0.0
 10
3.787918240120674
 20
5.577666209948652
 30
0.0
 10
3.787918240120674
 20
5.577666209948652
 30
0.0
 10
3.787918240120674
 20
5.577666209948652
 30
0.0
 10
3.790387673798576
 20
5.572727342592834
 30
0.0
 10
3.790387673798576
 20
5.572727342592834
 30
0.0
 10
3.790387673798576
 20
5.572727342592834
 30
0.0
 10
3.795326541154381
 20
5.570257908914925
 30
0.0
 10
3.795326541154381
 20
5.570257908914925
 30
0.0
 10
3.795326541154381
 20
5.570257908914925
 30
0.0
 10
3.797795974832283
 20
5.565319041559128
 30
0.0
 10
3.797795974832283
 20
5.565319041559128
 30
0.0
 10
3.797795974832283
 20
5.565319041559128
 30
0.0
 10
3.800265408510213
 20
5.562849607881226
 30
0.0
 10
3.800265408510213
 20
5.562849607881226
 30
0.0
 10
3.800265408510213
 20
5.562849607881226
 30
0.0
 10
3.805204275865989
 20
5.56002759021225
 30
0.0
 10
3.805204275865989
 20
5.56002759021225
 30
0.0
 10
3.805204275865989
 20
5.56002759021225
 30
0.0
 10
3.807673709543891
 20
5.555088722856453
 30
0.0
 10
3.807673709543891
 20
5.555088722856453
 30
0.0
 10
3.807673709543891
 20
5.555088722856453
 30
0.0
 10
3.812612576899724
 20
5.552619289178551
 30
0.0
 10
3.812612576899724
 20
5.552619289178551
 30
0.0
 10
3.812612576899724
 20
5.552619289178551
 30
0.0
 10
3.815435940309114
 20
5.550149855500634
 30
0.0
 10
3.815435940309114
 20
5.550149855500634
 30
0.0
 10
3.815435940309114
 20
5.550149855500634
 30
0.0
 10
3.820374807664919
 20
5.547680421822725
 30
0.0
 10
3.820374807664919
 20
5.547680421822725
 30
0.0
 10
3.820374807664919
 20
5.547680421822725
 30
0.0
 10
3.827783108698625
 20
5.540272120789019
 30
0.0
 10
3.827783108698625
 20
5.540272120789019
 30
0.0
 10
3.827783108698625
 20
5.540272120789019
 30
0.0
 10
3.832721976054429
 20
5.537802687111117
 30
0.0
 10
3.832721976054429
 20
5.537802687111117
 30
0.0
 10
3.832721976054429
 20
5.537802687111117
 30
0.0
 10
3.835191409732331
 20
5.535333253433222
 30
0.0
 10
3.835191409732331
 20
5.535333253433222
 30
0.0
 10
3.835191409732331
 20
5.535333253433222
 30
0.0
 10
3.840130277088135
 20
5.532863819755313
 30
0.0
 10
3.840130277088135
 20
5.532863819755313
 30
0.0
 10
3.840130277088135
 20
5.532863819755313
 30
0.0
 10
3.845069144443939
 20
5.530394386077411
 30
0.0
 10
3.845069144443939
 20
5.530394386077411
 30
0.0
 10
3.845069144443939
 20
5.530394386077411
 30
0.0
 10
3.847538578121842
 20
5.525455518721599
 30
0.0
 10
3.847538578121842
 20
5.525455518721599
 30
0.0
 10
3.847538578121842
 20
5.525455518721599
 30
0.0
 10
3.852477445477674
 20
5.522984739303268
 30
0.0
 10
3.852477445477674
 20
5.522984739303268
 30
0.0
 10
3.852477445477674
 20
5.522984739303268
 30
0.0
 10
3.857416312833478
 20
5.520162721634299
 30
0.0
 10
3.857416312833478
 20
5.520162721634299
 30
0.0
 10
3.857416312833478
 20
5.520162721634299
 30
0.0
 10
3.85988574651138
 20
5.517693287956397
 30
0.0
 10
3.85988574651138
 20
5.517693287956397
 30
0.0
 10
3.85988574651138
 20
5.517693287956397
 30
0.0
 10
3.870116065214048
 20
5.512754420600593
 30
0.0
 10
3.870116065214048
 20
5.512754420600593
 30
0.0
 10
3.870116065214048
 20
5.512754420600593
 30
0.0
 10
3.87258549889195
 20
5.510284986922691
 30
0.0
 10
3.87258549889195
 20
5.510284986922691
 30
0.0
 10
3.87258549889195
 20
5.510284986922691
 30
0.0
 10
3.892340968315195
 20
5.500407252211061
 30
0.0
 10
3.892340968315195
 20
5.500407252211061
 30
0.0
 10
3.892340968315195
 20
5.500407252211061
 30
0.0
 10
3.894810401993098
 20
5.497937818533166
 30
0.0
 10
3.894810401993098
 20
5.497937818533166
 30
0.0
 10
3.894810401993098
 20
5.497937818533166
 30
0.0
 10
3.899749269348902
 20
5.497937818533166
 30
0.0
 10
3.899749269348902
 20
5.497937818533166
 30
0.0
 10
3.899749269348902
 20
5.497937818533166
 30
0.0
 10
3.905040720695765
 20
5.495468384855264
 30
0.0
 10
3.905040720695765
 20
5.495468384855264
 30
0.0
 10
3.905040720695765
 20
5.495468384855264
 30
0.0
 10
3.909979588051569
 20
5.492998951177362
 30
0.0
 10
3.909979588051569
 20
5.492998951177362
 30
0.0
 10
3.909979588051569
 20
5.492998951177362
 30
0.0
 10
3.914918455407402
 20
5.490529517499453
 30
0.0
 10
3.914918455407402
 20
5.490529517499453
 30
0.0
 10
3.914918455407402
 20
5.490529517499453
 30
0.0
 10
3.917387889085304
 20
5.488060083821551
 30
0.0
 10
3.917387889085304
 20
5.488060083821551
 30
0.0
 10
3.917387889085304
 20
5.488060083821551
 30
0.0
 10
3.922326756441108
 20
5.488060083821551
 30
0.0
 10
3.922326756441108
 20
5.488060083821551
 30
0.0
 10
3.922326756441108
 20
5.488060083821551
 30
0.0
 10
3.932204491152717
 20
5.483121216465747
 30
0.0
 10
3.932204491152717
 20
5.483121216465747
 30
0.0
 10
3.947021093220129
 20
5.480299198796764
 30
0.0
 10
3.965718810670139
 20
5.469009782380453
 30
0.0
 10
3.984769112111266
 20
5.467952030407261
 30
0.0
 10
3.984769112111266
 20
5.467952030407261
 30
0.0
 10
3.98970797946707
 20
5.467952030407261
 30
0.0
 10
3.98970797946707
 20
5.467952030407261
 30
0.0
 10
3.98970797946707
 20
5.467952030407261
 30
0.0
 10
3.994646846822874
 20
5.465482596729344
 30
0.0
 10
3.994646846822874
 20
5.465482596729344
 30
0.0
 10
4.013343218532483
 20
5.462660579060383
 30
0.0
 10
4.035215537642542
 20
5.459838561391407
 30
0.0
 10
4.054265839083612
 20
5.458074295695638
 30
0.0
 10
4.054265839083612
 20
5.458074295695638
 30
0.0
 10
4.074373892497916
 20
5.458074295695638
 30
0.0
 10
4.074373892497916
 20
5.458074295695638
 30
0.0
  0
POLYLINE
  5
644
330
1F
100
AcDbEntity
  8
Livello 1
100
AcDb2dPolyline
 66
     1
 10
0.0
 20
0.0
 30
0.0
  0
VERTEX
  5
645
330
644
100
AcDbEntity
  8
Livello 1
100
AcDbVertex
100
AcDb2dVertex
 10
4.315850862686303
 20
5.497902829282146
 30
0.0
  0
VERTEX
  5
646
330
644
100
AcDbEntity
  8
Livello 1
100
AcDbVertex
100
AcDb2dVertex
 10
4.315850862686303
 20
5.831631651271052
 30
0.0
  0
SEQEND
  5
647
330
644
100
AcDbEntity
  8
Livello 1
  0
POLYLINE
  5
648
330
1F
100
AcDbEntity
  8
Livello 1
100
AcDb2dPolyline
 66
     1
 10
0.0
 20
0.0
 30
0.0
  0
VERTEX
  5
649
330
648
100
AcDbEntity
  8
Livello 1
100
AcDbVertex
100
AcDb2dVertex
 10
4.315850862686303
 20
5.62003415571511
 30
0.0
  0
VERTEX
  5
64A
330
648
100
AcDbEntity
  8
Livello 1
100
AcDbVertex
100
AcDb2dVertex
 10
4.897228220447729
 20
5.62003415571511
 30
0.0
  0
SEQEND
  5
64B
330
648
100
AcDbEntity
  8
Livello 1
  0
POLYLINE
  5
64C
330
1F
100
AcDbEntity
  8
Livello 1
100
AcDb2dPolyline
 66
     1
 10
0.0
 20
0.0
 30
0.0
  0
VERTEX
  5
64D
330
64C
100
AcDbEntity
  8
Livello 1
100
AcDbVertex
100
AcDb2dVertex
 10
4.315850862686303
 20
7.18848385387713
 30
0.0
  0
VERTEX
  5
64E
330
64C
100
AcDbEntity
  8
Livello 1
100
AcDbVertex
100
AcDb2dVertex
 10
4.897228220447729
 20
7.18848385387713
 30
0.0
  0
SEQEND
  5
64F
330
64C
100
AcDbEntity
  8
Livello 1
  0
POLYLINE
  5
650
330
1F
100
AcDbEntity
  8
Livello 1
100
AcDb2dPolyline
 66
     1
 10
0.0
 20
0.0
 30
0.0
  0
VERTEX
  5
651
330
650
100
AcDbEntity
  8
Livello 1
100
AcDbVertex
100
AcDb2dVertex
 10
13.16231777263833
 20
6.988353412473443
 30
0.0
  0
VERTEX
  5
652
330
650
100
AcDbEntity
  8
Livello 1
100
AcDbVertex
100
AcDb2dVertex
 10
13.16231777263833
 20
7.014105501225685
 30
0.0
  0
SEQEND
  5
653
330
650
100
AcDbEntity
  8
Livello 1
  0
POLYLINE
  5
654
330
1F
100
AcDbEntity
  8
Livello 1
100
AcDb2dPolyline
 66
     1
 10
0.0
 20
0.0
 30
0.0
  0
VERTEX
  5
655
330
654
100
AcDbEntity
  8
Livello 1
100
AcDbVertex
100
AcDb2dVertex
 10
13.16231777263833
 20
5.760297988620024
 30
0.0
  0
VERTEX
  5
656
330
654
100
AcDbEntity
  8
Livello 1
100
AcDbVertex
100
AcDb2dVertex
 10
13.16231777263833
 20
5.786050077372273
 30
0.0
  0
SEQEND
  5
657
330
654
100
AcDbEntity
  8
Livello 1
  0
POLYLINE
  5
658
330
1F
100
AcDbEntity
  8
Livello 1
100
AcDb2dPolyline
 66
     1
 10
0.0
 20
0.0
 30
0.0
  0
VERTEX
  5
659
330
658
100
AcDbEntity
  8
Livello 1
100
AcDbVertex
100
AcDb2dVertex
 10
13.15974337120734
 20
5.742306784892562
 30
0.0
  0
VERTEX
  5
65A
330
658
100
AcDbEntity
  8
Livello 1
100
AcDbVertex
100
AcDb2dVertex
 10
13.16221280488524
 20
5.760297988620024
 30
0.0
  0
SEQEND
  5
65B
330
658
100
AcDbEntity
  8
Livello 1
  0
POLYLINE
  5
65C
330
1F
100
AcDbEntity
  8
Livello 1
100
AcDb2dPolyline
 66
     1
 10
0.0
 20
0.0
 30
0.0
  0
VERTEX
  5
65D
330
65C
100
AcDbEntity
  8
Livello 1
100
AcDbVertex
100
AcDb2dVertex
 10
13.07239539751161
 20
7.756526269777872
 30
0.0
  0
VERTEX
  5
65E
330
65C
100
AcDbEntity
  8
Livello 1
100
AcDbVertex
100
AcDb2dVertex
 10
13.07239539751161
 20
7.738533720309995
 30
0.0
  0
VERTEX
  5
65F
330
65C
100
AcDbEntity
  8
Livello 1
100
AcDbVertex
100
AcDb2dVertex
 10
13.07486483118951
 20
7.730772835285208
 30
0.0
  0
SEQEND
  5
660
330
65C
100
AcDbEntity
  8
Livello 1
  0
SPLINE
  5
661
330
1F
100
AcDbEntity
  8
Livello 1
100
AcDbSpline
210
0.0
220
0.0
230
1.0
 70
     8
 71
     3
 72
    14
 73
    10
 74
     0
 42
0.000000001
 43
0.0000000001
 40
0.0
 40
0.0
 40
0.0
 40
0.0
 40
1.0
 40
1.0
 40
1.0
 40
2.0
 40
2.0
 40
2.0
 40
3.0
 40
3.0
 40
3.0
 40
3.0
 10
7.779952239943256
 20
6.387184250297345
 30
0.0
 10
7.779952239943256
 20
6.387184250297345
 30
0.0
 10
7.775012026847022
 20
6.430927542777041
 30
0.0
 10
7.775012026847022
 20
6.430927542777041
 30
0.0
 10
7.721037069924207
 20
6.672228220969898
 30
0.0
 10
7.386604425693562
 20
6.671523052987758
 30
0.0
 10
7.332982052761835
 20
6.430927542777041
 30
0.0
 10
7.332982052761835
 20
6.430927542777041
 30
0.0
 10
7.327690601414943
 20
6.387184250297345
 30
0.0
 10
7.327690601414943
 20
6.387184250297345
 30
0.0
  0
SPLINE
  5
662
330
1F
100
AcDbEntity
  8
Livello 1
100
AcDbSpline
210
0.0
220
0.0
230
1.0
 70
     8
 71
     3
 72
    14
 73
    10
 74
     0
 42
0.000000001
 43
0.0000000001
 40
0.0
 40
0.0
 40
0.0
 40
0.0
 40
1.0
 40
1.0
 40
1.0
 40
2.0
 40
2.0
 40
2.0
 40
3.0
 40
3.0
 40
3.0
 40
3.0
 10
7.779952239943256
 20
6.387184250297345
 30
0.0
 10
7.779952239943256
 20
6.387184250297345
 30
0.0
 10
7.775012026847022
 20
6.343439612077212
 30
0.0
 10
7.775012026847022
 20
6.343439612077212
 30
0.0
 10
7.721390999655696
 20
6.100374668188599
 30
0.0
 10
7.385192743988866
 20
6.103198031597997
 30
0.0
 10
7.332982052761835
 20
6.343439612077212
 30
0.0
 10
7.332982052761835
 20
6.343439612077212
 30
0.0
 10
7.327690601414943
 20
6.387184250297345
 30
0.0
 10
7.327690601414943
 20
6.387184250297345
 30
0.0
  0
POLYLINE
  5
663
330
1F
100
AcDbEntity
  8
Livello 1
100
AcDb2dPolyline
 66
     1
 10
0.0
 20
0.0
 30
0.0
  0
VERTEX
  5
664
330
663
100
AcDbEntity
  8
Livello 1
100
AcDbVertex
100
AcDb2dVertex
 10
13.09814748626384
 20
7.56641486583031
 30
0.0
  0
VERTEX
  5
665
330
663
100
AcDbEntity
  8
Livello 1
100
AcDbVertex
100
AcDb2dVertex
 10
13.09814748626384
 20
7.56112206874301
 30
0.0
  0
SEQEND
  5
666
330
663
100
AcDbEntity
  8
Livello 1
  0
SPLINE
  5
667
330
1F
100
AcDbEntity
  8
Livello 1
100
AcDbSpline
210
0.0
220
0.0
230
1.0
 70
     8
 71
     3
 72
    14
 73
    10
 74
     0
 42
0.000000001
 43
0.0000000001
 40
0.0
 40
0.0
 40
0.0
 40
0.0
 40
1.0
 40
1.0
 40
1.0
 40
2.0
 40
2.0
 40
2.0
 40
3.0
 40
3.0
 40
3.0
 40
3.0
 10
13.08015628253638
 20
7.676869202604855
 30
0.0
 10
13.08015628253638
 20
7.676869202604855
 30
0.0
 10
13.08262571621428
 20
7.664168104483856
 30
0.0
 10
13.08262571621428
 20
7.664168104483856
 30
0.0
 10
13.08932750352544
 20
7.633124564384736
 30
0.0
 10
13.0921495211944
 20
7.610193147561027
 30
0.0
 10
13.09567805258594
 20
7.579149607461921
 30
0.0
 10
13.09567805258594
 20
7.579149607461921
 30
0.0
 10
13.09814748626384
 20
7.566448509340915
 30
0.0
 10
13.09814748626384
 20
7.566448509340915
 30
0.0
  0
POLYLINE
  5
668
330
1F
100
AcDbEntity
  8
Livello 1
100
AcDb2dPolyline
 66
     1
 10
0.0
 20
0.0
 30
0.0
  0
VERTEX
  5
669
330
668
100
AcDbEntity
  8
Livello 1
100
AcDbVertex
100
AcDb2dVertex
 10
13.11614003573173
 20
5.785980098870219
 30
0.0
  0
VERTEX
  5
66A
330
668
100
AcDbEntity
  8
Livello 1
100
AcDbVertex
100
AcDb2dVertex
 10
13.10590837128863
 20
5.785980098870219
 30
0.0
  0
SEQEND
  5
66B
330
668
100
AcDbEntity
  8
Livello 1
  0
SPLINE
  5
66C
330
1F
100
AcDbEntity
  8
Livello 1
100
AcDbSpline
210
0.0
220
0.0
230
1.0
 70
     8
 71
     3
 72
    35
 73
    31
 74
     0
 42
0.000000001
 43
0.0000000001
 40
0.0
 40
0.0
 40
0.0
 40
0.0
 40
1.0
 40
1.0
 40
1.0
 40
2.0
 40
2.0
 40
2.0
 40
3.0
 40
3.0
 40
3.0
 40
4.0
 40
4.0
 40
4.0
 40
5.0
 40
5.0
 40
5.0
 40
6.0
 40
6.0
 40
6.0
 40
7.0
 40
7.0
 40
7.0
 40
8.0
 40
8.0
 40
8.0
 40
9.0
 40
9.0
 40
9.0
 40
10.0
 40
10.0
 40
10.0
 40
10.0
 10
13.15981334970938
 20
5.742306784892562
 30
0.0
 10
13.15981334970938
 20
5.742306784892562
 30
0.0
 10
13.14958168526628
 20
5.647409207418604
 30
0.0
 10
13.14958168526628
 20
5.647409207418604
 30
0.0
 10
13.14958168526628
 20
5.647409207418604
 30
0.0
 10
13.13935136656361
 20
5.549689612275649
 30
0.0
 10
13.13935136656361
 20
5.549689612275649
 30
0.0
 10
13.13935136656361
 20
5.549689612275649
 30
0.0
 10
13.12876846386986
 20
5.454439450810603
 30
0.0
 10
13.12876846386986
 20
5.454439450810603
 30
0.0
 10
13.12876846386986
 20
5.454439450810603
 30
0.0
 10
13.11606871148926
 20
5.359541873336638
 30
0.0
 10
13.11606871148926
 20
5.359541873336638
 30
0.0
 10
13.11606871148926
 20
5.359541873336638
 30
0.0
 10
13.10336761336826
 20
5.261822278193704
 30
0.0
 10
13.10336761336826
 20
5.261822278193704
 30
0.0
 10
13.10336761336826
 20
5.261822278193704
 30
0.0
 10
13.10054559569927
 20
5.236070189441463
 30
0.0
 10
13.10054559569927
 20
5.236070189441463
 30
0.0
 10
13.10054559569927
 20
5.236070189441463
 30
0.0
 10
13.10336761336826
 20
5.231131322085651
 30
0.0
 10
13.10336761336826
 20
5.231131322085651
 30
0.0
 10
13.10336761336826
 20
5.231131322085651
 30
0.0
 10
13.10054559569927
 20
5.215609552036099
 30
0.0
 10
13.10054559569927
 20
5.215609552036099
 30
0.0
 10
13.09525414435241
 20
5.182447816509714
 30
0.0
 10
13.0903152769966
 20
5.148933496992277
 30
0.0
 10
13.0853764096408
 20
5.115420523215249
 30
0.0
 10
13.0853764096408
 20
5.115420523215249
 30
0.0
 10
13.08008495829391
 20
5.099897407425274
 30
0.0
 10
13.08008495829391
 20
5.099897407425274
 30
0.0
  0
POLYLINE
  5
66D
330
1F
100
AcDbEntity
  8
Livello 1
100
AcDb2dPolyline
 66
     1
 10
0.0
 20
0.0
 30
0.0
  0
VERTEX
  5
66E
330
66D
100
AcDbEntity
  8
Livello 1
100
AcDbVertex
100
AcDb2dVertex
 10
6.996432558844375
 20
6.970360863005545
 30
0.0
  0
VERTEX
  5
66F
330
66D
100
AcDbEntity
  8
Livello 1
100
AcDbVertex
100
AcDb2dVertex
 10
13.16228278338728
 20
7.021159872527896
 30
0.0
  0
SEQEND
  5
670
330
66D
100
AcDbEntity
  8
Livello 1
  0
POLYLINE
  5
671
330
1F
100
AcDbEntity
  8
Livello 1
100
AcDb2dPolyline
 66
     1
 10
0.0
 20
0.0
 30
0.0
  0
VERTEX
  5
672
330
671
100
AcDbEntity
  8
Livello 1
100
AcDbVertex
100
AcDb2dVertex
 10
7.004158454618121
 20
5.785980098870219
 30
0.0
  0
VERTEX
  5
673
330
671
100
AcDbEntity
  8
Livello 1
100
AcDbVertex
100
AcDb2dVertex
 10
7.004158454618121
 20
5.780687301782926
 30
0.0
  0
VERTEX
  5
674
330
671
100
AcDbEntity
  8
Livello 1
100
AcDbVertex
100
AcDb2dVertex
 10
7.004158454618121
 20
5.74752691199697
 30
0.0
  0
VERTEX
  5
675
330
671
100
AcDbEntity
  8
Livello 1
100
AcDbVertex
100
AcDb2dVertex
 10
7.004158454618121
 20
5.742235460650093
 30
0.0
  0
SEQEND
  5
676
330
671
100
AcDbEntity
  8
Livello 1
  0
POLYLINE
  5
677
330
1F
100
AcDbEntity
  8
Livello 1
100
AcDb2dPolyline
 66
     1
 10
0.0
 20
0.0
 30
0.0
  0
VERTEX
  5
678
330
677
100
AcDbEntity
  8
Livello 1
100
AcDbVertex
100
AcDb2dVertex
 10
7.004158454618121
 20
5.785980098870219
 30
0.0
  0
VERTEX
  5
679
330
677
100
AcDbEntity
  8
Livello 1
100
AcDbVertex
100
AcDb2dVertex
 10
13.11109485488244
 20
5.785980098870219
 30
0.0
  0
SEQEND
  5
67A
330
677
100
AcDbEntity
  8
Livello 1
  0
POLYLINE
  5
67B
330
1F
100
AcDbEntity
  8
Livello 1
100
AcDb2dPolyline
 66
     1
 10
0.0
 20
0.0
 30
0.0
  0
VERTEX
  5
67C
330
67B
100
AcDbEntity
  8
Livello 1
100
AcDbVertex
100
AcDb2dVertex
 10
7.004158454618121
 20
7.0320267264511
 30
0.0
  0
VERTEX
  5
67D
330
67B
100
AcDbEntity
  8
Livello 1
100
AcDbVertex
100
AcDb2dVertex
 10
7.004158454618121
 20
7.024264495685905
 30
0.0
  0
VERTEX
  5
67E
330
67B
100
AcDbEntity
  8
Livello 1
100
AcDbVertex
100
AcDb2dVertex
 10
7.004158454618121
 20
6.990751521908883
 30
0.0
  0
VERTEX
  5
67F
330
67B
100
AcDbEntity
  8
Livello 1
100
AcDbVertex
100
AcDb2dVertex
 10
7.004158454618121
 20
6.988282088230967
 30
0.0
  0
SEQEND
  5
680
330
67B
100
AcDbEntity
  8
Livello 1
  0
POLYLINE
  5
681
330
1F
100
AcDbEntity
  8
Livello 1
100
AcDb2dPolyline
 66
     1
 10
0.0
 20
0.0
 30
0.0
  0
VERTEX
  5
682
330
681
100
AcDbEntity
  8
Livello 1
100
AcDbVertex
100
AcDb2dVertex
 10
13.08015628253638
 20
5.100038710169783
 30
0.0
  0
VERTEX
  5
683
330
681
100
AcDbEntity
  8
Livello 1
100
AcDbVertex
100
AcDb2dVertex
 10
13.07768550311805
 20
5.087337612048763
 30
0.0
  0
VERTEX
  5
684
330
681
100
AcDbEntity
  8
Livello 1
100
AcDbVertex
100
AcDb2dVertex
 10
13.07239405177118
 20
5.089807045726672
 30
0.0
  0
SEQEND
  5
685
330
681
100
AcDbEntity
  8
Livello 1
  0
POLYLINE
  5
686
330
1F
100
AcDbEntity
  8
Livello 1
100
AcDb2dPolyline
 66
     1
 10
0.0
 20
0.0
 30
0.0
  0
VERTEX
  5
687
330
686
100
AcDbEntity
  8
Livello 1
100
AcDbVertex
100
AcDb2dVertex
 10
7.004158454618121
 20
5.742306784892562
 30
0.0
  0
VERTEX
  5
688
330
686
100
AcDbEntity
  8
Livello 1
100
AcDbVertex
100
AcDb2dVertex
 10
7.004158454618121
 20
4.951731386751042
 30
0.0
  0
SEQEND
  5
689
330
686
100
AcDbEntity
  8
Livello 1
  0
POLYLINE
  5
68A
330
1F
100
AcDbEntity
  8
Livello 1
100
AcDb2dPolyline
 66
     1
 10
0.0
 20
0.0
 30
0.0
  0
VERTEX
  5
68B
330
68A
100
AcDbEntity
  8
Livello 1
100
AcDbVertex
100
AcDb2dVertex
 10
13.10068824418421
 20
5.785980098870219
 30
0.0
  0
VERTEX
  5
68C
330
68A
100
AcDbEntity
  8
Livello 1
100
AcDbVertex
100
AcDb2dVertex
 10
13.1059796955311
 20
5.785980098870219
 30
0.0
  0
SEQEND
  5
68D
330
68A
100
AcDbEntity
  8
Livello 1
  0
POLYLINE
  5
68E
330
1F
100
AcDbEntity
  8
Livello 1
100
AcDb2dPolyline
 66
     1
 10
0.0
 20
0.0
 30
0.0
  0
VERTEX
  5
68F
330
68E
100
AcDbEntity
  8
Livello 1
100
AcDbVertex
100
AcDb2dVertex
 10
7.004158454618121
 20
6.988353412473443
 30
0.0
  0
VERTEX
  5
690
330
68E
100
AcDbEntity
  8
Livello 1
100
AcDbVertex
100
AcDb2dVertex
 10
7.004158454618121
 20
5.786086412363715
 30
0.0
  0
SEQEND
  5
691
330
68E
100
AcDbEntity
  8
Livello 1
  0
POLYLINE
  5
692
330
1F
100
AcDbEntity
  8
Livello 1
100
AcDb2dPolyline
 66
     1
 10
0.0
 20
0.0
 30
0.0
  0
VERTEX
  5
693
330
692
100
AcDbEntity
  8
Livello 1
100
AcDbVertex
100
AcDb2dVertex
 10
13.1623890968808
 20
6.988353412473443
 30
0.0
  0
VERTEX
  5
694
330
692
100
AcDbEntity
  8
Livello 1
100
AcDbVertex
100
AcDb2dVertex
 10
13.15709629979348
 20
6.988353412473443
 30
0.0
  0
SEQEND
  5
695
330
692
100
AcDbEntity
  8
Livello 1
  0
SPLINE
  5
696
330
1F
100
AcDbEntity
  8
Livello 1
100
AcDbSpline
210
0.0
220
0.0
230
1.0
 70
     8
 71
     3
 72
    14
 73
    10
 74
     0
 42
0.000000001
 43
0.0000000001
 40
0.0
 40
0.0
 40
0.0
 40
0.0
 40
1.0
 40
1.0
 40
1.0
 40
2.0
 40
2.0
 40
2.0
 40
3.0
 40
3.0
 40
3.0
 40
3.0
 10
13.1623890968808
 20
5.785980098870219
 30
0.0
 10
13.1623890968808
 20
5.785980098870219
 30
0.0
 10
13.1673279642366
 20
5.883698348272744
 30
0.0
 10
13.1673279642366
 20
5.883698348272744
 30
0.0
 10
13.18955286733772
 20
6.238945559640235
 30
0.0
 10
13.18919893760623
 20
6.592077267061291
 30
0.0
 10
13.1648585305587
 20
6.947324478428797
 30
0.0
 10
13.1648585305587
 20
6.947324478428797
 30
0.0
 10
13.15991831746247
 20
6.988245753239517
 30
0.0
 10
13.15991831746247
 20
6.988245753239517
 30
0.0
  0
POLYLINE
  5
697
330
1F
100
AcDbEntity
  8
Livello 1
100
AcDb2dPolyline
 66
     1
 10
0.0
 20
0.0
 30
0.0
  0
VERTEX
  5
698
330
697
100
AcDbEntity
  8
Livello 1
100
AcDbVertex
100
AcDb2dVertex
 10
13.15720261328697
 20
5.785980098870219
 30
0.0
  0
VERTEX
  5
699
330
697
100
AcDbEntity
  8
Livello 1
100
AcDbVertex
100
AcDb2dVertex
 10
13.16249406463386
 20
5.785980098870219
 30
0.0
  0
SEQEND
  5
69A
330
697
100
AcDbEntity
  8
Livello 1
  0
POLYLINE
  5
69B
330
1F
100
AcDbEntity
  8
Livello 1
100
AcDb2dPolyline
 66
     1
 10
0.0
 20
0.0
 30
0.0
  0
VERTEX
  5
69C
330
69B
100
AcDbEntity
  8
Livello 1
100
AcDbVertex
100
AcDb2dVertex
 10
13.11614003573173
 20
5.785980098870219
 30
0.0
  0
VERTEX
  5
69D
330
69B
100
AcDbEntity
  8
Livello 1
100
AcDbVertex
100
AcDb2dVertex
 10
13.15706131054246
 20
5.785980098870219
 30
0.0
  0
SEQEND
  5
69E
330
69B
100
AcDbEntity
  8
Livello 1
  0
POLYLINE
  5
69F
330
1F
100
AcDbEntity
  8
Livello 1
100
AcDb2dPolyline
 66
     1
 10
0.0
 20
0.0
 30
0.0
  0
VERTEX
  5
6A0
330
69F
100
AcDbEntity
  8
Livello 1
100
AcDbVertex
100
AcDb2dVertex
 10
13.1623890968808
 20
6.988353412473443
 30
0.0
  0
VERTEX
  5
6A1
330
69F
100
AcDbEntity
  8
Livello 1
100
AcDbVertex
100
AcDb2dVertex
 10
13.1623890968808
 20
7.014105501225685
 30
0.0
  0
SEQEND
  5
6A2
330
69F
100
AcDbEntity
  8
Livello 1
  0
POLYLINE
  5
6A3
330
1F
100
AcDbEntity
  8
Livello 1
100
AcDb2dPolyline
 66
     1
 10
0.0
 20
0.0
 30
0.0
  0
VERTEX
  5
6A4
330
6A3
100
AcDbEntity
  8
Livello 1
100
AcDbVertex
100
AcDb2dVertex
 10
13.1623890968808
 20
5.760297988620024
 30
0.0
  0
VERTEX
  5
6A5
330
6A3
100
AcDbEntity
  8
Livello 1
100
AcDbVertex
100
AcDb2dVertex
 10
13.1623890968808
 20
5.786050077372273
 30
0.0
  0
SEQEND
  5
6A6
330
6A3
100
AcDbEntity
  8
Livello 1
  0
POLYLINE
  5
6A7
330
1F
100
AcDbEntity
  8
Livello 1
100
AcDb2dPolyline
 66
     1
 10
0.0
 20
0.0
 30
0.0
  0
VERTEX
  5
6A8
330
6A7
100
AcDbEntity
  8
Livello 1
100
AcDbVertex
100
AcDb2dVertex
 10
13.15981334970938
 20
5.742306784892562
 30
0.0
  0
VERTEX
  5
6A9
330
6A7
100
AcDbEntity
  8
Livello 1
100
AcDbVertex
100
AcDb2dVertex
 10
13.14958168526628
 20
5.647409207418604
 30
0.0
  0
VERTEX
  5
6AA
330
6A7
100
AcDbEntity
  8
Livello 1
100
AcDbVertex
100
AcDb2dVertex
 10
13.13935136656361
 20
5.549689612275649
 30
0.0
  0
VERTEX
  5
6AB
330
6A7
100
AcDbEntity
  8
Livello 1
100
AcDbVertex
100
AcDb2dVertex
 10
13.12876846386986
 20
5.454439450810603
 30
0.0
  0
VERTEX
  5
6AC
330
6A7
100
AcDbEntity
  8
Livello 1
100
AcDbVertex
100
AcDb2dVertex
 10
13.11606871148926
 20
5.359541873336638
 30
0.0
  0
VERTEX
  5
6AD
330
6A7
100
AcDbEntity
  8
Livello 1
100
AcDbVertex
100
AcDb2dVertex
 10
13.10336761336826
 20
5.261822278193704
 30
0.0
  0
VERTEX
  5
6AE
330
6A7
100
AcDbEntity
  8
Livello 1
100
AcDbVertex
100
AcDb2dVertex
 10
13.10054559569927
 20
5.233600755763553
 30
0.0
  0
SEQEND
  5
6AF
330
6A7
100
AcDbEntity
  8
Livello 1
  0
POLYLINE
  5
6B0
330
1F
100
AcDbEntity
  8
Livello 1
100
AcDb2dPolyline
 66
     1
 10
0.0
 20
0.0
 30
0.0
  0
VERTEX
  5
6B1
330
6B0
100
AcDbEntity
  8
Livello 1
100
AcDbVertex
100
AcDb2dVertex
 10
13.10068824418421
 20
5.210529381935771
 30
0.0
  0
VERTEX
  5
6B2
330
6B0
100
AcDbEntity
  8
Livello 1
100
AcDbVertex
100
AcDb2dVertex
 10
13.10315767786211
 20
5.230990019341135
 30
0.0
  0
SEQEND
  5
6B3
330
6B0
100
AcDbEntity
  8
Livello 1
  0
SPLINE
  5
6B4
330
1F
100
AcDbEntity
  8
Livello 1
100
AcDbSpline
210
0.0
220
0.0
230
1.0
 70
     8
 71
     3
 72
    14
 73
    10
 74
     0
 42
0.000000001
 43
0.0000000001
 40
0.0
 40
0.0
 40
0.0
 40
0.0
 40
1.0
 40
1.0
 40
1.0
 40
2.0
 40
2.0
 40
2.0
 40
3.0
 40
3.0
 40
3.0
 40
3.0
 10
12.95425015421431
 20
7.856715298598707
 30
0.0
 10
12.95425015421431
 20
7.856715298598707
 30
0.0
 10
12.97471079161967
 20
7.854244519180397
 30
0.0
 10
12.97471079161967
 20
7.854244519180397
 30
0.0
 10
13.01845542983982
 20
7.84577846617347
 30
0.0
 10
13.05020548366149
 20
7.817909527734386
 30
0.0
 10
13.06713893541574
 20
7.776986907183236
 30
0.0
 10
13.06713893541574
 20
7.776986907183236
 30
0.0
 10
13.07243038676263
 20
7.756526269777872
 30
0.0
 10
13.07243038676263
 20
7.756526269777872
 30
0.0
  0
POLYLINE
  5
6B5
330
1F
100
AcDbEntity
  8
Livello 1
100
AcDb2dPolyline
 66
     1
 10
0.0
 20
0.0
 30
0.0
  0
VERTEX
  5
6B6
330
6B5
100
AcDbEntity
  8
Livello 1
100
AcDbVertex
100
AcDb2dVertex
 10
13.074971144683
 20
7.73080917027665
 30
0.0
  0
VERTEX
  5
6B7
330
6B5
100
AcDbEntity
  8
Livello 1
100
AcDbVertex
100
AcDb2dVertex
 10
13.074971144683
 20
7.712816620808759
 30
0.0
  0
VERTEX
  5
6B8
330
6B5
100
AcDbEntity
  8
Livello 1
100
AcDbVertex
100
AcDb2dVertex
 10
13.08026259602987
 20
7.676832867613413
 30
0.0
  0
SEQEND
  5
6B9
330
6B5
100
AcDbEntity
  8
Livello 1
  0
POLYLINE
  5
6BA
330
1F
100
AcDbEntity
  8
Livello 1
100
AcDb2dPolyline
 66
     1
 10
0.0
 20
0.0
 30
0.0
  0
VERTEX
  5
6BB
330
6BA
100
AcDbEntity
  8
Livello 1
100
AcDbVertex
100
AcDb2dVertex
 10
13.16623387727195
 20
6.991493024882458
 30
0.0
  0
VERTEX
  5
6BC
330
6BA
100
AcDbEntity
  8
Livello 1
100
AcDbVertex
100
AcDb2dVertex
 10
13.10061691994174
 20
7.563697815914395
 30
0.0
  0
SEQEND
  5
6BD
330
6BA
100
AcDbEntity
  8
Livello 1
  0
POLYLINE
  5
6BE
330
1F
100
AcDbEntity
  8
Livello 1
100
AcDb2dPolyline
 66
     1
 10
0.0
 20
0.0
 30
0.0
  0
VERTEX
  5
6BF
330
6BE
100
AcDbEntity
  8
Livello 1
100
AcDbVertex
100
AcDb2dVertex
 10
12.96451546216802
 20
7.856715298598707
 30
0.0
  0
VERTEX
  5
6C0
330
6BE
100
AcDbEntity
  8
Livello 1
100
AcDbVertex
100
AcDb2dVertex
 10
7.00433474661365
 20
7.856715298598707
 30
0.0
  0
VERTEX
  5
6C1
330
6BE
100
AcDbEntity
  8
Livello 1
100
AcDbVertex
100
AcDb2dVertex
 10
7.003982162622591
 20
7.473950387042798
 30
0.0
  0
VERTEX
  5
6C2
330
6BE
100
AcDbEntity
  8
Livello 1
100
AcDbVertex
100
AcDb2dVertex
 10
7.003982162622591
 20
7.03192041295761
 30
0.0
  0
SEQEND
  5
6C3
330
6BE
100
AcDbEntity
  8
Livello 1
  0
SPLINE
  5
6C4
330
1F
100
AcDbEntity
  8
Livello 1
100
AcDbSpline
210
0.0
220
0.0
230
1.0
 70
     8
 71
     3
 72
    14
 73
    10
 74
     0
 42
0.000000001
 43
0.0000000001
 40
0.0
 40
0.0
 40
0.0
 40
0.0
 40
1.0
 40
1.0
 40
1.0
 40
2.0
 40
2.0
 40
2.0
 40
3.0
 40
3.0
 40
3.0
 40
3.0
 10
6.996432558844375
 20
4.917653201995968
 30
0.0
 10
6.996432558844375
 20
4.917653201995968
 30
0.0
 10
12.95414384072084
 20
4.917653201995968
 30
0.0
 10
12.95414384072084
 20
4.917653201995968
 30
0.0
 10
12.95414384072084
 20
4.917653201995968
 30
0.0
 10
12.99859364692308
 20
4.926119255002895
 30
0.0
 10
13.07761552461603
 20
5.087338957789185
 30
0.0
 10
13.07761552461603
 20
5.087338957789185
 30
0.0
 10
13.06491577223544
 20
5.053824638271741
 30
0.0
 10
13.06491577223544
 20
5.053824638271741
 30
0.0
  0
SPLINE
  5
6C5
330
1F
100
AcDbEntity
  8
Livello 1
 62
     1
370
    50
100
AcDbSpline
210
0.0
220
0.0
230
1.0
 70
    27
 71
     3
 72
    11
 73
     7
 74
     0
 42
0.000000001
 43
0.0000000001
 40
0.0
 40
0.0
 40
0.0
 40
0.0
 40
1.0
 40
1.0
 40
1.0
 40
2.0
 40
2.0
 40
2.0
 40
2.0
 10
2.823494711054721
 20
5.935876741729622
 30
0.0
 10
2.823494711054721
 20
5.935876741729622
 30
0.0
 10
13.15706131054246
 20
5.935876741729622
 30
0.0
 10
13.15706131054246
 20
5.935876741729622
 30
0.0
 10
13.15706131054246
 20
5.935876741729622
 30
0.0
 10
2.823494711054721
 20
5.935876741729622
 30
0.0
 10
2.823494711054721
 20
5.935876741729622
 30
0.0
  0
HATCH
  5
6C6
330
1F
100
AcDbEntity
  8
Livello 1
 62
     1
370
    50
100
AcDbHatch
 10
0.0
 20
0.0
 30
0.0
210
0.0
220
0.0
230
1.0
  2
SOLID
 70
     1
 71
     0
 91
        1
 92
        1
 93
        1
 72
     4
 94
        3
 73
     0
 74
     0
 95
       11
 96
        7
 40
0.0
 40
0.0
 40
0.0
 40
0.0
 40
1.0
 40
1.0
 40
1.0
 40
2.0
 40
2.0
 40
2.0
 40
2.0
 10
2.823494711054721
 20
5.935876741729622
 10
2.823494711054721
 20
5.935876741729622
 10
13.15706131054246
 20
5.935876741729622
 10
13.15706131054246
 20
5.935876741729622
 10
13.15706131054246
 20
5.935876741729622
 10
2.823494711054721
 20
5.935876741729622
 10
2.823494711054721
 20
5.935876741729622
 97
        0
 97
        0
 75
     2
 76
     1
 98
        0
450
        0
451
        0
460
0.0
461
0.0
452
        0
462
0.0
453
        0
470

  0
POLYLINE
  5
6C7
330
1F
100
AcDbEntity
  8
Livello 1
 62
     1
370
    50
100
AcDb2dPolyline
 66
     1
 10
0.0
 20
0.0
 30
0.0
  0
VERTEX
  5
6C8
330
6C7
100
AcDbEntity
  8
Livello 1
 62
     1
370
    50
100
AcDbVertex
100
AcDb2dVertex
 10
2.82335475405064
 20
5.935911730980635
 30
0.0
  0
VERTEX
  5
6C9
330
6C7
100
AcDbEntity
  8
Livello 1
 62
     1
370
    50
100
AcDbVertex
100
AcDb2dVertex
 10
13.15727393752944
 20
5.935911730980635
 30
0.0
  0
SEQEND
  5
6CA
330
6C7
100
AcDbEntity
  8
Livello 1
 62
     1
370
    50
  0
ENDSEC
  0
SECTION
  2
OBJECTS
  0
DICTIONARY
  5
C
330
0
100
AcDbDictionary
281
     1
  3
ACAD_CIP_PREVIOUS_PRODUCT_INFO
350
216
  3
ACAD_COLOR
350
6B
  3
ACAD_DETAILVIEWSTYLE
350
21B
  3
ACAD_GROUP
350
D
  3
ACAD_LAYOUT
350
1A
  3
ACAD_MATERIAL
350
6A
  3
ACAD_MLEADERSTYLE
350
12D
  3
ACAD_MLINESTYLE
350
17
  3
ACAD_PLOTSETTINGS
350
19
  3
ACAD_PLOTSTYLENAME
350
E
  3
ACAD_SCALELIST
350
10C
  3
ACAD_SECTIONVIEWSTYLE
350
219
  3
ACAD_TABLESTYLE
350
7E
  3
ACAD_VISUALSTYLE
350
EF
  3
ACDB_RECOMPOSE_DATA
350
8EA
  3
AcDbVariableDictionary
350
5E
  3
AcDsDecomposeData
350
8F0
  0
DICTIONARY
  5
1FF
330
2
100
AcDbDictionary
280
     1
281
     1
  3
ACAD_LAYERSTATES
360
200
  0
DICTIONARY
  5
13C
330
10
100
AcDbDictionary
280
     1
281
     1
  0
DICTIONARY
  5
1CE
330
1F
100
AcDbDictionary
280
     1
281
     1
  0
DICTIONARY
  5
8E5
330
6CB
100
AcDbDictionary
280
     1
281
     1
  3
ACAD_SORTENTS
360
8E6
  0
XRECORD
  5
216
102
{ACAD_REACTORS
330
C
102
}
330
C
100
AcDbXrecord
280
     1
300
ACD
300
2020
300

  0
DICTIONARY
  5
6B
102
{ACAD_REACTORS
330
C
102
}
330
C
100
AcDbDictionary
281
     1
  0
DICTIONARY
  5
21B
102
{ACAD_REACTORS
330
C
102
}
330
C
100
AcDbDictionary
281
     1
  3
Imperial24
350
28F
  3
Metric50
350
21C
  0
DICTIONARY
  5
D
102
{ACAD_REACTORS
330
C
102
}
330
C
100
AcDbDictionary
281
     1
  0
DICTIONARY
  5
1A
102
{ACAD_REACTORS
330
C
102
}
330
C
100
AcDbDictionary
281
     1
  3
Layout1
350
D3
  3
Layout2
350
D7
  3
Model
350
22
  0
DICTIONARY
  5
6A
102
{ACAD_REACTORS
330
C
102
}
330
C
100
AcDbDictionary
281
     1
  3
ByBlock
350
ED
  3
ByLayer
350
EC
  3
Global
350
EE
  0
DICTIONARY
  5
12D
102
{ACAD_REACTORS
330
C
102
}
330
C
100
AcDbDictionary
281
     1
  3
Annotativa
350
13B
  3
Standard
350
12E
  0
DICTIONARY
  5
17
102
{ACAD_REACTORS
330
C
102
}
330
C
100
AcDbDictionary
281
     1
  3
Standard
350
18
  0
DICTIONARY
  5
19
102
{ACAD_REACTORS
330
C
102
}
330
C
100
AcDbDictionary
281
     1
  0
ACDBDICTIONARYWDFLT
  5
E
102
{ACAD_REACTORS
330
C
102
}
330
C
100
AcDbDictionary
281
     1
  3
Normal
350
F
100
AcDbDictionaryWithDefault
340
F
  0
DICTIONARY
  5
10C
102
{ACAD_REACTORS
330
C
102
}
330
C
100
AcDbDictionary
281
     1
  3
A0
350
10D
  3
A1
350
1BE
  3
A2
350
1BF
  3
A3
350
1C0
  3
A4
350
1C1
  3
A5
350
1C2
  3
A6
350
1C3
  3
A7
350
1C4
  3
A8
350
1C5
  3
A9
350
1C6
  3
B0
350
1C7
  3
B1
350
1C8
  3
B2
350
1C9
  3
B3
350
1CA
  3
B4
350
1CB
  3
B5
350
1CC
  3
B6
350
1CD
  0
DICTIONARY
  5
219
102
{ACAD_REACTORS
330
C
102
}
330
C
100
AcDbDictionary
281
     1
  3
Imperial24
350
28E
  3
Metric50
350
21A
  0
DICTIONARY
  5
7E
102
{ACAD_REACTORS
330
C
102
}
330
C
100
AcDbDictionary
281
     1
  3
Standard
350
7F
  0
DICTIONARY
  5
EF
102
{ACAD_REACTORS
330
C
102
}
330
C
100
AcDbDictionary
281
     1
  3
2dWireframe
350
F5
  3
Basic
350
F4
  3
Brighten
350
FB
  3
ColorChange
350
FF
  3
Conceptual
350
F8
  3
Dim
350
FA
  3
EdgeColorOff
350
1E6
  3
Facepattern
350
FE
  3
Flat
350
F0
  3
FlatWithEdges
350
F1
  3
Gouraud
350
F2
  3
GouraudWithEdges
350
F3
  3
Hidden
350
F7
  3
JitterOff
350
1E4
  3
Linepattern
350
FD
  3
OverhangOff
350
1E5
  3
Realistic
350
F9
  3
Shaded
350
1F3
  3
Shaded with edges
350
1F2
  3
Shades of Gray
350
1EF
  3
Sketchy
350
1F0
  3
Thicken
350
FC
  3
Wireframe
350
F6
  3
X-Ray
350
1F1
  0
XRECORD
  5
8EA
102
{ACAD_REACTORS
330
C
102
}
330
C
100
AcDbXrecord
280
     1
 90
        1
330
7F
  0
DICTIONARY
  5
5E
102
{ACAD_REACTORS
330
C
102
}
330
C
100
AcDbDictionary
281
     1
  3
CANNOSCALE
350
146
  3
CENTEREXE
350
259
  3
CENTERLTYPEFILE
350
25A
  3
CMLEADERSTYLE
350
145
  3
CTABLESTYLE
350
84
  3
CVIEWDETAILSTYLE
350
227
  3
CVIEWSECTIONSTYLE
350
228
  3
DIMASSOC
350
5F
  3
HIDETEXT
350
63
  3
LAYEREVAL
350
1AE
  3
LAYERNOTIFY
350
1AF
  0
DICTIONARY
  5
8F0
102
{ACAD_REACTORS
330
C
102
}
330
C
100
AcDbDictionary
281
     1
  3
AcDsRecords
350
8F2
  3
AcDsSchemas
350
8F1
1001
ACAD
1070
     2
  0
DICTIONARY
  5
200
102
{ACAD_REACTORS
330
1FF
102
}
330
1FF
100
AcDbDictionary
281
     1
  0
SORTENTSTABLE
  5
8E6
102
{ACAD_REACTORS
330
8E5
102
}
330
8E5
100
AcDbSortentsTable
330
6CB
  0
ACDBDETAILVIEWSTYLE
  5
28F
102
{ACAD_XDICTIONARY
360
8F9
102
}
102
{ACAD_REACTORS
330
21B
102
}
330
21B
100
AcDbModelDocViewStyle
 70
     0
  3
Imperial24
290
     0
100
AcDbDetailViewStyle
 70
     0
 71
     0
 90
        3
 71
     1
340
11
 62
   256
 40
0.24
340
0
 62
   256
 40
0.24
300

 40
0.36
280
     3
 71
     2
340
16
 90
       25
 62
   256
 71
     3
340
11
 62
   256
 40
0.24
 90
        1
 40
0.75
 90
        1
300
%<\AcVar ViewType \f "%tc1">% %<\AcVar ViewDetailId>%\PSCALA %<\AcVar ViewScale \f "%sn">%
 71
     4
340
16
 90
       25
 62
   256
340
16
 90
       25
 62
   256
280
     0
  0
ACDBDETAILVIEWSTYLE
  5
21C
102
{ACAD_XDICTIONARY
360
8F5
102
}
102
{ACAD_REACTORS
330
21B
102
}
330
21B
100
AcDbModelDocViewStyle
 70
     0
  3
Metric50
290
     0
100
AcDbDetailViewStyle
 70
     0
 71
     0
 90
        3
 71
     1
340
11
 62
   256
 40
5.0
340
0
 62
   256
 40
5.0
300

 40
0.0
280
     1
 71
     2
340
16
 90
       25
 62
   256
 71
     3
340
11
 62
   256
 40
5.0
 90
        0
 40
15.0
 90
        1
300
%<\AcVar ViewDetailId>% (%<\AcVar ViewScale \f "%sn">%)
 71
     4
340
16
 90
       25
 62
   256
340
16
 90
       25
 62
   256
280
     0
  0
LAYOUT
  5
D3
102
{ACAD_REACTORS
330
1A
102
}
330
1A
100
AcDbPlotSettings
  1

  2
C:\Documents and Settings\basas\Application Data\Autodesk\AutoCAD 2005\R16.1\enu\plotters\Default Windows System Printer.pc3
  4

  6

 40
0.0
 41
0.0
 42
0.0
 43
0.0
 44
0.0
 45
0.0
 46
0.0
 47
0.0
 48
0.0
 49
0.0
140
0.0
141
0.0
142
1.0
143
1.0
 70
   688
 72
     0
 73
     0
 74
     5
  7

 75
    16
147
1.0
 76
     0
 77
     2
 78
   300
148
0.0
149
0.0
100
AcDbLayout
  1
Layout1
 70
     1
 71
     1
 10
0.0
 20
0.0
 11
12.0
 21
9.0
 12
0.0
 22
0.0
 32
0.0
 14
0.0
 24
0.0
 34
0.0
 15
0.0
 25
0.0
 35
0.0
146
0.0
 13
0.0
 23
0.0
 33
0.0
 16
1.0
 26
0.0
 36
0.0
 17
0.0
 27
1.0
 37
0.0
 76
     0
330
D2
  0
LAYOUT
  5
D7
102
{ACAD_REACTORS
330
1A
102
}
330
1A
100
AcDbPlotSettings
  1

  2
C:\Documents and Settings\basas\Application Data\Autodesk\AutoCAD 2005\R16.1\enu\plotters\Default Windows System Printer.pc3
  4

  6

 40
0.0
 41
0.0
 42
0.0
 43
0.0
 44
0.0
 45
0.0
 46
0.0
 47
0.0
 48
0.0
 49
0.0
140
0.0
141
0.0
142
1.0
143
1.0
 70
   688
 72
     0
 73
     0
 74
     5
  7

 75
    16
147
1.0
 76
     0
 77
     2
 78
   300
148
0.0
149
0.0
100
AcDbLayout
  1
Layout2
 70
     1
 71
     2
 10
0.0
 20
0.0
 11
12.0
 21
9.0
 12
0.0
 22
0.0
 32
0.0
 14
0.0
 24
0.0
 34
0.0
 15
0.0
 25
0.0
 35
0.0
146
0.0
 13
0.0
 23
0.0
 33
0.0
 16
1.0
 26
0.0
 36
0.0
 17
0.0
 27
1.0
 37
0.0
 76
     0
330
D6
  0
LAYOUT
  5
22
102
{ACAD_XDICTIONARY
360
205
102
}
102
{ACAD_REACTORS
330
1A
102
}
330
1A
100
AcDbPlotSettings
  1

  2
none_device
  4
ISO_A4_(210.00_x_297.00_MM)
  6

 40
7.5
 41
20.0
 42
7.5
 43
20.0
 44
210.0
 45
297.0
 46
11.54999923706054
 47
-13.65000009536743
 48
0.0
 49
0.0
140
0.0
141
0.0
142
1.0
143
8.704084754739808
 70
 11952
 72
     1
 73
     0
 74
     0
  7

 75
     0
147
0.1148885871608098
 76
     0
 77
     2
 78
   300
148
0.0
149
0.0
100
AcDbLayout
  1
Model
 70
     1
 71
     0
 10
0.0
 20
0.0
 11
12.0
 21
9.0
 12
0.0
 22
0.0
 32
0.0
 14
0.0
 24
0.0
 34
0.0
 15
0.0
 25
0.0
 35
0.0
146
0.0
 13
0.0
 23
0.0
 33
0.0
 16
1.0
 26
0.0
 36
0.0
 17
0.0
 27
1.0
 37
0.0
 76
     0
330
1F
331
EA
1001
ACAD_PSEXT
1000
None
1000
None
1000
Not applicable
1000
The layout will not be plotted unless a new plotter configuration name is selected.
1070
     0
  0
MATERIAL
  5
ED
102
{ACAD_XDICTIONARY
360
1F9
102
}
102
{ACAD_REACTORS
330
6A
102
}
330
6A
100
AcDbMaterial
  1
ByBlock
 94
       63
  0
MATERIAL
  5
EC
102
{ACAD_XDICTIONARY
360
1F7
102
}
102
{ACAD_REACTORS
330
6A
102
}
330
6A
100
AcDbMaterial
  1
ByLayer
 94
       63
  0
MATERIAL
  5
EE
102
{ACAD_XDICTIONARY
360
173
102
}
102
{ACAD_REACTORS
330
6A
102
}
330
6A
100
AcDbMaterial
  1
Global
 43
0.0007999999797903
 43
0.0
 43
0.0
 43
0.0
 43
0.0
 43
0.0007999999797903
 43
0.0
 43
0.0
 43
0.0
 43
0.0
 43
1.0
 43
0.0
 43
0.0
 43
0.0
 43
0.0
 43
1.0
 49
0.0007999999797903
 49
0.0
 49
0.0
 49
0.0
 49
0.0
 49
0.0007999999797903
 49
0.0
 49
0.0
 49
0.0
 49
0.0
 49
1.0
 49
0.0
 49
0.0
 49
0.0
 49
0.0
 49
1.0
142
0.0007999999797903
142
0.0
142
0.0
142
0.0
142
0.0
142
0.0007999999797903
142
0.0
142
0.0
142
0.0
142
0.0
142
1.0
142
0.0
142
0.0
142
0.0
142
0.0
142
1.0
144
0.0007999999797903
144
0.0
144
0.0
144
0.0
144
0.0
144
0.0007999999797903
144
0.0
144
0.0
144
0.0
144
0.0
144
1.0
144
0.0
144
0.0
144
0.0
144
0.0
144
1.0
 94
       63
1001
ACAD
1070
    -1
1070
     3
1070
     0
1000

1071
        0
1070
     0
  0
MLEADERSTYLE
  5
13B
102
{ACAD_REACTORS
330
12D
102
}
330
12D
100
AcDbMLeaderStyle
179
     2
170
     2
171
     1
172
     0
 90
        2
 40
0.0
 41
0.0
173
     1
 91
-1056964608
340
14
 92
       -2
290
     1
 42
2.0
291
     1
 43
8.0
  3
Standard
 44
4.0
300

342
11
174
     1
178
     1
175
     1
176
     0
 93
-1056964608
 45
4.0
292
     0
297
     0
 46
4.0
 94
-1056964608
 47
1.0
 49
1.0
140
1.0
293
     1
141
0.0
294
     1
177
     0
142
1.0
295
     0
296
     1
143
3.75
271
     0
272
     9
273
     9
298
     0
  0
MLEADERSTYLE
  5
12E
102
{ACAD_REACTORS
330
12D
102
}
330
12D
100
AcDbMLeaderStyle
179
     2
170
     2
171
     1
172
     0
 90
        2
 40
0.0
 41
0.0
173
     1
 91
-1056964608
340
14
 92
       -2
290
     1
 42
2.0
291
     1
 43
8.0
  3
Standard
 44
4.0
300

342
11
174
     1
178
     1
175
     1
176
     0
 93
-1056964608
 45
4.0
292
     0
297
     0
 46
4.0
 94
-1056964608
 47
1.0
 49
1.0
140
1.0
293
     1
141
0.0
294
     1
177
     0
142
1.0
295
     0
296
     0
143
3.75
271
     0
272
     9
273
     9
298
     0
  0
MLINESTYLE
  5
18
102
{ACAD_REACTORS
330
17
102
}
330
17
100
AcDbMlineStyle
  2
STANDARD
 70
     0
  3

 62
   256
 51
90.0
 52
90.0
 71
     2
 49
0.5
 62
   256
  6
BYLAYER
 49
-0.5
 62
   256
  6
BYLAYER
  0
ACDBPLACEHOLDER
  5
F
102
{ACAD_REACTORS
330
E
102
}
330
E
  0
SCALE
  5
10D
102
{ACAD_REACTORS
330
10C
102
}
330
10C
100
AcDbScale
 70
     0
300
1:1
140
1.0
141
1.0
290
     1
  0
SCALE
  5
1BE
102
{ACAD_REACTORS
330
10C
102
}
330
10C
100
AcDbScale
 70
     0
300
1:2
140
1.0
141
2.0
290
     0
  0
SCALE
  5
1BF
102
{ACAD_REACTORS
330
10C
102
}
330
10C
100
AcDbScale
 70
     0
300
1:4
140
1.0
141
4.0
290
     0
  0
SCALE
  5
1C0
102
{ACAD_REACTORS
330
10C
102
}
330
10C
100
AcDbScale
 70
     0
300
1:5
140
1.0
141
5.0
290
     0
  0
SCALE
  5
1C1
102
{ACAD_REACTORS
330
10C
102
}
330
10C
100
AcDbScale
 70
     0
300
1:8
140
1.0
141
8.0
290
     0
  0
SCALE
  5
1C2
102
{ACAD_REACTORS
330
10C
102
}
330
10C
100
AcDbScale
 70
     0
300
1:10
140
1.0
141
10.0
290
     0
  0
SCALE
  5
1C3
102
{ACAD_REACTORS
330
10C
102
}
330
10C
100
AcDbScale
 70
     0
300
1:16
140
1.0
141
16.0
290
     0
  0
SCALE
  5
1C4
102
{ACAD_REACTORS
330
10C
102
}
330
10C
100
AcDbScale
 70
     0
300
1:20
140
1.0
141
20.0
290
     0
  0
SCALE
  5
1C5
102
{ACAD_REACTORS
330
10C
102
}
330
10C
100
AcDbScale
 70
     0
300
1:30
140
1.0
141
30.0
290
     0
  0
SCALE
  5
1C6
102
{ACAD_REACTORS
330
10C
102
}
330
10C
100
AcDbScale
 70
     0
300
1:40
140
1.0
141
40.0
290
     0
  0
SCALE
  5
1C7
102
{ACAD_REACTORS
330
10C
102
}
330
10C
100
AcDbScale
 70
     0
300
1:50
140
1.0
141
50.0
290
     0
  0
SCALE
  5
1C8
102
{ACAD_REACTORS
330
10C
102
}
330
10C
100
AcDbScale
 70
     0
300
1:100
140
1.0
141
100.0
290
     0
  0
SCALE
  5
1C9
102
{ACAD_REACTORS
330
10C
102
}
330
10C
100
AcDbScale
 70
     0
300
2:1
140
2.0
141
1.0
290
     0
  0
SCALE
  5
1CA
102
{ACAD_REACTORS
330
10C
102
}
330
10C
100
AcDbScale
 70
     0
300
4:1
140
4.0
141
1.0
290
     0
  0
SCALE
  5
1CB
102
{ACAD_REACTORS
330
10C
102
}
330
10C
100
AcDbScale
 70
     0
300
8:1
140
8.0
141
1.0
290
     0
  0
SCALE
  5
1CC
102
{ACAD_REACTORS
330
10C
102
}
330
10C
100
AcDbScale
 70
     0
300
10:1
140
10.0
141
1.0
290
     0
  0
SCALE
  5
1CD
102
{ACAD_REACTORS
330
10C
102
}
330
10C
100
AcDbScale
 70
     0
300
100:1
140
100.0
141
1.0
290
     0
  0
ACDBSECTIONVIEWSTYLE
  5
28E
102
{ACAD_XDICTIONARY
360
8F7
102
}
102
{ACAD_REACTORS
330
219
102
}
330
219
100
AcDbModelDocViewStyle
 70
     0
  3
Imperial24
290
     0
100
AcDbSectionViewStyle
 70
     0
 71
     0
 90
       78
 71
     1
340
11
 62
   256
 40
0.24
340
0
340
0
 62
   256
 40
0.24
300
I, O, Q, S, X, Z
 40
0.48
 90
        3
 40
0.18
 90
        1
 71
     2
340
16
 90
       25
 62
   256
340
16
 90
       50
 62
   256
 40
0.24
 40
0.0
 40
0.24
 71
     3
340
11
 62
   256
 40
0.24
 90
        1
 40
0.75
 90
        1
300
%<\AcVar ViewType \f "%tc1">% %<\AcVar ViewSectionStartId>%-%<\AcVar ViewSectionEndId>%\PSCALA %<\AcVar ViewScale \f "%sn">%
 71
     4
 62
   256
 62
   257
300
ANSI31
 40
1.0
 90
        0
290
     0
290
     0
 90
        6
 40
0.0
 40
1.570796326794896
 40
0.2617993877991494
 40
1.308996938995747
 40
-0.2617993877991494
 40
1.832595714594046
  0
ACDBSECTIONVIEWSTYLE
  5
21A
102
{ACAD_XDICTIONARY
360
8F3
102
}
102
{ACAD_REACTORS
330
219
102
}
330
219
100
AcDbModelDocViewStyle
 70
     0
  3
Metric50
290
     0
100
AcDbSectionViewStyle
 70
     0
 71
     0
 90
      102
 71
     1
340
11
 62
   256
 40
5.0
340
0
340
0
 62
   256
 40
5.0
300
I, O, Q, S, X, Z
 40
10.0
 90
        0
 40
2.5
 90
        0
 71
     2
340
16
 90
       25
 62
   256
340
16
 90
       50
 62
   256
 40
5.0
 40
2.5
 40
5.0
 71
     3
340
11
 62
   256
 40
5.0
 90
        0
 40
15.0
 90
        1
300
%<\AcVar ViewSectionStartId>%-%<\AcVar ViewSectionEndId>% (%<\AcVar ViewScale \f "%sn">%)
 71
     4
 62
   256
 62
   257
300
ANSI31
 40
1.0
 90
        0
290
     0
290
     0
 90
        6
 40
0.0
 40
1.570796326794896
 40
0.2617993877991494
 40
1.308996938995747
 40
-0.2617993877991494
 40
1.832595714594046
  0
TABLESTYLE
  5
7F
102
{ACAD_XDICTIONARY
360
162
102
}
102
{ACAD_REACTORS
330
7E
102
}
330
7E
100
AcDbTableStyle
280
     0
  3
Standard
 70
     0
 71
     0
 40
1.5
 41
1.5
280
     0
281
     0
  7
Standard
140
4.5
170
     2
 62
     0
 63
     7
283
     0
 90
      512
 91
        0
  1

274
    -2
284
     1
 64
     0
275
    -2
285
     1
 65
     0
276
    -2
286
     1
 66
     0
277
    -2
287
     1
 67
     0
278
    -2
288
     1
 68
     0
279
    -2
289
     1
 69
     0
  7
Standard
140
6.0
170
     5
 62
     0
 63
     7
283
     0
 90
      512
 91
        0
  1

274
    -2
284
     1
 64
     0
275
    -2
285
     1
 65
     0
276
    -2
286
     1
 66
     0
277
    -2
287
     1
 67
     0
278
    -2
288
     1
 68
     0
279
    -2
289
     1
 69
     0
  7
Standard
140
4.5
170
     5
 62
     0
 63
     7
283
     0
 90
      512
 91
        0
  1

274
    -2
284
     1
 64
     0
275
    -2
285
     1
 65
     0
276
    -2
286
     1
 66
     0
277
    -2
287
     1
 67
     0
278
    -2
288
     1
 68
     0
279
    -2
289
     1
 69
     0
  0
VISUALSTYLE
  5
F5
102
{ACAD_REACTORS
330
EF
102
}
330
EF
100
AcDbVisualStyle
  2
2dWireframe
 70
     4
177
     3
291
     0
 70
    58
 90
        0
176
     1
 90
        2
176
     1
 90
        1
176
     1
 90
        0
176
     1
 40
0.6
176
     1
 40
30.0
176
     1
 62
     7
420
 16777215
176
     1
 90
        1
176
     1
 90
        4
176
     1
 62
     7
176
     1
 62
   257
176
     1
 90
        1
176
     1
 90
        1
176
     1
 40
1.0
176
     1
 90
        0
176
     1
 62
   257
176
     1
 40
1.0
176
     1
 90
        1
176
     1
 90
        6
176
     1
 90
        2
176
     1
 62
     7
176
     1
 90
        5
176
     1
 90
        0
176
     1
 90
        0
176
     1
290
     0
176
     1
 90
        1
176
     1
 40
0.0
176
     1
 90
        0
176
     1
290
     1
176
     1
290
     1
176
     1
290
     0
176
     1
290
     0
176
     1
290
     0
176
     1
290
     0
176
     1
290
     0
176
     1
290
     0
176
     1
290
     0
176
     1
 90
       50
176
     1
 40
0.0
176
     1
 40
1.0
176
     1
 90
        0
176
     1
 62
    18
420
        0
176
     1
 90
       50
176
     1
 90
        3
176
     1
 62
     5
420
      255
176
     1
290
     0
176
     1
 90
       50
176
     1
 90
       50
176
     1
 90
       50
176
     1
290
     0
176
     1
 90
       50
176
     1
 62
   256
176
     0
 40
1.0
176
     0
 90
        2
176
     1
  1
strokes_ogs.tif
176
     1
290
     0
176
     1
 40
1.0
176
     1
 40
1.0
176
     1
1001
ACAD
1000
AcDbSavedByObjectVersion
1070
     0
  0
VISUALSTYLE
  5
F4
102
{ACAD_REACTORS
330
EF
102
}
330
EF
100
AcDbVisualStyle
  2
Basic
 70
     7
177
     3
291
     1
 70
    58
 90
        1
176
     1
 90
        0
176
     1
 90
        1
176
     1
 90
        0
176
     1
 40
0.6
176
     1
 40
30.0
176
     1
 62
     7
420
 16777215
176
     1
 90
        0
176
     1
 90
        4
176
     1
 62
     7
176
     1
 62
   257
176
     1
 90
        1
176
     1
 90
        1
176
     1
 40
1.0
176
     1
 90
        8
176
     1
 62
     7
176
     1
 40
1.0
176
     1
 90
        1
176
     1
 90
        6
176
     1
 90
        2
176
     1
 62
     7
176
     1
 90
        5
176
     1
 90
        0
176
     1
 90
        0
176
     1
290
     0
176
     1
 90
        1
176
     1
 40
0.0
176
     1
 90
        0
176
     1
290
     0
176
     1
290
     1
176
     1
290
     1
176
     1
290
     0
176
     1
290
     0
176
     1
290
     0
176
     1
290
     0
176
     1
290
     0
176
     1
290
     0
176
     1
 90
       50
176
     1
 40
0.0
176
     1
 40
1.0
176
     1
 90
        0
176
     1
 62
    18
420
        0
176
     1
 90
       50
176
     1
 90
        3
176
     1
 62
     5
420
      255
176
     1
290
     0
176
     1
 90
       50
176
     1
 90
       50
176
     1
 90
       50
176
     1
290
     0
176
     1
 90
       50
176
     1
 62
   256
176
     0
 40
1.0
176
     0
 90
        2
176
     1
  1
strokes_ogs.tif
176
     1
290
     0
176
     1
 40
1.0
176
     1
 40
1.0
176
     1
1001
ACAD
1000
AcDbSavedByObjectVersion
1070
     0
  0
VISUALSTYLE
  5
FB
102
{ACAD_REACTORS
330
EF
102
}
330
EF
100
AcDbVisualStyle
  2
Brighten
 70
    12
177
     3
291
     1
 70
    58
 90
        2
176
     1
 90
        2
176
     1
 90
        1
176
     1
 90
        0
176
     1
 40
0.6
176
     1
 40
30.0
176
     1
 62
     7
420
 16777215
176
     1
 90
        1
176
     1
 90
        4
176
     1
 62
     7
176
     1
 62
   257
176
     1
 90
        1
176
     1
 90
        1
176
     1
 40
1.0
176
     1
 90
        8
176
     1
 62
     7
176
     1
 40
1.0
176
     1
 90
        1
176
     1
 90
        6
176
     1
 90
        2
176
     1
 62
     7
176
     1
 90
        5
176
     1
 90
        0
176
     1
 90
        0
176
     1
290
     0
176
     1
 90
        1
176
     1
 40
50.0
176
     1
 90
        0
176
     1
290
     0
176
     1
290
     1
176
     1
290
     1
176
     1
290
     0
176
     1
290
     0
176
     1
290
     0
176
     1
290
     0
176
     1
290
     0
176
     1
290
     0
176
     1
 90
       50
176
     1
 40
0.0
176
     1
 40
1.0
176
     1
 90
        0
176
     1
 62
    18
420
        0
176
     1
 90
       50
176
     1
 90
        3
176
     1
 62
     5
420
      255
176
     1
290
     0
176
     1
 90
       50
176
     1
 90
       50
176
     1
 90
       50
176
     1
290
     0
176
     1
 90
       50
176
     1
 62
   256
176
     0
 40
1.0
176
     0
 90
        2
176
     1
  1
strokes_ogs.tif
176
     1
290
     0
176
     1
 40
1.0
176
     1
 40
1.0
176
     1
1001
ACAD
1000
AcDbSavedByObjectVersion
1070
     0
  0
VISUALSTYLE
  5
FF
102
{ACAD_REACTORS
330
EF
102
}
330
EF
100
AcDbVisualStyle
  2
ColorChange
 70
    16
177
     3
291
     1
 70
    58
 90
        2
176
     1
 90
        2
176
     1
 90
        3
176
     1
 90
        0
176
     1
 40
0.6
176
     1
 40
30.0
176
     1
 62
     8
420
  8421504
176
     1
 90
        1
176
     1
 90
        4
176
     1
 62
     7
176
     1
 62
   257
176
     1
 90
        1
176
     1
 90
        1
176
     1
 40
1.0
176
     1
 90
        8
176
     1
 62
     8
420
  8421504
176
     1
 40
1.0
176
     1
 90
        1
176
     1
 90
        6
176
     1
 90
        2
176
     1
 62
     7
176
     1
 90
        5
176
     1
 90
        0
176
     1
 90
        0
176
     1
290
     0
176
     1
 90
        1
176
     1
 40
0.0
176
     1
 90
        0
176
     1
290
     0
176
     1
290
     1
176
     1
290
     1
176
     1
290
     0
176
     1
290
     0
176
     1
290
     0
176
     1
290
     0
176
     1
290
     0
176
     1
290
     0
176
     1
 90
       50
176
     1
 40
0.0
176
     1
 40
1.0
176
     1
 90
        0
176
     1
 62
    18
420
        0
176
     1
 90
       50
176
     1
 90
        3
176
     1
 62
     5
420
      255
176
     1
290
     0
176
     1
 90
       50
176
     1
 90
       50
176
     1
 90
       50
176
     1
290
     0
176
     1
 90
       50
176
     1
 62
   256
176
     0
 40
1.0
176
     0
 90
        2
176
     1
  1
strokes_ogs.tif
176
     1
290
     0
176
     1
 40
1.0
176
     1
 40
1.0
176
     1
1001
ACAD
1000
AcDbSavedByObjectVersion
1070
     0
  0
VISUALSTYLE
  5
F8
102
{ACAD_REACTORS
330
EF
102
}
330
EF
100
AcDbVisualStyle
  2
Conceptual
 70
     9
177
     3
291
     0
 70
    58
 90
        3
176
     1
 90
        2
176
     1
 90
        1
176
     1
 90
        0
176
     1
 40
0.6
176
     1
 40
30.0
176
     1
 62
     7
420
 16777215
176
     1
 90
        2
176
     1
 90
        2
176
     1
 62
     7
176
     1
 62
   257
176
     1
 90
        1
176
     1
 90
        1
176
     1
 40
40.0
176
     1
 90
        8
176
     1
 62
     7
176
     1
 40
1.0
176
     1
 90
        1
176
     1
 90
        6
176
     1
 90
        2
176
     1
 62
     7
176
     1
 90
        3
176
     1
 90
        0
176
     1
 90
        0
176
     1
290
     0
176
     1
 90
        1
176
     1
 40
0.0
176
     1
 90
        0
176
     1
290
     0
176
     1
290
     1
176
     1
290
     1
176
     1
290
     0
176
     1
290
     0
176
     1
290
     0
176
     1
290
     0
176
     1
290
     0
176
     1
290
     0
176
     1
 90
       50
176
     1
 40
0.0
176
     1
 40
1.0
176
     1
 90
        0
176
     1
 62
    18
420
        0
176
     1
 90
       50
176
     1
 90
        3
176
     1
 62
     5
420
      255
176
     1
290
     0
176
     1
 90
       50
176
     1
 90
       50
176
     1
 90
       50
176
     1
290
     0
176
     1
 90
       50
176
     1
 62
   256
176
     0
 40
1.0
176
     0
 90
        2
176
     1
  1
strokes_ogs.tif
176
     1
290
     0
176
     1
 40
1.0
176
     1
 40
1.0
176
     1
1001
ACAD
1000
AcDbSavedByObjectVersion
1070
     0
  0
VISUALSTYLE
  5
FA
102
{ACAD_REACTORS
330
EF
102
}
330
EF
100
AcDbVisualStyle
  2
Dim
 70
    11
177
     3
291
     1
 70
    58
 90
        2
176
     1
 90
        2
176
     1
 90
        1
176
     1
 90
        0
176
     1
 40
0.6
176
     1
 40
30.0
176
     1
 62
     7
420
 16777215
176
     1
 90
        1
176
     1
 90
        4
176
     1
 62
     7
176
     1
 62
   257
176
     1
 90
        1
176
     1
 90
        1
176
     1
 40
1.0
176
     1
 90
        8
176
     1
 62
     7
176
     1
 40
1.0
176
     1
 90
        1
176
     1
 90
        6
176
     1
 90
        2
176
     1
 62
     7
176
     1
 90
        5
176
     1
 90
        0
176
     1
 90
        0
176
     1
290
     0
176
     1
 90
        1
176
     1
 40
-50.0
176
     1
 90
        0
176
     1
290
     0
176
     1
290
     1
176
     1
290
     1
176
     1
290
     0
176
     1
290
     0
176
     1
290
     0
176
     1
290
     0
176
     1
290
     0
176
     1
290
     0
176
     1
 90
       50
176
     1
 40
0.0
176
     1
 40
1.0
176
     1
 90
        0
176
     1
 62
    18
420
        0
176
     1
 90
       50
176
     1
 90
        3
176
     1
 62
     5
420
      255
176
     1
290
     0
176
     1
 90
       50
176
     1
 90
       50
176
     1
 90
       50
176
     1
290
     0
176
     1
 90
       50
176
     1
 62
   256
176
     0
 40
1.0
176
     0
 90
        2
176
     1
  1
strokes_ogs.tif
176
     1
290
     0
176
     1
 40
1.0
176
     1
 40
1.0
176
     1
1001
ACAD
1000
AcDbSavedByObjectVersion
1070
     0
  0
VISUALSTYLE
  5
1E6
102
{ACAD_REACTORS
330
EF
102
}
330
EF
100
AcDbVisualStyle
  2
EdgeColorOff
 70
    22
177
     3
291
     1
 70
    58
 90
        2
176
     0
 90
        2
176
     0
 90
        0
176
     0
 90
        0
176
     0
 40
0.6
176
     0
 40
30.0
176
     0
 62
     7
420
 16777215
176
     0
 90
        1
176
     0
 90
        4
176
     0
 62
     7
176
     0
 62
   257
176
     0
 90
        1
176
     0
 90
        1
176
     0
 40
1.0
176
     0
 90
        8
176
     2
 62
     7
176
     0
 40
1.0
176
     0
 90
        1
176
     0
 90
        6
176
     0
 90
        2
176
     0
 62
     7
176
     0
 90
        5
176
     0
 90
        0
176
     0
 90
        0
176
     0
290
     0
176
     0
 90
        1
176
     0
 40
0.0
176
     0
 90
        0
176
     0
290
     0
176
     1
290
     1
176
     1
290
     1
176
     1
290
     0
176
     1
290
     0
176
     1
290
     0
176
     1
290
     0
176
     1
290
     0
176
     1
290
     0
176
     1
 90
       50
176
     1
 40
0.0
176
     1
 40
1.0
176
     1
 90
        0
176
     1
 62
    18
420
        0
176
     1
 90
       50
176
     1
 90
        3
176
     1
 62
     5
420
      255
176
     1
290
     0
176
     1
 90
       50
176
     1
 90
       50
176
     1
 90
       50
176
     1
290
     0
176
     1
 90
       50
176
     1
 62
   256
176
     0
 40
1.0
176
     0
 90
        2
176
     1
  1
strokes_ogs.tif
176
     1
290
     0
176
     1
 40
1.0
176
     1
 40
1.0
176
     1
1001
ACAD
1000
AcDbSavedByObjectVersion
1070
     0
  0
VISUALSTYLE
  5
FE
102
{ACAD_REACTORS
330
EF
102
}
330
EF
100
AcDbVisualStyle
  2
Facepattern
 70
    15
177
     3
291
     1
 70
    58
 90
        2
176
     1
 90
        2
176
     1
 90
        1
176
     1
 90
        0
176
     1
 40
0.6
176
     1
 40
30.0
176
     1
 62
     7
420
 16777215
176
     1
 90
        1
176
     1
 90
        4
176
     1
 62
     7
176
     1
 62
   257
176
     1
 90
        1
176
     1
 90
        1
176
     1
 40
1.0
176
     1
 90
        8
176
     1
 62
     7
176
     1
 40
1.0
176
     1
 90
        1
176
     1
 90
        6
176
     1
 90
        2
176
     1
 62
     7
176
     1
 90
        5
176
     1
 90
        0
176
     1
 90
        0
176
     1
290
     0
176
     1
 90
        1
176
     1
 40
0.0
176
     1
 90
        0
176
     1
290
     0
176
     1
290
     1
176
     1
290
     1
176
     1
290
     0
176
     1
290
     0
176
     1
290
     0
176
     1
290
     0
176
     1
290
     0
176
     1
290
     0
176
     1
 90
       50
176
     1
 40
0.0
176
     1
 40
1.0
176
     1
 90
        0
176
     1
 62
    18
420
        0
176
     1
 90
       50
176
     1
 90
        3
176
     1
 62
     5
420
      255
176
     1
290
     0
176
     1
 90
       50
176
     1
 90
       50
176
     1
 90
       50
176
     1
290
     0
176
     1
 90
       50
176
     1
 62
   256
176
     0
 40
1.0
176
     0
 90
        2
176
     1
  1
strokes_ogs.tif
176
     1
290
     0
176
     1
 40
1.0
176
     1
 40
1.0
176
     1
1001
ACAD
1000
AcDbSavedByObjectVersion
1070
     0
  0
VISUALSTYLE
  5
F0
102
{ACAD_REACTORS
330
EF
102
}
330
EF
100
AcDbVisualStyle
  2
Flat
 70
     0
177
     3
291
     1
 70
    58
 90
        2
176
     1
 90
        1
176
     1
 90
        1
176
     1
 90
        2
176
     1
 40
0.6
176
     1
 40
30.0
176
     1
 62
     7
420
 16777215
176
     1
 90
        0
176
     1
 90
        0
176
     1
 62
     7
176
     1
 62
   257
176
     1
 90
        1
176
     1
 90
        1
176
     1
 40
1.0
176
     1
 90
        8
176
     1
 62
     7
176
     1
 40
1.0
176
     1
 90
        1
176
     1
 90
        6
176
     1
 90
        2
176
     1
 62
     7
176
     1
 90
        5
176
     1
 90
        0
176
     1
 90
        0
176
     1
290
     0
176
     1
 90
       13
176
     1
 40
0.0
176
     1
 90
        0
176
     1
290
     0
176
     1
290
     1
176
     1
290
     1
176
     1
290
     0
176
     1
290
     0
176
     1
290
     0
176
     1
290
     0
176
     1
290
     0
176
     1
290
     0
176
     1
 90
       50
176
     1
 40
0.0
176
     1
 40
1.0
176
     1
 90
        0
176
     1
 62
    18
420
        0
176
     1
 90
       50
176
     1
 90
        3
176
     1
 62
     5
420
      255
176
     1
290
     0
176
     1
 90
       50
176
     1
 90
       50
176
     1
 90
       50
176
     1
290
     0
176
     1
 90
       50
176
     1
 62
   256
176
     0
 40
1.0
176
     0
 90
        2
176
     1
  1
strokes_ogs.tif
176
     1
290
     0
176
     1
 40
1.0
176
     1
 40
1.0
176
     1
1001
ACAD
1000
AcDbSavedByObjectVersion
1070
     0
  0
VISUALSTYLE
  5
F1
102
{ACAD_REACTORS
330
EF
102
}
330
EF
100
AcDbVisualStyle
  2
FlatWithEdges
 70
     1
177
     3
291
     1
 70
    58
 90
        2
176
     1
 90
        1
176
     1
 90
        1
176
     1
 90
        2
176
     1
 40
0.6
176
     1
 40
30.0
176
     1
 62
     7
420
 16777215
176
     1
 90
        1
176
     1
 90
        0
176
     1
 62
     7
176
     1
 62
   257
176
     1
 90
        1
176
     1
 90
        1
176
     1
 40
1.0
176
     1
 90
        0
176
     1
 62
   257
176
     1
 40
1.0
176
     1
 90
        1
176
     1
 90
        6
176
     1
 90
        2
176
     1
 62
     7
176
     1
 90
        5
176
     1
 90
        0
176
     1
 90
        0
176
     1
290
     0
176
     1
 90
       13
176
     1
 40
0.0
176
     1
 90
        0
176
     1
290
     0
176
     1
290
     1
176
     1
290
     1
176
     1
290
     0
176
     1
290
     0
176
     1
290
     0
176
     1
290
     0
176
     1
290
     0
176
     1
290
     0
176
     1
 90
       50
176
     1
 40
0.0
176
     1
 40
1.0
176
     1
 90
        0
176
     1
 62
    18
420
        0
176
     1
 90
       50
176
     1
 90
        3
176
     1
 62
     5
420
      255
176
     1
290
     0
176
     1
 90
       50
176
     1
 90
       50
176
     1
 90
       50
176
     1
290
     0
176
     1
 90
       50
176
     1
 62
   256
176
     0
 40
1.0
176
     0
 90
        2
176
     1
  1
strokes_ogs.tif
176
     1
290
     0
176
     1
 40
1.0
176
     1
 40
1.0
176
     1
1001
ACAD
1000
AcDbSavedByObjectVersion
1070
     0
  0
VISUALSTYLE
  5
F2
102
{ACAD_REACTORS
330
EF
102
}
330
EF
100
AcDbVisualStyle
  2
Gouraud
 70
     2
177
     3
291
     1
 70
    58
 90
        2
176
     1
 90
        2
176
     1
 90
        1
176
     1
 90
        2
176
     1
 40
0.6
176
     1
 40
30.0
176
     1
 62
     7
420
 16777215
176
     1
 90
        0
176
     1
 90
        0
176
     1
 62
     7
176
     1
 62
   257
176
     1
 90
        1
176
     1
 90
        1
176
     1
 40
1.0
176
     1
 90
        0
176
     1
 62
     7
176
     1
 40
1.0
176
     1
 90
        1
176
     1
 90
        6
176
     1
 90
        2
176
     1
 62
     7
176
     1
 90
        5
176
     1
 90
        0
176
     1
 90
        0
176
     1
290
     0
176
     1
 90
       13
176
     1
 40
0.0
176
     1
 90
        0
176
     1
290
     0
176
     1
290
     1
176
     1
290
     1
176
     1
290
     0
176
     1
290
     0
176
     1
290
     0
176
     1
290
     0
176
     1
290
     0
176
     1
290
     0
176
     1
 90
       50
176
     1
 40
0.0
176
     1
 40
1.0
176
     1
 90
        0
176
     1
 62
    18
420
        0
176
     1
 90
       50
176
     1
 90
        3
176
     1
 62
     5
420
      255
176
     1
290
     0
176
     1
 90
       50
176
     1
 90
       50
176
     1
 90
       50
176
     1
290
     0
176
     1
 90
       50
176
     1
 62
   256
176
     0
 40
1.0
176
     0
 90
        2
176
     1
  1
strokes_ogs.tif
176
     1
290
     0
176
     1
 40
1.0
176
     1
 40
1.0
176
     1
1001
ACAD
1000
AcDbSavedByObjectVersion
1070
     0
  0
VISUALSTYLE
  5
F3
102
{ACAD_REACTORS
330
EF
102
}
330
EF
100
AcDbVisualStyle
  2
GouraudWithEdges
 70
     3
177
     3
291
     1
 70
    58
 90
        2
176
     1
 90
        2
176
     1
 90
        1
176
     1
 90
        2
176
     1
 40
0.6
176
     1
 40
30.0
176
     1
 62
     7
420
 16777215
176
     1
 90
        1
176
     1
 90
        0
176
     1
 62
     7
176
     1
 62
   257
176
     1
 90
        1
176
     1
 90
        1
176
     1
 40
1.0
176
     1
 90
        0
176
     1
 62
   257
176
     1
 40
1.0
176
     1
 90
        1
176
     1
 90
        6
176
     1
 90
        2
176
     1
 62
     7
176
     1
 90
        5
176
     1
 90
        0
176
     1
 90
        0
176
     1
290
     0
176
     1
 90
       13
176
     1
 40
0.0
176
     1
 90
        0
176
     1
290
     0
176
     1
290
     1
176
     1
290
     1
176
     1
290
     0
176
     1
290
     0
176
     1
290
     0
176
     1
290
     0
176
     1
290
     0
176
     1
290
     0
176
     1
 90
       50
176
     1
 40
0.0
176
     1
 40
1.0
176
     1
 90
        0
176
     1
 62
    18
420
        0
176
     1
 90
       50
176
     1
 90
        3
176
     1
 62
     5
420
      255
176
     1
290
     0
176
     1
 90
       50
176
     1
 90
       50
176
     1
 90
       50
176
     1
290
     0
176
     1
 90
       50
176
     1
 62
   256
176
     0
 40
1.0
176
     0
 90
        2
176
     1
  1
strokes_ogs.tif
176
     1
290
     0
176
     1
 40
1.0
176
     1
 40
1.0
176
     1
1001
ACAD
1000
AcDbSavedByObjectVersion
1070
     0
  0
VISUALSTYLE
  5
F7
102
{ACAD_REACTORS
330
EF
102
}
330
EF
100
AcDbVisualStyle
  2
Hidden
 70
     6
177
     3
291
     0
 70
    58
 90
        1
176
     1
 90
        2
176
     1
 90
        2
176
     1
 90
        0
176
     1
 40
0.6
176
     1
 40
30.0
176
     1
 62
     7
420
 16777215
176
     1
 90
        2
176
     1
 90
        2
176
     1
 62
     7
176
     1
 62
   257
176
     1
 90
        2
176
     1
 90
        1
176
     1
 40
40.0
176
     1
 90
        0
176
     1
 62
   257
176
     1
 40
1.0
176
     1
 90
        1
176
     1
 90
        6
176
     1
 90
        2
176
     1
 62
     7
176
     1
 90
        3
176
     1
 90
        0
176
     1
 90
        0
176
     1
290
     0
176
     1
 90
        1
176
     1
 40
0.0
176
     1
 90
        0
176
     1
290
     0
176
     1
290
     1
176
     1
290
     1
176
     1
290
     0
176
     1
290
     0
176
     1
290
     0
176
     1
290
     0
176
     1
290
     0
176
     1
290
     0
176
     1
 90
       50
176
     1
 40
0.0
176
     1
 40
1.0
176
     1
 90
        0
176
     1
 62
    18
420
        0
176
     1
 90
       50
176
     1
 90
        3
176
     1
 62
     5
420
      255
176
     1
290
     0
176
     1
 90
       50
176
     1
 90
       50
176
     1
 90
       50
176
     1
290
     0
176
     1
 90
       50
176
     1
 62
   256
176
     0
 40
1.0
176
     0
 90
        2
176
     1
  1
strokes_ogs.tif
176
     1
290
     0
176
     1
 40
1.0
176
     1
 40
1.0
176
     1
1001
ACAD
1000
AcDbSavedByObjectVersion
1070
     0
  0
VISUALSTYLE
  5
1E4
102
{ACAD_REACTORS
330
EF
102
}
330
EF
100
AcDbVisualStyle
  2
JitterOff
 70
    20
177
     3
291
     1
 70
    58
 90
        2
176
     0
 90
        2
176
     0
 90
        0
176
     0
 90
        0
176
     0
 40
0.6
176
     0
 40
30.0
176
     0
 62
     7
420
 16777215
176
     0
 90
        1
176
     0
 90
        4
176
     0
 62
     7
176
     0
 62
   257
176
     0
 90
        1
176
     0
 90
        1
176
     0
 40
1.0
176
     0
 90
       10
176
     2
 62
     7
176
     0
 40
1.0
176
     0
 90
        1
176
     0
 90
        6
176
     0
 90
        2
176
     0
 62
     7
176
     0
 90
        5
176
     0
 90
        0
176
     0
 90
        0
176
     0
290
     0
176
     0
 90
        1
176
     0
 40
0.0
176
     0
 90
        0
176
     0
290
     0
176
     1
290
     1
176
     1
290
     1
176
     1
290
     0
176
     1
290
     0
176
     1
290
     0
176
     1
290
     0
176
     1
290
     0
176
     1
290
     0
176
     1
 90
       50
176
     1
 40
0.0
176
     1
 40
1.0
176
     1
 90
        0
176
     1
 62
    18
420
        0
176
     1
 90
       50
176
     1
 90
        3
176
     1
 62
     5
420
      255
176
     1
290
     0
176
     1
 90
       50
176
     1
 90
       50
176
     1
 90
       50
176
     1
290
     0
176
     1
 90
       50
176
     1
 62
   256
176
     0
 40
1.0
176
     0
 90
        2
176
     1
  1
strokes_ogs.tif
176
     1
290
     0
176
     1
 40
1.0
176
     1
 40
1.0
176
     1
1001
ACAD
1000
AcDbSavedByObjectVersion
1070
     0
  0
VISUALSTYLE
  5
FD
102
{ACAD_REACTORS
330
EF
102
}
330
EF
100
AcDbVisualStyle
  2
Linepattern
 70
    14
177
     3
291
     1
 70
    58
 90
        2
176
     1
 90
        2
176
     1
 90
        1
176
     1
 90
        0
176
     1
 40
0.6
176
     1
 40
30.0
176
     1
 62
     7
420
 16777215
176
     1
 90
        1
176
     1
 90
        4
176
     1
 62
     7
176
     1
 62
   257
176
     1
 90
        7
176
     1
 90
        7
176
     1
 40
1.0
176
     1
 90
        8
176
     1
 62
     7
176
     1
 40
1.0
176
     1
 90
        1
176
     1
 90
        6
176
     1
 90
        2
176
     1
 62
     7
176
     1
 90
        5
176
     1
 90
        0
176
     1
 90
        0
176
     1
290
     0
176
     1
 90
        1
176
     1
 40
0.0
176
     1
 90
        0
176
     1
290
     0
176
     1
290
     1
176
     1
290
     1
176
     1
290
     0
176
     1
290
     0
176
     1
290
     0
176
     1
290
     0
176
     1
290
     0
176
     1
290
     0
176
     1
 90
       50
176
     1
 40
0.0
176
     1
 40
1.0
176
     1
 90
        0
176
     1
 62
    18
420
        0
176
     1
 90
       50
176
     1
 90
        3
176
     1
 62
     5
420
      255
176
     1
290
     0
176
     1
 90
       50
176
     1
 90
       50
176
     1
 90
       50
176
     1
290
     0
176
     1
 90
       50
176
     1
 62
   256
176
     0
 40
1.0
176
     0
 90
        2
176
     1
  1
strokes_ogs.tif
176
     1
290
     0
176
     1
 40
1.0
176
     1
 40
1.0
176
     1
1001
ACAD
1000
AcDbSavedByObjectVersion
1070
     0
  0
VISUALSTYLE
  5
1E5
102
{ACAD_REACTORS
330
EF
102
}
330
EF
100
AcDbVisualStyle
  2
OverhangOff
 70
    21
177
     3
291
     1
 70
    58
 90
        2
176
     0
 90
        2
176
     0
 90
        0
176
     0
 90
        0
176
     0
 40
0.6
176
     0
 40
30.0
176
     0
 62
     7
420
 16777215
176
     0
 90
        1
176
     0
 90
        4
176
     0
 62
     7
176
     0
 62
   257
176
     0
 90
        1
176
     0
 90
        1
176
     0
 40
1.0
176
     0
 90
        9
176
     2
 62
     7
176
     0
 40
1.0
176
     0
 90
        1
176
     0
 90
        6
176
     0
 90
        2
176
     0
 62
     7
176
     0
 90
        5
176
     0
 90
        0
176
     0
 90
        0
176
     0
290
     0
176
     0
 90
        1
176
     0
 40
0.0
176
     0
 90
        0
176
     0
290
     0
176
     1
290
     1
176
     1
290
     1
176
     1
290
     0
176
     1
290
     0
176
     1
290
     0
176
     1
290
     0
176
     1
290
     0
176
     1
290
     0
176
     1
 90
       50
176
     1
 40
0.0
176
     1
 40
1.0
176
     1
 90
        0
176
     1
 62
    18
420
        0
176
     1
 90
       50
176
     1
 90
        3
176
     1
 62
     5
420
      255
176
     1
290
     0
176
     1
 90
       50
176
     1
 90
       50
176
     1
 90
       50
176
     1
290
     0
176
     1
 90
       50
176
     1
 62
   256
176
     0
 40
1.0
176
     0
 90
        2
176
     1
  1
strokes_ogs.tif
176
     1
290
     0
176
     1
 40
1.0
176
     1
 40
1.0
176
     1
1001
ACAD
1000
AcDbSavedByObjectVersion
1070
     0
  0
VISUALSTYLE
  5
F9
102
{ACAD_REACTORS
330
EF
102
}
330
EF
100
AcDbVisualStyle
  2
Realistic
 70
     8
177
     3
291
     0
 70
    58
 90
        2
176
     1
 90
        3
176
     1
 90
        0
176
     1
 90
        2
176
     1
 40
0.6
176
     1
 40
30.0
176
     1
 62
     7
420
 16777215
176
     1
 90
        0
176
     1
 90
        0
176
     1
 62
     7
176
     1
 62
   257
176
     1
 90
        1
176
     1
 90
        1
176
     1
 40
1.0
176
     1
 90
        8
176
     1
 62
   257
176
     1
 40
1.0
176
     1
 90
        1
176
     1
 90
        6
176
     1
 90
        2
176
     1
 62
     7
176
     1
 90
        3
176
     1
 90
        0
176
     1
 90
        0
176
     1
290
     0
176
     1
 90
       13
176
     1
 40
0.0
176
     1
 90
        0
176
     1
290
     0
176
     1
290
     1
176
     1
290
     1
176
     1
290
     0
176
     1
290
     0
176
     1
290
     0
176
     1
290
     0
176
     1
290
     0
176
     1
290
     0
176
     1
 90
       50
176
     1
 40
0.0
176
     1
 40
1.0
176
     1
 90
        0
176
     1
 62
    18
420
        0
176
     1
 90
       50
176
     1
 90
        3
176
     1
 62
     5
420
      255
176
     1
290
     0
176
     1
 90
       50
176
     1
 90
       50
176
     1
 90
       50
176
     1
290
     0
176
     1
 90
       50
176
     1
 62
   256
176
     0
 40
1.0
176
     0
 90
        2
176
     1
  1
strokes_ogs.tif
176
     1
290
     0
176
     1
 40
1.0
176
     1
 40
1.0
176
     1
1001
ACAD
1000
AcDbSavedByObjectVersion
1070
     0
  0
VISUALSTYLE
  5
1F3
102
{ACAD_REACTORS
330
EF
102
}
330
EF
100
AcDbVisualStyle
  2
Shaded
 70
    27
177
     3
291
     0
 70
    58
 90
        2
176
     1
 90
        2
176
     1
 90
        1
176
     1
 90
        2
176
     1
 40
0.6
176
     1
 40
30.0
176
     1
 62
     7
420
 16777215
176
     1
 90
        0
176
     1
 90
        4
176
     1
 62
     7
176
     1
 62
   257
176
     1
 90
        1
176
     1
 90
        1
176
     1
 40
1.0
176
     1
 90
        8
176
     1
 62
   257
176
     1
 40
1.0
176
     1
 90
        1
176
     1
 90
        6
176
     1
 90
        2
176
     1
 62
     8
420
  7895160
176
     1
 90
        3
176
     1
 90
        0
176
     1
 90
        0
176
     1
290
     0
176
     1
 90
        5
176
     1
 40
0.0
176
     1
 90
        0
176
     1
290
     0
176
     1
290
     1
176
     1
290
     1
176
     1
290
     0
176
     1
290
     0
176
     1
290
     0
176
     1
290
     0
176
     1
290
     0
176
     1
290
     0
176
     1
 90
       50
176
     1
 40
0.0
176
     1
 40
1.0
176
     1
 90
        0
176
     1
 62
    18
420
        0
176
     1
 90
       50
176
     1
 90
        3
176
     1
 62
     5
420
      255
176
     1
290
     0
176
     1
 90
       50
176
     1
 90
       50
176
     1
 90
       50
176
     1
290
     0
176
     1
 90
       50
176
     1
 62
   256
176
     0
 40
1.0
176
     0
 90
        2
176
     1
  1
strokes_ogs.tif
176
     1
290
     0
176
     1
 40
1.0
176
     1
 40
1.0
176
     1
1001
ACAD
1000
AcDbSavedByObjectVersion
1070
     0
  0
VISUALSTYLE
  5
1F2
102
{ACAD_REACTORS
330
EF
102
}
330
EF
100
AcDbVisualStyle
  2
Shaded with edges
 70
    26
177
     3
291
     0
 70
    58
 90
        2
176
     1
 90
        2
176
     1
 90
        1
176
     1
 90
        2
176
     1
 40
0.6
176
     1
 40
30.0
176
     1
 62
     7
420
 16777215
176
     1
 90
        1
176
     1
 90
        2
176
     1
 62
     7
176
     1
 62
   257
176
     1
 90
        2
176
     1
 90
        1
176
     1
 40
1.0
176
     1
 90
        8
176
     1
 62
   257
176
     1
 40
1.0
176
     1
 90
        1
176
     1
 90
        6
176
     1
 90
        2
176
     1
 62
     7
176
     1
 90
        3
176
     1
 90
        0
176
     1
 90
        0
176
     1
290
     0
176
     1
 90
        5
176
     1
 40
0.0
176
     1
 90
        0
176
     1
290
     0
176
     1
290
     1
176
     1
290
     1
176
     1
290
     0
176
     1
290
     0
176
     1
290
     0
176
     1
290
     0
176
     1
290
     0
176
     1
290
     0
176
     1
 90
       50
176
     1
 40
0.0
176
     1
 40
1.0
176
     1
 90
        0
176
     1
 62
    18
420
        0
176
     1
 90
       50
176
     1
 90
        3
176
     1
 62
     5
420
      255
176
     1
290
     0
176
     1
 90
       50
176
     1
 90
       50
176
     1
 90
       50
176
     1
290
     0
176
     1
 90
       50
176
     1
 62
   256
176
     0
 40
1.0
176
     0
 90
        2
176
     1
  1
strokes_ogs.tif
176
     1
290
     0
176
     1
 40
1.0
176
     1
 40
1.0
176
     1
1001
ACAD
1000
AcDbSavedByObjectVersion
1070
     0
  0
VISUALSTYLE
  5
1EF
102
{ACAD_REACTORS
330
EF
102
}
330
EF
100
AcDbVisualStyle
  2
Shades of Gray
 70
    23
177
     3
291
     0
 70
    58
 90
        2
176
     1
 90
        2
176
     1
 90
        3
176
     1
 90
        0
176
     1
 40
0.6
176
     1
 40
30.0
176
     1
 62
     7
420
 16777215
176
     1
 90
        2
176
     1
 90
        2
176
     1
 62
     7
176
     1
 62
     7
176
     1
 90
        1
176
     1
 90
        1
176
     1
 40
40.0
176
     1
 90
        8
176
     1
 62
     7
176
     1
 40
1.0
176
     1
 90
        1
176
     1
 90
        6
176
     1
 90
        2
176
     1
 62
     7
176
     1
 90
        3
176
     1
 90
        0
176
     1
 90
        0
176
     1
290
     0
176
     1
 90
        1
176
     1
 40
0.0
176
     1
 90
        0
176
     1
290
     0
176
     1
290
     1
176
     1
290
     1
176
     1
290
     0
176
     1
290
     0
176
     1
290
     0
176
     1
290
     0
176
     1
290
     0
176
     1
290
     0
176
     1
 90
       50
176
     1
 40
0.0
176
     1
 40
1.0
176
     1
 90
        0
176
     1
 62
    18
420
        0
176
     1
 90
       50
176
     1
 90
        3
176
     1
 62
     5
420
      255
176
     1
290
     0
176
     1
 90
       50
176
     1
 90
       50
176
     1
 90
       50
176
     1
290
     0
176
     1
 90
       50
176
     1
 62
   256
176
     0
 40
1.0
176
     0
 90
        2
176
     1
  1
strokes_ogs.tif
176
     1
290
     0
176
     1
 40
1.0
176
     1
 40
1.0
176
     1
1001
ACAD
1000
AcDbSavedByObjectVersion
1070
     0
  0
VISUALSTYLE
  5
1F0
102
{ACAD_REACTORS
330
EF
102
}
330
EF
100
AcDbVisualStyle
  2
Sketchy
 70
    24
177
     3
291
     0
 70
    58
 90
        1
176
     1
 90
        2
176
     1
 90
        2
176
     1
 90
        0
176
     1
 40
0.6
176
     1
 40
30.0
176
     1
 62
     7
420
 16777215
176
     1
 90
        2
176
     1
 90
        2
176
     1
 62
     7
176
     1
 62
     7
176
     1
 90
        1
176
     1
 90
        1
176
     1
 40
40.0
176
     1
 90
       11
176
     1
 62
     7
176
     1
 40
1.0
176
     1
 90
        1
176
     1
 90
        6
176
     1
 90
        2
176
     1
 62
     7
176
     1
 90
        6
176
     1
 90
        0
176
     1
 90
        0
176
     1
290
     0
176
     1
 90
        1
176
     1
 40
0.0
176
     1
 90
        0
176
     1
290
     0
176
     1
290
     1
176
     1
290
     1
176
     1
290
     0
176
     1
290
     0
176
     1
290
     0
176
     1
290
     0
176
     1
290
     0
176
     1
290
     0
176
     1
 90
       50
176
     1
 40
0.0
176
     1
 40
1.0
176
     1
 90
        0
176
     1
 62
    18
420
        0
176
     1
 90
       50
176
     1
 90
        3
176
     1
 62
     5
420
      255
176
     1
290
     0
176
     1
 90
       50
176
     1
 90
       50
176
     1
 90
       50
176
     1
290
     0
176
     1
 90
       50
176
     1
 62
   256
176
     0
 40
1.0
176
     0
 90
        2
176
     1
  1
strokes_ogs.tif
176
     1
290
     0
176
     1
 40
1.0
176
     1
 40
1.0
176
     1
1001
ACAD
1000
AcDbSavedByObjectVersion
1070
     0
  0
VISUALSTYLE
  5
FC
102
{ACAD_REACTORS
330
EF
102
}
330
EF
100
AcDbVisualStyle
  2
Thicken
 70
    13
177
     3
291
     1
 70
    58
 90
        2
176
     1
 90
        2
176
     1
 90
        1
176
     1
 90
        0
176
     1
 40
0.6
176
     1
 40
30.0
176
     1
 62
     7
420
 16777215
176
     1
 90
        1
176
     1
 90
        4
176
     1
 62
     7
176
     1
 62
   257
176
     1
 90
        1
176
     1
 90
        1
176
     1
 40
1.0
176
     1
 90
       12
176
     1
 62
     7
176
     1
 40
1.0
176
     1
 90
        1
176
     1
 90
        6
176
     1
 90
        2
176
     1
 62
     7
176
     1
 90
        5
176
     1
 90
        0
176
     1
 90
        0
176
     1
290
     0
176
     1
 90
        1
176
     1
 40
0.0
176
     1
 90
        0
176
     1
290
     0
176
     1
290
     1
176
     1
290
     1
176
     1
290
     0
176
     1
290
     0
176
     1
290
     0
176
     1
290
     0
176
     1
290
     0
176
     1
290
     0
176
     1
 90
       50
176
     1
 40
0.0
176
     1
 40
1.0
176
     1
 90
        0
176
     1
 62
    18
420
        0
176
     1
 90
       50
176
     1
 90
        3
176
     1
 62
     5
420
      255
176
     1
290
     0
176
     1
 90
       50
176
     1
 90
       50
176
     1
 90
       50
176
     1
290
     0
176
     1
 90
       50
176
     1
 62
   256
176
     0
 40
1.0
176
     0
 90
        2
176
     1
  1
strokes_ogs.tif
176
     1
290
     0
176
     1
 40
1.0
176
     1
 40
1.0
176
     1
1001
ACAD
1000
AcDbSavedByObjectVersion
1070
     0
  0
VISUALSTYLE
  5
F6
102
{ACAD_REACTORS
330
EF
102
}
330
EF
100
AcDbVisualStyle
  2
Wireframe
 70
     5
177
     3
291
     0
 70
    58
 90
        0
176
     1
 90
        2
176
     1
 90
        0
176
     1
 90
        0
176
     1
 40
0.6
176
     1
 40
30.0
176
     1
 62
     7
420
 16777215
176
     1
 90
        1
176
     1
 90
        4
176
     1
 62
     7
176
     1
 62
   257
176
     1
 90
        1
176
     1
 90
        1
176
     1
 40
1.0
176
     1
 90
        0
176
     1
 62
   257
176
     1
 40
1.0
176
     1
 90
        1
176
     1
 90
        6
176
     1
 90
        2
176
     1
 62
     7
176
     1
 90
        3
176
     1
 90
        0
176
     1
 90
        0
176
     1
290
     0
176
     1
 90
        1
176
     1
 40
0.0
176
     1
 90
        0
176
     1
290
     0
176
     1
290
     1
176
     1
290
     1
176
     1
290
     0
176
     1
290
     0
176
     1
290
     0
176
     1
290
     0
176
     1
290
     0
176
     1
290
     0
176
     1
 90
       50
176
     1
 40
0.0
176
     1
 40
1.0
176
     1
 90
        0
176
     1
 62
    18
420
        0
176
     1
 90
       50
176
     1
 90
        3
176
     1
 62
     5
420
      255
176
     1
290
     0
176
     1
 90
       50
176
     1
 90
       50
176
     1
 90
       50
176
     1
290
     0
176
     1
 90
       50
176
     1
 62
   256
176
     0
 40
1.0
176
     0
 90
        2
176
     1
  1
strokes_ogs.tif
176
     1
290
     0
176
     1
 40
1.0
176
     1
 40
1.0
176
     1
1001
ACAD
1000
AcDbSavedByObjectVersion
1070
     0
  0
VISUALSTYLE
  5
1F1
102
{ACAD_REACTORS
330
EF
102
}
330
EF
100
AcDbVisualStyle
  2
X-Ray
 70
    25
177
     3
291
     0
 70
    58
 90
        2
176
     1
 90
        2
176
     1
 90
        1
176
     1
 90
        1
176
     1
 40
0.5
176
     1
 40
30.0
176
     1
 62
     7
420
 16777215
176
     1
 90
        1
176
     1
 90
        0
176
     1
 62
     7
176
     1
 62
   257
176
     1
 90
        1
176
     1
 90
        1
176
     1
 40
1.0
176
     1
 90
        8
176
     1
 62
     7
176
     1
 40
1.0
176
     1
 90
        1
176
     1
 90
        6
176
     1
 90
        2
176
     1
 62
     7
176
     1
 90
        3
176
     1
 90
        0
176
     1
 90
        0
176
     1
290
     0
176
     1
 90
       13
176
     1
 40
0.0
176
     1
 90
        0
176
     1
290
     0
176
     1
290
     1
176
     1
290
     1
176
     1
290
     0
176
     1
290
     0
176
     1
290
     0
176
     1
290
     0
176
     1
290
     0
176
     1
290
     0
176
     1
 90
       50
176
     1
 40
0.0
176
     1
 40
1.0
176
     1
 90
        0
176
     1
 62
    18
420
        0
176
     1
 90
       50
176
     1
 90
        3
176
     1
 62
     5
420
      255
176
     1
290
     0
176
     1
 90
       50
176
     1
 90
       50
176
     1
 90
       50
176
     1
290
     0
176
     1
 90
       50
176
     1
 62
   256
176
     0
 40
1.0
176
     0
 90
        2
176
     1
  1
strokes_ogs.tif
176
     1
290
     0
176
     1
 40
1.0
176
     1
 40
1.0
176
     1
1001
ACAD
1000
AcDbSavedByObjectVersion
1070
     0
  0
DICTIONARYVAR
  5
146
102
{ACAD_REACTORS
330
5E
102
}
330
5E
100
DictionaryVariables
280
     0
  1
1:1
  0
DICTIONARYVAR
  5
259
102
{ACAD_REACTORS
330
5E
102
}
330
5E
100
DictionaryVariables
280
     0
  1
3.500000
  0
DICTIONARYVAR
  5
25A
102
{ACAD_REACTORS
330
5E
102
}
330
5E
100
DictionaryVariables
280
     0
  1
acadiso.lin
  0
DICTIONARYVAR
  5
145
102
{ACAD_REACTORS
330
5E
102
}
330
5E
100
DictionaryVariables
280
     0
  1
STANDARD
  0
DICTIONARYVAR
  5
84
102
{ACAD_REACTORS
330
5E
102
}
330
5E
100
DictionaryVariables
280
     0
  1
STANDARD
  0
DICTIONARYVAR
  5
227
102
{ACAD_REACTORS
330
5E
102
}
330
5E
100
DictionaryVariables
280
     0
  1
Metric50
  0
DICTIONARYVAR
  5
228
102
{ACAD_REACTORS
330
5E
102
}
330
5E
100
DictionaryVariables
280
     0
  1
Metric50
  0
DICTIONARYVAR
  5
5F
102
{ACAD_REACTORS
330
5E
102
}
330
5E
100
DictionaryVariables
280
     0
  1
2
  0
DICTIONARYVAR
  5
63
102
{ACAD_REACTORS
330
5E
102
}
330
5E
100
DictionaryVariables
280
     0
  1
1
  0
DICTIONARYVAR
  5
1AE
102
{ACAD_REACTORS
330
5E
102
}
330
5E
100
DictionaryVariables
280
     0
  1
0
  0
DICTIONARYVAR
  5
1AF
102
{ACAD_REACTORS
330
5E
102
}
330
5E
100
DictionaryVariables
280
     0
  1
0
  0
DICTIONARY
  5
8F2
102
{ACAD_REACTORS
330
8F0
102
}
330
8F0
100
AcDbDictionary
281
     1
  0
DICTIONARY
  5
8F1
102
{ACAD_REACTORS
330
8F0
102
}
330
8F0
100
AcDbDictionary
281
     1
  3
1669989218608
350
8EB
  3
1669989218624
350
8EC
  3
1669989218640
350
8ED
  3
1669989218656
350
8EE
  3
1669989218672
350
8EF
  0
DICTIONARY
  5
8F9
330
28F
100
AcDbDictionary
280
     1
281
     1
  3
ACAD_XREC_ROUNDTRIP
360
8FA
  0
DICTIONARY
  5
8F5
330
21C
100
AcDbDictionary
280
     1
281
     1
  3
ACAD_XREC_ROUNDTRIP
360
8F6
  0
DICTIONARY
  5
205
330
22
100
AcDbDictionary
280
     1
281
     1
  0
DICTIONARY
  5
1F9
330
ED
100
AcDbDictionary
280
     1
281
     1
  3
FBXASSET
360
1FA
  0
DICTIONARY
  5
1F7
330
EC
100
AcDbDictionary
280
     1
281
     1
  3
FBXASSET
360
1F8
  0
DICTIONARY
  5
173
330
EE
100
AcDbDictionary
280
     1
281
     1
  3
BUMPTILE
360
175
  3
DIFFUSETILE
360
174
  3
FBXASSET
360
1FB
  3
OPACITYTILE
360
176
  3
REFLECTIONTILE
360
177
  0
DICTIONARY
  5
8F7
330
28E
100
AcDbDictionary
280
     1
281
     1
  3
ACAD_XREC_ROUNDTRIP
360
8F8
  0
DICTIONARY
  5
8F3
330
21A
100
AcDbDictionary
280
     1
281
     1
  3
ACAD_XREC_ROUNDTRIP
360
8F4
  0
DICTIONARY
  5
162
330
7F
100
AcDbDictionary
280
     1
281
     1
  3
ACAD_ROUNDTRIP_2008_TABLESTYLE_CELLSTYLEMAP
360
8E9
  0
XRECORD
  5
8EB
102
{ACAD_REACTORS
330
8F1
102
}
330
8F1
100
AcDbXrecord
280
     1
  1
AcDb_Thumbnail_Schema
102
{ATTRRECORD
341
8EC
  2
AcDbDs::TreatedAsObjectData
280
     1
291
     1
102
ATTRRECORD}
102
{ATTRRECORD
341
8ED
  2
AcDbDs::Legacy
280
     1
291
     1
102
ATTRRECORD}
  2
AcDbDs::ID
280
    10
 91
        8
102
{ATTRRECORD
341
8EE
  2
AcDs:Indexable
280
     1
291
     1
102
ATTRRECORD}
102
{ATTRRECORD
341
8EF
  2
AcDbDs::HandleAttribute
280
     7
282
     1
102
ATTRRECORD}
  2
Thumbnail_Data
280
    15
 91
        0
  0
XRECORD
  5
8EC
102
{ACAD_REACTORS
330
8F1
102
}
330
8F1
100
AcDbXrecord
280
     1
  1
AcDbDs::TreatedAsObjectDataSchema
  2
AcDbDs::TreatedAsObjectData
280
     1
 91
        0
  0
XRECORD
  5
8ED
102
{ACAD_REACTORS
330
8F1
102
}
330
8F1
100
AcDbXrecord
280
     1
  1
AcDbDs::LegacySchema
  2
AcDbDs::Legacy
280
     1
 91
        0
  0
XRECORD
  5
8EE
102
{ACAD_REACTORS
330
8F1
102
}
330
8F1
100
AcDbXrecord
280
     1
  1
AcDbDs::IndexedPropertySchema
  2
AcDs:Indexable
280
     1
 91
        0
  0
XRECORD
  5
8EF
102
{ACAD_REACTORS
330
8F1
102
}
330
8F1
100
AcDbXrecord
280
     1
  1
AcDbDs::HandleAttributeSchema
  2
AcDbDs::HandleAttribute
280
     7
 91
        1
284
     1
  0
XRECORD
  5
8FA
102
{ACAD_REACTORS
330
8F9
102
}
330
8F9
100
AcDbXrecord
280
     1
102
DISPLAYNAME
  1
Imperial24
102
FLAGS
 90
        0
  0
XRECORD
  5
8F6
102
{ACAD_REACTORS
330
8F5
102
}
330
8F5
100
AcDbXrecord
280
     1
102
DISPLAYNAME
  1
Metric50
102
FLAGS
 90
        0
  0
XRECORD
  5
1FA
102
{ACAD_REACTORS
330
1F9
102
}
330
1F9
100
AcDbXrecord
280
     1
 70
     1
 90
429727718
  1
D62C5603-E3A1-4AEA-B7FB-FE5D8D0755AF
310
504B03040A0000080000CC70623B3DEE336E79000000790000001B0000006175746F6465736B2D64657369676E2D7061636B6167652E786D6C3C3F786D6C2076657273696F6E3D22312E302220656E636F64696E673D227574662D3822203F3E3C666F726D6174733E3C666F726D61743E687474703A2F2F736368656D612E
310
6175746F6465736B2E636F6D2F64657369676E2D7061636B6167652F323030393C2F666F726D61743E3C2F666F726D6174733E504B0304140006080800CC70623BD486FD9CA0000000F4000000130000005B436F6E74656E745F54797065735D2E786D6C7D8EC10E82300C865F65E91D8A1E8C310C0EEA1BF002731658846E
310
D98AC1B77784ABF1D8FE5FBFBF75BBCE937A534CCEB38643598122B6FEE978D0B0485F9C41B54DDD7D022595594E1A469170414C76A4D9A4D207E29CF43ECE46F218070CC6BECC4078ACAA135ACF422C856C0E68EA1BF5669944DDD7BCDE7B1F8E415D77AECB980613C2E4AC91FC167A2B244592486606FC29C8FD7F045B9A
310
EF7053A7E60B504B0304140006080800CC70623B853B8169EB0000007C01000008000000636F72652E786D6C8D90416EC3201045AF62CDB6C206821CC7C244919D9CA01740401C94182C03558F5F9C3852BBEB6A467FFE9B197D7EFC9E1EC5975982F5AE035262288C535E5B377690E21535501C055FBC8FBF6C503839990E
310
5619041F179FE64D52DE45E362569DD7661365082642A11EB9E920A89B99642953CC8E702F67A9EE7234257977194EC9EAE275C4EABCCF5EAD5940D4AC6F0E35A568B8F43562CD7046CD199FD07E60174276A7BE677B5EADB0E0D14EEFFB6A31321A0D82627C4084204C3F096B71DD52F6819B16635EADF63F509AF53FA164
310
5DDCD1EDDD17164090FCC8732078B56691CB33A85CD7DCC40F504B0304140006080800CC70623B55019EA25F0000007C00000007000000636E782E786D6C4DCB3B0E80201045D1AD90E915ED2CF8AC45050C11660C8261F98AB1B07AC9C97D42D718D865D3E909258CFD00CCE24AC6E326A164D74DC0B4128928FF32603847
310
2BA13128B1252AC747C6BAB984FC68F0B87FE8960A5C09FE86CFB69FBA01504B0304140006080800CC70623BDBABAAF470010000D40300000C0000006662782F636F72652E786D6CC553D16E823014FD95A6AF4B694182CC941A83FA05FB810A9511A125A5257EFE2E82712ECEB8A7F100CD39F7F69E734AF9FADC366850B6
310
AF8DCE7018308C942E4C59EB2AC3DE1D498AD15A706B8CFB56869196ADCAF00863C12B6B7C374385D14E6907A836A59A41D9F7CA615434B0C8705F7CAA5606D23BA8E84F41278B93AC54100640439DE0BDB320004D43C63716C7C399D30917DCFBBA9CD9BA8469F5B156168B24CED3F7248AC8769F27244EB73B92EED8862C
310
B7F13E0C179B3C8F979C8ECD82BBBABDAA2BAC924E9558448CBD9330242CFA08E3154B5651FCC6D215639C8EE5774DBE2B5F6CF2B5768B68963BB5F5588420E442FC700B1139D4CB01F450C1E918227C2E09DF070D8140C84E1E9AAB8F1340832A9CB13130A5F1376A908D57309505ECF2A0DF179C4E9D30F5B239B87E3823
310
7A79C6F31DE1A8A5AEC08474B03C7837EAE4938639B44E5932B833D2C6B6B279CDC613877FA26EE21F4A2A4C63EC7F29A2F301D1F9F7A0E37D145F504B0304140006080800CC70623B9C113CC27E0000009D0000000B0000006662782F636E782E786D6C4DCCDF0A83201C86E15B91DFB94BFB330DD428C8FB886521330DA7
310
6397BF1A1DECE883878F57749FCDA1B7892F1BBC047A23808C7F84D9FA55424E0BE6803A256208E9EF06C84F9B91703228B1C690F78B66B34CD9A5439DF5CF0BFBF65E35BCA1B8D6A5C6F540381E886698B5741C695F9503EBA150A2F8958E3DC3EA0B504B0304140006080800CC70623B7DF2F77C2A010000120200003100
310
00006662782F41393633353835312D344632462D344230382D423046372D3739314545314133324237412F636F72652E786D6C8D51DB8EC22014FC15C2939B0D2DB4B45643319AE817EC0F6041255A68B86CFCFC856D4D76DF7CE190393373060EDB3DC707F856CE6B6B7A480A0C81328395DA5C7B18C3057510EC3873D686
310
3F34088C18550F330C39BB3A1BA7051AAC09CA84841A2BD5020AEF55806078A44B0FFD7053A328440C89E1EFC52486BBB8AA8214A99D789CF9E05200300FC927E4FB4D5B375D43103D5527440FB843077C5AA3F5861C8F645F5787F59E95B390B318B55CE45AA638FAA2957BD7248B390B7A7CC51F9C124149C82B8C378810
310
84AB2F42B7B8DD56F413775B8C5999E9FF4471926F8AA236A1AE96B8B3CC434E5839373893369E1FAF30EA395917409EB7F26AF8801C171837A4A6AC9C89E9F9C9B1A58BA30FD6A5EF5DDDCF894B9AD9B6A59C957943A9FCAE2FD5BC4DFE03504B0304140006080800CC70623BAD7543B64E01000033030000300000006662
310
782F41393633353835312D344632462D344230382D423046372D3739314545314133324237412F636E782E786D6CD593CD6EC32010845F0571AD6CE3D48AD20813A9873E410FBD12D82434182C7EAAE6EDBB2424CD25871E7B41D6EC30B3FA84F9E67BB2E40B4234DE8DB46F1925E094D7C6ED479AD3AE5951B2113C789FEE
310
6C943839C1488B4C05DF079FE72A69D8C96C13AAD6B8631503449F83828872B949AC57D26200B826A308D316B4064D6E46FCDA41C05550DC9E483A00797BFD207EFB092A45DE9514C1BBD22178396BD39D891265658C238DEA00936C654E5E433CB65A26D9F6EDB5EBC14EBF49A45CB856E66048291F6939A9A81BB5C89177
310
38143CA680F4AA299D66A042CEB3354A2684DC9D8D178FE0D9B8B41CAAD720F880EE7EF93C0C18769E099ECC04D5A102C8049A8A05632F4DDF376CF1DE0F6BB65C2F8627B65A33C6BB62177CEBBDAD973006829F89F22E814B54F4BC2BE347F8AA8F681390B50FA73F804400B5F542E796F19FF974E7F78DB802FE05E20750
310
4B0304140006080800CC70623BE75B7789680500003C100000340000006662782F41393633353835312D344632462D344230382D423046372D3739314545314133324237412F6F626A656374732E786D6CAD575B8F9B3818FD2B887D06C22499CB8AA1CA655245D5B455A356FB305264C061D8018C6C3393D95FBFC7600890
310
A4CD5EF210B0B1BFEBF98E3F7B1FF6596ABC522E1296DF9BAE3D320D9A872C4AF2F8DE2CE5CEBA358D0FBEC719939D65A691938CDE9B6ADAF4BD98B3B2D05311DD91329583D9D5FC0F438434A7A611A644887B5384CF34233629258BA878B12322891DEFF6B66BD70BFB62634E8AE781D082709A4B588AF91C528CDA28B73F
310
1C998EEF39EABBEFA97FBD6A7C7E9553F9D3D79FE442923C3C523610337627CB87ABE99D359D4CC6D6E4FACAB5E6ABF9D2726FC6A3C5F56271377BB88362213924694B38DD99FE47C48627A1E7D49F5A8BB5E1A74C0A599ED3B0F21F1E56366B89112D681E218F0915D0D6F17AD41FBA2A369DCF6335D62ABBD39779D5DDD1
310
11D4D8DE3CBB96B2E04FB8202E41051754A1AA8E8F76B4C6DFE810B580B1547F4B84911149794252234D024EF8BBE963A95AE27B3D310A9D5C215C7960FAEE415ED75694C6AFB17BCACA5D99A60A9AA65F217B0BFC53292ACB92BF283FAD0D3621576592CB5BED907C2FA8E9DF794E35E97BEA31BED21FEB401ABB94C44839
310
DCACBF0E1C5DA8DA5B2F4DFFD32AD86F543D9E565E7056502E157C00AD2671CD534549AB752FCA9CDA00677A313F04E51B22FF19E57B300579E3C97EB29F682D92935CEC18CF901B7B54FD8C51F362B56FC72FE0B3C1EAE335EDCCBF5AEC39ADB17DC238973F804BA5E6F6BFE7AF1FB32E523BE9F3BD571418E3631DCA4D48
310
5250CF639223210A9446CA30052EDF057BD35F8329C1ECD84552BF0DC8D18BE7BCE23BFE6BD960AB4A7DE79923A103BEBD80F911CBAA2C60DB19B01CF164A5583B772EE6D3FFA56666CBCDA74DC97724A48F9A58967497E489C4D979006FD7A05E227A1EBDD0F737C623387A9C844D3709995625106D157315F8B8392CD4E0
310
A0B9A720C4BE9829CEF37EA1E13111214D53925356365ADA634861B52519DD27A00AEB808EAF0628E6F435519D446F45CF2C9CF5214F0A15B2F6D06B79DA3EE3CBF7F56780D2F4E7EF73A0F5E5B02A38D07DC852C6B7C1FBB6664213E0C39E3EBA7FF4E1AD23EA2829407C85E586727488B751B2DB9502BC7B228A3FD68B6E
310
A65A22397E690AA8D158D7E404EC8CDA235CC3B7D1898680131CEC2CDF2638C65196279577750F15884AEE19F94199155B92B13297978469D4F8D358DF0AEF7631E28DC8F0D9F437D5D39A83B2231A1D52D543813A824EF8D44BCFF2FA6A31BD1E8DAD87F1CCB526B3879935BF59CDADD5C37479BB1CDD4CA7B3556B516589
310
EF352754B706114D9C885EC9131DE6EFEB43D99AFE2391C2F958179413D7CFEF6B1B6DB1E7600F00DE6E5C67454A339A4BA2E0FBA85ED26F045D454F463DBFCE484C2F90F2E5E3666003662ED8F755951A7D1BECD5B30B550B2785C8E7320B7292A4838DDA71BBC863ED7613CAF659337A3354231D4FF4A182A54904C2898C
310
98B28C4AD0CE056CCF332A80986E571EE9DBC305BB5FEB7E509220A58D25CF042D712A806AC0AD0C657FDEF80D2D9CEAA2EE4D1C76F60BFE74219A06527D6F82DF6412526107381E55E353090704D085B52408A8913C4ED159D79BDA71BB4BC506F4831350EB6F975CD22D69BF7AC49B91A2C0A9DDA3D5CA36AD20FC478E37
310
E61844E2352865EBCB61A275A65283CAAA9DD27703B4102F5AF51EF5F573B75CBB5AD38BC845F7A49F82A0966A49C2E3EA5EA0ECD326CD965F1DB402C6FA8B51A4658C5C5E2EC9E214602E55810345408596591009A82E7E7FFACA19EEA299B14A0081A705CB3296EBC14CDF658DCD336EA6D1136881AAEB87B81AB9EE53D5
310
F5EB8BC8362082DA24122F98680A4E7930C01A0079749CEA14382A0783E5EBA5A10F8C098456A03D6A4AEB6BB881E2513747552A5DB22C7EDAF83BD5528081A365F7FF06504B0304140006080000CC70623B000000000000000000000000350000006662782F41393633353835312D344632462D344230382D423046372D37
310
39314545314133324237412F76657274696365732E62696E504B0304140006080800CC70623BF270F1330600000004000000360000006662782F41393633353835312D344632462D344230382D423046372D3739314545314133324237412F747269616E676C65732E62696E636660600000504B0304140006080000CC7062
310
3B000000000000000000000000370000006662782F41393633353835312D344632462D344230382D423046372D3739314545314133324237412F617474726962757465732E62696E504B0304140006080800CC70623B08DA0BD19000000041010000360000006662782F41393633353835312D344632462D344230382D4230
310
46372D3739314545314133324237412F6469726563746F72792E786D6C858F410AC3201045AF22B36F53E9A60B35CBEEBAE80D244E44489C6234F4F835464A48035D0DF398FF9F8AF63D0E6CC63039F212F8F9020C7D47C6792B21C5FE7403D62A1188E2E60C98D7234A5830286103A55745067B9D86B8A3CF9C7F90C11DE6
310
07FB144396D7B6A82D282E9A152AD114D5EF2CB866EEE831B8EEA07A7BB5A8D7D61A2BAAEB7FD5F70921FF497D00504B0304140006080800CC70623BEDD1DC58FD000000A00100003B0000006662782F41393633353835312D344632462D344230382D423046372D3739314545314133324237412F7265736F75726365732F
310
636F72652E786D6C8D504B6E833010BD0A9A6D65B00922041947112427E8052C33A156828DFCA97AFC9A40A576D7CDCCE87D344F8F9FBFE667F689CE6B6B3A6039850C8DB2A336530731DC4903D95970676DF82583CCC8193B5861107C72362E3BA4AC096842428D1D7107A5F7182053CF7474E0D507CE32973124857FE48B
310
540F3961CEF244279DE03EB81420DB9EAC1384436FA353E879B1B182C7A8C75DA3C7F453DF353A1075D537A7BA6464B8F535A99AE14A9A2BBD90E350DD183B5CFABE3AF262350B1EF4FC9351399401471025A527C218A1E53BAB5A5AB765F5469B96525EACF23FA6B88CFF34456DC2A1DCE36E360F82A5202F42F062ED2BAD
310
579969AFDD8A6F504B010214000A0000080000CC70623B3DEE336E79000000790000001B00000000000000000000000000000000006175746F6465736B2D64657369676E2D7061636B6167652E786D6C504B01021400140006080800CC70623BD486FD9CA0000000F40000001300000000000000000000000000B20000005B
310
436F6E74656E745F54797065735D2E786D6C504B01021400140006080800CC70623B853B8169EB0000007C010000080000000000000000000000000083010000636F72652E786D6C504B01021400140006080800CC70623B55019EA25F0000007C000000070000000000000000000000000094020000636E782E786D6C504B
310
01021400140006080800CC70623BDBABAAF470010000D40300000C00000000000000000000000000180300006662782F636F72652E786D6C504B01021400140006080800CC70623B9C113CC27E0000009D0000000B00000000000000000000000000B20400006662782F636E782E786D6C504B01021400140006080800CC70
310
623B7DF2F77C2A010000120200003100000000000000000000000000590500006662782F41393633353835312D344632462D344230382D423046372D3739314545314133324237412F636F72652E786D6C504B01021400140006080800CC70623BAD7543B64E010000330300003000000000000000000000000000D2060000
310
6662782F41393633353835312D344632462D344230382D423046372D3739314545314133324237412F636E782E786D6C504B01021400140006080800CC70623BE75B7789680500003C10000034000000000000000000000000006E0800006662782F41393633353835312D344632462D344230382D423046372D3739314545
310
314133324237412F6F626A656374732E786D6C504B01021400140006080000CC70623B0000000000000000000000003500000000000000000000000000280E00006662782F41393633353835312D344632462D344230382D423046372D3739314545314133324237412F76657274696365732E62696E504B01021400140006
310
080800CC70623BF270F133060000000400000036000000000000000000000000007B0E00006662782F41393633353835312D344632462D344230382D423046372D3739314545314133324237412F747269616E676C65732E62696E504B01021400140006080000CC70623B0000000000000000000000003700000000000000
310
000000000000D50E00006662782F41393633353835312D344632462D344230382D423046372D3739314545314133324237412F617474726962757465732E62696E504B01021400140006080800CC70623B08DA0BD1900000004101000036000000000000000000000000002A0F00006662782F41393633353835312D344632
310
462D344230382D423046372D3739314545314133324237412F6469726563746F72792E786D6C504B01021400140006080800CC70623BEDD1DC58FD000000A00100003B000000000000000000000000000E1000006662782F41393633353835312D344632462D344230382D423046372D3739314545314133324237412F7265
310
736F75726365732F636F72652E786D6C504B0506000000000E000E0080040000641100000000
  0
XRECORD
  5
1F8
102
{ACAD_REACTORS
330
1F7
102
}
330
1F7
100
AcDbXrecord
280
     1
 70
     1
 90
429727718
  1
30362254-06B7-45E0-A893-8CFA70E3D6BC
310
504B03040A0000080000CC70623B3DEE336E79000000790000001B0000006175746F6465736B2D64657369676E2D7061636B6167652E786D6C3C3F786D6C2076657273696F6E3D22312E302220656E636F64696E673D227574662D3822203F3E3C666F726D6174733E3C666F726D61743E687474703A2F2F736368656D612E
310
6175746F6465736B2E636F6D2F64657369676E2D7061636B6167652F323030393C2F666F726D61743E3C2F666F726D6174733E504B0304140006080800CC70623BD486FD9CA0000000F4000000130000005B436F6E74656E745F54797065735D2E786D6C7D8EC10E82300C865F65E91D8A1E8C310C0EEA1BF002731658846E
310
D98AC1B77784ABF1D8FE5FBFBF75BBCE937A534CCEB38643598122B6FEE978D0B0485F9C41B54DDD7D022595594E1A469170414C76A4D9A4D207E29CF43ECE46F218070CC6BECC4078ACAA135ACF422C856C0E68EA1BF5669944DDD7BCDE7B1F8E415D77AECB980613C2E4AC91FC167A2B244592486606FC29C8FD7F045B9A
310
EF7053A7E60B504B0304140006080800CC70623B1EC5D7A3EB0000007C01000008000000636F72652E786D6C8D90416EC3201045AF82665B6103C6756C6122AB4D4ED00B204C5C94182C03558F5F9C3852BBEB6A467FFE9B197D71FC9E6FE8CBACC17AD7032D0820E3B41FAD9B7A48F1820F808E52ACDEC75F36404ECDA687
310
4D0629A6D5A76597B477D1B89855E747B38B2A041301E95B6E7A08FAD3CCAA50296647B8168BD2573599823EBB0CA76447F43862C7BCCF5EAC59410E4DDD9C7973C2755553CCCFA4C603E3040F1565ED3B1FDE4E432BCA0D9622DAF9795FAF464533826484B498524CD807E51D79ED187F21878E10516EF63F505AC67F42C9
310
BA58B1FDDD071640D2FCC87D2045B96591CB3DA85CB7DCE40F504B0304140006080800CC70623B55019EA25F0000007C00000007000000636E782E786D6C4DCB3B0E80201045D1AD90E915ED2CF8AC45050C11660C8261F98AB1B07AC9C97D42D718D865D3E909258CFD00CCE24AC6E326A164D74DC0B4128928FF32603847
310
2BA13128B1252AC747C6BAB984FC68F0B87FE8960A5C09FE86CFB69FBA01504B0304140006080800CC70623B8C9102E971010000D40300000C0000006662782F636F72652E786D6CC5535B6E833010BC8AE5DF0A6C08340F1947A84D4ED00B38C6A128602363A31CBFCB234A53A551FA553EC09AD9F5CE8C31DB9E9B1AF5CA
310
7695D1198E428A91D2D214952E33ECDD315861B4E5CC1AE3BE9561A445A3323CC098B3D21ADFCE9034DA29ED00D5A6503328BA4E398C640D8B0C77F253352214DE4145770A5B214FA2546114020D759C75CE8200340D19DE981F0F6746269C33EFAB6266AB02A655C74A59CCF365BADC27CB5D902ED22848F6340DF238A141
310
BE88E2F57B92BFEDF23523433367AE6A2EEAA455C2A902F398D2751045018D3FA264435F3771F242571B4A1919CA6F9A7C5B3CD9E42BED16F12C776AEB308F40C848FC700B1139D4891EF410CEC810227CC6846F8386402064270EF5C5C709A05E49676C024C61FC95EA45ED154CA5211D1FF4FB8291A913A68E9B83EBBB33
310
E2A7673CDE118E5AE8124C0807CB8377834E366998436B950D7A7746DAD846D4CFD978E0F04FD455FC5D49D2D4C6FE9722321F10997F0F32DC47FE05504B0304140006080800CC70623BFFEA85907E0000009D0000000B0000006662782F636E782E786D6C4DCCD10A83201886E15B91FFDC95D95A811AB6F23E625948A6C3
310
E9D8E5AF46073BFAE0E1E365ED67B3E8ADC3CB78C7815C7240DA3DFC64DCC221C519D7805AC182F7F1EF06C88D9BE6703008B6049F9E274D7A1E938DBB5AE3D6131B2589BA0D3D965551E0B2EA732C9B9A624AAEB41E3A557677029960D9AFB4EF11165F504B0304140006080800CC70623B4FEEA4082C0100001202000031
310
0000006662782F39464131463745442D413632322D343644302D413938332D3331353338454246344243312F636F72652E786D6C8D515B6EC32010BC0AE2AB55850DD871ED0813254D72825EC00192A2C460F1A872FC42ED48ED5F7E00CDCECCCEB26C731F6FE05B39AFADE921293004CA082BB5B9F43086336A21D870E6AC
310
0D7F68109861543DCC30E4ECE26C9C164858139409093556AA051CBC570102714B8F1E7AF1A5C6A11862480C7F2DA6415C878B2A4891CA89C7990F2E050073937C42DE1DB7E4F87ED8A36D4329AA9B3D46DBAEAD504556557BD81DEBDD0761E52CE42C462D17B996298E3E6BE59E35C962CE821E1FF18553435012728A7187
310
0841987E927A8D9B35ADDF70BBC6989599FE4F1427F9A4286A132ABAC49D651EF234CD5CE04CDA78BA3DC2A8FB645D00B9DF8B57E215725C60BCA2A463E54C4CE327C7A65E1C7DB02E7DEFCBF594B864C5CA6CDBD49C957943E9FA5D5FBAF336F90F504B0304140006080800CC70623BAD7543B64E01000033030000300000
310
006662782F39464131463745442D413632322D343644302D413938332D3331353338454246344243312F636E782E786D6CD593CD6EC32010845F0571AD6CE3D48AD20813A9873E410FBD12D82434182C7EAAE6EDBB2424CD25871E7B41D6EC30B3FA84F9E67BB2E40B4234DE8DB46F1925E094D7C6ED479AD3AE5951B2113C
310
789FEE6C943839C1488B4C05DF079FE72A69D8C96C13AAD6B8631503449F83828872B949AC57D26200B826A308D316B4064D6E46FCDA41C05550DC9E483A00797BFD207EFB092A45DE9514C1BBD22178396BD39D891265658C238DEA00936C654E5E433CB65A26D9F6EDB5EBC14EBF49A45CB856E66048291F6939A9A81BB5
310
C8917738143CA680F4AA299D66A042CEB3354A2684DC9D8D178FE0D9B8B41CAAD720F880EE7EF93C0C18769E099ECC04D5A102C8049A8A05632F4DDF376CF1DE0F6BB65C2F8627B65A33C6BB62177CEBBDAD973006829F89F22E814B54F4BC2BE347F8AA8F681390B50FA73F804400B5F542E796F19FF974E7F78DB802FE05
310
E207504B0304140006080800CC70623B16AB87BA640500003C100000340000006662782F39464131463745442D413632322D343644302D413938332D3331353338454246344243312F6F626A656374732E786D6CAD575B6FA33818FD2B887DE6924B3BED8A326A92B68A663B534DD4D13E548A0C38942D60649B369D5FBFC7
310
600890A493BDE42160637FD7F31D7FF63E6FB3D478A55C242CBF3247B66B1A340F5994E4F19559CA8D75611A9F7D8F33263BCB4C232719BD32D5B4E97B316765A1A722BA21652A07B3B7B33F0D11D29C9A46981221AE4C113ED38CD8A4942CA2E2C58E882476BCD9DA23BB5ED8171B73523C0F841684D35CC252CCE79062D4
310
468DFA43D7747CCF51DF7D4FFDEB5593E3AB9CCA9FBEFE241792E4E19EB28198C968BAB8199F5D5A67D3E9C49A9E8F47D6EC76B6B0469F26EEFC7C3EBFBCBEB98462213924694B38DD98FE1D62C393D073EA4FADC5DAF04326852CCF6958F90F0F2B9BB5C48816348F90C7840A68EB78EDF68723159BCEE7891A6B95DDE9D3
310
BCEAEEE8086A6C6F9E5D4B59F0175C10A7A0820BAA5055C7473B5AE3CFDD452D602CD5DF12616444529E90D448938013FE6EFA58AA96F85E4F8C42275708571E98FE6827AF6B2B4AE3D7D83D64E5A64C53054DD3AF90BD06FEA9149565C94FCA0F6B834DC85599E4F2423B24DF0B6AFA979E534DFA9E7A4CC6FA631D486393
310
921829879BF5D781A373557BCB85E97FB90DB62B558F8795179C15944B051F40AB495CF35451D26A4727654E6D8033BD98EF82F21D91FF8AF2DD9982BCF1643BDD4EB516C9492E368C67C88DED563FC36D5EACF66DFF057C3658BDBFA69DF9578B3DA735B64F18C7F20770A9D45CFCF7FCF563D6456A277DBEF78A02637CA2
310
43B90A490AEAB94F72244481D24819A6C0E59B606BFA4B3025981DBB48EAB701D97BF19C577CC77F2D1B6C55A9EF3C732474C0B727303F625995056C3B02963D9EAC146BE78EC5FCEC7FA999EBC5EACBAAE41B12D27B4D2C0BBA49F244E2ECDC81B76B502F113D8F5EE8FB1BE3111CDD4FC2AA9B844CAB1288B68AB90A7CDC
310
1C166AB0D3DC5310625FCC14E779BFD0709F8890A629C9292B1B2DED31A4B0DA928CEE135085754027E3018A397D4D5427D15BD1330B677DC8934285AC3DF45A9EB68FF8F2B8FC0A509AFEECFD0FF2DE25CC6047F7214B195F07EFEB9A094D800F7BFAE8FED187B78EA8A3A400F115961BCAD1215E47C966530AF0EE8128FE
310
58CEBB996A8964FFA529A046635D9353B0336A8F700DDF46271A024E70B0B37C9DE01847591E54DED53D54202AB947E4076556AC49C6CA5C9E1226B7F1A7B1BE15DEED62C41B91E1B3E9AFAAA735036547343A925075041DF0A9979E893B391F8FCFA6967B3EFB644DCF6E5CEBFAE272625DCC6FAF3FB93793C5F90CE1EF57
310
407342756B10D1C489E8953CD1617E5CEECAD6F4EF8914CE5D5D504E5C3F1F9736DA62CFC11E00BCDDB8CC8A9466349744C1F75EBDA4DF09BA8A9E8C7A7E9991989E20E5DBDD6A6003664ED8F7A04A8DBE0DF6EAD9B9AA858342E47399053949D2C146EDB85DE4B176BB0965FBAC19BD19AA918E27FA50C1D22402E144464C
310
59462568E704B6E71915404CB72B8FF4EDE184DDAF753F284990D2C6926782963815403548A70C657FDEF80D2D9CEAA2AE4C1C76F60BFE74219A06527D6582DF6412526107381E55E353090704D085B52408D0933C4ED159D79BDA71BB4BC506F4831350EB6F979CD22D69BF7AC49B91A2C0A9DDA3D5CA36AD20FC478E37E6
310
1844E2352865EBCB6EA275A652E3836BE04EFB400BF1A2556F515F1FBB35B2AB35BD889C744FFA1004B5544B121E57F70215746DD2F5E2C1412B602CBF19455AC6C8E5E9922C4E01E65215385004546899059180EAFCF7A707CE7017CD8CDB0410789AB32C63B91E5CEBBBACB17AC6CD347A022D5075FD106377347AAABA7E
310
7D11590744509B44E205134DC1290F06580320F78E537D3D73540E06CB970B431F185308AD40BBD794D6D77003C5A36E8EAA54BA64597CD8F83BD552A080A365F7FF06504B0304140006080000CC70623B000000000000000000000000350000006662782F39464131463745442D413632322D343644302D413938332D3331
310
353338454246344243312F76657274696365732E62696E504B0304140006080800CC70623BF270F1330600000004000000360000006662782F39464131463745442D413632322D343644302D413938332D3331353338454246344243312F747269616E676C65732E62696E636660600000504B0304140006080000CC70623B
310
000000000000000000000000370000006662782F39464131463745442D413632322D343644302D413938332D3331353338454246344243312F617474726962757465732E62696E504B0304140006080800CC70623B08DA0BD19000000041010000360000006662782F39464131463745442D413632322D343644302D413938
310
332D3331353338454246344243312F6469726563746F72792E786D6C858F410AC3201045AF22B36F53E9A60B35CBEEBAE80D244E44489C6234F4F835464A48035D0DF398FF9F8AF63D0E6CC63039F212F8F9020C7D47C6792B21C5FE7403D62A1188E2E60C98D7234A5830286103A55745067B9D86B8A3CF9C7F90C11DE607
310
FB144396D7B6A82D282E9A152AD114D5EF2CB866EEE831B8EEA07A7BB5A8D7D61A2BAAEB7FD5F70921FF497D00504B0304140006080800CC70623B0D6EF93BFE000000A00100003B0000006662782F39464131463745442D413632322D343644302D413938332D3331353338454246344243312F7265736F75726365732F63
310
6F72652E786D6C8D50596E833010BD0A9ADFCA60B334011947A8694ED00B586642AC041B79A97AFC9A40A5F6AF3F33A3B7689E1E3F7DCD8FEC139DD7D6F4C0720A191A65476DA61E62B892236427C19DB5E1970C322367EC618541F0C9D9B8EC90B226A009093576C41D94DE63804C3DD2D18357379C652E63480A7FCF17A9
310
EE72C29CE5894E3AC17D702940B63D59270887DE46A7D0F36263058F518FBB468FE9A7BE6A7420864373B8D4873369AA8691FA421B3294352543C5CAF65C0F6FEF43CB8BD52C78D0F34F46E550061C419494B6843142CB0F5677F4B52BEB177AEC28E5C52AFF638ACBF84F53D42654E51E77B379102C05791282176B5F693D
310
CB4C7BED567C03504B010214000A0000080000CC70623B3DEE336E79000000790000001B00000000000000000000000000000000006175746F6465736B2D64657369676E2D7061636B6167652E786D6C504B01021400140006080800CC70623BD486FD9CA0000000F40000001300000000000000000000000000B20000005B
310
436F6E74656E745F54797065735D2E786D6C504B01021400140006080800CC70623B1EC5D7A3EB0000007C010000080000000000000000000000000083010000636F72652E786D6C504B01021400140006080800CC70623B55019EA25F0000007C000000070000000000000000000000000094020000636E782E786D6C504B
310
01021400140006080800CC70623B8C9102E971010000D40300000C00000000000000000000000000180300006662782F636F72652E786D6C504B01021400140006080800CC70623BFFEA85907E0000009D0000000B00000000000000000000000000B30400006662782F636E782E786D6C504B01021400140006080800CC70
310
623B4FEEA4082C0100001202000031000000000000000000000000005A0500006662782F39464131463745442D413632322D343644302D413938332D3331353338454246344243312F636F72652E786D6C504B01021400140006080800CC70623BAD7543B64E010000330300003000000000000000000000000000D5060000
310
6662782F39464131463745442D413632322D343644302D413938332D3331353338454246344243312F636E782E786D6C504B01021400140006080800CC70623B16AB87BA640500003C1000003400000000000000000000000000710800006662782F39464131463745442D413632322D343644302D413938332D3331353338
310
454246344243312F6F626A656374732E786D6C504B01021400140006080000CC70623B0000000000000000000000003500000000000000000000000000270E00006662782F39464131463745442D413632322D343644302D413938332D3331353338454246344243312F76657274696365732E62696E504B01021400140006
310
080800CC70623BF270F133060000000400000036000000000000000000000000007A0E00006662782F39464131463745442D413632322D343644302D413938332D3331353338454246344243312F747269616E676C65732E62696E504B01021400140006080000CC70623B0000000000000000000000003700000000000000
310
000000000000D40E00006662782F39464131463745442D413632322D343644302D413938332D3331353338454246344243312F617474726962757465732E62696E504B01021400140006080800CC70623B08DA0BD190000000410100003600000000000000000000000000290F00006662782F39464131463745442D413632
310
322D343644302D413938332D3331353338454246344243312F6469726563746F72792E786D6C504B01021400140006080800CC70623B0D6EF93BFE000000A00100003B000000000000000000000000000D1000006662782F39464131463745442D413632322D343644302D413938332D3331353338454246344243312F7265
310
736F75726365732F636F72652E786D6C504B0506000000000E000E0080040000641100000000
  0
XRECORD
  5
175
102
{ACAD_REACTORS
330
173
102
}
330
173
100
AcDbXrecord
280
     1
270
     1
271
     1
  0
XRECORD
  5
174
102
{ACAD_REACTORS
330
173
102
}
330
173
100
AcDbXrecord
280
     1
270
     1
271
     1
  0
XRECORD
  5
1FB
102
{ACAD_REACTORS
330
173
102
}
330
173
100
AcDbXrecord
280
     1
 70
     0
 90
1673772943
  1
ECE7A1D2-D628-4531-984C-D00F80459256
310
504B03040A0000080000CC70623B3DEE336E79000000790000001B0000006175746F6465736B2D64657369676E2D7061636B6167652E786D6C3C3F786D6C2076657273696F6E3D22312E302220656E636F64696E673D227574662D3822203F3E3C666F726D6174733E3C666F726D61743E687474703A2F2F736368656D612E
310
6175746F6465736B2E636F6D2F64657369676E2D7061636B6167652F323030393C2F666F726D61743E3C2F666F726D6174733E504B0304140006080800CC70623BD486FD9CA0000000F4000000130000005B436F6E74656E745F54797065735D2E786D6C7D8EC10E82300C865F65E91D8A1E8C310C0EEA1BF002731658846E
310
D98AC1B77784ABF1D8FE5FBFBF75BBCE937A534CCEB38643598122B6FEE978D0B0485F9C41B54DDD7D022595594E1A469170414C76A4D9A4D207E29CF43ECE46F218070CC6BECC4078ACAA135ACF422C856C0E68EA1BF5669944DDD7BCDE7B1F8E415D77AECB980613C2E4AC91FC167A2B244592486606FC29C8FD7F045B9A
310
EF7053A7E60B504B0304140006080800CC70623BD9DDAED0EC0000007C01000008000000636F72652E786D6C8D90416EC3201045AF82665B61836D9CD8C2444DD39CA01740405C94182C03558F5F9C3852BBEB6A467FFE9B197D7EF89E6EE8CB2CC17A37002D0820E394D7D68D03A478C17B4007C117EFE32F1B20272733C0
310
2A83E0E3E2D3BC49CABB685CCCAAF3DA6CA20CC14440EA969B0182FA34932C648AD911AEC52CD5558EA6A0CF2EC329598D1E47ACCEFBECC59A050463A7EA5833865FEBDD0E37353BE3EE8DBDE3F6786A48D375FBF6CC78B9C282473B3DEFABC5C86834888A900E538A49F5419B9EB47DD5BC907D4F082F57FB1F28CDFA9F50
310
B22ED6D5F6EE030B20687EE43E10BC5CB3C8E51E54AE6B6EE207504B0304140006080800CC70623B55019EA25F0000007C00000007000000636E782E786D6C4DCB3B0E80201045D1AD90E915ED2CF8AC45050C11660C8261F98AB1B07AC9C97D42D718D865D3E909258CFD00CCE24AC6E326A164D74DC0B4128928FF326038
310
472BA13128B1252AC747C6BAB984FC68F0B87FE8960A5C09FE86CFB69FBA01504B0304140006080800CC70623BA24EB22D72010000D40300000C0000006662782F636F72652E786D6CC5535B6E833010BC8AE5DF0A6C5E49888CA3A6694ED00B38E05014B091B1518EDFE511A5A9D228FD2A1F60CDEC7A67C6986DCE4D8D7A
310
69BA4AAB0C073EC548AA5C17952A33ECECD15B61B4E1CC686DBF9561A44423333CC098B3D268D7CE50AE9595CA02AA74216750749DB418E5352C32DCE59FB211BE70162ABA93DF8AFC244AE9073ED050C759670D0840D390E18DF9F1706664C23973AE2A66B62A605A75ACA4C13C4976E1364A12EF355A2EBD384AF65EFA96
310
BC7B8BED2EA6719AAE16FB8491A199335B351775B991C2CA02F390D2D40B028F861F41BCA68B7518BFD0D59A524686F29B26D7164F36B94AD9289CE54E6D1DE6010819891F6E21228B3AD1831EC219194284CF98F06DD01008846CC5A1BEF83801D4CBDC6A1303536877A57A513B0953A94FC707FDBE6064EA84A9E3E6E0FA
310
EE8CF0E9198F7784A316AA0413C2C2F2E0ECA0934D1AE6D05A69BCDE9E91D2A611F573361E38FC1375157F5752AE6B6DFE4B11990F88CCBF0719EE23FF02504B0304140006080800CC70623B408A7D3B7C0000009D0000000B0000006662782F636E782E786D6C4DCCD10A83201886E15B91FFDC552A92A0064DBC8F581632
310
D3703A76F9ABD1C18E3E78F878E5F0D9027ABBFCF2292AE86E2D20171F69F6715550CB827B40839639A5F2770314A7CD293819B45C73AAFB45B35BA61ACAA1C1C7E7855C58C15BC331339661262CC762340413D68D77DA5B42298546CBE6573AF60CEB2F504B0304140006080800CC70623B449FB9BD290100001202000031
310
0000006662782F36394639363044362D344446342D343946362D394244322D3234314243333846323333332F636F72652E786D6C8D515B6EC32010BC0AE22B55850D98B871848994463E412FE002495162B07854397EA176A4F62F3F2C9A9D991D587EB84F37F0AD7D30CEF6905418026DA553C65E7A98E219ED203808EE9D
310
8B7F6810D871D23D2C3014FCE25D9A57483A1BB58D19B54EE9151C43D0110279CB971E06F9A5A7B11A53CC8C70ADE6515EC78BAE4895DB992778883E0700CB907242D17643D7E2538BD869608875438BBAE38922CAC8F1BDD90DB4691A5E2F42C153326A951B95E398B3D1FE599322163C9AE9115F7A3D46ADA0A018778810
310
84E907617BDCEE297BC5BB3DC6BC2EF47FA234AB2745C9D8D8D035EE220B50105E2F0DC1954B9FB747187D9F9D8FA0CCDB042D5FA0C015C65B42DF78BD10F3F3B363CB56C7109DCFDFBBB97E662ED92EB62D13BC2E1BCAE5777DB9966D8A1F504B0304140006080800CC70623BAD7543B64E01000033030000300000006662
310
782F36394639363044362D344446342D343946362D394244322D3234314243333846323333332F636E782E786D6CD593CD6EC32010845F0571AD6CE3D48AD20813A9873E410FBD12D82434182C7EAAE6EDBB2424CD25871E7B41D6EC30B3FA84F9E67BB2E40B4234DE8DB46F1925E094D7C6ED479AD3AE5951B2113C789FEE
310
6C943839C1488B4C05DF079FE72A69D8C96C13AAD6B8631503449F83828872B949AC57D26200B826A308D316B4064D6E46FCDA41C05550DC9E483A00797BFD207EFB092A45DE9514C1BBD22178396BD39D891265658C238DEA00936C654E5E433CB65A26D9F6EDB5EBC14EBF49A45CB856E66048291F6939A9A81BB5C89177
310
38143CA680F4AA299D66A042CEB3354A2684DC9D8D178FE0D9B8B41CAAD720F880EE7EF93C0C18769E099ECC04D5A102C8049A8A05632F4DDF376CF1DE0F6BB65C2F8627B65A33C6BB62177CEBBDAD973006829F89F22E814B54F4BC2BE347F8AA8F681390B50FA73F804400B5F542E796F19FF974E7F78DB802FE05E20750
310
4B0304140006080800CC70623B8D05915C650500003B100000340000006662782F36394639363044362D344446342D343946362D394244322D3234314243333846323333332F6F626A656374732E786D6CAD575B6FA33814FE2B887D06429276DA1565D4266D158D3A339A6846FB502932E050B66023DB74D2FDF5FB190C01
310
9276B2973C046C8ECFF53B17071F77456EBD502133CEAE6CDF9DD81665314F32965ED995DA3A17B6F5310C04E7AA47665B8C14F4CAD6DB7618A48257A5D94AE89654B91AEDDEDDFC61C998326A5B714EA4BCB265FC440BE2924AF184CA6737218AB8E976E7FA6E4338649B0A523E8D98964450A6A029F619B8588D52FE7039
310
B1BD30F0F4F730D0FF866AF6369557DB33949F31A9088B0F848DD8CCFCF9F2767A76E99CCDE733677E3EF59D9BBB9BA5E37F984D16E78BC5E5F5ED25044B25C0C96822E8D60EEFE11B91C581D77CEA34368A1F5329E68CD1B8B61F16D63A1B8E092D294B10C78C4A48EB593D192E7DED9BDEE7995E1B91FDEDD3ACEA9FE831
310
6A756F9F7D4D79F4274C90A7A04248AA51D5F8C718DAE06FB2F75AC4796EBE65D22A88A22223B995679120E2D50E41AA49C260C046A35368846B0BECD0DFF3EBEB8AD4F835768F69B9ADF25C43D30E6B646F807FAA64AD59F61715C7A54127C4AACA98BA3006A9D792DAE165E0D59B61A01FB3A9F9D838D2DAE62445C86166
310
F37564E842E7DE6A69879FEEA2DD5AE7E371E1A5E025154AC307D06A03D73EB5978C58FFA4C8E9033066E0F3BD53BEC1F39F91BE7B55103791EDE6BBB991A2046172CB4581D8B893FA674DDA17A77B3B7C413D1B511FD2743BFF8A38F03A658705E3ADF8015C3A3417FF3D7E439FF591DA0B5F18BC20C1B8981957AE6392A3
310
F43C640C01D1A0B4728E2DD4F26DB4B3C3152A252A3B4E913CEC1C72F012782FF88EFF8637AA552DBEF76408E8A8DE9E50F9E1CB3A2DA0DB1B6039A893B56063DC5B3E3FFB5F72E67AB9FEB4AEC496C4F4C1149625DD662C53E89D7BF0F6151A046260D1337DFDC94502430F83B0EE07A130A224BCAD7DAE1D9FB6CD422FF6
310
920702629C4BB9AE79C12F243C6432A6794E18E5552BA56B431AAB5D91317302B2B071E86C3A42B1A02F999E24061403B5D0EB639195DA655DD3EBEAB4FB862DDF579F014AD0E73C22F99E28DA57FB98E75C6CA2D74D53086D600F4786E0FE3144B771A8A7B900F03594DB8A633CBC49B2EDB69228BB479CF863B5E807AAAB
310
23872F6DFEB4129B949CA33823F58830E86D65621E10047D9DB34D862E8EAC3C2ABC2F7B2C40D67CDFE01F5545B92105AF983AC54D93D69E56FB8E797F88913F898A9FEC705D3F9D1B54EC8426FB500D40A03BD0119B06E1B95DDC7EB8F6975367793EBD70E66733DFB9BC982F9CE564727731999F5D4ECFCE3B8D6A4DC2A0
310
6D50FD148437D110834A64C6CDDF57FBACB5C307A2A477DFE4939736CFEF2B175371E0E10CF0DD1D5C15654E0BCA14D1E87DD02FF93782A162C0A3D95F1524A52770F972BF1EE9809D13CE7DD599467F8ECE9ADD85CE85A34CD45355448C64F9E8A031DC2D596ACC6E5DD93D9B82DE2EF5CAF81363A8E47996A0DE24564A79
310
4115AACE09C55E14540231FDA13C319787134EBF34E3A022514E5B4D9E0826E25C02D5805B15ABE1BEF51B26383D445DD9E875EE33FE4C22DA16427D65A3BCA92CA6D28DD01DF5DC53330704308475351050232CCD31583787BA75774AFB06E5070DD0C8EF484E19968C5D83BA5B90B244D31E54D55A372320FE4786B7EA58
310
44E135AA5467CB7EA333A61683CC6A8C3257034C10CF46F40EF9F5BE59BE5BD30C3C72D235E95D10345C1D45445A5F0BB47E46A5EBE5570F9380B5FA629579952296A773720405982B9DE04011506178964401AA8BDF1FBF0A8EAB6861DD6580C0E38217056766716DAEB2D6FA0917D3E4116581EADB879C4E7CFFB11EFACD
310
3D641311495D92C8676CB409A72D18610D803CE8A626049E8EC1887CB5B44CC39883690DDA8399B4B9855B481E7D71D4A9D22F96E5BB73BF5793020C02137BF837504B0304140006080000CC70623B000000000000000000000000350000006662782F36394639363044362D344446342D343946362D394244322D32343142
310
43333846323333332F76657274696365732E62696E504B0304140006080800CC70623BF270F1330600000004000000360000006662782F36394639363044362D344446342D343946362D394244322D3234314243333846323333332F747269616E676C65732E62696E636660600000504B0304140006080000CC70623B0000
310
00000000000000000000370000006662782F36394639363044362D344446342D343946362D394244322D3234314243333846323333332F617474726962757465732E62696E504B0304140006080800CC70623B08DA0BD19000000041010000360000006662782F36394639363044362D344446342D343946362D394244322D
310
3234314243333846323333332F6469726563746F72792E786D6C858F410AC3201045AF22B36F53E9A60B35CBEEBAE80D244E44489C6234F4F835464A48035D0DF398FF9F8AF63D0E6CC63039F212F8F9020C7D47C6792B21C5FE7403D62A1188E2E60C98D7234A5830286103A55745067B9D86B8A3CF9C7F90C11DE607FB14
310
4396D7B6A82D282E9A152AD114D5EF2CB866EEE831B8EEA07A7BB5A8D7D61A2BAAEB7FD5F70921FF497D00504B0304140006080800CC70623BCA768048FE000000A00100003B0000006662782F36394639363044362D344446342D343946362D394244322D3234314243333846323333332F7265736F75726365732F636F72
310
652E786D6C8D50596E833010BD0A9ADFCA60D600328E9AA639412F609909B1126CE4A5EAF16B0295DABFFECC8CDEA2797AECF8353F924FB44E193D409E5248504B332A3D0D10FC95B4901C39B3C6F85F3248B49871801506CE266BC2B243D2688FDA47549B11775038871E12F988C7004EDE7016A9083E2ADC3D5D84BC8B09
310
D33C8D74D471E6BC8D0192EDC93A815B742658898E651BCB59086ADC356A8C3FD555A1055ED7E7E254D615792D0F075295F585746FF53B694EE78A565DD736979A65AB9933AFE69F8CD2A2F038022F28ED489E135A7CE4554F9BBEA85E68DB53CAB255FEC71496F19FA6A0B42F8B3DEE6673C0F318E4497096AD7DC5F52C33
310
EEB55BFE0D504B010214000A0000080000CC70623B3DEE336E79000000790000001B00000000000000000000000000000000006175746F6465736B2D64657369676E2D7061636B6167652E786D6C504B01021400140006080800CC70623BD486FD9CA0000000F40000001300000000000000000000000000B20000005B436F
310
6E74656E745F54797065735D2E786D6C504B01021400140006080800CC70623BD9DDAED0EC0000007C010000080000000000000000000000000083010000636F72652E786D6C504B01021400140006080800CC70623B55019EA25F0000007C000000070000000000000000000000000095020000636E782E786D6C504B0102
310
1400140006080800CC70623BA24EB22D72010000D40300000C00000000000000000000000000190300006662782F636F72652E786D6C504B01021400140006080800CC70623B408A7D3B7C0000009D0000000B00000000000000000000000000B50400006662782F636E782E786D6C504B01021400140006080800CC70623B
310
449FB9BD290100001202000031000000000000000000000000005A0500006662782F36394639363044362D344446342D343946362D394244322D3234314243333846323333332F636F72652E786D6C504B01021400140006080800CC70623BAD7543B64E010000330300003000000000000000000000000000D20600006662
310
782F36394639363044362D344446342D343946362D394244322D3234314243333846323333332F636E782E786D6C504B01021400140006080800CC70623B8D05915C650500003B10000034000000000000000000000000006E0800006662782F36394639363044362D344446342D343946362D394244322D32343142433338
310
46323333332F6F626A656374732E786D6C504B01021400140006080000CC70623B0000000000000000000000003500000000000000000000000000250E00006662782F36394639363044362D344446342D343946362D394244322D3234314243333846323333332F76657274696365732E62696E504B010214001400060808
310
00CC70623BF270F13306000000040000003600000000000000000000000000780E00006662782F36394639363044362D344446342D343946362D394244322D3234314243333846323333332F747269616E676C65732E62696E504B01021400140006080000CC70623B00000000000000000000000037000000000000000000
310
00000000D20E00006662782F36394639363044362D344446342D343946362D394244322D3234314243333846323333332F617474726962757465732E62696E504B01021400140006080800CC70623B08DA0BD190000000410100003600000000000000000000000000270F00006662782F36394639363044362D344446342D
310
343946362D394244322D3234314243333846323333332F6469726563746F72792E786D6C504B01021400140006080800CC70623BCA768048FE000000A00100003B000000000000000000000000000B1000006662782F36394639363044362D344446342D343946362D394244322D3234314243333846323333332F7265736F
310
75726365732F636F72652E786D6C504B0506000000000E000E0080040000621100000000
  0
XRECORD
  5
176
102
{ACAD_REACTORS
330
173
102
}
330
173
100
AcDbXrecord
280
     1
270
     1
271
     1
  0
XRECORD
  5
177
102
{ACAD_REACTORS
330
173
102
}
330
173
100
AcDbXrecord
280
     1
270
     1
271
     1
  0
XRECORD
  5
8F8
102
{ACAD_REACTORS
330
8F7
102
}
330
8F7
100
AcDbXrecord
280
     1
102
DISPLAYNAME
  1
Imperial24
102
FLAGS
 90
        0
  0
XRECORD
  5
8F4
102
{ACAD_REACTORS
330
8F3
102
}
330
8F3
100
AcDbXrecord
280
     1
102
DISPLAYNAME
  1
Metric50
102
FLAGS
 90
        0
  0
CELLSTYLEMAP
  5
8E9
102
{ACAD_REACTORS
330
162
102
}
330
162
100
AcDbCellStyleMap
 90
        3
300
CELLSTYLE
  1
TABLEFORMAT_BEGIN
 90
        5
170
     1
 91
        0
 92
    32768
 62
   257
 93
        1
300
CONTENTFORMAT
  1
CONTENTFORMAT_BEGIN
 90
        0
 91
        0
 92
      512
 93
        0
300

 40
0.0
140
1.0
 94
        5
 62
     0
340
11
144
6.0
309
CONTENTFORMAT_END
171
     1
301
MARGIN
  1
CELLMARGIN_BEGIN
 40
1.5
 40
1.5
 40
1.5
 40
1.5
 40
4.5
 40
4.5
309
CELLMARGIN_END
 94
        6
 95
        1
302
GRIDFORMAT
  1
GRIDFORMAT_BEGIN
 90
        0
 91
        1
 62
     0
 92
       -2
340
14
 93
        0
 40
1.125
309
GRIDFORMAT_END
 95
        2
302
GRIDFORMAT
  1
GRIDFORMAT_BEGIN
 90
        0
 91
        1
 62
     0
 92
       -2
340
14
 93
        0
 40
1.125
309
GRIDFORMAT_END
 95
        4
302
GRIDFORMAT
  1
GRIDFORMAT_BEGIN
 90
        0
 91
        1
 62
     0
 92
       -2
340
14
 93
        0
 40
1.125
309
GRIDFORMAT_END
 95
        8
302
GRIDFORMAT
  1
GRIDFORMAT_BEGIN
 90
        0
 91
        1
 62
     0
 92
       -2
340
14
 93
        0
 40
1.125
309
GRIDFORMAT_END
 95
       16
302
GRIDFORMAT
  1
GRIDFORMAT_BEGIN
 90
        0
 91
        1
 62
     0
 92
       -2
340
14
 93
        0
 40
1.125
309
GRIDFORMAT_END
 95
       32
302
GRIDFORMAT
  1
GRIDFORMAT_BEGIN
 90
        0
 91
        1
 62
     0
 92
       -2
340
14
 93
        0
 40
1.125
309
GRIDFORMAT_END
309
TABLEFORMAT_END
  1
CELLSTYLE_BEGIN
 90
        1
 91
        1
300
_TITLE
309
CELLSTYLE_END
300
CELLSTYLE
  1
TABLEFORMAT_BEGIN
 90
        5
170
     1
 91
        0
 92
        0
 62
   257
 93
        1
300
CONTENTFORMAT
  1
CONTENTFORMAT_BEGIN
 90
        0
 91
        0
 92
      512
 93
        0
300

 40
0.0
140
1.0
 94
        5
 62
     0
340
11
144
4.5
309
CONTENTFORMAT_END
171
     1
301
MARGIN
  1
CELLMARGIN_BEGIN
 40
1.5
 40
1.5
 40
1.5
 40
1.5
 40
4.5
 40
4.5
309
CELLMARGIN_END
 94
        6
 95
        1
302
GRIDFORMAT
  1
GRIDFORMAT_BEGIN
 90
        0
 91
        1
 62
     0
 92
       -2
340
14
 93
        0
 40
1.125
309
GRIDFORMAT_END
 95
        2
302
GRIDFORMAT
  1
GRIDFORMAT_BEGIN
 90
        0
 91
        1
 62
     0
 92
       -2
340
14
 93
        0
 40
1.125
309
GRIDFORMAT_END
 95
        4
302
GRIDFORMAT
  1
GRIDFORMAT_BEGIN
 90
        0
 91
        1
 62
     0
 92
       -2
340
14
 93
        0
 40
1.125
309
GRIDFORMAT_END
 95
        8
302
GRIDFORMAT
  1
GRIDFORMAT_BEGIN
 90
        0
 91
        1
 62
     0
 92
       -2
340
14
 93
        0
 40
1.125
309
GRIDFORMAT_END
 95
       16
302
GRIDFORMAT
  1
GRIDFORMAT_BEGIN
 90
        0
 91
        1
 62
     0
 92
       -2
340
14
 93
        0
 40
1.125
309
GRIDFORMAT_END
 95
       32
302
GRIDFORMAT
  1
GRIDFORMAT_BEGIN
 90
        0
 91
        1
 62
     0
 92
       -2
340
14
 93
        0
 40
1.125
309
GRIDFORMAT_END
309
TABLEFORMAT_END
  1
CELLSTYLE_BEGIN
 90
        2
 91
        1
300
_HEADER
309
CELLSTYLE_END
300
CELLSTYLE
  1
TABLEFORMAT_BEGIN
 90
        5
170
     1
 91
        0
 92
        0
 62
   257
 93
        1
300
CONTENTFORMAT
  1
CONTENTFORMAT_BEGIN
 90
        0
 91
        0
 92
      512
 93
        0
300

 40
0.0
140
1.0
 94
        2
 62
     0
340
11
144
4.5
309
CONTENTFORMAT_END
171
     1
301
MARGIN
  1
CELLMARGIN_BEGIN
 40
1.5
 40
1.5
 40
1.5
 40
1.5
 40
4.5
 40
4.5
309
CELLMARGIN_END
 94
        6
 95
        1
302
GRIDFORMAT
  1
GRIDFORMAT_BEGIN
 90
        0
 91
        1
 62
     0
 92
       -2
340
14
 93
        0
 40
1.125
309
GRIDFORMAT_END
 95
        2
302
GRIDFORMAT
  1
GRIDFORMAT_BEGIN
 90
        0
 91
        1
 62
     0
 92
       -2
340
14
 93
        0
 40
1.125
309
GRIDFORMAT_END
 95
        4
302
GRIDFORMAT
  1
GRIDFORMAT_BEGIN
 90
        0
 91
        1
 62
     0
 92
       -2
340
14
 93
        0
 40
1.125
309
GRIDFORMAT_END
 95
        8
302
GRIDFORMAT
  1
GRIDFORMAT_BEGIN
 90
        0
 91
        1
 62
     0
 92
       -2
340
14
 93
        0
 40
1.125
309
GRIDFORMAT_END
 95
       16
302
GRIDFORMAT
  1
GRIDFORMAT_BEGIN
 90
        0
 91
        1
 62
     0
 92
       -2
340
14
 93
        0
 40
1.125
309
GRIDFORMAT_END
 95
       32
302
GRIDFORMAT
  1
GRIDFORMAT_BEGIN
 90
        0
 91
        1
 62
     0
 92
       -2
340
14
 93
        0
 40
1.125
309
GRIDFORMAT_END
309
TABLEFORMAT_END
  1
CELLSTYLE_BEGIN
 90
        3
 91
        2
300
_DATA
309
CELLSTYLE_END
  0
ENDSEC
  0
SECTION
  2
ACDSDATA
 70
     2
 71
     8
  0
ACDSSCHEMA
 90
        0
  1
AcDb_Thumbnail_Schema
  2
AcDbDs::ID
280
    10
 91
        8
  2
Thumbnail_Data
280
    15
 91
        0
101
ACDSRECORD
 95
        0
 90
        1
  2
AcDbDs::TreatedAsObjectData
280
     1
291
     1
101
ACDSRECORD
 95
        0
 90
        2
  2
AcDbDs::Legacy
280
     1
291
     1
101
ACDSRECORD
  1
AcDbDs::ID
 90
        3
  2
AcDs:Indexable
280
     1
291
     1
101
ACDSRECORD
  1
AcDbDs::ID
 90
        4
  2
AcDbDs::HandleAttribute
280
     7
282
     1
  0
ACDSSCHEMA
 90
        1
  1
AcDbDs::TreatedAsObjectDataSchema
  2
AcDbDs::TreatedAsObjectData
280
     1
 91
        0
  0
ACDSSCHEMA
 90
        2
  1
AcDbDs::LegacySchema
  2
AcDbDs::Legacy
280
     1
 91
        0
  0
ACDSSCHEMA
 90
        3
  1
AcDbDs::IndexedPropertySchema
  2
AcDs:Indexable
280
     1
 91
        0
  0
ACDSSCHEMA
 90
        4
  1
AcDbDs::HandleAttributeSchema
  2
AcDbDs::HandleAttribute
280
     7
 91
        1
284
     1
  0
ACDSRECORD
 90
        0
  2
AcDbDs::ID
280
    10
320
22
  2
Thumbnail_Data
280
    15
 94
      896
310
89504E470D0A1A0A0000000D49484452000001000000009108030000001BE1960600000300504C5445212830FFFFFF2128300000000000000000000000000000000000000000000000000000330000660000990000CC0000FF0033000033330033660033990033CC0033FF0066000066330066660066990066CC0066FF0099
310
000099330099660099990099CC0099FF00CC0000CC3300CC6600CC9900CCCC00CCFF00FF0000FF3300FF6600FF9900FFCC00FFFF3300003300333300663300993300CC3300FF3333003333333333663333993333CC3333FF3366003366333366663366993366CC3366FF3399003399333399663399993399CC3399FF33CC00
310
33CC3333CC6633CC9933CCCC33CCFF33FF0033FF3333FF6633FF9933FFCC33FFFF6600006600336600666600996600CC6600FF6633006633336633666633996633CC6633FF6666006666336666666666996666CC6666FF6699006699336699666699996699CC6699FF66CC0066CC3366CC6666CC9966CCCC66CCFF66FF0066
310
FF3366FF6666FF9966FFCC66FFFF9900009900339900669900999900CC9900FF9933009933339933669933999933CC9933FF9966009966339966669966999966CC9966FF9999009999339999669999999999CC9999FF99CC0099CC3399CC6699CC9999CCCC99CCFF99FF0099FF3399FF6699FF9999FFCC99FFFFCC0000CC00
310
33CC0066CC0099CC00CCCC00FFCC3300CC3333CC3366CC3399CC33CCCC33FFCC6600CC6633CC6666CC6699CC66CCCC66FFCC9900CC9933CC9966CC9999CC99CCCC99FFCCCC00CCCC33CCCC66CCCC99CCCCCCCCCCFFCCFF00CCFF33CCFF66CCFF99CCFFCCCCFFFFFF0000FF0033FF0066FF0099FF00CCFF00FFFF3300FF3333
310
FF3366FF3399FF33CCFF33FFFF6600FF6633FF6666FF6699FF66CCFF66FFFF9900FF9933FF9966FF9999FF99CCFF99FFFFCC00FFCC33FFCC66FFCC99FFCCCCFFCCFFFFFF00FFFF33FFFF66FFFF99FFFFCCFFFFFF0000000D0D0D1A1A1A2828283535354343435050505D5D5D6B6B6B787878868686939393A1A1A1AEAEAEBB
310
BBBBC9C9C9D6D6D6E4E4E4F1F1F1FFFFFF0000000000000000000000000000000000000000000000000000000000002E4550F10000003B4944415478DAEDC13101000000C2A0F54F6D0B2FA0000000000000000000000000000000000000000000000000000000000000000000000000CE06919100016C9A5B1B0000000049
310
454E44AE426082
  0
ENDSEC
  0
EOF
