  0
SECTION
  2
HEADER
  9
$ACADVER
  1
AC1027
  9
$ACADMAINTVER
 70
   125
  9
$DWGCODEPAGE
  3
ANSI_1252
  9
$LASTSAVEDBY
  1
andrea.ragusa
  9
$REQUIREDVERSIONS
160
                 0
  9
$INSBASE
 10
0.0
 20
0.0
 30
0.0
  9
$EXTMIN
 10
-0.0128164049386896
 20
0.0815741779300652
 30
-0.0015258207003583
  9
$EXTMAX
 10
17.13043263779309
 20
8.012329456643556
 30
0.0000000349246037
  9
$LIMMIN
 10
0.0
 20
0.0
  9
$LIMMAX
 10
420.0
 20
297.0
  9
$ORTHOMODE
 70
     0
  9
$REGENMODE
 70
     1
  9
$FILLMODE
 70
     1
  9
$QTEXTMODE
 70
     0
  9
$MIRRTEXT
 70
     0
  9
$LTSCALE
 40
1.0
  9
$ATTMODE
 70
     1
  9
$TEXTSIZE
 40
2.5
  9
$TRACEWID
 40
1.0
  9
$TEXTSTYLE
  7
Standard
  9
$CLAYER
  8
0
  9
$CELTYPE
  6
ByLayer
  9
$CECOLOR
 62
   256
  9
$CELTSCALE
 40
1.0
  9
$DISPSILH
 70
     0
  9
$DIMSCALE
 40
1.0
  9
$DIMASZ
 40
2.5
  9
$DIMEXO
 40
0.625
  9
$DIMDLI
 40
3.75
  9
$DIMRND
 40
0.0
  9
$DIMDLE
 40
0.0
  9
$DIMEXE
 40
1.25
  9
$DIMTP
 40
0.0
  9
$DIMTM
 40
0.0
  9
$DIMTXT
 40
2.5
  9
$DIMCEN
 40
2.5
  9
$DIMTSZ
 40
0.0
  9
$DIMTOL
 70
     0
  9
$DIMLIM
 70
     0
  9
$DIMTIH
 70
     0
  9
$DIMTOH
 70
     0
  9
$DIMSE1
 70
     0
  9
$DIMSE2
 70
     0
  9
$DIMTAD
 70
     1
  9
$DIMZIN
 70
     8
  9
$DIMBLK
  1

  9
$DIMASO
 70
     1
  9
$DIMSHO
 70
     1
  9
$DIMPOST
  1

  9
$DIMAPOST
  1

  9
$DIMALT
 70
     0
  9
$DIMALTD
 70
     3
  9
$DIMALTF
 40
0.03937007874016
  9
$DIMLFAC
 40
1.0
  9
$DIMTOFL
 70
     1
  9
$DIMTVP
 40
0.0
  9
$DIMTIX
 70
     0
  9
$DIMSOXD
 70
     0
  9
$DIMSAH
 70
     0
  9
$DIMBLK1
  1

  9
$DIMBLK2
  1

  9
$DIMSTYLE
  2
ISO-25
  9
$DIMCLRD
 70
     0
  9
$DIMCLRE
 70
     0
  9
$DIMCLRT
 70
     0
  9
$DIMTFAC
 40
1.0
  9
$DIMGAP
 40
0.625
  9
$DIMJUST
 70
     0
  9
$DIMSD1
 70
     0
  9
$DIMSD2
 70
     0
  9
$DIMTOLJ
 70
     0
  9
$DIMTZIN
 70
     8
  9
$DIMALTZ
 70
     0
  9
$DIMALTTZ
 70
     0
  9
$DIMUPT
 70
     0
  9
$DIMDEC
 70
     2
  9
$DIMTDEC
 70
     2
  9
$DIMALTU
 70
     2
  9
$DIMALTTD
 70
     3
  9
$DIMTXSTY
  7
Standard
  9
$DIMAUNIT
 70
     0
  9
$DIMADEC
 70
     0
  9
$DIMALTRND
 40
0.0
  9
$DIMAZIN
 70
     0
  9
$DIMDSEP
 70
    44
  9
$DIMATFIT
 70
     3
  9
$DIMFRAC
 70
     0
  9
$DIMLDRBLK
  1

  9
$DIMLUNIT
 70
     2
  9
$DIMLWD
 70
    -2
  9
$DIMLWE
 70
    -2
  9
$DIMTMOVE
 70
     0
  9
$DIMFXL
 40
1.0
  9
$DIMFXLON
 70
     0
  9
$DIMJOGANG
 40
0.7853981633974483
  9
$DIMTFILL
 70
     0
  9
$DIMTFILLCLR
 70
     0
  9
$DIMARCSYM
 70
     0
  9
$DIMLTYPE
  6

  9
$DIMLTEX1
  6

  9
$DIMLTEX2
  6

  9
$DIMTXTDIRECTION
 70
     0
  9
$LUNITS
 70
     2
  9
$LUPREC
 70
     4
  9
$SKETCHINC
 40
1.0
  9
$FILLETRAD
 40
0.0
  9
$AUNITS
 70
     0
  9
$AUPREC
 70
     0
  9
$MENU
  1
.
  9
$ELEVATION
 40
0.0
  9
$PELEVATION
 40
0.0
  9
$THICKNESS
 40
0.0
  9
$LIMCHECK
 70
     0
  9
$CHAMFERA
 40
0.0
  9
$CHAMFERB
 40
0.0
  9
$CHAMFERC
 40
0.0
  9
$CHAMFERD
 40
0.0
  9
$SKPOLY
 70
     0
  9
$TDCREATE
 40
2459060.505520834
  9
$TDUCREATE
 40
2459060.422187500
  9
$TDUPDATE
 40
2459060.505706018
  9
$TDUUPDATE
 40
2459060.422372685
  9
$TDINDWG
 40
0.0001851852
  9
$TDUSRTIMER
 40
0.0001851852
  9
$USRTIMER
 70
     1
  9
$ANGBASE
 50
0.0
  9
$ANGDIR
 70
     0
  9
$PDMODE
 70
     0
  9
$PDSIZE
 40
0.0
  9
$PLINEWID
 40
0.0
  9
$SPLFRAME
 70
     0
  9
$SPLINETYPE
 70
     6
  9
$SPLINESEGS
 70
     8
  9
$HANDSEED
  5
986
  9
$SURFTAB1
 70
     6
  9
$SURFTAB2
 70
     6
  9
$SURFTYPE
 70
     6
  9
$SURFU
 70
     6
  9
$SURFV
 70
     6
  9
$UCSBASE
  2

  9
$UCSNAME
  2

  9
$UCSORG
 10
0.0
 20
0.0
 30
0.0
  9
$UCSXDIR
 10
1.0
 20
0.0
 30
0.0
  9
$UCSYDIR
 10
0.0
 20
1.0
 30
0.0
  9
$UCSORTHOREF
  2

  9
$UCSORTHOVIEW
 70
     0
  9
$UCSORGTOP
 10
0.0
 20
0.0
 30
0.0
  9
$UCSORGBOTTOM
 10
0.0
 20
0.0
 30
0.0
  9
$UCSORGLEFT
 10
0.0
 20
0.0
 30
0.0
  9
$UCSORGRIGHT
 10
0.0
 20
0.0
 30
0.0
  9
$UCSORGFRONT
 10
0.0
 20
0.0
 30
0.0
  9
$UCSORGBACK
 10
0.0
 20
0.0
 30
0.0
  9
$PUCSBASE
  2

  9
$PUCSNAME
  2

  9
$PUCSORG
 10
0.0
 20
0.0
 30
0.0
  9
$PUCSXDIR
 10
1.0
 20
0.0
 30
0.0
  9
$PUCSYDIR
 10
0.0
 20
1.0
 30
0.0
  9
$PUCSORTHOREF
  2

  9
$PUCSORTHOVIEW
 70
     0
  9
$PUCSORGTOP
 10
0.0
 20
0.0
 30
0.0
  9
$PUCSORGBOTTOM
 10
0.0
 20
0.0
 30
0.0
  9
$PUCSORGLEFT
 10
0.0
 20
0.0
 30
0.0
  9
$PUCSORGRIGHT
 10
0.0
 20
0.0
 30
0.0
  9
$PUCSORGFRONT
 10
0.0
 20
0.0
 30
0.0
  9
$PUCSORGBACK
 10
0.0
 20
0.0
 30
0.0
  9
$USERI1
 70
     0
  9
$USERI2
 70
     0
  9
$USERI3
 70
     0
  9
$USERI4
 70
     0
  9
$USERI5
 70
     0
  9
$USERR1
 40
0.0
  9
$USERR2
 40
0.0
  9
$USERR3
 40
0.0
  9
$USERR4
 40
0.0
  9
$USERR5
 40
0.0
  9
$WORLDVIEW
 70
     1
  9
$SHADEDGE
 70
     3
  9
$SHADEDIF
 70
    70
  9
$TILEMODE
 70
     1
  9
$MAXACTVP
 70
    64
  9
$PINSBASE
 10
0.0
 20
0.0
 30
0.0
  9
$PLIMCHECK
 70
     0
  9
$PEXTMIN
 10
0.0
 20
0.0
 30
0.0
  9
$PEXTMAX
 10
0.0
 20
0.0
 30
0.0
  9
$PLIMMIN
 10
0.0
 20
0.0
  9
$PLIMMAX
 10
12.0
 20
9.0
  9
$UNITMODE
 70
     0
  9
$VISRETAIN
 70
     1
  9
$PLINEGEN
 70
     0
  9
$PSLTSCALE
 70
     1
  9
$TREEDEPTH
 70
  3020
  9
$CMLSTYLE
  2
Standard
  9
$CMLJUST
 70
     0
  9
$CMLSCALE
 40
20.0
  9
$PROXYGRAPHICS
 70
     1
  9
$MEASUREMENT
 70
     1
  9
$CELWEIGHT
370
    -1
  9
$ENDCAPS
280
     0
  9
$JOINSTYLE
280
     0
  9
$LWDISPLAY
290
     0
  9
$INSUNITS
 70
     4
  9
$HYPERLINKBASE
  1

  9
$STYLESHEET
  1

  9
$XEDIT
290
     1
  9
$CEPSNTYPE
380
     0
  9
$PSTYLEMODE
290
     1
  9
$FINGERPRINTGUID
  2
{FAB781CC-AB2E-5643-A242-15EFD6A93C19}
  9
$VERSIONGUID
  2
{4DF9CCE0-610E-314D-AB12-E5A37EC6300C}
  9
$EXTNAMES
290
     1
  9
$PSVPSCALE
 40
0.0
  9
$OLESTARTUP
290
     0
  9
$SORTENTS
280
   127
  9
$INDEXCTL
280
     0
  9
$HIDETEXT
280
     1
  9
$XCLIPFRAME
280
     2
  9
$HALOGAP
280
     0
  9
$OBSCOLOR
 70
   257
  9
$OBSLTYPE
280
     0
  9
$INTERSECTIONDISPLAY
280
     0
  9
$INTERSECTIONCOLOR
 70
   257
  9
$DIMASSOC
280
     2
  9
$PROJECTNAME
  1

  9
$CAMERADISPLAY
290
     0
  9
$LENSLENGTH
 40
50.0
  9
$CAMERAHEIGHT
 40
0.0
  9
$STEPSPERSEC
 40
2.0
  9
$STEPSIZE
 40
6.0
  9
$3DDWFPREC
 40
2.0
  9
$PSOLWIDTH
 40
5.0
  9
$PSOLHEIGHT
 40
80.0
  9
$LOFTANG1
 40
1.570796326794896
  9
$LOFTANG2
 40
1.570796326794896
  9
$LOFTMAG1
 40
0.0
  9
$LOFTMAG2
 40
0.0
  9
$LOFTPARAM
 70
     7
  9
$LOFTNORMALS
280
     1
  9
$LATITUDE
 40
37.795
  9
$LONGITUDE
 40
-122.394
  9
$NORTHDIRECTION
 40
0.0
  9
$TIMEZONE
 70
 -8000
  9
$LIGHTGLYPHDISPLAY
280
     1
  9
$TILEMODELIGHTSYNCH
280
     1
  9
$CMATERIAL
347
EC
  9
$SOLIDHIST
280
     0
  9
$SHOWHIST
280
     1
  9
$DWFFRAME
280
     2
  9
$DGNFRAME
280
     0
  9
$REALWORLDSCALE
290
     1
  9
$INTERFERECOLOR
 62
     1
  9
$INTERFEREOBJVS
345
F9
  9
$INTERFEREVPVS
346
F6
  9
$CSHADOW
280
     0
  9
$SHADOWPLANELOCATION
 40
0.0
  0
ENDSEC
  0
SECTION
  2
CLASSES
  0
CLASS
  1
ACDBDICTIONARYWDFLT
  2
AcDbDictionaryWithDefault
  3
ObjectDBX Classes
 90
        0
 91
        1
280
     0
281
     0
  0
CLASS
  1
DICTIONARYVAR
  2
AcDbDictionaryVar
  3
ObjectDBX Classes
 90
        0
 91
       11
280
     0
281
     0
  0
CLASS
  1
TABLESTYLE
  2
AcDbTableStyle
  3
ObjectDBX Classes
 90
     4095
 91
        1
280
     0
281
     0
  0
CLASS
  1
MATERIAL
  2
AcDbMaterial
  3
ObjectDBX Classes
 90
     1153
 91
        3
280
     0
281
     0
  0
CLASS
  1
VISUALSTYLE
  2
AcDbVisualStyle
  3
ObjectDBX Classes
 90
     4095
 91
       24
280
     0
281
     0
  0
CLASS
  1
SCALE
  2
AcDbScale
  3
ObjectDBX Classes
 90
     1153
 91
       17
280
     0
281
     0
  0
CLASS
  1
MLEADERSTYLE
  2
AcDbMLeaderStyle
  3
ACDB_MLEADERSTYLE_CLASS
 90
     4095
 91
        2
280
     0
281
     0
  0
CLASS
  1
CELLSTYLEMAP
  2
AcDbCellStyleMap
  3
ObjectDBX Classes
 90
     1152
 91
        1
280
     0
281
     0
  0
CLASS
  1
EXACXREFPANELOBJECT
  2
ExAcXREFPanelObject
  3
EXAC_ESW
 90
     1025
 91
        0
280
     0
281
     0
  0
CLASS
  1
NPOCOLLECTION
  2
AcDbImpNonPersistentObjectsCollection
  3
ObjectDBX Classes
 90
     1153
 91
        0
280
     0
281
     0
  0
CLASS
  1
LAYER_INDEX
  2
AcDbLayerIndex
  3
ObjectDBX Classes
 90
        0
 91
        0
280
     0
281
     0
  0
CLASS
  1
SPATIAL_INDEX
  2
AcDbSpatialIndex
  3
ObjectDBX Classes
 90
        0
 91
        0
280
     0
281
     0
  0
CLASS
  1
IDBUFFER
  2
AcDbIdBuffer
  3
ObjectDBX Classes
 90
        0
 91
        0
280
     0
281
     0
  0
CLASS
  1
ACDBSECTIONVIEWSTYLE
  2
AcDbSectionViewStyle
  3
ObjectDBX Classes
 90
     1025
 91
        2
280
     0
281
     0
  0
CLASS
  1
ACDBDETAILVIEWSTYLE
  2
AcDbDetailViewStyle
  3
ObjectDBX Classes
 90
     1025
 91
        2
280
     0
281
     0
  0
CLASS
  1
SORTENTSTABLE
  2
AcDbSortentsTable
  3
ObjectDBX Classes
 90
        0
 91
        1
280
     0
281
     0
  0
ENDSEC
  0
SECTION
  2
TABLES
  0
TABLE
  2
VPORT
  5
8
330
0
100
AcDbSymbolTable
 70
     1
1001
ACAD
1000
DbSaveVer
1071
      208
  0
VPORT
  5
EA
330
8
100
AcDbSymbolTableRecord
100
AcDbViewportTableRecord
  2
*Active
 70
     0
 10
0.0
 20
0.0
 11
1.0
 21
1.0
 12
8.558808116427201
 22
4.04695181728681
 13
0.0
 23
0.0
 14
10.0
 24
10.0
 15
10.0
 25
10.0
 16
0.0
 26
0.0
 36
1.0
 17
0.0
 27
0.0
 37
0.0
 40
7.987538729396404
 41
2.283154121863799
 42
50.0
 43
0.0
 44
0.0
 50
0.0
 51
0.0
 71
     0
 72
  1000
 73
     1
 74
     3
 75
     0
 76
     1
 77
     0
 78
     0
281
     0
 65
     1
110
0.0
120
0.0
130
0.0
111
1.0
121
0.0
131
0.0
112
0.0
122
1.0
132
0.0
 79
     0
146
0.0
348
F5
 60
     3
 61
     5
292
     1
282
     1
141
0.0
142
0.0
 63
   250
421
  3355443
1001
ACAD_NAV_VCDISPLAY
1070
     3
  0
ENDTAB
  0
TABLE
  2
LTYPE
  5
5
330
0
100
AcDbSymbolTable
 70
     1
  0
LTYPE
  5
14
330
5
100
AcDbSymbolTableRecord
100
AcDbLinetypeTableRecord
  2
ByBlock
 70
     0
  3

 72
    65
 73
     0
 40
0.0
  0
LTYPE
  5
15
330
5
100
AcDbSymbolTableRecord
100
AcDbLinetypeTableRecord
  2
ByLayer
 70
     0
  3

 72
    65
 73
     0
 40
0.0
  0
LTYPE
  5
16
330
5
100
AcDbSymbolTableRecord
100
AcDbLinetypeTableRecord
  2
Continuous
 70
     0
  3
Solid line
 72
    65
 73
     0
 40
0.0
  0
ENDTAB
  0
TABLE
  2
LAYER
  5
2
102
{ACAD_XDICTIONARY
360
1FF
102
}
330
0
100
AcDbSymbolTable
 70
     2
  0
LAYER
  5
10
102
{ACAD_XDICTIONARY
360
13C
102
}
330
2
100
AcDbSymbolTableRecord
100
AcDbLayerTableRecord
  2
0
 70
     0
 62
     7
  6
Continuous
370
    -3
390
F
347
EE
348
0
  0
LAYER
  5
28D
330
2
100
AcDbSymbolTableRecord
100
AcDbLayerTableRecord
  2
Livello 1
 70
     0
 62
     7
  6
Continuous
370
    -3
390
F
347
EE
348
0
  0
ENDTAB
  0
TABLE
  2
STYLE
  5
3
330
0
100
AcDbSymbolTable
 70
     2
  0
STYLE
  5
11
330
3
100
AcDbSymbolTableRecord
100
AcDbTextStyleTableRecord
  2
Standard
 70
     0
 40
0.0
 41
1.0
 50
0.0
 71
     0
 42
2.5
  3
arial.ttf
  4

1001
ACAD
1000
Arial
1071
       34
  0
STYLE
  5
132
330
3
100
AcDbSymbolTableRecord
100
AcDbTextStyleTableRecord
  2
Annotativa
 70
     0
 40
0.0
 41
1.0
 50
0.0
 71
     0
 42
2.5
  3
arial.ttf
  4

1001
AcadAnnotative
1000
AnnotativeData
1002
{
1070
     1
1070
     1
1002
}
1001
ACAD
1000
Arial
1071
       34
  0
ENDTAB
  0
TABLE
  2
VIEW
  5
6
330
0
100
AcDbSymbolTable
 70
     0
  0
ENDTAB
  0
TABLE
  2
UCS
  5
7
330
0
100
AcDbSymbolTable
 70
     0
  0
ENDTAB
  0
TABLE
  2
APPID
  5
9
330
0
100
AcDbSymbolTable
 70
     8
  0
APPID
  5
12
330
9
100
AcDbSymbolTableRecord
100
AcDbRegAppTableRecord
  2
ACAD
 70
     0
  0
APPID
  5
9E
330
9
100
AcDbSymbolTableRecord
100
AcDbRegAppTableRecord
  2
ACAD_PSEXT
 70
     0
  0
APPID
  5
133
330
9
100
AcDbSymbolTableRecord
100
AcDbRegAppTableRecord
  2
AcadAnnoPO
 70
     0
  0
APPID
  5
134
330
9
100
AcDbSymbolTableRecord
100
AcDbRegAppTableRecord
  2
AcadAnnotative
 70
     0
  0
APPID
  5
135
330
9
100
AcDbSymbolTableRecord
100
AcDbRegAppTableRecord
  2
ACAD_DSTYLE_DIMJAG
 70
     0
  0
APPID
  5
136
330
9
100
AcDbSymbolTableRecord
100
AcDbRegAppTableRecord
  2
ACAD_DSTYLE_DIMTALN
 70
     0
  0
APPID
  5
165
330
9
100
AcDbSymbolTableRecord
100
AcDbRegAppTableRecord
  2
ACAD_MLEADERVER
 70
     0
  0
APPID
  5
217
330
9
100
AcDbSymbolTableRecord
100
AcDbRegAppTableRecord
  2
ACAD_NAV_VCDISPLAY
 70
     0
  0
ENDTAB
  0
TABLE
  2
DIMSTYLE
  5
A
330
0
100
AcDbSymbolTable
 70
     3
100
AcDbDimStyleTable
 71
     2
340
27
340
137
  0
DIMSTYLE
105
1B0
330
A
100
AcDbSymbolTableRecord
100
AcDbDimStyleTableRecord
  2
Standard
 70
     0
340
11
  0
DIMSTYLE
105
137
330
A
100
AcDbSymbolTableRecord
100
AcDbDimStyleTableRecord
  2
Annotativa
 70
     0
 40
0.0
 41
2.5
 42
0.625
 43
3.75
 44
1.25
 73
     0
 74
     0
 77
     1
 78
     8
140
2.5
141
2.5
143
0.03937007874016
147
0.625
171
     3
172
     1
271
     2
272
     2
274
     3
278
    44
283
     0
284
     8
340
11
1001
AcadAnnotative
1000
AnnotativeData
1002
{
1070
     1
1070
     1
1002
}
1001
ACAD_DSTYLE_DIMJAG
1070
   388
1040
1.5
1001
ACAD_DSTYLE_DIMTALN
1070
   392
1070
     0
  0
DIMSTYLE
105
27
330
A
100
AcDbSymbolTableRecord
100
AcDbDimStyleTableRecord
  2
ISO-25
 70
     0
 41
2.5
 42
0.625
 43
3.75
 44
1.25
 73
     0
 74
     0
 77
     1
 78
     8
140
2.5
141
2.5
143
0.03937007874016
147
0.625
171
     3
172
     1
271
     2
272
     2
274
     3
278
    44
283
     0
284
     8
340
11
  0
ENDTAB
  0
TABLE
  2
BLOCK_RECORD
  5
1
330
0
100
AcDbSymbolTable
 70
     2
  0
BLOCK_RECORD
  5
1F
102
{ACAD_XDICTIONARY
360
1CE
102
}
330
1
100
AcDbSymbolTableRecord
100
AcDbBlockTableRecord
  2
*Model_Space
340
22
 70
     0
280
     1
281
     0
  0
BLOCK_RECORD
  5
D2
330
1
100
AcDbSymbolTableRecord
100
AcDbBlockTableRecord
  2
*Paper_Space
340
D3
 70
     0
280
     1
281
     0
  0
BLOCK_RECORD
  5
D6
330
1
100
AcDbSymbolTableRecord
100
AcDbBlockTableRecord
  2
*Paper_Space0
340
D7
 70
     0
280
     1
281
     0
  0
ENDTAB
  0
ENDSEC
  0
SECTION
  2
BLOCKS
  0
BLOCK
  5
20
330
1F
100
AcDbEntity
  8
0
100
AcDbBlockBegin
  2
*Model_Space
 70
     0
 10
0.0
 20
0.0
 30
0.0
  3
*Model_Space
  1

  0
ENDBLK
  5
21
330
1F
100
AcDbEntity
  8
0
100
AcDbBlockEnd
  0
BLOCK
  5
D4
330
D2
100
AcDbEntity
 67
     1
  8
0
100
AcDbBlockBegin
  2
*Paper_Space
 70
     0
 10
0.0
 20
0.0
 30
0.0
  3
*Paper_Space
  1

  0
ENDBLK
  5
D5
330
D2
100
AcDbEntity
 67
     1
  8
0
100
AcDbBlockEnd
  0
BLOCK
  5
D8
330
D6
100
AcDbEntity
 67
     1
  8
0
100
AcDbBlockBegin
  2
*Paper_Space0
 70
     0
 10
0.0
 20
0.0
 30
0.0
  3
*Paper_Space0
  1

  0
ENDBLK
  5
D9
330
D6
100
AcDbEntity
 67
     1
  8
0
100
AcDbBlockEnd
  0
ENDSEC
  0
SECTION
  2
ENTITIES
  0
SPLINE
  5
606
330
1F
100
AcDbEntity
  8
Livello 1
100
AcDbSpline
210
0.0
220
0.0
230
1.0
 70
     8
 71
     3
 72
    14
 73
    10
 74
     0
 42
0.000000001
 43
0.0000000001
 40
0.0
 40
0.0
 40
0.0
 40
0.0
 40
1.0
 40
1.0
 40
1.0
 40
2.0
 40
2.0
 40
2.0
 40
3.0
 40
3.0
 40
3.0
 40
3.0
 10
5.170916403941632
 20
6.472206061188593
 30
0.0
 10
5.170916403941632
 20
6.472206061188593
 30
0.0
 10
5.165619569633051
 20
6.517713619364066
 30
0.0
 10
5.165619569633051
 20
6.517713619364066
 30
0.0
 10
5.109529108763766
 20
6.769597200250672
 30
0.0
 10
4.760987721928742
 20
6.768538102537036
 30
0.0
 10
4.704891878097853
 20
6.517713619364066
 30
0.0
 10
4.704891878097853
 20
6.517713619364066
 30
0.0
 10
4.699600426750961
 20
6.472206061188593
 30
0.0
 10
4.699600426750961
 20
6.472206061188593
 30
0.0
  0
SPLINE
  5
607
330
1F
100
AcDbEntity
  8
Livello 1
100
AcDbSpline
210
0.0
220
0.0
230
1.0
 70
     8
 71
     3
 72
    14
 73
    10
 74
     0
 42
0.000000001
 43
0.0000000001
 40
0.0
 40
0.0
 40
0.0
 40
0.0
 40
1.0
 40
1.0
 40
1.0
 40
2.0
 40
2.0
 40
2.0
 40
3.0
 40
3.0
 40
3.0
 40
3.0
 10
5.170916403941632
 20
6.472206061188593
 30
0.0
 10
5.170916403941632
 20
6.472206061188593
 30
0.0
 10
5.165619569633051
 20
6.426697157272691
 30
0.0
 10
5.165619569633051
 20
6.426697157272691
 30
0.0
 10
5.109884384235741
 20
6.173049310690331
 30
0.0
 10
4.759577385964448
 20
6.175872674099721
 30
0.0
 10
4.704891878097853
 20
6.426697157272691
 30
0.0
 10
4.704891878097853
 20
6.426697157272691
 30
0.0
 10
4.699600426750961
 20
6.472206061188593
 30
0.0
 10
4.699600426750961
 20
6.472206061188593
 30
0.0
  0
SPLINE
  5
608
330
1F
100
AcDbEntity
  8
Livello 1
100
AcDbSpline
210
0.0
220
0.0
230
1.0
 70
    11
 71
     3
 72
    29
 73
    25
 74
     0
 42
0.000000001
 43
0.0000000001
 40
0.0
 40
0.0
 40
0.0
 40
0.0
 40
1.0
 40
1.0
 40
1.0
 40
2.0
 40
2.0
 40
2.0
 40
3.0
 40
3.0
 40
3.0
 40
4.0
 40
4.0
 40
4.0
 40
5.0
 40
5.0
 40
5.0
 40
6.0
 40
6.0
 40
6.0
 40
7.0
 40
7.0
 40
7.0
 40
8.0
 40
8.0
 40
8.0
 40
8.0
 10
0.4179765451037412
 20
7.096481586443495
 30
0.0
 10
0.4179765451037412
 20
7.096481586443495
 30
0.0
 10
0.4610133238609535
 20
7.093658223034104
 30
0.0
 10
0.4610133238609535
 20
7.093658223034104
 30
0.0
 10
0.4610133238609535
 20
7.093658223034104
 30
0.0
 10
0.5008741552176446
 20
7.083075320340348
 30
0.0
 10
0.5008741552176446
 20
7.083075320340348
 30
0.0
 10
0.7407658431866509
 20
6.99523345990903
 30
0.0
 10
0.7312380009852433
 20
6.655509364331521
 30
0.0
 10
0.4797083498301334
 20
6.590244990992395
 30
0.0
 10
0.4797083498301334
 20
6.590244990992395
 30
0.0
 10
0.4394922430015385
 20
6.582131521976542
 30
0.0
 10
0.4394922430015385
 20
6.582131521976542
 30
0.0
 10
0.4394922430015385
 20
6.582131521976542
 30
0.0
 10
0.3992761361729435
 20
6.582131521976542
 30
0.0
 10
0.3992761361729435
 20
6.582131521976542
 30
0.0
 10
0.1156425014646345
 20
6.617408761449325
 30
0.0
 10
0.0743659511819459
 20
6.985003141206355
 30
0.0
 10
0.337538948484962
 20
7.083075320340348
 30
0.0
 10
0.337538948484962
 20
7.083075320340348
 30
0.0
 10
0.3777550553135569
 20
7.093658223034104
 30
0.0
 10
0.3777550553135569
 20
7.093658223034104
 30
0.0
 10
0.3777550553135569
 20
7.093658223034104
 30
0.0
 10
0.4179765451037412
 20
7.096481586443495
 30
0.0
 10
0.4179765451037412
 20
7.096481586443495
 30
0.0
  0
SPLINE
  5
609
330
1F
100
AcDbEntity
  8
Livello 1
100
AcDbSpline
210
0.0
220
0.0
230
1.0
 70
     8
 71
     3
 72
    14
 73
    10
 74
     0
 42
0.000000001
 43
0.0000000001
 40
0.0
 40
0.0
 40
0.0
 40
0.0
 40
1.0
 40
1.0
 40
1.0
 40
2.0
 40
2.0
 40
2.0
 40
3.0
 40
3.0
 40
3.0
 40
3.0
 10
4.234291834812651
 20
5.862888440745621
 30
0.0
 10
4.234291834812651
 20
5.862888440745621
 30
0.0
 10
4.226174328575567
 20
5.865710458414604
 30
0.0
 10
4.226174328575567
 20
5.865710458414604
 30
0.0
 10
3.697712830023348
 20
6.10207092351122
 30
0.0
 10
3.701949220877835
 20
6.843962816076803
 30
0.0
 10
4.231465779922459
 20
7.076443511531252
 30
0.0
 10
4.231465779922459
 20
7.076443511531252
 30
0.0
 10
4.234291834812651
 20
7.07891294520914
 30
0.0
 10
4.234291834812651
 20
7.07891294520914
 30
0.0
  0
POLYLINE
  5
60A
330
1F
100
AcDbEntity
  8
Livello 1
100
AcDb2dPolyline
 66
     1
 10
0.0
 20
0.0
 30
0.0
  0
VERTEX
  5
60B
330
60A
100
AcDbEntity
  8
Livello 1
100
AcDbVertex
100
AcDb2dVertex
 10
4.236019765517042
 20
5.861441769789898
 30
0.0
  0
VERTEX
  5
60C
330
60A
100
AcDbEntity
  8
Livello 1
100
AcDbVertex
100
AcDb2dVertex
 10
4.353847414074252
 20
5.861441769789898
 30
0.0
  0
SEQEND
  5
60D
330
60A
100
AcDbEntity
  8
Livello 1
  0
POLYLINE
  5
60E
330
1F
100
AcDbEntity
  8
Livello 1
100
AcDb2dPolyline
 66
     1
 10
0.0
 20
0.0
 30
0.0
  0
VERTEX
  5
60F
330
60E
100
AcDbEntity
  8
Livello 1
100
AcDbVertex
100
AcDb2dVertex
 10
4.353917392576263
 20
7.080324626913842
 30
0.0
  0
VERTEX
  5
610
330
60E
100
AcDbEntity
  8
Livello 1
100
AcDbVertex
100
AcDb2dVertex
 10
4.236084361057336
 20
7.080324626913842
 30
0.0
  0
SEQEND
  5
611
330
60E
100
AcDbEntity
  8
Livello 1
  0
POLYLINE
  5
612
330
1F
100
AcDbEntity
  8
Livello 1
100
AcDb2dPolyline
 66
     1
 10
0.0
 20
0.0
 30
0.0
  0
VERTEX
  5
613
330
612
100
AcDbEntity
  8
Livello 1
100
AcDbVertex
100
AcDb2dVertex
 10
2.165285911528954
 20
5.649951933467868
 30
0.0
  0
VERTEX
  5
614
330
612
100
AcDbEntity
  8
Livello 1
100
AcDbVertex
100
AcDb2dVertex
 10
2.165285911528954
 20
5.639367685033697
 30
0.0
  0
VERTEX
  5
615
330
612
100
AcDbEntity
  8
Livello 1
100
AcDbVertex
100
AcDb2dVertex
 10
2.165285911528954
 20
5.599151578205081
 30
0.0
  0
VERTEX
  5
616
330
612
100
AcDbEntity
  8
Livello 1
100
AcDbVertex
100
AcDb2dVertex
 10
2.165285911528954
 20
5.593860126858217
 30
0.0
  0
VERTEX
  5
617
330
612
100
AcDbEntity
  8
Livello 1
100
AcDbVertex
100
AcDb2dVertex
 10
4.353917392576263
 20
5.593860126858217
 30
0.0
  0
SEQEND
  5
618
330
612
100
AcDbEntity
  8
Livello 1
  0
POLYLINE
  5
619
330
1F
100
AcDbEntity
  8
Livello 1
100
AcDb2dPolyline
 66
     1
 10
0.0
 20
0.0
 30
0.0
  0
VERTEX
  5
61A
330
619
100
AcDbEntity
  8
Livello 1
100
AcDbVertex
100
AcDb2dVertex
 10
2.165318209299144
 20
7.350974558012097
 30
0.0
  0
VERTEX
  5
61B
330
619
100
AcDbEntity
  8
Livello 1
100
AcDbVertex
100
AcDb2dVertex
 10
2.165318209299144
 20
7.348151194602692
 30
0.0
  0
SEQEND
  5
61C
330
619
100
AcDbEntity
  8
Livello 1
  0
POLYLINE
  5
61D
330
1F
100
AcDbEntity
  8
Livello 1
100
AcDb2dPolyline
 66
     1
 10
0.0
 20
0.0
 30
0.0
  0
VERTEX
  5
61E
330
61D
100
AcDbEntity
  8
Livello 1
100
AcDbVertex
100
AcDb2dVertex
 10
2.165318209299144
 20
7.407207667366257
 30
0.0
  0
VERTEX
  5
61F
330
61D
100
AcDbEntity
  8
Livello 1
100
AcDbVertex
100
AcDb2dVertex
 10
2.165318209299144
 20
7.404384303956852
 30
0.0
  0
VERTEX
  5
620
330
61D
100
AcDbEntity
  8
Livello 1
100
AcDbVertex
100
AcDb2dVertex
 10
2.165318209299144
 20
7.361698763450355
 30
0.0
  0
VERTEX
  5
621
330
61D
100
AcDbEntity
  8
Livello 1
100
AcDbVertex
100
AcDb2dVertex
 10
2.165318209299144
 20
7.351115860756607
 30
0.0
  0
SEQEND
  5
622
330
61D
100
AcDbEntity
  8
Livello 1
  0
POLYLINE
  5
623
330
1F
100
AcDbEntity
  8
Livello 1
100
AcDb2dPolyline
 66
     1
 10
0.0
 20
0.0
 30
0.0
  0
VERTEX
  5
624
330
623
100
AcDbEntity
  8
Livello 1
100
AcDbVertex
100
AcDb2dVertex
 10
4.353917392576263
 20
7.407207667366257
 30
0.0
  0
VERTEX
  5
625
330
623
100
AcDbEntity
  8
Livello 1
100
AcDbVertex
100
AcDb2dVertex
 10
2.165280528567265
 20
7.407207667366257
 30
0.0
  0
SEQEND
  5
626
330
623
100
AcDbEntity
  8
Livello 1
  0
POLYLINE
  5
627
330
1F
100
AcDbEntity
  8
Livello 1
100
AcDb2dPolyline
 66
     1
 10
0.0
 20
0.0
 30
0.0
  0
VERTEX
  5
628
330
627
100
AcDbEntity
  8
Livello 1
100
AcDbVertex
100
AcDb2dVertex
 10
2.165355890030966
 20
5.778503787463364
 30
0.0
  0
VERTEX
  5
629
330
627
100
AcDbEntity
  8
Livello 1
100
AcDbVertex
100
AcDb2dVertex
 10
2.165355890030966
 20
5.650091890471934
 30
0.0
  0
SEQEND
  5
62A
330
627
100
AcDbEntity
  8
Livello 1
  0
POLYLINE
  5
62B
330
1F
100
AcDbEntity
  8
Livello 1
100
AcDb2dPolyline
 66
     1
 10
0.0
 20
0.0
 30
0.0
  0
VERTEX
  5
62C
330
62B
100
AcDbEntity
  8
Livello 1
100
AcDbVertex
100
AcDb2dVertex
 10
2.165355890030966
 20
5.891039984673739
 30
0.0
  0
VERTEX
  5
62D
330
62B
100
AcDbEntity
  8
Livello 1
100
AcDbVertex
100
AcDb2dVertex
 10
2.165355890030966
 20
5.778503787463364
 30
0.0
  0
SEQEND
  5
62E
330
62B
100
AcDbEntity
  8
Livello 1
  0
POLYLINE
  5
62F
330
1F
100
AcDbEntity
  8
Livello 1
100
AcDb2dPolyline
 66
     1
 10
0.0
 20
0.0
 30
0.0
  0
VERTEX
  5
630
330
62F
100
AcDbEntity
  8
Livello 1
100
AcDbVertex
100
AcDb2dVertex
 10
2.165355890030966
 20
7.222387714765567
 30
0.0
  0
VERTEX
  5
631
330
62F
100
AcDbEntity
  8
Livello 1
100
AcDbVertex
100
AcDb2dVertex
 10
2.165355890030966
 20
5.871600764250118
 30
0.0
  0
SEQEND
  5
632
330
62F
100
AcDbEntity
  8
Livello 1
  0
POLYLINE
  5
633
330
1F
100
AcDbEntity
  8
Livello 1
100
AcDb2dPolyline
 66
     1
 10
0.0
 20
0.0
 30
0.0
  0
VERTEX
  5
634
330
633
100
AcDbEntity
  8
Livello 1
100
AcDbVertex
100
AcDb2dVertex
 10
2.165355890030966
 20
7.222387714765567
 30
0.0
  0
VERTEX
  5
635
330
633
100
AcDbEntity
  8
Livello 1
100
AcDbVertex
100
AcDb2dVertex
 10
2.165355890030966
 20
7.348328832338651
 30
0.0
  0
SEQEND
  5
636
330
633
100
AcDbEntity
  8
Livello 1
  0
POLYLINE
  5
637
330
1F
100
AcDbEntity
  8
Livello 1
100
AcDb2dPolyline
 66
     1
 10
0.0
 20
0.0
 30
0.0
  0
VERTEX
  5
638
330
637
100
AcDbEntity
  8
Livello 1
100
AcDbVertex
100
AcDb2dVertex
 10
0.0001133775514433
 20
6.35180266545997
 30
0.0
  0
VERTEX
  5
639
330
637
100
AcDbEntity
  8
Livello 1
100
AcDbVertex
100
AcDb2dVertex
 10
0.0029340494800465
 20
6.584988528896531
 30
0.0
  0
SEQEND
  5
63A
330
637
100
AcDbEntity
  8
Livello 1
  0
POLYLINE
  5
63B
330
1F
100
AcDbEntity
  8
Livello 1
100
AcDb2dPolyline
 66
     1
 10
0.0
 20
0.0
 30
0.0
  0
VERTEX
  5
63C
330
63B
100
AcDbEntity
  8
Livello 1
100
AcDbVertex
100
AcDb2dVertex
 10
0.0028263902461418
 20
7.125973487833839
 30
0.0
  0
VERTEX
  5
63D
330
63B
100
AcDbEntity
  8
Livello 1
100
AcDbVertex
100
AcDb2dVertex
 10
0.0028263902461418
 20
7.099162301367961
 30
0.0
  0
VERTEX
  5
63E
330
63B
100
AcDbEntity
  8
Livello 1
100
AcDbVertex
100
AcDb2dVertex
 10
0.0028263902461418
 20
7.06176686646792
 30
0.0
  0
SEQEND
  5
63F
330
63B
100
AcDbEntity
  8
Livello 1
  0
POLYLINE
  5
640
330
1F
100
AcDbEntity
  8
Livello 1
100
AcDb2dPolyline
 66
     1
 10
0.0
 20
0.0
 30
0.0
  0
VERTEX
  5
641
330
640
100
AcDbEntity
  8
Livello 1
100
AcDbVertex
100
AcDb2dVertex
 10
0.0028263902461418
 20
6.584847226152028
 30
0.0
  0
VERTEX
  5
642
330
640
100
AcDbEntity
  8
Livello 1
100
AcDbVertex
100
AcDb2dVertex
 10
0.0028263902461418
 20
6.630354784327501
 30
0.0
  0
SEQEND
  5
643
330
640
100
AcDbEntity
  8
Livello 1
  0
POLYLINE
  5
644
330
1F
100
AcDbEntity
  8
Livello 1
100
AcDb2dPolyline
 66
     1
 10
0.0
 20
0.0
 30
0.0
  0
VERTEX
  5
645
330
644
100
AcDbEntity
  8
Livello 1
100
AcDbVertex
100
AcDb2dVertex
 10
0.0001133775514433
 20
6.630391119318943
 30
0.0
  0
VERTEX
  5
646
330
644
100
AcDbEntity
  8
Livello 1
100
AcDbVertex
100
AcDb2dVertex
 10
0.0001133775514433
 20
6.571475949299902
 30
0.0
  0
VERTEX
  5
647
330
644
100
AcDbEntity
  8
Livello 1
100
AcDbVertex
100
AcDb2dVertex
 10
0.0029340494800465
 20
6.571475949299902
 30
0.0
  0
SEQEND
  5
648
330
644
100
AcDbEntity
  8
Livello 1
  0
POLYLINE
  5
649
330
1F
100
AcDbEntity
  8
Livello 1
100
AcDb2dPolyline
 66
     1
 10
0.0
 20
0.0
 30
0.0
  0
VERTEX
  5
64A
330
649
100
AcDbEntity
  8
Livello 1
100
AcDbVertex
100
AcDb2dVertex
 10
0.0001133775514433
 20
6.571442305789311
 30
0.0
  0
VERTEX
  5
64B
330
649
100
AcDbEntity
  8
Livello 1
100
AcDbVertex
100
AcDb2dVertex
 10
0.0001133775514433
 20
6.383764000528195
 30
0.0
  0
VERTEX
  5
64C
330
649
100
AcDbEntity
  8
Livello 1
100
AcDbVertex
100
AcDb2dVertex
 10
0.0001133775514433
 20
6.303683025121642
 30
0.0
  0
VERTEX
  5
64D
330
649
100
AcDbEntity
  8
Livello 1
100
AcDbVertex
100
AcDb2dVertex
 10
0.0001133775514433
 20
6.351661362715439
 30
0.0
  0
SEQEND
  5
64E
330
649
100
AcDbEntity
  8
Livello 1
  0
POLYLINE
  5
64F
330
1F
100
AcDbEntity
  8
Livello 1
100
AcDb2dPolyline
 66
     1
 10
0.0
 20
0.0
 30
0.0
  0
VERTEX
  5
650
330
64F
100
AcDbEntity
  8
Livello 1
100
AcDbVertex
100
AcDb2dVertex
 10
0.0028263902461418
 20
6.630391119318943
 30
0.0
  0
VERTEX
  5
651
330
64F
100
AcDbEntity
  8
Livello 1
100
AcDbVertex
100
AcDb2dVertex
 10
0.0000003353558355
 20
6.630391119318943
 30
0.0
  0
SEQEND
  5
652
330
64F
100
AcDbEntity
  8
Livello 1
  0
POLYLINE
  5
653
330
1F
100
AcDbEntity
  8
Livello 1
100
AcDb2dPolyline
 66
     1
 10
0.0
 20
0.0
 30
0.0
  0
VERTEX
  5
654
330
653
100
AcDbEntity
  8
Livello 1
100
AcDbVertex
100
AcDb2dVertex
 10
0.2626834831444569
 20
6.303578057368582
 30
0.0
  0
VERTEX
  5
655
330
653
100
AcDbEntity
  8
Livello 1
100
AcDbVertex
100
AcDb2dVertex
 10
0.1769544351786436
 20
6.303578057368582
 30
0.0
  0
SEQEND
  5
656
330
653
100
AcDbEntity
  8
Livello 1
  0
POLYLINE
  5
657
330
1F
100
AcDbEntity
  8
Livello 1
100
AcDb2dPolyline
 66
     1
 10
0.0
 20
0.0
 30
0.0
  0
VERTEX
  5
658
330
657
100
AcDbEntity
  8
Livello 1
100
AcDbVertex
100
AcDb2dVertex
 10
0.2626834831444569
 20
6.024954614258589
 30
0.0
  0
VERTEX
  5
659
330
657
100
AcDbEntity
  8
Livello 1
100
AcDbVertex
100
AcDb2dVertex
 10
0.2626834831444569
 20
6.303648035870622
 30
0.0
  0
SEQEND
  5
65A
330
657
100
AcDbEntity
  8
Livello 1
  0
POLYLINE
  5
65B
330
1F
100
AcDbEntity
  8
Livello 1
100
AcDb2dPolyline
 66
     1
 10
0.0
 20
0.0
 30
0.0
  0
VERTEX
  5
65C
330
65B
100
AcDbEntity
  8
Livello 1
100
AcDbVertex
100
AcDb2dVertex
 10
0.1769598181403325
 20
6.024954614258589
 30
0.0
  0
VERTEX
  5
65D
330
65B
100
AcDbEntity
  8
Livello 1
100
AcDbVertex
100
AcDb2dVertex
 10
0.2626834831444569
 20
6.024954614258589
 30
0.0
  0
SEQEND
  5
65E
330
65B
100
AcDbEntity
  8
Livello 1
  0
POLYLINE
  5
65F
330
1F
100
AcDbEntity
  8
Livello 1
100
AcDb2dPolyline
 66
     1
 10
0.0
 20
0.0
 30
0.0
  0
VERTEX
  5
660
330
65F
100
AcDbEntity
  8
Livello 1
100
AcDbVertex
100
AcDb2dVertex
 10
0.1019590128341292
 20
5.732959894296435
 30
0.0
  0
VERTEX
  5
661
330
65F
100
AcDbEntity
  8
Livello 1
100
AcDbVertex
100
AcDb2dVertex
 10
0.1019590128341292
 20
5.735781911965418
 30
0.0
  0
SEQEND
  5
662
330
65F
100
AcDbEntity
  8
Livello 1
  0
POLYLINE
  5
663
330
1F
100
AcDbEntity
  8
Livello 1
100
AcDb2dPolyline
 66
     1
 10
0.0
 20
0.0
 30
0.0
  0
VERTEX
  5
664
330
663
100
AcDbEntity
  8
Livello 1
100
AcDbVertex
100
AcDb2dVertex
 10
0.1019590128341292
 20
5.735640609220908
 30
0.0
  0
VERTEX
  5
665
330
663
100
AcDbEntity
  8
Livello 1
100
AcDbVertex
100
AcDb2dVertex
 10
0.0589168511153417
 20
5.762450449946356
 30
0.0
  0
VERTEX
  5
666
330
663
100
AcDbEntity
  8
Livello 1
100
AcDbVertex
100
AcDb2dVertex
 10
0.0296389224523352
 20
5.799845884846405
 30
0.0
  0
VERTEX
  5
667
330
663
100
AcDbEntity
  8
Livello 1
100
AcDbVertex
100
AcDb2dVertex
 10
0.0081178415929486
 20
5.842884009343968
 30
0.0
  0
VERTEX
  5
668
330
663
100
AcDbEntity
  8
Livello 1
100
AcDbVertex
100
AcDb2dVertex
 10
0.0028263902461418
 20
5.89086234693778
 30
0.0
  0
SEQEND
  5
669
330
663
100
AcDbEntity
  8
Livello 1
  0
POLYLINE
  5
66A
330
1F
100
AcDbEntity
  8
Livello 1
100
AcDb2dPolyline
 66
     1
 10
0.0
 20
0.0
 30
0.0
  0
VERTEX
  5
66B
330
66A
100
AcDbEntity
  8
Livello 1
100
AcDbVertex
100
AcDb2dVertex
 10
0.0001133775514433
 20
6.024954614258589
 30
0.0
  0
VERTEX
  5
66C
330
66A
100
AcDbEntity
  8
Livello 1
100
AcDbVertex
100
AcDb2dVertex
 10
0.1768521589064562
 20
6.024954614258589
 30
0.0
  0
SEQEND
  5
66D
330
66A
100
AcDbEntity
  8
Livello 1
  0
POLYLINE
  5
66E
330
1F
100
AcDbEntity
  8
Livello 1
100
AcDb2dPolyline
 66
     1
 10
0.0
 20
0.0
 30
0.0
  0
VERTEX
  5
66F
330
66E
100
AcDbEntity
  8
Livello 1
100
AcDbVertex
100
AcDb2dVertex
 10
0.0001133775514433
 20
5.891039984673739
 30
0.0
  0
VERTEX
  5
670
330
66E
100
AcDbEntity
  8
Livello 1
100
AcDbVertex
100
AcDb2dVertex
 10
0.0001133775514433
 20
6.025094571262677
 30
0.0
  0
SEQEND
  5
671
330
66E
100
AcDbEntity
  8
Livello 1
  0
POLYLINE
  5
672
330
1F
100
AcDbEntity
  8
Livello 1
100
AcDb2dPolyline
 66
     1
 10
0.0
 20
0.0
 30
0.0
  0
VERTEX
  5
673
330
672
100
AcDbEntity
  8
Livello 1
100
AcDbVertex
100
AcDb2dVertex
 10
0.0028263902461418
 20
5.891039984673739
 30
0.0
  0
VERTEX
  5
674
330
672
100
AcDbEntity
  8
Livello 1
100
AcDbVertex
100
AcDb2dVertex
 10
0.0000003353558355
 20
5.891039984673739
 30
0.0
  0
SEQEND
  5
675
330
672
100
AcDbEntity
  8
Livello 1
  0
POLYLINE
  5
676
330
1F
100
AcDbEntity
  8
Livello 1
100
AcDb2dPolyline
 66
     1
 10
0.0
 20
0.0
 30
0.0
  0
VERTEX
  5
677
330
676
100
AcDbEntity
  8
Livello 1
100
AcDbVertex
100
AcDb2dVertex
 10
0.0001133775514433
 20
6.303578057368582
 30
0.0
  0
VERTEX
  5
678
330
676
100
AcDbEntity
  8
Livello 1
100
AcDbVertex
100
AcDb2dVertex
 10
0.1768521589064562
 20
6.303578057368582
 30
0.0
  0
SEQEND
  5
679
330
676
100
AcDbEntity
  8
Livello 1
  0
POLYLINE
  5
67A
330
1F
100
AcDbEntity
  8
Livello 1
100
AcDb2dPolyline
 66
     1
 10
0.0
 20
0.0
 30
0.0
  0
VERTEX
  5
67B
330
67A
100
AcDbEntity
  8
Livello 1
100
AcDbVertex
100
AcDb2dVertex
 10
0.0028263902461418
 20
7.125973487833839
 30
0.0
  0
VERTEX
  5
67C
330
67A
100
AcDbEntity
  8
Livello 1
100
AcDbVertex
100
AcDb2dVertex
 10
0.0134092929398406
 20
7.168659028340321
 30
0.0
  0
VERTEX
  5
67D
330
67A
100
AcDbEntity
  8
Livello 1
100
AcDbVertex
100
AcDb2dVertex
 10
0.0349249908375384
 20
7.208875135168923
 30
0.0
  0
VERTEX
  5
67E
330
67A
100
AcDbEntity
  8
Livello 1
100
AcDbVertex
100
AcDb2dVertex
 10
0.064558194972463
 20
7.241331702713168
 30
0.0
  0
VERTEX
  5
67F
330
67A
100
AcDbEntity
  8
Livello 1
100
AcDbVertex
100
AcDb2dVertex
 10
0.1019536298724546
 20
7.265319525769648
 30
0.0
  0
SEQEND
  5
680
330
67A
100
AcDbEntity
  8
Livello 1
  0
POLYLINE
  5
681
330
1F
100
AcDbEntity
  8
Livello 1
100
AcDb2dPolyline
 66
     1
 10
0.0
 20
0.0
 30
0.0
  0
VERTEX
  5
682
330
681
100
AcDbEntity
  8
Livello 1
100
AcDbVertex
100
AcDb2dVertex
 10
0.0001133775514433
 20
7.032204986575536
 30
0.0
  0
VERTEX
  5
683
330
681
100
AcDbEntity
  8
Livello 1
100
AcDbVertex
100
AcDb2dVertex
 10
0.0001133775514433
 20
7.059014827300991
 30
0.0
  0
SEQEND
  5
684
330
681
100
AcDbEntity
  8
Livello 1
  0
POLYLINE
  5
685
330
1F
100
AcDbEntity
  8
Livello 1
100
AcDb2dPolyline
 66
     1
 10
0.0
 20
0.0
 30
0.0
  0
VERTEX
  5
686
330
685
100
AcDbEntity
  8
Livello 1
100
AcDbVertex
100
AcDb2dVertex
 10
0.0001133775514433
 20
7.10720579188176
 30
0.0
  0
VERTEX
  5
687
330
685
100
AcDbEntity
  8
Livello 1
100
AcDbVertex
100
AcDb2dVertex
 10
0.0029340494800465
 20
7.10720579188176
 30
0.0
  0
SEQEND
  5
688
330
685
100
AcDbEntity
  8
Livello 1
  0
POLYLINE
  5
689
330
1F
100
AcDbEntity
  8
Livello 1
100
AcDb2dPolyline
 66
     1
 10
0.0
 20
0.0
 30
0.0
  0
VERTEX
  5
68A
330
689
100
AcDbEntity
  8
Livello 1
100
AcDbVertex
100
AcDb2dVertex
 10
0.0001133775514433
 20
7.032204986575536
 30
0.0
  0
VERTEX
  5
68B
330
689
100
AcDbEntity
  8
Livello 1
100
AcDbVertex
100
AcDb2dVertex
 10
0.0029340494800465
 20
7.032204986575536
 30
0.0
  0
SEQEND
  5
68C
330
689
100
AcDbEntity
  8
Livello 1
  0
POLYLINE
  5
68D
330
1F
100
AcDbEntity
  8
Livello 1
100
AcDb2dPolyline
 66
     1
 10
0.0
 20
0.0
 30
0.0
  0
VERTEX
  5
68E
330
68D
100
AcDbEntity
  8
Livello 1
100
AcDbVertex
100
AcDb2dVertex
 10
0.0001133775514433
 20
6.630391119318943
 30
0.0
  0
VERTEX
  5
68F
330
68D
100
AcDbEntity
  8
Livello 1
100
AcDbVertex
100
AcDb2dVertex
 10
0.0001133775514433
 20
7.032204986575536
 30
0.0
  0
SEQEND
  5
690
330
68D
100
AcDbEntity
  8
Livello 1
  0
POLYLINE
  5
691
330
1F
100
AcDbEntity
  8
Livello 1
100
AcDb2dPolyline
 66
     1
 10
0.0
 20
0.0
 30
0.0
  0
VERTEX
  5
692
330
691
100
AcDbEntity
  8
Livello 1
100
AcDbVertex
100
AcDb2dVertex
 10
0.0001133775514433
 20
6.024954614258589
 30
0.0
  0
VERTEX
  5
693
330
691
100
AcDbEntity
  8
Livello 1
100
AcDbVertex
100
AcDb2dVertex
 10
0.0001133775514433
 20
5.890898681929215
 30
0.0
  0
VERTEX
  5
694
330
691
100
AcDbEntity
  8
Livello 1
100
AcDbVertex
100
AcDb2dVertex
 10
0.0029340494800465
 20
5.890898681929215
 30
0.0
  0
SEQEND
  5
695
330
691
100
AcDbEntity
  8
Livello 1
  0
POLYLINE
  5
696
330
1F
100
AcDbEntity
  8
Livello 1
100
AcDb2dPolyline
 66
     1
 10
0.0
 20
0.0
 30
0.0
  0
VERTEX
  5
697
330
696
100
AcDbEntity
  8
Livello 1
100
AcDbVertex
100
AcDb2dVertex
 10
0.0001133775514433
 20
6.024954614258589
 30
0.0
  0
VERTEX
  5
698
330
696
100
AcDbEntity
  8
Livello 1
100
AcDbVertex
100
AcDb2dVertex
 10
0.0029340494800465
 20
6.024954614258589
 30
0.0
  0
SEQEND
  5
699
330
696
100
AcDbEntity
  8
Livello 1
  0
POLYLINE
  5
69A
330
1F
100
AcDbEntity
  8
Livello 1
100
AcDb2dPolyline
 66
     1
 10
0.0
 20
0.0
 30
0.0
  0
VERTEX
  5
69B
330
69A
100
AcDbEntity
  8
Livello 1
100
AcDbVertex
100
AcDb2dVertex
 10
0.1233024559576421
 20
5.724951393033677
 30
0.0
  0
VERTEX
  5
69C
330
69A
100
AcDbEntity
  8
Livello 1
100
AcDbVertex
100
AcDb2dVertex
 10
0.1017813750982555
 20
5.733064862049516
 30
0.0
  0
SEQEND
  5
69D
330
69A
100
AcDbEntity
  8
Livello 1
  0
POLYLINE
  5
69E
330
1F
100
AcDbEntity
  8
Livello 1
100
AcDb2dPolyline
 66
     1
 10
0.0
 20
0.0
 30
0.0
  0
VERTEX
  5
69F
330
69E
100
AcDbEntity
  8
Livello 1
100
AcDbVertex
100
AcDb2dVertex
 10
0.1233024559576421
 20
7.273293037781392
 30
0.0
  0
VERTEX
  5
6A0
330
69E
100
AcDbEntity
  8
Livello 1
100
AcDbVertex
100
AcDb2dVertex
 10
0.1017813750982555
 20
7.265178223025131
 30
0.0
  0
SEQEND
  5
6A1
330
69E
100
AcDbEntity
  8
Livello 1
  0
POLYLINE
  5
6A2
330
1F
100
AcDbEntity
  8
Livello 1
100
AcDb2dPolyline
 66
     1
 10
0.0
 20
0.0
 30
0.0
  0
VERTEX
  5
6A3
330
6A2
100
AcDbEntity
  8
Livello 1
100
AcDbVertex
100
AcDb2dVertex
 10
0.1474665710096445
 20
5.719589963184752
 30
0.0
  0
VERTEX
  5
6A4
330
6A2
100
AcDbEntity
  8
Livello 1
100
AcDbVertex
100
AcDb2dVertex
 10
0.2331902360137548
 20
5.706183697081598
 30
0.0
  0
VERTEX
  5
6A5
330
6A2
100
AcDbEntity
  8
Livello 1
100
AcDbVertex
100
AcDb2dVertex
 10
0.3026842715052425
 20
5.692778776718874
 30
0.0
  0
VERTEX
  5
6A6
330
6A2
100
AcDbEntity
  8
Livello 1
100
AcDbVertex
100
AcDb2dVertex
 10
0.3294968037115495
 20
5.687485979631581
 30
0.0
  0
VERTEX
  5
6A7
330
6A2
100
AcDbEntity
  8
Livello 1
100
AcDbVertex
100
AcDb2dVertex
 10
0.3510178845709504
 20
5.684663961962606
 30
0.0
  0
VERTEX
  5
6A8
330
6A2
100
AcDbEntity
  8
Livello 1
100
AcDbVertex
100
AcDb2dVertex
 10
0.3563093359178424
 20
5.684663961962606
 30
0.0
  0
VERTEX
  5
6A9
330
6A2
100
AcDbEntity
  8
Livello 1
100
AcDbVertex
100
AcDb2dVertex
 10
0.361600787264635
 20
5.682194528284696
 30
0.0
  0
VERTEX
  5
6AA
330
6A2
100
AcDbEntity
  8
Livello 1
100
AcDbVertex
100
AcDb2dVertex
 10
0.3644214591932524
 20
5.682194528284696
 30
0.0
  0
VERTEX
  5
6AB
330
6A2
100
AcDbEntity
  8
Livello 1
100
AcDbVertex
100
AcDb2dVertex
 10
0.7288425830306409
 20
5.682194528284696
 30
0.0
  0
VERTEX
  5
6AC
330
6A2
100
AcDbEntity
  8
Livello 1
100
AcDbVertex
100
AcDb2dVertex
 10
0.9694340560200487
 20
5.682194528284696
 30
0.0
  0
SEQEND
  5
6AD
330
6A2
100
AcDbEntity
  8
Livello 1
  0
POLYLINE
  5
6AE
330
1F
100
AcDbEntity
  8
Livello 1
100
AcDb2dPolyline
 66
     1
 10
0.0
 20
0.0
 30
0.0
  0
VERTEX
  5
6AF
330
6AE
100
AcDbEntity
  8
Livello 1
100
AcDbVertex
100
AcDb2dVertex
 10
0.1233024559576421
 20
5.724951393033677
 30
0.0
  0
VERTEX
  5
6B0
330
6AE
100
AcDbEntity
  8
Livello 1
100
AcDbVertex
100
AcDb2dVertex
 10
0.1472889332736429
 20
5.71965859594637
 30
0.0
  0
SEQEND
  5
6B1
330
6AE
100
AcDbEntity
  8
Livello 1
  0
POLYLINE
  5
6B2
330
1F
100
AcDbEntity
  8
Livello 1
100
AcDb2dPolyline
 66
     1
 10
0.0
 20
0.0
 30
0.0
  0
VERTEX
  5
6B3
330
6B2
100
AcDbEntity
  8
Livello 1
100
AcDbVertex
100
AcDb2dVertex
 10
0.3644268421549412
 20
7.318836930948329
 30
0.0
  0
VERTEX
  5
6B4
330
6B2
100
AcDbEntity
  8
Livello 1
100
AcDbVertex
100
AcDb2dVertex
 10
0.7288425830306409
 20
7.318836930948329
 30
0.0
  0
VERTEX
  5
6B5
330
6B2
100
AcDbEntity
  8
Livello 1
100
AcDbVertex
100
AcDb2dVertex
 10
0.9200507654236389
 20
7.318836930948329
 30
0.0
  0
SEQEND
  5
6B6
330
6B2
100
AcDbEntity
  8
Livello 1
  0
SPLINE
  5
6B7
330
1F
100
AcDbEntity
  8
Livello 1
100
AcDbSpline
210
0.0
220
0.0
230
1.0
 70
     8
 71
     3
 72
    14
 73
    10
 74
     0
 42
0.000000001
 43
0.0000000001
 40
0.0
 40
0.0
 40
0.0
 40
0.0
 40
1.0
 40
1.0
 40
1.0
 40
2.0
 40
2.0
 40
2.0
 40
3.0
 40
3.0
 40
3.0
 40
3.0
 10
0.1474665710096445
 20
7.278655813370747
 30
0.0
 10
0.1474665710096445
 20
7.278655813370747
 30
0.0
 10
0.1957948011136494
 20
7.289238716064495
 30
0.0
 10
0.1957948011136494
 20
7.289238716064495
 30
0.0
 10
0.2511800940007447
 20
7.296999601089282
 30
0.0
 10
0.3062154943776392
 20
7.310758451183495
 30
0.0
 10
0.361600787264635
 20
7.316049902530366
 30
0.0
 10
0.361600787264635
 20
7.316049902530366
 30
0.0
 10
0.3644214591932524
 20
7.318871920199349
 30
0.0
 10
0.3644214591932524
 20
7.318871920199349
 30
0.0
  0
POLYLINE
  5
6B8
330
1F
100
AcDbEntity
  8
Livello 1
100
AcDb2dPolyline
 66
     1
 10
0.0
 20
0.0
 30
0.0
  0
VERTEX
  5
6B9
330
6B8
100
AcDbEntity
  8
Livello 1
100
AcDbVertex
100
AcDb2dVertex
 10
0.1474665710096445
 20
7.278655813370747
 30
0.0
  0
VERTEX
  5
6BA
330
6B8
100
AcDbEntity
  8
Livello 1
100
AcDbVertex
100
AcDb2dVertex
 10
0.1234747107318554
 20
7.27336301628344
 30
0.0
  0
SEQEND
  5
6BB
330
6B8
100
AcDbEntity
  8
Livello 1
  0
SPLINE
  5
6BC
330
1F
100
AcDbEntity
  8
Livello 1
100
AcDbSpline
210
0.0
220
0.0
230
1.0
 70
     8
 71
     3
 72
   134
 73
   130
 74
     0
 42
0.000000001
 43
0.0000000001
 40
0.0
 40
0.0
 40
0.0
 40
0.0
 40
1.0
 40
1.0
 40
1.0
 40
2.0
 40
2.0
 40
2.0
 40
3.0
 40
3.0
 40
3.0
 40
4.0
 40
4.0
 40
4.0
 40
5.0
 40
5.0
 40
5.0
 40
6.0
 40
6.0
 40
6.0
 40
7.0
 40
7.0
 40
7.0
 40
8.0
 40
8.0
 40
8.0
 40
9.0
 40
9.0
 40
9.0
 40
10.0
 40
10.0
 40
10.0
 40
11.0
 40
11.0
 40
11.0
 40
12.0
 40
12.0
 40
12.0
 40
13.0
 40
13.0
 40
13.0
 40
14.0
 40
14.0
 40
14.0
 40
15.0
 40
15.0
 40
15.0
 40
16.0
 40
16.0
 40
16.0
 40
17.0
 40
17.0
 40
17.0
 40
18.0
 40
18.0
 40
18.0
 40
19.0
 40
19.0
 40
19.0
 40
20.0
 40
20.0
 40
20.0
 40
21.0
 40
21.0
 40
21.0
 40
22.0
 40
22.0
 40
22.0
 40
23.0
 40
23.0
 40
23.0
 40
24.0
 40
24.0
 40
24.0
 40
25.0
 40
25.0
 40
25.0
 40
26.0
 40
26.0
 40
26.0
 40
27.0
 40
27.0
 40
27.0
 40
28.0
 40
28.0
 40
28.0
 40
29.0
 40
29.0
 40
29.0
 40
30.0
 40
30.0
 40
30.0
 40
31.0
 40
31.0
 40
31.0
 40
32.0
 40
32.0
 40
32.0
 40
33.0
 40
33.0
 40
33.0
 40
34.0
 40
34.0
 40
34.0
 40
35.0
 40
35.0
 40
35.0
 40
36.0
 40
36.0
 40
36.0
 40
37.0
 40
37.0
 40
37.0
 40
38.0
 40
38.0
 40
38.0
 40
39.0
 40
39.0
 40
39.0
 40
40.0
 40
40.0
 40
40.0
 40
41.0
 40
41.0
 40
41.0
 40
42.0
 40
42.0
 40
42.0
 40
43.0
 40
43.0
 40
43.0
 40
43.0
 10
2.778798204873268
 20
5.59368383486268
 30
0.0
 10
2.778798204873268
 20
5.59368383486268
 30
0.0
 10
2.834888665742468
 20
5.534768664843639
 30
0.0
 10
2.834888665742468
 20
5.534768664843639
 30
0.0
 10
2.834888665742468
 20
5.534768664843639
 30
0.0
 10
2.837709337671057
 20
5.529477213496761
 30
0.0
 10
2.837709337671057
 20
5.529477213496761
 30
0.0
 10
2.837709337671057
 20
5.529477213496761
 30
0.0
 10
2.840530009599561
 20
5.526655195827778
 30
0.0
 10
2.840530009599561
 20
5.526655195827778
 30
0.0
 10
2.840530009599561
 20
5.526655195827778
 30
0.0
 10
2.848647515836759
 20
5.518541726811932
 30
0.0
 10
2.848647515836759
 20
5.518541726811932
 30
0.0
 10
2.848647515836759
 20
5.518541726811932
 30
0.0
 10
2.853938967183566
 20
5.51607229313403
 30
0.0
 10
2.853938967183566
 20
5.51607229313403
 30
0.0
 10
2.853938967183566
 20
5.51607229313403
 30
0.0
 10
2.856404363640265
 20
5.510780841787152
 30
0.0
 10
2.856404363640265
 20
5.510780841787152
 30
0.0
 10
2.856404363640265
 20
5.510780841787152
 30
0.0
 10
2.861695814987157
 20
5.507958824118183
 30
0.0
 10
2.861695814987157
 20
5.507958824118183
 30
0.0
 10
2.861695814987157
 20
5.507958824118183
 30
0.0
 10
2.86452186987735
 20
5.505135460708793
 30
0.0
 10
2.86452186987735
 20
5.505135460708793
 30
0.0
 10
2.86452186987735
 20
5.505135460708793
 30
0.0
 10
2.869813321224242
 20
5.502666027030898
 30
0.0
 10
2.869813321224242
 20
5.502666027030898
 30
0.0
 10
2.869813321224242
 20
5.502666027030898
 30
0.0
 10
2.872633993152746
 20
5.497374575684013
 30
0.0
 10
2.872633993152746
 20
5.497374575684013
 30
0.0
 10
2.872633993152746
 20
5.497374575684013
 30
0.0
 10
2.88321689584653
 20
5.491730540346068
 30
0.0
 10
2.88321689584653
 20
5.491730540346068
 30
0.0
 10
2.88321689584653
 20
5.491730540346068
 30
0.0
 10
2.886037567775034
 20
5.489261106668166
 30
0.0
 10
2.886037567775034
 20
5.489261106668166
 30
0.0
 10
2.886037567775034
 20
5.489261106668166
 30
0.0
 10
2.891329019121954
 20
5.48643908899919
 30
0.0
 10
2.891329019121954
 20
5.48643908899919
 30
0.0
 10
2.891329019121954
 20
5.48643908899919
 30
0.0
 10
2.894155074012232
 20
5.48114763765232
 30
0.0
 10
2.894155074012232
 20
5.48114763765232
 30
0.0
 10
2.894155074012232
 20
5.48114763765232
 30
0.0
 10
2.899446525359039
 20
5.478324274242929
 30
0.0
 10
2.899446525359039
 20
5.478324274242929
 30
0.0
 10
2.899446525359039
 20
5.478324274242929
 30
0.0
 10
2.904737976705959
 20
5.475854840565027
 30
0.0
 10
2.904737976705959
 20
5.475854840565027
 30
0.0
 10
2.904737976705959
 20
5.475854840565027
 30
0.0
 10
2.907208756124262
 20
5.473032822896044
 30
0.0
 10
2.907208756124262
 20
5.473032822896044
 30
0.0
 10
2.907208756124262
 20
5.473032822896044
 30
0.0
 10
2.912850099981355
 20
5.470563389218142
 30
0.0
 10
2.912850099981355
 20
5.470563389218142
 30
0.0
 10
2.912850099981355
 20
5.470563389218142
 30
0.0
 10
2.923433002675139
 20
5.465271937871257
 30
0.0
 10
2.923433002675139
 20
5.465271937871257
 30
0.0
 10
2.923433002675139
 20
5.465271937871257
 30
0.0
 10
2.92625905756536
 20
5.462449920202296
 30
0.0
 10
2.92625905756536
 20
5.462449920202296
 30
0.0
 10
2.92625905756536
 20
5.462449920202296
 30
0.0
 10
2.931550508912252
 20
5.45962790253332
 30
0.0
 10
2.931550508912252
 20
5.45962790253332
 30
0.0
 10
2.931550508912252
 20
5.45962790253332
 30
0.0
 10
2.936841960259144
 20
5.457158468855418
 30
0.0
 10
2.936841960259144
 20
5.457158468855418
 30
0.0
 10
2.94495408353454
 20
5.453982521454953
 30
0.0
 10
2.951305978335469
 20
5.4448113004659
 30
0.0
 10
2.960828437575131
 20
5.44622163643018
 30
0.0
 10
2.960828437575131
 20
5.44622163643018
 30
0.0
 10
2.966119888922051
 20
5.443752202752278
 30
0.0
 10
2.966119888922051
 20
5.443752202752278
 30
0.0
 10
2.966119888922051
 20
5.443752202752278
 30
0.0
 10
2.968940560850555
 20
5.440930185083296
 30
0.0
 10
2.968940560850555
 20
5.440930185083296
 30
0.0
 10
2.968940560850555
 20
5.440930185083296
 30
0.0
 10
2.974232012197447
 20
5.438460751405393
 30
0.0
 10
2.974232012197447
 20
5.438460751405393
 30
0.0
 10
2.974232012197447
 20
5.438460751405393
 30
0.0
 10
2.979878739016257
 20
5.435638733736418
 30
0.0
 10
2.979878739016257
 20
5.435638733736418
 30
0.0
 10
2.979878739016257
 20
5.435638733736418
 30
0.0
 10
2.985170190363149
 20
5.435638733736418
 30
0.0
 10
2.985170190363149
 20
5.435638733736418
 30
0.0
 10
2.985170190363149
 20
5.435638733736418
 30
0.0
 10
2.995753093056961
 20
5.430347282389547
 30
0.0
 10
2.995753093056961
 20
5.430347282389547
 30
0.0
 10
2.995753093056961
 20
5.430347282389547
 30
0.0
 10
3.00104454440374
 20
5.430347282389547
 30
0.0
 10
3.00104454440374
 20
5.430347282389547
 30
0.0
 10
3.00104454440374
 20
5.430347282389547
 30
0.0
 10
3.003865216332357
 20
5.427525264720578
 30
0.0
 10
3.003865216332357
 20
5.427525264720578
 30
0.0
 10
3.003865216332357
 20
5.427525264720578
 30
0.0
 10
3.009162050640853
 20
5.425055831042662
 30
0.0
 10
3.009162050640853
 20
5.425055831042662
 30
0.0
 10
3.009162050640853
 20
5.425055831042662
 30
0.0
 10
3.014453501987745
 20
5.425055831042662
 30
0.0
 10
3.014453501987745
 20
5.425055831042662
 30
0.0
 10
3.014453501987745
 20
5.425055831042662
 30
0.0
 10
3.019744953334637
 20
5.422233813373694
 30
0.0
 10
3.019744953334637
 20
5.422233813373694
 30
0.0
 10
3.019744953334637
 20
5.422233813373694
 30
0.0
 10
3.025386297191758
 20
5.422233813373694
 30
0.0
 10
3.025386297191758
 20
5.422233813373694
 30
0.0
 10
3.025386297191758
 20
5.422233813373694
 30
0.0
 10
3.03067774853865
 20
5.419410449964303
 30
0.0
 10
3.03067774853865
 20
5.419410449964303
 30
0.0
 10
3.03067774853865
 20
5.419410449964303
 30
0.0
 10
3.035969199885457
 20
5.419410449964303
 30
0.0
 10
3.035969199885457
 20
5.419410449964303
 30
0.0
 10
3.035969199885457
 20
5.419410449964303
 30
0.0
 10
3.041260651232349
 20
5.416941016286394
 30
0.0
 10
3.041260651232349
 20
5.416941016286394
 30
0.0
 10
3.041260651232349
 20
5.416941016286394
 30
0.0
 10
3.046552102579241
 20
5.416941016286394
 30
0.0
 10
3.046552102579241
 20
5.416941016286394
 30
0.0
 10
3.046552102579241
 20
5.416941016286394
 30
0.0
 10
3.051843553926133
 20
5.414118998617425
 30
0.0
 10
3.051843553926133
 20
5.414118998617425
 30
0.0
 10
3.051843553926133
 20
5.414118998617425
 30
0.0
 10
3.057490280744943
 20
5.414118998617425
 30
0.0
 10
3.057490280744943
 20
5.414118998617425
 30
0.0
 10
3.07795091815025
 20
5.41094439695739
 30
0.0
 10
3.105818510848948
 20
5.405300361619438
 30
0.0
 10
3.126989699198148
 20
5.406005529601578
 30
0.0
 10
3.126989699198148
 20
5.406005529601578
 30
0.0
 10
3.143213945748968
 20
5.406005529601578
 30
0.0
 10
3.143213945748968
 20
5.406005529601578
 30
0.0
  0
POLYLINE
  5
6BD
330
1F
100
AcDbEntity
  8
Livello 1
100
AcDb2dPolyline
 66
     1
 10
0.0
 20
0.0
 30
0.0
  0
VERTEX
  5
6BE
330
6BD
100
AcDbEntity
  8
Livello 1
100
AcDbVertex
100
AcDb2dVertex
 10
3.143149350208645
 20
5.408862536521567
 30
0.0
  0
VERTEX
  5
6BF
330
6BD
100
AcDbEntity
  8
Livello 1
100
AcDbVertex
100
AcDb2dVertex
 10
3.400320345220833
 20
5.408862536521567
 30
0.0
  0
VERTEX
  5
6C0
330
6BD
100
AcDbEntity
  8
Livello 1
100
AcDbVertex
100
AcDb2dVertex
 10
3.400320345220833
 20
5.593717478373278
 30
0.0
  0
SEQEND
  5
6C1
330
6BD
100
AcDbEntity
  8
Livello 1
  0
SPLINE
  5
6C2
330
1F
100
AcDbEntity
  8
Livello 1
100
AcDbSpline
210
0.0
220
0.0
230
1.0
 70
     8
 71
     3
 72
   104
 73
   100
 74
     0
 42
0.000000001
 43
0.0000000001
 40
0.0
 40
0.0
 40
0.0
 40
0.0
 40
1.0
 40
1.0
 40
1.0
 40
2.0
 40
2.0
 40
2.0
 40
3.0
 40
3.0
 40
3.0
 40
4.0
 40
4.0
 40
4.0
 40
5.0
 40
5.0
 40
5.0
 40
6.0
 40
6.0
 40
6.0
 40
7.0
 40
7.0
 40
7.0
 40
8.0
 40
8.0
 40
8.0
 40
9.0
 40
9.0
 40
9.0
 40
10.0
 40
10.0
 40
10.0
 40
11.0
 40
11.0
 40
11.0
 40
12.0
 40
12.0
 40
12.0
 40
13.0
 40
13.0
 40
13.0
 40
14.0
 40
14.0
 40
14.0
 40
15.0
 40
15.0
 40
15.0
 40
16.0
 40
16.0
 40
16.0
 40
17.0
 40
17.0
 40
17.0
 40
18.0
 40
18.0
 40
18.0
 40
19.0
 40
19.0
 40
19.0
 40
20.0
 40
20.0
 40
20.0
 40
21.0
 40
21.0
 40
21.0
 40
22.0
 40
22.0
 40
22.0
 40
23.0
 40
23.0
 40
23.0
 40
24.0
 40
24.0
 40
24.0
 40
25.0
 40
25.0
 40
25.0
 40
26.0
 40
26.0
 40
26.0
 40
27.0
 40
27.0
 40
27.0
 40
28.0
 40
28.0
 40
28.0
 40
29.0
 40
29.0
 40
29.0
 40
30.0
 40
30.0
 40
30.0
 40
31.0
 40
31.0
 40
31.0
 40
32.0
 40
32.0
 40
32.0
 40
33.0
 40
33.0
 40
33.0
 40
33.0
 10
3.400288047450644
 20
7.565287757743533
 30
0.0
 10
3.400288047450644
 20
7.565287757743533
 30
0.0
 10
3.143111669476766
 20
7.565287757743533
 30
0.0
 10
3.143111669476766
 20
7.565287757743533
 30
0.0
 10
3.143111669476766
 20
7.565287757743533
 30
0.0
 10
3.137820218129846
 20
7.562464394334135
 30
0.0
 10
3.137820218129846
 20
7.562464394334135
 30
0.0
 10
3.137820218129846
 20
7.562464394334135
 30
0.0
 10
3.126882039964257
 20
7.562464394334135
 30
0.0
 10
3.126882039964257
 20
7.562464394334135
 30
0.0
 10
3.097248835829347
 20
7.56458124402097
 30
0.0
 10
3.088781437082033
 20
7.558937208683026
 30
0.0
 10
3.062679455819548
 20
7.55717294298725
 30
0.0
 10
3.062679455819548
 20
7.55717294298725
 30
0.0
 10
3.057388004472628
 20
7.554703509309348
 30
0.0
 10
3.057388004472628
 20
7.554703509309348
 30
0.0
 10
3.057388004472628
 20
7.554703509309348
 30
0.0
 10
3.046799718817268
 20
7.554703509309348
 30
0.0
 10
3.046799718817268
 20
7.554703509309348
 30
0.0
 10
3.046799718817268
 20
7.554703509309348
 30
0.0
 10
3.041158374960147
 20
7.551881491640386
 30
0.0
 10
3.041158374960147
 20
7.551881491640386
 30
0.0
 10
3.041158374960147
 20
7.551881491640386
 30
0.0
 10
3.035866923613255
 20
7.551881491640386
 30
0.0
 10
3.035866923613255
 20
7.551881491640386
 30
0.0
 10
3.035866923613255
 20
7.551881491640386
 30
0.0
 10
3.030575472266363
 20
7.549059473971418
 30
0.0
 10
3.030575472266363
 20
7.549059473971418
 30
0.0
 10
3.030575472266363
 20
7.549059473971418
 30
0.0
 10
3.025284020919556
 20
7.549059473971418
 30
0.0
 10
3.025284020919556
 20
7.549059473971418
 30
0.0
 10
3.025284020919556
 20
7.549059473971418
 30
0.0
 10
3.019992569572636
 20
7.546590040293501
 30
0.0
 10
3.019992569572636
 20
7.546590040293501
 30
0.0
 10
3.019992569572636
 20
7.546590040293501
 30
0.0
 10
3.014345842753854
 20
7.546590040293501
 30
0.0
 10
3.014345842753854
 20
7.546590040293501
 30
0.0
 10
3.014345842753854
 20
7.546590040293501
 30
0.0
 10
3.011875063335551
 20
7.543768022624533
 30
0.0
 10
3.011875063335551
 20
7.543768022624533
 30
0.0
 10
3.011875063335551
 20
7.543768022624533
 30
0.0
 10
3.006583611988631
 20
7.541298588946638
 30
0.0
 10
3.006583611988631
 20
7.541298588946638
 30
0.0
 10
3.006583611988631
 20
7.541298588946638
 30
0.0
 10
3.001292160641739
 20
7.541298588946638
 30
0.0
 10
3.001292160641739
 20
7.541298588946638
 30
0.0
 10
3.001292160641739
 20
7.541298588946638
 30
0.0
 10
2.995650816784646
 20
7.538476571277669
 30
0.0
 10
2.995650816784646
 20
7.538476571277669
 30
0.0
 10
2.995650816784646
 20
7.538476571277669
 30
0.0
 10
2.990359365437839
 20
7.535653207868264
 30
0.0
 10
2.990359365437839
 20
7.535653207868264
 30
0.0
 10
2.990359365437839
 20
7.535653207868264
 30
0.0
 10
2.985067914090947
 20
7.535653207868264
 30
0.0
 10
2.985067914090947
 20
7.535653207868264
 30
0.0
 10
2.985067914090947
 20
7.535653207868264
 30
0.0
 10
2.979776462744055
 20
7.533183774190362
 30
0.0
 10
2.979776462744055
 20
7.533183774190362
 30
0.0
 10
2.979776462744055
 20
7.533183774190362
 30
0.0
 10
2.976950407853834
 20
7.530361756521386
 30
0.0
 10
2.976950407853834
 20
7.530361756521386
 30
0.0
 10
2.976950407853834
 20
7.530361756521386
 30
0.0
 10
2.971658956506971
 20
7.527892322843484
 30
0.0
 10
2.971658956506971
 20
7.527892322843484
 30
0.0
 10
2.971658956506971
 20
7.527892322843484
 30
0.0
 10
2.96636750516005
 20
7.527892322843484
 30
0.0
 10
2.96636750516005
 20
7.527892322843484
 30
0.0
 10
2.946967311208751
 20
7.518014588131862
 30
0.0
 10
2.928622177749744
 20
7.506726517455987
 30
0.0
 10
2.909921768818961
 20
7.495789685030736
 30
0.0
 10
2.909921768818961
 20
7.495789685030736
 30
0.0
 10
2.899338866125148
 20
7.490145649692792
 30
0.0
 10
2.899338866125148
 20
7.490145649692792
 30
0.0
 10
2.899338866125148
 20
7.490145649692792
 30
0.0
 10
2.896518194196644
 20
7.487676216014882
 30
0.0
 10
2.896518194196644
 20
7.487676216014882
 30
0.0
 10
2.896518194196644
 20
7.487676216014882
 30
0.0
 10
2.891226742849752
 20
7.484854198345921
 30
0.0
 10
2.891226742849752
 20
7.484854198345921
 30
0.0
 10
2.891226742849752
 20
7.484854198345921
 30
0.0
 10
2.888755963431336
 20
7.482384764668012
 30
0.0
 10
2.888755963431336
 20
7.482384764668012
 30
0.0
 10
2.888755963431336
 20
7.482384764668012
 30
0.0
 10
2.883114619574328
 20
7.479562746999043
 30
0.0
 10
2.883114619574328
 20
7.479562746999043
 30
0.0
 10
2.883114619574328
 20
7.479562746999043
 30
0.0
 10
2.877823168227436
 20
7.47426994991175
 30
0.0
 10
2.877823168227436
 20
7.47426994991175
 30
0.0
 10
2.877823168227436
 20
7.47426994991175
 30
0.0
 10
2.875352388809162
 20
7.47144793224276
 30
0.0
 10
2.875352388809162
 20
7.47144793224276
 30
0.0
 10
2.875352388809162
 20
7.47144793224276
 30
0.0
 10
2.869705661990352
 20
7.468978498564865
 30
0.0
 10
2.869705661990352
 20
7.468978498564865
 30
0.0
 10
2.858772866786338
 20
7.456631330175341
 30
0.0
 10
2.860888370732752
 20
7.460512445557938
 30
0.0
 10
2.851010636021143
 20
7.452751560533172
 30
0.0
 10
2.851010636021143
 20
7.452751560533172
 30
0.0
 10
2.835136281980467
 20
7.436875860752117
 30
0.0
 10
2.835136281980467
 20
7.436875860752117
 30
0.0
  0
POLYLINE
  5
6C3
330
1F
100
AcDbEntity
  8
Livello 1
100
AcDb2dPolyline
 66
     1
 10
0.0
 20
0.0
 30
0.0
  0
VERTEX
  5
6C4
330
6C3
100
AcDbEntity
  8
Livello 1
100
AcDbVertex
100
AcDb2dVertex
 10
2.835066303478456
 20
7.439381629421461
 30
0.0
  0
VERTEX
  5
6C5
330
6C3
100
AcDbEntity
  8
Livello 1
100
AcDbVertex
100
AcDb2dVertex
 10
2.802962319925356
 20
7.40727764586829
 30
0.0
  0
SEQEND
  5
6C6
330
6C3
100
AcDbEntity
  8
Livello 1
  0
POLYLINE
  5
6C7
330
1F
100
AcDbEntity
  8
Livello 1
100
AcDb2dPolyline
 66
     1
 10
0.0
 20
0.0
 30
0.0
  0
VERTEX
  5
6C8
330
6C7
100
AcDbEntity
  8
Livello 1
100
AcDbVertex
100
AcDb2dVertex
 10
3.400288047450644
 20
7.407207667366257
 30
0.0
  0
VERTEX
  5
6C9
330
6C7
100
AcDbEntity
  8
Livello 1
100
AcDbVertex
100
AcDb2dVertex
 10
3.400288047450644
 20
7.565251422752083
 30
0.0
  0
SEQEND
  5
6CA
330
6C7
100
AcDbEntity
  8
Livello 1
  0
POLYLINE
  5
6CB
330
1F
100
AcDbEntity
  8
Livello 1
100
AcDb2dPolyline
 66
     1
 10
0.0
 20
0.0
 30
0.0
  0
VERTEX
  5
6CC
330
6CB
100
AcDbEntity
  8
Livello 1
100
AcDbVertex
100
AcDb2dVertex
 10
9.928550205378044
 20
5.845389778013327
 30
0.0
  0
VERTEX
  5
6CD
330
6CB
100
AcDbEntity
  8
Livello 1
100
AcDbVertex
100
AcDb2dVertex
 10
9.917961919722628
 20
5.845389778013327
 30
0.0
  0
SEQEND
  5
6CE
330
6CB
100
AcDbEntity
  8
Livello 1
  0
POLYLINE
  5
6CF
330
1F
100
AcDbEntity
  8
Livello 1
100
AcDb2dPolyline
 66
     1
 10
0.0
 20
0.0
 30
0.0
  0
VERTEX
  5
6D0
330
6CF
100
AcDbEntity
  8
Livello 1
100
AcDbVertex
100
AcDb2dVertex
 10
4.361997218081555
 20
7.144599881041386
 30
0.0
  0
VERTEX
  5
6D1
330
6CF
100
AcDbEntity
  8
Livello 1
100
AcDbVertex
100
AcDb2dVertex
 10
9.975392738054054
 20
7.133310464625076
 30
0.0
  0
VERTEX
  5
6D2
330
6CF
100
AcDbEntity
  8
Livello 1
100
AcDbVertex
100
AcDb2dVertex
 10
12.76375074754305
 20
7.133310464625076
 30
0.0
  0
SEQEND
  5
6D3
330
6CF
100
AcDbEntity
  8
Livello 1
  0
POLYLINE
  5
6D4
330
1F
100
AcDbEntity
  8
Livello 1
100
AcDb2dPolyline
 66
     1
 10
0.0
 20
0.0
 30
0.0
  0
VERTEX
  5
6D5
330
6D4
100
AcDbEntity
  8
Livello 1
100
AcDbVertex
100
AcDb2dVertex
 10
4.361997218081555
 20
5.845389778013327
 30
0.0
  0
VERTEX
  5
6D6
330
6D4
100
AcDbEntity
  8
Livello 1
100
AcDbVertex
100
AcDb2dVertex
 10
4.361997218081555
 20
5.840096980926027
 30
0.0
  0
VERTEX
  5
6D7
330
6D4
100
AcDbEntity
  8
Livello 1
100
AcDbVertex
100
AcDb2dVertex
 10
4.361997218081555
 20
5.80517232544431
 30
0.0
  0
VERTEX
  5
6D8
330
6D4
100
AcDbEntity
  8
Livello 1
100
AcDbVertex
100
AcDb2dVertex
 10
4.361997218081555
 20
5.799880874097425
 30
0.0
  0
SEQEND
  5
6D9
330
6D4
100
AcDbEntity
  8
Livello 1
  0
POLYLINE
  5
6DA
330
1F
100
AcDbEntity
  8
Livello 1
100
AcDb2dPolyline
 66
     1
 10
0.0
 20
0.0
 30
0.0
  0
VERTEX
  5
6DB
330
6DA
100
AcDbEntity
  8
Livello 1
100
AcDbVertex
100
AcDb2dVertex
 10
4.361997218081555
 20
5.845389778013327
 30
0.0
  0
VERTEX
  5
6DC
330
6DA
100
AcDbEntity
  8
Livello 1
100
AcDbVertex
100
AcDb2dVertex
 10
9.91224521440175
 20
5.845389778013327
 30
0.0
  0
SEQEND
  5
6DD
330
6DA
100
AcDbEntity
  8
Livello 1
  0
POLYLINE
  5
6DE
330
1F
100
AcDbEntity
  8
Livello 1
100
AcDb2dPolyline
 66
     1
 10
0.0
 20
0.0
 30
0.0
  0
VERTEX
  5
6DF
330
6DE
100
AcDbEntity
  8
Livello 1
100
AcDbVertex
100
AcDb2dVertex
 10
4.361997218081555
 20
7.144599881041386
 30
0.0
  0
VERTEX
  5
6E0
330
6DE
100
AcDbEntity
  8
Livello 1
100
AcDbVertex
100
AcDb2dVertex
 10
4.361997218081555
 20
7.136485066285118
 30
0.0
  0
VERTEX
  5
6E1
330
6DE
100
AcDbEntity
  8
Livello 1
100
AcDbVertex
100
AcDb2dVertex
 10
4.361997218081555
 20
7.101912994794467
 30
0.0
  0
VERTEX
  5
6E2
330
6DE
100
AcDbEntity
  8
Livello 1
100
AcDbVertex
100
AcDb2dVertex
 10
4.361997218081555
 20
7.099090977125491
 30
0.0
  0
SEQEND
  5
6E3
330
6DE
100
AcDbEntity
  8
Livello 1
  0
POLYLINE
  5
6E4
330
1F
100
AcDbEntity
  8
Livello 1
100
AcDb2dPolyline
 66
     1
 10
0.0
 20
0.0
 30
0.0
  0
VERTEX
  5
6E5
330
6E4
100
AcDbEntity
  8
Livello 1
100
AcDbVertex
100
AcDb2dVertex
 10
4.361997218081555
 20
5.799845884846405
 30
0.0
  0
VERTEX
  5
6E6
330
6E4
100
AcDbEntity
  8
Livello 1
100
AcDbVertex
100
AcDb2dVertex
 10
4.361997218081555
 20
4.975756167187434
 30
0.0
  0
SEQEND
  5
6E7
330
6E4
100
AcDbEntity
  8
Livello 1
  0
POLYLINE
  5
6E8
330
1F
100
AcDbEntity
  8
Livello 1
100
AcDb2dPolyline
 66
     1
 10
0.0
 20
0.0
 30
0.0
  0
VERTEX
  5
6E9
330
6E8
100
AcDbEntity
  8
Livello 1
100
AcDbVertex
100
AcDb2dVertex
 10
9.912428235099454
 20
5.845389778013327
 30
0.0
  0
VERTEX
  5
6EA
330
6E8
100
AcDbEntity
  8
Livello 1
100
AcDbVertex
100
AcDb2dVertex
 10
9.917719686446261
 20
5.845389778013327
 30
0.0
  0
SEQEND
  5
6EB
330
6E8
100
AcDbEntity
  8
Livello 1
  0
POLYLINE
  5
6EC
330
1F
100
AcDbEntity
  8
Livello 1
100
AcDb2dPolyline
 66
     1
 10
0.0
 20
0.0
 30
0.0
  0
VERTEX
  5
6ED
330
6EC
100
AcDbEntity
  8
Livello 1
100
AcDbVertex
100
AcDb2dVertex
 10
4.361997218081555
 20
7.099055987874464
 30
0.0
  0
VERTEX
  5
6EE
330
6EC
100
AcDbEntity
  8
Livello 1
100
AcDbVertex
100
AcDb2dVertex
 10
4.361997218081555
 20
5.845283464519837
 30
0.0
  0
SEQEND
  5
6EF
330
6EC
100
AcDbEntity
  8
Livello 1
  0
POLYLINE
  5
6F0
330
1F
100
AcDbEntity
  8
Livello 1
100
AcDb2dPolyline
 66
     1
 10
0.0
 20
0.0
 30
0.0
  0
VERTEX
  5
6F1
330
6F0
100
AcDbEntity
  8
Livello 1
100
AcDbVertex
100
AcDb2dVertex
 10
9.971377048629037
 20
5.845389778013327
 30
0.0
  0
VERTEX
  5
6F2
330
6F0
100
AcDbEntity
  8
Livello 1
100
AcDbVertex
100
AcDb2dVertex
 10
9.976668499975957
 20
5.845389778013327
 30
0.0
  0
SEQEND
  5
6F3
330
6F0
100
AcDbEntity
  8
Livello 1
  0
POLYLINE
  5
6F4
330
1F
100
AcDbEntity
  8
Livello 1
100
AcDb2dPolyline
 66
     1
 10
0.0
 20
0.0
 30
0.0
  0
VERTEX
  5
6F5
330
6F4
100
AcDbEntity
  8
Livello 1
100
AcDbVertex
100
AcDb2dVertex
 10
9.928550205378044
 20
5.845389778013327
 30
0.0
  0
VERTEX
  5
6F6
330
6F4
100
AcDbEntity
  8
Livello 1
100
AcDbVertex
100
AcDb2dVertex
 10
9.971231708663268
 20
5.845389778013327
 30
0.0
  0
VERTEX
  5
6F7
330
6F4
100
AcDbEntity
  8
Livello 1
100
AcDbVertex
100
AcDb2dVertex
 10
12.76382072604504
 20
5.845389778013327
 30
0.0
  0
VERTEX
  5
6F8
330
6F4
100
AcDbEntity
  8
Livello 1
100
AcDbVertex
100
AcDb2dVertex
 10
12.76382072604504
 20
7.099160955627539
 30
0.0
  0
SEQEND
  5
6F9
330
6F4
100
AcDbEntity
  8
Livello 1
  0
POLYLINE
  5
6FA
330
1F
100
AcDbEntity
  8
Livello 1
100
AcDb2dPolyline
 66
     1
 10
0.0
 20
0.0
 30
0.0
  0
VERTEX
  5
6FB
330
6FA
100
AcDbEntity
  8
Livello 1
100
AcDbVertex
100
AcDb2dVertex
 10
4.361997218081555
 20
7.144599881041386
 30
0.0
  0
VERTEX
  5
6FC
330
6FA
100
AcDbEntity
  8
Livello 1
100
AcDbVertex
100
AcDb2dVertex
 10
4.361997218081555
 20
7.605327572576598
 30
0.0
  0
VERTEX
  5
6FD
330
6FA
100
AcDbEntity
  8
Livello 1
100
AcDbVertex
100
AcDb2dVertex
 10
4.362347110591755
 20
8.004672006155281
 30
0.0
  0
VERTEX
  5
6FE
330
6FA
100
AcDbEntity
  8
Livello 1
100
AcDbVertex
100
AcDb2dVertex
 10
9.759848185834741
 20
8.004672006155281
 30
0.0
  0
VERTEX
  5
6FF
330
6FA
100
AcDbEntity
  8
Livello 1
100
AcDbVertex
100
AcDb2dVertex
 10
12.76375074754305
 20
8.004672006155281
 30
0.0
  0
VERTEX
  5
700
330
6FA
100
AcDbEntity
  8
Livello 1
100
AcDbVertex
100
AcDb2dVertex
 10
12.76375074754305
 20
7.136485066285118
 30
0.0
  0
SEQEND
  5
701
330
6FA
100
AcDbEntity
  8
Livello 1
  0
POLYLINE
  5
702
330
1F
100
AcDbEntity
  8
Livello 1
100
AcDb2dPolyline
 66
     1
 10
0.0
 20
0.0
 30
0.0
  0
VERTEX
  5
703
330
702
100
AcDbEntity
  8
Livello 1
100
AcDbVertex
100
AcDb2dVertex
 10
4.364537976001955
 20
4.93995005172804
 30
0.0
  0
VERTEX
  5
704
330
702
100
AcDbEntity
  8
Livello 1
100
AcDbVertex
100
AcDb2dVertex
 10
9.759568271826552
 20
4.93995005172804
 30
0.0
  0
VERTEX
  5
705
330
702
100
AcDbEntity
  8
Livello 1
100
AcDbVertex
100
AcDb2dVertex
 10
12.76382072604504
 20
4.975579875191897
 30
0.0
  0
VERTEX
  5
706
330
702
100
AcDbEntity
  8
Livello 1
100
AcDbVertex
100
AcDb2dVertex
 10
12.76382072604504
 20
5.799668247110446
 30
0.0
  0
SEQEND
  5
707
330
702
100
AcDbEntity
  8
Livello 1
  0
SPLINE
  5
708
330
1F
100
AcDbEntity
  8
Livello 1
100
AcDbSpline
210
0.0
220
0.0
230
1.0
 70
     8
 71
     3
 72
    14
 73
    10
 74
     0
 42
0.000000001
 43
0.0000000001
 40
0.0
 40
0.0
 40
0.0
 40
0.0
 40
1.0
 40
1.0
 40
1.0
 40
2.0
 40
2.0
 40
2.0
 40
3.0
 40
3.0
 40
3.0
 40
3.0
 10
11.95483156168303
 20
6.472206061188593
 30
0.0
 10
11.95483156168303
 20
6.472206061188593
 30
0.0
 10
11.96012301302984
 20
6.517713619364066
 30
0.0
 10
11.96012301302984
 20
6.517713619364066
 30
0.0
 10
12.01621347389913
 20
6.769597200250672
 30
0.0
 10
12.36475486073415
 20
6.768538102537036
 30
0.0
 10
12.42085070456504
 20
6.517713619364066
 30
0.0
 10
12.42085070456504
 20
6.517713619364066
 30
0.0
 10
12.42614215591193
 20
6.472206061188593
 30
0.0
 10
12.42614215591193
 20
6.472206061188593
 30
0.0
  0
SPLINE
  5
709
330
1F
100
AcDbEntity
  8
Livello 1
100
AcDbSpline
210
0.0
220
0.0
230
1.0
 70
     8
 71
     3
 72
    14
 73
    10
 74
     0
 42
0.000000001
 43
0.0000000001
 40
0.0
 40
0.0
 40
0.0
 40
0.0
 40
1.0
 40
1.0
 40
1.0
 40
2.0
 40
2.0
 40
2.0
 40
3.0
 40
3.0
 40
3.0
 40
3.0
 10
11.95483156168303
 20
6.472206061188593
 30
0.0
 10
11.95483156168303
 20
6.472206061188593
 30
0.0
 10
11.96012301302984
 20
6.426697157272691
 30
0.0
 10
11.96012301302984
 20
6.426697157272691
 30
0.0
 10
12.01585819842715
 20
6.173049310690331
 30
0.0
 10
12.36616519669844
 20
6.175872674099721
 30
0.0
 10
12.42085070456504
 20
6.426697157272691
 30
0.0
 10
12.42085070456504
 20
6.426697157272691
 30
0.0
 10
12.42614215591193
 20
6.472206061188593
 30
0.0
 10
12.42614215591193
 20
6.472206061188593
 30
0.0
  0
SPLINE
  5
70A
330
1F
100
AcDbEntity
  8
Livello 1
100
AcDbSpline
210
0.0
220
0.0
230
1.0
 70
     8
 71
     3
 72
    14
 73
    10
 74
     0
 42
0.000000001
 43
0.0000000001
 40
0.0
 40
0.0
 40
0.0
 40
0.0
 40
1.0
 40
1.0
 40
1.0
 40
2.0
 40
2.0
 40
2.0
 40
3.0
 40
3.0
 40
3.0
 40
3.0
 10
12.89145613081196
 20
5.862888440745621
 30
0.0
 10
12.89145613081196
 20
5.862888440745621
 30
0.0
 10
12.89956825408733
 20
5.865710458414604
 30
0.0
 10
12.89956825408733
 20
5.865710458414604
 30
0.0
 10
13.42802975263954
 20
6.10207092351122
 30
0.0
 10
13.42379336178506
 20
6.843962816076803
 30
0.0
 10
12.89427680274046
 20
7.076443511531252
 30
0.0
 10
12.89427680274046
 20
7.076443511531252
 30
0.0
 10
12.89145613081196
 20
7.07891294520914
 30
0.0
 10
12.89145613081196
 20
7.07891294520914
 30
0.0
  0
POLYLINE
  5
70B
330
1F
100
AcDbEntity
  8
Livello 1
100
AcDb2dPolyline
 66
     1
 10
0.0
 20
0.0
 30
0.0
  0
VERTEX
  5
70C
330
70B
100
AcDbEntity
  8
Livello 1
100
AcDbVertex
100
AcDb2dVertex
 10
12.88972820010762
 20
5.861441769789898
 30
0.0
  0
VERTEX
  5
70D
330
70B
100
AcDbEntity
  8
Livello 1
100
AcDbVertex
100
AcDb2dVertex
 10
12.77189516858864
 20
5.861441769789898
 30
0.0
  0
SEQEND
  5
70E
330
70B
100
AcDbEntity
  8
Livello 1
  0
POLYLINE
  5
70F
330
1F
100
AcDbEntity
  8
Livello 1
100
AcDb2dPolyline
 66
     1
 10
0.0
 20
0.0
 30
0.0
  0
VERTEX
  5
710
330
70F
100
AcDbEntity
  8
Livello 1
100
AcDbVertex
100
AcDb2dVertex
 10
12.77183057304835
 20
7.080324626913842
 30
0.0
  0
VERTEX
  5
711
330
70F
100
AcDbEntity
  8
Livello 1
100
AcDbVertex
100
AcDb2dVertex
 10
12.88965822160555
 20
7.080324626913842
 30
0.0
  0
SEQEND
  5
712
330
70F
100
AcDbEntity
  8
Livello 1
  0
POLYLINE
  5
713
330
1F
100
AcDbEntity
  8
Livello 1
100
AcDb2dPolyline
 66
     1
 10
0.0
 20
0.0
 30
0.0
  0
VERTEX
  5
714
330
713
100
AcDbEntity
  8
Livello 1
100
AcDbVertex
100
AcDb2dVertex
 10
14.96046205409563
 20
5.649951933467868
 30
0.0
  0
VERTEX
  5
715
330
713
100
AcDbEntity
  8
Livello 1
100
AcDbVertex
100
AcDb2dVertex
 10
14.96046205409563
 20
5.639367685033697
 30
0.0
  0
VERTEX
  5
716
330
713
100
AcDbEntity
  8
Livello 1
100
AcDbVertex
100
AcDb2dVertex
 10
14.96046205409563
 20
5.599151578205081
 30
0.0
  0
VERTEX
  5
717
330
713
100
AcDbEntity
  8
Livello 1
100
AcDbVertex
100
AcDb2dVertex
 10
14.96046205409563
 20
5.593860126858217
 30
0.0
  0
VERTEX
  5
718
330
713
100
AcDbEntity
  8
Livello 1
100
AcDbVertex
100
AcDb2dVertex
 10
12.77182519008663
 20
5.593860126858217
 30
0.0
  0
SEQEND
  5
719
330
713
100
AcDbEntity
  8
Livello 1
  0
POLYLINE
  5
71A
330
1F
100
AcDbEntity
  8
Livello 1
100
AcDb2dPolyline
 66
     1
 10
0.0
 20
0.0
 30
0.0
  0
VERTEX
  5
71B
330
71A
100
AcDbEntity
  8
Livello 1
100
AcDbVertex
100
AcDb2dVertex
 10
14.96042975632547
 20
7.350974558012097
 30
0.0
  0
VERTEX
  5
71C
330
71A
100
AcDbEntity
  8
Livello 1
100
AcDbVertex
100
AcDb2dVertex
 10
14.96042975632547
 20
7.348151194602692
 30
0.0
  0
SEQEND
  5
71D
330
71A
100
AcDbEntity
  8
Livello 1
  0
POLYLINE
  5
71E
330
1F
100
AcDbEntity
  8
Livello 1
100
AcDb2dPolyline
 66
     1
 10
0.0
 20
0.0
 30
0.0
  0
VERTEX
  5
71F
330
71E
100
AcDbEntity
  8
Livello 1
100
AcDbVertex
100
AcDb2dVertex
 10
14.96042975632547
 20
7.407207667366257
 30
0.0
  0
VERTEX
  5
720
330
71E
100
AcDbEntity
  8
Livello 1
100
AcDbVertex
100
AcDb2dVertex
 10
14.96042975632547
 20
7.404384303956852
 30
0.0
  0
VERTEX
  5
721
330
71E
100
AcDbEntity
  8
Livello 1
100
AcDbVertex
100
AcDb2dVertex
 10
14.96042975632547
 20
7.361698763450355
 30
0.0
  0
VERTEX
  5
722
330
71E
100
AcDbEntity
  8
Livello 1
100
AcDbVertex
100
AcDb2dVertex
 10
14.96042975632547
 20
7.351115860756607
 30
0.0
  0
SEQEND
  5
723
330
71E
100
AcDbEntity
  8
Livello 1
  0
POLYLINE
  5
724
330
1F
100
AcDbEntity
  8
Livello 1
100
AcDb2dPolyline
 66
     1
 10
0.0
 20
0.0
 30
0.0
  0
VERTEX
  5
725
330
724
100
AcDbEntity
  8
Livello 1
100
AcDbVertex
100
AcDb2dVertex
 10
12.77183057304835
 20
7.407207667366257
 30
0.0
  0
VERTEX
  5
726
330
724
100
AcDbEntity
  8
Livello 1
100
AcDbVertex
100
AcDb2dVertex
 10
14.96046205409563
 20
7.407207667366257
 30
0.0
  0
SEQEND
  5
727
330
724
100
AcDbEntity
  8
Livello 1
  0
POLYLINE
  5
728
330
1F
100
AcDbEntity
  8
Livello 1
100
AcDb2dPolyline
 66
     1
 10
0.0
 20
0.0
 30
0.0
  0
VERTEX
  5
729
330
728
100
AcDbEntity
  8
Livello 1
100
AcDbVertex
100
AcDb2dVertex
 10
14.96039207559364
 20
5.778503787463364
 30
0.0
  0
VERTEX
  5
72A
330
728
100
AcDbEntity
  8
Livello 1
100
AcDbVertex
100
AcDb2dVertex
 10
14.96039207559364
 20
5.650091890471934
 30
0.0
  0
SEQEND
  5
72B
330
728
100
AcDbEntity
  8
Livello 1
  0
POLYLINE
  5
72C
330
1F
100
AcDbEntity
  8
Livello 1
100
AcDb2dPolyline
 66
     1
 10
0.0
 20
0.0
 30
0.0
  0
VERTEX
  5
72D
330
72C
100
AcDbEntity
  8
Livello 1
100
AcDbVertex
100
AcDb2dVertex
 10
14.96039207559364
 20
5.891039984673739
 30
0.0
  0
VERTEX
  5
72E
330
72C
100
AcDbEntity
  8
Livello 1
100
AcDbVertex
100
AcDb2dVertex
 10
14.96039207559364
 20
5.778503787463364
 30
0.0
  0
SEQEND
  5
72F
330
72C
100
AcDbEntity
  8
Livello 1
  0
POLYLINE
  5
730
330
1F
100
AcDbEntity
  8
Livello 1
100
AcDb2dPolyline
 66
     1
 10
0.0
 20
0.0
 30
0.0
  0
VERTEX
  5
731
330
730
100
AcDbEntity
  8
Livello 1
100
AcDbVertex
100
AcDb2dVertex
 10
14.96039207559364
 20
7.222387714765567
 30
0.0
  0
VERTEX
  5
732
330
730
100
AcDbEntity
  8
Livello 1
100
AcDbVertex
100
AcDb2dVertex
 10
14.96039207559364
 20
5.871600764250118
 30
0.0
  0
SEQEND
  5
733
330
730
100
AcDbEntity
  8
Livello 1
  0
POLYLINE
  5
734
330
1F
100
AcDbEntity
  8
Livello 1
100
AcDb2dPolyline
 66
     1
 10
0.0
 20
0.0
 30
0.0
  0
VERTEX
  5
735
330
734
100
AcDbEntity
  8
Livello 1
100
AcDbVertex
100
AcDb2dVertex
 10
14.96039207559364
 20
7.222387714765567
 30
0.0
  0
VERTEX
  5
736
330
734
100
AcDbEntity
  8
Livello 1
100
AcDbVertex
100
AcDb2dVertex
 10
14.96039207559364
 20
7.348328832338651
 30
0.0
  0
SEQEND
  5
737
330
734
100
AcDbEntity
  8
Livello 1
  0
SPLINE
  5
738
330
1F
100
AcDbEntity
  8
Livello 1
100
AcDbSpline
210
0.0
220
0.0
230
1.0
 70
     8
 71
     3
 72
   134
 73
   130
 74
     0
 42
0.000000001
 43
0.0000000001
 40
0.0
 40
0.0
 40
0.0
 40
0.0
 40
1.0
 40
1.0
 40
1.0
 40
2.0
 40
2.0
 40
2.0
 40
3.0
 40
3.0
 40
3.0
 40
4.0
 40
4.0
 40
4.0
 40
5.0
 40
5.0
 40
5.0
 40
6.0
 40
6.0
 40
6.0
 40
7.0
 40
7.0
 40
7.0
 40
8.0
 40
8.0
 40
8.0
 40
9.0
 40
9.0
 40
9.0
 40
10.0
 40
10.0
 40
10.0
 40
11.0
 40
11.0
 40
11.0
 40
12.0
 40
12.0
 40
12.0
 40
13.0
 40
13.0
 40
13.0
 40
14.0
 40
14.0
 40
14.0
 40
15.0
 40
15.0
 40
15.0
 40
16.0
 40
16.0
 40
16.0
 40
17.0
 40
17.0
 40
17.0
 40
18.0
 40
18.0
 40
18.0
 40
19.0
 40
19.0
 40
19.0
 40
20.0
 40
20.0
 40
20.0
 40
21.0
 40
21.0
 40
21.0
 40
22.0
 40
22.0
 40
22.0
 40
23.0
 40
23.0
 40
23.0
 40
24.0
 40
24.0
 40
24.0
 40
25.0
 40
25.0
 40
25.0
 40
26.0
 40
26.0
 40
26.0
 40
27.0
 40
27.0
 40
27.0
 40
28.0
 40
28.0
 40
28.0
 40
29.0
 40
29.0
 40
29.0
 40
30.0
 40
30.0
 40
30.0
 40
31.0
 40
31.0
 40
31.0
 40
32.0
 40
32.0
 40
32.0
 40
33.0
 40
33.0
 40
33.0
 40
34.0
 40
34.0
 40
34.0
 40
35.0
 40
35.0
 40
35.0
 40
36.0
 40
36.0
 40
36.0
 40
37.0
 40
37.0
 40
37.0
 40
38.0
 40
38.0
 40
38.0
 40
39.0
 40
39.0
 40
39.0
 40
40.0
 40
40.0
 40
40.0
 40
41.0
 40
41.0
 40
41.0
 40
42.0
 40
42.0
 40
42.0
 40
43.0
 40
43.0
 40
43.0
 40
43.0
 10
14.34691208001946
 20
5.59368383486268
 30
0.0
 10
14.34691208001946
 20
5.59368383486268
 30
0.0
 10
14.29081623618855
 20
5.534768664843639
 30
0.0
 10
14.29081623618855
 20
5.534768664843639
 30
0.0
 10
14.29081623618855
 20
5.534768664843639
 30
0.0
 10
14.28799556425996
 20
5.529477213496761
 30
0.0
 10
14.28799556425996
 20
5.529477213496761
 30
0.0
 10
14.28799556425996
 20
5.529477213496761
 30
0.0
 10
14.28517489233145
 20
5.526655195827778
 30
0.0
 10
14.28517489233145
 20
5.526655195827778
 30
0.0
 10
14.28517489233145
 20
5.526655195827778
 30
0.0
 10
14.27705738609437
 20
5.518541726811932
 30
0.0
 10
14.27705738609437
 20
5.518541726811932
 30
0.0
 10
14.27705738609437
 20
5.518541726811932
 30
0.0
 10
14.27176593474745
 20
5.51607229313403
 30
0.0
 10
14.27176593474745
 20
5.51607229313403
 30
0.0
 10
14.27176593474745
 20
5.51607229313403
 30
0.0
 10
14.26930053829086
 20
5.510780841787152
 30
0.0
 10
14.26930053829086
 20
5.510780841787152
 30
0.0
 10
14.26930053829086
 20
5.510780841787152
 30
0.0
 10
14.26400908694394
 20
5.507958824118183
 30
0.0
 10
14.26400908694394
 20
5.507958824118183
 30
0.0
 10
14.26400908694394
 20
5.507958824118183
 30
0.0
 10
14.26118303205363
 20
5.505135460708793
 30
0.0
 10
14.26118303205363
 20
5.505135460708793
 30
0.0
 10
14.26118303205363
 20
5.505135460708793
 30
0.0
 10
14.25589158070686
 20
5.502666027030898
 30
0.0
 10
14.25589158070686
 20
5.502666027030898
 30
0.0
 10
14.25589158070686
 20
5.502666027030898
 30
0.0
 10
14.25307090877824
 20
5.497374575684013
 30
0.0
 10
14.25307090877824
 20
5.497374575684013
 30
0.0
 10
14.25307090877824
 20
5.497374575684013
 30
0.0
 10
14.24248800608454
 20
5.491730540346068
 30
0.0
 10
14.24248800608454
 20
5.491730540346068
 30
0.0
 10
14.24248800608454
 20
5.491730540346068
 30
0.0
 10
14.23966733415595
 20
5.489261106668166
 30
0.0
 10
14.23966733415595
 20
5.489261106668166
 30
0.0
 10
14.23966733415595
 20
5.489261106668166
 30
0.0
 10
14.23437588280906
 20
5.48643908899919
 30
0.0
 10
14.23437588280906
 20
5.48643908899919
 30
0.0
 10
14.23437588280906
 20
5.48643908899919
 30
0.0
 10
14.23154982791887
 20
5.48114763765232
 30
0.0
 10
14.23154982791887
 20
5.48114763765232
 30
0.0
 10
14.23154982791887
 20
5.48114763765232
 30
0.0
 10
14.22625837657195
 20
5.478324274242929
 30
0.0
 10
14.22625837657195
 20
5.478324274242929
 30
0.0
 10
14.22625837657195
 20
5.478324274242929
 30
0.0
 10
14.22096692522505
 20
5.475854840565027
 30
0.0
 10
14.22096692522505
 20
5.475854840565027
 30
0.0
 10
14.22096692522505
 20
5.475854840565027
 30
0.0
 10
14.21849614580672
 20
5.473032822896044
 30
0.0
 10
14.21849614580672
 20
5.473032822896044
 30
0.0
 10
14.21849614580672
 20
5.473032822896044
 30
0.0
 10
14.21285480194963
 20
5.470563389218142
 30
0.0
 10
14.21285480194963
 20
5.470563389218142
 30
0.0
 10
14.21285480194963
 20
5.470563389218142
 30
0.0
 10
14.20227189925593
 20
5.465271937871257
 30
0.0
 10
14.20227189925593
 20
5.465271937871257
 30
0.0
 10
14.20227189925593
 20
5.465271937871257
 30
0.0
 10
14.19944584436563
 20
5.462449920202296
 30
0.0
 10
14.19944584436563
 20
5.462449920202296
 30
0.0
 10
14.19944584436563
 20
5.462449920202296
 30
0.0
 10
14.19415439301873
 20
5.45962790253332
 30
0.0
 10
14.19415439301873
 20
5.45962790253332
 30
0.0
 10
14.19415439301873
 20
5.45962790253332
 30
0.0
 10
14.18886294167196
 20
5.457158468855418
 30
0.0
 10
14.18886294167196
 20
5.457158468855418
 30
0.0
 10
14.18075081839656
 20
5.453982521454953
 30
0.0
 10
14.17439892359555
 20
5.4448113004659
 30
0.0
 10
14.16487646435586
 20
5.44622163643018
 30
0.0
 10
14.16487646435586
 20
5.44622163643018
 30
0.0
 10
14.15958501300896
 20
5.443752202752278
 30
0.0
 10
14.15958501300896
 20
5.443752202752278
 30
0.0
 10
14.15958501300896
 20
5.443752202752278
 30
0.0
 10
14.15676434108046
 20
5.440930185083296
 30
0.0
 10
14.15676434108046
 20
5.440930185083296
 30
0.0
 10
14.15676434108046
 20
5.440930185083296
 30
0.0
 10
14.15147288973354
 20
5.438460751405393
 30
0.0
 10
14.15147288973354
 20
5.438460751405393
 30
0.0
 10
14.15147288973354
 20
5.438460751405393
 30
0.0
 10
14.14582616291476
 20
5.435638733736418
 30
0.0
 10
14.14582616291476
 20
5.435638733736418
 30
0.0
 10
14.14582616291476
 20
5.435638733736418
 30
0.0
 10
14.14053471156783
 20
5.435638733736418
 30
0.0
 10
14.14053471156783
 20
5.435638733736418
 30
0.0
 10
14.14053471156783
 20
5.435638733736418
 30
0.0
 10
14.12995180887414
 20
5.430347282389547
 30
0.0
 10
14.12995180887414
 20
5.430347282389547
 30
0.0
 10
14.12995180887414
 20
5.430347282389547
 30
0.0
 10
14.12466035752725
 20
5.430347282389547
 30
0.0
 10
14.12466035752725
 20
5.430347282389547
 30
0.0
 10
14.12466035752725
 20
5.430347282389547
 30
0.0
 10
14.12183968559877
 20
5.427525264720578
 30
0.0
 10
14.12183968559877
 20
5.427525264720578
 30
0.0
 10
14.12183968559877
 20
5.427525264720578
 30
0.0
 10
14.11654285129013
 20
5.425055831042662
 30
0.0
 10
14.11654285129013
 20
5.425055831042662
 30
0.0
 10
14.11654285129013
 20
5.425055831042662
 30
0.0
 10
14.11125139994327
 20
5.425055831042662
 30
0.0
 10
14.11125139994327
 20
5.425055831042662
 30
0.0
 10
14.11125139994327
 20
5.425055831042662
 30
0.0
 10
14.10595994859646
 20
5.422233813373694
 30
0.0
 10
14.10595994859646
 20
5.422233813373694
 30
0.0
 10
14.10595994859646
 20
5.422233813373694
 30
0.0
 10
14.10031860473934
 20
5.422233813373694
 30
0.0
 10
14.10031860473934
 20
5.422233813373694
 30
0.0
 10
14.10031860473934
 20
5.422233813373694
 30
0.0
 10
14.09502715339245
 20
5.419410449964303
 30
0.0
 10
14.09502715339245
 20
5.419410449964303
 30
0.0
 10
14.09502715339245
 20
5.419410449964303
 30
0.0
 10
14.08973570204553
 20
5.419410449964303
 30
0.0
 10
14.08973570204553
 20
5.419410449964303
 30
0.0
 10
14.08973570204553
 20
5.419410449964303
 30
0.0
 10
14.08444425069864
 20
5.416941016286394
 30
0.0
 10
14.08444425069864
 20
5.416941016286394
 30
0.0
 10
14.08444425069864
 20
5.416941016286394
 30
0.0
 10
14.07915279935186
 20
5.416941016286394
 30
0.0
 10
14.07915279935186
 20
5.416941016286394
 30
0.0
 10
14.07915279935186
 20
5.416941016286394
 30
0.0
 10
14.07386134800496
 20
5.414118998617425
 30
0.0
 10
14.07386134800496
 20
5.414118998617425
 30
0.0
 10
14.07386134800496
 20
5.414118998617425
 30
0.0
 10
14.06821462118616
 20
5.414118998617425
 30
0.0
 10
14.06821462118616
 20
5.414118998617425
 30
0.0
 10
14.04775398378073
 20
5.41094439695739
 30
0.0
 10
14.01988639108204
 20
5.405300361619438
 30
0.0
 10
13.99871520273284
 20
5.406005529601578
 30
0.0
 10
13.99871520273284
 20
5.406005529601578
 30
0.0
 10
13.98249095618204
 20
5.406005529601578
 30
0.0
 10
13.98249095618204
 20
5.406005529601578
 30
0.0
  0
POLYLINE
  5
739
330
1F
100
AcDbEntity
  8
Livello 1
100
AcDb2dPolyline
 66
     1
 10
0.0
 20
0.0
 30
0.0
  0
VERTEX
  5
73A
330
739
100
AcDbEntity
  8
Livello 1
100
AcDbVertex
100
AcDb2dVertex
 10
13.98259861541596
 20
5.408862536521567
 30
0.0
  0
VERTEX
  5
73B
330
739
100
AcDbEntity
  8
Livello 1
100
AcDbVertex
100
AcDb2dVertex
 10
13.72542223744203
 20
5.408862536521567
 30
0.0
  0
VERTEX
  5
73C
330
739
100
AcDbEntity
  8
Livello 1
100
AcDbVertex
100
AcDb2dVertex
 10
13.72542223744203
 20
5.593717478373278
 30
0.0
  0
SEQEND
  5
73D
330
739
100
AcDbEntity
  8
Livello 1
  0
SPLINE
  5
73E
330
1F
100
AcDbEntity
  8
Livello 1
100
AcDbSpline
210
0.0
220
0.0
230
1.0
 70
     8
 71
     3
 72
   104
 73
   100
 74
     0
 42
0.000000001
 43
0.0000000001
 40
0.0
 40
0.0
 40
0.0
 40
0.0
 40
1.0
 40
1.0
 40
1.0
 40
2.0
 40
2.0
 40
2.0
 40
3.0
 40
3.0
 40
3.0
 40
4.0
 40
4.0
 40
4.0
 40
5.0
 40
5.0
 40
5.0
 40
6.0
 40
6.0
 40
6.0
 40
7.0
 40
7.0
 40
7.0
 40
8.0
 40
8.0
 40
8.0
 40
9.0
 40
9.0
 40
9.0
 40
10.0
 40
10.0
 40
10.0
 40
11.0
 40
11.0
 40
11.0
 40
12.0
 40
12.0
 40
12.0
 40
13.0
 40
13.0
 40
13.0
 40
14.0
 40
14.0
 40
14.0
 40
15.0
 40
15.0
 40
15.0
 40
16.0
 40
16.0
 40
16.0
 40
17.0
 40
17.0
 40
17.0
 40
18.0
 40
18.0
 40
18.0
 40
19.0
 40
19.0
 40
19.0
 40
20.0
 40
20.0
 40
20.0
 40
21.0
 40
21.0
 40
21.0
 40
22.0
 40
22.0
 40
22.0
 40
23.0
 40
23.0
 40
23.0
 40
24.0
 40
24.0
 40
24.0
 40
25.0
 40
25.0
 40
25.0
 40
26.0
 40
26.0
 40
26.0
 40
27.0
 40
27.0
 40
27.0
 40
28.0
 40
28.0
 40
28.0
 40
29.0
 40
29.0
 40
29.0
 40
30.0
 40
30.0
 40
30.0
 40
31.0
 40
31.0
 40
31.0
 40
32.0
 40
32.0
 40
32.0
 40
33.0
 40
33.0
 40
33.0
 40
33.0
 10
13.72545991817394
 20
7.565287757743533
 30
0.0
 10
13.72545991817394
 20
7.565287757743533
 30
0.0
 10
13.98263091318613
 20
7.565287757743533
 30
0.0
 10
13.98263091318613
 20
7.565287757743533
 30
0.0
 10
13.98263091318613
 20
7.565287757743533
 30
0.0
 10
13.98792236453305
 20
7.562464394334135
 30
0.0
 10
13.98792236453305
 20
7.562464394334135
 30
0.0
 10
13.98792236453305
 20
7.562464394334135
 30
0.0
 10
13.99886054269863
 20
7.562464394334135
 30
0.0
 10
13.99886054269863
 20
7.562464394334135
 30
0.0
 10
14.02849374683355
 20
7.56458124402097
 30
0.0
 10
14.03696114558086
 20
7.558937208683026
 30
0.0
 10
14.06306312684334
 20
7.55717294298725
 30
0.0
 10
14.06306312684334
 20
7.55717294298725
 30
0.0
 10
14.06835457819027
 20
7.554703509309348
 30
0.0
 10
14.06835457819027
 20
7.554703509309348
 30
0.0
 10
14.06835457819027
 20
7.554703509309348
 30
0.0
 10
14.07894286384562
 20
7.554703509309348
 30
0.0
 10
14.07894286384562
 20
7.554703509309348
 30
0.0
 10
14.07894286384562
 20
7.554703509309348
 30
0.0
 10
14.08458420770275
 20
7.551881491640386
 30
0.0
 10
14.08458420770275
 20
7.551881491640386
 30
0.0
 10
14.08458420770275
 20
7.551881491640386
 30
0.0
 10
14.08987565904964
 20
7.551881491640386
 30
0.0
 10
14.08987565904964
 20
7.551881491640386
 30
0.0
 10
14.08987565904964
 20
7.551881491640386
 30
0.0
 10
14.09516711039653
 20
7.549059473971418
 30
0.0
 10
14.09516711039653
 20
7.549059473971418
 30
0.0
 10
14.09516711039653
 20
7.549059473971418
 30
0.0
 10
14.10045856174334
 20
7.549059473971418
 30
0.0
 10
14.10045856174334
 20
7.549059473971418
 30
0.0
 10
14.10045856174334
 20
7.549059473971418
 30
0.0
 10
14.10575001309026
 20
7.546590040293501
 30
0.0
 10
14.10575001309026
 20
7.546590040293501
 30
0.0
 10
14.10575001309026
 20
7.546590040293501
 30
0.0
 10
14.11139673990904
 20
7.546590040293501
 30
0.0
 10
14.11139673990904
 20
7.546590040293501
 30
0.0
 10
14.11139673990904
 20
7.546590040293501
 30
0.0
 10
14.11386751932734
 20
7.543768022624533
 30
0.0
 10
14.11386751932734
 20
7.543768022624533
 30
0.0
 10
14.11386751932734
 20
7.543768022624533
 30
0.0
 10
14.11915897067426
 20
7.541298588946638
 30
0.0
 10
14.11915897067426
 20
7.541298588946638
 30
0.0
 10
14.11915897067426
 20
7.541298588946638
 30
0.0
 10
14.12445042202115
 20
7.541298588946638
 30
0.0
 10
14.12445042202115
 20
7.541298588946638
 30
0.0
 10
14.12445042202115
 20
7.541298588946638
 30
0.0
 10
14.13009176587825
 20
7.538476571277669
 30
0.0
 10
14.13009176587825
 20
7.538476571277669
 30
0.0
 10
14.13009176587825
 20
7.538476571277669
 30
0.0
 10
14.13538321722514
 20
7.535653207868264
 30
0.0
 10
14.13538321722514
 20
7.535653207868264
 30
0.0
 10
14.13538321722514
 20
7.535653207868264
 30
0.0
 10
14.14067466857195
 20
7.535653207868264
 30
0.0
 10
14.14067466857195
 20
7.535653207868264
 30
0.0
 10
14.14067466857195
 20
7.535653207868264
 30
0.0
 10
14.14596611991884
 20
7.533183774190362
 30
0.0
 10
14.14596611991884
 20
7.533183774190362
 30
0.0
 10
14.14596611991884
 20
7.533183774190362
 30
0.0
 10
14.14879217480914
 20
7.530361756521386
 30
0.0
 10
14.14879217480914
 20
7.530361756521386
 30
0.0
 10
14.14879217480914
 20
7.530361756521386
 30
0.0
 10
14.15408362615595
 20
7.527892322843484
 30
0.0
 10
14.15408362615595
 20
7.527892322843484
 30
0.0
 10
14.15408362615595
 20
7.527892322843484
 30
0.0
 10
14.15937507750284
 20
7.527892322843484
 30
0.0
 10
14.15937507750284
 20
7.527892322843484
 30
0.0
 10
14.17877527145414
 20
7.518014588131862
 30
0.0
 10
14.19712040491315
 20
7.506726517455987
 30
0.0
 10
14.21582081384396
 20
7.495789685030736
 30
0.0
 10
14.21582081384396
 20
7.495789685030736
 30
0.0
 10
14.22640371653772
 20
7.490145649692792
 30
0.0
 10
14.22640371653772
 20
7.490145649692792
 30
0.0
 10
14.22640371653772
 20
7.490145649692792
 30
0.0
 10
14.22922438846636
 20
7.487676216014882
 30
0.0
 10
14.22922438846636
 20
7.487676216014882
 30
0.0
 10
14.22922438846636
 20
7.487676216014882
 30
0.0
 10
14.23451583981314
 20
7.484854198345921
 30
0.0
 10
14.23451583981314
 20
7.484854198345921
 30
0.0
 10
14.23451583981314
 20
7.484854198345921
 30
0.0
 10
14.23698661923156
 20
7.482384764668012
 30
0.0
 10
14.23698661923156
 20
7.482384764668012
 30
0.0
 10
14.23698661923156
 20
7.482384764668012
 30
0.0
 10
14.24262796308856
 20
7.479562746999043
 30
0.0
 10
14.24262796308856
 20
7.479562746999043
 30
0.0
 10
14.24262796308856
 20
7.479562746999043
 30
0.0
 10
14.24791941443546
 20
7.47426994991175
 30
0.0
 10
14.24791941443546
 20
7.47426994991175
 30
0.0
 10
14.24791941443546
 20
7.47426994991175
 30
0.0
 10
14.25039019385373
 20
7.47144793224276
 30
0.0
 10
14.25039019385373
 20
7.47144793224276
 30
0.0
 10
14.25039019385373
 20
7.47144793224276
 30
0.0
 10
14.25603692067265
 20
7.468978498564865
 30
0.0
 10
14.25603692067265
 20
7.468978498564865
 30
0.0
 10
14.26696971587655
 20
7.456631330175341
 30
0.0
 10
14.26485421193014
 20
7.460512445557938
 30
0.0
 10
14.27473194664172
 20
7.452751560533172
 30
0.0
 10
14.27473194664172
 20
7.452751560533172
 30
0.0
 10
14.29060630068245
 20
7.436875860752117
 30
0.0
 10
14.29060630068245
 20
7.436875860752117
 30
0.0
  0
POLYLINE
  5
73F
330
1F
100
AcDbEntity
  8
Livello 1
100
AcDb2dPolyline
 66
     1
 10
0.0
 20
0.0
 30
0.0
  0
VERTEX
  5
740
330
73F
100
AcDbEntity
  8
Livello 1
100
AcDbVertex
100
AcDb2dVertex
 10
14.29068166214612
 20
7.439381629421461
 30
0.0
  0
VERTEX
  5
741
330
73F
100
AcDbEntity
  8
Livello 1
100
AcDbVertex
100
AcDb2dVertex
 10
14.32278026273765
 20
7.40727764586829
 30
0.0
  0
SEQEND
  5
742
330
73F
100
AcDbEntity
  8
Livello 1
  0
POLYLINE
  5
743
330
1F
100
AcDbEntity
  8
Livello 1
100
AcDb2dPolyline
 66
     1
 10
0.0
 20
0.0
 30
0.0
  0
VERTEX
  5
744
330
743
100
AcDbEntity
  8
Livello 1
100
AcDbVertex
100
AcDb2dVertex
 10
13.72545991817394
 20
7.407207667366257
 30
0.0
  0
VERTEX
  5
745
330
743
100
AcDbEntity
  8
Livello 1
100
AcDbVertex
100
AcDb2dVertex
 10
13.72545991817394
 20
7.565251422752083
 30
0.0
  0
SEQEND
  5
746
330
743
100
AcDbEntity
  8
Livello 1
  0
POLYLINE
  5
747
330
1F
100
AcDbEntity
  8
Livello 1
100
AcDb2dPolyline
 66
     1
 10
0.0
 20
0.0
 30
0.0
  0
VERTEX
  5
748
330
747
100
AcDbEntity
  8
Livello 1
100
AcDbVertex
100
AcDb2dVertex
 10
12.76375074754305
 20
5.845389778013327
 30
0.0
  0
VERTEX
  5
749
330
747
100
AcDbEntity
  8
Livello 1
100
AcDbVertex
100
AcDb2dVertex
 10
12.76375074754305
 20
5.840096980926027
 30
0.0
  0
VERTEX
  5
74A
330
747
100
AcDbEntity
  8
Livello 1
100
AcDbVertex
100
AcDb2dVertex
 10
12.76375074754305
 20
5.80517232544431
 30
0.0
  0
VERTEX
  5
74B
330
747
100
AcDbEntity
  8
Livello 1
100
AcDbVertex
100
AcDb2dVertex
 10
12.76375074754305
 20
5.799880874097425
 30
0.0
  0
SEQEND
  5
74C
330
747
100
AcDbEntity
  8
Livello 1
  0
POLYLINE
  5
74D
330
1F
100
AcDbEntity
  8
Livello 1
100
AcDb2dPolyline
 66
     1
 10
0.0
 20
0.0
 30
0.0
  0
VERTEX
  5
74E
330
74D
100
AcDbEntity
  8
Livello 1
100
AcDbVertex
100
AcDb2dVertex
 10
12.76375074754305
 20
7.144599881041386
 30
0.0
  0
VERTEX
  5
74F
330
74D
100
AcDbEntity
  8
Livello 1
100
AcDbVertex
100
AcDb2dVertex
 10
12.76375074754305
 20
7.136485066285118
 30
0.0
  0
VERTEX
  5
750
330
74D
100
AcDbEntity
  8
Livello 1
100
AcDbVertex
100
AcDb2dVertex
 10
12.76375074754305
 20
7.101912994794467
 30
0.0
  0
VERTEX
  5
751
330
74D
100
AcDbEntity
  8
Livello 1
100
AcDbVertex
100
AcDb2dVertex
 10
12.76375074754305
 20
7.099090977125491
 30
0.0
  0
SEQEND
  5
752
330
74D
100
AcDbEntity
  8
Livello 1
  0
POLYLINE
  5
753
330
1F
100
AcDbEntity
  8
Livello 1
100
AcDb2dPolyline
 66
     1
 10
0.0
 20
0.0
 30
0.0
  0
VERTEX
  5
754
330
753
100
AcDbEntity
  8
Livello 1
100
AcDbVertex
100
AcDb2dVertex
 10
2.165355890030966
 20
5.902751963583156
 30
0.0
  0
VERTEX
  5
755
330
753
100
AcDbEntity
  8
Livello 1
100
AcDbVertex
100
AcDb2dVertex
 10
0.8420839482231343
 20
5.902751963583156
 30
0.0
  0
SEQEND
  5
756
330
753
100
AcDbEntity
  8
Livello 1
  0
POLYLINE
  5
757
330
1F
100
AcDbEntity
  8
Livello 1
100
AcDb2dPolyline
 66
     1
 10
0.0
 20
0.0
 30
0.0
  0
VERTEX
  5
758
330
757
100
AcDbEntity
  8
Livello 1
100
AcDbVertex
100
AcDb2dVertex
 10
0.7150137544343381
 20
6.029963460116434
 30
0.0
  0
VERTEX
  5
759
330
757
100
AcDbEntity
  8
Livello 1
100
AcDbVertex
100
AcDb2dVertex
 10
0.7150137544343381
 20
6.024670663029141
 30
0.0
  0
VERTEX
  5
75A
330
757
100
AcDbEntity
  8
Livello 1
100
AcDbVertex
100
AcDb2dVertex
 10
0.7150137544343381
 20
6.009148892979574
 30
0.0
  0
VERTEX
  5
75B
330
757
100
AcDbEntity
  8
Livello 1
100
AcDbVertex
100
AcDb2dVertex
 10
0.7150137544343381
 20
6.006679459301665
 30
0.0
  0
VERTEX
  5
75C
330
757
100
AcDbEntity
  8
Livello 1
100
AcDbVertex
100
AcDb2dVertex
 10
0.717479150890938
 20
6.003857441632689
 30
0.0
  0
VERTEX
  5
75D
330
757
100
AcDbEntity
  8
Livello 1
100
AcDbVertex
100
AcDb2dVertex
 10
0.717479150890938
 20
5.996096556607916
 30
0.0
  0
VERTEX
  5
75E
330
757
100
AcDbEntity
  8
Livello 1
100
AcDbVertex
100
AcDb2dVertex
 10
0.7203052057812585
 20
5.993627122930014
 30
0.0
  0
VERTEX
  5
75F
330
757
100
AcDbEntity
  8
Livello 1
100
AcDbVertex
100
AcDb2dVertex
 10
0.7203052057812585
 20
5.988335671583136
 30
0.0
  0
VERTEX
  5
760
330
757
100
AcDbEntity
  8
Livello 1
100
AcDbVertex
100
AcDb2dVertex
 10
0.7227706022378442
 20
5.985866237905234
 30
0.0
  0
VERTEX
  5
761
330
757
100
AcDbEntity
  8
Livello 1
100
AcDbVertex
100
AcDb2dVertex
 10
0.7227706022378442
 20
5.980573440817927
 30
0.0
  0
VERTEX
  5
762
330
757
100
AcDbEntity
  8
Livello 1
100
AcDbVertex
100
AcDb2dVertex
 10
0.7252413816562467
 20
5.980573440817927
 30
0.0
  0
VERTEX
  5
763
330
757
100
AcDbEntity
  8
Livello 1
100
AcDbVertex
100
AcDb2dVertex
 10
0.7252413816562467
 20
5.975281989471056
 30
0.0
  0
VERTEX
  5
764
330
757
100
AcDbEntity
  8
Livello 1
100
AcDbVertex
100
AcDb2dVertex
 10
0.7280620535847504
 20
5.972812555793154
 30
0.0
  0
VERTEX
  5
765
330
757
100
AcDbEntity
  8
Livello 1
100
AcDbVertex
100
AcDb2dVertex
 10
0.7280620535847504
 20
5.970343122115252
 30
0.0
  0
VERTEX
  5
766
330
757
100
AcDbEntity
  8
Livello 1
100
AcDbVertex
100
AcDb2dVertex
 10
0.7305328330030534
 20
5.970343122115252
 30
0.0
  0
VERTEX
  5
767
330
757
100
AcDbEntity
  8
Livello 1
100
AcDbVertex
100
AcDb2dVertex
 10
0.7305328330030534
 20
5.965051670768367
 30
0.0
  0
VERTEX
  5
768
330
757
100
AcDbEntity
  8
Livello 1
100
AcDbVertex
100
AcDb2dVertex
 10
0.7333535049316425
 20
5.965051670768367
 30
0.0
  0
VERTEX
  5
769
330
757
100
AcDbEntity
  8
Livello 1
100
AcDbVertex
100
AcDb2dVertex
 10
0.7333535049316425
 20
5.962582237090472
 30
0.0
  0
VERTEX
  5
76A
330
757
100
AcDbEntity
  8
Livello 1
100
AcDbVertex
100
AcDb2dVertex
 10
0.7358242843499597
 20
5.959760219421497
 30
0.0
  0
VERTEX
  5
76B
330
757
100
AcDbEntity
  8
Livello 1
100
AcDbVertex
100
AcDb2dVertex
 10
0.7358242843499597
 20
5.957290785743602
 30
0.0
  0
VERTEX
  5
76C
330
757
100
AcDbEntity
  8
Livello 1
100
AcDbVertex
100
AcDb2dVertex
 10
0.7382950637682626
 20
5.957290785743602
 30
0.0
  0
VERTEX
  5
76D
330
757
100
AcDbEntity
  8
Livello 1
100
AcDbVertex
100
AcDb2dVertex
 10
0.7382950637682626
 20
5.954468768074612
 30
0.0
  0
VERTEX
  5
76E
330
757
100
AcDbEntity
  8
Livello 1
100
AcDbVertex
100
AcDb2dVertex
 10
0.7411157356968517
 20
5.954468768074612
 30
0.0
  0
VERTEX
  5
76F
330
757
100
AcDbEntity
  8
Livello 1
100
AcDbVertex
100
AcDb2dVertex
 10
0.7411157356968517
 20
5.951999334396717
 30
0.0
  0
VERTEX
  5
770
330
757
100
AcDbEntity
  8
Livello 1
100
AcDbVertex
100
AcDb2dVertex
 10
0.7435865151151547
 20
5.949529900718815
 30
0.0
  0
VERTEX
  5
771
330
757
100
AcDbEntity
  8
Livello 1
100
AcDbVertex
100
AcDb2dVertex
 10
0.7435865151151547
 20
5.946707883049832
 30
0.0
  0
VERTEX
  5
772
330
757
100
AcDbEntity
  8
Livello 1
100
AcDbVertex
100
AcDb2dVertex
 10
0.7460572945334434
 20
5.946707883049832
 30
0.0
  0
VERTEX
  5
773
330
757
100
AcDbEntity
  8
Livello 1
100
AcDbVertex
100
AcDb2dVertex
 10
0.7488779664620467
 20
5.94423844937193
 30
0.0
  0
VERTEX
  5
774
330
757
100
AcDbEntity
  8
Livello 1
100
AcDbVertex
100
AcDb2dVertex
 10
0.7488779664620467
 20
5.941769015694035
 30
0.0
  0
VERTEX
  5
775
330
757
100
AcDbEntity
  8
Livello 1
100
AcDbVertex
100
AcDb2dVertex
 10
0.7513487458803354
 20
5.941769015694035
 30
0.0
  0
VERTEX
  5
776
330
757
100
AcDbEntity
  8
Livello 1
100
AcDbVertex
100
AcDb2dVertex
 10
0.7513487458803354
 20
5.93894565228463
 30
0.0
  0
VERTEX
  5
777
330
757
100
AcDbEntity
  8
Livello 1
100
AcDbVertex
100
AcDb2dVertex
 10
0.7538141423369638
 20
5.93894565228463
 30
0.0
  0
VERTEX
  5
778
330
757
100
AcDbEntity
  8
Livello 1
100
AcDbVertex
100
AcDb2dVertex
 10
0.7566401972272559
 20
5.936476218606742
 30
0.0
  0
VERTEX
  5
779
330
757
100
AcDbEntity
  8
Livello 1
100
AcDbVertex
100
AcDb2dVertex
 10
0.7566401972272559
 20
5.934006784928826
 30
0.0
  0
VERTEX
  5
77A
330
757
100
AcDbEntity
  8
Livello 1
100
AcDbVertex
100
AcDb2dVertex
 10
0.7591109766455446
 20
5.934006784928826
 30
0.0
  0
VERTEX
  5
77B
330
757
100
AcDbEntity
  8
Livello 1
100
AcDbVertex
100
AcDb2dVertex
 10
0.7619316485741479
 20
5.931184767259857
 30
0.0
  0
VERTEX
  5
77C
330
757
100
AcDbEntity
  8
Livello 1
100
AcDbVertex
100
AcDb2dVertex
 10
0.7644024279924651
 20
5.931184767259857
 30
0.0
  0
VERTEX
  5
77D
330
757
100
AcDbEntity
  8
Livello 1
100
AcDbVertex
100
AcDb2dVertex
 10
0.7644024279924651
 20
5.928715333581955
 30
0.0
  0
VERTEX
  5
77E
330
757
100
AcDbEntity
  8
Livello 1
100
AcDbVertex
100
AcDb2dVertex
 10
0.7668678244490508
 20
5.928715333581955
 30
0.0
  0
VERTEX
  5
77F
330
757
100
AcDbEntity
  8
Livello 1
100
AcDbVertex
100
AcDb2dVertex
 10
0.7668678244490508
 20
5.92624589990406
 30
0.0
  0
VERTEX
  5
780
330
757
100
AcDbEntity
  8
Livello 1
100
AcDbVertex
100
AcDb2dVertex
 10
0.7696938793393429
 20
5.92624589990406
 30
0.0
  0
VERTEX
  5
781
330
757
100
AcDbEntity
  8
Livello 1
100
AcDbVertex
100
AcDb2dVertex
 10
0.772159275795957
 20
5.92342388223507
 30
0.0
  0
VERTEX
  5
782
330
757
100
AcDbEntity
  8
Livello 1
100
AcDbVertex
100
AcDb2dVertex
 10
0.77463005521426
 20
5.92342388223507
 30
0.0
  0
VERTEX
  5
783
330
757
100
AcDbEntity
  8
Livello 1
100
AcDbVertex
100
AcDb2dVertex
 10
0.77463005521426
 20
5.920954448557175
 30
0.0
  0
VERTEX
  5
784
330
757
100
AcDbEntity
  8
Livello 1
100
AcDbVertex
100
AcDb2dVertex
 10
0.779921506561152
 20
5.920954448557175
 30
0.0
  0
VERTEX
  5
785
330
757
100
AcDbEntity
  8
Livello 1
100
AcDbVertex
100
AcDb2dVertex
 10
0.779921506561152
 20
5.918132430888206
 30
0.0
  0
VERTEX
  5
786
330
757
100
AcDbEntity
  8
Livello 1
100
AcDbVertex
100
AcDb2dVertex
 10
0.7823922859794408
 20
5.918132430888206
 30
0.0
  0
VERTEX
  5
787
330
757
100
AcDbEntity
  8
Livello 1
100
AcDbVertex
100
AcDb2dVertex
 10
0.7852129579080441
 20
5.915662997210297
 30
0.0
  0
VERTEX
  5
788
330
757
100
AcDbEntity
  8
Livello 1
100
AcDbVertex
100
AcDb2dVertex
 10
0.7905044092549503
 20
5.915662997210297
 30
0.0
  0
VERTEX
  5
789
330
757
100
AcDbEntity
  8
Livello 1
100
AcDbVertex
100
AcDb2dVertex
 10
0.7905044092549503
 20
5.913193563532395
 30
0.0
  0
VERTEX
  5
78A
330
757
100
AcDbEntity
  8
Livello 1
100
AcDbVertex
100
AcDb2dVertex
 10
0.795445968091542
 20
5.913193563532395
 30
0.0
  0
VERTEX
  5
78B
330
757
100
AcDbEntity
  8
Livello 1
100
AcDbVertex
100
AcDb2dVertex
 10
0.7982666400201453
 20
5.910371545863426
 30
0.0
  0
VERTEX
  5
78C
330
757
100
AcDbEntity
  8
Livello 1
100
AcDbVertex
100
AcDb2dVertex
 10
0.8032081988567512
 20
5.910371545863426
 30
0.0
  0
VERTEX
  5
78D
330
757
100
AcDbEntity
  8
Livello 1
100
AcDbVertex
100
AcDb2dVertex
 10
0.8060288707853544
 20
5.90790211218551
 30
0.0
  0
VERTEX
  5
78E
330
757
100
AcDbEntity
  8
Livello 1
100
AcDbVertex
100
AcDb2dVertex
 10
0.8137911015505494
 20
5.90790211218551
 30
0.0
  0
VERTEX
  5
78F
330
757
100
AcDbEntity
  8
Livello 1
100
AcDbVertex
100
AcDb2dVertex
 10
0.8162564980071493
 20
5.905432678507615
 30
0.0
  0
VERTEX
  5
790
330
757
100
AcDbEntity
  8
Livello 1
100
AcDbVertex
100
AcDb2dVertex
 10
0.8187272774254381
 20
5.905432678507615
 30
0.0
  0
VERTEX
  5
791
330
757
100
AcDbEntity
  8
Livello 1
100
AcDbVertex
100
AcDb2dVertex
 10
0.8370724108844598
 20
5.905432678507615
 30
0.0
  0
VERTEX
  5
792
330
757
100
AcDbEntity
  8
Livello 1
100
AcDbVertex
100
AcDb2dVertex
 10
0.8423638622313518
 20
5.905432678507615
 30
0.0
  0
SEQEND
  5
793
330
757
100
AcDbEntity
  8
Livello 1
  0
POLYLINE
  5
794
330
1F
100
AcDbEntity
  8
Livello 1
100
AcDb2dPolyline
 66
     1
 10
0.0
 20
0.0
 30
0.0
  0
VERTEX
  5
795
330
794
100
AcDbEntity
  8
Livello 1
100
AcDbVertex
100
AcDb2dVertex
 10
0.7150137544343381
 20
6.029963460116434
 30
0.0
  0
VERTEX
  5
796
330
794
100
AcDbEntity
  8
Livello 1
100
AcDbVertex
100
AcDb2dVertex
 10
0.7150137544343381
 20
7.001160100736001
 30
0.0
  0
SEQEND
  5
797
330
794
100
AcDbEntity
  8
Livello 1
  0
POLYLINE
  5
798
330
1F
100
AcDbEntity
  8
Livello 1
100
AcDb2dPolyline
 66
     1
 10
0.0
 20
0.0
 30
0.0
  0
VERTEX
  5
799
330
798
100
AcDbEntity
  8
Livello 1
100
AcDbVertex
100
AcDb2dVertex
 10
0.8422615859590507
 20
7.128477910762754
 30
0.0
  0
VERTEX
  5
79A
330
798
100
AcDbEntity
  8
Livello 1
100
AcDbVertex
100
AcDb2dVertex
 10
0.8369647516505409
 20
7.128477910762754
 30
0.0
  0
VERTEX
  5
79B
330
798
100
AcDbEntity
  8
Livello 1
100
AcDbVertex
100
AcDb2dVertex
 10
0.8189748936634515
 20
7.128477910762754
 30
0.0
  0
VERTEX
  5
79C
330
798
100
AcDbEntity
  8
Livello 1
100
AcDbVertex
100
AcDb2dVertex
 10
0.8161542217349477
 20
7.128477910762754
 30
0.0
  0
VERTEX
  5
79D
330
798
100
AcDbEntity
  8
Livello 1
100
AcDbVertex
100
AcDb2dVertex
 10
0.8136834423166448
 20
7.126007131344422
 30
0.0
  0
VERTEX
  5
79E
330
798
100
AcDbEntity
  8
Livello 1
100
AcDbVertex
100
AcDb2dVertex
 10
0.8059212115513503
 20
7.126007131344422
 30
0.0
  0
VERTEX
  5
79F
330
798
100
AcDbEntity
  8
Livello 1
100
AcDbVertex
100
AcDb2dVertex
 10
0.8034558150947646
 20
7.123185113675454
 30
0.0
  0
VERTEX
  5
7A0
330
798
100
AcDbEntity
  8
Livello 1
100
AcDbVertex
100
AcDb2dVertex
 10
0.7981643637478442
 20
7.123185113675454
 30
0.0
  0
VERTEX
  5
7A1
330
798
100
AcDbEntity
  8
Livello 1
100
AcDbVertex
100
AcDb2dVertex
 10
0.7953383088576374
 20
7.120715679997559
 30
0.0
  0
VERTEX
  5
7A2
330
798
100
AcDbEntity
  8
Livello 1
100
AcDbVertex
100
AcDb2dVertex
 10
0.790402132982635
 20
7.120715679997559
 30
0.0
  0
VERTEX
  5
7A3
330
798
100
AcDbEntity
  8
Livello 1
100
AcDbVertex
100
AcDb2dVertex
 10
0.790402132982635
 20
7.11824624631965
 30
0.0
  0
VERTEX
  5
7A4
330
798
100
AcDbEntity
  8
Livello 1
100
AcDbVertex
100
AcDb2dVertex
 10
0.7851106816358425
 20
7.11824624631965
 30
0.0
  0
VERTEX
  5
7A5
330
798
100
AcDbEntity
  8
Livello 1
100
AcDbVertex
100
AcDb2dVertex
 10
0.7826399022174542
 20
7.115424228650674
 30
0.0
  0
VERTEX
  5
7A6
330
798
100
AcDbEntity
  8
Livello 1
100
AcDbVertex
100
AcDb2dVertex
 10
0.7798192302889504
 20
7.115424228650674
 30
0.0
  0
VERTEX
  5
7A7
330
798
100
AcDbEntity
  8
Livello 1
100
AcDbVertex
100
AcDb2dVertex
 10
0.7798192302889504
 20
7.112954794972772
 30
0.0
  0
VERTEX
  5
7A8
330
798
100
AcDbEntity
  8
Livello 1
100
AcDbVertex
100
AcDb2dVertex
 10
0.7748776714522592
 20
7.112954794972772
 30
0.0
  0
VERTEX
  5
7A9
330
798
100
AcDbEntity
  8
Livello 1
100
AcDbVertex
100
AcDb2dVertex
 10
0.7748776714522592
 20
7.110132777303796
 30
0.0
  0
VERTEX
  5
7AA
330
798
100
AcDbEntity
  8
Livello 1
100
AcDbVertex
100
AcDb2dVertex
 10
0.7720569995237554
 20
7.110132777303796
 30
0.0
  0
VERTEX
  5
7AB
330
798
100
AcDbEntity
  8
Livello 1
100
AcDbVertex
100
AcDb2dVertex
 10
0.7695862201054667
 20
7.107663343625887
 30
0.0
  0
VERTEX
  5
7AC
330
798
100
AcDbEntity
  8
Livello 1
100
AcDbVertex
100
AcDb2dVertex
 10
0.7667655481768492
 20
7.107663343625887
 30
0.0
  0
VERTEX
  5
7AD
330
798
100
AcDbEntity
  8
Livello 1
100
AcDbVertex
100
AcDb2dVertex
 10
0.7667655481768492
 20
7.105193909947999
 30
0.0
  0
VERTEX
  5
7AE
330
798
100
AcDbEntity
  8
Livello 1
100
AcDbVertex
100
AcDb2dVertex
 10
0.7642947687585462
 20
7.105193909947999
 30
0.0
  0
VERTEX
  5
7AF
330
798
100
AcDbEntity
  8
Livello 1
100
AcDbVertex
100
AcDb2dVertex
 10
0.7642947687585462
 20
7.102371892279023
 30
0.0
  0
VERTEX
  5
7B0
330
798
100
AcDbEntity
  8
Livello 1
100
AcDbVertex
100
AcDb2dVertex
 10
0.7618239893402575
 20
7.102371892279023
 30
0.0
  0
VERTEX
  5
7B1
330
798
100
AcDbEntity
  8
Livello 1
100
AcDbVertex
100
AcDb2dVertex
 10
0.75900331741164
 20
7.099902458601114
 30
0.0
  0
VERTEX
  5
7B2
330
798
100
AcDbEntity
  8
Livello 1
100
AcDbVertex
100
AcDb2dVertex
 10
0.756532537993337
 20
7.099902458601114
 30
0.0
  0
VERTEX
  5
7B3
330
798
100
AcDbEntity
  8
Livello 1
100
AcDbVertex
100
AcDb2dVertex
 10
0.756532537993337
 20
7.097433024923212
 30
0.0
  0
VERTEX
  5
7B4
330
798
100
AcDbEntity
  8
Livello 1
100
AcDbVertex
100
AcDb2dVertex
 10
0.7540671415366376
 20
7.09461100725425
 30
0.0
  0
VERTEX
  5
7B5
330
798
100
AcDbEntity
  8
Livello 1
100
AcDbVertex
100
AcDb2dVertex
 10
0.751241086646445
 20
7.09461100725425
 30
0.0
  0
VERTEX
  5
7B6
330
798
100
AcDbEntity
  8
Livello 1
100
AcDbVertex
100
AcDb2dVertex
 10
0.751241086646445
 20
7.092141573576327
 30
0.0
  0
VERTEX
  5
7B7
330
798
100
AcDbEntity
  8
Livello 1
100
AcDbVertex
100
AcDb2dVertex
 10
0.748770307228142
 20
7.092141573576327
 30
0.0
  0
VERTEX
  5
7B8
330
798
100
AcDbEntity
  8
Livello 1
100
AcDbVertex
100
AcDb2dVertex
 10
0.748770307228142
 20
7.089672139898432
 30
0.0
  0
VERTEX
  5
7B9
330
798
100
AcDbEntity
  8
Livello 1
100
AcDbVertex
100
AcDb2dVertex
 10
0.7463049107714426
 20
7.086850122229463
 30
0.0
  0
VERTEX
  5
7BA
330
798
100
AcDbEntity
  8
Livello 1
100
AcDbVertex
100
AcDb2dVertex
 10
0.74347885588125
 20
7.086850122229463
 30
0.0
  0
VERTEX
  5
7BB
330
798
100
AcDbEntity
  8
Livello 1
100
AcDbVertex
100
AcDb2dVertex
 10
0.74347885588125
 20
7.084380688551561
 30
0.0
  0
VERTEX
  5
7BC
330
798
100
AcDbEntity
  8
Livello 1
100
AcDbVertex
100
AcDb2dVertex
 10
0.7410134594246359
 20
7.081557325142163
 30
0.0
  0
VERTEX
  5
7BD
330
798
100
AcDbEntity
  8
Livello 1
100
AcDbVertex
100
AcDb2dVertex
 10
0.7410134594246359
 20
7.079087891464254
 30
0.0
  0
VERTEX
  5
7BE
330
798
100
AcDbEntity
  8
Livello 1
100
AcDbVertex
100
AcDb2dVertex
 10
0.7381874045343438
 20
7.079087891464254
 30
0.0
  0
VERTEX
  5
7BF
330
798
100
AcDbEntity
  8
Livello 1
100
AcDbVertex
100
AcDb2dVertex
 10
0.7381874045343438
 20
7.076618457786352
 30
0.0
  0
VERTEX
  5
7C0
330
798
100
AcDbEntity
  8
Livello 1
100
AcDbVertex
100
AcDb2dVertex
 10
0.735722008077758
 20
7.076618457786352
 30
0.0
  0
VERTEX
  5
7C1
330
798
100
AcDbEntity
  8
Livello 1
100
AcDbVertex
100
AcDb2dVertex
 10
0.735722008077758
 20
7.073796440117391
 30
0.0
  0
VERTEX
  5
7C2
330
798
100
AcDbEntity
  8
Livello 1
100
AcDbVertex
100
AcDb2dVertex
 10
0.7332512286594551
 20
7.071327006439467
 30
0.0
  0
VERTEX
  5
7C3
330
798
100
AcDbEntity
  8
Livello 1
100
AcDbVertex
100
AcDb2dVertex
 10
0.7332512286594551
 20
7.068857572761572
 30
0.0
  0
VERTEX
  5
7C4
330
798
100
AcDbEntity
  8
Livello 1
100
AcDbVertex
100
AcDb2dVertex
 10
0.7304305567308518
 20
7.068857572761572
 30
0.0
  0
VERTEX
  5
7C5
330
798
100
AcDbEntity
  8
Livello 1
100
AcDbVertex
100
AcDb2dVertex
 10
0.7304305567308518
 20
7.063566121414694
 30
0.0
  0
VERTEX
  5
7C6
330
798
100
AcDbEntity
  8
Livello 1
100
AcDbVertex
100
AcDb2dVertex
 10
0.7279597773125488
 20
7.063566121414694
 30
0.0
  0
VERTEX
  5
7C7
330
798
100
AcDbEntity
  8
Livello 1
100
AcDbVertex
100
AcDb2dVertex
 10
0.7279597773125488
 20
7.061096687736792
 30
0.0
  0
VERTEX
  5
7C8
330
798
100
AcDbEntity
  8
Livello 1
100
AcDbVertex
100
AcDb2dVertex
 10
0.7254889978942459
 20
7.058274670067824
 30
0.0
  0
VERTEX
  5
7C9
330
798
100
AcDbEntity
  8
Livello 1
100
AcDbVertex
100
AcDb2dVertex
 10
0.7254889978942459
 20
7.052983218720946
 30
0.0
  0
VERTEX
  5
7CA
330
798
100
AcDbEntity
  8
Livello 1
100
AcDbVertex
100
AcDb2dVertex
 10
0.7226683259656426
 20
7.052983218720946
 30
0.0
  0
VERTEX
  5
7CB
330
798
100
AcDbEntity
  8
Livello 1
100
AcDbVertex
100
AcDb2dVertex
 10
0.7226683259656426
 20
7.048044351365149
 30
0.0
  0
VERTEX
  5
7CC
330
798
100
AcDbEntity
  8
Livello 1
100
AcDbVertex
100
AcDb2dVertex
 10
0.7201975465473396
 20
7.045222333696166
 30
0.0
  0
VERTEX
  5
7CD
330
798
100
AcDbEntity
  8
Livello 1
100
AcDbVertex
100
AcDb2dVertex
 10
0.7201975465473396
 20
7.040283466340362
 30
0.0
  0
VERTEX
  5
7CE
330
798
100
AcDbEntity
  8
Livello 1
100
AcDbVertex
100
AcDb2dVertex
 10
0.7177267671290366
 20
7.037460102930964
 30
0.0
  0
VERTEX
  5
7CF
330
798
100
AcDbEntity
  8
Livello 1
100
AcDbVertex
100
AcDb2dVertex
 10
0.7177267671290366
 20
7.029699217906184
 30
0.0
  0
VERTEX
  5
7D0
330
798
100
AcDbEntity
  8
Livello 1
100
AcDbVertex
100
AcDb2dVertex
 10
0.7149060952004476
 20
7.027229784228289
 30
0.0
  0
VERTEX
  5
7D1
330
798
100
AcDbEntity
  8
Livello 1
100
AcDbVertex
100
AcDb2dVertex
 10
0.7149060952004476
 20
7.024407766559306
 30
0.0
  0
VERTEX
  5
7D2
330
798
100
AcDbEntity
  8
Livello 1
100
AcDbVertex
100
AcDb2dVertex
 10
0.7149060952004476
 20
7.006416562831851
 30
0.0
  0
VERTEX
  5
7D3
330
798
100
AcDbEntity
  8
Livello 1
100
AcDbVertex
100
AcDb2dVertex
 10
0.7149060952004476
 20
7.001125111484967
 30
0.0
  0
SEQEND
  5
7D4
330
798
100
AcDbEntity
  8
Livello 1
  0
POLYLINE
  5
7D5
330
1F
100
AcDbEntity
  8
Livello 1
100
AcDb2dPolyline
 66
     1
 10
0.0
 20
0.0
 30
0.0
  0
VERTEX
  5
7D6
330
7D5
100
AcDbEntity
  8
Livello 1
100
AcDbVertex
100
AcDb2dVertex
 10
0.8422615859590507
 20
7.128477910762754
 30
0.0
  0
VERTEX
  5
7D7
330
7D5
100
AcDbEntity
  8
Livello 1
100
AcDbVertex
100
AcDb2dVertex
 10
2.165528144805236
 20
7.128477910762754
 30
0.0
  0
SEQEND
  5
7D8
330
7D5
100
AcDbEntity
  8
Livello 1
  0
SPLINE
  5
7D9
330
1F
100
AcDbEntity
  8
Livello 1
100
AcDbSpline
210
0.0
220
0.0
230
1.0
 70
     8
 71
     3
 72
   176
 73
   172
 74
     0
 42
0.000000001
 43
0.0000000001
 40
0.0
 40
0.0
 40
0.0
 40
0.0
 40
1.0
 40
1.0
 40
1.0
 40
2.0
 40
2.0
 40
2.0
 40
3.0
 40
3.0
 40
3.0
 40
4.0
 40
4.0
 40
4.0
 40
5.0
 40
5.0
 40
5.0
 40
6.0
 40
6.0
 40
6.0
 40
7.0
 40
7.0
 40
7.0
 40
8.0
 40
8.0
 40
8.0
 40
9.0
 40
9.0
 40
9.0
 40
10.0
 40
10.0
 40
10.0
 40
11.0
 40
11.0
 40
11.0
 40
12.0
 40
12.0
 40
12.0
 40
13.0
 40
13.0
 40
13.0
 40
14.0
 40
14.0
 40
14.0
 40
15.0
 40
15.0
 40
15.0
 40
16.0
 40
16.0
 40
16.0
 40
17.0
 40
17.0
 40
17.0
 40
18.0
 40
18.0
 40
18.0
 40
19.0
 40
19.0
 40
19.0
 40
20.0
 40
20.0
 40
20.0
 40
21.0
 40
21.0
 40
21.0
 40
22.0
 40
22.0
 40
22.0
 40
23.0
 40
23.0
 40
23.0
 40
24.0
 40
24.0
 40
24.0
 40
25.0
 40
25.0
 40
25.0
 40
26.0
 40
26.0
 40
26.0
 40
27.0
 40
27.0
 40
27.0
 40
28.0
 40
28.0
 40
28.0
 40
29.0
 40
29.0
 40
29.0
 40
30.0
 40
30.0
 40
30.0
 40
31.0
 40
31.0
 40
31.0
 40
32.0
 40
32.0
 40
32.0
 40
33.0
 40
33.0
 40
33.0
 40
34.0
 40
34.0
 40
34.0
 40
35.0
 40
35.0
 40
35.0
 40
36.0
 40
36.0
 40
36.0
 40
37.0
 40
37.0
 40
37.0
 40
38.0
 40
38.0
 40
38.0
 40
39.0
 40
39.0
 40
39.0
 40
40.0
 40
40.0
 40
40.0
 40
41.0
 40
41.0
 40
41.0
 40
42.0
 40
42.0
 40
42.0
 40
43.0
 40
43.0
 40
43.0
 40
44.0
 40
44.0
 40
44.0
 40
45.0
 40
45.0
 40
45.0
 40
46.0
 40
46.0
 40
46.0
 40
47.0
 40
47.0
 40
47.0
 40
48.0
 40
48.0
 40
48.0
 40
49.0
 40
49.0
 40
49.0
 40
50.0
 40
50.0
 40
50.0
 40
51.0
 40
51.0
 40
51.0
 40
52.0
 40
52.0
 40
52.0
 40
53.0
 40
53.0
 40
53.0
 40
54.0
 40
54.0
 40
54.0
 40
55.0
 40
55.0
 40
55.0
 40
56.0
 40
56.0
 40
56.0
 40
57.0
 40
57.0
 40
57.0
 40
57.0
 10
1.517441088489462
 20
7.549165787464907
 30
0.0
 10
1.517441088489462
 20
7.549165787464907
 30
0.0
 10
1.307182604655253
 20
7.549165787464907
 30
0.0
 10
1.307182604655253
 20
7.549165787464907
 30
0.0
 10
1.307182604655253
 20
7.549165787464907
 30
0.0
 10
1.260264710515542
 20
7.549165787464907
 30
0.0
 10
1.260264710515542
 20
7.549165787464907
 30
0.0
 10
1.260264710515542
 20
7.549165787464907
 30
0.0
 10
1.25497325916865
 20
7.546695008046569
 30
0.0
 10
1.25497325916865
 20
7.546695008046569
 30
0.0
 10
1.25497325916865
 20
7.546695008046569
 30
0.0
 10
1.244740248985038
 20
7.546695008046569
 30
0.0
 10
1.244740248985038
 20
7.546695008046569
 30
0.0
 10
1.244740248985038
 20
7.546695008046569
 30
0.0
 10
1.239448797638246
 20
7.543872990377607
 30
0.0
 10
1.239448797638246
 20
7.543872990377607
 30
0.0
 10
1.239448797638246
 20
7.543872990377607
 30
0.0
 10
1.229221170416337
 20
7.543872990377607
 30
0.0
 10
1.229221170416337
 20
7.543872990377607
 30
0.0
 10
1.229221170416337
 20
7.543872990377607
 30
0.0
 10
1.223929719069545
 20
7.541403556699691
 30
0.0
 10
1.223929719069545
 20
7.541403556699691
 30
0.0
 10
1.223929719069545
 20
7.541403556699691
 30
0.0
 10
1.213696708885962
 20
7.541403556699691
 30
0.0
 10
1.213696708885962
 20
7.541403556699691
 30
0.0
 10
1.213696708885962
 20
7.541403556699691
 30
0.0
 10
1.208405257539141
 20
7.538934123021796
 30
0.0
 10
1.208405257539141
 20
7.538934123021796
 30
0.0
 10
1.208405257539141
 20
7.538934123021796
 30
0.0
 10
1.203113806192249
 20
7.538934123021796
 30
0.0
 10
1.203113806192249
 20
7.538934123021796
 30
0.0
 10
1.203113806192249
 20
7.538934123021796
 30
0.0
 10
1.198172247355543
 20
7.53611210535282
 30
0.0
 10
1.198172247355543
 20
7.53611210535282
 30
0.0
 10
1.198172247355543
 20
7.53611210535282
 30
0.0
 10
1.192880796008651
 20
7.53611210535282
 30
0.0
 10
1.192880796008651
 20
7.53611210535282
 30
0.0
 10
1.192880796008651
 20
7.53611210535282
 30
0.0
 10
1.187589344661844
 20
7.533642671674918
 30
0.0
 10
1.187589344661844
 20
7.533642671674918
 30
0.0
 10
1.187589344661844
 20
7.533642671674918
 30
0.0
 10
1.182297893314952
 20
7.533642671674918
 30
0.0
 10
1.182297893314952
 20
7.533642671674918
 30
0.0
 10
1.182297893314952
 20
7.533642671674918
 30
0.0
 10
1.179832496858352
 20
7.530820654005943
 30
0.0
 10
1.179832496858352
 20
7.530820654005943
 30
0.0
 10
1.179832496858352
 20
7.530820654005943
 30
0.0
 10
1.17454104551146
 20
7.528351220328048
 30
0.0
 10
1.17454104551146
 20
7.528351220328048
 30
0.0
 10
1.17454104551146
 20
7.528351220328048
 30
0.0
 10
1.169599486674755
 20
7.528351220328048
 30
0.0
 10
1.169599486674755
 20
7.528351220328048
 30
0.0
 10
1.169599486674755
 20
7.528351220328048
 30
0.0
 10
1.164308035327948
 20
7.525881786650131
 30
0.0
 10
1.164308035327948
 20
7.525881786650131
 30
0.0
 10
1.164308035327948
 20
7.525881786650131
 30
0.0
 10
1.159016583981042
 20
7.52305976898117
 30
0.0
 10
1.159016583981042
 20
7.52305976898117
 30
0.0
 10
1.159016583981042
 20
7.52305976898117
 30
0.0
 10
1.15372513263415
 20
7.52305976898117
 30
0.0
 10
1.15372513263415
 20
7.52305976898117
 30
0.0
 10
1.15372513263415
 20
7.52305976898117
 30
0.0
 10
1.148783573797558
 20
7.520590335303261
 30
0.0
 10
1.148783573797558
 20
7.520590335303261
 30
0.0
 10
1.148783573797558
 20
7.520590335303261
 30
0.0
 10
1.145962901868955
 20
7.518120901625358
 30
0.0
 10
1.145962901868955
 20
7.518120901625358
 30
0.0
 10
1.145962901868955
 20
7.518120901625358
 30
0.0
 10
1.141026725993967
 20
7.515298883956397
 30
0.0
 10
1.141026725993967
 20
7.515298883956397
 30
0.0
 10
1.141026725993967
 20
7.515298883956397
 30
0.0
 10
1.135735274647146
 20
7.515298883956397
 30
0.0
 10
1.135735274647146
 20
7.515298883956397
 30
0.0
 10
1.117034865716249
 20
7.505773733235848
 30
0.0
 10
1.099045007729245
 20
7.494836900810597
 30
0.0
 10
1.081049766780452
 20
7.484253998116848
 30
0.0
 10
1.081049766780452
 20
7.484253998116848
 30
0.0
 10
1.070822139558643
 20
7.47896254676997
 30
0.0
 10
1.070822139558643
 20
7.47896254676997
 30
0.0
 10
1.070822139558643
 20
7.47896254676997
 30
0.0
 10
1.06800146763004
 20
7.476493113092061
 30
0.0
 10
1.06800146763004
 20
7.476493113092061
 30
0.0
 10
1.06800146763004
 20
7.476493113092061
 30
0.0
 10
1.063059908793448
 20
7.4736710954231
 30
0.0
 10
1.063059908793448
 20
7.4736710954231
 30
0.0
 10
1.063059908793448
 20
7.4736710954231
 30
0.0
 10
1.060239236864831
 20
7.47120166174519
 30
0.0
 10
1.060239236864831
 20
7.47120166174519
 30
0.0
 10
1.060239236864831
 20
7.47120166174519
 30
0.0
 10
1.055297678028239
 20
7.468732228067288
 30
0.0
 10
1.055297678028239
 20
7.468732228067288
 30
0.0
 10
1.055297678028239
 20
7.468732228067288
 30
0.0
 10
1.047540830224747
 20
7.460971343042501
 30
0.0
 10
1.047540830224747
 20
7.460971343042501
 30
0.0
 10
1.047540830224747
 20
7.460971343042501
 30
0.0
 10
1.042249378877855
 20
7.45814797963311
 30
0.0
 10
1.042249378877855
 20
7.45814797963311
 30
0.0
 10
1.031311200712153
 20
7.446153395234652
 30
0.0
 10
1.033426704658552
 20
7.450387094608331
 30
0.0
 10
1.023904245418833
 20
7.442626209583558
 30
0.0
 10
1.023904245418833
 20
7.442626209583558
 30
0.0
 10
1.000617553123248
 20
7.419343554509211
 30
0.0
 10
1.000617553123248
 20
7.419343554509211
 30
0.0
 10
0.9639326691670504
 20
7.38194811960917
 30
0.0
 10
0.9448823677259525
 20
7.345259198431676
 30
0.0
 10
0.9201853394660446
 20
7.299751640256204
 30
0.0
 10
0.9201853394660446
 20
7.299751640256204
 30
0.0
 10
0.9201853394660446
 20
7.294812772900392
 30
0.0
 10
0.9201853394660446
 20
7.294812772900392
 30
0.0
 10
0.9201853394660446
 20
7.294812772900392
 30
0.0
 10
0.9173646675375408
 20
7.289521321553529
 30
0.0
 10
0.9173646675375408
 20
7.289521321553529
 30
0.0
 10
0.9173646675375408
 20
7.289521321553529
 30
0.0
 10
0.9148938881192378
 20
7.286697958144124
 30
0.0
 10
0.9148938881192378
 20
7.286697958144124
 30
0.0
 10
0.9148938881192378
 20
7.286697958144124
 30
0.0
 10
0.9124231087008496
 20
7.28175909078832
 30
0.0
 10
0.9124231087008496
 20
7.28175909078832
 30
0.0
 10
0.9124231087008496
 20
7.28175909078832
 30
0.0
 10
0.9124231087008496
 20
7.276467639441442
 30
0.0
 10
0.9124231087008496
 20
7.276467639441442
 30
0.0
 10
0.9124231087008496
 20
7.276467639441442
 30
0.0
 10
0.907131657354057
 20
7.266237320738767
 30
0.0
 10
0.907131657354057
 20
7.266237320738767
 30
0.0
 10
0.907131657354057
 20
7.266237320738767
 30
0.0
 10
0.907131657354057
 20
7.260945869391889
 30
0.0
 10
0.907131657354057
 20
7.260945869391889
 30
0.0
 10
0.907131657354057
 20
7.260945869391889
 30
0.0
 10
0.9046608779356404
 20
7.255654418045004
 30
0.0
 10
0.9046608779356404
 20
7.255654418045004
 30
0.0
 10
0.9046608779356404
 20
7.255654418045004
 30
0.0
 10
0.9018402060071366
 20
7.253184984367102
 30
0.0
 10
0.9018402060071366
 20
7.253184984367102
 30
0.0
 10
0.9018402060071366
 20
7.253184984367102
 30
0.0
 10
0.9018402060071366
 20
7.247893533020224
 30
0.0
 10
0.9018402060071366
 20
7.247893533020224
 30
0.0
 10
0.9018402060071366
 20
7.247893533020224
 30
0.0
 10
0.8993694265888478
 20
7.242600735932924
 30
0.0
 10
0.8993694265888478
 20
7.242600735932924
 30
0.0
 10
0.8993694265888478
 20
7.242600735932924
 30
0.0
 10
0.8993694265888478
 20
7.23766186857712
 30
0.0
 10
0.8993694265888478
 20
7.23766186857712
 30
0.0
 10
0.8993694265888478
 20
7.23766186857712
 30
0.0
 10
0.8969040301321484
 20
7.232370417230242
 30
0.0
 10
0.8969040301321484
 20
7.232370417230242
 30
0.0
 10
0.8969040301321484
 20
7.232370417230242
 30
0.0
 10
0.8969040301321484
 20
7.227078965883372
 30
0.0
 10
0.8969040301321484
 20
7.227078965883372
 30
0.0
 10
0.8969040301321484
 20
7.227078965883372
 30
0.0
 10
0.8940779752419558
 20
7.221787514536494
 30
0.0
 10
0.8940779752419558
 20
7.221787514536494
 30
0.0
 10
0.8940779752419558
 20
7.221787514536494
 30
0.0
 10
0.8940779752419558
 20
7.211557195833819
 30
0.0
 10
0.8940779752419558
 20
7.211557195833819
 30
0.0
 10
0.8940779752419558
 20
7.211557195833819
 30
0.0
 10
0.8916125787853417
 20
7.206265744486934
 30
0.0
 10
0.8916125787853417
 20
7.206265744486934
 30
0.0
 10
0.8916125787853417
 20
7.206265744486934
 30
0.0
 10
0.8916125787853417
 20
7.196034080043823
 30
0.0
 10
0.8916125787853417
 20
7.196034080043823
 30
0.0
 10
0.8916125787853417
 20
7.196034080043823
 30
0.0
 10
0.8891417993669534
 20
7.190742628696959
 30
0.0
 10
0.8891417993669534
 20
7.190742628696959
 30
0.0
 10
0.8891417993669534
 20
7.190742628696959
 30
0.0
 10
0.8891417993669534
 20
7.180512309994277
 30
0.0
 10
0.8891417993669534
 20
7.180512309994277
 30
0.0
 10
0.8891417993669534
 20
7.180512309994277
 30
0.0
 10
0.8863211274384497
 20
7.175220858647392
 30
0.0
 10
0.8863211274384497
 20
7.175220858647392
 30
0.0
 10
0.8863211274384497
 20
7.175220858647392
 30
0.0
 10
0.8863211274384497
 20
7.128301618767224
 30
0.0
 10
0.8863211274384497
 20
7.128301618767224
 30
0.0
  0
POLYLINE
  5
7DA
330
1F
100
AcDbEntity
  8
Livello 1
100
AcDb2dPolyline
 66
     1
 10
0.0
 20
0.0
 30
0.0
  0
VERTEX
  5
7DB
330
7DA
100
AcDbEntity
  8
Livello 1
100
AcDbVertex
100
AcDb2dVertex
 10
1.559002935741958
 20
7.507644312425099
 30
0.0
  0
VERTEX
  5
7DC
330
7DA
100
AcDbEntity
  8
Livello 1
100
AcDbVertex
100
AcDb2dVertex
 10
1.556532156323655
 20
7.510113746103002
 30
0.0
  0
VERTEX
  5
7DD
330
7DA
100
AcDbEntity
  8
Livello 1
100
AcDbVertex
100
AcDb2dVertex
 10
1.556532156323655
 20
7.523166082474652
 30
0.0
  0
VERTEX
  5
7DE
330
7DA
100
AcDbEntity
  8
Livello 1
100
AcDbVertex
100
AcDb2dVertex
 10
1.553706101433348
 20
7.523166082474652
 30
0.0
  0
VERTEX
  5
7DF
330
7DA
100
AcDbEntity
  8
Livello 1
100
AcDbVertex
100
AcDb2dVertex
 10
1.553706101433348
 20
7.528457533821537
 30
0.0
  0
VERTEX
  5
7E0
330
7DA
100
AcDbEntity
  8
Livello 1
100
AcDbVertex
100
AcDb2dVertex
 10
1.551240704976763
 20
7.528457533821537
 30
0.0
  0
VERTEX
  5
7E1
330
7DA
100
AcDbEntity
  8
Livello 1
100
AcDbVertex
100
AcDb2dVertex
 10
1.551240704976763
 20
7.533748985168401
 30
0.0
  0
VERTEX
  5
7E2
330
7DA
100
AcDbEntity
  8
Livello 1
100
AcDbVertex
100
AcDb2dVertex
 10
1.54876992555846
 20
7.533748985168401
 30
0.0
  0
VERTEX
  5
7E3
330
7DA
100
AcDbEntity
  8
Livello 1
100
AcDbVertex
100
AcDb2dVertex
 10
1.54876992555846
 20
7.53621841884631
 30
0.0
  0
VERTEX
  5
7E4
330
7DA
100
AcDbEntity
  8
Livello 1
100
AcDbVertex
100
AcDb2dVertex
 10
1.545949253629842
 20
7.53621841884631
 30
0.0
  0
VERTEX
  5
7E5
330
7DA
100
AcDbEntity
  8
Livello 1
100
AcDbVertex
100
AcDb2dVertex
 10
1.545949253629842
 20
7.538687852524212
 30
0.0
  0
VERTEX
  5
7E6
330
7DA
100
AcDbEntity
  8
Livello 1
100
AcDbVertex
100
AcDb2dVertex
 10
1.543478474211539
 20
7.538687852524212
 30
0.0
  0
VERTEX
  5
7E7
330
7DA
100
AcDbEntity
  8
Livello 1
100
AcDbVertex
100
AcDb2dVertex
 10
1.543478474211539
 20
7.541509870193188
 30
0.0
  0
VERTEX
  5
7E8
330
7DA
100
AcDbEntity
  8
Livello 1
100
AcDbVertex
100
AcDb2dVertex
 10
1.54065780228295
 20
7.541509870193188
 30
0.0
  0
VERTEX
  5
7E9
330
7DA
100
AcDbEntity
  8
Livello 1
100
AcDbVertex
100
AcDb2dVertex
 10
1.54065780228295
 20
7.543979303871097
 30
0.0
  0
VERTEX
  5
7EA
330
7DA
100
AcDbEntity
  8
Livello 1
100
AcDbVertex
100
AcDb2dVertex
 10
1.535716243446344
 20
7.543979303871097
 30
0.0
  0
VERTEX
  5
7EB
330
7DA
100
AcDbEntity
  8
Livello 1
100
AcDbVertex
100
AcDb2dVertex
 10
1.535716243446344
 20
7.546448737548992
 30
0.0
  0
VERTEX
  5
7EC
330
7DA
100
AcDbEntity
  8
Livello 1
100
AcDbVertex
100
AcDb2dVertex
 10
1.530424792099452
 20
7.546448737548992
 30
0.0
  0
VERTEX
  5
7ED
330
7DA
100
AcDbEntity
  8
Livello 1
100
AcDbVertex
100
AcDb2dVertex
 10
1.530424792099452
 20
7.54927075521796
 30
0.0
  0
VERTEX
  5
7EE
330
7DA
100
AcDbEntity
  8
Livello 1
100
AcDbVertex
100
AcDb2dVertex
 10
1.517371109987337
 20
7.54927075521796
 30
0.0
  0
SEQEND
  5
7EF
330
7DA
100
AcDbEntity
  8
Livello 1
  0
POLYLINE
  5
7F0
330
1F
100
AcDbEntity
  8
Livello 1
100
AcDb2dPolyline
 66
     1
 10
0.0
 20
0.0
 30
0.0
  0
VERTEX
  5
7F1
330
7F0
100
AcDbEntity
  8
Livello 1
100
AcDbVertex
100
AcDb2dVertex
 10
1.559002935741958
 20
7.128477910762754
 30
0.0
  0
VERTEX
  5
7F2
330
7F0
100
AcDbEntity
  8
Livello 1
100
AcDbVertex
100
AcDb2dVertex
 10
1.559002935741958
 20
7.50771294518671
 30
0.0
  0
SEQEND
  5
7F3
330
7F0
100
AcDbEntity
  8
Livello 1
  0
POLYLINE
  5
7F4
330
1F
100
AcDbEntity
  8
Livello 1
100
AcDb2dPolyline
 66
     1
 10
0.0
 20
0.0
 30
0.0
  0
VERTEX
  5
7F5
330
7F4
100
AcDbEntity
  8
Livello 1
100
AcDbVertex
100
AcDb2dVertex
 10
1.517441088489462
 20
5.510604549791622
 30
0.0
  0
VERTEX
  5
7F6
330
7F4
100
AcDbEntity
  8
Livello 1
100
AcDbVertex
100
AcDb2dVertex
 10
1.517441088489462
 20
5.513073983469539
 30
0.0
  0
VERTEX
  5
7F7
330
7F4
100
AcDbEntity
  8
Livello 1
100
AcDbVertex
100
AcDb2dVertex
 10
1.530489387639747
 20
5.513073983469539
 30
0.0
  0
VERTEX
  5
7F8
330
7F4
100
AcDbEntity
  8
Livello 1
100
AcDbVertex
100
AcDb2dVertex
 10
1.530489387639747
 20
5.515896001138507
 30
0.0
  0
VERTEX
  5
7F9
330
7F4
100
AcDbEntity
  8
Livello 1
100
AcDbVertex
100
AcDb2dVertex
 10
1.535780838986639
 20
5.515896001138507
 30
0.0
  0
VERTEX
  5
7FA
330
7F4
100
AcDbEntity
  8
Livello 1
100
AcDbVertex
100
AcDb2dVertex
 10
1.538251618405027
 20
5.518365434816402
 30
0.0
  0
VERTEX
  5
7FB
330
7F4
100
AcDbEntity
  8
Livello 1
100
AcDbVertex
100
AcDb2dVertex
 10
1.54072239782333
 20
5.518365434816402
 30
0.0
  0
VERTEX
  5
7FC
330
7F4
100
AcDbEntity
  8
Livello 1
100
AcDbVertex
100
AcDb2dVertex
 10
1.54072239782333
 20
5.520834868494311
 30
0.0
  0
VERTEX
  5
7FD
330
7F4
100
AcDbEntity
  8
Livello 1
100
AcDbVertex
100
AcDb2dVertex
 10
1.543543069751834
 20
5.520834868494311
 30
0.0
  0
VERTEX
  5
7FE
330
7F4
100
AcDbEntity
  8
Livello 1
100
AcDbVertex
100
AcDb2dVertex
 10
1.546013849170137
 20
5.523656886163287
 30
0.0
  0
VERTEX
  5
7FF
330
7F4
100
AcDbEntity
  8
Livello 1
100
AcDbVertex
100
AcDb2dVertex
 10
1.548484628588553
 20
5.523656886163287
 30
0.0
  0
VERTEX
  5
800
330
7F4
100
AcDbEntity
  8
Livello 1
100
AcDbVertex
100
AcDb2dVertex
 10
1.548484628588553
 20
5.526126319841189
 30
0.0
  0
VERTEX
  5
801
330
7F4
100
AcDbEntity
  8
Livello 1
100
AcDbVertex
100
AcDb2dVertex
 10
1.551305300517057
 20
5.528948337510151
 30
0.0
  0
VERTEX
  5
802
330
7F4
100
AcDbEntity
  8
Livello 1
100
AcDbVertex
100
AcDb2dVertex
 10
1.551305300517057
 20
5.531417771188067
 30
0.0
  0
VERTEX
  5
803
330
7F4
100
AcDbEntity
  8
Livello 1
100
AcDbVertex
100
AcDb2dVertex
 10
1.553776079935332
 20
5.531417771188067
 30
0.0
  0
VERTEX
  5
804
330
7F4
100
AcDbEntity
  8
Livello 1
100
AcDbVertex
100
AcDb2dVertex
 10
1.553776079935332
 20
5.533887204865962
 30
0.0
  0
VERTEX
  5
805
330
7F4
100
AcDbEntity
  8
Livello 1
100
AcDbVertex
100
AcDb2dVertex
 10
1.556241476392031
 20
5.536709222534938
 30
0.0
  0
VERTEX
  5
806
330
7F4
100
AcDbEntity
  8
Livello 1
100
AcDbVertex
100
AcDb2dVertex
 10
1.556241476392031
 20
5.541648089890749
 30
0.0
  0
VERTEX
  5
807
330
7F4
100
AcDbEntity
  8
Livello 1
100
AcDbVertex
100
AcDb2dVertex
 10
1.559067531282252
 20
5.541648089890749
 30
0.0
  0
VERTEX
  5
808
330
7F4
100
AcDbEntity
  8
Livello 1
100
AcDbVertex
100
AcDb2dVertex
 10
1.559067531282252
 20
5.554701772002822
 30
0.0
  0
VERTEX
  5
809
330
7F4
100
AcDbEntity
  8
Livello 1
100
AcDbVertex
100
AcDb2dVertex
 10
1.56153831070064
 20
5.554701772002822
 30
0.0
  0
SEQEND
  5
80A
330
7F4
100
AcDbEntity
  8
Livello 1
  0
POLYLINE
  5
80B
330
1F
100
AcDbEntity
  8
Livello 1
100
AcDb2dPolyline
 66
     1
 10
0.0
 20
0.0
 30
0.0
  0
VERTEX
  5
80C
330
80B
100
AcDbEntity
  8
Livello 1
100
AcDbVertex
100
AcDb2dVertex
 10
1.307118009114958
 20
5.510604549791622
 30
0.0
  0
VERTEX
  5
80D
330
80B
100
AcDbEntity
  8
Livello 1
100
AcDbVertex
100
AcDb2dVertex
 10
1.517371109987337
 20
5.510604549791622
 30
0.0
  0
SEQEND
  5
80E
330
80B
100
AcDbEntity
  8
Livello 1
  0
SPLINE
  5
80F
330
1F
100
AcDbEntity
  8
Livello 1
100
AcDbSpline
210
0.0
220
0.0
230
1.0
 70
     8
 71
     3
 72
   227
 73
   223
 74
     0
 42
0.000000001
 43
0.0000000001
 40
0.0
 40
0.0
 40
0.0
 40
0.0
 40
1.0
 40
1.0
 40
1.0
 40
2.0
 40
2.0
 40
2.0
 40
3.0
 40
3.0
 40
3.0
 40
4.0
 40
4.0
 40
4.0
 40
5.0
 40
5.0
 40
5.0
 40
6.0
 40
6.0
 40
6.0
 40
7.0
 40
7.0
 40
7.0
 40
8.0
 40
8.0
 40
8.0
 40
9.0
 40
9.0
 40
9.0
 40
10.0
 40
10.0
 40
10.0
 40
11.0
 40
11.0
 40
11.0
 40
12.0
 40
12.0
 40
12.0
 40
13.0
 40
13.0
 40
13.0
 40
14.0
 40
14.0
 40
14.0
 40
15.0
 40
15.0
 40
15.0
 40
16.0
 40
16.0
 40
16.0
 40
17.0
 40
17.0
 40
17.0
 40
18.0
 40
18.0
 40
18.0
 40
19.0
 40
19.0
 40
19.0
 40
20.0
 40
20.0
 40
20.0
 40
21.0
 40
21.0
 40
21.0
 40
22.0
 40
22.0
 40
22.0
 40
23.0
 40
23.0
 40
23.0
 40
24.0
 40
24.0
 40
24.0
 40
25.0
 40
25.0
 40
25.0
 40
26.0
 40
26.0
 40
26.0
 40
27.0
 40
27.0
 40
27.0
 40
28.0
 40
28.0
 40
28.0
 40
29.0
 40
29.0
 40
29.0
 40
30.0
 40
30.0
 40
30.0
 40
31.0
 40
31.0
 40
31.0
 40
32.0
 40
32.0
 40
32.0
 40
33.0
 40
33.0
 40
33.0
 40
34.0
 40
34.0
 40
34.0
 40
35.0
 40
35.0
 40
35.0
 40
36.0
 40
36.0
 40
36.0
 40
37.0
 40
37.0
 40
37.0
 40
38.0
 40
38.0
 40
38.0
 40
39.0
 40
39.0
 40
39.0
 40
40.0
 40
40.0
 40
40.0
 40
41.0
 40
41.0
 40
41.0
 40
42.0
 40
42.0
 40
42.0
 40
43.0
 40
43.0
 40
43.0
 40
44.0
 40
44.0
 40
44.0
 40
45.0
 40
45.0
 40
45.0
 40
46.0
 40
46.0
 40
46.0
 40
47.0
 40
47.0
 40
47.0
 40
48.0
 40
48.0
 40
48.0
 40
49.0
 40
49.0
 40
49.0
 40
50.0
 40
50.0
 40
50.0
 40
51.0
 40
51.0
 40
51.0
 40
52.0
 40
52.0
 40
52.0
 40
53.0
 40
53.0
 40
53.0
 40
54.0
 40
54.0
 40
54.0
 40
55.0
 40
55.0
 40
55.0
 40
56.0
 40
56.0
 40
56.0
 40
57.0
 40
57.0
 40
57.0
 40
58.0
 40
58.0
 40
58.0
 40
59.0
 40
59.0
 40
59.0
 40
60.0
 40
60.0
 40
60.0
 40
61.0
 40
61.0
 40
61.0
 40
62.0
 40
62.0
 40
62.0
 40
63.0
 40
63.0
 40
63.0
 40
64.0
 40
64.0
 40
64.0
 40
65.0
 40
65.0
 40
65.0
 40
66.0
 40
66.0
 40
66.0
 40
67.0
 40
67.0
 40
67.0
 40
68.0
 40
68.0
 40
68.0
 40
69.0
 40
69.0
 40
69.0
 40
70.0
 40
70.0
 40
70.0
 40
71.0
 40
71.0
 40
71.0
 40
72.0
 40
72.0
 40
72.0
 40
73.0
 40
73.0
 40
73.0
 40
74.0
 40
74.0
 40
74.0
 40
74.0
 10
0.8864287866723543
 20
5.902751963583156
 30
0.0
 10
0.8864287866723543
 20
5.902751963583156
 30
0.0
 10
0.8864287866723543
 20
5.884406830124191
 30
0.0
 10
0.8864287866723543
 20
5.884406830124191
 30
0.0
 10
0.8864287866723543
 20
5.884406830124191
 30
0.0
 10
0.8888941831289542
 20
5.879467962768394
 30
0.0
 10
0.8888941831289542
 20
5.879467962768394
 30
0.0
 10
0.8888941831289542
 20
5.879467962768394
 30
0.0
 10
0.8888941831289542
 20
5.863946192718834
 30
0.0
 10
0.8888941831289542
 20
5.863946192718834
 30
0.0
 10
0.8888941831289542
 20
5.863946192718834
 30
0.0
 10
0.8917202380192605
 20
5.858654741371957
 30
0.0
 10
0.8917202380192605
 20
5.858654741371957
 30
0.0
 10
0.8917202380192605
 20
5.858654741371957
 30
0.0
 10
0.8917202380192605
 20
5.85336194428465
 30
0.0
 10
0.8917202380192605
 20
5.85336194428465
 30
0.0
 10
0.8917202380192605
 20
5.85336194428465
 30
0.0
 10
0.8941856344758463
 20
5.848070492937786
 30
0.0
 10
0.8941856344758463
 20
5.848070492937786
 30
0.0
 10
0.8941856344758463
 20
5.848070492937786
 30
0.0
 10
0.8941856344758463
 20
5.837840174235097
 30
0.0
 10
0.8941856344758463
 20
5.837840174235097
 30
0.0
 10
0.8941856344758463
 20
5.837840174235097
 30
0.0
 10
0.896656413894135
 20
5.832548722888226
 30
0.0
 10
0.896656413894135
 20
5.832548722888226
 30
0.0
 10
0.896656413894135
 20
5.832548722888226
 30
0.0
 10
0.896656413894135
 20
5.827257271541348
 30
0.0
 10
0.896656413894135
 20
5.827257271541348
 30
0.0
 10
0.896656413894135
 20
5.827257271541348
 30
0.0
 10
0.8994770858227525
 20
5.822318404185537
 30
0.0
 10
0.8994770858227525
 20
5.822318404185537
 30
0.0
 10
0.8994770858227525
 20
5.822318404185537
 30
0.0
 10
0.8994770858227525
 20
5.817026952838673
 30
0.0
 10
0.8994770858227525
 20
5.817026952838673
 30
0.0
 10
0.8994770858227525
 20
5.817026952838673
 30
0.0
 10
0.9044186446593442
 20
5.806795288395562
 30
0.0
 10
0.9044186446593442
 20
5.806795288395562
 30
0.0
 10
0.9044186446593442
 20
5.806795288395562
 30
0.0
 10
0.9044186446593442
 20
5.801503837048684
 30
0.0
 10
0.9044186446593442
 20
5.801503837048684
 30
0.0
 10
0.9044186446593442
 20
5.801503837048684
 30
0.0
 10
0.9072393165879475
 20
5.798681819379702
 30
0.0
 10
0.9072393165879475
 20
5.798681819379702
 30
0.0
 10
0.9072393165879475
 20
5.798681819379702
 30
0.0
 10
0.9097100960062505
 20
5.793742952023897
 30
0.0
 10
0.9097100960062505
 20
5.793742952023897
 30
0.0
 10
0.9097100960062505
 20
5.793742952023897
 30
0.0
 10
0.9097100960062505
 20
5.788451500677027
 30
0.0
 10
0.9097100960062505
 20
5.788451500677027
 30
0.0
 10
0.9097100960062505
 20
5.788451500677027
 30
0.0
 10
0.9150015473531425
 20
5.778221181974345
 30
0.0
 10
0.9150015473531425
 20
5.778221181974345
 30
0.0
 10
0.9150015473531425
 20
5.778221181974345
 30
0.0
 10
0.9150015473531425
 20
5.77292973062746
 30
0.0
 10
0.9150015473531425
 20
5.77292973062746
 30
0.0
 10
0.9150015473531425
 20
5.77292973062746
 30
0.0
 10
0.9174723267714597
 20
5.767636933540167
 30
0.0
 10
0.9174723267714597
 20
5.767636933540167
 30
0.0
 10
0.9174723267714597
 20
5.767636933540167
 30
0.0
 10
0.9202929986999492
 20
5.765167499862265
 30
0.0
 10
0.9202929986999492
 20
5.765167499862265
 30
0.0
 10
0.9202929986999492
 20
5.765167499862265
 30
0.0
 10
0.9280552294652579
 20
5.749645729812712
 30
0.0
 10
0.9280552294652579
 20
5.749645729812712
 30
0.0
 10
0.9280552294652579
 20
5.749645729812712
 30
0.0
 10
0.9280552294652579
 20
5.744354278465827
 30
0.0
 10
0.9280552294652579
 20
5.744354278465827
 30
0.0
 10
0.9280552294652579
 20
5.744354278465827
 30
0.0
 10
0.9305260088835609
 20
5.741884844787925
 30
0.0
 10
0.9305260088835609
 20
5.741884844787925
 30
0.0
 10
0.9305260088835609
 20
5.741884844787925
 30
0.0
 10
0.9382828566870529
 20
5.726009145006855
 30
0.0
 10
0.9382828566870529
 20
5.726009145006855
 30
0.0
 10
0.9382828566870529
 20
5.726009145006855
 30
0.0
 10
0.9411089115772455
 20
5.723539711328967
 30
0.0
 10
0.9411089115772455
 20
5.723539711328967
 30
0.0
 10
0.9411089115772455
 20
5.723539711328967
 30
0.0
 10
0.9460450874522479
 20
5.713309392626285
 30
0.0
 10
0.9460450874522479
 20
5.713309392626285
 30
0.0
 10
0.9460450874522479
 20
5.713309392626285
 30
0.0
 10
0.9488657593807374
 20
5.710487374957317
 30
0.0
 10
0.9488657593807374
 20
5.710487374957317
 30
0.0
 10
0.9488657593807374
 20
5.710487374957317
 30
0.0
 10
0.9538073182174571
 20
5.700257056254621
 30
0.0
 10
0.9538073182174571
 20
5.700257056254621
 30
0.0
 10
0.9538073182174571
 20
5.700257056254621
 30
0.0
 10
0.9590987695643491
 20
5.697435038585652
 30
0.0
 10
0.9590987695643491
 20
5.697435038585652
 30
0.0
 10
0.9590987695643491
 20
5.697435038585652
 30
0.0
 10
0.9643902209112553
 20
5.687204719882977
 30
0.0
 10
0.9643902209112553
 20
5.687204719882977
 30
0.0
 10
0.9643902209112553
 20
5.687204719882977
 30
0.0
 10
0.9668610003295583
 20
5.684735286205068
 30
0.0
 10
0.9668610003295583
 20
5.684735286205068
 30
0.0
 10
0.9668610003295583
 20
5.684735286205068
 30
0.0
 10
0.9696816722580621
 20
5.679442489117761
 30
0.0
 10
0.9696816722580621
 20
5.679442489117761
 30
0.0
 10
0.9696816722580621
 20
5.679442489117761
 30
0.0
 10
0.9774439030232429
 20
5.671681604092988
 30
0.0
 10
0.9774439030232429
 20
5.671681604092988
 30
0.0
 10
0.9774439030232429
 20
5.671681604092988
 30
0.0
 10
0.9799146824416453
 20
5.666390152746117
 30
0.0
 10
0.9799146824416453
 20
5.666390152746117
 30
0.0
 10
0.9799146824416453
 20
5.666390152746117
 30
0.0
 10
0.9901423096634545
 20
5.656159834043435
 30
0.0
 10
0.9901423096634545
 20
5.656159834043435
 30
0.0
 10
0.9901423096634545
 20
5.656159834043435
 30
0.0
 10
0.9929629815919582
 20
5.65086838269655
 30
0.0
 10
0.9929629815919582
 20
5.65086838269655
 30
0.0
 10
0.9929629815919582
 20
5.65086838269655
 30
0.0
 10
0.9982544329388503
 20
5.648046365027582
 30
0.0
 10
0.9982544329388503
 20
5.648046365027582
 30
0.0
 10
0.9982544329388503
 20
5.648046365027582
 30
0.0
 10
1.000725212357139
 20
5.643107497671778
 30
0.0
 10
1.000725212357139
 20
5.643107497671778
 30
0.0
 10
1.000725212357139
 20
5.643107497671778
 30
0.0
 10
1.003195991775555
 20
5.64028413426238
 30
0.0
 10
1.003195991775555
 20
5.64028413426238
 30
0.0
 10
1.003195991775555
 20
5.64028413426238
 30
0.0
 10
1.008487443122348
 20
5.63781470058447
 30
0.0
 10
1.008487443122348
 20
5.63781470058447
 30
0.0
 10
1.008487443122348
 20
5.63781470058447
 30
0.0
 10
1.01095822254075
 20
5.632523249237607
 30
0.0
 10
1.01095822254075
 20
5.632523249237607
 30
0.0
 10
1.01095822254075
 20
5.632523249237607
 30
0.0
 10
1.016249673887642
 20
5.630053815559691
 30
0.0
 10
1.016249673887642
 20
5.630053815559691
 30
0.0
 10
1.016249673887642
 20
5.630053815559691
 30
0.0
 10
1.018720453305959
 20
5.62476236421282
 30
0.0
 10
1.018720453305959
 20
5.62476236421282
 30
0.0
 10
1.018720453305959
 20
5.62476236421282
 30
0.0
 10
1.021541125234449
 20
5.622292930534918
 30
0.0
 10
1.021541125234449
 20
5.622292930534918
 30
0.0
 10
1.021541125234449
 20
5.622292930534918
 30
0.0
 10
1.026832576581341
 20
5.619823496857016
 30
0.0
 10
1.026832576581341
 20
5.619823496857016
 30
0.0
 10
1.026832576581341
 20
5.619823496857016
 30
0.0
 10
1.029303355999644
 20
5.614532045510138
 30
0.0
 10
1.029303355999644
 20
5.614532045510138
 30
0.0
 10
1.029303355999644
 20
5.614532045510138
 30
0.0
 10
1.03459480734655
 20
5.611710027841169
 30
0.0
 10
1.03459480734655
 20
5.611710027841169
 30
0.0
 10
1.03459480734655
 20
5.611710027841169
 30
0.0
 10
1.037060203803136
 20
5.60924059416326
 30
0.0
 10
1.037060203803136
 20
5.60924059416326
 30
0.0
 10
1.037060203803136
 20
5.60924059416326
 30
0.0
 10
1.042351655150056
 20
5.606771160485358
 30
0.0
 10
1.042351655150056
 20
5.606771160485358
 30
0.0
 10
1.042351655150056
 20
5.606771160485358
 30
0.0
 10
1.050113885915237
 20
5.599010275460578
 30
0.0
 10
1.050113885915237
 20
5.599010275460578
 30
0.0
 10
1.050113885915237
 20
5.599010275460578
 30
0.0
 10
1.055405337262143
 20
5.59618691205118
 30
0.0
 10
1.055405337262143
 20
5.59618691205118
 30
0.0
 10
1.055405337262143
 20
5.59618691205118
 30
0.0
 10
1.057876116680446
 20
5.593717478373278
 30
0.0
 10
1.057876116680446
 20
5.593717478373278
 30
0.0
 10
1.057876116680446
 20
5.593717478373278
 30
0.0
 10
1.063167568027353
 20
5.591248044695369
 30
0.0
 10
1.063167568027353
 20
5.591248044695369
 30
0.0
 10
1.063167568027353
 20
5.591248044695369
 30
0.0
 10
1.068109126864058
 20
5.588426027026407
 30
0.0
 10
1.068109126864058
 20
5.588426027026407
 30
0.0
 10
1.068109126864058
 20
5.588426027026407
 30
0.0
 10
1.070929798792562
 20
5.583134575679522
 30
0.0
 10
1.070929798792562
 20
5.583134575679522
 30
0.0
 10
1.070929798792562
 20
5.583134575679522
 30
0.0
 10
1.07586597466755
 20
5.58066514200162
 30
0.0
 10
1.07586597466755
 20
5.58066514200162
 30
0.0
 10
1.07586597466755
 20
5.58066514200162
 30
0.0
 10
1.081157426014357
 20
5.578195708323718
 30
0.0
 10
1.081157426014357
 20
5.578195708323718
 30
0.0
 10
1.081157426014357
 20
5.578195708323718
 30
0.0
 10
1.083628205432745
 20
5.575373690654757
 30
0.0
 10
1.083628205432745
 20
5.575373690654757
 30
0.0
 10
1.083628205432745
 20
5.575373690654757
 30
0.0
 10
1.094211108126458
 20
5.570434823298931
 30
0.0
 10
1.094211108126458
 20
5.570434823298931
 30
0.0
 10
1.094211108126458
 20
5.570434823298931
 30
0.0
 10
1.096681887544747
 20
5.56761280562997
 30
0.0
 10
1.096681887544747
 20
5.56761280562997
 30
0.0
 10
1.096681887544747
 20
5.56761280562997
 30
0.0
 10
1.117497800422043
 20
5.557382486927281
 30
0.0
 10
1.117497800422043
 20
5.557382486927281
 30
0.0
 10
1.117497800422043
 20
5.557382486927281
 30
0.0
 10
1.120318472350632
 20
5.554913053249372
 30
0.0
 10
1.120318472350632
 20
5.554913053249372
 30
0.0
 10
1.120318472350632
 20
5.554913053249372
 30
0.0
 10
1.125254648225535
 20
5.554913053249372
 30
0.0
 10
1.125254648225535
 20
5.554913053249372
 30
0.0
 10
1.125254648225535
 20
5.554913053249372
 30
0.0
 10
1.130546099572455
 20
5.552089689839988
 30
0.0
 10
1.130546099572455
 20
5.552089689839988
 30
0.0
 10
1.130546099572455
 20
5.552089689839988
 30
0.0
 10
1.135837550919347
 20
5.549620256162071
 30
0.0
 10
1.135837550919347
 20
5.549620256162071
 30
0.0
 10
1.135837550919347
 20
5.549620256162071
 30
0.0
 10
1.140779109755953
 20
5.54679823849311
 30
0.0
 10
1.140779109755953
 20
5.54679823849311
 30
0.0
 10
1.140779109755953
 20
5.54679823849311
 30
0.0
 10
1.143599781684557
 20
5.544328804815208
 30
0.0
 10
1.143599781684557
 20
5.544328804815208
 30
0.0
 10
1.143599781684557
 20
5.544328804815208
 30
0.0
 10
1.148891233031449
 20
5.544328804815208
 30
0.0
 10
1.148891233031449
 20
5.544328804815208
 30
0.0
 10
1.148891233031449
 20
5.544328804815208
 30
0.0
 10
1.159124243214947
 20
5.539037353468337
 30
0.0
 10
1.159124243214947
 20
5.539037353468337
 30
0.0
 10
1.174643321783648
 20
5.536567919790421
 30
0.0
 10
1.194048898696635
 20
5.524925919383044
 30
0.0
 10
1.213804368119852
 20
5.523515583418777
 30
0.0
 10
1.213804368119852
 20
5.523515583418777
 30
0.0
 10
1.218740543994854
 20
5.523515583418777
 30
0.0
 10
1.218740543994854
 20
5.523515583418777
 30
0.0
 10
1.218740543994854
 20
5.523515583418777
 30
0.0
 10
1.224031995341746
 20
5.521046149740861
 30
0.0
 10
1.224031995341746
 20
5.521046149740861
 30
0.0
 10
1.243787464764963
 20
5.517870202340404
 30
0.0
 10
1.266368989078443
 20
5.515048184671421
 30
0.0
 10
1.286474351011847
 20
5.513285264716081
 30
0.0
 10
1.286474351011847
 20
5.513285264716081
 30
0.0
 10
1.307290263889143
 20
5.513285264716081
 30
0.0
 10
1.307290263889143
 20
5.513285264716081
 30
0.0
  0
POLYLINE
  5
810
330
1F
100
AcDbEntity
  8
Livello 1
100
AcDb2dPolyline
 66
     1
 10
0.0
 20
0.0
 30
0.0
  0
VERTEX
  5
811
330
810
100
AcDbEntity
  8
Livello 1
100
AcDbVertex
100
AcDb2dVertex
 10
1.559002935741958
 20
5.554736761253842
 30
0.0
  0
VERTEX
  5
812
330
810
100
AcDbEntity
  8
Livello 1
100
AcDbVertex
100
AcDb2dVertex
 10
1.559002935741958
 20
5.90257432584719
 30
0.0
  0
SEQEND
  5
813
330
810
100
AcDbEntity
  8
Livello 1
  0
POLYLINE
  5
814
330
1F
100
AcDbEntity
  8
Livello 1
100
AcDb2dPolyline
 66
     1
 10
0.0
 20
0.0
 30
0.0
  0
VERTEX
  5
815
330
814
100
AcDbEntity
  8
Livello 1
100
AcDbVertex
100
AcDb2dVertex
 10
1.559002935741958
 20
5.682089560531636
 30
0.0
  0
VERTEX
  5
816
330
814
100
AcDbEntity
  8
Livello 1
100
AcDbVertex
100
AcDb2dVertex
 10
2.165425868533034
 20
5.682089560531636
 30
0.0
  0
SEQEND
  5
817
330
814
100
AcDbEntity
  8
Livello 1
  0
POLYLINE
  5
818
330
1F
100
AcDbEntity
  8
Livello 1
100
AcDb2dPolyline
 66
     1
 10
0.0
 20
0.0
 30
0.0
  0
VERTEX
  5
819
330
818
100
AcDbEntity
  8
Livello 1
100
AcDbVertex
100
AcDb2dVertex
 10
1.559002935741958
 20
7.317496573486081
 30
0.0
  0
VERTEX
  5
81A
330
818
100
AcDbEntity
  8
Livello 1
100
AcDbVertex
100
AcDb2dVertex
 10
2.165425868533034
 20
7.317496573486081
 30
0.0
  0
SEQEND
  5
81B
330
818
100
AcDbEntity
  8
Livello 1
  0
SPLINE
  5
81C
330
1F
100
AcDbEntity
  8
Livello 1
100
AcDbSpline
210
0.0
220
0.0
230
1.0
 70
    11
 71
     3
 72
    29
 73
    25
 74
     0
 42
0.000000001
 43
0.0000000001
 40
0.0
 40
0.0
 40
0.0
 40
0.0
 40
1.0
 40
1.0
 40
1.0
 40
2.0
 40
2.0
 40
2.0
 40
3.0
 40
3.0
 40
3.0
 40
4.0
 40
4.0
 40
4.0
 40
5.0
 40
5.0
 40
5.0
 40
6.0
 40
6.0
 40
6.0
 40
7.0
 40
7.0
 40
7.0
 40
8.0
 40
8.0
 40
8.0
 40
8.0
 10
16.70784139902288
 20
7.113520005950817
 30
0.0
 10
16.70784139902288
 20
7.113520005950817
 30
0.0
 10
16.66479923730405
 20
7.110696642541427
 30
0.0
 10
16.66479923730405
 20
7.110696642541427
 30
0.0
 10
16.66479923730405
 20
7.110696642541427
 30
0.0
 10
16.62493840594736
 20
7.100113739847671
 30
0.0
 10
16.62493840594736
 20
7.100113739847671
 30
0.0
 10
16.38504671797837
 20
7.012271879416346
 30
0.0
 10
16.39457456017972
 20
6.672547783838844
 30
0.0
 10
16.64610421133487
 20
6.607283410499718
 30
0.0
 10
16.64610421133487
 20
6.607283410499718
 30
0.0
 10
16.68632031816345
 20
6.599169941483864
 30
0.0
 10
16.68632031816345
 20
6.599169941483864
 30
0.0
 10
16.68632031816345
 20
6.599169941483864
 30
0.0
 10
16.72653642499206
 20
6.599169941483864
 30
0.0
 10
16.72653642499206
 20
6.599169941483864
 30
0.0
 10
17.01017005970037
 20
6.634447180956648
 30
0.0
 10
17.05144660998296
 20
7.002041560713664
 30
0.0
 10
16.78827361268004
 20
7.100113739847671
 30
0.0
 10
16.78827361268004
 20
7.100113739847671
 30
0.0
 10
16.74805750585146
 20
7.110696642541427
 30
0.0
 10
16.74805750585146
 20
7.110696642541427
 30
0.0
 10
16.74805750585146
 20
7.110696642541427
 30
0.0
 10
16.70784139902288
 20
7.113520005950817
 30
0.0
 10
16.70784139902288
 20
7.113520005950817
 30
0.0
  0
POLYLINE
  5
81D
330
1F
100
AcDbEntity
  8
Livello 1
100
AcDb2dPolyline
 66
     1
 10
0.0
 20
0.0
 30
0.0
  0
VERTEX
  5
81E
330
81D
100
AcDbEntity
  8
Livello 1
100
AcDbVertex
100
AcDb2dVertex
 10
17.12570994953687
 20
6.368806095716259
 30
0.0
  0
VERTEX
  5
81F
330
81D
100
AcDbEntity
  8
Livello 1
100
AcDbVertex
100
AcDb2dVertex
 10
17.12287851168496
 20
6.60199195915284
 30
0.0
  0
SEQEND
  5
820
330
81D
100
AcDbEntity
  8
Livello 1
  0
POLYLINE
  5
821
330
1F
100
AcDbEntity
  8
Livello 1
100
AcDb2dPolyline
 66
     1
 10
0.0
 20
0.0
 30
0.0
  0
VERTEX
  5
822
330
821
100
AcDbEntity
  8
Livello 1
100
AcDbVertex
100
AcDb2dVertex
 10
17.12299693684222
 20
7.142976918090127
 30
0.0
  0
VERTEX
  5
823
330
821
100
AcDbEntity
  8
Livello 1
100
AcDbVertex
100
AcDb2dVertex
 10
17.12299693684222
 20
7.116165731624249
 30
0.0
  0
VERTEX
  5
824
330
821
100
AcDbEntity
  8
Livello 1
100
AcDbVertex
100
AcDb2dVertex
 10
17.12299693684222
 20
7.078770296724208
 30
0.0
  0
SEQEND
  5
825
330
821
100
AcDbEntity
  8
Livello 1
  0
POLYLINE
  5
826
330
1F
100
AcDbEntity
  8
Livello 1
100
AcDb2dPolyline
 66
     1
 10
0.0
 20
0.0
 30
0.0
  0
VERTEX
  5
827
330
826
100
AcDbEntity
  8
Livello 1
100
AcDbVertex
100
AcDb2dVertex
 10
17.12299693684222
 20
6.601852002148753
 30
0.0
  0
VERTEX
  5
828
330
826
100
AcDbEntity
  8
Livello 1
100
AcDbVertex
100
AcDb2dVertex
 10
17.12299693684222
 20
6.647359560324225
 30
0.0
  0
SEQEND
  5
829
330
826
100
AcDbEntity
  8
Livello 1
  0
POLYLINE
  5
82A
330
1F
100
AcDbEntity
  8
Livello 1
100
AcDb2dPolyline
 66
     1
 10
0.0
 20
0.0
 30
0.0
  0
VERTEX
  5
82B
330
82A
100
AcDbEntity
  8
Livello 1
100
AcDbVertex
100
AcDb2dVertex
 10
17.12570994953687
 20
6.647394549575246
 30
0.0
  0
VERTEX
  5
82C
330
82A
100
AcDbEntity
  8
Livello 1
100
AcDbVertex
100
AcDb2dVertex
 10
17.12570994953687
 20
6.588479379556211
 30
0.0
  0
VERTEX
  5
82D
330
82A
100
AcDbEntity
  8
Livello 1
100
AcDbVertex
100
AcDb2dVertex
 10
17.12287851168496
 20
6.588479379556211
 30
0.0
  0
SEQEND
  5
82E
330
82A
100
AcDbEntity
  8
Livello 1
  0
POLYLINE
  5
82F
330
1F
100
AcDbEntity
  8
Livello 1
100
AcDb2dPolyline
 66
     1
 10
0.0
 20
0.0
 30
0.0
  0
VERTEX
  5
830
330
82F
100
AcDbEntity
  8
Livello 1
100
AcDbVertex
100
AcDb2dVertex
 10
17.12570994953687
 20
6.588480725296626
 30
0.0
  0
VERTEX
  5
831
330
82F
100
AcDbEntity
  8
Livello 1
100
AcDbVertex
100
AcDb2dVertex
 10
17.12570994953687
 20
6.400802420035503
 30
0.0
  0
VERTEX
  5
832
330
82F
100
AcDbEntity
  8
Livello 1
100
AcDbVertex
100
AcDb2dVertex
 10
17.12570994953687
 20
6.320721444628972
 30
0.0
  0
VERTEX
  5
833
330
82F
100
AcDbEntity
  8
Livello 1
100
AcDbVertex
100
AcDb2dVertex
 10
17.12570994953687
 20
6.368699782222776
 30
0.0
  0
SEQEND
  5
834
330
82F
100
AcDbEntity
  8
Livello 1
  0
POLYLINE
  5
835
330
1F
100
AcDbEntity
  8
Livello 1
100
AcDb2dPolyline
 66
     1
 10
0.0
 20
0.0
 30
0.0
  0
VERTEX
  5
836
330
835
100
AcDbEntity
  8
Livello 1
100
AcDbVertex
100
AcDb2dVertex
 10
17.12299693684222
 20
6.647394549575246
 30
0.0
  0
VERTEX
  5
837
330
835
100
AcDbEntity
  8
Livello 1
100
AcDbVertex
100
AcDb2dVertex
 10
17.12581760877073
 20
6.647394549575246
 30
0.0
  0
SEQEND
  5
838
330
835
100
AcDbEntity
  8
Livello 1
  0
POLYLINE
  5
839
330
1F
100
AcDbEntity
  8
Livello 1
100
AcDb2dPolyline
 66
     1
 10
0.0
 20
0.0
 30
0.0
  0
VERTEX
  5
83A
330
839
100
AcDbEntity
  8
Livello 1
100
AcDbVertex
100
AcDb2dVertex
 10
16.86313446098212
 20
6.320581487624885
 30
0.0
  0
VERTEX
  5
83B
330
839
100
AcDbEntity
  8
Livello 1
100
AcDbVertex
100
AcDb2dVertex
 10
16.94885812598623
 20
6.320581487624885
 30
0.0
  0
SEQEND
  5
83C
330
839
100
AcDbEntity
  8
Livello 1
  0
POLYLINE
  5
83D
330
1F
100
AcDbEntity
  8
Livello 1
100
AcDb2dPolyline
 66
     1
 10
0.0
 20
0.0
 30
0.0
  0
VERTEX
  5
83E
330
83D
100
AcDbEntity
  8
Livello 1
100
AcDbVertex
100
AcDb2dVertex
 10
16.86313446098212
 20
6.041993033765898
 30
0.0
  0
VERTEX
  5
83F
330
83D
100
AcDbEntity
  8
Livello 1
100
AcDbVertex
100
AcDb2dVertex
 10
16.86313446098212
 20
6.320686455377952
 30
0.0
  0
SEQEND
  5
840
330
83D
100
AcDbEntity
  8
Livello 1
  0
POLYLINE
  5
841
330
1F
100
AcDbEntity
  8
Livello 1
100
AcDb2dPolyline
 66
     1
 10
0.0
 20
0.0
 30
0.0
  0
VERTEX
  5
842
330
841
100
AcDbEntity
  8
Livello 1
100
AcDbVertex
100
AcDb2dVertex
 10
16.94885812598623
 20
6.041993033765898
 30
0.0
  0
VERTEX
  5
843
330
841
100
AcDbEntity
  8
Livello 1
100
AcDbVertex
100
AcDb2dVertex
 10
16.86312907802046
 20
6.041993033765898
 30
0.0
  0
SEQEND
  5
844
330
841
100
AcDbEntity
  8
Livello 1
  0
POLYLINE
  5
845
330
1F
100
AcDbEntity
  8
Livello 1
100
AcDb2dPolyline
 66
     1
 10
0.0
 20
0.0
 30
0.0
  0
VERTEX
  5
846
330
845
100
AcDbEntity
  8
Livello 1
100
AcDbVertex
100
AcDb2dVertex
 10
17.02386431425414
 20
5.749999659544194
 30
0.0
  0
VERTEX
  5
847
330
845
100
AcDbEntity
  8
Livello 1
100
AcDbVertex
100
AcDb2dVertex
 10
17.02386431425414
 20
5.752821677213162
 30
0.0
  0
SEQEND
  5
848
330
845
100
AcDbEntity
  8
Livello 1
  0
POLYLINE
  5
849
330
1F
100
AcDbEntity
  8
Livello 1
100
AcDb2dPolyline
 66
     1
 10
0.0
 20
0.0
 30
0.0
  0
VERTEX
  5
84A
330
849
100
AcDbEntity
  8
Livello 1
100
AcDbVertex
100
AcDb2dVertex
 10
17.02386431425414
 20
5.752680374468653
 30
0.0
  0
VERTEX
  5
84B
330
849
100
AcDbEntity
  8
Livello 1
100
AcDbVertex
100
AcDb2dVertex
 10
17.06689571004962
 20
5.779490215194101
 30
0.0
  0
VERTEX
  5
84C
330
849
100
AcDbEntity
  8
Livello 1
100
AcDbVertex
100
AcDb2dVertex
 10
17.09617902167424
 20
5.81688565009415
 30
0.0
  0
VERTEX
  5
84D
330
849
100
AcDbEntity
  8
Livello 1
100
AcDbVertex
100
AcDb2dVertex
 10
17.11770010253365
 20
5.859923774591727
 30
0.0
  0
VERTEX
  5
84E
330
849
100
AcDbEntity
  8
Livello 1
100
AcDbVertex
100
AcDb2dVertex
 10
17.12298617091888
 20
5.90790211218551
 30
0.0
  0
SEQEND
  5
84F
330
849
100
AcDbEntity
  8
Livello 1
  0
POLYLINE
  5
850
330
1F
100
AcDbEntity
  8
Livello 1
100
AcDb2dPolyline
 66
     1
 10
0.0
 20
0.0
 30
0.0
  0
VERTEX
  5
851
330
850
100
AcDbEntity
  8
Livello 1
100
AcDbVertex
100
AcDb2dVertex
 10
17.12570994953687
 20
6.041993033765898
 30
0.0
  0
VERTEX
  5
852
330
850
100
AcDbEntity
  8
Livello 1
100
AcDbVertex
100
AcDb2dVertex
 10
16.94896578522015
 20
6.041993033765898
 30
0.0
  0
SEQEND
  5
853
330
850
100
AcDbEntity
  8
Livello 1
  0
POLYLINE
  5
854
330
1F
100
AcDbEntity
  8
Livello 1
100
AcDb2dPolyline
 66
     1
 10
0.0
 20
0.0
 30
0.0
  0
VERTEX
  5
855
330
854
100
AcDbEntity
  8
Livello 1
100
AcDbVertex
100
AcDb2dVertex
 10
17.12570994953687
 20
5.908043414930034
 30
0.0
  0
VERTEX
  5
856
330
854
100
AcDbEntity
  8
Livello 1
100
AcDbVertex
100
AcDb2dVertex
 10
17.12570994953687
 20
6.042098001518979
 30
0.0
  0
SEQEND
  5
857
330
854
100
AcDbEntity
  8
Livello 1
  0
POLYLINE
  5
858
330
1F
100
AcDbEntity
  8
Livello 1
100
AcDb2dPolyline
 66
     1
 10
0.0
 20
0.0
 30
0.0
  0
VERTEX
  5
859
330
858
100
AcDbEntity
  8
Livello 1
100
AcDbVertex
100
AcDb2dVertex
 10
17.12299693684222
 20
5.908043414930034
 30
0.0
  0
VERTEX
  5
85A
330
858
100
AcDbEntity
  8
Livello 1
100
AcDbVertex
100
AcDb2dVertex
 10
17.12581760877073
 20
5.908043414930034
 30
0.0
  0
SEQEND
  5
85B
330
858
100
AcDbEntity
  8
Livello 1
  0
POLYLINE
  5
85C
330
1F
100
AcDbEntity
  8
Livello 1
100
AcDb2dPolyline
 66
     1
 10
0.0
 20
0.0
 30
0.0
  0
VERTEX
  5
85D
330
85C
100
AcDbEntity
  8
Livello 1
100
AcDbVertex
100
AcDb2dVertex
 10
17.12570994953687
 20
6.320581487624885
 30
0.0
  0
VERTEX
  5
85E
330
85C
100
AcDbEntity
  8
Livello 1
100
AcDbVertex
100
AcDb2dVertex
 10
16.94896578522015
 20
6.320581487624885
 30
0.0
  0
SEQEND
  5
85F
330
85C
100
AcDbEntity
  8
Livello 1
  0
POLYLINE
  5
860
330
1F
100
AcDbEntity
  8
Livello 1
100
AcDb2dPolyline
 66
     1
 10
0.0
 20
0.0
 30
0.0
  0
VERTEX
  5
861
330
860
100
AcDbEntity
  8
Livello 1
100
AcDbVertex
100
AcDb2dVertex
 10
17.12299693684222
 20
7.142976918090127
 30
0.0
  0
VERTEX
  5
862
330
860
100
AcDbEntity
  8
Livello 1
100
AcDbVertex
100
AcDb2dVertex
 10
17.11240326822504
 20
7.185662458596638
 30
0.0
  0
VERTEX
  5
863
330
860
100
AcDbEntity
  8
Livello 1
100
AcDbVertex
100
AcDb2dVertex
 10
17.09089295328904
 20
7.225878565425226
 30
0.0
  0
VERTEX
  5
864
330
860
100
AcDbEntity
  8
Livello 1
100
AcDbVertex
100
AcDb2dVertex
 10
17.06125436619255
 20
7.258335132969477
 30
0.0
  0
VERTEX
  5
865
330
860
100
AcDbEntity
  8
Livello 1
100
AcDbVertex
100
AcDb2dVertex
 10
17.02386431425414
 20
7.282322956025943
 30
0.0
  0
SEQEND
  5
866
330
860
100
AcDbEntity
  8
Livello 1
  0
POLYLINE
  5
867
330
1F
100
AcDbEntity
  8
Livello 1
100
AcDb2dPolyline
 66
     1
 10
0.0
 20
0.0
 30
0.0
  0
VERTEX
  5
868
330
867
100
AcDbEntity
  8
Livello 1
100
AcDbVertex
100
AcDb2dVertex
 10
17.12570994953687
 20
7.049208416831831
 30
0.0
  0
VERTEX
  5
869
330
867
100
AcDbEntity
  8
Livello 1
100
AcDbVertex
100
AcDb2dVertex
 10
17.12570994953687
 20
7.076018257557279
 30
0.0
  0
SEQEND
  5
86A
330
867
100
AcDbEntity
  8
Livello 1
  0
POLYLINE
  5
86B
330
1F
100
AcDbEntity
  8
Livello 1
100
AcDb2dPolyline
 66
     1
 10
0.0
 20
0.0
 30
0.0
  0
VERTEX
  5
86C
330
86B
100
AcDbEntity
  8
Livello 1
100
AcDbVertex
100
AcDb2dVertex
 10
17.12570994953687
 20
7.124245557129512
 30
0.0
  0
VERTEX
  5
86D
330
86B
100
AcDbEntity
  8
Livello 1
100
AcDbVertex
100
AcDb2dVertex
 10
17.12287851168496
 20
7.124245557129512
 30
0.0
  0
SEQEND
  5
86E
330
86B
100
AcDbEntity
  8
Livello 1
  0
POLYLINE
  5
86F
330
1F
100
AcDbEntity
  8
Livello 1
100
AcDb2dPolyline
 66
     1
 10
0.0
 20
0.0
 30
0.0
  0
VERTEX
  5
870
330
86F
100
AcDbEntity
  8
Livello 1
100
AcDbVertex
100
AcDb2dVertex
 10
17.12570994953687
 20
7.049208416831831
 30
0.0
  0
VERTEX
  5
871
330
86F
100
AcDbEntity
  8
Livello 1
100
AcDbVertex
100
AcDb2dVertex
 10
17.12287851168496
 20
7.049208416831831
 30
0.0
  0
SEQEND
  5
872
330
86F
100
AcDbEntity
  8
Livello 1
  0
POLYLINE
  5
873
330
1F
100
AcDbEntity
  8
Livello 1
100
AcDb2dPolyline
 66
     1
 10
0.0
 20
0.0
 30
0.0
  0
VERTEX
  5
874
330
873
100
AcDbEntity
  8
Livello 1
100
AcDbVertex
100
AcDb2dVertex
 10
17.12570994953687
 20
6.647394549575246
 30
0.0
  0
VERTEX
  5
875
330
873
100
AcDbEntity
  8
Livello 1
100
AcDbVertex
100
AcDb2dVertex
 10
17.12570994953687
 20
7.049208416831831
 30
0.0
  0
SEQEND
  5
876
330
873
100
AcDbEntity
  8
Livello 1
  0
POLYLINE
  5
877
330
1F
100
AcDbEntity
  8
Livello 1
100
AcDb2dPolyline
 66
     1
 10
0.0
 20
0.0
 30
0.0
  0
VERTEX
  5
878
330
877
100
AcDbEntity
  8
Livello 1
100
AcDbVertex
100
AcDb2dVertex
 10
17.12570994953687
 20
6.041993033765898
 30
0.0
  0
VERTEX
  5
879
330
877
100
AcDbEntity
  8
Livello 1
100
AcDbVertex
100
AcDb2dVertex
 10
17.12570994953687
 20
5.907937101436537
 30
0.0
  0
VERTEX
  5
87A
330
877
100
AcDbEntity
  8
Livello 1
100
AcDbVertex
100
AcDb2dVertex
 10
17.12287851168496
 20
5.907937101436537
 30
0.0
  0
SEQEND
  5
87B
330
877
100
AcDbEntity
  8
Livello 1
  0
POLYLINE
  5
87C
330
1F
100
AcDbEntity
  8
Livello 1
100
AcDb2dPolyline
 66
     1
 10
0.0
 20
0.0
 30
0.0
  0
VERTEX
  5
87D
330
87C
100
AcDbEntity
  8
Livello 1
100
AcDbVertex
100
AcDb2dVertex
 10
17.12570994953687
 20
6.041993033765898
 30
0.0
  0
VERTEX
  5
87E
330
87C
100
AcDbEntity
  8
Livello 1
100
AcDbVertex
100
AcDb2dVertex
 10
17.12287851168496
 20
6.041993033765898
 30
0.0
  0
SEQEND
  5
87F
330
87C
100
AcDbEntity
  8
Livello 1
  0
POLYLINE
  5
880
330
1F
100
AcDbEntity
  8
Livello 1
100
AcDb2dPolyline
 66
     1
 10
0.0
 20
0.0
 30
0.0
  0
VERTEX
  5
881
330
880
100
AcDbEntity
  8
Livello 1
100
AcDbVertex
100
AcDb2dVertex
 10
17.00248319039888
 20
5.741991158281415
 30
0.0
  0
VERTEX
  5
882
330
880
100
AcDbEntity
  8
Livello 1
100
AcDbVertex
100
AcDb2dVertex
 10
17.02399350533484
 20
5.750104627297261
 30
0.0
  0
SEQEND
  5
883
330
880
100
AcDbEntity
  8
Livello 1
  0
POLYLINE
  5
884
330
1F
100
AcDbEntity
  8
Livello 1
100
AcDb2dPolyline
 66
     1
 10
0.0
 20
0.0
 30
0.0
  0
VERTEX
  5
885
330
884
100
AcDbEntity
  8
Livello 1
100
AcDbVertex
100
AcDb2dVertex
 10
17.00248319039888
 20
7.290297813778124
 30
0.0
  0
VERTEX
  5
886
330
884
100
AcDbEntity
  8
Livello 1
100
AcDbVertex
100
AcDb2dVertex
 10
17.02399350533484
 20
7.282182999021856
 30
0.0
  0
SEQEND
  5
887
330
884
100
AcDbEntity
  8
Livello 1
  0
POLYLINE
  5
888
330
1F
100
AcDbEntity
  8
Livello 1
100
AcDb2dPolyline
 66
     1
 10
0.0
 20
0.0
 30
0.0
  0
VERTEX
  5
889
330
888
100
AcDbEntity
  8
Livello 1
100
AcDbVertex
100
AcDb2dVertex
 10
16.97831369238513
 20
5.73662838269206
 30
0.0
  0
VERTEX
  5
88A
330
888
100
AcDbEntity
  8
Livello 1
100
AcDbVertex
100
AcDb2dVertex
 10
16.89258464441936
 20
5.723222116588928
 30
0.0
  0
VERTEX
  5
88B
330
888
100
AcDbEntity
  8
Livello 1
100
AcDbVertex
100
AcDb2dVertex
 10
16.82309060892787
 20
5.70981719622619
 30
0.0
  0
VERTEX
  5
88C
330
888
100
AcDbEntity
  8
Livello 1
100
AcDbVertex
100
AcDb2dVertex
 10
16.79627807672155
 20
5.70452439913889
 30
0.0
  0
VERTEX
  5
88D
330
888
100
AcDbEntity
  8
Livello 1
100
AcDbVertex
100
AcDb2dVertex
 10
16.77475699586215
 20
5.701702381469928
 30
0.0
  0
VERTEX
  5
88E
330
888
100
AcDbEntity
  8
Livello 1
100
AcDbVertex
100
AcDb2dVertex
 10
16.76946554451523
 20
5.701702381469928
 30
0.0
  0
VERTEX
  5
88F
330
888
100
AcDbEntity
  8
Livello 1
100
AcDbVertex
100
AcDb2dVertex
 10
16.76417409316836
 20
5.699232947792005
 30
0.0
  0
VERTEX
  5
890
330
888
100
AcDbEntity
  8
Livello 1
100
AcDbVertex
100
AcDb2dVertex
 10
16.76135342123986
 20
5.699232947792005
 30
0.0
  0
VERTEX
  5
891
330
888
100
AcDbEntity
  8
Livello 1
100
AcDbVertex
100
AcDb2dVertex
 10
16.39693229740247
 20
5.699232947792005
 30
0.0
  0
VERTEX
  5
892
330
888
100
AcDbEntity
  8
Livello 1
100
AcDbVertex
100
AcDb2dVertex
 10
16.15634082441305
 20
5.699232947792005
 30
0.0
  0
SEQEND
  5
893
330
888
100
AcDbEntity
  8
Livello 1
  0
POLYLINE
  5
894
330
1F
100
AcDbEntity
  8
Livello 1
100
AcDb2dPolyline
 66
     1
 10
0.0
 20
0.0
 30
0.0
  0
VERTEX
  5
895
330
894
100
AcDbEntity
  8
Livello 1
100
AcDbVertex
100
AcDb2dVertex
 10
17.00248319039888
 20
5.741991158281415
 30
0.0
  0
VERTEX
  5
896
330
894
100
AcDbEntity
  8
Livello 1
100
AcDbVertex
100
AcDb2dVertex
 10
16.97848594715945
 20
5.736698361194115
 30
0.0
  0
SEQEND
  5
897
330
894
100
AcDbEntity
  8
Livello 1
  0
POLYLINE
  5
898
330
1F
100
AcDbEntity
  8
Livello 1
100
AcDb2dPolyline
 66
     1
 10
0.0
 20
0.0
 30
0.0
  0
VERTEX
  5
899
330
898
100
AcDbEntity
  8
Livello 1
100
AcDbVertex
100
AcDb2dVertex
 10
16.76135880420155
 20
7.335840361204617
 30
0.0
  0
VERTEX
  5
89A
330
898
100
AcDbEntity
  8
Livello 1
100
AcDbVertex
100
AcDb2dVertex
 10
16.39693768036413
 20
7.335840361204617
 30
0.0
  0
VERTEX
  5
89B
330
898
100
AcDbEntity
  8
Livello 1
100
AcDbVertex
100
AcDb2dVertex
 10
16.20572949797103
 20
7.335840361204617
 30
0.0
  0
SEQEND
  5
89C
330
898
100
AcDbEntity
  8
Livello 1
  0
SPLINE
  5
89D
330
1F
100
AcDbEntity
  8
Livello 1
100
AcDbSpline
210
0.0
220
0.0
230
1.0
 70
     8
 71
     3
 72
    14
 73
    10
 74
     0
 42
0.000000001
 43
0.0000000001
 40
0.0
 40
0.0
 40
0.0
 40
0.0
 40
1.0
 40
1.0
 40
1.0
 40
2.0
 40
2.0
 40
2.0
 40
3.0
 40
3.0
 40
3.0
 40
3.0
 10
16.97831369238513
 20
7.295659243627042
 30
0.0
 10
16.97831369238513
 20
7.295659243627042
 30
0.0
 10
16.92997469635772
 20
7.306242146320791
 30
0.0
 10
16.92997469635772
 20
7.306242146320791
 30
0.0
 10
16.87459478643235
 20
7.314003031345578
 30
0.0
 10
16.81955938605544
 20
7.327761881439791
 30
0.0
 10
16.76417409316836
 20
7.333053332786668
 30
0.0
 10
16.76417409316836
 20
7.333053332786668
 30
0.0
 10
16.76135342123986
 20
7.335875350455651
 30
0.0
 10
16.76135342123986
 20
7.335875350455651
 30
0.0
  0
POLYLINE
  5
89E
330
1F
100
AcDbEntity
  8
Livello 1
100
AcDb2dPolyline
 66
     1
 10
0.0
 20
0.0
 30
0.0
  0
VERTEX
  5
89F
330
89E
100
AcDbEntity
  8
Livello 1
100
AcDbVertex
100
AcDb2dVertex
 10
16.97831369238513
 20
7.295659243627042
 30
0.0
  0
VERTEX
  5
8A0
330
89E
100
AcDbEntity
  8
Livello 1
100
AcDbVertex
100
AcDb2dVertex
 10
17.00230016970123
 20
7.290366446539749
 30
0.0
  0
SEQEND
  5
8A1
330
89E
100
AcDbEntity
  8
Livello 1
  0
POLYLINE
  5
8A2
330
1F
100
AcDbEntity
  8
Livello 1
100
AcDb2dPolyline
 66
     1
 10
0.0
 20
0.0
 30
0.0
  0
VERTEX
  5
8A3
330
8A2
100
AcDbEntity
  8
Livello 1
100
AcDbVertex
100
AcDb2dVertex
 10
14.96046205409563
 20
5.919790383090472
 30
0.0
  0
VERTEX
  5
8A4
330
8A2
100
AcDbEntity
  8
Livello 1
100
AcDbVertex
100
AcDb2dVertex
 10
16.28372861294186
 20
5.919790383090472
 30
0.0
  0
SEQEND
  5
8A5
330
8A2
100
AcDbEntity
  8
Livello 1
  0
POLYLINE
  5
8A6
330
1F
100
AcDbEntity
  8
Livello 1
100
AcDb2dPolyline
 66
     1
 10
0.0
 20
0.0
 30
0.0
  0
VERTEX
  5
8A7
330
8A6
100
AcDbEntity
  8
Livello 1
100
AcDbVertex
100
AcDb2dVertex
 10
16.41076650896046
 20
6.047038214615191
 30
0.0
  0
VERTEX
  5
8A8
330
8A6
100
AcDbEntity
  8
Livello 1
100
AcDbVertex
100
AcDb2dVertex
 10
16.41076650896046
 20
6.041745417527899
 30
0.0
  0
VERTEX
  5
8A9
330
8A6
100
AcDbEntity
  8
Livello 1
100
AcDbVertex
100
AcDb2dVertex
 10
16.41076650896046
 20
6.026223647478332
 30
0.0
  0
VERTEX
  5
8AA
330
8A6
100
AcDbEntity
  8
Livello 1
100
AcDbVertex
100
AcDb2dVertex
 10
16.41076650896046
 20
6.02375421380043
 30
0.0
  0
VERTEX
  5
8AB
330
8A6
100
AcDbEntity
  8
Livello 1
100
AcDbVertex
100
AcDb2dVertex
 10
16.40829572954205
 20
6.020932196131468
 30
0.0
  0
VERTEX
  5
8AC
330
8A6
100
AcDbEntity
  8
Livello 1
100
AcDbVertex
100
AcDb2dVertex
 10
16.40829572954205
 20
6.013171311106681
 30
0.0
  0
VERTEX
  5
8AD
330
8A6
100
AcDbEntity
  8
Livello 1
100
AcDbVertex
100
AcDb2dVertex
 10
16.40546967465185
 20
6.010701877428779
 30
0.0
  0
VERTEX
  5
8AE
330
8A6
100
AcDbEntity
  8
Livello 1
100
AcDbVertex
100
AcDb2dVertex
 10
16.40546967465185
 20
6.005410426081908
 30
0.0
  0
VERTEX
  5
8AF
330
8A6
100
AcDbEntity
  8
Livello 1
100
AcDbVertex
100
AcDb2dVertex
 10
16.40300427819524
 20
6.002940992403992
 30
0.0
  0
VERTEX
  5
8B0
330
8A6
100
AcDbEntity
  8
Livello 1
100
AcDbVertex
100
AcDb2dVertex
 10
16.40300427819524
 20
5.997648195316685
 30
0.0
  0
VERTEX
  5
8B1
330
8A6
100
AcDbEntity
  8
Livello 1
100
AcDbVertex
100
AcDb2dVertex
 10
16.40053349877685
 20
5.997648195316685
 30
0.0
  0
VERTEX
  5
8B2
330
8A6
100
AcDbEntity
  8
Livello 1
100
AcDbVertex
100
AcDb2dVertex
 10
16.40053349877685
 20
5.992356743969821
 30
0.0
  0
VERTEX
  5
8B3
330
8A6
100
AcDbEntity
  8
Livello 1
100
AcDbVertex
100
AcDb2dVertex
 10
16.39771282684835
 20
5.989887310291919
 30
0.0
  0
VERTEX
  5
8B4
330
8A6
100
AcDbEntity
  8
Livello 1
100
AcDbVertex
100
AcDb2dVertex
 10
16.39771282684835
 20
5.98741787661401
 30
0.0
  0
VERTEX
  5
8B5
330
8A6
100
AcDbEntity
  8
Livello 1
100
AcDbVertex
100
AcDb2dVertex
 10
16.39524204742996
 20
5.98741787661401
 30
0.0
  0
VERTEX
  5
8B6
330
8A6
100
AcDbEntity
  8
Livello 1
100
AcDbVertex
100
AcDb2dVertex
 10
16.39524204742996
 20
5.982126425267146
 30
0.0
  0
VERTEX
  5
8B7
330
8A6
100
AcDbEntity
  8
Livello 1
100
AcDbVertex
100
AcDb2dVertex
 10
16.39242137550145
 20
5.982126425267146
 30
0.0
  0
VERTEX
  5
8B8
330
8A6
100
AcDbEntity
  8
Livello 1
100
AcDbVertex
100
AcDb2dVertex
 10
16.39242137550145
 20
5.979656991589244
 30
0.0
  0
VERTEX
  5
8B9
330
8A6
100
AcDbEntity
  8
Livello 1
100
AcDbVertex
100
AcDb2dVertex
 10
16.38995059608315
 20
5.976834973920261
 30
0.0
  0
VERTEX
  5
8BA
330
8A6
100
AcDbEntity
  8
Livello 1
100
AcDbVertex
100
AcDb2dVertex
 10
16.38995059608315
 20
5.974365540242359
 30
0.0
  0
VERTEX
  5
8BB
330
8A6
100
AcDbEntity
  8
Livello 1
100
AcDbVertex
100
AcDb2dVertex
 10
16.38747981666474
 20
5.974365540242359
 30
0.0
  0
VERTEX
  5
8BC
330
8A6
100
AcDbEntity
  8
Livello 1
100
AcDbVertex
100
AcDb2dVertex
 10
16.38747981666474
 20
5.971543522573398
 30
0.0
  0
VERTEX
  5
8BD
330
8A6
100
AcDbEntity
  8
Livello 1
100
AcDbVertex
100
AcDb2dVertex
 10
16.38465914473623
 20
5.971543522573398
 30
0.0
  0
VERTEX
  5
8BE
330
8A6
100
AcDbEntity
  8
Livello 1
100
AcDbVertex
100
AcDb2dVertex
 10
16.38465914473623
 20
5.969074088895482
 30
0.0
  0
VERTEX
  5
8BF
330
8A6
100
AcDbEntity
  8
Livello 1
100
AcDbVertex
100
AcDb2dVertex
 10
16.38218836531796
 20
5.966604655217579
 30
0.0
  0
VERTEX
  5
8C0
330
8A6
100
AcDbEntity
  8
Livello 1
100
AcDbVertex
100
AcDb2dVertex
 10
16.38218836531796
 20
5.963782637548611
 30
0.0
  0
VERTEX
  5
8C1
330
8A6
100
AcDbEntity
  8
Livello 1
100
AcDbVertex
100
AcDb2dVertex
 10
16.37971758589965
 20
5.963782637548611
 30
0.0
  0
VERTEX
  5
8C2
330
8A6
100
AcDbEntity
  8
Livello 1
100
AcDbVertex
100
AcDb2dVertex
 10
16.37689691397104
 20
5.961313203870709
 30
0.0
  0
VERTEX
  5
8C3
330
8A6
100
AcDbEntity
  8
Livello 1
100
AcDbVertex
100
AcDb2dVertex
 10
16.37689691397104
 20
5.958843770192807
 30
0.0
  0
VERTEX
  5
8C4
330
8A6
100
AcDbEntity
  8
Livello 1
100
AcDbVertex
100
AcDb2dVertex
 10
16.37442613455273
 20
5.958843770192807
 30
0.0
  0
VERTEX
  5
8C5
330
8A6
100
AcDbEntity
  8
Livello 1
100
AcDbVertex
100
AcDb2dVertex
 10
16.37442613455273
 20
5.956020406783402
 30
0.0
  0
VERTEX
  5
8C6
330
8A6
100
AcDbEntity
  8
Livello 1
100
AcDbVertex
100
AcDb2dVertex
 10
16.37196073809603
 20
5.956020406783402
 30
0.0
  0
VERTEX
  5
8C7
330
8A6
100
AcDbEntity
  8
Livello 1
100
AcDbVertex
100
AcDb2dVertex
 10
16.36913468320584
 20
5.953550973105507
 30
0.0
  0
VERTEX
  5
8C8
330
8A6
100
AcDbEntity
  8
Livello 1
100
AcDbVertex
100
AcDb2dVertex
 10
16.36913468320584
 20
5.951081539427597
 30
0.0
  0
VERTEX
  5
8C9
330
8A6
100
AcDbEntity
  8
Livello 1
100
AcDbVertex
100
AcDb2dVertex
 10
16.36666928674923
 20
5.951081539427597
 30
0.0
  0
VERTEX
  5
8CA
330
8A6
100
AcDbEntity
  8
Livello 1
100
AcDbVertex
100
AcDb2dVertex
 10
16.36384323185895
 20
5.948259521758622
 30
0.0
  0
VERTEX
  5
8CB
330
8A6
100
AcDbEntity
  8
Livello 1
100
AcDbVertex
100
AcDb2dVertex
 10
16.36137245244064
 20
5.948259521758622
 30
0.0
  0
VERTEX
  5
8CC
330
8A6
100
AcDbEntity
  8
Livello 1
100
AcDbVertex
100
AcDb2dVertex
 10
16.36137245244064
 20
5.94579008808072
 30
0.0
  0
VERTEX
  5
8CD
330
8A6
100
AcDbEntity
  8
Livello 1
100
AcDbVertex
100
AcDb2dVertex
 10
16.35890705598403
 20
5.94579008808072
 30
0.0
  0
VERTEX
  5
8CE
330
8A6
100
AcDbEntity
  8
Livello 1
100
AcDbVertex
100
AcDb2dVertex
 10
16.35890705598403
 20
5.942968070411751
 30
0.0
  0
VERTEX
  5
8CF
330
8A6
100
AcDbEntity
  8
Livello 1
100
AcDbVertex
100
AcDb2dVertex
 10
16.35608100109372
 20
5.942968070411751
 30
0.0
  0
VERTEX
  5
8D0
330
8A6
100
AcDbEntity
  8
Livello 1
100
AcDbVertex
100
AcDb2dVertex
 10
16.35361560463714
 20
5.940498636733849
 30
0.0
  0
VERTEX
  5
8D1
330
8A6
100
AcDbEntity
  8
Livello 1
100
AcDbVertex
100
AcDb2dVertex
 10
16.35114482521884
 20
5.940498636733849
 30
0.0
  0
VERTEX
  5
8D2
330
8A6
100
AcDbEntity
  8
Livello 1
100
AcDbVertex
100
AcDb2dVertex
 10
16.35114482521884
 20
5.938029203055947
 30
0.0
  0
VERTEX
  5
8D3
330
8A6
100
AcDbEntity
  8
Livello 1
100
AcDbVertex
100
AcDb2dVertex
 10
16.34585337387195
 20
5.938029203055947
 30
0.0
  0
VERTEX
  5
8D4
330
8A6
100
AcDbEntity
  8
Livello 1
100
AcDbVertex
100
AcDb2dVertex
 10
16.34585337387195
 20
5.935207185386971
 30
0.0
  0
VERTEX
  5
8D5
330
8A6
100
AcDbEntity
  8
Livello 1
100
AcDbVertex
100
AcDb2dVertex
 10
16.34338259445356
 20
5.935207185386971
 30
0.0
  0
VERTEX
  5
8D6
330
8A6
100
AcDbEntity
  8
Livello 1
100
AcDbVertex
100
AcDb2dVertex
 10
16.34056192252505
 20
5.932737751709062
 30
0.0
  0
VERTEX
  5
8D7
330
8A6
100
AcDbEntity
  8
Livello 1
100
AcDbVertex
100
AcDb2dVertex
 10
16.33527047117813
 20
5.932737751709062
 30
0.0
  0
VERTEX
  5
8D8
330
8A6
100
AcDbEntity
  8
Livello 1
100
AcDbVertex
100
AcDb2dVertex
 10
16.33527047117813
 20
5.930268318031167
 30
0.0
  0
VERTEX
  5
8D9
330
8A6
100
AcDbEntity
  8
Livello 1
100
AcDbVertex
100
AcDb2dVertex
 10
16.33032891234153
 20
5.930268318031167
 30
0.0
  0
VERTEX
  5
8DA
330
8A6
100
AcDbEntity
  8
Livello 1
100
AcDbVertex
100
AcDb2dVertex
 10
16.32750824041297
 20
5.927446300362191
 30
0.0
  0
VERTEX
  5
8DB
330
8A6
100
AcDbEntity
  8
Livello 1
100
AcDbVertex
100
AcDb2dVertex
 10
16.32257206453805
 20
5.927446300362191
 30
0.0
  0
VERTEX
  5
8DC
330
8A6
100
AcDbEntity
  8
Livello 1
100
AcDbVertex
100
AcDb2dVertex
 10
16.31974600964774
 20
5.924976866684289
 30
0.0
  0
VERTEX
  5
8DD
330
8A6
100
AcDbEntity
  8
Livello 1
100
AcDbVertex
100
AcDb2dVertex
 10
16.31198377888255
 20
5.924976866684289
 30
0.0
  0
VERTEX
  5
8DE
330
8A6
100
AcDbEntity
  8
Livello 1
100
AcDbVertex
100
AcDb2dVertex
 10
16.30951838242596
 20
5.92250743300638
 30
0.0
  0
VERTEX
  5
8DF
330
8A6
100
AcDbEntity
  8
Livello 1
100
AcDbVertex
100
AcDb2dVertex
 10
16.30704760300763
 20
5.92250743300638
 30
0.0
  0
VERTEX
  5
8E0
330
8A6
100
AcDbEntity
  8
Livello 1
100
AcDbVertex
100
AcDb2dVertex
 10
16.28870246954865
 20
5.92250743300638
 30
0.0
  0
VERTEX
  5
8E1
330
8A6
100
AcDbEntity
  8
Livello 1
100
AcDbVertex
100
AcDb2dVertex
 10
16.28341101820173
 20
5.92250743300638
 30
0.0
  0
SEQEND
  5
8E2
330
8A6
100
AcDbEntity
  8
Livello 1
  0
POLYLINE
  5
8E3
330
1F
100
AcDbEntity
  8
Livello 1
100
AcDb2dPolyline
 66
     1
 10
0.0
 20
0.0
 30
0.0
  0
VERTEX
  5
8E4
330
8E3
100
AcDbEntity
  8
Livello 1
100
AcDbVertex
100
AcDb2dVertex
 10
16.41076650896046
 20
6.047038214615191
 30
0.0
  0
VERTEX
  5
8E5
330
8E3
100
AcDbEntity
  8
Livello 1
100
AcDbVertex
100
AcDb2dVertex
 10
16.41076650896046
 20
7.018234855234759
 30
0.0
  0
SEQEND
  5
8E6
330
8E3
100
AcDbEntity
  8
Livello 1
  0
POLYLINE
  5
8E7
330
1F
100
AcDbEntity
  8
Livello 1
100
AcDb2dPolyline
 66
     1
 10
0.0
 20
0.0
 30
0.0
  0
VERTEX
  5
8E8
330
8E7
100
AcDbEntity
  8
Livello 1
100
AcDbVertex
100
AcDb2dVertex
 10
16.28355635816756
 20
7.145517676010506
 30
0.0
  0
VERTEX
  5
8E9
330
8E7
100
AcDbEntity
  8
Livello 1
100
AcDbVertex
100
AcDb2dVertex
 10
16.28884780951445
 20
7.145517676010506
 30
0.0
  0
VERTEX
  5
8EA
330
8E7
100
AcDbEntity
  8
Livello 1
100
AcDbVertex
100
AcDb2dVertex
 10
16.30683766750145
 20
7.145517676010506
 30
0.0
  0
VERTEX
  5
8EB
330
8E7
100
AcDbEntity
  8
Livello 1
100
AcDbVertex
100
AcDb2dVertex
 10
16.30965833943004
 20
7.145517676010506
 30
0.0
  0
VERTEX
  5
8EC
330
8E7
100
AcDbEntity
  8
Livello 1
100
AcDbVertex
100
AcDb2dVertex
 10
16.31212911884837
 20
7.143046896592181
 30
0.0
  0
VERTEX
  5
8ED
330
8E7
100
AcDbEntity
  8
Livello 1
100
AcDbVertex
100
AcDb2dVertex
 10
16.31989134961354
 20
7.143046896592181
 30
0.0
  0
VERTEX
  5
8EE
330
8E7
100
AcDbEntity
  8
Livello 1
100
AcDbVertex
100
AcDb2dVertex
 10
16.32235674607013
 20
7.140224878923206
 30
0.0
  0
VERTEX
  5
8EF
330
8E7
100
AcDbEntity
  8
Livello 1
100
AcDbVertex
100
AcDb2dVertex
 10
16.32765358037874
 20
7.140224878923206
 30
0.0
  0
VERTEX
  5
8F0
330
8E7
100
AcDbEntity
  8
Livello 1
100
AcDbVertex
100
AcDb2dVertex
 10
16.33011897683538
 20
7.137755445245296
 30
0.0
  0
VERTEX
  5
8F1
330
8E7
100
AcDbEntity
  8
Livello 1
100
AcDbVertex
100
AcDb2dVertex
 10
16.33541042818224
 20
7.137755445245296
 30
0.0
  0
VERTEX
  5
8F2
330
8E7
100
AcDbEntity
  8
Livello 1
100
AcDbVertex
100
AcDb2dVertex
 10
16.33541042818224
 20
7.135286011567394
 30
0.0
  0
VERTEX
  5
8F3
330
8E7
100
AcDbEntity
  8
Livello 1
100
AcDbVertex
100
AcDb2dVertex
 10
16.34070187952913
 20
7.135286011567394
 30
0.0
  0
VERTEX
  5
8F4
330
8E7
100
AcDbEntity
  8
Livello 1
100
AcDbVertex
100
AcDb2dVertex
 10
16.34317265894743
 20
7.132463993898419
 30
0.0
  0
VERTEX
  5
8F5
330
8E7
100
AcDbEntity
  8
Livello 1
100
AcDbVertex
100
AcDb2dVertex
 10
16.34599333087605
 20
7.132463993898419
 30
0.0
  0
VERTEX
  5
8F6
330
8E7
100
AcDbEntity
  8
Livello 1
100
AcDbVertex
100
AcDb2dVertex
 10
16.34599333087605
 20
7.129994560220509
 30
0.0
  0
VERTEX
  5
8F7
330
8E7
100
AcDbEntity
  8
Livello 1
100
AcDbVertex
100
AcDb2dVertex
 10
16.35093488971263
 20
7.129994560220509
 30
0.0
  0
VERTEX
  5
8F8
330
8E7
100
AcDbEntity
  8
Livello 1
100
AcDbVertex
100
AcDb2dVertex
 10
16.35093488971263
 20
7.127172542551541
 30
0.0
  0
VERTEX
  5
8F9
330
8E7
100
AcDbEntity
  8
Livello 1
100
AcDbVertex
100
AcDb2dVertex
 10
16.35375556164125
 20
7.127172542551541
 30
0.0
  0
VERTEX
  5
8FA
330
8E7
100
AcDbEntity
  8
Livello 1
100
AcDbVertex
100
AcDb2dVertex
 10
16.35622634105955
 20
7.124703108873646
 30
0.0
  0
VERTEX
  5
8FB
330
8E7
100
AcDbEntity
  8
Livello 1
100
AcDbVertex
100
AcDb2dVertex
 10
16.35869712047785
 20
7.124703108873646
 30
0.0
  0
VERTEX
  5
8FC
330
8E7
100
AcDbEntity
  8
Livello 1
100
AcDbVertex
100
AcDb2dVertex
 10
16.35869712047785
 20
7.122233675195737
 30
0.0
  0
VERTEX
  5
8FD
330
8E7
100
AcDbEntity
  8
Livello 1
100
AcDbVertex
100
AcDb2dVertex
 10
16.36151779240644
 20
7.122233675195737
 30
0.0
  0
VERTEX
  5
8FE
330
8E7
100
AcDbEntity
  8
Livello 1
100
AcDbVertex
100
AcDb2dVertex
 10
16.36151779240644
 20
7.119411657526761
 30
0.0
  0
VERTEX
  5
8FF
330
8E7
100
AcDbEntity
  8
Livello 1
100
AcDbVertex
100
AcDb2dVertex
 10
16.36398857182475
 20
7.119411657526761
 30
0.0
  0
VERTEX
  5
900
330
8E7
100
AcDbEntity
  8
Livello 1
100
AcDbVertex
100
AcDb2dVertex
 10
16.36680924375336
 20
7.116942223848859
 30
0.0
  0
VERTEX
  5
901
330
8E7
100
AcDbEntity
  8
Livello 1
100
AcDbVertex
100
AcDb2dVertex
 10
16.36928002317164
 20
7.116942223848859
 30
0.0
  0
VERTEX
  5
902
330
8E7
100
AcDbEntity
  8
Livello 1
100
AcDbVertex
100
AcDb2dVertex
 10
16.36928002317164
 20
7.114472790170957
 30
0.0
  0
VERTEX
  5
903
330
8E7
100
AcDbEntity
  8
Livello 1
100
AcDbVertex
100
AcDb2dVertex
 10
16.37175080258994
 20
7.111650772501988
 30
0.0
  0
VERTEX
  5
904
330
8E7
100
AcDbEntity
  8
Livello 1
100
AcDbVertex
100
AcDb2dVertex
 10
16.37457147451856
 20
7.111650772501988
 30
0.0
  0
VERTEX
  5
905
330
8E7
100
AcDbEntity
  8
Livello 1
100
AcDbVertex
100
AcDb2dVertex
 10
16.37457147451856
 20
7.109181338824086
 30
0.0
  0
VERTEX
  5
906
330
8E7
100
AcDbEntity
  8
Livello 1
100
AcDbVertex
100
AcDb2dVertex
 10
16.37704225393686
 20
7.109181338824086
 30
0.0
  0
VERTEX
  5
907
330
8E7
100
AcDbEntity
  8
Livello 1
100
AcDbVertex
100
AcDb2dVertex
 10
16.37704225393686
 20
7.10671190514617
 30
0.0
  0
VERTEX
  5
908
330
8E7
100
AcDbEntity
  8
Livello 1
100
AcDbVertex
100
AcDb2dVertex
 10
16.37950765039345
 20
7.103889887477208
 30
0.0
  0
VERTEX
  5
909
330
8E7
100
AcDbEntity
  8
Livello 1
100
AcDbVertex
100
AcDb2dVertex
 10
16.38233370528373
 20
7.103889887477208
 30
0.0
  0
VERTEX
  5
90A
330
8E7
100
AcDbEntity
  8
Livello 1
100
AcDbVertex
100
AcDb2dVertex
 10
16.38233370528373
 20
7.101420453799306
 30
0.0
  0
VERTEX
  5
90B
330
8E7
100
AcDbEntity
  8
Livello 1
100
AcDbVertex
100
AcDb2dVertex
 10
16.38479910174037
 20
7.098597090389901
 30
0.0
  0
VERTEX
  5
90C
330
8E7
100
AcDbEntity
  8
Livello 1
100
AcDbVertex
100
AcDb2dVertex
 10
16.38479910174037
 20
7.096127656711999
 30
0.0
  0
VERTEX
  5
90D
330
8E7
100
AcDbEntity
  8
Livello 1
100
AcDbVertex
100
AcDb2dVertex
 10
16.38726988115864
 20
7.096127656711999
 30
0.0
  0
VERTEX
  5
90E
330
8E7
100
AcDbEntity
  8
Livello 1
100
AcDbVertex
100
AcDb2dVertex
 10
16.38726988115864
 20
7.093658223034104
 30
0.0
  0
VERTEX
  5
90F
330
8E7
100
AcDbEntity
  8
Livello 1
100
AcDbVertex
100
AcDb2dVertex
 10
16.39009055308723
 20
7.093658223034104
 30
0.0
  0
VERTEX
  5
910
330
8E7
100
AcDbEntity
  8
Livello 1
100
AcDbVertex
100
AcDb2dVertex
 10
16.39009055308723
 20
7.090836205365128
 30
0.0
  0
VERTEX
  5
911
330
8E7
100
AcDbEntity
  8
Livello 1
100
AcDbVertex
100
AcDb2dVertex
 10
16.39256133250556
 20
7.088366771687226
 30
0.0
  0
VERTEX
  5
912
330
8E7
100
AcDbEntity
  8
Livello 1
100
AcDbVertex
100
AcDb2dVertex
 10
16.39256133250556
 20
7.085897338009324
 30
0.0
  0
VERTEX
  5
913
330
8E7
100
AcDbEntity
  8
Livello 1
100
AcDbVertex
100
AcDb2dVertex
 10
16.39538200443407
 20
7.085897338009324
 30
0.0
  0
VERTEX
  5
914
330
8E7
100
AcDbEntity
  8
Livello 1
100
AcDbVertex
100
AcDb2dVertex
 10
16.39538200443407
 20
7.080605886662439
 30
0.0
  0
VERTEX
  5
915
330
8E7
100
AcDbEntity
  8
Livello 1
100
AcDbVertex
100
AcDb2dVertex
 10
16.39785278385246
 20
7.080605886662439
 30
0.0
  0
VERTEX
  5
916
330
8E7
100
AcDbEntity
  8
Livello 1
100
AcDbVertex
100
AcDb2dVertex
 10
16.39785278385246
 20
7.078136452984544
 30
0.0
  0
VERTEX
  5
917
330
8E7
100
AcDbEntity
  8
Livello 1
100
AcDbVertex
100
AcDb2dVertex
 10
16.40032356327073
 20
7.075314435315561
 30
0.0
  0
VERTEX
  5
918
330
8E7
100
AcDbEntity
  8
Livello 1
100
AcDbVertex
100
AcDb2dVertex
 10
16.40032356327073
 20
7.070022983968691
 30
0.0
  0
VERTEX
  5
919
330
8E7
100
AcDbEntity
  8
Livello 1
100
AcDbVertex
100
AcDb2dVertex
 10
16.40314423519923
 20
7.070022983968691
 30
0.0
  0
VERTEX
  5
91A
330
8E7
100
AcDbEntity
  8
Livello 1
100
AcDbVertex
100
AcDb2dVertex
 10
16.40314423519923
 20
7.065084116612887
 30
0.0
  0
VERTEX
  5
91B
330
8E7
100
AcDbEntity
  8
Livello 1
100
AcDbVertex
100
AcDb2dVertex
 10
16.40561501461762
 20
7.062262098943925
 30
0.0
  0
VERTEX
  5
91C
330
8E7
100
AcDbEntity
  8
Livello 1
100
AcDbVertex
100
AcDb2dVertex
 10
16.40561501461762
 20
7.057323231588107
 30
0.0
  0
VERTEX
  5
91D
330
8E7
100
AcDbEntity
  8
Livello 1
100
AcDbVertex
100
AcDb2dVertex
 10
16.40808579403595
 20
7.054499868178702
 30
0.0
  0
VERTEX
  5
91E
330
8E7
100
AcDbEntity
  8
Livello 1
100
AcDbVertex
100
AcDb2dVertex
 10
16.40808579403595
 20
7.046738983153929
 30
0.0
  0
VERTEX
  5
91F
330
8E7
100
AcDbEntity
  8
Livello 1
100
AcDbVertex
100
AcDb2dVertex
 10
16.41090646596446
 20
7.044269549476027
 30
0.0
  0
VERTEX
  5
920
330
8E7
100
AcDbEntity
  8
Livello 1
100
AcDbVertex
100
AcDb2dVertex
 10
16.41090646596446
 20
7.041800115798125
 30
0.0
  0
VERTEX
  5
921
330
8E7
100
AcDbEntity
  8
Livello 1
100
AcDbVertex
100
AcDb2dVertex
 10
16.41090646596446
 20
7.023456328079575
 30
0.0
  0
VERTEX
  5
922
330
8E7
100
AcDbEntity
  8
Livello 1
100
AcDbVertex
100
AcDb2dVertex
 10
16.41090646596446
 20
7.018164876732711
 30
0.0
  0
SEQEND
  5
923
330
8E7
100
AcDbEntity
  8
Livello 1
  0
POLYLINE
  5
924
330
1F
100
AcDbEntity
  8
Livello 1
100
AcDb2dPolyline
 66
     1
 10
0.0
 20
0.0
 30
0.0
  0
VERTEX
  5
925
330
924
100
AcDbEntity
  8
Livello 1
100
AcDbVertex
100
AcDb2dVertex
 10
16.28355635816756
 20
7.145517676010506
 30
0.0
  0
VERTEX
  5
926
330
924
100
AcDbEntity
  8
Livello 1
100
AcDbVertex
100
AcDb2dVertex
 10
14.96028441635973
 20
7.145517676010506
 30
0.0
  0
SEQEND
  5
927
330
924
100
AcDbEntity
  8
Livello 1
  0
SPLINE
  5
928
330
1F
100
AcDbEntity
  8
Livello 1
100
AcDbSpline
210
0.0
220
0.0
230
1.0
 70
     8
 71
     3
 72
   176
 73
   172
 74
     0
 42
0.000000001
 43
0.0000000001
 40
0.0
 40
0.0
 40
0.0
 40
0.0
 40
1.0
 40
1.0
 40
1.0
 40
2.0
 40
2.0
 40
2.0
 40
3.0
 40
3.0
 40
3.0
 40
4.0
 40
4.0
 40
4.0
 40
5.0
 40
5.0
 40
5.0
 40
6.0
 40
6.0
 40
6.0
 40
7.0
 40
7.0
 40
7.0
 40
8.0
 40
8.0
 40
8.0
 40
9.0
 40
9.0
 40
9.0
 40
10.0
 40
10.0
 40
10.0
 40
11.0
 40
11.0
 40
11.0
 40
12.0
 40
12.0
 40
12.0
 40
13.0
 40
13.0
 40
13.0
 40
14.0
 40
14.0
 40
14.0
 40
15.0
 40
15.0
 40
15.0
 40
16.0
 40
16.0
 40
16.0
 40
17.0
 40
17.0
 40
17.0
 40
18.0
 40
18.0
 40
18.0
 40
19.0
 40
19.0
 40
19.0
 40
20.0
 40
20.0
 40
20.0
 40
21.0
 40
21.0
 40
21.0
 40
22.0
 40
22.0
 40
22.0
 40
23.0
 40
23.0
 40
23.0
 40
24.0
 40
24.0
 40
24.0
 40
25.0
 40
25.0
 40
25.0
 40
26.0
 40
26.0
 40
26.0
 40
27.0
 40
27.0
 40
27.0
 40
28.0
 40
28.0
 40
28.0
 40
29.0
 40
29.0
 40
29.0
 40
30.0
 40
30.0
 40
30.0
 40
31.0
 40
31.0
 40
31.0
 40
32.0
 40
32.0
 40
32.0
 40
33.0
 40
33.0
 40
33.0
 40
34.0
 40
34.0
 40
34.0
 40
35.0
 40
35.0
 40
35.0
 40
36.0
 40
36.0
 40
36.0
 40
37.0
 40
37.0
 40
37.0
 40
38.0
 40
38.0
 40
38.0
 40
39.0
 40
39.0
 40
39.0
 40
40.0
 40
40.0
 40
40.0
 40
41.0
 40
41.0
 40
41.0
 40
42.0
 40
42.0
 40
42.0
 40
43.0
 40
43.0
 40
43.0
 40
44.0
 40
44.0
 40
44.0
 40
45.0
 40
45.0
 40
45.0
 40
46.0
 40
46.0
 40
46.0
 40
47.0
 40
47.0
 40
47.0
 40
48.0
 40
48.0
 40
48.0
 40
49.0
 40
49.0
 40
49.0
 40
50.0
 40
50.0
 40
50.0
 40
51.0
 40
51.0
 40
51.0
 40
52.0
 40
52.0
 40
52.0
 40
53.0
 40
53.0
 40
53.0
 40
54.0
 40
54.0
 40
54.0
 40
55.0
 40
55.0
 40
55.0
 40
56.0
 40
56.0
 40
56.0
 40
57.0
 40
57.0
 40
57.0
 40
57.0
 10
15.60837685563722
 20
7.566205552712652
 30
0.0
 10
15.60837685563722
 20
7.566205552712652
 30
0.0
 10
15.81862995650964
 20
7.566205552712652
 30
0.0
 10
15.81862995650964
 20
7.566205552712652
 30
0.0
 10
15.81862995650964
 20
7.566205552712652
 30
0.0
 10
15.86554785064946
 20
7.566205552712652
 30
0.0
 10
15.86554785064946
 20
7.566205552712652
 30
0.0
 10
15.86554785064946
 20
7.566205552712652
 30
0.0
 10
15.87048940948604
 20
7.563734773294328
 30
0.0
 10
15.87048940948604
 20
7.563734773294328
 30
0.0
 10
15.87048940948604
 20
7.563734773294328
 30
0.0
 10
15.88107231217985
 20
7.563734773294328
 30
0.0
 10
15.88107231217985
 20
7.563734773294328
 30
0.0
 10
15.88107231217985
 20
7.563734773294328
 30
0.0
 10
15.88636376352672
 20
7.560912755625352
 30
0.0
 10
15.88636376352672
 20
7.560912755625352
 30
0.0
 10
15.88636376352672
 20
7.560912755625352
 30
0.0
 10
15.89659139074855
 20
7.560912755625352
 30
0.0
 10
15.89659139074855
 20
7.560912755625352
 30
0.0
 10
15.89659139074855
 20
7.560912755625352
 30
0.0
 10
15.90188284209544
 20
7.558443321947443
 30
0.0
 10
15.90188284209544
 20
7.558443321947443
 30
0.0
 10
15.90188284209544
 20
7.558443321947443
 30
0.0
 10
15.91211585227897
 20
7.558443321947443
 30
0.0
 10
15.91211585227897
 20
7.558443321947443
 30
0.0
 10
15.91211585227897
 20
7.558443321947443
 30
0.0
 10
15.91740730362586
 20
7.555973888269541
 30
0.0
 10
15.91740730362586
 20
7.555973888269541
 30
0.0
 10
15.91740730362586
 20
7.555973888269541
 30
0.0
 10
15.92269875497273
 20
7.555973888269541
 30
0.0
 10
15.92269875497273
 20
7.555973888269541
 30
0.0
 10
15.92269875497273
 20
7.555973888269541
 30
0.0
 10
15.92764031380936
 20
7.553151870600579
 30
0.0
 10
15.92764031380936
 20
7.553151870600579
 30
0.0
 10
15.92764031380936
 20
7.553151870600579
 30
0.0
 10
15.93293176515622
 20
7.553151870600579
 30
0.0
 10
15.93293176515622
 20
7.553151870600579
 30
0.0
 10
15.93293176515622
 20
7.553151870600579
 30
0.0
 10
15.93822321650314
 20
7.550682436922663
 30
0.0
 10
15.93822321650314
 20
7.550682436922663
 30
0.0
 10
15.93822321650314
 20
7.550682436922663
 30
0.0
 10
15.94351466785004
 20
7.550682436922663
 30
0.0
 10
15.94351466785004
 20
7.550682436922663
 30
0.0
 10
15.94351466785004
 20
7.550682436922663
 30
0.0
 10
15.94598006430665
 20
7.547860419253694
 30
0.0
 10
15.94598006430665
 20
7.547860419253694
 30
0.0
 10
15.94598006430665
 20
7.547860419253694
 30
0.0
 10
15.95127151565354
 20
7.545390985575792
 30
0.0
 10
15.95127151565354
 20
7.545390985575792
 30
0.0
 10
15.95127151565354
 20
7.545390985575792
 30
0.0
 10
15.95621307449015
 20
7.545390985575792
 30
0.0
 10
15.95621307449015
 20
7.545390985575792
 30
0.0
 10
15.95621307449015
 20
7.545390985575792
 30
0.0
 10
15.96150452583704
 20
7.54292155189789
 30
0.0
 10
15.96150452583704
 20
7.54292155189789
 30
0.0
 10
15.96150452583704
 20
7.54292155189789
 30
0.0
 10
15.96679597718396
 20
7.540099534228914
 30
0.0
 10
15.96679597718396
 20
7.540099534228914
 30
0.0
 10
15.96679597718396
 20
7.540099534228914
 30
0.0
 10
15.97208742853085
 20
7.540099534228914
 30
0.0
 10
15.97208742853085
 20
7.540099534228914
 30
0.0
 10
15.97208742853085
 20
7.540099534228914
 30
0.0
 10
15.97702898736746
 20
7.537630100551012
 30
0.0
 10
15.97702898736746
 20
7.537630100551012
 30
0.0
 10
15.97702898736746
 20
7.537630100551012
 30
0.0
 10
15.97984965929596
 20
7.535160666873103
 30
0.0
 10
15.97984965929596
 20
7.535160666873103
 30
0.0
 10
15.97984965929596
 20
7.535160666873103
 30
0.0
 10
15.98478583517097
 20
7.532338649204142
 30
0.0
 10
15.98478583517097
 20
7.532338649204142
 30
0.0
 10
15.98478583517097
 20
7.532338649204142
 30
0.0
 10
15.99007728651786
 20
7.532338649204142
 30
0.0
 10
15.99007728651786
 20
7.532338649204142
 30
0.0
 10
16.00877769544872
 20
7.522813498483586
 30
0.0
 10
16.02676755343573
 20
7.511876666058348
 30
0.0
 10
16.04476279438445
 20
7.501293763364593
 30
0.0
 10
16.04476279438445
 20
7.501293763364593
 30
0.0
 10
16.05499042160635
 20
7.496002312017722
 30
0.0
 10
16.05499042160635
 20
7.496002312017722
 30
0.0
 10
16.05499042160635
 20
7.496002312017722
 30
0.0
 10
16.05781109353485
 20
7.49353287833982
 30
0.0
 10
16.05781109353485
 20
7.49353287833982
 30
0.0
 10
16.05781109353485
 20
7.49353287833982
 30
0.0
 10
16.06275265237154
 20
7.490710860670837
 30
0.0
 10
16.06275265237154
 20
7.490710860670837
 30
0.0
 10
16.06275265237154
 20
7.490710860670837
 30
0.0
 10
16.06557332430005
 20
7.488241426992935
 30
0.0
 10
16.06557332430005
 20
7.488241426992935
 30
0.0
 10
16.06557332430005
 20
7.488241426992935
 30
0.0
 10
16.07051488313674
 20
7.485771993315033
 30
0.0
 10
16.07051488313674
 20
7.485771993315033
 30
0.0
 10
16.07051488313674
 20
7.485771993315033
 30
0.0
 10
16.07827173094024
 20
7.478011108290253
 30
0.0
 10
16.07827173094024
 20
7.478011108290253
 30
0.0
 10
16.07827173094024
 20
7.478011108290253
 30
0.0
 10
16.08356318228713
 20
7.475187744880862
 30
0.0
 10
16.08356318228713
 20
7.475187744880862
 30
0.0
 10
16.09450136045272
 20
7.463193160482397
 30
0.0
 10
16.09238585650634
 20
7.467426859856075
 30
0.0
 10
16.10190831574603
 20
7.459665974831295
 30
0.0
 10
16.10190831574603
 20
7.459665974831295
 30
0.0
 10
16.12519500804164
 20
7.436383319756956
 30
0.0
 10
16.12519500804164
 20
7.436383319756956
 30
0.0
 10
16.16187989199785
 20
7.398987884856921
 30
0.0
 10
16.18058030092872
 20
7.362298963679428
 30
0.0
 10
16.20562722169886
 20
7.316791405503963
 30
0.0
 10
16.20562722169886
 20
7.316791405503963
 30
0.0
 10
16.20562722169886
 20
7.311852538148144
 30
0.0
 10
16.20562722169886
 20
7.311852538148144
 30
0.0
 10
16.20562722169886
 20
7.311852538148144
 30
0.0
 10
16.20809800111713
 20
7.306561086801266
 30
0.0
 10
16.20809800111713
 20
7.306561086801266
 30
0.0
 10
16.20809800111713
 20
7.306561086801266
 30
0.0
 10
16.21091867304572
 20
7.303737723391868
 30
0.0
 10
16.21091867304572
 20
7.303737723391868
 30
0.0
 10
16.21091867304572
 20
7.303737723391868
 30
0.0
 10
16.21338945246406
 20
7.298798856036064
 30
0.0
 10
16.21338945246406
 20
7.298798856036064
 30
0.0
 10
16.21338945246406
 20
7.298798856036064
 30
0.0
 10
16.21338945246406
 20
7.293507404689179
 30
0.0
 10
16.21338945246406
 20
7.293507404689179
 30
0.0
 10
16.21338945246406
 20
7.293507404689179
 30
0.0
 10
16.21868090381095
 20
7.283277085986505
 30
0.0
 10
16.21868090381095
 20
7.283277085986505
 30
0.0
 10
16.21868090381095
 20
7.283277085986505
 30
0.0
 10
16.21868090381095
 20
7.27798563463962
 30
0.0
 10
16.21868090381095
 20
7.27798563463962
 30
0.0
 10
16.21868090381095
 20
7.27798563463962
 30
0.0
 10
16.22115168322925
 20
7.272694183292756
 30
0.0
 10
16.22115168322925
 20
7.272694183292756
 30
0.0
 10
16.22115168322925
 20
7.272694183292756
 30
0.0
 10
16.22397235515787
 20
7.270224749614854
 30
0.0
 10
16.22397235515787
 20
7.270224749614854
 30
0.0
 10
16.22397235515787
 20
7.270224749614854
 30
0.0
 10
16.22397235515787
 20
7.264933298267976
 30
0.0
 10
16.22397235515787
 20
7.264933298267976
 30
0.0
 10
16.22397235515787
 20
7.264933298267976
 30
0.0
 10
16.22644313457614
 20
7.259640501180676
 30
0.0
 10
16.22644313457614
 20
7.259640501180676
 30
0.0
 10
16.22644313457614
 20
7.259640501180676
 30
0.0
 10
16.22644313457614
 20
7.254701633824865
 30
0.0
 10
16.22644313457614
 20
7.254701633824865
 30
0.0
 10
16.22644313457614
 20
7.254701633824865
 30
0.0
 10
16.22890853103273
 20
7.249410182478001
 30
0.0
 10
16.22890853103273
 20
7.249410182478001
 30
0.0
 10
16.22890853103273
 20
7.249410182478001
 30
0.0
 10
16.22890853103273
 20
7.244118731131116
 30
0.0
 10
16.22890853103273
 20
7.244118731131116
 30
0.0
 10
16.22890853103273
 20
7.244118731131116
 30
0.0
 10
16.23173458592303
 20
7.238827279784246
 30
0.0
 10
16.23173458592303
 20
7.238827279784246
 30
0.0
 10
16.23173458592303
 20
7.238827279784246
 30
0.0
 10
16.23173458592303
 20
7.228596961081557
 30
0.0
 10
16.23173458592303
 20
7.228596961081557
 30
0.0
 10
16.23173458592303
 20
7.228596961081557
 30
0.0
 10
16.23419998237965
 20
7.223305509734679
 30
0.0
 10
16.23419998237965
 20
7.223305509734679
 30
0.0
 10
16.23419998237965
 20
7.223305509734679
 30
0.0
 10
16.23419998237965
 20
7.213073845291575
 30
0.0
 10
16.23419998237965
 20
7.213073845291575
 30
0.0
 10
16.23419998237965
 20
7.213073845291575
 30
0.0
 10
16.23667076179795
 20
7.207782393944697
 30
0.0
 10
16.23667076179795
 20
7.207782393944697
 30
0.0
 10
16.23667076179795
 20
7.207782393944697
 30
0.0
 10
16.23667076179795
 20
7.197552075242015
 30
0.0
 10
16.23667076179795
 20
7.197552075242015
 30
0.0
 10
16.23667076179795
 20
7.197552075242015
 30
0.0
 10
16.23949143372654
 20
7.192260623895144
 30
0.0
 10
16.23949143372654
 20
7.192260623895144
 30
0.0
 10
16.23949143372654
 20
7.192260623895144
 30
0.0
 10
16.23949143372654
 20
7.145341384014962
 30
0.0
 10
16.23949143372654
 20
7.145341384014962
 30
0.0
  0
POLYLINE
  5
929
330
1F
100
AcDbEntity
  8
Livello 1
100
AcDb2dPolyline
 66
     1
 10
0.0
 20
0.0
 30
0.0
  0
VERTEX
  5
92A
330
929
100
AcDbEntity
  8
Livello 1
100
AcDbVertex
100
AcDb2dVertex
 10
15.56682039134647
 20
7.524647742681402
 30
0.0
  0
VERTEX
  5
92B
330
929
100
AcDbEntity
  8
Livello 1
100
AcDbVertex
100
AcDb2dVertex
 10
15.56928578780305
 20
7.527117176359311
 30
0.0
  0
VERTEX
  5
92C
330
929
100
AcDbEntity
  8
Livello 1
100
AcDbVertex
100
AcDb2dVertex
 10
15.56928578780305
 20
7.540169512730962
 30
0.0
  0
VERTEX
  5
92D
330
929
100
AcDbEntity
  8
Livello 1
100
AcDbVertex
100
AcDb2dVertex
 10
15.57211184269336
 20
7.540169512730962
 30
0.0
  0
VERTEX
  5
92E
330
929
100
AcDbEntity
  8
Livello 1
100
AcDbVertex
100
AcDb2dVertex
 10
15.57211184269336
 20
7.54546096407784
 30
0.0
  0
VERTEX
  5
92F
330
929
100
AcDbEntity
  8
Livello 1
100
AcDbVertex
100
AcDb2dVertex
 10
15.57457723914994
 20
7.54546096407784
 30
0.0
  0
VERTEX
  5
930
330
929
100
AcDbEntity
  8
Livello 1
100
AcDbVertex
100
AcDb2dVertex
 10
15.57457723914994
 20
7.55075241542471
 30
0.0
  0
VERTEX
  5
931
330
929
100
AcDbEntity
  8
Livello 1
100
AcDbVertex
100
AcDb2dVertex
 10
15.57704801856822
 20
7.55075241542471
 30
0.0
  0
VERTEX
  5
932
330
929
100
AcDbEntity
  8
Livello 1
100
AcDbVertex
100
AcDb2dVertex
 10
15.57704801856822
 20
7.553221849102612
 30
0.0
  0
VERTEX
  5
933
330
929
100
AcDbEntity
  8
Livello 1
100
AcDbVertex
100
AcDb2dVertex
 10
15.57986869049686
 20
7.553221849102612
 30
0.0
  0
VERTEX
  5
934
330
929
100
AcDbEntity
  8
Livello 1
100
AcDbVertex
100
AcDb2dVertex
 10
15.57986869049686
 20
7.555691282780514
 30
0.0
  0
VERTEX
  5
935
330
929
100
AcDbEntity
  8
Livello 1
100
AcDbVertex
100
AcDb2dVertex
 10
15.58233946991514
 20
7.555691282780514
 30
0.0
  0
VERTEX
  5
936
330
929
100
AcDbEntity
  8
Livello 1
100
AcDbVertex
100
AcDb2dVertex
 10
15.58233946991514
 20
7.558513300449497
 30
0.0
  0
VERTEX
  5
937
330
929
100
AcDbEntity
  8
Livello 1
100
AcDbVertex
100
AcDb2dVertex
 10
15.58516014184364
 20
7.558513300449497
 30
0.0
  0
VERTEX
  5
938
330
929
100
AcDbEntity
  8
Livello 1
100
AcDbVertex
100
AcDb2dVertex
 10
15.58516014184364
 20
7.560982734127399
 30
0.0
  0
VERTEX
  5
939
330
929
100
AcDbEntity
  8
Livello 1
100
AcDbVertex
100
AcDb2dVertex
 10
15.59010170068036
 20
7.560982734127399
 30
0.0
  0
VERTEX
  5
93A
330
929
100
AcDbEntity
  8
Livello 1
100
AcDbVertex
100
AcDb2dVertex
 10
15.59010170068036
 20
7.563452167805294
 30
0.0
  0
VERTEX
  5
93B
330
929
100
AcDbEntity
  8
Livello 1
100
AcDbVertex
100
AcDb2dVertex
 10
15.59539315202723
 20
7.563452167805294
 30
0.0
  0
VERTEX
  5
93C
330
929
100
AcDbEntity
  8
Livello 1
100
AcDbVertex
100
AcDb2dVertex
 10
15.59539315202723
 20
7.56627418547427
 30
0.0
  0
VERTEX
  5
93D
330
929
100
AcDbEntity
  8
Livello 1
100
AcDbVertex
100
AcDb2dVertex
 10
15.60844683413923
 20
7.56627418547427
 30
0.0
  0
SEQEND
  5
93E
330
929
100
AcDbEntity
  8
Livello 1
  0
POLYLINE
  5
93F
330
1F
100
AcDbEntity
  8
Livello 1
100
AcDb2dPolyline
 66
     1
 10
0.0
 20
0.0
 30
0.0
  0
VERTEX
  5
940
330
93F
100
AcDbEntity
  8
Livello 1
100
AcDbVertex
100
AcDb2dVertex
 10
15.56682039134647
 20
7.145517676010506
 30
0.0
  0
VERTEX
  5
941
330
93F
100
AcDbEntity
  8
Livello 1
100
AcDbVertex
100
AcDb2dVertex
 10
15.56682039134647
 20
7.524752710434469
 30
0.0
  0
SEQEND
  5
942
330
93F
100
AcDbEntity
  8
Livello 1
  0
POLYLINE
  5
943
330
1F
100
AcDbEntity
  8
Livello 1
100
AcDb2dPolyline
 66
     1
 10
0.0
 20
0.0
 30
0.0
  0
VERTEX
  5
944
330
943
100
AcDbEntity
  8
Livello 1
100
AcDbVertex
100
AcDb2dVertex
 10
15.60837685563722
 20
5.527642969298959
 30
0.0
  0
VERTEX
  5
945
330
943
100
AcDbEntity
  8
Livello 1
100
AcDbVertex
100
AcDb2dVertex
 10
15.60837685563722
 20
5.530112402976861
 30
0.0
  0
VERTEX
  5
946
330
943
100
AcDbEntity
  8
Livello 1
100
AcDbVertex
100
AcDb2dVertex
 10
15.59532317352516
 20
5.530112402976861
 30
0.0
  0
VERTEX
  5
947
330
943
100
AcDbEntity
  8
Livello 1
100
AcDbVertex
100
AcDb2dVertex
 10
15.59532317352516
 20
5.532934420645823
 30
0.0
  0
VERTEX
  5
948
330
943
100
AcDbEntity
  8
Livello 1
100
AcDbVertex
100
AcDb2dVertex
 10
15.59003172217824
 20
5.532934420645823
 30
0.0
  0
VERTEX
  5
949
330
943
100
AcDbEntity
  8
Livello 1
100
AcDbVertex
100
AcDb2dVertex
 10
15.58756094275996
 20
5.535403854323739
 30
0.0
  0
VERTEX
  5
94A
330
943
100
AcDbEntity
  8
Livello 1
100
AcDbVertex
100
AcDb2dVertex
 10
15.58509016334163
 20
5.535403854323739
 30
0.0
  0
VERTEX
  5
94B
330
943
100
AcDbEntity
  8
Livello 1
100
AcDbVertex
100
AcDb2dVertex
 10
15.58509016334163
 20
5.537873288001634
 30
0.0
  0
VERTEX
  5
94C
330
943
100
AcDbEntity
  8
Livello 1
100
AcDbVertex
100
AcDb2dVertex
 10
15.58226949141304
 20
5.537873288001634
 30
0.0
  0
VERTEX
  5
94D
330
943
100
AcDbEntity
  8
Livello 1
100
AcDbVertex
100
AcDb2dVertex
 10
15.57979871199474
 20
5.54069530567061
 30
0.0
  0
VERTEX
  5
94E
330
943
100
AcDbEntity
  8
Livello 1
100
AcDbVertex
100
AcDb2dVertex
 10
15.57732793257644
 20
5.54069530567061
 30
0.0
  0
VERTEX
  5
94F
330
943
100
AcDbEntity
  8
Livello 1
100
AcDbVertex
100
AcDb2dVertex
 10
15.57732793257644
 20
5.543164739348512
 30
0.0
  0
VERTEX
  5
950
330
943
100
AcDbEntity
  8
Livello 1
100
AcDbVertex
100
AcDb2dVertex
 10
15.57450726064785
 20
5.545986757017487
 30
0.0
  0
VERTEX
  5
951
330
943
100
AcDbEntity
  8
Livello 1
100
AcDbVertex
100
AcDb2dVertex
 10
15.57450726064785
 20
5.548456190695382
 30
0.0
  0
VERTEX
  5
952
330
943
100
AcDbEntity
  8
Livello 1
100
AcDbVertex
100
AcDb2dVertex
 10
15.57203648122954
 20
5.548456190695382
 30
0.0
  0
VERTEX
  5
953
330
943
100
AcDbEntity
  8
Livello 1
100
AcDbVertex
100
AcDb2dVertex
 10
15.57203648122954
 20
5.550925624373292
 30
0.0
  0
VERTEX
  5
954
330
943
100
AcDbEntity
  8
Livello 1
100
AcDbVertex
100
AcDb2dVertex
 10
15.56957108477296
 20
5.55374764204226
 30
0.0
  0
VERTEX
  5
955
330
943
100
AcDbEntity
  8
Livello 1
100
AcDbVertex
100
AcDb2dVertex
 10
15.56957108477296
 20
5.558686509398071
 30
0.0
  0
VERTEX
  5
956
330
943
100
AcDbEntity
  8
Livello 1
100
AcDbVertex
100
AcDb2dVertex
 10
15.56674502988265
 20
5.558686509398071
 30
0.0
  0
VERTEX
  5
957
330
943
100
AcDbEntity
  8
Livello 1
100
AcDbVertex
100
AcDb2dVertex
 10
15.56674502988265
 20
5.571740191510144
 30
0.0
  0
VERTEX
  5
958
330
943
100
AcDbEntity
  8
Livello 1
100
AcDbVertex
100
AcDb2dVertex
 10
15.56427963342604
 20
5.571740191510144
 30
0.0
  0
SEQEND
  5
959
330
943
100
AcDbEntity
  8
Livello 1
  0
POLYLINE
  5
95A
330
1F
100
AcDbEntity
  8
Livello 1
100
AcDb2dPolyline
 66
     1
 10
0.0
 20
0.0
 30
0.0
  0
VERTEX
  5
95B
330
95A
100
AcDbEntity
  8
Livello 1
100
AcDbVertex
100
AcDb2dVertex
 10
15.81869993501173
 20
5.527642969298959
 30
0.0
  0
VERTEX
  5
95C
330
95A
100
AcDbEntity
  8
Livello 1
100
AcDbVertex
100
AcDb2dVertex
 10
15.60844145117754
 20
5.527642969298959
 30
0.0
  0
SEQEND
  5
95D
330
95A
100
AcDbEntity
  8
Livello 1
  0
SPLINE
  5
95E
330
1F
100
AcDbEntity
  8
Livello 1
100
AcDbSpline
210
0.0
220
0.0
230
1.0
 70
     8
 71
     3
 72
   227
 73
   223
 74
     0
 42
0.000000001
 43
0.0000000001
 40
0.0
 40
0.0
 40
0.0
 40
0.0
 40
1.0
 40
1.0
 40
1.0
 40
2.0
 40
2.0
 40
2.0
 40
3.0
 40
3.0
 40
3.0
 40
4.0
 40
4.0
 40
4.0
 40
5.0
 40
5.0
 40
5.0
 40
6.0
 40
6.0
 40
6.0
 40
7.0
 40
7.0
 40
7.0
 40
8.0
 40
8.0
 40
8.0
 40
9.0
 40
9.0
 40
9.0
 40
10.0
 40
10.0
 40
10.0
 40
11.0
 40
11.0
 40
11.0
 40
12.0
 40
12.0
 40
12.0
 40
13.0
 40
13.0
 40
13.0
 40
14.0
 40
14.0
 40
14.0
 40
15.0
 40
15.0
 40
15.0
 40
16.0
 40
16.0
 40
16.0
 40
17.0
 40
17.0
 40
17.0
 40
18.0
 40
18.0
 40
18.0
 40
19.0
 40
19.0
 40
19.0
 40
20.0
 40
20.0
 40
20.0
 40
21.0
 40
21.0
 40
21.0
 40
22.0
 40
22.0
 40
22.0
 40
23.0
 40
23.0
 40
23.0
 40
24.0
 40
24.0
 40
24.0
 40
25.0
 40
25.0
 40
25.0
 40
26.0
 40
26.0
 40
26.0
 40
27.0
 40
27.0
 40
27.0
 40
28.0
 40
28.0
 40
28.0
 40
29.0
 40
29.0
 40
29.0
 40
30.0
 40
30.0
 40
30.0
 40
31.0
 40
31.0
 40
31.0
 40
32.0
 40
32.0
 40
32.0
 40
33.0
 40
33.0
 40
33.0
 40
34.0
 40
34.0
 40
34.0
 40
35.0
 40
35.0
 40
35.0
 40
36.0
 40
36.0
 40
36.0
 40
37.0
 40
37.0
 40
37.0
 40
38.0
 40
38.0
 40
38.0
 40
39.0
 40
39.0
 40
39.0
 40
40.0
 40
40.0
 40
40.0
 40
41.0
 40
41.0
 40
41.0
 40
42.0
 40
42.0
 40
42.0
 40
43.0
 40
43.0
 40
43.0
 40
44.0
 40
44.0
 40
44.0
 40
45.0
 40
45.0
 40
45.0
 40
46.0
 40
46.0
 40
46.0
 40
47.0
 40
47.0
 40
47.0
 40
48.0
 40
48.0
 40
48.0
 40
49.0
 40
49.0
 40
49.0
 40
50.0
 40
50.0
 40
50.0
 40
51.0
 40
51.0
 40
51.0
 40
52.0
 40
52.0
 40
52.0
 40
53.0
 40
53.0
 40
53.0
 40
54.0
 40
54.0
 40
54.0
 40
55.0
 40
55.0
 40
55.0
 40
56.0
 40
56.0
 40
56.0
 40
57.0
 40
57.0
 40
57.0
 40
58.0
 40
58.0
 40
58.0
 40
59.0
 40
59.0
 40
59.0
 40
60.0
 40
60.0
 40
60.0
 40
61.0
 40
61.0
 40
61.0
 40
62.0
 40
62.0
 40
62.0
 40
63.0
 40
63.0
 40
63.0
 40
64.0
 40
64.0
 40
64.0
 40
65.0
 40
65.0
 40
65.0
 40
66.0
 40
66.0
 40
66.0
 40
67.0
 40
67.0
 40
67.0
 40
68.0
 40
68.0
 40
68.0
 40
69.0
 40
69.0
 40
69.0
 40
70.0
 40
70.0
 40
70.0
 40
71.0
 40
71.0
 40
71.0
 40
72.0
 40
72.0
 40
72.0
 40
73.0
 40
73.0
 40
73.0
 40
74.0
 40
74.0
 40
74.0
 40
74.0
 10
16.23938915745437
 20
5.919790383090472
 30
0.0
 10
16.23938915745437
 20
5.919790383090472
 30
0.0
 10
16.23938915745437
 20
5.901445249631528
 30
0.0
 10
16.23938915745437
 20
5.901445249631528
 30
0.0
 10
16.23938915745437
 20
5.901445249631528
 30
0.0
 10
16.23691837803595
 20
5.896506382275717
 30
0.0
 10
16.23691837803595
 20
5.896506382275717
 30
0.0
 10
16.23691837803595
 20
5.896506382275717
 30
0.0
 10
16.23691837803595
 20
5.880984612226157
 30
0.0
 10
16.23691837803595
 20
5.880984612226157
 30
0.0
 10
16.23691837803595
 20
5.880984612226157
 30
0.0
 10
16.23409232314573
 20
5.875693160879279
 30
0.0
 10
16.23409232314573
 20
5.875693160879279
 30
0.0
 10
16.23409232314573
 20
5.875693160879279
 30
0.0
 10
16.23409232314573
 20
5.870400363791972
 30
0.0
 10
16.23409232314573
 20
5.870400363791972
 30
0.0
 10
16.23409232314573
 20
5.870400363791972
 30
0.0
 10
16.23162692668914
 20
5.865108912445109
 30
0.0
 10
16.23162692668914
 20
5.865108912445109
 30
0.0
 10
16.23162692668914
 20
5.865108912445109
 30
0.0
 10
16.23162692668914
 20
5.854878593742427
 30
0.0
 10
16.23162692668914
 20
5.854878593742427
 30
0.0
 10
16.23162692668914
 20
5.854878593742427
 30
0.0
 10
16.22915614727073
 20
5.849587142395549
 30
0.0
 10
16.22915614727073
 20
5.849587142395549
 30
0.0
 10
16.22915614727073
 20
5.849587142395549
 30
0.0
 10
16.22915614727073
 20
5.844295691048671
 30
0.0
 10
16.22915614727073
 20
5.844295691048671
 30
0.0
 10
16.22915614727073
 20
5.844295691048671
 30
0.0
 10
16.22633547534222
 20
5.839356823692867
 30
0.0
 10
16.22633547534222
 20
5.839356823692867
 30
0.0
 10
16.22633547534222
 20
5.839356823692867
 30
0.0
 10
16.22633547534222
 20
5.834065372345996
 30
0.0
 10
16.22633547534222
 20
5.834065372345996
 30
0.0
 10
16.22633547534222
 20
5.834065372345996
 30
0.0
 10
16.22104402399536
 20
5.823833707902871
 30
0.0
 10
16.22104402399536
 20
5.823833707902871
 30
0.0
 10
16.22104402399536
 20
5.823833707902871
 30
0.0
 10
16.22104402399536
 20
5.818542256556007
 30
0.0
 10
16.22104402399536
 20
5.818542256556007
 30
0.0
 10
16.22104402399536
 20
5.818542256556007
 30
0.0
 10
16.21857324457706
 20
5.815720238887038
 30
0.0
 10
16.21857324457706
 20
5.815720238887038
 30
0.0
 10
16.21857324457706
 20
5.815720238887038
 30
0.0
 10
16.21610246515873
 20
5.81078137153122
 30
0.0
 10
16.21610246515873
 20
5.81078137153122
 30
0.0
 10
16.21610246515873
 20
5.81078137153122
 30
0.0
 10
16.21610246515873
 20
5.805489920184349
 30
0.0
 10
16.21610246515873
 20
5.805489920184349
 30
0.0
 10
16.21610246515873
 20
5.805489920184349
 30
0.0
 10
16.21081101381186
 20
5.795259601481667
 30
0.0
 10
16.21081101381186
 20
5.795259601481667
 30
0.0
 10
16.21081101381186
 20
5.795259601481667
 30
0.0
 10
16.21081101381186
 20
5.789968150134782
 30
0.0
 10
16.21081101381186
 20
5.789968150134782
 30
0.0
 10
16.21081101381186
 20
5.789968150134782
 30
0.0
 10
16.20834023439353
 20
5.784675353047489
 30
0.0
 10
16.20834023439353
 20
5.784675353047489
 30
0.0
 10
16.20834023439353
 20
5.784675353047489
 30
0.0
 10
16.20551956246494
 20
5.782205919369587
 30
0.0
 10
16.20551956246494
 20
5.782205919369587
 30
0.0
 10
16.20551956246494
 20
5.782205919369587
 30
0.0
 10
16.19775733169975
 20
5.766684149320035
 30
0.0
 10
16.19775733169975
 20
5.766684149320035
 30
0.0
 10
16.19775733169975
 20
5.766684149320035
 30
0.0
 10
16.19775733169975
 20
5.76139269797315
 30
0.0
 10
16.19775733169975
 20
5.76139269797315
 30
0.0
 10
16.19775733169975
 20
5.76139269797315
 30
0.0
 10
16.19529193524313
 20
5.758923264295248
 30
0.0
 10
16.19529193524313
 20
5.758923264295248
 30
0.0
 10
16.19529193524313
 20
5.758923264295248
 30
0.0
 10
16.18752970447796
 20
5.743047564514192
 30
0.0
 10
16.18752970447796
 20
5.743047564514192
 30
0.0
 10
16.18752970447796
 20
5.743047564514192
 30
0.0
 10
16.18470364958763
 20
5.74057813083629
 30
0.0
 10
16.18470364958763
 20
5.74057813083629
 30
0.0
 10
16.18470364958763
 20
5.74057813083629
 30
0.0
 10
16.17976747371274
 20
5.730347812133608
 30
0.0
 10
16.17976747371274
 20
5.730347812133608
 30
0.0
 10
16.17976747371274
 20
5.730347812133608
 30
0.0
 10
16.17694680178412
 20
5.727525794464639
 30
0.0
 10
16.17694680178412
 20
5.727525794464639
 30
0.0
 10
16.17694680178412
 20
5.727525794464639
 30
0.0
 10
16.17200524294755
 20
5.717295475761957
 30
0.0
 10
16.17200524294755
 20
5.717295475761957
 30
0.0
 10
16.17200524294755
 20
5.717295475761957
 30
0.0
 10
16.16671379160066
 20
5.714473458092989
 30
0.0
 10
16.16671379160066
 20
5.714473458092989
 30
0.0
 10
16.16671379160066
 20
5.714473458092989
 30
0.0
 10
16.16142234025373
 20
5.704243139390285
 30
0.0
 10
16.16142234025373
 20
5.704243139390285
 30
0.0
 10
16.16142234025373
 20
5.704243139390285
 30
0.0
 10
16.15895156083546
 20
5.701773705712398
 30
0.0
 10
16.15895156083546
 20
5.701773705712398
 30
0.0
 10
16.15895156083546
 20
5.701773705712398
 30
0.0
 10
16.15613088890687
 20
5.696480908625098
 30
0.0
 10
16.15613088890687
 20
5.696480908625098
 30
0.0
 10
16.15613088890687
 20
5.696480908625098
 30
0.0
 10
16.14836865814165
 20
5.688720023600311
 30
0.0
 10
16.14836865814165
 20
5.688720023600311
 30
0.0
 10
16.14836865814165
 20
5.688720023600311
 30
0.0
 10
16.14589787872334
 20
5.68342857225344
 30
0.0
 10
16.14589787872334
 20
5.68342857225344
 30
0.0
 10
16.14589787872334
 20
5.68342857225344
 30
0.0
 10
16.13567025150153
 20
5.673198253550751
 30
0.0
 10
16.13567025150153
 20
5.673198253550751
 30
0.0
 10
16.13567025150153
 20
5.673198253550751
 30
0.0
 10
16.13284957957295
 20
5.667906802203887
 30
0.0
 10
16.13284957957295
 20
5.667906802203887
 30
0.0
 10
16.13284957957295
 20
5.667906802203887
 30
0.0
 10
16.12755812822605
 20
5.665437368525971
 30
0.0
 10
16.12755812822605
 20
5.665437368525971
 30
0.0
 10
16.12755812822605
 20
5.665437368525971
 30
0.0
 10
16.12508734880772
 20
5.660145917179107
 30
0.0
 10
16.12508734880772
 20
5.660145917179107
 30
0.0
 10
16.12508734880772
 20
5.660145917179107
 30
0.0
 10
16.12261656938945
 20
5.657322553769702
 30
0.0
 10
16.12261656938945
 20
5.657322553769702
 30
0.0
 10
16.12261656938945
 20
5.657322553769702
 30
0.0
 10
16.11732511804255
 20
5.654853120091814
 30
0.0
 10
16.11732511804255
 20
5.654853120091814
 30
0.0
 10
16.11732511804255
 20
5.654853120091814
 30
0.0
 10
16.11485433862422
 20
5.649561668744929
 30
0.0
 10
16.11485433862422
 20
5.649561668744929
 30
0.0
 10
16.11485433862422
 20
5.649561668744929
 30
0.0
 10
16.10956288727736
 20
5.647092235067027
 30
0.0
 10
16.10956288727736
 20
5.647092235067027
 30
0.0
 10
16.10956288727736
 20
5.647092235067027
 30
0.0
 10
16.10709749082075
 20
5.641800783720142
 30
0.0
 10
16.10709749082075
 20
5.641800783720142
 30
0.0
 10
16.10709749082075
 20
5.641800783720142
 30
0.0
 10
16.10427143593044
 20
5.639331350042247
 30
0.0
 10
16.10427143593044
 20
5.639331350042247
 30
0.0
 10
16.10427143593044
 20
5.639331350042247
 30
0.0
 10
16.09897998458363
 20
5.636861916364331
 30
0.0
 10
16.09897998458363
 20
5.636861916364331
 30
0.0
 10
16.09897998458363
 20
5.636861916364331
 30
0.0
 10
16.09650920516525
 20
5.63157046501746
 30
0.0
 10
16.09650920516525
 20
5.63157046501746
 30
0.0
 10
16.09650920516525
 20
5.63157046501746
 30
0.0
 10
16.09121775381847
 20
5.628748447348492
 30
0.0
 10
16.09121775381847
 20
5.628748447348492
 30
0.0
 10
16.09121775381847
 20
5.628748447348492
 30
0.0
 10
16.08875235736174
 20
5.626279013670583
 30
0.0
 10
16.08875235736174
 20
5.626279013670583
 30
0.0
 10
16.08875235736174
 20
5.626279013670583
 30
0.0
 10
16.08346090601488
 20
5.623809579992688
 30
0.0
 10
16.08346090601488
 20
5.623809579992688
 30
0.0
 10
16.08346090601488
 20
5.623809579992688
 30
0.0
 10
16.07569867524962
 20
5.616048694967901
 30
0.0
 10
16.07569867524962
 20
5.616048694967901
 30
0.0
 10
16.07569867524962
 20
5.616048694967901
 30
0.0
 10
16.07075711641305
 20
5.613225331558503
 30
0.0
 10
16.07075711641305
 20
5.613225331558503
 30
0.0
 10
16.07075711641305
 20
5.613225331558503
 30
0.0
 10
16.06793644448446
 20
5.610755897880601
 30
0.0
 10
16.06793644448446
 20
5.610755897880601
 30
0.0
 10
16.06793644448446
 20
5.610755897880601
 30
0.0
 10
16.06264499313757
 20
5.608286464202691
 30
0.0
 10
16.06264499313757
 20
5.608286464202691
 30
0.0
 10
16.06264499313757
 20
5.608286464202691
 30
0.0
 10
16.05770343430096
 20
5.605464446533723
 30
0.0
 10
16.05770343430096
 20
5.605464446533723
 30
0.0
 10
16.05770343430096
 20
5.605464446533723
 30
0.0
 10
16.05488276237245
 20
5.600172995186852
 30
0.0
 10
16.05488276237245
 20
5.600172995186852
 30
0.0
 10
16.05488276237245
 20
5.600172995186852
 30
0.0
 10
16.04994658649745
 20
5.59770356150895
 30
0.0
 10
16.04994658649745
 20
5.59770356150895
 30
0.0
 10
16.04994658649745
 20
5.59770356150895
 30
0.0
 10
16.04465513515056
 20
5.595234127831041
 30
0.0
 10
16.04465513515056
 20
5.595234127831041
 30
0.0
 10
16.04465513515056
 20
5.595234127831041
 30
0.0
 10
16.04182908026034
 20
5.592412110162079
 30
0.0
 10
16.04182908026034
 20
5.592412110162079
 30
0.0
 10
16.04182908026034
 20
5.592412110162079
 30
0.0
 10
16.03160145303845
 20
5.587473242806268
 30
0.0
 10
16.03160145303845
 20
5.587473242806268
 30
0.0
 10
16.03160145303845
 20
5.587473242806268
 30
0.0
 10
16.02913067362014
 20
5.584651225137292
 30
0.0
 10
16.02913067362014
 20
5.584651225137292
 30
0.0
 10
16.02913067362014
 20
5.584651225137292
 30
0.0
 10
16.00831476074286
 20
5.57442090643461
 30
0.0
 10
16.00831476074286
 20
5.57442090643461
 30
0.0
 10
16.00831476074286
 20
5.57442090643461
 30
0.0
 10
16.00584936428625
 20
5.571951472756708
 30
0.0
 10
16.00584936428625
 20
5.571951472756708
 30
0.0
 10
16.00584936428625
 20
5.571951472756708
 30
0.0
 10
16.00055791293935
 20
5.571951472756708
 30
0.0
 10
16.00055791293935
 20
5.571951472756708
 30
0.0
 10
16.00055791293935
 20
5.571951472756708
 30
0.0
 10
15.99526646159243
 20
5.569128109347317
 30
0.0
 10
15.99526646159243
 20
5.569128109347317
 30
0.0
 10
15.99526646159243
 20
5.569128109347317
 30
0.0
 10
15.98997501024566
 20
5.566658675669401
 30
0.0
 10
15.98997501024566
 20
5.566658675669401
 30
0.0
 10
15.98997501024566
 20
5.566658675669401
 30
0.0
 10
15.98503345140897
 20
5.563836658000433
 30
0.0
 10
15.98503345140897
 20
5.563836658000433
 30
0.0
 10
15.98503345140897
 20
5.563836658000433
 30
0.0
 10
15.98221277948046
 20
5.56136722432253
 30
0.0
 10
15.98221277948046
 20
5.56136722432253
 30
0.0
 10
15.98221277948046
 20
5.56136722432253
 30
0.0
 10
15.97692132813354
 20
5.56136722432253
 30
0.0
 10
15.97692132813354
 20
5.56136722432253
 30
0.0
 10
15.97692132813354
 20
5.56136722432253
 30
0.0
 10
15.96668831795004
 20
5.556075772975653
 30
0.0
 10
15.96668831795004
 20
5.556075772975653
 30
0.0
 10
15.95116923938123
 20
5.553606339297751
 30
0.0
 10
15.93176366246835
 20
5.541964338890366
 30
0.0
 10
15.91200819304505
 20
5.540554002926093
 30
0.0
 10
15.91200819304505
 20
5.540554002926093
 30
0.0
 10
15.90707201717014
 20
5.540554002926093
 30
0.0
 10
15.90707201717014
 20
5.540554002926093
 30
0.0
 10
15.90707201717014
 20
5.540554002926093
 30
0.0
 10
15.90178056582324
 20
5.538084569248191
 30
0.0
 10
15.90178056582324
 20
5.538084569248191
 30
0.0
 10
15.88202509640005
 20
5.535262551579208
 30
0.0
 10
15.85909367957636
 20
5.532086604178758
 30
0.0
 10
15.83933821015306
 20
5.530323684223418
 30
0.0
 10
15.83933821015306
 20
5.530323684223418
 30
0.0
 10
15.81852229727575
 20
5.530323684223418
 30
0.0
 10
15.81852229727575
 20
5.530323684223418
 30
0.0
  0
POLYLINE
  5
95F
330
1F
100
AcDbEntity
  8
Livello 1
100
AcDb2dPolyline
 66
     1
 10
0.0
 20
0.0
 30
0.0
  0
VERTEX
  5
960
330
95F
100
AcDbEntity
  8
Livello 1
100
AcDbVertex
100
AcDb2dVertex
 10
15.56682039134647
 20
5.571775180761179
 30
0.0
  0
VERTEX
  5
961
330
95F
100
AcDbEntity
  8
Livello 1
100
AcDbVertex
100
AcDb2dVertex
 10
15.56682039134647
 20
5.919612745354527
 30
0.0
  0
SEQEND
  5
962
330
95F
100
AcDbEntity
  8
Livello 1
  0
POLYLINE
  5
963
330
1F
100
AcDbEntity
  8
Livello 1
100
AcDb2dPolyline
 66
     1
 10
0.0
 20
0.0
 30
0.0
  0
VERTEX
  5
964
330
963
100
AcDbEntity
  8
Livello 1
100
AcDbVertex
100
AcDb2dVertex
 10
15.56682039134647
 20
5.699127980038959
 30
0.0
  0
VERTEX
  5
965
330
963
100
AcDbEntity
  8
Livello 1
100
AcDbVertex
100
AcDb2dVertex
 10
14.96039207559364
 20
5.699127980038959
 30
0.0
  0
SEQEND
  5
966
330
963
100
AcDbEntity
  8
Livello 1
  0
POLYLINE
  5
967
330
1F
100
AcDbEntity
  8
Livello 1
100
AcDb2dPolyline
 66
     1
 10
0.0
 20
0.0
 30
0.0
  0
VERTEX
  5
968
330
967
100
AcDbEntity
  8
Livello 1
100
AcDbVertex
100
AcDb2dVertex
 10
15.56682039134647
 20
7.334500003742391
 30
0.0
  0
VERTEX
  5
969
330
967
100
AcDbEntity
  8
Livello 1
100
AcDbVertex
100
AcDb2dVertex
 10
14.96039207559364
 20
7.334500003742391
 30
0.0
  0
SEQEND
  5
96A
330
967
100
AcDbEntity
  8
Livello 1
  0
POLYLINE
  5
96B
330
1F
100
AcDbEntity
  8
Livello 1
 62
     1
370
    50
100
AcDb2dPolyline
 66
     1
 10
0.0
 20
0.0
 30
0.0
  0
VERTEX
  5
96C
330
96B
100
AcDbEntity
  8
Livello 1
 62
     1
370
    50
100
AcDbVertex
100
AcDb2dVertex
 10
0.0001133775514433
 20
6.028481799909691
 30
0.0
  0
VERTEX
  5
96D
330
96B
100
AcDbEntity
  8
Livello 1
 62
     1
370
    50
100
AcDbVertex
100
AcDb2dVertex
 10
17.12287851168496
 20
6.028481799909691
 30
0.0
  0
SEQEND
  5
96E
330
96B
100
AcDbEntity
  8
Livello 1
 62
     1
370
    50
  0
MTEXT
  5
96F
330
1F
100
AcDbEntity
  8
Livello 1
100
AcDbMText
 10
3.973024405950056
 20
0.8809841524197494
 30
0.0
 40
1.998133332833799
 41
0.0
 46
0.0
 71
     7
 72
     1
  1
\fSource Sans Pro Light|b0|i0|c0|p34;\W1;100 mm
 73
     1
 44
1.0
  0
POLYLINE
  5
970
330
1F
100
AcDbEntity
  8
Livello 1
100
AcDb2dPolyline
 66
     1
 10
0.0
 20
0.0
 30
0.0
  0
VERTEX
  5
971
330
970
100
AcDbEntity
  8
Livello 1
100
AcDbVertex
100
AcDb2dVertex
 10
16.34463877671685
 20
3.820904985174301
 30
0.0
  0
VERTEX
  5
972
330
970
100
AcDbEntity
  8
Livello 1
100
AcDbVertex
100
AcDb2dVertex
 10
0.7631501501055027
 20
3.820904985174301
 30
0.0
  0
SEQEND
  5
973
330
970
100
AcDbEntity
  8
Livello 1
  0
ENDSEC
  0
SECTION
  2
OBJECTS
  0
DICTIONARY
  5
C
330
0
100
AcDbDictionary
281
     1
  3
ACAD_CIP_PREVIOUS_PRODUCT_INFO
350
216
  3
ACAD_COLOR
350
6B
  3
ACAD_DETAILVIEWSTYLE
350
21B
  3
ACAD_GROUP
350
D
  3
ACAD_LAYOUT
350
1A
  3
ACAD_MATERIAL
350
6A
  3
ACAD_MLEADERSTYLE
350
12D
  3
ACAD_MLINESTYLE
350
17
  3
ACAD_PLOTSETTINGS
350
19
  3
ACAD_PLOTSTYLENAME
350
E
  3
ACAD_SCALELIST
350
10C
  3
ACAD_SECTIONVIEWSTYLE
350
219
  3
ACAD_TABLESTYLE
350
7E
  3
ACAD_VISUALSTYLE
350
EF
  3
ACDB_RECOMPOSE_DATA
350
975
  3
AcDbVariableDictionary
350
5E
  3
AcDsDecomposeData
350
97B
  0
DICTIONARY
  5
1FF
330
2
100
AcDbDictionary
280
     1
281
     1
  3
ACAD_LAYERSTATES
360
200
  0
DICTIONARY
  5
13C
330
10
100
AcDbDictionary
280
     1
281
     1
  0
DICTIONARY
  5
1CE
330
1F
100
AcDbDictionary
280
     1
281
     1
  0
XRECORD
  5
216
102
{ACAD_REACTORS
330
C
102
}
330
C
100
AcDbXrecord
280
     1
300
ACD
300
2020
300

  0
DICTIONARY
  5
6B
102
{ACAD_REACTORS
330
C
102
}
330
C
100
AcDbDictionary
281
     1
  0
DICTIONARY
  5
21B
102
{ACAD_REACTORS
330
C
102
}
330
C
100
AcDbDictionary
281
     1
  3
Imperial24
350
28F
  3
Metric50
350
21C
  0
DICTIONARY
  5
D
102
{ACAD_REACTORS
330
C
102
}
330
C
100
AcDbDictionary
281
     1
  0
DICTIONARY
  5
1A
102
{ACAD_REACTORS
330
C
102
}
330
C
100
AcDbDictionary
281
     1
  3
Layout1
350
D3
  3
Layout2
350
D7
  3
Model
350
22
  0
DICTIONARY
  5
6A
102
{ACAD_REACTORS
330
C
102
}
330
C
100
AcDbDictionary
281
     1
  3
ByBlock
350
ED
  3
ByLayer
350
EC
  3
Global
350
EE
  0
DICTIONARY
  5
12D
102
{ACAD_REACTORS
330
C
102
}
330
C
100
AcDbDictionary
281
     1
  3
Annotativa
350
13B
  3
Standard
350
12E
  0
DICTIONARY
  5
17
102
{ACAD_REACTORS
330
C
102
}
330
C
100
AcDbDictionary
281
     1
  3
Standard
350
18
  0
DICTIONARY
  5
19
102
{ACAD_REACTORS
330
C
102
}
330
C
100
AcDbDictionary
281
     1
  0
ACDBDICTIONARYWDFLT
  5
E
102
{ACAD_REACTORS
330
C
102
}
330
C
100
AcDbDictionary
281
     1
  3
Normal
350
F
100
AcDbDictionaryWithDefault
340
F
  0
DICTIONARY
  5
10C
102
{ACAD_REACTORS
330
C
102
}
330
C
100
AcDbDictionary
281
     1
  3
A0
350
10D
  3
A1
350
1BE
  3
A2
350
1BF
  3
A3
350
1C0
  3
A4
350
1C1
  3
A5
350
1C2
  3
A6
350
1C3
  3
A7
350
1C4
  3
A8
350
1C5
  3
A9
350
1C6
  3
B0
350
1C7
  3
B1
350
1C8
  3
B2
350
1C9
  3
B3
350
1CA
  3
B4
350
1CB
  3
B5
350
1CC
  3
B6
350
1CD
  0
DICTIONARY
  5
219
102
{ACAD_REACTORS
330
C
102
}
330
C
100
AcDbDictionary
281
     1
  3
Imperial24
350
28E
  3
Metric50
350
21A
  0
DICTIONARY
  5
7E
102
{ACAD_REACTORS
330
C
102
}
330
C
100
AcDbDictionary
281
     1
  3
Standard
350
7F
  0
DICTIONARY
  5
EF
102
{ACAD_REACTORS
330
C
102
}
330
C
100
AcDbDictionary
281
     1
  3
2dWireframe
350
F5
  3
Basic
350
F4
  3
Brighten
350
FB
  3
ColorChange
350
FF
  3
Conceptual
350
F8
  3
Dim
350
FA
  3
EdgeColorOff
350
1E6
  3
Facepattern
350
FE
  3
Flat
350
F0
  3
FlatWithEdges
350
F1
  3
Gouraud
350
F2
  3
GouraudWithEdges
350
F3
  3
Hidden
350
F7
  3
JitterOff
350
1E4
  3
Linepattern
350
FD
  3
OverhangOff
350
1E5
  3
Realistic
350
F9
  3
Shaded
350
1F3
  3
Shaded with edges
350
1F2
  3
Shades of Gray
350
1EF
  3
Sketchy
350
1F0
  3
Thicken
350
FC
  3
Wireframe
350
F6
  3
X-Ray
350
1F1
  0
XRECORD
  5
975
102
{ACAD_REACTORS
330
C
102
}
330
C
100
AcDbXrecord
280
     1
 90
        1
330
7F
  0
DICTIONARY
  5
5E
102
{ACAD_REACTORS
330
C
102
}
330
C
100
AcDbDictionary
281
     1
  3
CANNOSCALE
350
146
  3
CENTEREXE
350
259
  3
CENTERLTYPEFILE
350
25A
  3
CMLEADERSTYLE
350
145
  3
CTABLESTYLE
350
84
  3
CVIEWDETAILSTYLE
350
227
  3
CVIEWSECTIONSTYLE
350
228
  3
DIMASSOC
350
5F
  3
HIDETEXT
350
63
  3
LAYEREVAL
350
1AE
  3
LAYERNOTIFY
350
1AF
  0
DICTIONARY
  5
97B
102
{ACAD_REACTORS
330
C
102
}
330
C
100
AcDbDictionary
281
     1
  3
AcDsRecords
350
97D
  3
AcDsSchemas
350
97C
1001
ACAD
1070
     2
  0
DICTIONARY
  5
200
102
{ACAD_REACTORS
330
1FF
102
}
330
1FF
100
AcDbDictionary
281
     1
  0
ACDBDETAILVIEWSTYLE
  5
28F
102
{ACAD_XDICTIONARY
360
984
102
}
102
{ACAD_REACTORS
330
21B
102
}
330
21B
100
AcDbModelDocViewStyle
 70
     0
  3
Imperial24
290
     0
100
AcDbDetailViewStyle
 70
     0
 71
     0
 90
        3
 71
     1
340
11
 62
   256
 40
0.24
340
0
 62
   256
 40
0.24
300

 40
0.36
280
     3
 71
     2
340
16
 90
       25
 62
   256
 71
     3
340
11
 62
   256
 40
0.24
 90
        1
 40
0.75
 90
        1
300
%<\AcVar ViewType \f "%tc1">% %<\AcVar ViewDetailId>%\PSCALA %<\AcVar ViewScale \f "%sn">%
 71
     4
340
16
 90
       25
 62
   256
340
16
 90
       25
 62
   256
280
     0
  0
ACDBDETAILVIEWSTYLE
  5
21C
102
{ACAD_XDICTIONARY
360
980
102
}
102
{ACAD_REACTORS
330
21B
102
}
330
21B
100
AcDbModelDocViewStyle
 70
     0
  3
Metric50
290
     0
100
AcDbDetailViewStyle
 70
     0
 71
     0
 90
        3
 71
     1
340
11
 62
   256
 40
5.0
340
0
 62
   256
 40
5.0
300

 40
0.0
280
     1
 71
     2
340
16
 90
       25
 62
   256
 71
     3
340
11
 62
   256
 40
5.0
 90
        0
 40
15.0
 90
        1
300
%<\AcVar ViewDetailId>% (%<\AcVar ViewScale \f "%sn">%)
 71
     4
340
16
 90
       25
 62
   256
340
16
 90
       25
 62
   256
280
     0
  0
LAYOUT
  5
D3
102
{ACAD_REACTORS
330
1A
102
}
330
1A
100
AcDbPlotSettings
  1

  2
C:\Documents and Settings\basas\Application Data\Autodesk\AutoCAD 2005\R16.1\enu\plotters\Default Windows System Printer.pc3
  4

  6

 40
0.0
 41
0.0
 42
0.0
 43
0.0
 44
0.0
 45
0.0
 46
0.0
 47
0.0
 48
0.0
 49
0.0
140
0.0
141
0.0
142
1.0
143
1.0
 70
   688
 72
     0
 73
     0
 74
     5
  7

 75
    16
147
1.0
 76
     0
 77
     2
 78
   300
148
0.0
149
0.0
100
AcDbLayout
  1
Layout1
 70
     1
 71
     1
 10
0.0
 20
0.0
 11
12.0
 21
9.0
 12
0.0
 22
0.0
 32
0.0
 14
0.0
 24
0.0
 34
0.0
 15
0.0
 25
0.0
 35
0.0
146
0.0
 13
0.0
 23
0.0
 33
0.0
 16
1.0
 26
0.0
 36
0.0
 17
0.0
 27
1.0
 37
0.0
 76
     0
330
D2
  0
LAYOUT
  5
D7
102
{ACAD_REACTORS
330
1A
102
}
330
1A
100
AcDbPlotSettings
  1

  2
C:\Documents and Settings\basas\Application Data\Autodesk\AutoCAD 2005\R16.1\enu\plotters\Default Windows System Printer.pc3
  4

  6

 40
0.0
 41
0.0
 42
0.0
 43
0.0
 44
0.0
 45
0.0
 46
0.0
 47
0.0
 48
0.0
 49
0.0
140
0.0
141
0.0
142
1.0
143
1.0
 70
   688
 72
     0
 73
     0
 74
     5
  7

 75
    16
147
1.0
 76
     0
 77
     2
 78
   300
148
0.0
149
0.0
100
AcDbLayout
  1
Layout2
 70
     1
 71
     2
 10
0.0
 20
0.0
 11
12.0
 21
9.0
 12
0.0
 22
0.0
 32
0.0
 14
0.0
 24
0.0
 34
0.0
 15
0.0
 25
0.0
 35
0.0
146
0.0
 13
0.0
 23
0.0
 33
0.0
 16
1.0
 26
0.0
 36
0.0
 17
0.0
 27
1.0
 37
0.0
 76
     0
330
D6
  0
LAYOUT
  5
22
102
{ACAD_XDICTIONARY
360
205
102
}
102
{ACAD_REACTORS
330
1A
102
}
330
1A
100
AcDbPlotSettings
  1

  2
none_device
  4
ISO_A4_(210.00_x_297.00_MM)
  6

 40
7.5
 41
20.0
 42
7.5
 43
20.0
 44
210.0
 45
297.0
 46
11.54999923706054
 47
-13.65000009536743
 48
0.0
 49
0.0
140
0.0
141
0.0
142
1.0
143
8.704084754739808
 70
 11952
 72
     1
 73
     0
 74
     0
  7

 75
     0
147
0.1148885871608098
 76
     0
 77
     2
 78
   300
148
0.0
149
0.0
100
AcDbLayout
  1
Model
 70
     1
 71
     0
 10
0.0
 20
0.0
 11
12.0
 21
9.0
 12
0.0
 22
0.0
 32
0.0
 14
0.0
 24
0.0
 34
0.0
 15
0.0
 25
0.0
 35
0.0
146
0.0
 13
0.0
 23
0.0
 33
0.0
 16
1.0
 26
0.0
 36
0.0
 17
0.0
 27
1.0
 37
0.0
 76
     0
330
1F
331
EA
1001
ACAD_PSEXT
1000
None
1000
None
1000
Not applicable
1000
The layout will not be plotted unless a new plotter configuration name is selected.
1070
     0
  0
MATERIAL
  5
ED
102
{ACAD_XDICTIONARY
360
1F9
102
}
102
{ACAD_REACTORS
330
6A
102
}
330
6A
100
AcDbMaterial
  1
ByBlock
 94
       63
  0
MATERIAL
  5
EC
102
{ACAD_XDICTIONARY
360
1F7
102
}
102
{ACAD_REACTORS
330
6A
102
}
330
6A
100
AcDbMaterial
  1
ByLayer
 94
       63
  0
MATERIAL
  5
EE
102
{ACAD_XDICTIONARY
360
173
102
}
102
{ACAD_REACTORS
330
6A
102
}
330
6A
100
AcDbMaterial
  1
Global
 43
0.0007999999797903
 43
0.0
 43
0.0
 43
0.0
 43
0.0
 43
0.0007999999797903
 43
0.0
 43
0.0
 43
0.0
 43
0.0
 43
1.0
 43
0.0
 43
0.0
 43
0.0
 43
0.0
 43
1.0
 49
0.0007999999797903
 49
0.0
 49
0.0
 49
0.0
 49
0.0
 49
0.0007999999797903
 49
0.0
 49
0.0
 49
0.0
 49
0.0
 49
1.0
 49
0.0
 49
0.0
 49
0.0
 49
0.0
 49
1.0
142
0.0007999999797903
142
0.0
142
0.0
142
0.0
142
0.0
142
0.0007999999797903
142
0.0
142
0.0
142
0.0
142
0.0
142
1.0
142
0.0
142
0.0
142
0.0
142
0.0
142
1.0
144
0.0007999999797903
144
0.0
144
0.0
144
0.0
144
0.0
144
0.0007999999797903
144
0.0
144
0.0
144
0.0
144
0.0
144
1.0
144
0.0
144
0.0
144
0.0
144
0.0
144
1.0
 94
       63
1001
ACAD
1070
    -1
1070
     3
1070
     0
1000

1071
        0
1070
     0
  0
MLEADERSTYLE
  5
13B
102
{ACAD_REACTORS
330
12D
102
}
330
12D
100
AcDbMLeaderStyle
179
     2
170
     2
171
     1
172
     0
 90
        2
 40
0.0
 41
0.0
173
     1
 91
-1056964608
340
14
 92
       -2
290
     1
 42
2.0
291
     1
 43
8.0
  3
Standard
 44
4.0
300

342
11
174
     1
178
     1
175
     1
176
     0
 93
-1056964608
 45
4.0
292
     0
297
     0
 46
4.0
 94
-1056964608
 47
1.0
 49
1.0
140
1.0
293
     1
141
0.0
294
     1
177
     0
142
1.0
295
     0
296
     1
143
3.75
271
     0
272
     9
273
     9
298
     0
  0
MLEADERSTYLE
  5
12E
102
{ACAD_REACTORS
330
12D
102
}
330
12D
100
AcDbMLeaderStyle
179
     2
170
     2
171
     1
172
     0
 90
        2
 40
0.0
 41
0.0
173
     1
 91
-1056964608
340
14
 92
       -2
290
     1
 42
2.0
291
     1
 43
8.0
  3
Standard
 44
4.0
300

342
11
174
     1
178
     1
175
     1
176
     0
 93
-1056964608
 45
4.0
292
     0
297
     0
 46
4.0
 94
-1056964608
 47
1.0
 49
1.0
140
1.0
293
     1
141
0.0
294
     1
177
     0
142
1.0
295
     0
296
     0
143
3.75
271
     0
272
     9
273
     9
298
     0
  0
MLINESTYLE
  5
18
102
{ACAD_REACTORS
330
17
102
}
330
17
100
AcDbMlineStyle
  2
STANDARD
 70
     0
  3

 62
   256
 51
90.0
 52
90.0
 71
     2
 49
0.5
 62
   256
  6
BYLAYER
 49
-0.5
 62
   256
  6
BYLAYER
  0
ACDBPLACEHOLDER
  5
F
102
{ACAD_REACTORS
330
E
102
}
330
E
  0
SCALE
  5
10D
102
{ACAD_REACTORS
330
10C
102
}
330
10C
100
AcDbScale
 70
     0
300
1:1
140
1.0
141
1.0
290
     1
  0
SCALE
  5
1BE
102
{ACAD_REACTORS
330
10C
102
}
330
10C
100
AcDbScale
 70
     0
300
1:2
140
1.0
141
2.0
290
     0
  0
SCALE
  5
1BF
102
{ACAD_REACTORS
330
10C
102
}
330
10C
100
AcDbScale
 70
     0
300
1:4
140
1.0
141
4.0
290
     0
  0
SCALE
  5
1C0
102
{ACAD_REACTORS
330
10C
102
}
330
10C
100
AcDbScale
 70
     0
300
1:5
140
1.0
141
5.0
290
     0
  0
SCALE
  5
1C1
102
{ACAD_REACTORS
330
10C
102
}
330
10C
100
AcDbScale
 70
     0
300
1:8
140
1.0
141
8.0
290
     0
  0
SCALE
  5
1C2
102
{ACAD_REACTORS
330
10C
102
}
330
10C
100
AcDbScale
 70
     0
300
1:10
140
1.0
141
10.0
290
     0
  0
SCALE
  5
1C3
102
{ACAD_REACTORS
330
10C
102
}
330
10C
100
AcDbScale
 70
     0
300
1:16
140
1.0
141
16.0
290
     0
  0
SCALE
  5
1C4
102
{ACAD_REACTORS
330
10C
102
}
330
10C
100
AcDbScale
 70
     0
300
1:20
140
1.0
141
20.0
290
     0
  0
SCALE
  5
1C5
102
{ACAD_REACTORS
330
10C
102
}
330
10C
100
AcDbScale
 70
     0
300
1:30
140
1.0
141
30.0
290
     0
  0
SCALE
  5
1C6
102
{ACAD_REACTORS
330
10C
102
}
330
10C
100
AcDbScale
 70
     0
300
1:40
140
1.0
141
40.0
290
     0
  0
SCALE
  5
1C7
102
{ACAD_REACTORS
330
10C
102
}
330
10C
100
AcDbScale
 70
     0
300
1:50
140
1.0
141
50.0
290
     0
  0
SCALE
  5
1C8
102
{ACAD_REACTORS
330
10C
102
}
330
10C
100
AcDbScale
 70
     0
300
1:100
140
1.0
141
100.0
290
     0
  0
SCALE
  5
1C9
102
{ACAD_REACTORS
330
10C
102
}
330
10C
100
AcDbScale
 70
     0
300
2:1
140
2.0
141
1.0
290
     0
  0
SCALE
  5
1CA
102
{ACAD_REACTORS
330
10C
102
}
330
10C
100
AcDbScale
 70
     0
300
4:1
140
4.0
141
1.0
290
     0
  0
SCALE
  5
1CB
102
{ACAD_REACTORS
330
10C
102
}
330
10C
100
AcDbScale
 70
     0
300
8:1
140
8.0
141
1.0
290
     0
  0
SCALE
  5
1CC
102
{ACAD_REACTORS
330
10C
102
}
330
10C
100
AcDbScale
 70
     0
300
10:1
140
10.0
141
1.0
290
     0
  0
SCALE
  5
1CD
102
{ACAD_REACTORS
330
10C
102
}
330
10C
100
AcDbScale
 70
     0
300
100:1
140
100.0
141
1.0
290
     0
  0
ACDBSECTIONVIEWSTYLE
  5
28E
102
{ACAD_XDICTIONARY
360
982
102
}
102
{ACAD_REACTORS
330
219
102
}
330
219
100
AcDbModelDocViewStyle
 70
     0
  3
Imperial24
290
     0
100
AcDbSectionViewStyle
 70
     0
 71
     0
 90
       78
 71
     1
340
11
 62
   256
 40
0.24
340
0
340
0
 62
   256
 40
0.24
300
I, O, Q, S, X, Z
 40
0.48
 90
        3
 40
0.18
 90
        1
 71
     2
340
16
 90
       25
 62
   256
340
16
 90
       50
 62
   256
 40
0.24
 40
0.0
 40
0.24
 71
     3
340
11
 62
   256
 40
0.24
 90
        1
 40
0.75
 90
        1
300
%<\AcVar ViewType \f "%tc1">% %<\AcVar ViewSectionStartId>%-%<\AcVar ViewSectionEndId>%\PSCALA %<\AcVar ViewScale \f "%sn">%
 71
     4
 62
   256
 62
   257
300
ANSI31
 40
1.0
 90
        0
290
     0
290
     0
 90
        6
 40
0.0
 40
1.570796326794896
 40
0.2617993877991494
 40
1.308996938995747
 40
-0.2617993877991494
 40
1.832595714594046
  0
ACDBSECTIONVIEWSTYLE
  5
21A
102
{ACAD_XDICTIONARY
360
97E
102
}
102
{ACAD_REACTORS
330
219
102
}
330
219
100
AcDbModelDocViewStyle
 70
     0
  3
Metric50
290
     0
100
AcDbSectionViewStyle
 70
     0
 71
     0
 90
      102
 71
     1
340
11
 62
   256
 40
5.0
340
0
340
0
 62
   256
 40
5.0
300
I, O, Q, S, X, Z
 40
10.0
 90
        0
 40
2.5
 90
        0
 71
     2
340
16
 90
       25
 62
   256
340
16
 90
       50
 62
   256
 40
5.0
 40
2.5
 40
5.0
 71
     3
340
11
 62
   256
 40
5.0
 90
        0
 40
15.0
 90
        1
300
%<\AcVar ViewSectionStartId>%-%<\AcVar ViewSectionEndId>% (%<\AcVar ViewScale \f "%sn">%)
 71
     4
 62
   256
 62
   257
300
ANSI31
 40
1.0
 90
        0
290
     0
290
     0
 90
        6
 40
0.0
 40
1.570796326794896
 40
0.2617993877991494
 40
1.308996938995747
 40
-0.2617993877991494
 40
1.832595714594046
  0
TABLESTYLE
  5
7F
102
{ACAD_XDICTIONARY
360
162
102
}
102
{ACAD_REACTORS
330
7E
102
}
330
7E
100
AcDbTableStyle
280
     0
  3
Standard
 70
     0
 71
     0
 40
1.5
 41
1.5
280
     0
281
     0
  7
Standard
140
4.5
170
     2
 62
     0
 63
     7
283
     0
 90
      512
 91
        0
  1

274
    -2
284
     1
 64
     0
275
    -2
285
     1
 65
     0
276
    -2
286
     1
 66
     0
277
    -2
287
     1
 67
     0
278
    -2
288
     1
 68
     0
279
    -2
289
     1
 69
     0
  7
Standard
140
6.0
170
     5
 62
     0
 63
     7
283
     0
 90
      512
 91
        0
  1

274
    -2
284
     1
 64
     0
275
    -2
285
     1
 65
     0
276
    -2
286
     1
 66
     0
277
    -2
287
     1
 67
     0
278
    -2
288
     1
 68
     0
279
    -2
289
     1
 69
     0
  7
Standard
140
4.5
170
     5
 62
     0
 63
     7
283
     0
 90
      512
 91
        0
  1

274
    -2
284
     1
 64
     0
275
    -2
285
     1
 65
     0
276
    -2
286
     1
 66
     0
277
    -2
287
     1
 67
     0
278
    -2
288
     1
 68
     0
279
    -2
289
     1
 69
     0
  0
VISUALSTYLE
  5
F5
102
{ACAD_REACTORS
330
EF
102
}
330
EF
100
AcDbVisualStyle
  2
2dWireframe
 70
     4
177
     3
291
     0
 70
    58
 90
        0
176
     1
 90
        2
176
     1
 90
        1
176
     1
 90
        0
176
     1
 40
0.6
176
     1
 40
30.0
176
     1
 62
     7
420
 16777215
176
     1
 90
        1
176
     1
 90
        4
176
     1
 62
     7
176
     1
 62
   257
176
     1
 90
        1
176
     1
 90
        1
176
     1
 40
1.0
176
     1
 90
        0
176
     1
 62
   257
176
     1
 40
1.0
176
     1
 90
        1
176
     1
 90
        6
176
     1
 90
        2
176
     1
 62
     7
176
     1
 90
        5
176
     1
 90
        0
176
     1
 90
        0
176
     1
290
     0
176
     1
 90
        1
176
     1
 40
0.0
176
     1
 90
        0
176
     1
290
     1
176
     1
290
     1
176
     1
290
     0
176
     1
290
     0
176
     1
290
     0
176
     1
290
     0
176
     1
290
     0
176
     1
290
     0
176
     1
290
     0
176
     1
 90
       50
176
     1
 40
0.0
176
     1
 40
1.0
176
     1
 90
        0
176
     1
 62
    18
420
        0
176
     1
 90
       50
176
     1
 90
        3
176
     1
 62
     5
420
      255
176
     1
290
     0
176
     1
 90
       50
176
     1
 90
       50
176
     1
 90
       50
176
     1
290
     0
176
     1
 90
       50
176
     1
 62
   256
176
     0
 40
1.0
176
     0
 90
        2
176
     1
  1
strokes_ogs.tif
176
     1
290
     0
176
     1
 40
1.0
176
     1
 40
1.0
176
     1
1001
ACAD
1000
AcDbSavedByObjectVersion
1070
     0
  0
VISUALSTYLE
  5
F4
102
{ACAD_REACTORS
330
EF
102
}
330
EF
100
AcDbVisualStyle
  2
Basic
 70
     7
177
     3
291
     1
 70
    58
 90
        1
176
     1
 90
        0
176
     1
 90
        1
176
     1
 90
        0
176
     1
 40
0.6
176
     1
 40
30.0
176
     1
 62
     7
420
 16777215
176
     1
 90
        0
176
     1
 90
        4
176
     1
 62
     7
176
     1
 62
   257
176
     1
 90
        1
176
     1
 90
        1
176
     1
 40
1.0
176
     1
 90
        8
176
     1
 62
     7
176
     1
 40
1.0
176
     1
 90
        1
176
     1
 90
        6
176
     1
 90
        2
176
     1
 62
     7
176
     1
 90
        5
176
     1
 90
        0
176
     1
 90
        0
176
     1
290
     0
176
     1
 90
        1
176
     1
 40
0.0
176
     1
 90
        0
176
     1
290
     0
176
     1
290
     1
176
     1
290
     1
176
     1
290
     0
176
     1
290
     0
176
     1
290
     0
176
     1
290
     0
176
     1
290
     0
176
     1
290
     0
176
     1
 90
       50
176
     1
 40
0.0
176
     1
 40
1.0
176
     1
 90
        0
176
     1
 62
    18
420
        0
176
     1
 90
       50
176
     1
 90
        3
176
     1
 62
     5
420
      255
176
     1
290
     0
176
     1
 90
       50
176
     1
 90
       50
176
     1
 90
       50
176
     1
290
     0
176
     1
 90
       50
176
     1
 62
   256
176
     0
 40
1.0
176
     0
 90
        2
176
     1
  1
strokes_ogs.tif
176
     1
290
     0
176
     1
 40
1.0
176
     1
 40
1.0
176
     1
1001
ACAD
1000
AcDbSavedByObjectVersion
1070
     0
  0
VISUALSTYLE
  5
FB
102
{ACAD_REACTORS
330
EF
102
}
330
EF
100
AcDbVisualStyle
  2
Brighten
 70
    12
177
     3
291
     1
 70
    58
 90
        2
176
     1
 90
        2
176
     1
 90
        1
176
     1
 90
        0
176
     1
 40
0.6
176
     1
 40
30.0
176
     1
 62
     7
420
 16777215
176
     1
 90
        1
176
     1
 90
        4
176
     1
 62
     7
176
     1
 62
   257
176
     1
 90
        1
176
     1
 90
        1
176
     1
 40
1.0
176
     1
 90
        8
176
     1
 62
     7
176
     1
 40
1.0
176
     1
 90
        1
176
     1
 90
        6
176
     1
 90
        2
176
     1
 62
     7
176
     1
 90
        5
176
     1
 90
        0
176
     1
 90
        0
176
     1
290
     0
176
     1
 90
        1
176
     1
 40
50.0
176
     1
 90
        0
176
     1
290
     0
176
     1
290
     1
176
     1
290
     1
176
     1
290
     0
176
     1
290
     0
176
     1
290
     0
176
     1
290
     0
176
     1
290
     0
176
     1
290
     0
176
     1
 90
       50
176
     1
 40
0.0
176
     1
 40
1.0
176
     1
 90
        0
176
     1
 62
    18
420
        0
176
     1
 90
       50
176
     1
 90
        3
176
     1
 62
     5
420
      255
176
     1
290
     0
176
     1
 90
       50
176
     1
 90
       50
176
     1
 90
       50
176
     1
290
     0
176
     1
 90
       50
176
     1
 62
   256
176
     0
 40
1.0
176
     0
 90
        2
176
     1
  1
strokes_ogs.tif
176
     1
290
     0
176
     1
 40
1.0
176
     1
 40
1.0
176
     1
1001
ACAD
1000
AcDbSavedByObjectVersion
1070
     0
  0
VISUALSTYLE
  5
FF
102
{ACAD_REACTORS
330
EF
102
}
330
EF
100
AcDbVisualStyle
  2
ColorChange
 70
    16
177
     3
291
     1
 70
    58
 90
        2
176
     1
 90
        2
176
     1
 90
        3
176
     1
 90
        0
176
     1
 40
0.6
176
     1
 40
30.0
176
     1
 62
     8
420
  8421504
176
     1
 90
        1
176
     1
 90
        4
176
     1
 62
     7
176
     1
 62
   257
176
     1
 90
        1
176
     1
 90
        1
176
     1
 40
1.0
176
     1
 90
        8
176
     1
 62
     8
420
  8421504
176
     1
 40
1.0
176
     1
 90
        1
176
     1
 90
        6
176
     1
 90
        2
176
     1
 62
     7
176
     1
 90
        5
176
     1
 90
        0
176
     1
 90
        0
176
     1
290
     0
176
     1
 90
        1
176
     1
 40
0.0
176
     1
 90
        0
176
     1
290
     0
176
     1
290
     1
176
     1
290
     1
176
     1
290
     0
176
     1
290
     0
176
     1
290
     0
176
     1
290
     0
176
     1
290
     0
176
     1
290
     0
176
     1
 90
       50
176
     1
 40
0.0
176
     1
 40
1.0
176
     1
 90
        0
176
     1
 62
    18
420
        0
176
     1
 90
       50
176
     1
 90
        3
176
     1
 62
     5
420
      255
176
     1
290
     0
176
     1
 90
       50
176
     1
 90
       50
176
     1
 90
       50
176
     1
290
     0
176
     1
 90
       50
176
     1
 62
   256
176
     0
 40
1.0
176
     0
 90
        2
176
     1
  1
strokes_ogs.tif
176
     1
290
     0
176
     1
 40
1.0
176
     1
 40
1.0
176
     1
1001
ACAD
1000
AcDbSavedByObjectVersion
1070
     0
  0
VISUALSTYLE
  5
F8
102
{ACAD_REACTORS
330
EF
102
}
330
EF
100
AcDbVisualStyle
  2
Conceptual
 70
     9
177
     3
291
     0
 70
    58
 90
        3
176
     1
 90
        2
176
     1
 90
        1
176
     1
 90
        0
176
     1
 40
0.6
176
     1
 40
30.0
176
     1
 62
     7
420
 16777215
176
     1
 90
        2
176
     1
 90
        2
176
     1
 62
     7
176
     1
 62
   257
176
     1
 90
        1
176
     1
 90
        1
176
     1
 40
40.0
176
     1
 90
        8
176
     1
 62
     7
176
     1
 40
1.0
176
     1
 90
        1
176
     1
 90
        6
176
     1
 90
        2
176
     1
 62
     7
176
     1
 90
        3
176
     1
 90
        0
176
     1
 90
        0
176
     1
290
     0
176
     1
 90
        1
176
     1
 40
0.0
176
     1
 90
        0
176
     1
290
     0
176
     1
290
     1
176
     1
290
     1
176
     1
290
     0
176
     1
290
     0
176
     1
290
     0
176
     1
290
     0
176
     1
290
     0
176
     1
290
     0
176
     1
 90
       50
176
     1
 40
0.0
176
     1
 40
1.0
176
     1
 90
        0
176
     1
 62
    18
420
        0
176
     1
 90
       50
176
     1
 90
        3
176
     1
 62
     5
420
      255
176
     1
290
     0
176
     1
 90
       50
176
     1
 90
       50
176
     1
 90
       50
176
     1
290
     0
176
     1
 90
       50
176
     1
 62
   256
176
     0
 40
1.0
176
     0
 90
        2
176
     1
  1
strokes_ogs.tif
176
     1
290
     0
176
     1
 40
1.0
176
     1
 40
1.0
176
     1
1001
ACAD
1000
AcDbSavedByObjectVersion
1070
     0
  0
VISUALSTYLE
  5
FA
102
{ACAD_REACTORS
330
EF
102
}
330
EF
100
AcDbVisualStyle
  2
Dim
 70
    11
177
     3
291
     1
 70
    58
 90
        2
176
     1
 90
        2
176
     1
 90
        1
176
     1
 90
        0
176
     1
 40
0.6
176
     1
 40
30.0
176
     1
 62
     7
420
 16777215
176
     1
 90
        1
176
     1
 90
        4
176
     1
 62
     7
176
     1
 62
   257
176
     1
 90
        1
176
     1
 90
        1
176
     1
 40
1.0
176
     1
 90
        8
176
     1
 62
     7
176
     1
 40
1.0
176
     1
 90
        1
176
     1
 90
        6
176
     1
 90
        2
176
     1
 62
     7
176
     1
 90
        5
176
     1
 90
        0
176
     1
 90
        0
176
     1
290
     0
176
     1
 90
        1
176
     1
 40
-50.0
176
     1
 90
        0
176
     1
290
     0
176
     1
290
     1
176
     1
290
     1
176
     1
290
     0
176
     1
290
     0
176
     1
290
     0
176
     1
290
     0
176
     1
290
     0
176
     1
290
     0
176
     1
 90
       50
176
     1
 40
0.0
176
     1
 40
1.0
176
     1
 90
        0
176
     1
 62
    18
420
        0
176
     1
 90
       50
176
     1
 90
        3
176
     1
 62
     5
420
      255
176
     1
290
     0
176
     1
 90
       50
176
     1
 90
       50
176
     1
 90
       50
176
     1
290
     0
176
     1
 90
       50
176
     1
 62
   256
176
     0
 40
1.0
176
     0
 90
        2
176
     1
  1
strokes_ogs.tif
176
     1
290
     0
176
     1
 40
1.0
176
     1
 40
1.0
176
     1
1001
ACAD
1000
AcDbSavedByObjectVersion
1070
     0
  0
VISUALSTYLE
  5
1E6
102
{ACAD_REACTORS
330
EF
102
}
330
EF
100
AcDbVisualStyle
  2
EdgeColorOff
 70
    22
177
     3
291
     1
 70
    58
 90
        2
176
     0
 90
        2
176
     0
 90
        0
176
     0
 90
        0
176
     0
 40
0.6
176
     0
 40
30.0
176
     0
 62
     7
420
 16777215
176
     0
 90
        1
176
     0
 90
        4
176
     0
 62
     7
176
     0
 62
   257
176
     0
 90
        1
176
     0
 90
        1
176
     0
 40
1.0
176
     0
 90
        8
176
     2
 62
     7
176
     0
 40
1.0
176
     0
 90
        1
176
     0
 90
        6
176
     0
 90
        2
176
     0
 62
     7
176
     0
 90
        5
176
     0
 90
        0
176
     0
 90
        0
176
     0
290
     0
176
     0
 90
        1
176
     0
 40
0.0
176
     0
 90
        0
176
     0
290
     0
176
     1
290
     1
176
     1
290
     1
176
     1
290
     0
176
     1
290
     0
176
     1
290
     0
176
     1
290
     0
176
     1
290
     0
176
     1
290
     0
176
     1
 90
       50
176
     1
 40
0.0
176
     1
 40
1.0
176
     1
 90
        0
176
     1
 62
    18
420
        0
176
     1
 90
       50
176
     1
 90
        3
176
     1
 62
     5
420
      255
176
     1
290
     0
176
     1
 90
       50
176
     1
 90
       50
176
     1
 90
       50
176
     1
290
     0
176
     1
 90
       50
176
     1
 62
   256
176
     0
 40
1.0
176
     0
 90
        2
176
     1
  1
strokes_ogs.tif
176
     1
290
     0
176
     1
 40
1.0
176
     1
 40
1.0
176
     1
1001
ACAD
1000
AcDbSavedByObjectVersion
1070
     0
  0
VISUALSTYLE
  5
FE
102
{ACAD_REACTORS
330
EF
102
}
330
EF
100
AcDbVisualStyle
  2
Facepattern
 70
    15
177
     3
291
     1
 70
    58
 90
        2
176
     1
 90
        2
176
     1
 90
        1
176
     1
 90
        0
176
     1
 40
0.6
176
     1
 40
30.0
176
     1
 62
     7
420
 16777215
176
     1
 90
        1
176
     1
 90
        4
176
     1
 62
     7
176
     1
 62
   257
176
     1
 90
        1
176
     1
 90
        1
176
     1
 40
1.0
176
     1
 90
        8
176
     1
 62
     7
176
     1
 40
1.0
176
     1
 90
        1
176
     1
 90
        6
176
     1
 90
        2
176
     1
 62
     7
176
     1
 90
        5
176
     1
 90
        0
176
     1
 90
        0
176
     1
290
     0
176
     1
 90
        1
176
     1
 40
0.0
176
     1
 90
        0
176
     1
290
     0
176
     1
290
     1
176
     1
290
     1
176
     1
290
     0
176
     1
290
     0
176
     1
290
     0
176
     1
290
     0
176
     1
290
     0
176
     1
290
     0
176
     1
 90
       50
176
     1
 40
0.0
176
     1
 40
1.0
176
     1
 90
        0
176
     1
 62
    18
420
        0
176
     1
 90
       50
176
     1
 90
        3
176
     1
 62
     5
420
      255
176
     1
290
     0
176
     1
 90
       50
176
     1
 90
       50
176
     1
 90
       50
176
     1
290
     0
176
     1
 90
       50
176
     1
 62
   256
176
     0
 40
1.0
176
     0
 90
        2
176
     1
  1
strokes_ogs.tif
176
     1
290
     0
176
     1
 40
1.0
176
     1
 40
1.0
176
     1
1001
ACAD
1000
AcDbSavedByObjectVersion
1070
     0
  0
VISUALSTYLE
  5
F0
102
{ACAD_REACTORS
330
EF
102
}
330
EF
100
AcDbVisualStyle
  2
Flat
 70
     0
177
     3
291
     1
 70
    58
 90
        2
176
     1
 90
        1
176
     1
 90
        1
176
     1
 90
        2
176
     1
 40
0.6
176
     1
 40
30.0
176
     1
 62
     7
420
 16777215
176
     1
 90
        0
176
     1
 90
        0
176
     1
 62
     7
176
     1
 62
   257
176
     1
 90
        1
176
     1
 90
        1
176
     1
 40
1.0
176
     1
 90
        8
176
     1
 62
     7
176
     1
 40
1.0
176
     1
 90
        1
176
     1
 90
        6
176
     1
 90
        2
176
     1
 62
     7
176
     1
 90
        5
176
     1
 90
        0
176
     1
 90
        0
176
     1
290
     0
176
     1
 90
       13
176
     1
 40
0.0
176
     1
 90
        0
176
     1
290
     0
176
     1
290
     1
176
     1
290
     1
176
     1
290
     0
176
     1
290
     0
176
     1
290
     0
176
     1
290
     0
176
     1
290
     0
176
     1
290
     0
176
     1
 90
       50
176
     1
 40
0.0
176
     1
 40
1.0
176
     1
 90
        0
176
     1
 62
    18
420
        0
176
     1
 90
       50
176
     1
 90
        3
176
     1
 62
     5
420
      255
176
     1
290
     0
176
     1
 90
       50
176
     1
 90
       50
176
     1
 90
       50
176
     1
290
     0
176
     1
 90
       50
176
     1
 62
   256
176
     0
 40
1.0
176
     0
 90
        2
176
     1
  1
strokes_ogs.tif
176
     1
290
     0
176
     1
 40
1.0
176
     1
 40
1.0
176
     1
1001
ACAD
1000
AcDbSavedByObjectVersion
1070
     0
  0
VISUALSTYLE
  5
F1
102
{ACAD_REACTORS
330
EF
102
}
330
EF
100
AcDbVisualStyle
  2
FlatWithEdges
 70
     1
177
     3
291
     1
 70
    58
 90
        2
176
     1
 90
        1
176
     1
 90
        1
176
     1
 90
        2
176
     1
 40
0.6
176
     1
 40
30.0
176
     1
 62
     7
420
 16777215
176
     1
 90
        1
176
     1
 90
        0
176
     1
 62
     7
176
     1
 62
   257
176
     1
 90
        1
176
     1
 90
        1
176
     1
 40
1.0
176
     1
 90
        0
176
     1
 62
   257
176
     1
 40
1.0
176
     1
 90
        1
176
     1
 90
        6
176
     1
 90
        2
176
     1
 62
     7
176
     1
 90
        5
176
     1
 90
        0
176
     1
 90
        0
176
     1
290
     0
176
     1
 90
       13
176
     1
 40
0.0
176
     1
 90
        0
176
     1
290
     0
176
     1
290
     1
176
     1
290
     1
176
     1
290
     0
176
     1
290
     0
176
     1
290
     0
176
     1
290
     0
176
     1
290
     0
176
     1
290
     0
176
     1
 90
       50
176
     1
 40
0.0
176
     1
 40
1.0
176
     1
 90
        0
176
     1
 62
    18
420
        0
176
     1
 90
       50
176
     1
 90
        3
176
     1
 62
     5
420
      255
176
     1
290
     0
176
     1
 90
       50
176
     1
 90
       50
176
     1
 90
       50
176
     1
290
     0
176
     1
 90
       50
176
     1
 62
   256
176
     0
 40
1.0
176
     0
 90
        2
176
     1
  1
strokes_ogs.tif
176
     1
290
     0
176
     1
 40
1.0
176
     1
 40
1.0
176
     1
1001
ACAD
1000
AcDbSavedByObjectVersion
1070
     0
  0
VISUALSTYLE
  5
F2
102
{ACAD_REACTORS
330
EF
102
}
330
EF
100
AcDbVisualStyle
  2
Gouraud
 70
     2
177
     3
291
     1
 70
    58
 90
        2
176
     1
 90
        2
176
     1
 90
        1
176
     1
 90
        2
176
     1
 40
0.6
176
     1
 40
30.0
176
     1
 62
     7
420
 16777215
176
     1
 90
        0
176
     1
 90
        0
176
     1
 62
     7
176
     1
 62
   257
176
     1
 90
        1
176
     1
 90
        1
176
     1
 40
1.0
176
     1
 90
        0
176
     1
 62
     7
176
     1
 40
1.0
176
     1
 90
        1
176
     1
 90
        6
176
     1
 90
        2
176
     1
 62
     7
176
     1
 90
        5
176
     1
 90
        0
176
     1
 90
        0
176
     1
290
     0
176
     1
 90
       13
176
     1
 40
0.0
176
     1
 90
        0
176
     1
290
     0
176
     1
290
     1
176
     1
290
     1
176
     1
290
     0
176
     1
290
     0
176
     1
290
     0
176
     1
290
     0
176
     1
290
     0
176
     1
290
     0
176
     1
 90
       50
176
     1
 40
0.0
176
     1
 40
1.0
176
     1
 90
        0
176
     1
 62
    18
420
        0
176
     1
 90
       50
176
     1
 90
        3
176
     1
 62
     5
420
      255
176
     1
290
     0
176
     1
 90
       50
176
     1
 90
       50
176
     1
 90
       50
176
     1
290
     0
176
     1
 90
       50
176
     1
 62
   256
176
     0
 40
1.0
176
     0
 90
        2
176
     1
  1
strokes_ogs.tif
176
     1
290
     0
176
     1
 40
1.0
176
     1
 40
1.0
176
     1
1001
ACAD
1000
AcDbSavedByObjectVersion
1070
     0
  0
VISUALSTYLE
  5
F3
102
{ACAD_REACTORS
330
EF
102
}
330
EF
100
AcDbVisualStyle
  2
GouraudWithEdges
 70
     3
177
     3
291
     1
 70
    58
 90
        2
176
     1
 90
        2
176
     1
 90
        1
176
     1
 90
        2
176
     1
 40
0.6
176
     1
 40
30.0
176
     1
 62
     7
420
 16777215
176
     1
 90
        1
176
     1
 90
        0
176
     1
 62
     7
176
     1
 62
   257
176
     1
 90
        1
176
     1
 90
        1
176
     1
 40
1.0
176
     1
 90
        0
176
     1
 62
   257
176
     1
 40
1.0
176
     1
 90
        1
176
     1
 90
        6
176
     1
 90
        2
176
     1
 62
     7
176
     1
 90
        5
176
     1
 90
        0
176
     1
 90
        0
176
     1
290
     0
176
     1
 90
       13
176
     1
 40
0.0
176
     1
 90
        0
176
     1
290
     0
176
     1
290
     1
176
     1
290
     1
176
     1
290
     0
176
     1
290
     0
176
     1
290
     0
176
     1
290
     0
176
     1
290
     0
176
     1
290
     0
176
     1
 90
       50
176
     1
 40
0.0
176
     1
 40
1.0
176
     1
 90
        0
176
     1
 62
    18
420
        0
176
     1
 90
       50
176
     1
 90
        3
176
     1
 62
     5
420
      255
176
     1
290
     0
176
     1
 90
       50
176
     1
 90
       50
176
     1
 90
       50
176
     1
290
     0
176
     1
 90
       50
176
     1
 62
   256
176
     0
 40
1.0
176
     0
 90
        2
176
     1
  1
strokes_ogs.tif
176
     1
290
     0
176
     1
 40
1.0
176
     1
 40
1.0
176
     1
1001
ACAD
1000
AcDbSavedByObjectVersion
1070
     0
  0
VISUALSTYLE
  5
F7
102
{ACAD_REACTORS
330
EF
102
}
330
EF
100
AcDbVisualStyle
  2
Hidden
 70
     6
177
     3
291
     0
 70
    58
 90
        1
176
     1
 90
        2
176
     1
 90
        2
176
     1
 90
        0
176
     1
 40
0.6
176
     1
 40
30.0
176
     1
 62
     7
420
 16777215
176
     1
 90
        2
176
     1
 90
        2
176
     1
 62
     7
176
     1
 62
   257
176
     1
 90
        2
176
     1
 90
        1
176
     1
 40
40.0
176
     1
 90
        0
176
     1
 62
   257
176
     1
 40
1.0
176
     1
 90
        1
176
     1
 90
        6
176
     1
 90
        2
176
     1
 62
     7
176
     1
 90
        3
176
     1
 90
        0
176
     1
 90
        0
176
     1
290
     0
176
     1
 90
        1
176
     1
 40
0.0
176
     1
 90
        0
176
     1
290
     0
176
     1
290
     1
176
     1
290
     1
176
     1
290
     0
176
     1
290
     0
176
     1
290
     0
176
     1
290
     0
176
     1
290
     0
176
     1
290
     0
176
     1
 90
       50
176
     1
 40
0.0
176
     1
 40
1.0
176
     1
 90
        0
176
     1
 62
    18
420
        0
176
     1
 90
       50
176
     1
 90
        3
176
     1
 62
     5
420
      255
176
     1
290
     0
176
     1
 90
       50
176
     1
 90
       50
176
     1
 90
       50
176
     1
290
     0
176
     1
 90
       50
176
     1
 62
   256
176
     0
 40
1.0
176
     0
 90
        2
176
     1
  1
strokes_ogs.tif
176
     1
290
     0
176
     1
 40
1.0
176
     1
 40
1.0
176
     1
1001
ACAD
1000
AcDbSavedByObjectVersion
1070
     0
  0
VISUALSTYLE
  5
1E4
102
{ACAD_REACTORS
330
EF
102
}
330
EF
100
AcDbVisualStyle
  2
JitterOff
 70
    20
177
     3
291
     1
 70
    58
 90
        2
176
     0
 90
        2
176
     0
 90
        0
176
     0
 90
        0
176
     0
 40
0.6
176
     0
 40
30.0
176
     0
 62
     7
420
 16777215
176
     0
 90
        1
176
     0
 90
        4
176
     0
 62
     7
176
     0
 62
   257
176
     0
 90
        1
176
     0
 90
        1
176
     0
 40
1.0
176
     0
 90
       10
176
     2
 62
     7
176
     0
 40
1.0
176
     0
 90
        1
176
     0
 90
        6
176
     0
 90
        2
176
     0
 62
     7
176
     0
 90
        5
176
     0
 90
        0
176
     0
 90
        0
176
     0
290
     0
176
     0
 90
        1
176
     0
 40
0.0
176
     0
 90
        0
176
     0
290
     0
176
     1
290
     1
176
     1
290
     1
176
     1
290
     0
176
     1
290
     0
176
     1
290
     0
176
     1
290
     0
176
     1
290
     0
176
     1
290
     0
176
     1
 90
       50
176
     1
 40
0.0
176
     1
 40
1.0
176
     1
 90
        0
176
     1
 62
    18
420
        0
176
     1
 90
       50
176
     1
 90
        3
176
     1
 62
     5
420
      255
176
     1
290
     0
176
     1
 90
       50
176
     1
 90
       50
176
     1
 90
       50
176
     1
290
     0
176
     1
 90
       50
176
     1
 62
   256
176
     0
 40
1.0
176
     0
 90
        2
176
     1
  1
strokes_ogs.tif
176
     1
290
     0
176
     1
 40
1.0
176
     1
 40
1.0
176
     1
1001
ACAD
1000
AcDbSavedByObjectVersion
1070
     0
  0
VISUALSTYLE
  5
FD
102
{ACAD_REACTORS
330
EF
102
}
330
EF
100
AcDbVisualStyle
  2
Linepattern
 70
    14
177
     3
291
     1
 70
    58
 90
        2
176
     1
 90
        2
176
     1
 90
        1
176
     1
 90
        0
176
     1
 40
0.6
176
     1
 40
30.0
176
     1
 62
     7
420
 16777215
176
     1
 90
        1
176
     1
 90
        4
176
     1
 62
     7
176
     1
 62
   257
176
     1
 90
        7
176
     1
 90
        7
176
     1
 40
1.0
176
     1
 90
        8
176
     1
 62
     7
176
     1
 40
1.0
176
     1
 90
        1
176
     1
 90
        6
176
     1
 90
        2
176
     1
 62
     7
176
     1
 90
        5
176
     1
 90
        0
176
     1
 90
        0
176
     1
290
     0
176
     1
 90
        1
176
     1
 40
0.0
176
     1
 90
        0
176
     1
290
     0
176
     1
290
     1
176
     1
290
     1
176
     1
290
     0
176
     1
290
     0
176
     1
290
     0
176
     1
290
     0
176
     1
290
     0
176
     1
290
     0
176
     1
 90
       50
176
     1
 40
0.0
176
     1
 40
1.0
176
     1
 90
        0
176
     1
 62
    18
420
        0
176
     1
 90
       50
176
     1
 90
        3
176
     1
 62
     5
420
      255
176
     1
290
     0
176
     1
 90
       50
176
     1
 90
       50
176
     1
 90
       50
176
     1
290
     0
176
     1
 90
       50
176
     1
 62
   256
176
     0
 40
1.0
176
     0
 90
        2
176
     1
  1
strokes_ogs.tif
176
     1
290
     0
176
     1
 40
1.0
176
     1
 40
1.0
176
     1
1001
ACAD
1000
AcDbSavedByObjectVersion
1070
     0
  0
VISUALSTYLE
  5
1E5
102
{ACAD_REACTORS
330
EF
102
}
330
EF
100
AcDbVisualStyle
  2
OverhangOff
 70
    21
177
     3
291
     1
 70
    58
 90
        2
176
     0
 90
        2
176
     0
 90
        0
176
     0
 90
        0
176
     0
 40
0.6
176
     0
 40
30.0
176
     0
 62
     7
420
 16777215
176
     0
 90
        1
176
     0
 90
        4
176
     0
 62
     7
176
     0
 62
   257
176
     0
 90
        1
176
     0
 90
        1
176
     0
 40
1.0
176
     0
 90
        9
176
     2
 62
     7
176
     0
 40
1.0
176
     0
 90
        1
176
     0
 90
        6
176
     0
 90
        2
176
     0
 62
     7
176
     0
 90
        5
176
     0
 90
        0
176
     0
 90
        0
176
     0
290
     0
176
     0
 90
        1
176
     0
 40
0.0
176
     0
 90
        0
176
     0
290
     0
176
     1
290
     1
176
     1
290
     1
176
     1
290
     0
176
     1
290
     0
176
     1
290
     0
176
     1
290
     0
176
     1
290
     0
176
     1
290
     0
176
     1
 90
       50
176
     1
 40
0.0
176
     1
 40
1.0
176
     1
 90
        0
176
     1
 62
    18
420
        0
176
     1
 90
       50
176
     1
 90
        3
176
     1
 62
     5
420
      255
176
     1
290
     0
176
     1
 90
       50
176
     1
 90
       50
176
     1
 90
       50
176
     1
290
     0
176
     1
 90
       50
176
     1
 62
   256
176
     0
 40
1.0
176
     0
 90
        2
176
     1
  1
strokes_ogs.tif
176
     1
290
     0
176
     1
 40
1.0
176
     1
 40
1.0
176
     1
1001
ACAD
1000
AcDbSavedByObjectVersion
1070
     0
  0
VISUALSTYLE
  5
F9
102
{ACAD_REACTORS
330
EF
102
}
330
EF
100
AcDbVisualStyle
  2
Realistic
 70
     8
177
     3
291
     0
 70
    58
 90
        2
176
     1
 90
        3
176
     1
 90
        0
176
     1
 90
        2
176
     1
 40
0.6
176
     1
 40
30.0
176
     1
 62
     7
420
 16777215
176
     1
 90
        0
176
     1
 90
        0
176
     1
 62
     7
176
     1
 62
   257
176
     1
 90
        1
176
     1
 90
        1
176
     1
 40
1.0
176
     1
 90
        8
176
     1
 62
   257
176
     1
 40
1.0
176
     1
 90
        1
176
     1
 90
        6
176
     1
 90
        2
176
     1
 62
     7
176
     1
 90
        3
176
     1
 90
        0
176
     1
 90
        0
176
     1
290
     0
176
     1
 90
       13
176
     1
 40
0.0
176
     1
 90
        0
176
     1
290
     0
176
     1
290
     1
176
     1
290
     1
176
     1
290
     0
176
     1
290
     0
176
     1
290
     0
176
     1
290
     0
176
     1
290
     0
176
     1
290
     0
176
     1
 90
       50
176
     1
 40
0.0
176
     1
 40
1.0
176
     1
 90
        0
176
     1
 62
    18
420
        0
176
     1
 90
       50
176
     1
 90
        3
176
     1
 62
     5
420
      255
176
     1
290
     0
176
     1
 90
       50
176
     1
 90
       50
176
     1
 90
       50
176
     1
290
     0
176
     1
 90
       50
176
     1
 62
   256
176
     0
 40
1.0
176
     0
 90
        2
176
     1
  1
strokes_ogs.tif
176
     1
290
     0
176
     1
 40
1.0
176
     1
 40
1.0
176
     1
1001
ACAD
1000
AcDbSavedByObjectVersion
1070
     0
  0
VISUALSTYLE
  5
1F3
102
{ACAD_REACTORS
330
EF
102
}
330
EF
100
AcDbVisualStyle
  2
Shaded
 70
    27
177
     3
291
     0
 70
    58
 90
        2
176
     1
 90
        2
176
     1
 90
        1
176
     1
 90
        2
176
     1
 40
0.6
176
     1
 40
30.0
176
     1
 62
     7
420
 16777215
176
     1
 90
        0
176
     1
 90
        4
176
     1
 62
     7
176
     1
 62
   257
176
     1
 90
        1
176
     1
 90
        1
176
     1
 40
1.0
176
     1
 90
        8
176
     1
 62
   257
176
     1
 40
1.0
176
     1
 90
        1
176
     1
 90
        6
176
     1
 90
        2
176
     1
 62
     8
420
  7895160
176
     1
 90
        3
176
     1
 90
        0
176
     1
 90
        0
176
     1
290
     0
176
     1
 90
        5
176
     1
 40
0.0
176
     1
 90
        0
176
     1
290
     0
176
     1
290
     1
176
     1
290
     1
176
     1
290
     0
176
     1
290
     0
176
     1
290
     0
176
     1
290
     0
176
     1
290
     0
176
     1
290
     0
176
     1
 90
       50
176
     1
 40
0.0
176
     1
 40
1.0
176
     1
 90
        0
176
     1
 62
    18
420
        0
176
     1
 90
       50
176
     1
 90
        3
176
     1
 62
     5
420
      255
176
     1
290
     0
176
     1
 90
       50
176
     1
 90
       50
176
     1
 90
       50
176
     1
290
     0
176
     1
 90
       50
176
     1
 62
   256
176
     0
 40
1.0
176
     0
 90
        2
176
     1
  1
strokes_ogs.tif
176
     1
290
     0
176
     1
 40
1.0
176
     1
 40
1.0
176
     1
1001
ACAD
1000
AcDbSavedByObjectVersion
1070
     0
  0
VISUALSTYLE
  5
1F2
102
{ACAD_REACTORS
330
EF
102
}
330
EF
100
AcDbVisualStyle
  2
Shaded with edges
 70
    26
177
     3
291
     0
 70
    58
 90
        2
176
     1
 90
        2
176
     1
 90
        1
176
     1
 90
        2
176
     1
 40
0.6
176
     1
 40
30.0
176
     1
 62
     7
420
 16777215
176
     1
 90
        1
176
     1
 90
        2
176
     1
 62
     7
176
     1
 62
   257
176
     1
 90
        2
176
     1
 90
        1
176
     1
 40
1.0
176
     1
 90
        8
176
     1
 62
   257
176
     1
 40
1.0
176
     1
 90
        1
176
     1
 90
        6
176
     1
 90
        2
176
     1
 62
     7
176
     1
 90
        3
176
     1
 90
        0
176
     1
 90
        0
176
     1
290
     0
176
     1
 90
        5
176
     1
 40
0.0
176
     1
 90
        0
176
     1
290
     0
176
     1
290
     1
176
     1
290
     1
176
     1
290
     0
176
     1
290
     0
176
     1
290
     0
176
     1
290
     0
176
     1
290
     0
176
     1
290
     0
176
     1
 90
       50
176
     1
 40
0.0
176
     1
 40
1.0
176
     1
 90
        0
176
     1
 62
    18
420
        0
176
     1
 90
       50
176
     1
 90
        3
176
     1
 62
     5
420
      255
176
     1
290
     0
176
     1
 90
       50
176
     1
 90
       50
176
     1
 90
       50
176
     1
290
     0
176
     1
 90
       50
176
     1
 62
   256
176
     0
 40
1.0
176
     0
 90
        2
176
     1
  1
strokes_ogs.tif
176
     1
290
     0
176
     1
 40
1.0
176
     1
 40
1.0
176
     1
1001
ACAD
1000
AcDbSavedByObjectVersion
1070
     0
  0
VISUALSTYLE
  5
1EF
102
{ACAD_REACTORS
330
EF
102
}
330
EF
100
AcDbVisualStyle
  2
Shades of Gray
 70
    23
177
     3
291
     0
 70
    58
 90
        2
176
     1
 90
        2
176
     1
 90
        3
176
     1
 90
        0
176
     1
 40
0.6
176
     1
 40
30.0
176
     1
 62
     7
420
 16777215
176
     1
 90
        2
176
     1
 90
        2
176
     1
 62
     7
176
     1
 62
     7
176
     1
 90
        1
176
     1
 90
        1
176
     1
 40
40.0
176
     1
 90
        8
176
     1
 62
     7
176
     1
 40
1.0
176
     1
 90
        1
176
     1
 90
        6
176
     1
 90
        2
176
     1
 62
     7
176
     1
 90
        3
176
     1
 90
        0
176
     1
 90
        0
176
     1
290
     0
176
     1
 90
        1
176
     1
 40
0.0
176
     1
 90
        0
176
     1
290
     0
176
     1
290
     1
176
     1
290
     1
176
     1
290
     0
176
     1
290
     0
176
     1
290
     0
176
     1
290
     0
176
     1
290
     0
176
     1
290
     0
176
     1
 90
       50
176
     1
 40
0.0
176
     1
 40
1.0
176
     1
 90
        0
176
     1
 62
    18
420
        0
176
     1
 90
       50
176
     1
 90
        3
176
     1
 62
     5
420
      255
176
     1
290
     0
176
     1
 90
       50
176
     1
 90
       50
176
     1
 90
       50
176
     1
290
     0
176
     1
 90
       50
176
     1
 62
   256
176
     0
 40
1.0
176
     0
 90
        2
176
     1
  1
strokes_ogs.tif
176
     1
290
     0
176
     1
 40
1.0
176
     1
 40
1.0
176
     1
1001
ACAD
1000
AcDbSavedByObjectVersion
1070
     0
  0
VISUALSTYLE
  5
1F0
102
{ACAD_REACTORS
330
EF
102
}
330
EF
100
AcDbVisualStyle
  2
Sketchy
 70
    24
177
     3
291
     0
 70
    58
 90
        1
176
     1
 90
        2
176
     1
 90
        2
176
     1
 90
        0
176
     1
 40
0.6
176
     1
 40
30.0
176
     1
 62
     7
420
 16777215
176
     1
 90
        2
176
     1
 90
        2
176
     1
 62
     7
176
     1
 62
     7
176
     1
 90
        1
176
     1
 90
        1
176
     1
 40
40.0
176
     1
 90
       11
176
     1
 62
     7
176
     1
 40
1.0
176
     1
 90
        1
176
     1
 90
        6
176
     1
 90
        2
176
     1
 62
     7
176
     1
 90
        6
176
     1
 90
        0
176
     1
 90
        0
176
     1
290
     0
176
     1
 90
        1
176
     1
 40
0.0
176
     1
 90
        0
176
     1
290
     0
176
     1
290
     1
176
     1
290
     1
176
     1
290
     0
176
     1
290
     0
176
     1
290
     0
176
     1
290
     0
176
     1
290
     0
176
     1
290
     0
176
     1
 90
       50
176
     1
 40
0.0
176
     1
 40
1.0
176
     1
 90
        0
176
     1
 62
    18
420
        0
176
     1
 90
       50
176
     1
 90
        3
176
     1
 62
     5
420
      255
176
     1
290
     0
176
     1
 90
       50
176
     1
 90
       50
176
     1
 90
       50
176
     1
290
     0
176
     1
 90
       50
176
     1
 62
   256
176
     0
 40
1.0
176
     0
 90
        2
176
     1
  1
strokes_ogs.tif
176
     1
290
     0
176
     1
 40
1.0
176
     1
 40
1.0
176
     1
1001
ACAD
1000
AcDbSavedByObjectVersion
1070
     0
  0
VISUALSTYLE
  5
FC
102
{ACAD_REACTORS
330
EF
102
}
330
EF
100
AcDbVisualStyle
  2
Thicken
 70
    13
177
     3
291
     1
 70
    58
 90
        2
176
     1
 90
        2
176
     1
 90
        1
176
     1
 90
        0
176
     1
 40
0.6
176
     1
 40
30.0
176
     1
 62
     7
420
 16777215
176
     1
 90
        1
176
     1
 90
        4
176
     1
 62
     7
176
     1
 62
   257
176
     1
 90
        1
176
     1
 90
        1
176
     1
 40
1.0
176
     1
 90
       12
176
     1
 62
     7
176
     1
 40
1.0
176
     1
 90
        1
176
     1
 90
        6
176
     1
 90
        2
176
     1
 62
     7
176
     1
 90
        5
176
     1
 90
        0
176
     1
 90
        0
176
     1
290
     0
176
     1
 90
        1
176
     1
 40
0.0
176
     1
 90
        0
176
     1
290
     0
176
     1
290
     1
176
     1
290
     1
176
     1
290
     0
176
     1
290
     0
176
     1
290
     0
176
     1
290
     0
176
     1
290
     0
176
     1
290
     0
176
     1
 90
       50
176
     1
 40
0.0
176
     1
 40
1.0
176
     1
 90
        0
176
     1
 62
    18
420
        0
176
     1
 90
       50
176
     1
 90
        3
176
     1
 62
     5
420
      255
176
     1
290
     0
176
     1
 90
       50
176
     1
 90
       50
176
     1
 90
       50
176
     1
290
     0
176
     1
 90
       50
176
     1
 62
   256
176
     0
 40
1.0
176
     0
 90
        2
176
     1
  1
strokes_ogs.tif
176
     1
290
     0
176
     1
 40
1.0
176
     1
 40
1.0
176
     1
1001
ACAD
1000
AcDbSavedByObjectVersion
1070
     0
  0
VISUALSTYLE
  5
F6
102
{ACAD_REACTORS
330
EF
102
}
330
EF
100
AcDbVisualStyle
  2
Wireframe
 70
     5
177
     3
291
     0
 70
    58
 90
        0
176
     1
 90
        2
176
     1
 90
        0
176
     1
 90
        0
176
     1
 40
0.6
176
     1
 40
30.0
176
     1
 62
     7
420
 16777215
176
     1
 90
        1
176
     1
 90
        4
176
     1
 62
     7
176
     1
 62
   257
176
     1
 90
        1
176
     1
 90
        1
176
     1
 40
1.0
176
     1
 90
        0
176
     1
 62
   257
176
     1
 40
1.0
176
     1
 90
        1
176
     1
 90
        6
176
     1
 90
        2
176
     1
 62
     7
176
     1
 90
        3
176
     1
 90
        0
176
     1
 90
        0
176
     1
290
     0
176
     1
 90
        1
176
     1
 40
0.0
176
     1
 90
        0
176
     1
290
     0
176
     1
290
     1
176
     1
290
     1
176
     1
290
     0
176
     1
290
     0
176
     1
290
     0
176
     1
290
     0
176
     1
290
     0
176
     1
290
     0
176
     1
 90
       50
176
     1
 40
0.0
176
     1
 40
1.0
176
     1
 90
        0
176
     1
 62
    18
420
        0
176
     1
 90
       50
176
     1
 90
        3
176
     1
 62
     5
420
      255
176
     1
290
     0
176
     1
 90
       50
176
     1
 90
       50
176
     1
 90
       50
176
     1
290
     0
176
     1
 90
       50
176
     1
 62
   256
176
     0
 40
1.0
176
     0
 90
        2
176
     1
  1
strokes_ogs.tif
176
     1
290
     0
176
     1
 40
1.0
176
     1
 40
1.0
176
     1
1001
ACAD
1000
AcDbSavedByObjectVersion
1070
     0
  0
VISUALSTYLE
  5
1F1
102
{ACAD_REACTORS
330
EF
102
}
330
EF
100
AcDbVisualStyle
  2
X-Ray
 70
    25
177
     3
291
     0
 70
    58
 90
        2
176
     1
 90
        2
176
     1
 90
        1
176
     1
 90
        1
176
     1
 40
0.5
176
     1
 40
30.0
176
     1
 62
     7
420
 16777215
176
     1
 90
        1
176
     1
 90
        0
176
     1
 62
     7
176
     1
 62
   257
176
     1
 90
        1
176
     1
 90
        1
176
     1
 40
1.0
176
     1
 90
        8
176
     1
 62
     7
176
     1
 40
1.0
176
     1
 90
        1
176
     1
 90
        6
176
     1
 90
        2
176
     1
 62
     7
176
     1
 90
        3
176
     1
 90
        0
176
     1
 90
        0
176
     1
290
     0
176
     1
 90
       13
176
     1
 40
0.0
176
     1
 90
        0
176
     1
290
     0
176
     1
290
     1
176
     1
290
     1
176
     1
290
     0
176
     1
290
     0
176
     1
290
     0
176
     1
290
     0
176
     1
290
     0
176
     1
290
     0
176
     1
 90
       50
176
     1
 40
0.0
176
     1
 40
1.0
176
     1
 90
        0
176
     1
 62
    18
420
        0
176
     1
 90
       50
176
     1
 90
        3
176
     1
 62
     5
420
      255
176
     1
290
     0
176
     1
 90
       50
176
     1
 90
       50
176
     1
 90
       50
176
     1
290
     0
176
     1
 90
       50
176
     1
 62
   256
176
     0
 40
1.0
176
     0
 90
        2
176
     1
  1
strokes_ogs.tif
176
     1
290
     0
176
     1
 40
1.0
176
     1
 40
1.0
176
     1
1001
ACAD
1000
AcDbSavedByObjectVersion
1070
     0
  0
DICTIONARYVAR
  5
146
102
{ACAD_REACTORS
330
5E
102
}
330
5E
100
DictionaryVariables
280
     0
  1
1:1
  0
DICTIONARYVAR
  5
259
102
{ACAD_REACTORS
330
5E
102
}
330
5E
100
DictionaryVariables
280
     0
  1
3.500000
  0
DICTIONARYVAR
  5
25A
102
{ACAD_REACTORS
330
5E
102
}
330
5E
100
DictionaryVariables
280
     0
  1
acadiso.lin
  0
DICTIONARYVAR
  5
145
102
{ACAD_REACTORS
330
5E
102
}
330
5E
100
DictionaryVariables
280
     0
  1
STANDARD
  0
DICTIONARYVAR
  5
84
102
{ACAD_REACTORS
330
5E
102
}
330
5E
100
DictionaryVariables
280
     0
  1
STANDARD
  0
DICTIONARYVAR
  5
227
102
{ACAD_REACTORS
330
5E
102
}
330
5E
100
DictionaryVariables
280
     0
  1
Metric50
  0
DICTIONARYVAR
  5
228
102
{ACAD_REACTORS
330
5E
102
}
330
5E
100
DictionaryVariables
280
     0
  1
Metric50
  0
DICTIONARYVAR
  5
5F
102
{ACAD_REACTORS
330
5E
102
}
330
5E
100
DictionaryVariables
280
     0
  1
2
  0
DICTIONARYVAR
  5
63
102
{ACAD_REACTORS
330
5E
102
}
330
5E
100
DictionaryVariables
280
     0
  1
1
  0
DICTIONARYVAR
  5
1AE
102
{ACAD_REACTORS
330
5E
102
}
330
5E
100
DictionaryVariables
280
     0
  1
0
  0
DICTIONARYVAR
  5
1AF
102
{ACAD_REACTORS
330
5E
102
}
330
5E
100
DictionaryVariables
280
     0
  1
0
  0
DICTIONARY
  5
97D
102
{ACAD_REACTORS
330
97B
102
}
330
97B
100
AcDbDictionary
281
     1
  0
DICTIONARY
  5
97C
102
{ACAD_REACTORS
330
97B
102
}
330
97B
100
AcDbDictionary
281
     1
  3
1670832519776
350
976
  3
1670832519792
350
977
  3
1670832519808
350
978
  3
1670832519824
350
979
  3
1670832519840
350
97A
  0
DICTIONARY
  5
984
330
28F
100
AcDbDictionary
280
     1
281
     1
  3
ACAD_XREC_ROUNDTRIP
360
985
  0
DICTIONARY
  5
980
330
21C
100
AcDbDictionary
280
     1
281
     1
  3
ACAD_XREC_ROUNDTRIP
360
981
  0
DICTIONARY
  5
205
330
22
100
AcDbDictionary
280
     1
281
     1
  0
DICTIONARY
  5
1F9
330
ED
100
AcDbDictionary
280
     1
281
     1
  3
FBXASSET
360
1FA
  0
DICTIONARY
  5
1F7
330
EC
100
AcDbDictionary
280
     1
281
     1
  3
FBXASSET
360
1F8
  0
DICTIONARY
  5
173
330
EE
100
AcDbDictionary
280
     1
281
     1
  3
BUMPTILE
360
175
  3
DIFFUSETILE
360
174
  3
FBXASSET
360
1FB
  3
OPACITYTILE
360
176
  3
REFLECTIONTILE
360
177
  0
DICTIONARY
  5
982
330
28E
100
AcDbDictionary
280
     1
281
     1
  3
ACAD_XREC_ROUNDTRIP
360
983
  0
DICTIONARY
  5
97E
330
21A
100
AcDbDictionary
280
     1
281
     1
  3
ACAD_XREC_ROUNDTRIP
360
97F
  0
DICTIONARY
  5
162
330
7F
100
AcDbDictionary
280
     1
281
     1
  3
ACAD_ROUNDTRIP_2008_TABLESTYLE_CELLSTYLEMAP
360
974
  0
XRECORD
  5
976
102
{ACAD_REACTORS
330
97C
102
}
330
97C
100
AcDbXrecord
280
     1
  1
AcDb_Thumbnail_Schema
102
{ATTRRECORD
341
977
  2
AcDbDs::TreatedAsObjectData
280
     1
291
     1
102
ATTRRECORD}
102
{ATTRRECORD
341
978
  2
AcDbDs::Legacy
280
     1
291
     1
102
ATTRRECORD}
  2
AcDbDs::ID
280
    10
 91
        8
102
{ATTRRECORD
341
979
  2
AcDs:Indexable
280
     1
291
     1
102
ATTRRECORD}
102
{ATTRRECORD
341
97A
  2
AcDbDs::HandleAttribute
280
     7
282
     1
102
ATTRRECORD}
  2
Thumbnail_Data
280
    15
 91
        0
  0
XRECORD
  5
977
102
{ACAD_REACTORS
330
97C
102
}
330
97C
100
AcDbXrecord
280
     1
  1
AcDbDs::TreatedAsObjectDataSchema
  2
AcDbDs::TreatedAsObjectData
280
     1
 91
        0
  0
XRECORD
  5
978
102
{ACAD_REACTORS
330
97C
102
}
330
97C
100
AcDbXrecord
280
     1
  1
AcDbDs::LegacySchema
  2
AcDbDs::Legacy
280
     1
 91
        0
  0
XRECORD
  5
979
102
{ACAD_REACTORS
330
97C
102
}
330
97C
100
AcDbXrecord
280
     1
  1
AcDbDs::IndexedPropertySchema
  2
AcDs:Indexable
280
     1
 91
        0
  0
XRECORD
  5
97A
102
{ACAD_REACTORS
330
97C
102
}
330
97C
100
AcDbXrecord
280
     1
  1
AcDbDs::HandleAttributeSchema
  2
AcDbDs::HandleAttribute
280
     7
 91
        1
284
     1
  0
XRECORD
  5
985
102
{ACAD_REACTORS
330
984
102
}
330
984
100
AcDbXrecord
280
     1
102
DISPLAYNAME
  1
Imperial24
102
FLAGS
 90
        0
  0
XRECORD
  5
981
102
{ACAD_REACTORS
330
980
102
}
330
980
100
AcDbXrecord
280
     1
102
DISPLAYNAME
  1
Metric50
102
FLAGS
 90
        0
  0
XRECORD
  5
1FA
102
{ACAD_REACTORS
330
1F9
102
}
330
1F9
100
AcDbXrecord
280
     1
 70
     1
 90
429727718
  1
D62C5603-E3A1-4AEA-B7FB-FE5D8D0755AF
310
504B03040A0000080000CC70623B3DEE336E79000000790000001B0000006175746F6465736B2D64657369676E2D7061636B6167652E786D6C3C3F786D6C2076657273696F6E3D22312E302220656E636F64696E673D227574662D3822203F3E3C666F726D6174733E3C666F726D61743E687474703A2F2F736368656D612E
310
6175746F6465736B2E636F6D2F64657369676E2D7061636B6167652F323030393C2F666F726D61743E3C2F666F726D6174733E504B0304140006080800CC70623BD486FD9CA0000000F4000000130000005B436F6E74656E745F54797065735D2E786D6C7D8EC10E82300C865F65E91D8A1E8C310C0EEA1BF002731658846E
310
D98AC1B77784ABF1D8FE5FBFBF75BBCE937A534CCEB38643598122B6FEE978D0B0485F9C41B54DDD7D022595594E1A469170414C76A4D9A4D207E29CF43ECE46F218070CC6BECC4078ACAA135ACF422C856C0E68EA1BF5669944DDD7BCDE7B1F8E415D77AECB980613C2E4AC91FC167A2B244592486606FC29C8FD7F045B9A
310
EF7053A7E60B504B0304140006080800CC70623B853B8169EB0000007C01000008000000636F72652E786D6C8D90416EC3201045AF62CDB6C206821CC7C244919D9CA01740401C94182C03558F5F9C3852BBEB6A467FFE9B197D7EFC9E1EC5975982F5AE035262288C535E5B377690E21535501C055FBC8FBF6C503839990E
310
5619041F179FE64D52DE45E362569DD7661365082642A11EB9E920A89B99642953CC8E702F67A9EE7234257977194EC9EAE275C4EABCCF5EAD5940D4AC6F0E35A568B8F43562CD7046CD199FD07E60174276A7BE677B5EADB0E0D14EEFFB6A31321A0D82627C4084204C3F096B71DD52F6819B16635EADF63F509AF53FA164
310
5DDCD1EDDD17164090FCC8732078B56691CB33A85CD7DCC40F504B0304140006080800CC70623B55019EA25F0000007C00000007000000636E782E786D6C4DCB3B0E80201045D1AD90E915ED2CF8AC45050C11660C8261F98AB1B07AC9C97D42D718D865D3E909258CFD00CCE24AC6E326A164D74DC0B4128928FF32603847
310
2BA13128B1252AC747C6BAB984FC68F0B87FE8960A5C09FE86CFB69FBA01504B0304140006080800CC70623BDBABAAF470010000D40300000C0000006662782F636F72652E786D6CC553D16E823014FD95A6AF4B694182CC941A83FA05FB810A9511A125A5257EFE2E82712ECEB8A7F100CD39F7F69E734AF9FADC366850B6
310
AF8DCE7018308C942E4C59EB2AC3DE1D498AD15A706B8CFB56869196ADCAF00863C12B6B7C374385D14E6907A836A59A41D9F7CA615434B0C8705F7CAA5606D23BA8E84F41278B93AC54100640439DE0BDB320004D43C63716C7C399D30917DCFBBA9CD9BA8469F5B156168B24CED3F7248AC8769F27244EB73B92EED8862C
310
B7F13E0C179B3C8F979C8ECD82BBBABDAA2BAC924E9558448CBD9330242CFA08E3154B5651FCC6D215639C8EE5774DBE2B5F6CF2B5768B68963BB5F5588420E442FC700B1139D4CB01F450C1E918227C2E09DF070D8140C84E1E9AAB8F1340832A9CB13130A5F1376A908D57309505ECF2A0DF179C4E9D30F5B239B87E3823
310
7A79C6F31DE1A8A5AEC08474B03C7837EAE4938639B44E5932B833D2C6B6B279CDC613877FA26EE21F4A2A4C63EC7F29A2F301D1F9F7A0E37D145F504B0304140006080800CC70623B9C113CC27E0000009D0000000B0000006662782F636E782E786D6C4DCCDF0A83201C86E15B91DFB94BFB330DD428C8FB886521330DA7
310
6397BF1A1DECE883878F57749FCDA1B7892F1BBC047A23808C7F84D9FA55424E0BE6803A256208E9EF06C84F9B91703228B1C690F78B66B34CD9A5439DF5CF0BFBF65E35BCA1B8D6A5C6F540381E886698B5741C695F9503EBA150A2F8958E3DC3EA0B504B0304140006080800CC70623B7DF2F77C2A010000120200003100
310
00006662782F41393633353835312D344632462D344230382D423046372D3739314545314133324237412F636F72652E786D6C8D51DB8EC22014FC15C2939B0D2DB4B45643319AE817EC0F6041255A68B86CFCFC856D4D76DF7CE190393373060EDB3DC707F856CE6B6B7A480A0C81328395DA5C7B18C3057510EC3873D686
310
3F34088C18550F330C39BB3A1BA7051AAC09CA84841A2BD5020AEF55806078A44B0FFD7053A328440C89E1EFC52486BBB8AA8214A99D789CF9E05200300FC927E4FB4D5B375D43103D5527440FB843077C5AA3F5861C8F645F5787F59E95B390B318B55CE45AA638FAA2957BD7248B390B7A7CC51F9C124149C82B8C378810
310
84AB2F42B7B8DD56F413775B8C5999E9FF4471926F8AA236A1AE96B8B3CC434E5839373893369E1FAF30EA395917409EB7F26AF8801C171837A4A6AC9C89E9F9C9B1A58BA30FD6A5EF5DDDCF894B9AD9B6A59C957943A9FCAE2FD5BC4DFE03504B0304140006080800CC70623BAD7543B64E01000033030000300000006662
310
782F41393633353835312D344632462D344230382D423046372D3739314545314133324237412F636E782E786D6CD593CD6EC32010845F0571AD6CE3D48AD20813A9873E410FBD12D82434182C7EAAE6EDBB2424CD25871E7B41D6EC30B3FA84F9E67BB2E40B4234DE8DB46F1925E094D7C6ED479AD3AE5951B2113C789FEE
310
6C943839C1488B4C05DF079FE72A69D8C96C13AAD6B8631503449F83828872B949AC57D26200B826A308D316B4064D6E46FCDA41C05550DC9E483A00797BFD207EFB092A45DE9514C1BBD22178396BD39D891265658C238DEA00936C654E5E433CB65A26D9F6EDB5EBC14EBF49A45CB856E66048291F6939A9A81BB5C89177
310
38143CA680F4AA299D66A042CEB3354A2684DC9D8D178FE0D9B8B41CAAD720F880EE7EF93C0C18769E099ECC04D5A102C8049A8A05632F4DDF376CF1DE0F6BB65C2F8627B65A33C6BB62177CEBBDAD973006829F89F22E814B54F4BC2BE347F8AA8F681390B50FA73F804400B5F542E796F19FF974E7F78DB802FE05E20750
310
4B0304140006080800CC70623BE75B7789680500003C100000340000006662782F41393633353835312D344632462D344230382D423046372D3739314545314133324237412F6F626A656374732E786D6CAD575B8F9B3818FD2B887D06C22499CB8AA1CA655245D5B455A356FB305264C061D8018C6C3393D95FBFC7600890
310
A4CD5EF210B0B1BFEBF98E3F7B1FF6596ABC522E1296DF9BAE3D320D9A872C4AF2F8DE2CE5CEBA358D0FBEC719939D65A691938CDE9B6ADAF4BD98B3B2D05311DD91329583D9D5FC0F438434A7A611A644887B5384CF34233629258BA878B12322891DEFF6B66BD70BFB62634E8AE781D082709A4B588AF91C528CDA28B73F
310
1C998EEF39EABBEFA97FBD6A7C7E9553F9D3D79FE442923C3C523610337627CB87ABE99D359D4CC6D6E4FACAB5E6ABF9D2726FC6A3C5F56271377BB88362213924694B38DD99FE47C48627A1E7D49F5A8BB5E1A74C0A599ED3B0F21F1E56366B89112D681E218F0915D0D6F17AD41FBA2A369DCF6335D62ABBD39779D5DDD1
310
11D4D8DE3CBB96B2E04FB8202E41051754A1AA8E8F76B4C6DFE810B580B1547F4B84911149794252234D024EF8BBE963A95AE27B3D310A9D5C215C7960FAEE415ED75694C6AFB17BCACA5D99A60A9AA65F217B0BFC53292ACB92BF283FAD0D3621576592CB5BED907C2FA8E9DF794E35E97BEA31BED21FEB401ABB94C44839
310
DCACBF0E1C5DA8DA5B2F4DFFD32AD86F543D9E565E7056502E157C00AD2671CD534549AB752FCA9CDA00677A313F04E51B22FF19E57B300579E3C97EB29F682D92935CEC18CF901B7B54FD8C51F362B56FC72FE0B3C1EAE335EDCCBF5AEC39ADB17DC238973F804BA5E6F6BFE7AF1FB32E523BE9F3BD571418E3631DCA4D48
310
5250CF639223210A9446CA30052EDF057BD35F8329C1ECD84552BF0DC8D18BE7BCE23BFE6BD960AB4A7DE79923A103BEBD80F911CBAA2C60DB19B01CF164A5583B772EE6D3FFA56666CBCDA74DC97724A48F9A58967497E489C4D979006FD7A05E227A1EBDD0F737C623387A9C844D3709995625106D157315F8B8392CD4E0
310
A0B9A720C4BE9829CEF37EA1E13111214D53925356365ADA634861B52519DD27A00AEB808EAF0628E6F435519D446F45CF2C9CF5214F0A15B2F6D06B79DA3EE3CBF7F56780D2F4E7EF73A0F5E5B02A38D07DC852C6B7C1FBB6664213E0C39E3EBA7FF4E1AD23EA2829407C85E586727488B751B2DB9502BC7B228A3FD68B6E
310
A65A22397E690AA8D158D7E404EC8CDA235CC3B7D1898680131CEC2CDF2638C65196279577750F15884AEE19F94199155B92B13297978469D4F8D358DF0AEF7631E28DC8F0D9F437D5D39A83B2231A1D52D543813A824EF8D44BCFF2FA6A31BD1E8DAD87F1CCB526B3879935BF59CDADD5C37479BB1CDD4CA7B3556B516589
310
EF352754B706114D9C885EC9131DE6EFEB43D99AFE2391C2F958179413D7CFEF6B1B6DB1E7600F00DE6E5C67454A339A4BA2E0FBA85ED26F045D454F463DBFCE484C2F90F2E5E3666003662ED8F755951A7D1BECD5B30B550B2785C8E7320B7292A4838DDA71BBC863ED7613CAF659337A3354231D4FF4A182A54904C2898C
310
98B28C4AD0CE056CCF332A80986E571EE9DBC305BB5FEB7E509220A58D25CF042D712A806AC0AD0C657FDEF80D2D9CEAA2EE4D1C76F60BFE74219A06527D6F82DF6412526107381E55E353090704D085B52408A8913C4ED159D79BDA71BB4BC506F4831350EB6F975CD22D69BF7AC49B91A2C0A9DDA3D5CA36AD20FC478E37
310
E61844E2352865EBCB61A275A65283CAAA9DD27703B4102F5AF51EF5F573B75CBB5AD38BC845F7A49F82A0966A49C2E3EA5EA0ECD326CD965F1DB402C6FA8B51A4658C5C5E2EC9E214602E55810345408596591009A82E7E7FFACA19EEA299B14A0081A705CB3296EBC14CDF658DCD336EA6D1136881AAEB87B81AB9EE53D5
310
F5EB8BC8362082DA24122F98680A4E7930C01A0079749CEA14382A0783E5EBA5A10F8C098456A03D6A4AEB6BB881E2513747552A5DB22C7EDAF83BD5528081A365F7FF06504B0304140006080000CC70623B000000000000000000000000350000006662782F41393633353835312D344632462D344230382D423046372D37
310
39314545314133324237412F76657274696365732E62696E504B0304140006080800CC70623BF270F1330600000004000000360000006662782F41393633353835312D344632462D344230382D423046372D3739314545314133324237412F747269616E676C65732E62696E636660600000504B0304140006080000CC7062
310
3B000000000000000000000000370000006662782F41393633353835312D344632462D344230382D423046372D3739314545314133324237412F617474726962757465732E62696E504B0304140006080800CC70623B08DA0BD19000000041010000360000006662782F41393633353835312D344632462D344230382D4230
310
46372D3739314545314133324237412F6469726563746F72792E786D6C858F410AC3201045AF22B36F53E9A60B35CBEEBAE80D244E44489C6234F4F835464A48035D0DF398FF9F8AF63D0E6CC63039F212F8F9020C7D47C6792B21C5FE7403D62A1188E2E60C98D7234A5830286103A55745067B9D86B8A3CF9C7F90C11DE6
310
07FB144396D7B6A82D282E9A152AD114D5EF2CB866EEE831B8EEA07A7BB5A8D7D61A2BAAEB7FD5F70921FF497D00504B0304140006080800CC70623BEDD1DC58FD000000A00100003B0000006662782F41393633353835312D344632462D344230382D423046372D3739314545314133324237412F7265736F75726365732F
310
636F72652E786D6C8D504B6E833010BD0A9A6D65B00922041947112427E8052C33A156828DFCA97AFC9A40A576D7CDCCE87D344F8F9FBFE667F689CE6B6B3A6039850C8DB2A336530731DC4903D95970676DF82583CCC8193B5861107C72362E3BA4AC096842428D1D7107A5F7182053CF7474E0D507CE32973124857FE48B
310
540F3961CEF244279DE03EB81420DB9EAC1384436FA353E879B1B182C7A8C75DA3C7F453DF353A1075D537A7BA6464B8F535A99AE14A9A2BBD90E350DD183B5CFABE3AF262350B1EF4FC9351399401471025A527C218A1E53BAB5A5AB765F5469B96525EACF23FA6B88CFF34456DC2A1DCE36E360F82A5202F42F062ED2BAD
310
579969AFDD8A6F504B010214000A0000080000CC70623B3DEE336E79000000790000001B00000000000000000000000000000000006175746F6465736B2D64657369676E2D7061636B6167652E786D6C504B01021400140006080800CC70623BD486FD9CA0000000F40000001300000000000000000000000000B20000005B
310
436F6E74656E745F54797065735D2E786D6C504B01021400140006080800CC70623B853B8169EB0000007C010000080000000000000000000000000083010000636F72652E786D6C504B01021400140006080800CC70623B55019EA25F0000007C000000070000000000000000000000000094020000636E782E786D6C504B
310
01021400140006080800CC70623BDBABAAF470010000D40300000C00000000000000000000000000180300006662782F636F72652E786D6C504B01021400140006080800CC70623B9C113CC27E0000009D0000000B00000000000000000000000000B20400006662782F636E782E786D6C504B01021400140006080800CC70
310
623B7DF2F77C2A010000120200003100000000000000000000000000590500006662782F41393633353835312D344632462D344230382D423046372D3739314545314133324237412F636F72652E786D6C504B01021400140006080800CC70623BAD7543B64E010000330300003000000000000000000000000000D2060000
310
6662782F41393633353835312D344632462D344230382D423046372D3739314545314133324237412F636E782E786D6C504B01021400140006080800CC70623BE75B7789680500003C10000034000000000000000000000000006E0800006662782F41393633353835312D344632462D344230382D423046372D3739314545
310
314133324237412F6F626A656374732E786D6C504B01021400140006080000CC70623B0000000000000000000000003500000000000000000000000000280E00006662782F41393633353835312D344632462D344230382D423046372D3739314545314133324237412F76657274696365732E62696E504B01021400140006
310
080800CC70623BF270F133060000000400000036000000000000000000000000007B0E00006662782F41393633353835312D344632462D344230382D423046372D3739314545314133324237412F747269616E676C65732E62696E504B01021400140006080000CC70623B0000000000000000000000003700000000000000
310
000000000000D50E00006662782F41393633353835312D344632462D344230382D423046372D3739314545314133324237412F617474726962757465732E62696E504B01021400140006080800CC70623B08DA0BD1900000004101000036000000000000000000000000002A0F00006662782F41393633353835312D344632
310
462D344230382D423046372D3739314545314133324237412F6469726563746F72792E786D6C504B01021400140006080800CC70623BEDD1DC58FD000000A00100003B000000000000000000000000000E1000006662782F41393633353835312D344632462D344230382D423046372D3739314545314133324237412F7265
310
736F75726365732F636F72652E786D6C504B0506000000000E000E0080040000641100000000
  0
XRECORD
  5
1F8
102
{ACAD_REACTORS
330
1F7
102
}
330
1F7
100
AcDbXrecord
280
     1
 70
     1
 90
429727718
  1
30362254-06B7-45E0-A893-8CFA70E3D6BC
310
504B03040A0000080000CC70623B3DEE336E79000000790000001B0000006175746F6465736B2D64657369676E2D7061636B6167652E786D6C3C3F786D6C2076657273696F6E3D22312E302220656E636F64696E673D227574662D3822203F3E3C666F726D6174733E3C666F726D61743E687474703A2F2F736368656D612E
310
6175746F6465736B2E636F6D2F64657369676E2D7061636B6167652F323030393C2F666F726D61743E3C2F666F726D6174733E504B0304140006080800CC70623BD486FD9CA0000000F4000000130000005B436F6E74656E745F54797065735D2E786D6C7D8EC10E82300C865F65E91D8A1E8C310C0EEA1BF002731658846E
310
D98AC1B77784ABF1D8FE5FBFBF75BBCE937A534CCEB38643598122B6FEE978D0B0485F9C41B54DDD7D022595594E1A469170414C76A4D9A4D207E29CF43ECE46F218070CC6BECC4078ACAA135ACF422C856C0E68EA1BF5669944DDD7BCDE7B1F8E415D77AECB980613C2E4AC91FC167A2B244592486606FC29C8FD7F045B9A
310
EF7053A7E60B504B0304140006080800CC70623B1EC5D7A3EB0000007C01000008000000636F72652E786D6C8D90416EC3201045AF82665B6103C6756C6122AB4D4ED00B204C5C94182C03558F5F9C3852BBEB6A467FFE9B197D71FC9E6FE8CBACC17AD7032D0820E3B41FAD9B7A48F1820F808E52ACDEC75F36404ECDA687
310
4D0629A6D5A76597B477D1B89855E747B38B2A041301E95B6E7A08FAD3CCAA50296647B8168BD2573599823EBB0CA76447F43862C7BCCF5EAC59410E4DDD9C7973C2755553CCCFA4C603E3040F1565ED3B1FDE4E432BCA0D9622DAF9795FAF464533826484B498524CD807E51D79ED187F21878E10516EF63F505AC67F42C9
310
BA58B1FDDD071640D2FCC87D2045B96591CB3DA85CB7DCE40F504B0304140006080800CC70623B55019EA25F0000007C00000007000000636E782E786D6C4DCB3B0E80201045D1AD90E915ED2CF8AC45050C11660C8261F98AB1B07AC9C97D42D718D865D3E909258CFD00CCE24AC6E326A164D74DC0B4128928FF32603847
310
2BA13128B1252AC747C6BAB984FC68F0B87FE8960A5C09FE86CFB69FBA01504B0304140006080800CC70623B8C9102E971010000D40300000C0000006662782F636F72652E786D6CC5535B6E833010BC8AE5DF0A6C08340F1947A84D4ED00B38C6A128602363A31CBFCB234A53A551FA553EC09AD9F5CE8C31DB9E9B1AF5CA
310
7695D1198E428A91D2D214952E33ECDD315861B4E5CC1AE3BE9561A445A3323CC098B3D21ADFCE9034DA29ED00D5A6503328BA4E398C640D8B0C77F253352214DE4145770A5B214FA2546114020D759C75CE8200340D19DE981F0F6746269C33EFAB6266AB02A655C74A59CCF365BADC27CB5D902ED22848F6340DF238A141
310
BE88E2F57B92BFEDF23523433367AE6A2EEAA455C2A902F398D2751045018D3FA264435F3771F242571B4A1919CA6F9A7C5B3CD9E42BED16F12C776AEB308F40C848FC700B1139D4891EF410CEC810227CC6846F8386402064270EF5C5C709A05E49676C024C61FC95EA45ED154CA5211D1FF4FB8291A913A68E9B83EBBB33
310
E2A7673CDE118E5AE8124C0807CB8377834E366998436B950D7A7746DAD846D4CFD978E0F04FD455FC5D49D2D4C6FE9722321F10997F0F32DC47FE05504B0304140006080800CC70623BFFEA85907E0000009D0000000B0000006662782F636E782E786D6C4DCCD10A83201886E15B91FFDC95D95A811AB6F23E625948A6C3
310
E9D8E5AF46073BFAE0E1E365ED67B3E8ADC3CB78C7815C7240DA3DFC64DCC221C519D7805AC182F7F1EF06C88D9BE6703008B6049F9E274D7A1E938DBB5AE3D6131B2589BA0D3D965551E0B2EA732C9B9A624AAEB41E3A557677029960D9AFB4EF11165F504B0304140006080800CC70623B4FEEA4082C0100001202000031
310
0000006662782F39464131463745442D413632322D343644302D413938332D3331353338454246344243312F636F72652E786D6C8D515B6EC32010BC0AE2AB55850DD871ED0813254D72825EC00192A2C460F1A872FC42ED48ED5F7E00CDCECCCEB26C731F6FE05B39AFADE921293004CA082BB5B9F43086336A21D870E6AC
310
0D7F68109861543DCC30E4ECE26C9C164858139409093556AA051CBC570102714B8F1E7AF1A5C6A11862480C7F2DA6415C878B2A4891CA89C7990F2E050073937C42DE1DB7E4F87ED8A36D4329AA9B3D46DBAEAD504556557BD81DEBDD0761E52CE42C462D17B996298E3E6BE59E35C962CE821E1FF18553435012728A7187
310
0841987E927A8D9B35ADDF70BBC6989599FE4F1427F9A4286A132ABAC49D651EF234CD5CE04CDA78BA3DC2A8FB645D00B9DF8B57E215725C60BCA2A463E54C4CE327C7A65E1C7DB02E7DEFCBF594B864C5CA6CDBD49C957943E9FA5D5FBAF336F90F504B0304140006080800CC70623BAD7543B64E01000033030000300000
310
006662782F39464131463745442D413632322D343644302D413938332D3331353338454246344243312F636E782E786D6CD593CD6EC32010845F0571AD6CE3D48AD20813A9873E410FBD12D82434182C7EAAE6EDBB2424CD25871E7B41D6EC30B3FA84F9E67BB2E40B4234DE8DB46F1925E094D7C6ED479AD3AE5951B2113C
310
789FEE6C943839C1488B4C05DF079FE72A69D8C96C13AAD6B8631503449F83828872B949AC57D26200B826A308D316B4064D6E46FCDA41C05550DC9E483A00797BFD207EFB092A45DE9514C1BBD22178396BD39D891265658C238DEA00936C654E5E433CB65A26D9F6EDB5EBC14EBF49A45CB856E66048291F6939A9A81BB5
310
C8917738143CA680F4AA299D66A042CEB3354A2684DC9D8D178FE0D9B8B41CAAD720F880EE7EF93C0C18769E099ECC04D5A102C8049A8A05632F4DDF376CF1DE0F6BB65C2F8627B65A33C6BB62177CEBBDAD973006829F89F22E814B54F4BC2BE347F8AA8F681390B50FA73F804400B5F542E796F19FF974E7F78DB802FE05
310
E207504B0304140006080800CC70623B16AB87BA640500003C100000340000006662782F39464131463745442D413632322D343644302D413938332D3331353338454246344243312F6F626A656374732E786D6CAD575B6FA33818FD2B887DE6924B3BED8A326A92B68A663B534DD4D13E548A0C38942D60649B369D5FBFC7
310
600890A493BDE42160637FD7F31D7FF63E6FB3D478A55C242CBF3247B66B1A340F5994E4F19559CA8D75611A9F7D8F33263BCB4C232719BD32D5B4E97B316765A1A722BA21652A07B3B7B33F0D11D29C9A46981221AE4C113ED38CD8A4942CA2E2C58E882476BCD9DA23BB5ED8171B73523C0F841684D35CC252CCE79062D4
310
468DFA43D7747CCF51DF7D4FFDEB5593E3AB9CCA9FBEFE241792E4E19EB28198C968BAB8199F5D5A67D3E9C49A9E8F47D6EC76B6B0469F26EEFC7C3EBFBCBEB98462213924694B38DD98FE1D62C393D073EA4FADC5DAF04326852CCF6958F90F0F2B9BB5C48816348F90C7840A68EB78EDF68723159BCEE7891A6B95DDE9D3
310
BCEAEEE8086A6C6F9E5D4B59F0175C10A7A0820BAA5055C7473B5AE3CFDD452D602CD5DF12616444529E90D448938013FE6EFA58AA96F85E4F8C42275708571E98FE6827AF6B2B4AE3D7D83D64E5A64C53054DD3AF90BD06FEA9149565C94FCA0F6B834DC85599E4F2423B24DF0B6AFA979E534DFA9E7A4CC6FA631D486393
310
921829879BF5D781A373557BCB85E97FB90DB62B558F8795179C15944B051F40AB495CF35451D26A4727654E6D8033BD98EF82F21D91FF8AF2DD9982BCF1643BDD4EB516C9492E368C67C88DED563FC36D5EACF66DFF057C3658BDBFA69DF9578B3DA735B64F18C7F20770A9D45CFCF7FCF563D6456A277DBEF78A02637CA2
310
43B90A490AEAB94F72244481D24819A6C0E59B606BFA4B3025981DBB48EAB701D97BF19C577CC77F2D1B6C55A9EF3C732474C0B727303F625995056C3B02963D9EAC146BE78EC5FCEC7FA999EBC5EACBAAE41B12D27B4D2C0BBA49F244E2ECDC81B76B502F113D8F5EE8FB1BE3111CDD4FC2AA9B844CAB1288B68AB90A7CDC
310
1C166AB0D3DC5310625FCC14E779BFD0709F8890A629C9292B1B2DED31A4B0DA928CEE135085754027E3018A397D4D5427D15BD1330B677DC8934285AC3DF45A9EB68FF8F2B8FC0A509AFEECFD0FF2DE25CC6047F7214B195F07EFEB9A094D800F7BFAE8FED187B78EA8A3A400F115961BCAD1215E47C966530AF0EE8128FE
310
58CEBB996A8964FFA529A046635D9353B0336A8F700DDF46271A024E70B0B37C9DE01847591E54DED53D54202AB947E4076556AC49C6CA5C9E1226B7F1A7B1BE15DEED62C41B91E1B3E9AFAAA735036547343A925075041DF0A9979E893B391F8FCFA6967B3EFB644DCF6E5CEBFAE272625DCC6FAF3FB93793C5F90CE1EF57
310
407342756B10D1C489E8953CD1617E5CEECAD6F4EF8914CE5D5D504E5C3F1F9736DA62CFC11E00BCDDB8CC8A9466349744C1F75EBDA4DF09BA8A9E8C7A7E9991989E20E5DBDD6A6003664ED8F7A04A8DBE0DF6EAD9B9AA858342E47399053949D2C146EDB85DE4B176BB0965FBAC19BD19AA918E27FA50C1D22402E144464C
310
59462568E704B6E71915404CB72B8FF4EDE184DDAF753F284990D2C6926782963815403548A70C657FDEF80D2D9CEAA2AE4C1C76F60BFE74219A06527D6582DF6412526107381E55E353090704D085B52408D0933C4ED159D79BDA71BB4BC506F4831350EB6F979CD22D69BF7AC49B91A2C0A9DDA3D5CA36AD20FC478E37E6
310
1844E2352865EBCB6EA275A652E3836BE04EFB400BF1A2556F515F1FBB35B2AB35BD889C744FFA1004B5544B121E57F70215746DD2F5E2C1412B602CBF19455AC6C8E5E9922C4E01E65215385004546899059180EAFCF7A707CE7017CD8CDB0410789AB32C63B91E5CEBBBACB17AC6CD347A022D5075FD106377347AAABA7E
310
7D11590744509B44E205134DC1290F06580320F78E537D3D73540E06CB970B431F185308AD40BBD794D6D77003C5A36E8EAA54BA64597CD8F83BD552A080A365F7FF06504B0304140006080000CC70623B000000000000000000000000350000006662782F39464131463745442D413632322D343644302D413938332D3331
310
353338454246344243312F76657274696365732E62696E504B0304140006080800CC70623BF270F1330600000004000000360000006662782F39464131463745442D413632322D343644302D413938332D3331353338454246344243312F747269616E676C65732E62696E636660600000504B0304140006080000CC70623B
310
000000000000000000000000370000006662782F39464131463745442D413632322D343644302D413938332D3331353338454246344243312F617474726962757465732E62696E504B0304140006080800CC70623B08DA0BD19000000041010000360000006662782F39464131463745442D413632322D343644302D413938
310
332D3331353338454246344243312F6469726563746F72792E786D6C858F410AC3201045AF22B36F53E9A60B35CBEEBAE80D244E44489C6234F4F835464A48035D0DF398FF9F8AF63D0E6CC63039F212F8F9020C7D47C6792B21C5FE7403D62A1188E2E60C98D7234A5830286103A55745067B9D86B8A3CF9C7F90C11DE607
310
FB144396D7B6A82D282E9A152AD114D5EF2CB866EEE831B8EEA07A7BB5A8D7D61A2BAAEB7FD5F70921FF497D00504B0304140006080800CC70623B0D6EF93BFE000000A00100003B0000006662782F39464131463745442D413632322D343644302D413938332D3331353338454246344243312F7265736F75726365732F63
310
6F72652E786D6C8D50596E833010BD0A9ADFCA60B334011947A8694ED00B586642AC041B79A97AFC9A40A5F6AF3F33A3B7689E1E3F7DCD8FEC139DD7D6F4C0720A191A65476DA61E62B892236427C19DB5E1970C322367EC618541F0C9D9B8EC90B226A009093576C41D94DE63804C3DD2D18357379C652E63480A7FCF17A9
310
EE72C29CE5894E3AC17D702940B63D59270887DE46A7D0F36263058F518FBB468FE9A7BE6A7420864373B8D4873369AA8691FA421B3294352543C5CAF65C0F6FEF43CB8BD52C78D0F34F46E550061C419494B6843142CB0F5677F4B52BEB177AEC28E5C52AFF638ACBF84F53D42654E51E77B379102C05791282176B5F693D
310
CB4C7BED567C03504B010214000A0000080000CC70623B3DEE336E79000000790000001B00000000000000000000000000000000006175746F6465736B2D64657369676E2D7061636B6167652E786D6C504B01021400140006080800CC70623BD486FD9CA0000000F40000001300000000000000000000000000B20000005B
310
436F6E74656E745F54797065735D2E786D6C504B01021400140006080800CC70623B1EC5D7A3EB0000007C010000080000000000000000000000000083010000636F72652E786D6C504B01021400140006080800CC70623B55019EA25F0000007C000000070000000000000000000000000094020000636E782E786D6C504B
310
01021400140006080800CC70623B8C9102E971010000D40300000C00000000000000000000000000180300006662782F636F72652E786D6C504B01021400140006080800CC70623BFFEA85907E0000009D0000000B00000000000000000000000000B30400006662782F636E782E786D6C504B01021400140006080800CC70
310
623B4FEEA4082C0100001202000031000000000000000000000000005A0500006662782F39464131463745442D413632322D343644302D413938332D3331353338454246344243312F636F72652E786D6C504B01021400140006080800CC70623BAD7543B64E010000330300003000000000000000000000000000D5060000
310
6662782F39464131463745442D413632322D343644302D413938332D3331353338454246344243312F636E782E786D6C504B01021400140006080800CC70623B16AB87BA640500003C1000003400000000000000000000000000710800006662782F39464131463745442D413632322D343644302D413938332D3331353338
310
454246344243312F6F626A656374732E786D6C504B01021400140006080000CC70623B0000000000000000000000003500000000000000000000000000270E00006662782F39464131463745442D413632322D343644302D413938332D3331353338454246344243312F76657274696365732E62696E504B01021400140006
310
080800CC70623BF270F133060000000400000036000000000000000000000000007A0E00006662782F39464131463745442D413632322D343644302D413938332D3331353338454246344243312F747269616E676C65732E62696E504B01021400140006080000CC70623B0000000000000000000000003700000000000000
310
000000000000D40E00006662782F39464131463745442D413632322D343644302D413938332D3331353338454246344243312F617474726962757465732E62696E504B01021400140006080800CC70623B08DA0BD190000000410100003600000000000000000000000000290F00006662782F39464131463745442D413632
310
322D343644302D413938332D3331353338454246344243312F6469726563746F72792E786D6C504B01021400140006080800CC70623B0D6EF93BFE000000A00100003B000000000000000000000000000D1000006662782F39464131463745442D413632322D343644302D413938332D3331353338454246344243312F7265
310
736F75726365732F636F72652E786D6C504B0506000000000E000E0080040000641100000000
  0
XRECORD
  5
175
102
{ACAD_REACTORS
330
173
102
}
330
173
100
AcDbXrecord
280
     1
270
     1
271
     1
  0
XRECORD
  5
174
102
{ACAD_REACTORS
330
173
102
}
330
173
100
AcDbXrecord
280
     1
270
     1
271
     1
  0
XRECORD
  5
1FB
102
{ACAD_REACTORS
330
173
102
}
330
173
100
AcDbXrecord
280
     1
 70
     0
 90
1673772943
  1
ECE7A1D2-D628-4531-984C-D00F80459256
310
504B03040A0000080000CC70623B3DEE336E79000000790000001B0000006175746F6465736B2D64657369676E2D7061636B6167652E786D6C3C3F786D6C2076657273696F6E3D22312E302220656E636F64696E673D227574662D3822203F3E3C666F726D6174733E3C666F726D61743E687474703A2F2F736368656D612E
310
6175746F6465736B2E636F6D2F64657369676E2D7061636B6167652F323030393C2F666F726D61743E3C2F666F726D6174733E504B0304140006080800CC70623BD486FD9CA0000000F4000000130000005B436F6E74656E745F54797065735D2E786D6C7D8EC10E82300C865F65E91D8A1E8C310C0EEA1BF002731658846E
310
D98AC1B77784ABF1D8FE5FBFBF75BBCE937A534CCEB38643598122B6FEE978D0B0485F9C41B54DDD7D022595594E1A469170414C76A4D9A4D207E29CF43ECE46F218070CC6BECC4078ACAA135ACF422C856C0E68EA1BF5669944DDD7BCDE7B1F8E415D77AECB980613C2E4AC91FC167A2B244592486606FC29C8FD7F045B9A
310
EF7053A7E60B504B0304140006080800CC70623BD9DDAED0EC0000007C01000008000000636F72652E786D6C8D90416EC3201045AF82665B61836D9CD8C2444DD39CA01740405C94182C03558F5F9C3852BBEB6A467FFE9B197D7EF89E6EE8CB2CC17A37002D0820E394D7D68D03A478C17B4007C117EFE32F1B20272733C0
310
2A83E0E3E2D3BC49CABB685CCCAAF3DA6CA20CC14440EA969B0182FA34932C648AD911AEC52CD5558EA6A0CF2EC329598D1E47ACCEFBECC59A050463A7EA5833865FEBDD0E37353BE3EE8DBDE3F6786A48D375FBF6CC78B9C282473B3DEFABC5C86834888A900E538A49F5419B9EB47DD5BC907D4F082F57FB1F28CDFA9F50
310
B22ED6D5F6EE030B20687EE43E10BC5CB3C8E51E54AE6B6EE207504B0304140006080800CC70623B55019EA25F0000007C00000007000000636E782E786D6C4DCB3B0E80201045D1AD90E915ED2CF8AC45050C11660C8261F98AB1B07AC9C97D42D718D865D3E909258CFD00CCE24AC6E326A164D74DC0B4128928FF326038
310
472BA13128B1252AC747C6BAB984FC68F0B87FE8960A5C09FE86CFB69FBA01504B0304140006080800CC70623BA24EB22D72010000D40300000C0000006662782F636F72652E786D6CC5535B6E833010BC8AE5DF0A6C5E49888CA3A6694ED00B38E05014B091B1518EDFE511A5A9D228FD2A1F60CDEC7A67C6986DCE4D8D7A
310
69BA4AAB0C073EC548AA5C17952A33ECECD15B61B4E1CC686DBF9561A44423333CC098B3D268D7CE50AE9595CA02AA74216750749DB418E5352C32DCE59FB211BE70162ABA93DF8AFC244AE9073ED050C759670D0840D390E18DF9F1706664C23973AE2A66B62A605A75ACA4C13C4976E1364A12EF355A2EBD384AF65EFA96
310
BC7B8BED2EA6719AAE16FB8491A199335B351775B991C2CA02F390D2D40B028F861F41BCA68B7518BFD0D59A524686F29B26D7164F36B94AD9289CE54E6D1DE6010819891F6E21228B3AD1831EC219194284CF98F06DD01008846CC5A1BEF83801D4CBDC6A1303536877A57A513B0953A94FC707FDBE6064EA84A9E3E6E0FA
310
EE8CF0E9198F7784A316AA0413C2C2F2E0ECA0934D1AE6D05A69BCDE9E91D2A611F573361E38FC1375157F5752AE6B6DFE4B11990F88CCBF0719EE23FF02504B0304140006080800CC70623B408A7D3B7C0000009D0000000B0000006662782F636E782E786D6C4DCCD10A83201886E15B91FFDC552A92A0064DBC8F581632
310
D3703A76F9ABD1C18E3E78F878E5F0D9027ABBFCF2292AE86E2D20171F69F6715550CB827B40839639A5F2770314A7CD293819B45C73AAFB45B35BA61ACAA1C1C7E7855C58C15BC331339661262CC762340413D68D77DA5B42298546CBE6573AF60CEB2F504B0304140006080800CC70623B449FB9BD290100001202000031
310
0000006662782F36394639363044362D344446342D343946362D394244322D3234314243333846323333332F636F72652E786D6C8D515B6EC32010BC0AE22B55850D98B871848994463E412FE002495162B07854397EA176A4F62F3F2C9A9D991D587EB84F37F0AD7D30CEF6905418026DA553C65E7A98E219ED203808EE9D
310
8B7F6810D871D23D2C3014FCE25D9A57483A1BB58D19B54EE9151C43D0110279CB971E06F9A5A7B11A53CC8C70ADE6515EC78BAE4895DB992778883E0700CB907242D17643D7E2538BD869608875438BBAE38922CAC8F1BDD90DB4691A5E2F42C153326A951B95E398B3D1FE599322163C9AE9115F7A3D46ADA0A018778810
310
84E907617BDCEE297BC5BB3DC6BC2EF47FA234AB2745C9D8D8D035EE220B50105E2F0DC1954B9FB747187D9F9D8FA0CCDB042D5FA0C015C65B42DF78BD10F3F3B363CB56C7109DCFDFBBB97E662ED92EB62D13BC2E1BCAE5777DB9966D8A1F504B0304140006080800CC70623BAD7543B64E01000033030000300000006662
310
782F36394639363044362D344446342D343946362D394244322D3234314243333846323333332F636E782E786D6CD593CD6EC32010845F0571AD6CE3D48AD20813A9873E410FBD12D82434182C7EAAE6EDBB2424CD25871E7B41D6EC30B3FA84F9E67BB2E40B4234DE8DB46F1925E094D7C6ED479AD3AE5951B2113C789FEE
310
6C943839C1488B4C05DF079FE72A69D8C96C13AAD6B8631503449F83828872B949AC57D26200B826A308D316B4064D6E46FCDA41C05550DC9E483A00797BFD207EFB092A45DE9514C1BBD22178396BD39D891265658C238DEA00936C654E5E433CB65A26D9F6EDB5EBC14EBF49A45CB856E66048291F6939A9A81BB5C89177
310
38143CA680F4AA299D66A042CEB3354A2684DC9D8D178FE0D9B8B41CAAD720F880EE7EF93C0C18769E099ECC04D5A102C8049A8A05632F4DDF376CF1DE0F6BB65C2F8627B65A33C6BB62177CEBBDAD973006829F89F22E814B54F4BC2BE347F8AA8F681390B50FA73F804400B5F542E796F19FF974E7F78DB802FE05E20750
310
4B0304140006080800CC70623B8D05915C650500003B100000340000006662782F36394639363044362D344446342D343946362D394244322D3234314243333846323333332F6F626A656374732E786D6CAD575B6FA33814FE2B887D06429276DA1565D4266D158D3A339A6846FB502932E050B66023DB74D2FDF5FB190C01
310
9276B2973C046C8ECFF53B17071F77456EBD502133CEAE6CDF9DD81665314F32965ED995DA3A17B6F5310C04E7AA47665B8C14F4CAD6DB7618A48257A5D94AE89654B91AEDDEDDFC61C998326A5B714EA4BCB265FC440BE2924AF184CA6737218AB8E976E7FA6E4338649B0A523E8D98964450A6A029F619B8588D52FE7039
310
B1BD30F0F4F730D0FF866AF6369557DB33949F31A9088B0F848DD8CCFCF9F2767A76E99CCDE733677E3EF59D9BBB9BA5E37F984D16E78BC5E5F5ED25044B25C0C96822E8D60EEFE11B91C581D77CEA34368A1F5329E68CD1B8B61F16D63A1B8E092D294B10C78C4A48EB593D192E7DED9BDEE7995E1B91FDEDD3ACEA9FE831
310
6A756F9F7D4D79F4274C90A7A04248AA51D5F8C718DAE06FB2F75AC4796EBE65D22A88A22223B995679120E2D50E41AA49C260C046A35368846B0BECD0DFF3EBEB8AD4F835768F69B9ADF25C43D30E6B646F807FAA64AD59F61715C7A54127C4AACA98BA3006A9D792DAE165E0D59B61A01FB3A9F9D838D2DAE62445C86166
310
F37564E842E7DE6A69879FEEA2DD5AE7E371E1A5E025154AC307D06A03D73EB5978C58FFA4C8E9033066E0F3BD53BEC1F39F91BE7B55103791EDE6BBB991A2046172CB4581D8B893FA674DDA17A77B3B7C413D1B511FD2743BFF8A38F03A658705E3ADF8015C3A3417FF3D7E439FF591DA0B5F18BC20C1B8981957AE6392A3
310
F43C640C01D1A0B4728E2DD4F26DB4B3C3152A252A3B4E913CEC1C72F012782FF88EFF8637AA552DBEF76408E8A8DE9E50F9E1CB3A2DA0DB1B6039A893B56063DC5B3E3FFB5F72E67AB9FEB4AEC496C4F4C1149625DD662C53E89D7BF0F6151A046260D1337DFDC94502430F83B0EE07A130A224BCAD7DAE1D9FB6CD422FF6
310
920702629C4BB9AE79C12F243C6432A6794E18E5552BA56B431AAB5D91317302B2B071E86C3A42B1A02F999E24061403B5D0EB639195DA655DD3EBEAB4FB862DDF579F014AD0E73C22F99E28DA57FB98E75C6CA2D74D53086D600F4786E0FE3144B771A8A7B900F03594DB8A633CBC49B2EDB69228BB479CF863B5E807AAAB
310
23872F6DFEB4129B949CA33823F58830E86D65621E10047D9DB34D862E8EAC3C2ABC2F7B2C40D67CDFE01F5545B92105AF983AC54D93D69E56FB8E797F88913F898A9FEC705D3F9D1B54EC8426FB500D40A03BD0119B06E1B95DDC7EB8F6975367793EBD70E66733DFB9BC982F9CE564727731999F5D4ECFCE3B8D6A4DC2A0
310
6D50FD148437D110834A64C6CDDF57FBACB5C307A2A477DFE4939736CFEF2B175371E0E10CF0DD1D5C15654E0BCA14D1E87DD02FF93782A162C0A3D95F1524A52770F972BF1EE9809D13CE7DD599467F8ECE9ADD85CE85A34CD45355448C64F9E8A031DC2D596ACC6E5DD93D9B82DE2EF5CAF81363A8E47996A0DE24564A79
310
4115AACE09C55E14540231FDA13C319787134EBF34E3A022514E5B4D9E0826E25C02D5805B15ABE1BEF51B26383D445DD9E875EE33FE4C22DA16427D65A3BCA92CA6D28DD01DF5DC53330704308475351050232CCD31583787BA75774AFB06E5070DD0C8EF484E19968C5D83BA5B90B244D31E54D55A372320FE4786B7EA58
310
44E135AA5467CB7EA333A61683CC6A8C3257034C10CF46F40EF9F5BE59BE5BD30C3C72D235E95D10345C1D45445A5F0BB47E46A5EBE5570F9380B5FA629579952296A773720405982B9DE04011506178964401AA8BDF1FBF0A8EAB6861DD6580C0E38217056766716DAEB2D6FA0917D3E4116581EADB879C4E7CFFB11EFACD
310
3D641311495D92C8676CB409A72D18610D803CE8A626049E8EC1887CB5B44CC39883690DDA8399B4B9855B481E7D71D4A9D22F96E5BB73BF5793020C02137BF837504B0304140006080000CC70623B000000000000000000000000350000006662782F36394639363044362D344446342D343946362D394244322D32343142
310
43333846323333332F76657274696365732E62696E504B0304140006080800CC70623BF270F1330600000004000000360000006662782F36394639363044362D344446342D343946362D394244322D3234314243333846323333332F747269616E676C65732E62696E636660600000504B0304140006080000CC70623B0000
310
00000000000000000000370000006662782F36394639363044362D344446342D343946362D394244322D3234314243333846323333332F617474726962757465732E62696E504B0304140006080800CC70623B08DA0BD19000000041010000360000006662782F36394639363044362D344446342D343946362D394244322D
310
3234314243333846323333332F6469726563746F72792E786D6C858F410AC3201045AF22B36F53E9A60B35CBEEBAE80D244E44489C6234F4F835464A48035D0DF398FF9F8AF63D0E6CC63039F212F8F9020C7D47C6792B21C5FE7403D62A1188E2E60C98D7234A5830286103A55745067B9D86B8A3CF9C7F90C11DE607FB14
310
4396D7B6A82D282E9A152AD114D5EF2CB866EEE831B8EEA07A7BB5A8D7D61A2BAAEB7FD5F70921FF497D00504B0304140006080800CC70623BCA768048FE000000A00100003B0000006662782F36394639363044362D344446342D343946362D394244322D3234314243333846323333332F7265736F75726365732F636F72
310
652E786D6C8D50596E833010BD0A9ADFCA60D600328E9AA639412F609909B1126CE4A5EAF16B0295DABFFECC8CDEA2797AECF8353F924FB44E193D409E5248504B332A3D0D10FC95B4901C39B3C6F85F3248B49871801506CE266BC2B243D2688FDA47549B11775038871E12F988C7004EDE7016A9083E2ADC3D5D84BC8B09
310
D33C8D74D471E6BC8D0192EDC93A815B742658898E651BCB59086ADC356A8C3FD555A1055ED7E7E254D615792D0F075295F585746FF53B694EE78A565DD736979A65AB9933AFE69F8CD2A2F038022F28ED489E135A7CE4554F9BBEA85E68DB53CAB255FEC71496F19FA6A0B42F8B3DEE6673C0F318E4497096AD7DC5F52C33
310
EEB55BFE0D504B010214000A0000080000CC70623B3DEE336E79000000790000001B00000000000000000000000000000000006175746F6465736B2D64657369676E2D7061636B6167652E786D6C504B01021400140006080800CC70623BD486FD9CA0000000F40000001300000000000000000000000000B20000005B436F
310
6E74656E745F54797065735D2E786D6C504B01021400140006080800CC70623BD9DDAED0EC0000007C010000080000000000000000000000000083010000636F72652E786D6C504B01021400140006080800CC70623B55019EA25F0000007C000000070000000000000000000000000095020000636E782E786D6C504B0102
310
1400140006080800CC70623BA24EB22D72010000D40300000C00000000000000000000000000190300006662782F636F72652E786D6C504B01021400140006080800CC70623B408A7D3B7C0000009D0000000B00000000000000000000000000B50400006662782F636E782E786D6C504B01021400140006080800CC70623B
310
449FB9BD290100001202000031000000000000000000000000005A0500006662782F36394639363044362D344446342D343946362D394244322D3234314243333846323333332F636F72652E786D6C504B01021400140006080800CC70623BAD7543B64E010000330300003000000000000000000000000000D20600006662
310
782F36394639363044362D344446342D343946362D394244322D3234314243333846323333332F636E782E786D6C504B01021400140006080800CC70623B8D05915C650500003B10000034000000000000000000000000006E0800006662782F36394639363044362D344446342D343946362D394244322D32343142433338
310
46323333332F6F626A656374732E786D6C504B01021400140006080000CC70623B0000000000000000000000003500000000000000000000000000250E00006662782F36394639363044362D344446342D343946362D394244322D3234314243333846323333332F76657274696365732E62696E504B010214001400060808
310
00CC70623BF270F13306000000040000003600000000000000000000000000780E00006662782F36394639363044362D344446342D343946362D394244322D3234314243333846323333332F747269616E676C65732E62696E504B01021400140006080000CC70623B00000000000000000000000037000000000000000000
310
00000000D20E00006662782F36394639363044362D344446342D343946362D394244322D3234314243333846323333332F617474726962757465732E62696E504B01021400140006080800CC70623B08DA0BD190000000410100003600000000000000000000000000270F00006662782F36394639363044362D344446342D
310
343946362D394244322D3234314243333846323333332F6469726563746F72792E786D6C504B01021400140006080800CC70623BCA768048FE000000A00100003B000000000000000000000000000B1000006662782F36394639363044362D344446342D343946362D394244322D3234314243333846323333332F7265736F
310
75726365732F636F72652E786D6C504B0506000000000E000E0080040000621100000000
  0
XRECORD
  5
176
102
{ACAD_REACTORS
330
173
102
}
330
173
100
AcDbXrecord
280
     1
270
     1
271
     1
  0
XRECORD
  5
177
102
{ACAD_REACTORS
330
173
102
}
330
173
100
AcDbXrecord
280
     1
270
     1
271
     1
  0
XRECORD
  5
983
102
{ACAD_REACTORS
330
982
102
}
330
982
100
AcDbXrecord
280
     1
102
DISPLAYNAME
  1
Imperial24
102
FLAGS
 90
        0
  0
XRECORD
  5
97F
102
{ACAD_REACTORS
330
97E
102
}
330
97E
100
AcDbXrecord
280
     1
102
DISPLAYNAME
  1
Metric50
102
FLAGS
 90
        0
  0
CELLSTYLEMAP
  5
974
102
{ACAD_REACTORS
330
162
102
}
330
162
100
AcDbCellStyleMap
 90
        3
300
CELLSTYLE
  1
TABLEFORMAT_BEGIN
 90
        5
170
     1
 91
        0
 92
    32768
 62
   257
 93
        1
300
CONTENTFORMAT
  1
CONTENTFORMAT_BEGIN
 90
        0
 91
        0
 92
      512
 93
        0
300

 40
0.0
140
1.0
 94
        5
 62
     0
340
11
144
6.0
309
CONTENTFORMAT_END
171
     1
301
MARGIN
  1
CELLMARGIN_BEGIN
 40
1.5
 40
1.5
 40
1.5
 40
1.5
 40
4.5
 40
4.5
309
CELLMARGIN_END
 94
        6
 95
        1
302
GRIDFORMAT
  1
GRIDFORMAT_BEGIN
 90
        0
 91
        1
 62
     0
 92
       -2
340
14
 93
        0
 40
1.125
309
GRIDFORMAT_END
 95
        2
302
GRIDFORMAT
  1
GRIDFORMAT_BEGIN
 90
        0
 91
        1
 62
     0
 92
       -2
340
14
 93
        0
 40
1.125
309
GRIDFORMAT_END
 95
        4
302
GRIDFORMAT
  1
GRIDFORMAT_BEGIN
 90
        0
 91
        1
 62
     0
 92
       -2
340
14
 93
        0
 40
1.125
309
GRIDFORMAT_END
 95
        8
302
GRIDFORMAT
  1
GRIDFORMAT_BEGIN
 90
        0
 91
        1
 62
     0
 92
       -2
340
14
 93
        0
 40
1.125
309
GRIDFORMAT_END
 95
       16
302
GRIDFORMAT
  1
GRIDFORMAT_BEGIN
 90
        0
 91
        1
 62
     0
 92
       -2
340
14
 93
        0
 40
1.125
309
GRIDFORMAT_END
 95
       32
302
GRIDFORMAT
  1
GRIDFORMAT_BEGIN
 90
        0
 91
        1
 62
     0
 92
       -2
340
14
 93
        0
 40
1.125
309
GRIDFORMAT_END
309
TABLEFORMAT_END
  1
CELLSTYLE_BEGIN
 90
        1
 91
        1
300
_TITLE
309
CELLSTYLE_END
300
CELLSTYLE
  1
TABLEFORMAT_BEGIN
 90
        5
170
     1
 91
        0
 92
        0
 62
   257
 93
        1
300
CONTENTFORMAT
  1
CONTENTFORMAT_BEGIN
 90
        0
 91
        0
 92
      512
 93
        0
300

 40
0.0
140
1.0
 94
        5
 62
     0
340
11
144
4.5
309
CONTENTFORMAT_END
171
     1
301
MARGIN
  1
CELLMARGIN_BEGIN
 40
1.5
 40
1.5
 40
1.5
 40
1.5
 40
4.5
 40
4.5
309
CELLMARGIN_END
 94
        6
 95
        1
302
GRIDFORMAT
  1
GRIDFORMAT_BEGIN
 90
        0
 91
        1
 62
     0
 92
       -2
340
14
 93
        0
 40
1.125
309
GRIDFORMAT_END
 95
        2
302
GRIDFORMAT
  1
GRIDFORMAT_BEGIN
 90
        0
 91
        1
 62
     0
 92
       -2
340
14
 93
        0
 40
1.125
309
GRIDFORMAT_END
 95
        4
302
GRIDFORMAT
  1
GRIDFORMAT_BEGIN
 90
        0
 91
        1
 62
     0
 92
       -2
340
14
 93
        0
 40
1.125
309
GRIDFORMAT_END
 95
        8
302
GRIDFORMAT
  1
GRIDFORMAT_BEGIN
 90
        0
 91
        1
 62
     0
 92
       -2
340
14
 93
        0
 40
1.125
309
GRIDFORMAT_END
 95
       16
302
GRIDFORMAT
  1
GRIDFORMAT_BEGIN
 90
        0
 91
        1
 62
     0
 92
       -2
340
14
 93
        0
 40
1.125
309
GRIDFORMAT_END
 95
       32
302
GRIDFORMAT
  1
GRIDFORMAT_BEGIN
 90
        0
 91
        1
 62
     0
 92
       -2
340
14
 93
        0
 40
1.125
309
GRIDFORMAT_END
309
TABLEFORMAT_END
  1
CELLSTYLE_BEGIN
 90
        2
 91
        1
300
_HEADER
309
CELLSTYLE_END
300
CELLSTYLE
  1
TABLEFORMAT_BEGIN
 90
        5
170
     1
 91
        0
 92
        0
 62
   257
 93
        1
300
CONTENTFORMAT
  1
CONTENTFORMAT_BEGIN
 90
        0
 91
        0
 92
      512
 93
        0
300

 40
0.0
140
1.0
 94
        2
 62
     0
340
11
144
4.5
309
CONTENTFORMAT_END
171
     1
301
MARGIN
  1
CELLMARGIN_BEGIN
 40
1.5
 40
1.5
 40
1.5
 40
1.5
 40
4.5
 40
4.5
309
CELLMARGIN_END
 94
        6
 95
        1
302
GRIDFORMAT
  1
GRIDFORMAT_BEGIN
 90
        0
 91
        1
 62
     0
 92
       -2
340
14
 93
        0
 40
1.125
309
GRIDFORMAT_END
 95
        2
302
GRIDFORMAT
  1
GRIDFORMAT_BEGIN
 90
        0
 91
        1
 62
     0
 92
       -2
340
14
 93
        0
 40
1.125
309
GRIDFORMAT_END
 95
        4
302
GRIDFORMAT
  1
GRIDFORMAT_BEGIN
 90
        0
 91
        1
 62
     0
 92
       -2
340
14
 93
        0
 40
1.125
309
GRIDFORMAT_END
 95
        8
302
GRIDFORMAT
  1
GRIDFORMAT_BEGIN
 90
        0
 91
        1
 62
     0
 92
       -2
340
14
 93
        0
 40
1.125
309
GRIDFORMAT_END
 95
       16
302
GRIDFORMAT
  1
GRIDFORMAT_BEGIN
 90
        0
 91
        1
 62
     0
 92
       -2
340
14
 93
        0
 40
1.125
309
GRIDFORMAT_END
 95
       32
302
GRIDFORMAT
  1
GRIDFORMAT_BEGIN
 90
        0
 91
        1
 62
     0
 92
       -2
340
14
 93
        0
 40
1.125
309
GRIDFORMAT_END
309
TABLEFORMAT_END
  1
CELLSTYLE_BEGIN
 90
        3
 91
        2
300
_DATA
309
CELLSTYLE_END
  0
ENDSEC
  0
SECTION
  2
ACDSDATA
 70
     2
 71
     8
  0
ACDSSCHEMA
 90
        0
  1
AcDb_Thumbnail_Schema
  2
AcDbDs::ID
280
    10
 91
        8
  2
Thumbnail_Data
280
    15
 91
        0
101
ACDSRECORD
 95
        0
 90
        1
  2
AcDbDs::TreatedAsObjectData
280
     1
291
     1
101
ACDSRECORD
 95
        0
 90
        2
  2
AcDbDs::Legacy
280
     1
291
     1
101
ACDSRECORD
  1
AcDbDs::ID
 90
        3
  2
AcDs:Indexable
280
     1
291
     1
101
ACDSRECORD
  1
AcDbDs::ID
 90
        4
  2
AcDbDs::HandleAttribute
280
     7
282
     1
  0
ACDSSCHEMA
 90
        1
  1
AcDbDs::TreatedAsObjectDataSchema
  2
AcDbDs::TreatedAsObjectData
280
     1
 91
        0
  0
ACDSSCHEMA
 90
        2
  1
AcDbDs::LegacySchema
  2
AcDbDs::Legacy
280
     1
 91
        0
  0
ACDSSCHEMA
 90
        3
  1
AcDbDs::IndexedPropertySchema
  2
AcDs:Indexable
280
     1
 91
        0
  0
ACDSSCHEMA
 90
        4
  1
AcDbDs::HandleAttributeSchema
  2
AcDbDs::HandleAttribute
280
     7
 91
        1
284
     1
  0
ACDSRECORD
 90
        0
  2
AcDbDs::ID
280
    10
320
22
  2
Thumbnail_Data
280
    15
 94
      896
310
89504E470D0A1A0A0000000D49484452000001000000009108030000001BE1960600000300504C5445212830FFFFFF2128300000000000000000000000000000000000000000000000000000330000660000990000CC0000FF0033000033330033660033990033CC0033FF0066000066330066660066990066CC0066FF0099
310
000099330099660099990099CC0099FF00CC0000CC3300CC6600CC9900CCCC00CCFF00FF0000FF3300FF6600FF9900FFCC00FFFF3300003300333300663300993300CC3300FF3333003333333333663333993333CC3333FF3366003366333366663366993366CC3366FF3399003399333399663399993399CC3399FF33CC00
310
33CC3333CC6633CC9933CCCC33CCFF33FF0033FF3333FF6633FF9933FFCC33FFFF6600006600336600666600996600CC6600FF6633006633336633666633996633CC6633FF6666006666336666666666996666CC6666FF6699006699336699666699996699CC6699FF66CC0066CC3366CC6666CC9966CCCC66CCFF66FF0066
310
FF3366FF6666FF9966FFCC66FFFF9900009900339900669900999900CC9900FF9933009933339933669933999933CC9933FF9966009966339966669966999966CC9966FF9999009999339999669999999999CC9999FF99CC0099CC3399CC6699CC9999CCCC99CCFF99FF0099FF3399FF6699FF9999FFCC99FFFFCC0000CC00
310
33CC0066CC0099CC00CCCC00FFCC3300CC3333CC3366CC3399CC33CCCC33FFCC6600CC6633CC6666CC6699CC66CCCC66FFCC9900CC9933CC9966CC9999CC99CCCC99FFCCCC00CCCC33CCCC66CCCC99CCCCCCCCCCFFCCFF00CCFF33CCFF66CCFF99CCFFCCCCFFFFFF0000FF0033FF0066FF0099FF00CCFF00FFFF3300FF3333
310
FF3366FF3399FF33CCFF33FFFF6600FF6633FF6666FF6699FF66CCFF66FFFF9900FF9933FF9966FF9999FF99CCFF99FFFFCC00FFCC33FFCC66FFCC99FFCCCCFFCCFFFFFF00FFFF33FFFF66FFFF99FFFFCCFFFFFF0000000D0D0D1A1A1A2828283535354343435050505D5D5D6B6B6B787878868686939393A1A1A1AEAEAEBB
310
BBBBC9C9C9D6D6D6E4E4E4F1F1F1FFFFFF0000000000000000000000000000000000000000000000000000000000002E4550F10000003B4944415478DAEDC13101000000C2A0F54F6D0B2FA0000000000000000000000000000000000000000000000000000000000000000000000000CE06919100016C9A5B1B0000000049
310
454E44AE426082
  0
ENDSEC
  0
EOF
