  0
SECTION
  2
HEADER
  9
$ACADVER
  1
AC1027
  9
$ACADMAINTVER
 70
   125
  9
$DWGCODEPAGE
  3
ANSI_1252
  9
$LASTSAVEDBY
  1
andrea.ragusa
  9
$REQUIREDVERSIONS
160
                 0
  9
$INSBASE
 10
0.0
 20
0.0
 30
0.0
  9
$EXTMIN
 10
-0.0128164049386896
 20
-0.0090630292066862
 30
-0.0015258207003583
  9
$EXTMAX
 10
14.91943410006286
 20
13.9037479205333
 30
0.0000000349246037
  9
$LIMMIN
 10
0.0
 20
0.0
  9
$LIMMAX
 10
420.0
 20
297.0
  9
$ORTHOMODE
 70
     0
  9
$REGENMODE
 70
     1
  9
$FILLMODE
 70
     1
  9
$QTEXTMODE
 70
     0
  9
$MIRRTEXT
 70
     0
  9
$LTSCALE
 40
1.0
  9
$ATTMODE
 70
     1
  9
$TEXTSIZE
 40
2.5
  9
$TRACEWID
 40
1.0
  9
$TEXTSTYLE
  7
Standard
  9
$CLAYER
  8
0
  9
$CELTYPE
  6
ByLayer
  9
$CECOLOR
 62
   256
  9
$CELTSCALE
 40
1.0
  9
$DISPSILH
 70
     0
  9
$DIMSCALE
 40
1.0
  9
$DIMASZ
 40
2.5
  9
$DIMEXO
 40
0.625
  9
$DIMDLI
 40
3.75
  9
$DIMRND
 40
0.0
  9
$DIMDLE
 40
0.0
  9
$DIMEXE
 40
1.25
  9
$DIMTP
 40
0.0
  9
$DIMTM
 40
0.0
  9
$DIMTXT
 40
2.5
  9
$DIMCEN
 40
2.5
  9
$DIMTSZ
 40
0.0
  9
$DIMTOL
 70
     0
  9
$DIMLIM
 70
     0
  9
$DIMTIH
 70
     0
  9
$DIMTOH
 70
     0
  9
$DIMSE1
 70
     0
  9
$DIMSE2
 70
     0
  9
$DIMTAD
 70
     1
  9
$DIMZIN
 70
     8
  9
$DIMBLK
  1

  9
$DIMASO
 70
     1
  9
$DIMSHO
 70
     1
  9
$DIMPOST
  1

  9
$DIMAPOST
  1

  9
$DIMALT
 70
     0
  9
$DIMALTD
 70
     3
  9
$DIMALTF
 40
0.03937007874016
  9
$DIMLFAC
 40
1.0
  9
$DIMTOFL
 70
     1
  9
$DIMTVP
 40
0.0
  9
$DIMTIX
 70
     0
  9
$DIMSOXD
 70
     0
  9
$DIMSAH
 70
     0
  9
$DIMBLK1
  1

  9
$DIMBLK2
  1

  9
$DIMSTYLE
  2
ISO-25
  9
$DIMCLRD
 70
     0
  9
$DIMCLRE
 70
     0
  9
$DIMCLRT
 70
     0
  9
$DIMTFAC
 40
1.0
  9
$DIMGAP
 40
0.625
  9
$DIMJUST
 70
     0
  9
$DIMSD1
 70
     0
  9
$DIMSD2
 70
     0
  9
$DIMTOLJ
 70
     0
  9
$DIMTZIN
 70
     8
  9
$DIMALTZ
 70
     0
  9
$DIMALTTZ
 70
     0
  9
$DIMUPT
 70
     0
  9
$DIMDEC
 70
     2
  9
$DIMTDEC
 70
     2
  9
$DIMALTU
 70
     2
  9
$DIMALTTD
 70
     3
  9
$DIMTXSTY
  7
Standard
  9
$DIMAUNIT
 70
     0
  9
$DIMADEC
 70
     0
  9
$DIMALTRND
 40
0.0
  9
$DIMAZIN
 70
     0
  9
$DIMDSEP
 70
    44
  9
$DIMATFIT
 70
     3
  9
$DIMFRAC
 70
     0
  9
$DIMLDRBLK
  1

  9
$DIMLUNIT
 70
     2
  9
$DIMLWD
 70
    -2
  9
$DIMLWE
 70
    -2
  9
$DIMTMOVE
 70
     0
  9
$DIMFXL
 40
1.0
  9
$DIMFXLON
 70
     0
  9
$DIMJOGANG
 40
0.7853981633974483
  9
$DIMTFILL
 70
     0
  9
$DIMTFILLCLR
 70
     0
  9
$DIMARCSYM
 70
     0
  9
$DIMLTYPE
  6

  9
$DIMLTEX1
  6

  9
$DIMLTEX2
  6

  9
$DIMTXTDIRECTION
 70
     0
  9
$LUNITS
 70
     2
  9
$LUPREC
 70
     4
  9
$SKETCHINC
 40
1.0
  9
$FILLETRAD
 40
0.0
  9
$AUNITS
 70
     0
  9
$AUPREC
 70
     0
  9
$MENU
  1
.
  9
$ELEVATION
 40
0.0
  9
$PELEVATION
 40
0.0
  9
$THICKNESS
 40
0.0
  9
$LIMCHECK
 70
     0
  9
$CHAMFERA
 40
0.0
  9
$CHAMFERB
 40
0.0
  9
$CHAMFERC
 40
0.0
  9
$CHAMFERD
 40
0.0
  9
$SKPOLY
 70
     0
  9
$TDCREATE
 40
2459060.504363426
  9
$TDUCREATE
 40
2459060.421030093
  9
$TDUPDATE
 40
2459060.504571759
  9
$TDUUPDATE
 40
2459060.421238426
  9
$TDINDWG
 40
0.0002083333
  9
$TDUSRTIMER
 40
0.0002083333
  9
$USRTIMER
 70
     1
  9
$ANGBASE
 50
0.0
  9
$ANGDIR
 70
     0
  9
$PDMODE
 70
     0
  9
$PDSIZE
 40
0.0
  9
$PLINEWID
 40
0.0
  9
$SPLFRAME
 70
     0
  9
$SPLINETYPE
 70
     6
  9
$SPLINESEGS
 70
     8
  9
$HANDSEED
  5
B61
  9
$SURFTAB1
 70
     6
  9
$SURFTAB2
 70
     6
  9
$SURFTYPE
 70
     6
  9
$SURFU
 70
     6
  9
$SURFV
 70
     6
  9
$UCSBASE
  2

  9
$UCSNAME
  2

  9
$UCSORG
 10
0.0
 20
0.0
 30
0.0
  9
$UCSXDIR
 10
1.0
 20
0.0
 30
0.0
  9
$UCSYDIR
 10
0.0
 20
1.0
 30
0.0
  9
$UCSORTHOREF
  2

  9
$UCSORTHOVIEW
 70
     0
  9
$UCSORGTOP
 10
0.0
 20
0.0
 30
0.0
  9
$UCSORGBOTTOM
 10
0.0
 20
0.0
 30
0.0
  9
$UCSORGLEFT
 10
0.0
 20
0.0
 30
0.0
  9
$UCSORGRIGHT
 10
0.0
 20
0.0
 30
0.0
  9
$UCSORGFRONT
 10
0.0
 20
0.0
 30
0.0
  9
$UCSORGBACK
 10
0.0
 20
0.0
 30
0.0
  9
$PUCSBASE
  2

  9
$PUCSNAME
  2

  9
$PUCSORG
 10
0.0
 20
0.0
 30
0.0
  9
$PUCSXDIR
 10
1.0
 20
0.0
 30
0.0
  9
$PUCSYDIR
 10
0.0
 20
1.0
 30
0.0
  9
$PUCSORTHOREF
  2

  9
$PUCSORTHOVIEW
 70
     0
  9
$PUCSORGTOP
 10
0.0
 20
0.0
 30
0.0
  9
$PUCSORGBOTTOM
 10
0.0
 20
0.0
 30
0.0
  9
$PUCSORGLEFT
 10
0.0
 20
0.0
 30
0.0
  9
$PUCSORGRIGHT
 10
0.0
 20
0.0
 30
0.0
  9
$PUCSORGFRONT
 10
0.0
 20
0.0
 30
0.0
  9
$PUCSORGBACK
 10
0.0
 20
0.0
 30
0.0
  9
$USERI1
 70
     0
  9
$USERI2
 70
     0
  9
$USERI3
 70
     0
  9
$USERI4
 70
     0
  9
$USERI5
 70
     0
  9
$USERR1
 40
0.0
  9
$USERR2
 40
0.0
  9
$USERR3
 40
0.0
  9
$USERR4
 40
0.0
  9
$USERR5
 40
0.0
  9
$WORLDVIEW
 70
     1
  9
$SHADEDGE
 70
     3
  9
$SHADEDIF
 70
    70
  9
$TILEMODE
 70
     1
  9
$MAXACTVP
 70
    64
  9
$PINSBASE
 10
0.0
 20
0.0
 30
0.0
  9
$PLIMCHECK
 70
     0
  9
$PEXTMIN
 10
0.0
 20
0.0
 30
0.0
  9
$PEXTMAX
 10
0.0
 20
0.0
 30
0.0
  9
$PLIMMIN
 10
0.0
 20
0.0
  9
$PLIMMAX
 10
12.0
 20
9.0
  9
$UNITMODE
 70
     0
  9
$VISRETAIN
 70
     1
  9
$PLINEGEN
 70
     0
  9
$PSLTSCALE
 70
     1
  9
$TREEDEPTH
 70
  3020
  9
$CMLSTYLE
  2
Standard
  9
$CMLJUST
 70
     0
  9
$CMLSCALE
 40
20.0
  9
$PROXYGRAPHICS
 70
     1
  9
$MEASUREMENT
 70
     1
  9
$CELWEIGHT
370
    -1
  9
$ENDCAPS
280
     0
  9
$JOINSTYLE
280
     0
  9
$LWDISPLAY
290
     0
  9
$INSUNITS
 70
     4
  9
$HYPERLINKBASE
  1

  9
$STYLESHEET
  1

  9
$XEDIT
290
     1
  9
$CEPSNTYPE
380
     0
  9
$PSTYLEMODE
290
     1
  9
$FINGERPRINTGUID
  2
{94084EBA-0040-4A44-8F8A-71F651110F96}
  9
$VERSIONGUID
  2
{76CD8866-EE70-F748-A568-1FC90B47100E}
  9
$EXTNAMES
290
     1
  9
$PSVPSCALE
 40
0.0
  9
$OLESTARTUP
290
     0
  9
$SORTENTS
280
   127
  9
$INDEXCTL
280
     0
  9
$HIDETEXT
280
     1
  9
$XCLIPFRAME
280
     2
  9
$HALOGAP
280
     0
  9
$OBSCOLOR
 70
   257
  9
$OBSLTYPE
280
     0
  9
$INTERSECTIONDISPLAY
280
     0
  9
$INTERSECTIONCOLOR
 70
   257
  9
$DIMASSOC
280
     2
  9
$PROJECTNAME
  1

  9
$CAMERADISPLAY
290
     0
  9
$LENSLENGTH
 40
50.0
  9
$CAMERAHEIGHT
 40
0.0
  9
$STEPSPERSEC
 40
2.0
  9
$STEPSIZE
 40
6.0
  9
$3DDWFPREC
 40
2.0
  9
$PSOLWIDTH
 40
5.0
  9
$PSOLHEIGHT
 40
80.0
  9
$LOFTANG1
 40
1.570796326794896
  9
$LOFTANG2
 40
1.570796326794896
  9
$LOFTMAG1
 40
0.0
  9
$LOFTMAG2
 40
0.0
  9
$LOFTPARAM
 70
     7
  9
$LOFTNORMALS
280
     1
  9
$LATITUDE
 40
37.795
  9
$LONGITUDE
 40
-122.394
  9
$NORTHDIRECTION
 40
0.0
  9
$TIMEZONE
 70
 -8000
  9
$LIGHTGLYPHDISPLAY
280
     1
  9
$TILEMODELIGHTSYNCH
280
     1
  9
$CMATERIAL
347
EC
  9
$SOLIDHIST
280
     0
  9
$SHOWHIST
280
     1
  9
$DWFFRAME
280
     2
  9
$DGNFRAME
280
     0
  9
$REALWORLDSCALE
290
     1
  9
$INTERFERECOLOR
 62
     1
  9
$INTERFEREOBJVS
345
F9
  9
$INTERFEREVPVS
346
F6
  9
$CSHADOW
280
     0
  9
$SHADOWPLANELOCATION
 40
0.0
  0
ENDSEC
  0
SECTION
  2
CLASSES
  0
CLASS
  1
ACDBDICTIONARYWDFLT
  2
AcDbDictionaryWithDefault
  3
ObjectDBX Classes
 90
        0
 91
        1
280
     0
281
     0
  0
CLASS
  1
DICTIONARYVAR
  2
AcDbDictionaryVar
  3
ObjectDBX Classes
 90
        0
 91
       11
280
     0
281
     0
  0
CLASS
  1
TABLESTYLE
  2
AcDbTableStyle
  3
ObjectDBX Classes
 90
     4095
 91
        1
280
     0
281
     0
  0
CLASS
  1
MATERIAL
  2
AcDbMaterial
  3
ObjectDBX Classes
 90
     1153
 91
        3
280
     0
281
     0
  0
CLASS
  1
VISUALSTYLE
  2
AcDbVisualStyle
  3
ObjectDBX Classes
 90
     4095
 91
       24
280
     0
281
     0
  0
CLASS
  1
SCALE
  2
AcDbScale
  3
ObjectDBX Classes
 90
     1153
 91
       17
280
     0
281
     0
  0
CLASS
  1
MLEADERSTYLE
  2
AcDbMLeaderStyle
  3
ACDB_MLEADERSTYLE_CLASS
 90
     4095
 91
        2
280
     0
281
     0
  0
CLASS
  1
CELLSTYLEMAP
  2
AcDbCellStyleMap
  3
ObjectDBX Classes
 90
     1152
 91
        1
280
     0
281
     0
  0
CLASS
  1
EXACXREFPANELOBJECT
  2
ExAcXREFPanelObject
  3
EXAC_ESW
 90
     1025
 91
        0
280
     0
281
     0
  0
CLASS
  1
NPOCOLLECTION
  2
AcDbImpNonPersistentObjectsCollection
  3
ObjectDBX Classes
 90
     1153
 91
        0
280
     0
281
     0
  0
CLASS
  1
LAYER_INDEX
  2
AcDbLayerIndex
  3
ObjectDBX Classes
 90
        0
 91
        0
280
     0
281
     0
  0
CLASS
  1
SPATIAL_INDEX
  2
AcDbSpatialIndex
  3
ObjectDBX Classes
 90
        0
 91
        0
280
     0
281
     0
  0
CLASS
  1
IDBUFFER
  2
AcDbIdBuffer
  3
ObjectDBX Classes
 90
        0
 91
        0
280
     0
281
     0
  0
CLASS
  1
ACDBSECTIONVIEWSTYLE
  2
AcDbSectionViewStyle
  3
ObjectDBX Classes
 90
     1025
 91
        2
280
     0
281
     0
  0
CLASS
  1
ACDBDETAILVIEWSTYLE
  2
AcDbDetailViewStyle
  3
ObjectDBX Classes
 90
     1025
 91
        2
280
     0
281
     0
  0
CLASS
  1
SORTENTSTABLE
  2
AcDbSortentsTable
  3
ObjectDBX Classes
 90
        0
 91
        1
280
     0
281
     0
  0
ENDSEC
  0
SECTION
  2
TABLES
  0
TABLE
  2
VPORT
  5
8
330
0
100
AcDbSymbolTable
 70
     1
1001
ACAD
1000
DbSaveVer
1071
      208
  0
VPORT
  5
EA
330
8
100
AcDbSymbolTableRecord
100
AcDbViewportTableRecord
  2
*Active
 70
     0
 10
0.0
 20
0.0
 11
1.0
 21
1.0
 12
7.453308847562086
 22
6.947342445663308
 13
0.0
 23
0.0
 14
10.0
 24
10.0
 15
10.0
 25
10.0
 16
0.0
 26
0.0
 36
1.0
 17
0.0
 27
0.0
 37
0.0
 40
14.01242534794815
 41
2.283154121863799
 42
50.0
 43
0.0
 44
0.0
 50
0.0
 51
0.0
 71
     0
 72
  1000
 73
     1
 74
     3
 75
     0
 76
     1
 77
     0
 78
     0
281
     0
 65
     1
110
0.0
120
0.0
130
0.0
111
1.0
121
0.0
131
0.0
112
0.0
122
1.0
132
0.0
 79
     0
146
0.0
348
F5
 60
     3
 61
     5
292
     1
282
     1
141
0.0
142
0.0
 63
   250
421
  3355443
1001
ACAD_NAV_VCDISPLAY
1070
     3
  0
ENDTAB
  0
TABLE
  2
LTYPE
  5
5
330
0
100
AcDbSymbolTable
 70
     1
  0
LTYPE
  5
14
330
5
100
AcDbSymbolTableRecord
100
AcDbLinetypeTableRecord
  2
ByBlock
 70
     0
  3

 72
    65
 73
     0
 40
0.0
  0
LTYPE
  5
15
330
5
100
AcDbSymbolTableRecord
100
AcDbLinetypeTableRecord
  2
ByLayer
 70
     0
  3

 72
    65
 73
     0
 40
0.0
  0
LTYPE
  5
16
330
5
100
AcDbSymbolTableRecord
100
AcDbLinetypeTableRecord
  2
Continuous
 70
     0
  3
Solid line
 72
    65
 73
     0
 40
0.0
  0
ENDTAB
  0
TABLE
  2
LAYER
  5
2
102
{ACAD_XDICTIONARY
360
1FF
102
}
330
0
100
AcDbSymbolTable
 70
     2
  0
LAYER
  5
10
102
{ACAD_XDICTIONARY
360
13C
102
}
330
2
100
AcDbSymbolTableRecord
100
AcDbLayerTableRecord
  2
0
 70
     0
 62
     7
  6
Continuous
370
    -3
390
F
347
EE
348
0
  0
LAYER
  5
28D
330
2
100
AcDbSymbolTableRecord
100
AcDbLayerTableRecord
  2
Livello 1
 70
     0
 62
     7
  6
Continuous
370
    -3
390
F
347
EE
348
0
  0
ENDTAB
  0
TABLE
  2
STYLE
  5
3
330
0
100
AcDbSymbolTable
 70
     2
  0
STYLE
  5
11
330
3
100
AcDbSymbolTableRecord
100
AcDbTextStyleTableRecord
  2
Standard
 70
     0
 40
0.0
 41
1.0
 50
0.0
 71
     0
 42
2.5
  3
arial.ttf
  4

1001
ACAD
1000
Arial
1071
       34
  0
STYLE
  5
132
330
3
100
AcDbSymbolTableRecord
100
AcDbTextStyleTableRecord
  2
Annotativa
 70
     0
 40
0.0
 41
1.0
 50
0.0
 71
     0
 42
2.5
  3
arial.ttf
  4

1001
AcadAnnotative
1000
AnnotativeData
1002
{
1070
     1
1070
     1
1002
}
1001
ACAD
1000
Arial
1071
       34
  0
ENDTAB
  0
TABLE
  2
VIEW
  5
6
330
0
100
AcDbSymbolTable
 70
     0
  0
ENDTAB
  0
TABLE
  2
UCS
  5
7
330
0
100
AcDbSymbolTable
 70
     0
  0
ENDTAB
  0
TABLE
  2
APPID
  5
9
330
0
100
AcDbSymbolTable
 70
     8
  0
APPID
  5
12
330
9
100
AcDbSymbolTableRecord
100
AcDbRegAppTableRecord
  2
ACAD
 70
     0
  0
APPID
  5
9E
330
9
100
AcDbSymbolTableRecord
100
AcDbRegAppTableRecord
  2
ACAD_PSEXT
 70
     0
  0
APPID
  5
133
330
9
100
AcDbSymbolTableRecord
100
AcDbRegAppTableRecord
  2
AcadAnnoPO
 70
     0
  0
APPID
  5
134
330
9
100
AcDbSymbolTableRecord
100
AcDbRegAppTableRecord
  2
AcadAnnotative
 70
     0
  0
APPID
  5
135
330
9
100
AcDbSymbolTableRecord
100
AcDbRegAppTableRecord
  2
ACAD_DSTYLE_DIMJAG
 70
     0
  0
APPID
  5
136
330
9
100
AcDbSymbolTableRecord
100
AcDbRegAppTableRecord
  2
ACAD_DSTYLE_DIMTALN
 70
     0
  0
APPID
  5
165
330
9
100
AcDbSymbolTableRecord
100
AcDbRegAppTableRecord
  2
ACAD_MLEADERVER
 70
     0
  0
APPID
  5
217
330
9
100
AcDbSymbolTableRecord
100
AcDbRegAppTableRecord
  2
ACAD_NAV_VCDISPLAY
 70
     0
  0
ENDTAB
  0
TABLE
  2
DIMSTYLE
  5
A
330
0
100
AcDbSymbolTable
 70
     3
100
AcDbDimStyleTable
 71
     2
340
27
340
137
  0
DIMSTYLE
105
1B0
330
A
100
AcDbSymbolTableRecord
100
AcDbDimStyleTableRecord
  2
Standard
 70
     0
340
11
  0
DIMSTYLE
105
137
330
A
100
AcDbSymbolTableRecord
100
AcDbDimStyleTableRecord
  2
Annotativa
 70
     0
 40
0.0
 41
2.5
 42
0.625
 43
3.75
 44
1.25
 73
     0
 74
     0
 77
     1
 78
     8
140
2.5
141
2.5
143
0.03937007874016
147
0.625
171
     3
172
     1
271
     2
272
     2
274
     3
278
    44
283
     0
284
     8
340
11
1001
AcadAnnotative
1000
AnnotativeData
1002
{
1070
     1
1070
     1
1002
}
1001
ACAD_DSTYLE_DIMJAG
1070
   388
1040
1.5
1001
ACAD_DSTYLE_DIMTALN
1070
   392
1070
     0
  0
DIMSTYLE
105
27
330
A
100
AcDbSymbolTableRecord
100
AcDbDimStyleTableRecord
  2
ISO-25
 70
     0
 41
2.5
 42
0.625
 43
3.75
 44
1.25
 73
     0
 74
     0
 77
     1
 78
     8
140
2.5
141
2.5
143
0.03937007874016
147
0.625
171
     3
172
     1
271
     2
272
     2
274
     3
278
    44
283
     0
284
     8
340
11
  0
ENDTAB
  0
TABLE
  2
BLOCK_RECORD
  5
1
330
0
100
AcDbSymbolTable
 70
     2
  0
BLOCK_RECORD
  5
1F
102
{ACAD_XDICTIONARY
360
1CE
102
}
330
1
100
AcDbSymbolTableRecord
100
AcDbBlockTableRecord
  2
*Model_Space
340
22
 70
     0
280
     1
281
     0
  0
BLOCK_RECORD
  5
D2
330
1
100
AcDbSymbolTableRecord
100
AcDbBlockTableRecord
  2
*Paper_Space
340
D3
 70
     0
280
     1
281
     0
  0
BLOCK_RECORD
  5
D6
330
1
100
AcDbSymbolTableRecord
100
AcDbBlockTableRecord
  2
*Paper_Space0
340
D7
 70
     0
280
     1
281
     0
  0
ENDTAB
  0
ENDSEC
  0
SECTION
  2
BLOCKS
  0
BLOCK
  5
20
330
1F
100
AcDbEntity
  8
0
100
AcDbBlockBegin
  2
*Model_Space
 70
     0
 10
0.0
 20
0.0
 30
0.0
  3
*Model_Space
  1

  0
ENDBLK
  5
21
330
1F
100
AcDbEntity
  8
0
100
AcDbBlockEnd
  0
BLOCK
  5
D4
330
D2
100
AcDbEntity
 67
     1
  8
0
100
AcDbBlockBegin
  2
*Paper_Space
 70
     0
 10
0.0
 20
0.0
 30
0.0
  3
*Paper_Space
  1

  0
ENDBLK
  5
D5
330
D2
100
AcDbEntity
 67
     1
  8
0
100
AcDbBlockEnd
  0
BLOCK
  5
D8
330
D6
100
AcDbEntity
 67
     1
  8
0
100
AcDbBlockBegin
  2
*Paper_Space0
 70
     0
 10
0.0
 20
0.0
 30
0.0
  3
*Paper_Space0
  1

  0
ENDBLK
  5
D9
330
D6
100
AcDbEntity
 67
     1
  8
0
100
AcDbBlockEnd
  0
ENDSEC
  0
SECTION
  2
ENTITIES
  0
SPLINE
  5
6F4
330
1F
100
AcDbEntity
  8
Livello 1
100
AcDbSpline
210
0.0
220
0.0
230
1.0
 70
    11
 71
     3
 72
    29
 73
    25
 74
     0
 42
0.000000001
 43
0.0000000001
 40
0.0
 40
0.0
 40
0.0
 40
0.0
 40
1.0
 40
1.0
 40
1.0
 40
2.0
 40
2.0
 40
2.0
 40
3.0
 40
3.0
 40
3.0
 40
4.0
 40
4.0
 40
4.0
 40
5.0
 40
5.0
 40
5.0
 40
6.0
 40
6.0
 40
6.0
 40
7.0
 40
7.0
 40
7.0
 40
8.0
 40
8.0
 40
8.0
 40
8.0
 10
4.749305772587554
 20
8.137030862801239
 30
0.0
 10
4.749305772587554
 20
8.137030862801239
 30
0.0
 10
4.795872428476641
 20
8.139500296479141
 30
0.0
 10
4.795872428476641
 20
8.139500296479141
 30
0.0
 10
4.795872428476641
 20
8.139500296479141
 30
0.0
 10
4.839616393826567
 20
8.152552632850799
 30
0.0
 10
4.839616393826567
 20
8.152552632850799
 30
0.0
 10
5.052694203848844
 20
8.243921678933247
 30
0.0
 10
5.039641867477193
 20
8.5427244997
 30
0.0
 10
4.818802499559922
 20
8.611516058690241
 30
0.0
 10
4.818802499559922
 20
8.611516058690241
 30
0.0
 10
4.772589100532087
 20
8.621746377392923
 30
0.0
 10
4.772589100532087
 20
8.621746377392923
 30
0.0
 10
4.772589100532087
 20
8.621746377392923
 30
0.0
 10
4.726021771772792
 20
8.621746377392923
 30
0.0
 10
4.726021771772792
 20
8.621746377392923
 30
0.0
 10
4.471316846087432
 20
8.587526889893339
 30
0.0
 10
4.423691765354895
 20
8.257327945036379
 30
0.0
 10
4.658994478478312
 20
8.152552632850799
 30
0.0
 10
4.658994478478312
 20
8.152552632850799
 30
0.0
 10
4.702738443828231
 20
8.139500296479141
 30
0.0
 10
4.702738443828231
 20
8.139500296479141
 30
0.0
 10
4.702738443828231
 20
8.139500296479141
 30
0.0
 10
4.749305772587554
 20
8.137030862801239
 30
0.0
 10
4.749305772587554
 20
8.137030862801239
 30
0.0
  0
SPLINE
  5
6F5
330
1F
100
AcDbEntity
  8
Livello 1
100
AcDbSpline
210
0.0
220
0.0
230
1.0
 70
    11
 71
     3
 72
    29
 73
    25
 74
     0
 42
0.000000001
 43
0.0000000001
 40
0.0
 40
0.0
 40
0.0
 40
0.0
 40
1.0
 40
1.0
 40
1.0
 40
2.0
 40
2.0
 40
2.0
 40
3.0
 40
3.0
 40
3.0
 40
4.0
 40
4.0
 40
4.0
 40
5.0
 40
5.0
 40
5.0
 40
6.0
 40
6.0
 40
6.0
 40
7.0
 40
7.0
 40
7.0
 40
8.0
 40
8.0
 40
8.0
 40
8.0
 10
8.361997078752239
 20
4.524374545887553
 30
0.0
 10
8.361997078752239
 20
4.524374545887553
 30
0.0
 10
8.405740371231956
 20
4.529665997234417
 30
0.0
 10
8.405740371231956
 20
4.529665997234417
 30
0.0
 10
8.405740371231956
 20
4.529665997234417
 30
0.0
 10
8.452307027121051
 20
4.542365749615001
 30
0.0
 10
8.452307027121051
 20
4.542365749615001
 30
0.0
 10
8.664679669161188
 20
4.634087379688509
 30
0.0
 10
8.651274748798471
 20
4.931479864491024
 30
0.0
 10
8.429024372046711
 20
5.001329175454472
 30
0.0
 10
8.429024372046711
 20
5.001329175454472
 30
0.0
 10
8.385279733826578
 20
5.009090060479238
 30
0.0
 10
8.385279733826578
 20
5.009090060479238
 30
0.0
 10
8.385279733826578
 20
5.009090060479238
 30
0.0
 10
8.338713077937484
 20
5.009090060479238
 30
0.0
 10
8.338713077937484
 20
5.009090060479238
 30
0.0
 10
8.084007479381909
 20
4.9819262900223
 30
0.0
 10
8.03426622183278
 20
4.641848264713303
 30
0.0
 10
8.271685784643011
 20
4.542365749615001
 30
0.0
 10
8.271685784643011
 20
4.542365749615001
 30
0.0
 10
8.315429077122715
 20
4.529665997234417
 30
0.0
 10
8.315429077122715
 20
4.529665997234417
 30
0.0
 10
8.315429077122715
 20
4.529665997234417
 30
0.0
 10
8.361997078752239
 20
4.524374545887553
 30
0.0
 10
8.361997078752239
 20
4.524374545887553
 30
0.0
  0
POLYLINE
  5
6F6
330
1F
100
AcDbEntity
  8
Livello 1
100
AcDb2dPolyline
 66
     1
 10
0.0
 20
0.0
 30
0.0
  0
VERTEX
  5
6F7
330
6F6
100
AcDbEntity
  8
Livello 1
100
AcDbVertex
100
AcDb2dVertex
 10
4.197455305467485
 20
7.732183696629121
 30
0.0
  0
VERTEX
  5
6F8
330
6F6
100
AcDbEntity
  8
Livello 1
100
AcDbVertex
100
AcDb2dVertex
 10
4.197455305467485
 20
6.944782900147643
 30
0.0
  0
SEQEND
  5
6F9
330
6F6
100
AcDbEntity
  8
Livello 1
  0
POLYLINE
  5
6FA
330
1F
100
AcDbEntity
  8
Livello 1
100
AcDb2dPolyline
 66
     1
 10
0.0
 20
0.0
 30
0.0
  0
VERTEX
  5
6FB
330
6FA
100
AcDbEntity
  8
Livello 1
100
AcDbVertex
100
AcDb2dVertex
 10
7.750810224860444
 20
4.096314703143136
 30
0.0
  0
VERTEX
  5
6FC
330
6FA
100
AcDbEntity
  8
Livello 1
100
AcDbVertex
100
AcDb2dVertex
 10
7.750810224860444
 20
4.207086634657741
 30
0.0
  0
SEQEND
  5
6FD
330
6FA
100
AcDbEntity
  8
Livello 1
  0
POLYLINE
  5
6FE
330
1F
100
AcDbEntity
  8
Livello 1
100
AcDb2dPolyline
 66
     1
 10
0.0
 20
0.0
 30
0.0
  0
VERTEX
  5
6FF
330
6FE
100
AcDbEntity
  8
Livello 1
100
AcDbVertex
100
AcDb2dVertex
 10
8.924149188817466
 20
4.207192948151245
 30
0.0
  0
VERTEX
  5
700
330
6FE
100
AcDbEntity
  8
Livello 1
100
AcDbVertex
100
AcDb2dVertex
 10
8.924149188817466
 20
4.09641967089621
 30
0.0
  0
SEQEND
  5
701
330
6FE
100
AcDbEntity
  8
Livello 1
  0
POLYLINE
  5
702
330
1F
100
AcDbEntity
  8
Livello 1
100
AcDb2dPolyline
 66
     1
 10
0.0
 20
0.0
 30
0.0
  0
VERTEX
  5
703
330
702
100
AcDbEntity
  8
Livello 1
100
AcDbVertex
100
AcDb2dVertex
 10
7.750810224860444
 20
4.098889104574112
 30
0.0
  0
VERTEX
  5
704
330
702
100
AcDbEntity
  8
Livello 1
100
AcDbVertex
100
AcDb2dVertex
 10
7.750810224860444
 20
4.207191602410816
 30
0.0
  0
SEQEND
  5
705
330
702
100
AcDbEntity
  8
Livello 1
  0
POLYLINE
  5
706
330
1F
100
AcDbEntity
  8
Livello 1
100
AcDb2dPolyline
 66
     1
 10
0.0
 20
0.0
 30
0.0
  0
VERTEX
  5
707
330
706
100
AcDbEntity
  8
Livello 1
100
AcDbVertex
100
AcDb2dVertex
 10
4.187154335392534
 20
8.964789068855807
 30
0.0
  0
VERTEX
  5
708
330
706
100
AcDbEntity
  8
Livello 1
100
AcDbVertex
100
AcDb2dVertex
 10
4.076381731007735
 20
8.964789068855807
 30
0.0
  0
SEQEND
  5
709
330
706
100
AcDbEntity
  8
Livello 1
  0
POLYLINE
  5
70A
330
1F
100
AcDbEntity
  8
Livello 1
100
AcDb2dPolyline
 66
     1
 10
0.0
 20
0.0
 30
0.0
  0
VERTEX
  5
70B
330
70A
100
AcDbEntity
  8
Livello 1
100
AcDbVertex
100
AcDb2dVertex
 10
4.076276090384446
 20
7.791520083400854
 30
0.0
  0
VERTEX
  5
70C
330
70A
100
AcDbEntity
  8
Livello 1
100
AcDbVertex
100
AcDb2dVertex
 10
4.187048021899052
 20
7.791520083400854
 30
0.0
  0
SEQEND
  5
70D
330
70A
100
AcDbEntity
  8
Livello 1
  0
POLYLINE
  5
70E
330
1F
100
AcDbEntity
  8
Livello 1
100
AcDb2dPolyline
 66
     1
 10
0.0
 20
0.0
 30
0.0
  0
VERTEX
  5
70F
330
70E
100
AcDbEntity
  8
Livello 1
100
AcDbVertex
100
AcDb2dVertex
 10
4.078851837555852
 20
8.964789068855807
 30
0.0
  0
VERTEX
  5
710
330
70E
100
AcDbEntity
  8
Livello 1
100
AcDbVertex
100
AcDb2dVertex
 10
4.187154335392534
 20
8.964789068855807
 30
0.0
  0
SEQEND
  5
711
330
70E
100
AcDbEntity
  8
Livello 1
  0
SPLINE
  5
712
330
1F
100
AcDbEntity
  8
Livello 1
100
AcDbSpline
210
0.0
220
0.0
230
1.0
 70
    27
 71
     3
 72
    11
 73
     7
 74
     0
 42
0.000000001
 43
0.0000000001
 40
0.0
 40
0.0
 40
0.0
 40
0.0
 40
1.0
 40
1.0
 40
1.0
 40
2.0
 40
2.0
 40
2.0
 40
2.0
 10
4.078851837555852
 20
7.791520083400854
 30
0.0
 10
4.078851837555852
 20
7.791520083400854
 30
0.0
 10
4.187154335392534
 20
7.791520083400854
 30
0.0
 10
4.187154335392534
 20
7.791520083400854
 30
0.0
 10
4.187154335392534
 20
7.791520083400854
 30
0.0
 10
4.078851837555852
 20
7.791520083400854
 30
0.0
 10
4.078851837555852
 20
7.791520083400854
 30
0.0
  0
POLYLINE
  5
713
330
1F
100
AcDbEntity
  8
Livello 1
100
AcDb2dPolyline
 66
     1
 10
0.0
 20
0.0
 30
0.0
  0
VERTEX
  5
714
330
713
100
AcDbEntity
  8
Livello 1
100
AcDbVertex
100
AcDb2dVertex
 10
4.197455305467485
 20
7.732183696629121
 30
0.0
  0
VERTEX
  5
715
330
713
100
AcDbEntity
  8
Livello 1
100
AcDbVertex
100
AcDb2dVertex
 10
7.714648833929132
 20
7.732183696629121
 30
0.0
  0
SEQEND
  5
716
330
713
100
AcDbEntity
  8
Livello 1
  0
POLYLINE
  5
717
330
1F
100
AcDbEntity
  8
Livello 1
100
AcDb2dPolyline
 66
     1
 10
0.0
 20
0.0
 30
0.0
  0
VERTEX
  5
718
330
717
100
AcDbEntity
  8
Livello 1
100
AcDbVertex
100
AcDb2dVertex
 10
7.714720158171601
 20
7.732183696629121
 30
0.0
  0
VERTEX
  5
719
330
717
100
AcDbEntity
  8
Livello 1
100
AcDbVertex
100
AcDb2dVertex
 10
7.714720158171601
 20
4.214988822427031
 30
0.0
  0
SEQEND
  5
71A
330
717
100
AcDbEntity
  8
Livello 1
  0
POLYLINE
  5
71B
330
1F
100
AcDbEntity
  8
Livello 1
100
AcDb2dPolyline
 66
     1
 10
0.0
 20
0.0
 30
0.0
  0
VERTEX
  5
71C
330
71B
100
AcDbEntity
  8
Livello 1
100
AcDbVertex
100
AcDb2dVertex
 10
7.268632776708287
 20
4.214953833176011
 30
0.0
  0
VERTEX
  5
71D
330
71B
100
AcDbEntity
  8
Livello 1
100
AcDbVertex
100
AcDb2dVertex
 10
7.714896450167145
 20
4.214953833176011
 30
0.0
  0
SEQEND
  5
71E
330
71B
100
AcDbEntity
  8
Livello 1
  0
POLYLINE
  5
71F
330
1F
100
AcDbEntity
  8
Livello 1
100
AcDb2dPolyline
 66
     1
 10
0.0
 20
0.0
 30
0.0
  0
VERTEX
  5
720
330
71F
100
AcDbEntity
  8
Livello 1
100
AcDbVertex
100
AcDb2dVertex
 10
7.268632776708287
 20
4.207192948151245
 30
0.0
  0
VERTEX
  5
721
330
71F
100
AcDbEntity
  8
Livello 1
100
AcDbVertex
100
AcDb2dVertex
 10
7.268632776708287
 20
4.214953833176011
 30
0.0
  0
SEQEND
  5
722
330
71F
100
AcDbEntity
  8
Livello 1
  0
POLYLINE
  5
723
330
1F
100
AcDbEntity
  8
Livello 1
100
AcDb2dPolyline
 66
     1
 10
0.0
 20
0.0
 30
0.0
  0
VERTEX
  5
724
330
723
100
AcDbEntity
  8
Livello 1
100
AcDbVertex
100
AcDb2dVertex
 10
7.077851194029605
 20
4.207192948151245
 30
0.0
  0
VERTEX
  5
725
330
723
100
AcDbEntity
  8
Livello 1
100
AcDbVertex
100
AcDb2dVertex
 10
7.268702755210327
 20
4.207192948151245
 30
0.0
  0
SEQEND
  5
726
330
723
100
AcDbEntity
  8
Livello 1
  0
POLYLINE
  5
727
330
1F
100
AcDbEntity
  8
Livello 1
100
AcDb2dPolyline
 66
     1
 10
0.0
 20
0.0
 30
0.0
  0
VERTEX
  5
728
330
727
100
AcDbEntity
  8
Livello 1
100
AcDbVertex
100
AcDb2dVertex
 10
7.714720158171601
 20
4.214953833176011
 30
0.0
  0
VERTEX
  5
729
330
727
100
AcDbEntity
  8
Livello 1
100
AcDbVertex
100
AcDb2dVertex
 10
7.720011609518479
 20
4.214953833176011
 30
0.0
  0
VERTEX
  5
72A
330
727
100
AcDbEntity
  8
Livello 1
100
AcDbVertex
100
AcDb2dVertex
 10
7.753524583295501
 20
4.214953833176011
 30
0.0
  0
VERTEX
  5
72B
330
727
100
AcDbEntity
  8
Livello 1
100
AcDbVertex
100
AcDb2dVertex
 10
7.758463450651305
 20
4.214953833176011
 30
0.0
  0
SEQEND
  5
72C
330
727
100
AcDbEntity
  8
Livello 1
  0
POLYLINE
  5
72D
330
1F
100
AcDbEntity
  8
Livello 1
100
AcDb2dPolyline
 66
     1
 10
0.0
 20
0.0
 30
0.0
  0
VERTEX
  5
72E
330
72D
100
AcDbEntity
  8
Livello 1
100
AcDbVertex
100
AcDb2dVertex
 10
6.956636316825353
 20
4.207192948151245
 30
0.0
  0
VERTEX
  5
72F
330
72D
100
AcDbEntity
  8
Livello 1
100
AcDbVertex
100
AcDb2dVertex
 10
6.961927768172216
 20
4.207192948151245
 30
0.0
  0
VERTEX
  5
730
330
72D
100
AcDbEntity
  8
Livello 1
100
AcDbVertex
100
AcDb2dVertex
 10
7.057177929637262
 20
4.207192948151245
 30
0.0
  0
VERTEX
  5
731
330
72D
100
AcDbEntity
  8
Livello 1
100
AcDbVertex
100
AcDb2dVertex
 10
7.0779911510337
 20
4.207192948151245
 30
0.0
  0
SEQEND
  5
732
330
72D
100
AcDbEntity
  8
Livello 1
  0
POLYLINE
  5
733
330
1F
100
AcDbEntity
  8
Livello 1
100
AcDb2dPolyline
 66
     1
 10
0.0
 20
0.0
 30
0.0
  0
VERTEX
  5
734
330
733
100
AcDbEntity
  8
Livello 1
100
AcDbVertex
100
AcDb2dVertex
 10
4.187154335392534
 20
9.663606501932392
 30
0.0
  0
VERTEX
  5
735
330
733
100
AcDbEntity
  8
Livello 1
100
AcDbVertex
100
AcDb2dVertex
 10
4.187154335392534
 20
9.684067139337756
 30
0.0
  0
VERTEX
  5
736
330
733
100
AcDbEntity
  8
Livello 1
100
AcDbVertex
100
AcDb2dVertex
 10
4.187154335392534
 20
9.774378433446997
 30
0.0
  0
VERTEX
  5
737
330
733
100
AcDbEntity
  8
Livello 1
100
AcDbVertex
100
AcDb2dVertex
 10
4.187154335392534
 20
9.782139318471791
 30
0.0
  0
SEQEND
  5
738
330
733
100
AcDbEntity
  8
Livello 1
  0
POLYLINE
  5
739
330
1F
100
AcDbEntity
  8
Livello 1
100
AcDb2dPolyline
 66
     1
 10
0.0
 20
0.0
 30
0.0
  0
VERTEX
  5
73A
330
739
100
AcDbEntity
  8
Livello 1
100
AcDbVertex
100
AcDb2dVertex
 10
4.197455305467485
 20
9.026666213547926
 30
0.0
  0
VERTEX
  5
73B
330
739
100
AcDbEntity
  8
Livello 1
100
AcDbVertex
100
AcDb2dVertex
 10
8.963482489927969
 20
9.026666213547926
 30
0.0
  0
SEQEND
  5
73C
330
739
100
AcDbEntity
  8
Livello 1
  0
POLYLINE
  5
73D
330
1F
100
AcDbEntity
  8
Livello 1
100
AcDb2dPolyline
 66
     1
 10
0.0
 20
0.0
 30
0.0
  0
VERTEX
  5
73E
330
73D
100
AcDbEntity
  8
Livello 1
100
AcDbVertex
100
AcDb2dVertex
 10
4.197455305467485
 20
9.470212837090883
 30
0.0
  0
VERTEX
  5
73F
330
73D
100
AcDbEntity
  8
Livello 1
100
AcDbVertex
100
AcDb2dVertex
 10
4.197455305467485
 20
9.026771181301
 30
0.0
  0
SEQEND
  5
740
330
73D
100
AcDbEntity
  8
Livello 1
  0
POLYLINE
  5
741
330
1F
100
AcDbEntity
  8
Livello 1
100
AcDb2dPolyline
 66
     1
 10
0.0
 20
0.0
 30
0.0
  0
VERTEX
  5
742
330
741
100
AcDbEntity
  8
Livello 1
100
AcDbVertex
100
AcDb2dVertex
 10
4.197455305467485
 20
9.470212837090883
 30
0.0
  0
VERTEX
  5
743
330
741
100
AcDbEntity
  8
Livello 1
100
AcDbVertex
100
AcDb2dVertex
 10
4.187224313894574
 20
9.470212837090883
 30
0.0
  0
SEQEND
  5
744
330
741
100
AcDbEntity
  8
Livello 1
  0
POLYLINE
  5
745
330
1F
100
AcDbEntity
  8
Livello 1
100
AcDb2dPolyline
 66
     1
 10
0.0
 20
0.0
 30
0.0
  0
VERTEX
  5
746
330
745
100
AcDbEntity
  8
Livello 1
100
AcDbVertex
100
AcDb2dVertex
 10
4.187154335392534
 20
9.470212837090883
 30
0.0
  0
VERTEX
  5
747
330
745
100
AcDbEntity
  8
Livello 1
100
AcDbVertex
100
AcDb2dVertex
 10
4.187154335392534
 20
9.663533831949507
 30
0.0
  0
SEQEND
  5
748
330
745
100
AcDbEntity
  8
Livello 1
  0
POLYLINE
  5
749
330
1F
100
AcDbEntity
  8
Livello 1
100
AcDb2dPolyline
 66
     1
 10
0.0
 20
0.0
 30
0.0
  0
VERTEX
  5
74A
330
749
100
AcDbEntity
  8
Livello 1
100
AcDbVertex
100
AcDb2dVertex
 10
4.197455305467485
 20
9.018940317774166
 30
0.0
  0
VERTEX
  5
74B
330
749
100
AcDbEntity
  8
Livello 1
100
AcDbVertex
100
AcDb2dVertex
 10
4.197455305467485
 20
8.985425998256744
 30
0.0
  0
VERTEX
  5
74C
330
749
100
AcDbEntity
  8
Livello 1
100
AcDbVertex
100
AcDb2dVertex
 10
4.197455305467485
 20
8.982956564578827
 30
0.0
  0
SEQEND
  5
74D
330
749
100
AcDbEntity
  8
Livello 1
  0
POLYLINE
  5
74E
330
1F
100
AcDbEntity
  8
Livello 1
100
AcDb2dPolyline
 66
     1
 10
0.0
 20
0.0
 30
0.0
  0
VERTEX
  5
74F
330
74E
100
AcDbEntity
  8
Livello 1
100
AcDbVertex
100
AcDb2dVertex
 10
8.965388058368247
 20
4.214953833176011
 30
0.0
  0
VERTEX
  5
750
330
74E
100
AcDbEntity
  8
Livello 1
100
AcDbVertex
100
AcDb2dVertex
 10
8.96785749204615
 20
4.214953833176011
 30
0.0
  0
VERTEX
  5
751
330
74E
100
AcDbEntity
  8
Livello 1
100
AcDbVertex
100
AcDb2dVertex
 10
9.001370465823171
 20
4.214953833176011
 30
0.0
  0
VERTEX
  5
752
330
74E
100
AcDbEntity
  8
Livello 1
100
AcDbVertex
100
AcDb2dVertex
 10
9.006661917170049
 20
4.214953833176011
 30
0.0
  0
SEQEND
  5
753
330
74E
100
AcDbEntity
  8
Livello 1
  0
POLYLINE
  5
754
330
1F
100
AcDbEntity
  8
Livello 1
100
AcDb2dPolyline
 66
     1
 10
0.0
 20
0.0
 30
0.0
  0
VERTEX
  5
755
330
754
100
AcDbEntity
  8
Livello 1
100
AcDbVertex
100
AcDb2dVertex
 10
8.965388058368247
 20
4.214953833176011
 30
0.0
  0
VERTEX
  5
756
330
754
100
AcDbEntity
  8
Livello 1
100
AcDbVertex
100
AcDb2dVertex
 10
8.965388058368247
 20
9.026666213547926
 30
0.0
  0
SEQEND
  5
757
330
754
100
AcDbEntity
  8
Livello 1
  0
POLYLINE
  5
758
330
1F
100
AcDbEntity
  8
Livello 1
100
AcDb2dPolyline
 66
     1
 10
0.0
 20
0.0
 30
0.0
  0
VERTEX
  5
759
330
758
100
AcDbEntity
  8
Livello 1
100
AcDbVertex
100
AcDb2dVertex
 10
4.187154335392534
 20
7.770883153999946
 30
0.0
  0
VERTEX
  5
75A
330
758
100
AcDbEntity
  8
Livello 1
100
AcDbVertex
100
AcDb2dVertex
 10
4.192445786739419
 20
7.77617460534681
 30
0.0
  0
VERTEX
  5
75B
330
758
100
AcDbEntity
  8
Livello 1
100
AcDbVertex
100
AcDb2dVertex
 10
4.197384654095216
 20
7.77617460534681
 30
0.0
  0
SEQEND
  5
75C
330
758
100
AcDbEntity
  8
Livello 1
  0
POLYLINE
  5
75D
330
1F
100
AcDbEntity
  8
Livello 1
100
AcDb2dPolyline
 66
     1
 10
0.0
 20
0.0
 30
0.0
  0
VERTEX
  5
75E
330
75D
100
AcDbEntity
  8
Livello 1
100
AcDbVertex
100
AcDb2dVertex
 10
4.187154335392534
 20
7.732183696629121
 30
0.0
  0
VERTEX
  5
75F
330
75D
100
AcDbEntity
  8
Livello 1
100
AcDbVertex
100
AcDb2dVertex
 10
4.197384654095216
 20
7.732183696629121
 30
0.0
  0
SEQEND
  5
760
330
75D
100
AcDbEntity
  8
Livello 1
  0
POLYLINE
  5
761
330
1F
100
AcDbEntity
  8
Livello 1
100
AcDb2dPolyline
 66
     1
 10
0.0
 20
0.0
 30
0.0
  0
VERTEX
  5
762
330
761
100
AcDbEntity
  8
Livello 1
100
AcDbVertex
100
AcDb2dVertex
 10
4.187154335392534
 20
7.732183696629121
 30
0.0
  0
VERTEX
  5
763
330
761
100
AcDbEntity
  8
Livello 1
100
AcDbVertex
100
AcDb2dVertex
 10
4.187154335392534
 20
7.737475147975999
 30
0.0
  0
VERTEX
  5
764
330
761
100
AcDbEntity
  8
Livello 1
100
AcDbVertex
100
AcDb2dVertex
 10
4.187154335392534
 20
7.768166104084031
 30
0.0
  0
VERTEX
  5
765
330
761
100
AcDbEntity
  8
Livello 1
100
AcDbVertex
100
AcDb2dVertex
 10
4.187154335392534
 20
7.770988121753021
 30
0.0
  0
SEQEND
  5
766
330
761
100
AcDbEntity
  8
Livello 1
  0
POLYLINE
  5
767
330
1F
100
AcDbEntity
  8
Livello 1
100
AcDb2dPolyline
 66
     1
 10
0.0
 20
0.0
 30
0.0
  0
VERTEX
  5
768
330
767
100
AcDbEntity
  8
Livello 1
100
AcDbVertex
100
AcDb2dVertex
 10
9.006663262910464
 20
4.207192948151245
 30
0.0
  0
VERTEX
  5
769
330
767
100
AcDbEntity
  8
Livello 1
100
AcDbVertex
100
AcDb2dVertex
 10
9.006663262910464
 20
4.214953833176011
 30
0.0
  0
SEQEND
  5
76A
330
767
100
AcDbEntity
  8
Livello 1
  0
POLYLINE
  5
76B
330
1F
100
AcDbEntity
  8
Livello 1
100
AcDb2dPolyline
 66
     1
 10
0.0
 20
0.0
 30
0.0
  0
VERTEX
  5
76C
330
76B
100
AcDbEntity
  8
Livello 1
100
AcDbVertex
100
AcDb2dVertex
 10
7.714720158171601
 20
4.207192948151245
 30
0.0
  0
VERTEX
  5
76D
330
76B
100
AcDbEntity
  8
Livello 1
100
AcDbVertex
100
AcDb2dVertex
 10
7.714720158171601
 20
4.214953833176011
 30
0.0
  0
SEQEND
  5
76E
330
76B
100
AcDbEntity
  8
Livello 1
  0
POLYLINE
  5
76F
330
1F
100
AcDbEntity
  8
Livello 1
100
AcDb2dPolyline
 66
     1
 10
0.0
 20
0.0
 30
0.0
  0
VERTEX
  5
770
330
76F
100
AcDbEntity
  8
Livello 1
100
AcDbVertex
100
AcDb2dVertex
 10
8.970538206970601
 20
4.207192948151245
 30
0.0
  0
VERTEX
  5
771
330
76F
100
AcDbEntity
  8
Livello 1
100
AcDbVertex
100
AcDb2dVertex
 10
8.965245409883308
 20
4.207192948151245
 30
0.0
  0
VERTEX
  5
772
330
76F
100
AcDbEntity
  8
Livello 1
100
AcDbVertex
100
AcDb2dVertex
 10
8.965245409883308
 20
4.214953833176011
 30
0.0
  0
SEQEND
  5
773
330
76F
100
AcDbEntity
  8
Livello 1
  0
POLYLINE
  5
774
330
1F
100
AcDbEntity
  8
Livello 1
100
AcDb2dPolyline
 66
     1
 10
0.0
 20
0.0
 30
0.0
  0
VERTEX
  5
775
330
774
100
AcDbEntity
  8
Livello 1
100
AcDbVertex
100
AcDb2dVertex
 10
9.826342989200227
 20
4.207192948151245
 30
0.0
  0
VERTEX
  5
776
330
774
100
AcDbEntity
  8
Livello 1
100
AcDbVertex
100
AcDb2dVertex
 10
9.00154810355913
 20
4.207192948151245
 30
0.0
  0
VERTEX
  5
777
330
774
100
AcDbEntity
  8
Livello 1
100
AcDbVertex
100
AcDb2dVertex
 10
8.972972651397483
 20
4.207192948151245
 30
0.0
  0
VERTEX
  5
778
330
774
100
AcDbEntity
  8
Livello 1
100
AcDbVertex
100
AcDb2dVertex
 10
8.970503217719581
 20
4.207192948151245
 30
0.0
  0
SEQEND
  5
779
330
774
100
AcDbEntity
  8
Livello 1
  0
POLYLINE
  5
77A
330
1F
100
AcDbEntity
  8
Livello 1
100
AcDb2dPolyline
 66
     1
 10
0.0
 20
0.0
 30
0.0
  0
VERTEX
  5
77B
330
77A
100
AcDbEntity
  8
Livello 1
100
AcDbVertex
100
AcDb2dVertex
 10
7.753419615542441
 20
4.207192948151245
 30
0.0
  0
VERTEX
  5
77C
330
77A
100
AcDbEntity
  8
Livello 1
100
AcDbVertex
100
AcDb2dVertex
 10
7.755889049220343
 20
4.207192948151245
 30
0.0
  0
VERTEX
  5
77D
330
77A
100
AcDbEntity
  8
Livello 1
100
AcDbVertex
100
AcDb2dVertex
 10
7.755889049220343
 20
4.209662381829133
 30
0.0
  0
VERTEX
  5
77E
330
77A
100
AcDbEntity
  8
Livello 1
100
AcDbVertex
100
AcDb2dVertex
 10
7.758711066889318
 20
4.212484399498123
 30
0.0
  0
VERTEX
  5
77F
330
77A
100
AcDbEntity
  8
Livello 1
100
AcDbVertex
100
AcDb2dVertex
 10
7.758711066889318
 20
4.214953833176011
 30
0.0
  0
SEQEND
  5
780
330
77A
100
AcDbEntity
  8
Livello 1
  0
POLYLINE
  5
781
330
1F
100
AcDbEntity
  8
Livello 1
100
AcDb2dPolyline
 66
     1
 10
0.0
 20
0.0
 30
0.0
  0
VERTEX
  5
782
330
781
100
AcDbEntity
  8
Livello 1
100
AcDbVertex
100
AcDb2dVertex
 10
7.753419615542441
 20
4.207192948151245
 30
0.0
  0
VERTEX
  5
783
330
781
100
AcDbEntity
  8
Livello 1
100
AcDbVertex
100
AcDb2dVertex
 10
7.750948836124109
 20
4.207192948151245
 30
0.0
  0
VERTEX
  5
784
330
781
100
AcDbEntity
  8
Livello 1
100
AcDbVertex
100
AcDb2dVertex
 10
7.71990529602499
 20
4.207192948151245
 30
0.0
  0
VERTEX
  5
785
330
781
100
AcDbEntity
  8
Livello 1
100
AcDbVertex
100
AcDb2dVertex
 10
7.714613844678112
 20
4.207192948151245
 30
0.0
  0
SEQEND
  5
786
330
781
100
AcDbEntity
  8
Livello 1
  0
POLYLINE
  5
787
330
1F
100
AcDbEntity
  8
Livello 1
100
AcDb2dPolyline
 66
     1
 10
0.0
 20
0.0
 30
0.0
  0
VERTEX
  5
788
330
787
100
AcDbEntity
  8
Livello 1
100
AcDbVertex
100
AcDb2dVertex
 10
8.586327970199391
 20
8.815246355727921
 30
0.0
  0
VERTEX
  5
789
330
787
100
AcDbEntity
  8
Livello 1
100
AcDbVertex
100
AcDb2dVertex
 10
7.580557912348751
 20
8.815246355727921
 30
0.0
  0
VERTEX
  5
78A
330
787
100
AcDbEntity
  8
Livello 1
100
AcDbVertex
100
AcDb2dVertex
 10
7.580557912348751
 20
7.977045203983678
 30
0.0
  0
VERTEX
  5
78B
330
787
100
AcDbEntity
  8
Livello 1
100
AcDbVertex
100
AcDb2dVertex
 10
8.586327970199391
 20
7.977045203983678
 30
0.0
  0
VERTEX
  5
78C
330
787
100
AcDbEntity
  8
Livello 1
100
AcDbVertex
100
AcDb2dVertex
 10
8.586327970199391
 20
8.815246355727921
 30
0.0
  0
SEQEND
  5
78D
330
787
100
AcDbEntity
  8
Livello 1
  0
POLYLINE
  5
78E
330
1F
100
AcDbEntity
  8
Livello 1
100
AcDb2dPolyline
 66
     1
 10
0.0
 20
0.0
 30
0.0
  0
VERTEX
  5
78F
330
78E
100
AcDbEntity
  8
Livello 1
100
AcDbVertex
100
AcDb2dVertex
 10
2.686367120005066
 20
7.518294405131214
 30
0.0
  0
VERTEX
  5
790
330
78E
100
AcDbEntity
  8
Livello 1
100
AcDbVertex
100
AcDb2dVertex
 10
2.727641651677075
 20
7.477019200588998
 30
0.0
  0
SEQEND
  5
791
330
78E
100
AcDbEntity
  8
Livello 1
  0
POLYLINE
  5
792
330
1F
100
AcDbEntity
  8
Livello 1
100
AcDb2dPolyline
 66
     1
 10
0.0
 20
0.0
 30
0.0
  0
VERTEX
  5
793
330
792
100
AcDbEntity
  8
Livello 1
100
AcDbVertex
100
AcDb2dVertex
 10
3.024186992882711
 20
7.353264911204774
 30
0.0
  0
VERTEX
  5
794
330
792
100
AcDbEntity
  8
Livello 1
100
AcDbVertex
100
AcDb2dVertex
 10
3.269014183856462
 20
7.353264911204774
 30
0.0
  0
SEQEND
  5
795
330
792
100
AcDbEntity
  8
Livello 1
  0
SPLINE
  5
796
330
1F
100
AcDbEntity
  8
Livello 1
100
AcDbSpline
210
0.0
220
0.0
230
1.0
 70
     8
 71
     3
 72
   119
 73
   115
 74
     0
 42
0.000000001
 43
0.0000000001
 40
0.0
 40
0.0
 40
0.0
 40
0.0
 40
1.0
 40
1.0
 40
1.0
 40
2.0
 40
2.0
 40
2.0
 40
3.0
 40
3.0
 40
3.0
 40
4.0
 40
4.0
 40
4.0
 40
5.0
 40
5.0
 40
5.0
 40
6.0
 40
6.0
 40
6.0
 40
7.0
 40
7.0
 40
7.0
 40
8.0
 40
8.0
 40
8.0
 40
9.0
 40
9.0
 40
9.0
 40
10.0
 40
10.0
 40
10.0
 40
11.0
 40
11.0
 40
11.0
 40
12.0
 40
12.0
 40
12.0
 40
13.0
 40
13.0
 40
13.0
 40
14.0
 40
14.0
 40
14.0
 40
15.0
 40
15.0
 40
15.0
 40
16.0
 40
16.0
 40
16.0
 40
17.0
 40
17.0
 40
17.0
 40
18.0
 40
18.0
 40
18.0
 40
19.0
 40
19.0
 40
19.0
 40
20.0
 40
20.0
 40
20.0
 40
21.0
 40
21.0
 40
21.0
 40
22.0
 40
22.0
 40
22.0
 40
23.0
 40
23.0
 40
23.0
 40
24.0
 40
24.0
 40
24.0
 40
25.0
 40
25.0
 40
25.0
 40
26.0
 40
26.0
 40
26.0
 40
27.0
 40
27.0
 40
27.0
 40
28.0
 40
28.0
 40
28.0
 40
29.0
 40
29.0
 40
29.0
 40
30.0
 40
30.0
 40
30.0
 40
31.0
 40
31.0
 40
31.0
 40
32.0
 40
32.0
 40
32.0
 40
33.0
 40
33.0
 40
33.0
 40
34.0
 40
34.0
 40
34.0
 40
35.0
 40
35.0
 40
35.0
 40
36.0
 40
36.0
 40
36.0
 40
37.0
 40
37.0
 40
37.0
 40
38.0
 40
38.0
 40
38.0
 40
38.0
 10
2.727642324547304
 20
7.477019200588998
 30
0.0
 10
2.727642324547304
 20
7.477019200588998
 30
0.0
 10
2.730111758225199
 20
7.471726403501691
 30
0.0
 10
2.730111758225199
 20
7.471726403501691
 30
0.0
 10
2.730111758225199
 20
7.471726403501691
 30
0.0
 10
2.740694660918954
 20
7.461496084799009
 30
0.0
 10
2.740694660918954
 20
7.461496084799009
 30
0.0
 10
2.740694660918954
 20
7.461496084799009
 30
0.0
 10
2.745633528274758
 20
7.459026651121092
 30
0.0
 10
2.745633528274758
 20
7.459026651121092
 30
0.0
 10
2.745633528274758
 20
7.459026651121092
 30
0.0
 10
2.74810296195266
 20
7.453735199774243
 30
0.0
 10
2.74810296195266
 20
7.453735199774243
 30
0.0
 10
2.74810296195266
 20
7.453735199774243
 30
0.0
 10
2.753395086169753
 20
7.451265766096341
 30
0.0
 10
2.753395086169753
 20
7.451265766096341
 30
0.0
 10
2.753395086169753
 20
7.451265766096341
 30
0.0
 10
2.755864519847662
 20
7.44879633241841
 30
0.0
 10
2.755864519847662
 20
7.44879633241841
 30
0.0
 10
2.755864519847662
 20
7.44879633241841
 30
0.0
 10
2.761155971194526
 20
7.445974314749449
 30
0.0
 10
2.761155971194526
 20
7.445974314749449
 30
0.0
 10
2.761155971194526
 20
7.445974314749449
 30
0.0
 10
2.763625404872442
 20
7.44103544739363
 30
0.0
 10
2.763625404872442
 20
7.44103544739363
 30
0.0
 10
2.763625404872442
 20
7.44103544739363
 30
0.0
 10
2.774208980436398
 20
7.435743996046781
 30
0.0
 10
2.774208980436398
 20
7.435743996046781
 30
0.0
 10
2.774208980436398
 20
7.435743996046781
 30
0.0
 10
2.7766784141143
 20
7.433274562368865
 30
0.0
 10
2.7766784141143
 20
7.433274562368865
 30
0.0
 10
2.7766784141143
 20
7.433274562368865
 30
0.0
 10
2.781969865461178
 20
7.43045119895946
 30
0.0
 10
2.781969865461178
 20
7.43045119895946
 30
0.0
 10
2.781969865461178
 20
7.43045119895946
 30
0.0
 10
2.784439299139073
 20
7.425512331603641
 30
0.0
 10
2.784439299139073
 20
7.425512331603641
 30
0.0
 10
2.784439299139073
 20
7.425512331603641
 30
0.0
 10
2.794669617841762
 20
7.420220880256792
 30
0.0
 10
2.794669617841762
 20
7.420220880256792
 30
0.0
 10
2.794669617841762
 20
7.420220880256792
 30
0.0
 10
2.797139051519664
 20
7.417751446578861
 30
0.0
 10
2.797139051519664
 20
7.417751446578861
 30
0.0
 10
2.797139051519664
 20
7.417751446578861
 30
0.0
 10
2.812661494439446
 20
7.409990561554096
 30
0.0
 10
2.812661494439446
 20
7.409990561554096
 30
0.0
 10
2.812661494439446
 20
7.409990561554096
 30
0.0
 10
2.815483512108414
 20
7.407521127876194
 30
0.0
 10
2.815483512108414
 20
7.407521127876194
 30
0.0
 10
2.815483512108414
 20
7.407521127876194
 30
0.0
 10
2.825714503681304
 20
7.402229676529316
 30
0.0
 10
2.825714503681304
 20
7.402229676529316
 30
0.0
 10
2.833475388706077
 20
7.399055074869281
 30
0.0
 10
2.839472680905309
 20
7.390235092130865
 30
0.0
 10
2.848997831625858
 20
7.39199935782662
 30
0.0
 10
2.848997831625858
 20
7.39199935782662
 30
0.0
 10
2.853936698981662
 20
7.389177340157658
 30
0.0
 10
2.853936698981662
 20
7.389177340157658
 30
0.0
 10
2.853936698981662
 20
7.389177340157658
 30
0.0
 10
2.856406132659564
 20
7.386707906479756
 30
0.0
 10
2.856406132659564
 20
7.386707906479756
 30
0.0
 10
2.856406132659564
 20
7.386707906479756
 30
0.0
 10
2.86698903535332
 20
7.381769039123952
 30
0.0
 10
2.86698903535332
 20
7.381769039123952
 30
0.0
 10
2.86698903535332
 20
7.381769039123952
 30
0.0
 10
2.871927902709124
 20
7.381769039123952
 30
0.0
 10
2.871927902709124
 20
7.381769039123952
 30
0.0
 10
2.871927902709124
 20
7.381769039123952
 30
0.0
 10
2.877220026926217
 20
7.378945675714547
 30
0.0
 10
2.877220026926217
 20
7.378945675714547
 30
0.0
 10
2.877220026926217
 20
7.378945675714547
 30
0.0
 10
2.882511478273087
 20
7.376476242036645
 30
0.0
 10
2.882511478273087
 20
7.376476242036645
 30
0.0
 10
2.882511478273087
 20
7.376476242036645
 30
0.0
 10
2.887450345628892
 20
7.376476242036645
 30
0.0
 10
2.887450345628892
 20
7.376476242036645
 30
0.0
 10
2.887450345628892
 20
7.376476242036645
 30
0.0
 10
2.889919779306808
 20
7.374006808358743
 30
0.0
 10
2.889919779306808
 20
7.374006808358743
 30
0.0
 10
2.889919779306808
 20
7.374006808358743
 30
0.0
 10
2.895211230653679
 20
7.371184790689767
 30
0.0
 10
2.895211230653679
 20
7.371184790689767
 30
0.0
 10
2.895211230653679
 20
7.371184790689767
 30
0.0
 10
2.900503354870764
 20
7.371184790689767
 30
0.0
 10
2.900503354870764
 20
7.371184790689767
 30
0.0
 10
2.900503354870764
 20
7.371184790689767
 30
0.0
 10
2.905442222226575
 20
7.368715357011865
 30
0.0
 10
2.905442222226575
 20
7.368715357011865
 30
0.0
 10
2.905442222226575
 20
7.368715357011865
 30
0.0
 10
2.910733673573453
 20
7.368715357011865
 30
0.0
 10
2.910733673573453
 20
7.368715357011865
 30
0.0
 10
2.910733673573453
 20
7.368715357011865
 30
0.0
 10
2.916025124920317
 20
7.366245923333963
 30
0.0
 10
2.916025124920317
 20
7.366245923333963
 30
0.0
 10
2.916025124920317
 20
7.366245923333963
 30
0.0
 10
2.920963992276135
 20
7.366245923333963
 30
0.0
 10
2.920963992276135
 20
7.366245923333963
 30
0.0
 10
2.920963992276135
 20
7.366245923333963
 30
0.0
 10
2.92625611649322
 20
7.363423905664987
 30
0.0
 10
2.92625611649322
 20
7.363423905664987
 30
0.0
 10
2.92625611649322
 20
7.363423905664987
 30
0.0
 10
2.931194983849032
 20
7.363423905664987
 30
0.0
 10
2.931194983849032
 20
7.363423905664987
 30
0.0
 10
2.931194983849032
 20
7.363423905664987
 30
0.0
 10
2.936486435195895
 20
7.360954471987085
 30
0.0
 10
2.936486435195895
 20
7.360954471987085
 30
0.0
 10
2.936486435195895
 20
7.360954471987085
 30
0.0
 10
2.94177788654278
 20
7.360954471987085
 30
0.0
 10
2.94177788654278
 20
7.360954471987085
 30
0.0
 10
2.961533355966011
 20
7.35777987032705
 30
0.0
 10
2.988344542431882
 20
7.352488418980172
 30
0.0
 10
3.008805852707453
 20
7.353193586962305
 30
0.0
 10
3.008805852707453
 20
7.353193586962305
 30
0.0
 10
3.024328295627235
 20
7.353193586962305
 30
0.0
 10
3.024328295627235
 20
7.353193586962305
 30
0.0
  0
POLYLINE
  5
797
330
1F
100
AcDbEntity
  8
Livello 1
100
AcDb2dPolyline
 66
     1
 10
0.0
 20
0.0
 30
0.0
  0
VERTEX
  5
798
330
797
100
AcDbEntity
  8
Livello 1
100
AcDbVertex
100
AcDb2dVertex
 10
3.269191148722207
 20
7.353264911204774
 30
0.0
  0
VERTEX
  5
799
330
797
100
AcDbEntity
  8
Livello 1
100
AcDbVertex
100
AcDb2dVertex
 10
3.269191148722207
 20
7.518364383633254
 30
0.0
  0
SEQEND
  5
79A
330
797
100
AcDbEntity
  8
Livello 1
  0
SPLINE
  5
79B
330
1F
100
AcDbEntity
  8
Livello 1
100
AcDbSpline
210
0.0
220
0.0
230
1.0
 70
     8
 71
     3
 72
    14
 73
    10
 74
     0
 42
0.000000001
 43
0.0000000001
 40
0.0
 40
0.0
 40
0.0
 40
0.0
 40
1.0
 40
1.0
 40
1.0
 40
2.0
 40
2.0
 40
2.0
 40
3.0
 40
3.0
 40
3.0
 40
3.0
 10
4.076276090384446
 20
7.801928039839509
 30
0.0
 10
4.076276090384446
 20
7.801928039839509
 30
0.0
 10
4.068514532489459
 20
7.804397473517397
 30
0.0
 10
4.068514532489459
 20
7.804397473517397
 30
0.0
 10
3.566864893273312
 20
8.031585371884546
 30
0.0
 10
3.566864893273312
 20
8.740316874664173
 30
0.0
 10
4.068514532489459
 20
8.967504773031308
 30
0.0
 10
4.068514532489459
 20
8.967504773031308
 30
0.0
 10
4.076276090384446
 20
8.972796224378171
 30
0.0
 10
4.076276090384446
 20
8.972796224378171
 30
0.0
  0
POLYLINE
  5
79C
330
1F
100
AcDbEntity
  8
Livello 1
100
AcDb2dPolyline
 66
     1
 10
0.0
 20
0.0
 30
0.0
  0
VERTEX
  5
79D
330
79C
100
AcDbEntity
  8
Livello 1
100
AcDbVertex
100
AcDb2dVertex
 10
2.080436055338914
 20
7.655806198869214
 30
0.0
  0
VERTEX
  5
79E
330
79C
100
AcDbEntity
  8
Livello 1
100
AcDbVertex
100
AcDb2dVertex
 10
2.080436055338914
 20
7.559496939690561
 30
0.0
  0
VERTEX
  5
79F
330
79C
100
AcDbEntity
  8
Livello 1
100
AcDbVertex
100
AcDb2dVertex
 10
2.080436055338914
 20
7.520691168826218
 30
0.0
  0
VERTEX
  5
7A0
330
79C
100
AcDbEntity
  8
Livello 1
100
AcDbVertex
100
AcDb2dVertex
 10
2.080436055338914
 20
7.518221735148316
 30
0.0
  0
VERTEX
  5
7A1
330
79C
100
AcDbEntity
  8
Livello 1
100
AcDbVertex
100
AcDb2dVertex
 10
4.187224986764803
 20
7.518221735148316
 30
0.0
  0
SEQEND
  5
7A2
330
79C
100
AcDbEntity
  8
Livello 1
  0
POLYLINE
  5
7A3
330
1F
100
AcDbEntity
  8
Livello 1
100
AcDb2dPolyline
 66
     1
 10
0.0
 20
0.0
 30
0.0
  0
VERTEX
  5
7A4
330
7A3
100
AcDbEntity
  8
Livello 1
100
AcDbVertex
100
AcDb2dVertex
 10
2.080436055338914
 20
9.207288801766395
 30
0.0
  0
VERTEX
  5
7A5
330
7A3
100
AcDbEntity
  8
Livello 1
100
AcDbVertex
100
AcDb2dVertex
 10
2.082905489016823
 20
9.204818022348064
 30
0.0
  0
VERTEX
  5
7A6
330
7A3
100
AcDbEntity
  8
Livello 1
100
AcDbVertex
100
AcDb2dVertex
 10
2.085727506685785
 20
9.204818022348064
 30
0.0
  0
VERTEX
  5
7A7
330
7A3
100
AcDbEntity
  8
Livello 1
100
AcDbVertex
100
AcDb2dVertex
 10
2.088196940363694
 20
9.201996004679102
 30
0.0
  0
SEQEND
  5
7A8
330
7A3
100
AcDbEntity
  8
Livello 1
  0
POLYLINE
  5
7A9
330
1F
100
AcDbEntity
  8
Livello 1
100
AcDb2dPolyline
 66
     1
 10
0.0
 20
0.0
 30
0.0
  0
VERTEX
  5
7AA
330
7A9
100
AcDbEntity
  8
Livello 1
100
AcDbVertex
100
AcDb2dVertex
 10
2.080436055338914
 20
9.207288801766395
 30
0.0
  0
VERTEX
  5
7AB
330
7A9
100
AcDbEntity
  8
Livello 1
100
AcDbVertex
100
AcDb2dVertex
 10
2.080436055338914
 20
9.204818022348064
 30
0.0
  0
SEQEND
  5
7AC
330
7A9
100
AcDbEntity
  8
Livello 1
  0
POLYLINE
  5
7AD
330
1F
100
AcDbEntity
  8
Livello 1
100
AcDb2dPolyline
 66
     1
 10
0.0
 20
0.0
 30
0.0
  0
VERTEX
  5
7AE
330
7AD
100
AcDbEntity
  8
Livello 1
100
AcDbVertex
100
AcDb2dVertex
 10
2.080436055338914
 20
9.26144005068474
 30
0.0
  0
VERTEX
  5
7AF
330
7AD
100
AcDbEntity
  8
Livello 1
100
AcDbVertex
100
AcDb2dVertex
 10
2.080436055338914
 20
9.256147253597418
 30
0.0
  0
VERTEX
  5
7B0
330
7AD
100
AcDbEntity
  8
Livello 1
100
AcDbVertex
100
AcDb2dVertex
 10
2.080436055338914
 20
9.217695412464607
 30
0.0
  0
VERTEX
  5
7B1
330
7AD
100
AcDbEntity
  8
Livello 1
100
AcDbVertex
100
AcDb2dVertex
 10
2.080436055338914
 20
9.207111164030436
 30
0.0
  0
SEQEND
  5
7B2
330
7AD
100
AcDbEntity
  8
Livello 1
  0
POLYLINE
  5
7B3
330
1F
100
AcDbEntity
  8
Livello 1
100
AcDb2dPolyline
 66
     1
 10
0.0
 20
0.0
 30
0.0
  0
VERTEX
  5
7B4
330
7B3
100
AcDbEntity
  8
Livello 1
100
AcDbVertex
100
AcDb2dVertex
 10
4.187154335392534
 20
9.26144005068474
 30
0.0
  0
VERTEX
  5
7B5
330
7B3
100
AcDbEntity
  8
Livello 1
100
AcDbVertex
100
AcDb2dVertex
 10
2.080365403966652
 20
9.26144005068474
 30
0.0
  0
SEQEND
  5
7B6
330
7B3
100
AcDbEntity
  8
Livello 1
  0
POLYLINE
  5
7B7
330
1F
100
AcDbEntity
  8
Livello 1
100
AcDb2dPolyline
 66
     1
 10
0.0
 20
0.0
 30
0.0
  0
VERTEX
  5
7B8
330
7B7
100
AcDbEntity
  8
Livello 1
100
AcDbVertex
100
AcDb2dVertex
 10
2.080436055338914
 20
7.801928039839509
 30
0.0
  0
VERTEX
  5
7B9
330
7B7
100
AcDbEntity
  8
Livello 1
100
AcDbVertex
100
AcDb2dVertex
 10
2.080436055338914
 20
7.817449809889055
 30
0.0
  0
SEQEND
  5
7BA
330
7B7
100
AcDbEntity
  8
Livello 1
  0
POLYLINE
  5
7BB
330
1F
100
AcDbEntity
  8
Livello 1
100
AcDb2dPolyline
 66
     1
 10
0.0
 20
0.0
 30
0.0
  0
VERTEX
  5
7BC
330
7BB
100
AcDbEntity
  8
Livello 1
100
AcDbVertex
100
AcDb2dVertex
 10
2.080436055338914
 20
8.975230668805068
 30
0.0
  0
VERTEX
  5
7BD
330
7BB
100
AcDbEntity
  8
Livello 1
100
AcDbVertex
100
AcDb2dVertex
 10
2.080436055338914
 20
8.957238119337176
 30
0.0
  0
SEQEND
  5
7BE
330
7BB
100
AcDbEntity
  8
Livello 1
  0
POLYLINE
  5
7BF
330
1F
100
AcDbEntity
  8
Livello 1
100
AcDb2dPolyline
 66
     1
 10
0.0
 20
0.0
 30
0.0
  0
VERTEX
  5
7C0
330
7BF
100
AcDbEntity
  8
Livello 1
100
AcDbVertex
100
AcDb2dVertex
 10
2.080436055338914
 20
7.817414820638035
 30
0.0
  0
VERTEX
  5
7C1
330
7BF
100
AcDbEntity
  8
Livello 1
100
AcDbVertex
100
AcDb2dVertex
 10
2.080436055338914
 20
8.957239465077591
 30
0.0
  0
SEQEND
  5
7C2
330
7BF
100
AcDbEntity
  8
Livello 1
  0
POLYLINE
  5
7C3
330
1F
100
AcDbEntity
  8
Livello 1
100
AcDb2dPolyline
 66
     1
 10
0.0
 20
0.0
 30
0.0
  0
VERTEX
  5
7C4
330
7C3
100
AcDbEntity
  8
Livello 1
100
AcDbVertex
100
AcDb2dVertex
 10
2.080436055338914
 20
7.799352292668103
 30
0.0
  0
VERTEX
  5
7C5
330
7C3
100
AcDbEntity
  8
Livello 1
100
AcDbVertex
100
AcDb2dVertex
 10
2.080436055338914
 20
7.691048449090985
 30
0.0
  0
SEQEND
  5
7C6
330
7C3
100
AcDbEntity
  8
Livello 1
  0
POLYLINE
  5
7C7
330
1F
100
AcDbEntity
  8
Livello 1
100
AcDb2dPolyline
 66
     1
 10
0.0
 20
0.0
 30
0.0
  0
VERTEX
  5
7C8
330
7C7
100
AcDbEntity
  8
Livello 1
100
AcDbVertex
100
AcDb2dVertex
 10
2.080436055338914
 20
9.083533166641757
 30
0.0
  0
VERTEX
  5
7C9
330
7C7
100
AcDbEntity
  8
Livello 1
100
AcDbVertex
100
AcDb2dVertex
 10
2.080436055338914
 20
8.975229323064638
 30
0.0
  0
SEQEND
  5
7CA
330
7C7
100
AcDbEntity
  8
Livello 1
  0
POLYLINE
  5
7CB
330
1F
100
AcDbEntity
  8
Livello 1
100
AcDb2dPolyline
 66
     1
 10
0.0
 20
0.0
 30
0.0
  0
VERTEX
  5
7CC
330
7CB
100
AcDbEntity
  8
Livello 1
100
AcDbVertex
100
AcDb2dVertex
 10
2.080436055338914
 20
9.204713054595003
 30
0.0
  0
VERTEX
  5
7CD
330
7CB
100
AcDbEntity
  8
Livello 1
100
AcDbVertex
100
AcDb2dVertex
 10
2.080436055338914
 20
9.083356874646241
 30
0.0
  0
SEQEND
  5
7CE
330
7CB
100
AcDbEntity
  8
Livello 1
  0
SPLINE
  5
7CF
330
1F
100
AcDbEntity
  8
Livello 1
100
AcDbSpline
210
0.0
220
0.0
230
1.0
 70
     8
 71
     3
 72
    95
 73
    91
 74
     0
 42
0.000000001
 43
0.0000000001
 40
0.0
 40
0.0
 40
0.0
 40
0.0
 40
1.0
 40
1.0
 40
1.0
 40
2.0
 40
2.0
 40
2.0
 40
3.0
 40
3.0
 40
3.0
 40
4.0
 40
4.0
 40
4.0
 40
5.0
 40
5.0
 40
5.0
 40
6.0
 40
6.0
 40
6.0
 40
7.0
 40
7.0
 40
7.0
 40
8.0
 40
8.0
 40
8.0
 40
9.0
 40
9.0
 40
9.0
 40
10.0
 40
10.0
 40
10.0
 40
11.0
 40
11.0
 40
11.0
 40
12.0
 40
12.0
 40
12.0
 40
13.0
 40
13.0
 40
13.0
 40
14.0
 40
14.0
 40
14.0
 40
15.0
 40
15.0
 40
15.0
 40
16.0
 40
16.0
 40
16.0
 40
17.0
 40
17.0
 40
17.0
 40
18.0
 40
18.0
 40
18.0
 40
19.0
 40
19.0
 40
19.0
 40
20.0
 40
20.0
 40
20.0
 40
21.0
 40
21.0
 40
21.0
 40
22.0
 40
22.0
 40
22.0
 40
23.0
 40
23.0
 40
23.0
 40
24.0
 40
24.0
 40
24.0
 40
25.0
 40
25.0
 40
25.0
 40
26.0
 40
26.0
 40
26.0
 40
27.0
 40
27.0
 40
27.0
 40
28.0
 40
28.0
 40
28.0
 40
29.0
 40
29.0
 40
29.0
 40
30.0
 40
30.0
 40
30.0
 40
30.0
 10
3.269191148722207
 20
9.413592154494608
 30
0.0
 10
3.269191148722207
 20
9.413592154494608
 30
0.0
 10
3.024363284878269
 20
9.413592154494608
 30
0.0
 10
3.024363284878269
 20
9.413592154494608
 30
0.0
 10
3.024363284878269
 20
9.413592154494608
 30
0.0
 10
3.016601726983267
 20
9.411121375076305
 30
0.0
 10
3.016601726983267
 20
9.411121375076305
 30
0.0
 10
3.016601726983267
 20
9.411121375076305
 30
0.0
 10
3.00884084195848
 20
9.411121375076305
 30
0.0
 10
3.00884084195848
 20
9.411121375076305
 30
0.0
 10
2.979912805805774
 20
9.412885640772074
 30
0.0
 10
2.971799336789928
 20
9.407594189425211
 30
0.0
 10
2.946751743149611
 20
9.405829923729427
 30
0.0
 10
2.946751743149611
 20
9.405829923729427
 30
0.0
 10
2.941812875793807
 20
9.403360490051525
 30
0.0
 10
2.941812875793807
 20
9.403360490051525
 30
0.0
 10
2.941812875793807
 20
9.403360490051525
 30
0.0
 10
2.931229973100059
 20
9.403360490051525
 30
0.0
 10
2.931229973100059
 20
9.403360490051525
 30
0.0
 10
2.931229973100059
 20
9.403360490051525
 30
0.0
 10
2.92629110574424
 20
9.40053847238255
 30
0.0
 10
2.92629110574424
 20
9.40053847238255
 30
0.0
 10
2.92629110574424
 20
9.40053847238255
 30
0.0
 10
2.920998981527162
 20
9.40053847238255
 30
0.0
 10
2.920998981527162
 20
9.40053847238255
 30
0.0
 10
2.920998981527162
 20
9.40053847238255
 30
0.0
 10
2.915707530180277
 20
9.398069038704647
 30
0.0
 10
2.915707530180277
 20
9.398069038704647
 30
0.0
 10
2.915707530180277
 20
9.398069038704647
 30
0.0
 10
2.910768662824466
 20
9.398069038704647
 30
0.0
 10
2.910768662824466
 20
9.398069038704647
 30
0.0
 10
2.910768662824466
 20
9.398069038704647
 30
0.0
 10
2.900538344121777
 20
9.393130171348857
 30
0.0
 10
2.900538344121777
 20
9.393130171348857
 30
0.0
 10
2.89242420223573
 20
9.39277758735777
 30
0.0
 10
2.883957476358595
 20
9.389602985697734
 30
0.0
 10
2.877255016177237
 20
9.385369286324063
 30
0.0
 10
2.877255016177237
 20
9.385369286324063
 30
0.0
 10
2.871962891960144
 20
9.385369286324063
 30
0.0
 10
2.871962891960144
 20
9.385369286324063
 30
0.0
 10
2.871962891960144
 20
9.385369286324063
 30
0.0
 10
2.856441121910592
 20
9.377608401299283
 30
0.0
 10
2.856441121910592
 20
9.377608401299283
 30
0.0
 10
2.856441121910592
 20
9.377608401299283
 30
0.0
 10
2.85150225455478
 20
9.377608401299283
 30
0.0
 10
2.85150225455478
 20
9.377608401299283
 30
0.0
 10
2.85150225455478
 20
9.377608401299283
 30
0.0
 10
2.849032820876878
 20
9.374786383630294
 30
0.0
 10
2.849032820876878
 20
9.374786383630294
 30
0.0
 10
2.849032820876878
 20
9.374786383630294
 30
0.0
 10
2.843740696659786
 20
9.372316949952391
 30
0.0
 10
2.843740696659786
 20
9.372316949952391
 30
0.0
 10
2.843740696659786
 20
9.372316949952391
 30
0.0
 10
2.828218926610233
 20
9.364554719187211
 30
0.0
 10
2.828218926610233
 20
9.364554719187211
 30
0.0
 10
2.828218926610233
 20
9.364554719187211
 30
0.0
 10
2.825749492932317
 20
9.362085285509309
 30
0.0
 10
2.825749492932317
 20
9.362085285509309
 30
0.0
 10
2.825749492932317
 20
9.362085285509309
 30
0.0
 10
2.820457368715246
 20
9.359263267840319
 30
0.0
 10
2.820457368715246
 20
9.359263267840319
 30
0.0
 10
2.820457368715246
 20
9.359263267840319
 30
0.0
 10
2.815165917368361
 20
9.356793834162431
 30
0.0
 10
2.815165917368361
 20
9.356793834162431
 30
0.0
 10
2.815165917368361
 20
9.356793834162431
 30
0.0
 10
2.810227050012564
 20
9.3543244004845
 30
0.0
 10
2.810227050012564
 20
9.3543244004845
 30
0.0
 10
2.810227050012564
 20
9.3543244004845
 30
0.0
 10
2.807757616334662
 20
9.351854966806612
 30
0.0
 10
2.807757616334662
 20
9.351854966806612
 30
0.0
 10
2.807757616334662
 20
9.351854966806612
 30
0.0
 10
2.797174040770698
 20
9.346563515459735
 30
0.0
 10
2.797174040770698
 20
9.346563515459735
 30
0.0
 10
2.797174040770698
 20
9.346563515459735
 30
0.0
 10
2.794704607092775
 20
9.344094081781832
 30
0.0
 10
2.794704607092775
 20
9.344094081781832
 30
0.0
 10
2.794704607092775
 20
9.344094081781832
 30
0.0
 10
2.789413155745911
 20
9.341272064112871
 30
0.0
 10
2.789413155745911
 20
9.341272064112871
 30
0.0
 10
2.770362854304813
 20
9.329277479714392
 30
0.0
 10
2.753782659411847
 20
9.315872559351689
 30
0.0
 10
2.737907632500999
 20
9.299996859570654
 30
0.0
 10
2.737907632500999
 20
9.299996859570654
 30
0.0
 10
2.732968765145194
 20
9.297527425892724
 30
0.0
 10
2.732968765145194
 20
9.297527425892724
 30
0.0
 10
2.732968765145194
 20
9.297527425892724
 30
0.0
 10
2.730146074606011
 20
9.29223597454586
 30
0.0
 10
2.730146074606011
 20
9.29223597454586
 30
0.0
 10
2.730146074606011
 20
9.29223597454586
 30
0.0
 10
2.7252072072502
 20
9.289766540867944
 30
0.0
 10
2.7252072072502
 20
9.289766540867944
 30
0.0
  0
POLYLINE
  5
7D0
330
1F
100
AcDbEntity
  8
Livello 1
100
AcDb2dPolyline
 66
     1
 10
0.0
 20
0.0
 30
0.0
  0
VERTEX
  5
7D1
330
7D0
100
AcDbEntity
  8
Livello 1
100
AcDbVertex
100
AcDb2dVertex
 10
2.727642324547304
 20
9.289802875859393
 30
0.0
  0
VERTEX
  5
7D2
330
7D0
100
AcDbEntity
  8
Livello 1
100
AcDbVertex
100
AcDb2dVertex
 10
2.699419456376716
 20
9.26158000768882
 30
0.0
  0
SEQEND
  5
7D3
330
7D0
100
AcDbEntity
  8
Livello 1
  0
POLYLINE
  5
7D4
330
1F
100
AcDbEntity
  8
Livello 1
100
AcDb2dPolyline
 66
     1
 10
0.0
 20
0.0
 30
0.0
  0
VERTEX
  5
7D5
330
7D4
100
AcDbEntity
  8
Livello 1
100
AcDbVertex
100
AcDb2dVertex
 10
3.269191148722207
 20
9.26144005068474
 30
0.0
  0
VERTEX
  5
7D6
330
7D4
100
AcDbEntity
  8
Livello 1
100
AcDbVertex
100
AcDb2dVertex
 10
3.269191148722207
 20
9.413487186741562
 30
0.0
  0
SEQEND
  5
7D7
330
7D4
100
AcDbEntity
  8
Livello 1
  0
POLYLINE
  5
7D8
330
1F
100
AcDbEntity
  8
Livello 1
100
AcDb2dPolyline
 66
     1
 10
0.0
 20
0.0
 30
0.0
  0
VERTEX
  5
7D9
330
7D8
100
AcDbEntity
  8
Livello 1
100
AcDbVertex
100
AcDb2dVertex
 10
4.197455305467485
 20
7.783900501120584
 30
0.0
  0
VERTEX
  5
7DA
330
7D8
100
AcDbEntity
  8
Livello 1
100
AcDbVertex
100
AcDb2dVertex
 10
4.197455305467485
 20
8.990752438854627
 30
0.0
  0
SEQEND
  5
7DB
330
7D8
100
AcDbEntity
  8
Livello 1
  0
POLYLINE
  5
7DC
330
1F
100
AcDbEntity
  8
Livello 1
100
AcDb2dPolyline
 66
     1
 10
0.0
 20
0.0
 30
0.0
  0
VERTEX
  5
7DD
330
7DC
100
AcDbEntity
  8
Livello 1
100
AcDbVertex
100
AcDb2dVertex
 10
7.758571109885224
 20
4.214953833176011
 30
0.0
  0
VERTEX
  5
7DE
330
7DC
100
AcDbEntity
  8
Livello 1
100
AcDbVertex
100
AcDb2dVertex
 10
8.965423047619268
 20
4.214953833176011
 30
0.0
  0
SEQEND
  5
7DF
330
7DC
100
AcDbEntity
  8
Livello 1
  0
POLYLINE
  5
7E0
330
1F
100
AcDbEntity
  8
Livello 1
100
AcDb2dPolyline
 66
     1
 10
0.0
 20
0.0
 30
0.0
  0
VERTEX
  5
7E1
330
7E0
100
AcDbEntity
  8
Livello 1
100
AcDbVertex
100
AcDb2dVertex
 10
9.834385133973611
 20
9.601729357240287
 30
0.0
  0
VERTEX
  5
7E2
330
7E0
100
AcDbEntity
  8
Livello 1
100
AcDbVertex
100
AcDb2dVertex
 10
9.83191435455528
 20
9.607020808587165
 30
0.0
  0
VERTEX
  5
7E3
330
7E0
100
AcDbEntity
  8
Livello 1
100
AcDbVertex
100
AcDb2dVertex
 10
9.83191435455528
 20
9.637711764695211
 30
0.0
  0
VERTEX
  5
7E4
330
7E0
100
AcDbEntity
  8
Livello 1
100
AcDbVertex
100
AcDb2dVertex
 10
9.829092336886319
 20
9.640533782364187
 30
0.0
  0
VERTEX
  5
7E5
330
7E0
100
AcDbEntity
  8
Livello 1
100
AcDbVertex
100
AcDb2dVertex
 10
9.829092336886319
 20
9.650765446807298
 30
0.0
  0
VERTEX
  5
7E6
330
7E0
100
AcDbEntity
  8
Livello 1
100
AcDbVertex
100
AcDb2dVertex
 10
9.826622903208388
 20
9.655704314163102
 30
0.0
  0
VERTEX
  5
7E7
330
7E0
100
AcDbEntity
  8
Livello 1
100
AcDbVertex
100
AcDb2dVertex
 10
9.826622903208388
 20
9.663465199187882
 30
0.0
  0
VERTEX
  5
7E8
330
7E0
100
AcDbEntity
  8
Livello 1
100
AcDbVertex
100
AcDb2dVertex
 10
9.8241534695305
 20
9.666287216856858
 30
0.0
  0
VERTEX
  5
7E9
330
7E0
100
AcDbEntity
  8
Livello 1
100
AcDbVertex
100
AcDb2dVertex
 10
9.8241534695305
 20
9.674048101881652
 30
0.0
  0
VERTEX
  5
7EA
330
7E0
100
AcDbEntity
  8
Livello 1
100
AcDbVertex
100
AcDb2dVertex
 10
9.821331451861539
 20
9.67651753555954
 30
0.0
  0
VERTEX
  5
7EB
330
7E0
100
AcDbEntity
  8
Livello 1
100
AcDbVertex
100
AcDb2dVertex
 10
9.821331451861539
 20
9.681808986906432
 30
0.0
  0
VERTEX
  5
7EC
330
7E0
100
AcDbEntity
  8
Livello 1
100
AcDbVertex
100
AcDb2dVertex
 10
9.818862018183622
 20
9.68427842058432
 30
0.0
  0
VERTEX
  5
7ED
330
7E0
100
AcDbEntity
  8
Livello 1
100
AcDbVertex
100
AcDb2dVertex
 10
9.818862018183622
 20
9.686747854262222
 30
0.0
  0
VERTEX
  5
7EE
330
7E0
100
AcDbEntity
  8
Livello 1
100
AcDbVertex
100
AcDb2dVertex
 10
9.81639258450572
 20
9.689569871931212
 30
0.0
  0
VERTEX
  5
7EF
330
7E0
100
AcDbEntity
  8
Livello 1
100
AcDbVertex
100
AcDb2dVertex
 10
9.81639258450572
 20
9.696978172964904
 30
0.0
  0
VERTEX
  5
7F0
330
7E0
100
AcDbEntity
  8
Livello 1
100
AcDbVertex
100
AcDb2dVertex
 10
9.813923150827818
 20
9.699801536374309
 30
0.0
  0
VERTEX
  5
7F1
330
7E0
100
AcDbEntity
  8
Livello 1
100
AcDbVertex
100
AcDb2dVertex
 10
9.813923150827818
 20
9.702270970052211
 30
0.0
  0
VERTEX
  5
7F2
330
7E0
100
AcDbEntity
  8
Livello 1
100
AcDbVertex
100
AcDb2dVertex
 10
9.811101133158842
 20
9.704740403730113
 30
0.0
  0
VERTEX
  5
7F3
330
7E0
100
AcDbEntity
  8
Livello 1
100
AcDbVertex
100
AcDb2dVertex
 10
9.811101133158842
 20
9.707562421399074
 30
0.0
  0
VERTEX
  5
7F4
330
7E0
100
AcDbEntity
  8
Livello 1
100
AcDbVertex
100
AcDb2dVertex
 10
9.80863169948094
 20
9.710031855076991
 30
0.0
  0
VERTEX
  5
7F5
330
7E0
100
AcDbEntity
  8
Livello 1
100
AcDbVertex
100
AcDb2dVertex
 10
9.80863169948094
 20
9.712501288754893
 30
0.0
  0
VERTEX
  5
7F6
330
7E0
100
AcDbEntity
  8
Livello 1
100
AcDbVertex
100
AcDb2dVertex
 10
9.806162265803038
 20
9.715323306423854
 30
0.0
  0
VERTEX
  5
7F7
330
7E0
100
AcDbEntity
  8
Livello 1
100
AcDbVertex
100
AcDb2dVertex
 10
9.806162265803038
 20
9.717792740101771
 30
0.0
  0
VERTEX
  5
7F8
330
7E0
100
AcDbEntity
  8
Livello 1
100
AcDbVertex
100
AcDb2dVertex
 10
9.80087081445616
 20
9.723084191448634
 30
0.0
  0
VERTEX
  5
7F9
330
7E0
100
AcDbEntity
  8
Livello 1
100
AcDbVertex
100
AcDb2dVertex
 10
9.80087081445616
 20
9.725553625126551
 30
0.0
  0
VERTEX
  5
7FA
330
7E0
100
AcDbEntity
  8
Livello 1
100
AcDbVertex
100
AcDb2dVertex
 10
9.798401380778258
 20
9.728023058804453
 30
0.0
  0
VERTEX
  5
7FB
330
7E0
100
AcDbEntity
  8
Livello 1
100
AcDbVertex
100
AcDb2dVertex
 10
9.798401380778258
 20
9.730492492482355
 30
0.0
  0
VERTEX
  5
7FC
330
7E0
100
AcDbEntity
  8
Livello 1
100
AcDbVertex
100
AcDb2dVertex
 10
9.795579363109311
 20
9.73331451015133
 30
0.0
  0
VERTEX
  5
7FD
330
7E0
100
AcDbEntity
  8
Livello 1
100
AcDbVertex
100
AcDb2dVertex
 10
9.793109929431381
 20
9.735783943829247
 30
0.0
  0
VERTEX
  5
7FE
330
7E0
100
AcDbEntity
  8
Livello 1
100
AcDbVertex
100
AcDb2dVertex
 10
9.793109929431381
 20
9.73825337750712
 30
0.0
  0
VERTEX
  5
7FF
330
7E0
100
AcDbEntity
  8
Livello 1
100
AcDbVertex
100
AcDb2dVertex
 10
9.787817132344088
 20
9.743544828853998
 30
0.0
  0
VERTEX
  5
800
330
7E0
100
AcDbEntity
  8
Livello 1
100
AcDbVertex
100
AcDb2dVertex
 10
9.787817132344088
 20
9.746014262531915
 30
0.0
  0
VERTEX
  5
801
330
7E0
100
AcDbEntity
  8
Livello 1
100
AcDbVertex
100
AcDb2dVertex
 10
9.782878264988283
 20
9.751307059619207
 30
0.0
  0
VERTEX
  5
802
330
7E0
100
AcDbEntity
  8
Livello 1
100
AcDbVertex
100
AcDb2dVertex
 10
9.782878264988283
 20
9.75377649329711
 30
0.0
  0
VERTEX
  5
803
330
7E0
100
AcDbEntity
  8
Livello 1
100
AcDbVertex
100
AcDb2dVertex
 10
9.775117379963504
 20
9.761537378321904
 30
0.0
  0
VERTEX
  5
804
330
7E0
100
AcDbEntity
  8
Livello 1
100
AcDbVertex
100
AcDb2dVertex
 10
9.775117379963504
 20
9.764006811999777
 30
0.0
  0
VERTEX
  5
805
330
7E0
100
AcDbEntity
  8
Livello 1
100
AcDbVertex
100
AcDb2dVertex
 10
9.767356494938724
 20
9.771767697024571
 30
0.0
  0
VERTEX
  5
806
330
7E0
100
AcDbEntity
  8
Livello 1
100
AcDbVertex
100
AcDb2dVertex
 10
9.767356494938724
 20
9.774589714693547
 30
0.0
  0
VERTEX
  5
807
330
7E0
100
AcDbEntity
  8
Livello 1
100
AcDbVertex
100
AcDb2dVertex
 10
9.764887061260822
 20
9.774589714693547
 30
0.0
  0
VERTEX
  5
808
330
7E0
100
AcDbEntity
  8
Livello 1
100
AcDbVertex
100
AcDb2dVertex
 10
9.754304158567066
 20
9.784820033396243
 30
0.0
  0
VERTEX
  5
809
330
7E0
100
AcDbEntity
  8
Livello 1
100
AcDbVertex
100
AcDb2dVertex
 10
9.754304158567066
 20
9.787289467074131
 30
0.0
  0
VERTEX
  5
80A
330
7E0
100
AcDbEntity
  8
Livello 1
100
AcDbVertex
100
AcDb2dVertex
 10
9.751834724889164
 20
9.787289467074131
 30
0.0
  0
VERTEX
  5
80B
330
7E0
100
AcDbEntity
  8
Livello 1
100
AcDbVertex
100
AcDb2dVertex
 10
9.744073839864384
 20
9.795050352098911
 30
0.0
  0
VERTEX
  5
80C
330
7E0
100
AcDbEntity
  8
Livello 1
100
AcDbVertex
100
AcDb2dVertex
 10
9.741604406186482
 20
9.795050352098911
 30
0.0
  0
VERTEX
  5
80D
330
7E0
100
AcDbEntity
  8
Livello 1
100
AcDbVertex
100
AcDb2dVertex
 10
9.733842175421273
 20
9.80281258286412
 30
0.0
  0
VERTEX
  5
80E
330
7E0
100
AcDbEntity
  8
Livello 1
100
AcDbVertex
100
AcDb2dVertex
 10
9.731372741743371
 20
9.80281258286412
 30
0.0
  0
VERTEX
  5
80F
330
7E0
100
AcDbEntity
  8
Livello 1
100
AcDbVertex
100
AcDb2dVertex
 10
9.728550724074395
 20
9.805282016542022
 30
0.0
  0
VERTEX
  5
810
330
7E0
100
AcDbEntity
  8
Livello 1
100
AcDbVertex
100
AcDb2dVertex
 10
9.726081290396493
 20
9.808104034211012
 30
0.0
  0
VERTEX
  5
811
330
7E0
100
AcDbEntity
  8
Livello 1
100
AcDbVertex
100
AcDb2dVertex
 10
9.723611856718591
 20
9.808104034211012
 30
0.0
  0
VERTEX
  5
812
330
7E0
100
AcDbEntity
  8
Livello 1
100
AcDbVertex
100
AcDb2dVertex
 10
9.718320405371713
 20
9.813042901566802
 30
0.0
  0
VERTEX
  5
813
330
7E0
100
AcDbEntity
  8
Livello 1
100
AcDbVertex
100
AcDb2dVertex
 10
9.715850971693811
 20
9.813042901566802
 30
0.0
  0
VERTEX
  5
814
330
7E0
100
AcDbEntity
  8
Livello 1
100
AcDbVertex
100
AcDb2dVertex
 10
9.710559520346933
 20
9.81833435291368
 30
0.0
  0
VERTEX
  5
815
330
7E0
100
AcDbEntity
  8
Livello 1
100
AcDbVertex
100
AcDb2dVertex
 10
9.708090086669031
 20
9.81833435291368
 30
0.0
  0
VERTEX
  5
816
330
7E0
100
AcDbEntity
  8
Livello 1
100
AcDbVertex
100
AcDb2dVertex
 10
9.705620652991129
 20
9.820803786591582
 30
0.0
  0
VERTEX
  5
817
330
7E0
100
AcDbEntity
  8
Livello 1
100
AcDbVertex
100
AcDb2dVertex
 10
9.702798635322139
 20
9.820803786591582
 30
0.0
  0
VERTEX
  5
818
330
7E0
100
AcDbEntity
  8
Livello 1
100
AcDbVertex
100
AcDb2dVertex
 10
9.697859767966349
 20
9.82609523793846
 30
0.0
  0
VERTEX
  5
819
330
7E0
100
AcDbEntity
  8
Livello 1
100
AcDbVertex
100
AcDb2dVertex
 10
9.695037750297373
 20
9.82609523793846
 30
0.0
  0
VERTEX
  5
81A
330
7E0
100
AcDbEntity
  8
Livello 1
100
AcDbVertex
100
AcDb2dVertex
 10
9.692568316619471
 20
9.828564671616362
 30
0.0
  0
VERTEX
  5
81B
330
7E0
100
AcDbEntity
  8
Livello 1
100
AcDbVertex
100
AcDb2dVertex
 10
9.690098882941569
 20
9.828564671616362
 30
0.0
  0
VERTEX
  5
81C
330
7E0
100
AcDbEntity
  8
Livello 1
100
AcDbVertex
100
AcDb2dVertex
 10
9.687275519532178
 20
9.831386689285352
 30
0.0
  0
VERTEX
  5
81D
330
7E0
100
AcDbEntity
  8
Livello 1
100
AcDbVertex
100
AcDb2dVertex
 10
9.684806085854262
 20
9.831386689285352
 30
0.0
  0
VERTEX
  5
81E
330
7E0
100
AcDbEntity
  8
Livello 1
100
AcDbVertex
100
AcDb2dVertex
 10
9.68233665217636
 20
9.83385612296324
 30
0.0
  0
VERTEX
  5
81F
330
7E0
100
AcDbEntity
  8
Livello 1
100
AcDbVertex
100
AcDb2dVertex
 10
9.679514634507398
 20
9.83385612296324
 30
0.0
  0
VERTEX
  5
820
330
7E0
100
AcDbEntity
  8
Livello 1
100
AcDbVertex
100
AcDb2dVertex
 10
9.677045200829482
 20
9.836325556641142
 30
0.0
  0
VERTEX
  5
821
330
7E0
100
AcDbEntity
  8
Livello 1
100
AcDbVertex
100
AcDb2dVertex
 10
9.669284315804716
 20
9.836325556641142
 30
0.0
  0
VERTEX
  5
822
330
7E0
100
AcDbEntity
  8
Livello 1
100
AcDbVertex
100
AcDb2dVertex
 10
9.6668148821268
 20
9.83879499031903
 30
0.0
  0
VERTEX
  5
823
330
7E0
100
AcDbEntity
  8
Livello 1
100
AcDbVertex
100
AcDb2dVertex
 10
9.664345448448898
 20
9.83879499031903
 30
0.0
  0
VERTEX
  5
824
330
7E0
100
AcDbEntity
  8
Livello 1
100
AcDbVertex
100
AcDb2dVertex
 10
9.661523430779951
 20
9.84161700798802
 30
0.0
  0
VERTEX
  5
825
330
7E0
100
AcDbEntity
  8
Livello 1
100
AcDbVertex
100
AcDb2dVertex
 10
9.656584563424118
 20
9.84161700798802
 30
0.0
  0
VERTEX
  5
826
330
7E0
100
AcDbEntity
  8
Livello 1
100
AcDbVertex
100
AcDb2dVertex
 10
9.653762545755157
 20
9.844086441665922
 30
0.0
  0
VERTEX
  5
827
330
7E0
100
AcDbEntity
  8
Livello 1
100
AcDbVertex
100
AcDb2dVertex
 10
9.646001660730391
 20
9.844086441665922
 30
0.0
  0
VERTEX
  5
828
330
7E0
100
AcDbEntity
  8
Livello 1
100
AcDbVertex
100
AcDb2dVertex
 10
9.64353222705246
 20
9.846555875343824
 30
0.0
  0
VERTEX
  5
829
330
7E0
100
AcDbEntity
  8
Livello 1
100
AcDbVertex
100
AcDb2dVertex
 10
9.63576999628728
 20
9.846555875343824
 30
0.0
  0
VERTEX
  5
82A
330
7E0
100
AcDbEntity
  8
Livello 1
100
AcDbVertex
100
AcDb2dVertex
 10
9.630831128931461
 20
9.849379238753201
 30
0.0
  0
VERTEX
  5
82B
330
7E0
100
AcDbEntity
  8
Livello 1
100
AcDbVertex
100
AcDb2dVertex
 10
9.620248226237706
 20
9.849379238753201
 30
0.0
  0
VERTEX
  5
82C
330
7E0
100
AcDbEntity
  8
Livello 1
100
AcDbVertex
100
AcDb2dVertex
 10
9.617778792559803
 20
9.851848672431131
 30
0.0
  0
VERTEX
  5
82D
330
7E0
100
AcDbEntity
  8
Livello 1
100
AcDbVertex
100
AcDb2dVertex
 10
9.584264473042352
 20
9.851848672431131
 30
0.0
  0
SEQEND
  5
82E
330
7E0
100
AcDbEntity
  8
Livello 1
  0
POLYLINE
  5
82F
330
1F
100
AcDbEntity
  8
Livello 1
100
AcDb2dPolyline
 66
     1
 10
0.0
 20
0.0
 30
0.0
  0
VERTEX
  5
830
330
82F
100
AcDbEntity
  8
Livello 1
100
AcDbVertex
100
AcDb2dVertex
 10
8.361997078752239
 20
9.854424419602523
 30
0.0
  0
VERTEX
  5
831
330
82F
100
AcDbEntity
  8
Livello 1
100
AcDbVertex
100
AcDb2dVertex
 10
4.187224986764803
 20
9.854424419602523
 30
0.0
  0
SEQEND
  5
832
330
82F
100
AcDbEntity
  8
Livello 1
  0
POLYLINE
  5
833
330
1F
100
AcDbEntity
  8
Livello 1
100
AcDb2dPolyline
 66
     1
 10
0.0
 20
0.0
 30
0.0
  0
VERTEX
  5
834
330
833
100
AcDbEntity
  8
Livello 1
100
AcDbVertex
100
AcDb2dVertex
 10
4.187154335392534
 20
9.782245631965267
 30
0.0
  0
VERTEX
  5
835
330
833
100
AcDbEntity
  8
Livello 1
100
AcDbVertex
100
AcDb2dVertex
 10
4.187154335392534
 20
9.797767402014827
 30
0.0
  0
VERTEX
  5
836
330
833
100
AcDbEntity
  8
Livello 1
100
AcDbVertex
100
AcDb2dVertex
 10
4.187154335392534
 20
9.851742358937642
 30
0.0
  0
VERTEX
  5
837
330
833
100
AcDbEntity
  8
Livello 1
100
AcDbVertex
100
AcDb2dVertex
 10
4.187154335392534
 20
9.854564376606603
 30
0.0
  0
SEQEND
  5
838
330
833
100
AcDbEntity
  8
Livello 1
  0
POLYLINE
  5
839
330
1F
100
AcDbEntity
  8
Livello 1
100
AcDb2dPolyline
 66
     1
 10
0.0
 20
0.0
 30
0.0
  0
VERTEX
  5
83A
330
839
100
AcDbEntity
  8
Livello 1
100
AcDbVertex
100
AcDb2dVertex
 10
9.584230829531762
 20
9.854424419602523
 30
0.0
  0
VERTEX
  5
83B
330
839
100
AcDbEntity
  8
Livello 1
100
AcDbVertex
100
AcDb2dVertex
 10
8.361855776007729
 20
9.854424419602523
 30
0.0
  0
SEQEND
  5
83C
330
839
100
AcDbEntity
  8
Livello 1
  0
POLYLINE
  5
83D
330
1F
100
AcDbEntity
  8
Livello 1
100
AcDb2dPolyline
 66
     1
 10
0.0
 20
0.0
 30
0.0
  0
VERTEX
  5
83E
330
83D
100
AcDbEntity
  8
Livello 1
100
AcDbVertex
100
AcDb2dVertex
 10
9.834385133973611
 20
9.601729357240287
 30
0.0
  0
VERTEX
  5
83F
330
83D
100
AcDbEntity
  8
Livello 1
100
AcDbVertex
100
AcDb2dVertex
 10
9.834385133973611
 20
4.207051645406721
 30
0.0
  0
SEQEND
  5
840
330
83D
100
AcDbEntity
  8
Livello 1
  0
POLYLINE
  5
841
330
1F
100
AcDbEntity
  8
Livello 1
100
AcDb2dPolyline
 66
     1
 10
0.0
 20
0.0
 30
0.0
  0
VERTEX
  5
842
330
841
100
AcDbEntity
  8
Livello 1
100
AcDbVertex
100
AcDb2dVertex
 10
6.886998287108468
 20
4.207192948151245
 30
0.0
  0
VERTEX
  5
843
330
841
100
AcDbEntity
  8
Livello 1
100
AcDbVertex
100
AcDb2dVertex
 10
6.886998287108468
 20
6.904531804068
 30
0.0
  0
SEQEND
  5
844
330
841
100
AcDbEntity
  8
Livello 1
  0
POLYLINE
  5
845
330
1F
100
AcDbEntity
  8
Livello 1
100
AcDb2dPolyline
 66
     1
 10
0.0
 20
0.0
 30
0.0
  0
VERTEX
  5
846
330
845
100
AcDbEntity
  8
Livello 1
100
AcDbVertex
100
AcDb2dVertex
 10
6.886998287108468
 20
4.207192948151245
 30
0.0
  0
VERTEX
  5
847
330
845
100
AcDbEntity
  8
Livello 1
100
AcDbVertex
100
AcDb2dVertex
 10
6.88946772078637
 20
4.207192948151245
 30
0.0
  0
VERTEX
  5
848
330
845
100
AcDbEntity
  8
Livello 1
100
AcDbVertex
100
AcDb2dVertex
 10
6.941325828022343
 20
4.207192948151245
 30
0.0
  0
VERTEX
  5
849
330
845
100
AcDbEntity
  8
Livello 1
100
AcDbVertex
100
AcDb2dVertex
 10
6.956495014080829
 20
4.207192948151245
 30
0.0
  0
SEQEND
  5
84A
330
845
100
AcDbEntity
  8
Livello 1
  0
POLYLINE
  5
84B
330
1F
100
AcDbEntity
  8
Livello 1
100
AcDb2dPolyline
 66
     1
 10
0.0
 20
0.0
 30
0.0
  0
VERTEX
  5
84C
330
84B
100
AcDbEntity
  8
Livello 1
100
AcDbVertex
100
AcDb2dVertex
 10
6.886998287108468
 20
4.207192948151245
 30
0.0
  0
VERTEX
  5
84D
330
84B
100
AcDbEntity
  8
Livello 1
100
AcDbVertex
100
AcDb2dVertex
 10
6.88946772078637
 20
4.207192948151245
 30
0.0
  0
SEQEND
  5
84E
330
84B
100
AcDbEntity
  8
Livello 1
  0
POLYLINE
  5
84F
330
1F
100
AcDbEntity
  8
Livello 1
100
AcDb2dPolyline
 66
     1
 10
0.0
 20
0.0
 30
0.0
  0
VERTEX
  5
850
330
84F
100
AcDbEntity
  8
Livello 1
100
AcDbVertex
100
AcDb2dVertex
 10
9.834385133973611
 20
4.207192948151245
 30
0.0
  0
VERTEX
  5
851
330
84F
100
AcDbEntity
  8
Livello 1
100
AcDbVertex
100
AcDb2dVertex
 10
9.836854567651514
 20
4.207192948151245
 30
0.0
  0
SEQEND
  5
852
330
84F
100
AcDbEntity
  8
Livello 1
  0
POLYLINE
  5
853
330
1F
100
AcDbEntity
  8
Livello 1
100
AcDb2dPolyline
 66
     1
 10
0.0
 20
0.0
 30
0.0
  0
VERTEX
  5
854
330
853
100
AcDbEntity
  8
Livello 1
100
AcDbVertex
100
AcDb2dVertex
 10
4.189765071814953
 20
9.854424419602523
 30
0.0
  0
VERTEX
  5
855
330
853
100
AcDbEntity
  8
Livello 1
100
AcDbVertex
100
AcDb2dVertex
 10
4.192234505492855
 20
9.854424419602523
 30
0.0
  0
SEQEND
  5
856
330
853
100
AcDbEntity
  8
Livello 1
  0
POLYLINE
  5
857
330
1F
100
AcDbEntity
  8
Livello 1
100
AcDb2dPolyline
 66
     1
 10
0.0
 20
0.0
 30
0.0
  0
VERTEX
  5
858
330
857
100
AcDbEntity
  8
Livello 1
100
AcDbVertex
100
AcDb2dVertex
 10
4.189765071814953
 20
6.904460479825544
 30
0.0
  0
VERTEX
  5
859
330
857
100
AcDbEntity
  8
Livello 1
100
AcDbVertex
100
AcDb2dVertex
 10
4.192234505492855
 20
6.904460479825544
 30
0.0
  0
VERTEX
  5
85A
330
857
100
AcDbEntity
  8
Livello 1
100
AcDbVertex
100
AcDb2dVertex
 10
6.8849864051747
 20
6.904460479825544
 30
0.0
  0
SEQEND
  5
85B
330
857
100
AcDbEntity
  8
Livello 1
  0
POLYLINE
  5
85C
330
1F
100
AcDbEntity
  8
Livello 1
100
AcDb2dPolyline
 66
     1
 10
0.0
 20
0.0
 30
0.0
  0
VERTEX
  5
85D
330
85C
100
AcDbEntity
  8
Livello 1
100
AcDbVertex
100
AcDb2dVertex
 10
7.46184880381385
 20
2.698009658258897
 30
0.0
  0
VERTEX
  5
85E
330
85C
100
AcDbEntity
  8
Livello 1
100
AcDbVertex
100
AcDb2dVertex
 10
7.420573599271619
 20
2.739283517060698
 30
0.0
  0
SEQEND
  5
85F
330
85C
100
AcDbEntity
  8
Livello 1
  0
POLYLINE
  5
860
330
1F
100
AcDbEntity
  8
Livello 1
100
AcDb2dPolyline
 66
     1
 10
0.0
 20
0.0
 30
0.0
  0
VERTEX
  5
861
330
860
100
AcDbEntity
  8
Livello 1
100
AcDbVertex
100
AcDb2dVertex
 10
7.29678432063639
 20
3.035829531136528
 30
0.0
  0
VERTEX
  5
862
330
860
100
AcDbEntity
  8
Livello 1
100
AcDbVertex
100
AcDb2dVertex
 10
7.29678432063639
 20
3.280656049240079
 30
0.0
  0
SEQEND
  5
863
330
860
100
AcDbEntity
  8
Livello 1
  0
SPLINE
  5
864
330
1F
100
AcDbEntity
  8
Livello 1
100
AcDbSpline
210
0.0
220
0.0
230
1.0
 70
     8
 71
     3
 72
   119
 73
   115
 74
     0
 42
0.000000001
 43
0.0000000001
 40
0.0
 40
0.0
 40
0.0
 40
0.0
 40
1.0
 40
1.0
 40
1.0
 40
2.0
 40
2.0
 40
2.0
 40
3.0
 40
3.0
 40
3.0
 40
4.0
 40
4.0
 40
4.0
 40
5.0
 40
5.0
 40
5.0
 40
6.0
 40
6.0
 40
6.0
 40
7.0
 40
7.0
 40
7.0
 40
8.0
 40
8.0
 40
8.0
 40
9.0
 40
9.0
 40
9.0
 40
10.0
 40
10.0
 40
10.0
 40
11.0
 40
11.0
 40
11.0
 40
12.0
 40
12.0
 40
12.0
 40
13.0
 40
13.0
 40
13.0
 40
14.0
 40
14.0
 40
14.0
 40
15.0
 40
15.0
 40
15.0
 40
16.0
 40
16.0
 40
16.0
 40
17.0
 40
17.0
 40
17.0
 40
18.0
 40
18.0
 40
18.0
 40
19.0
 40
19.0
 40
19.0
 40
20.0
 40
20.0
 40
20.0
 40
21.0
 40
21.0
 40
21.0
 40
22.0
 40
22.0
 40
22.0
 40
23.0
 40
23.0
 40
23.0
 40
24.0
 40
24.0
 40
24.0
 40
25.0
 40
25.0
 40
25.0
 40
26.0
 40
26.0
 40
26.0
 40
27.0
 40
27.0
 40
27.0
 40
28.0
 40
28.0
 40
28.0
 40
29.0
 40
29.0
 40
29.0
 40
30.0
 40
30.0
 40
30.0
 40
31.0
 40
31.0
 40
31.0
 40
32.0
 40
32.0
 40
32.0
 40
33.0
 40
33.0
 40
33.0
 40
34.0
 40
34.0
 40
34.0
 40
35.0
 40
35.0
 40
35.0
 40
36.0
 40
36.0
 40
36.0
 40
37.0
 40
37.0
 40
37.0
 40
38.0
 40
38.0
 40
38.0
 40
38.0
 10
7.420574945012049
 20
2.739283517060698
 30
0.0
 10
7.420574945012049
 20
2.739283517060698
 30
0.0
 10
7.415282147924742
 20
2.7417529507386
 30
0.0
 10
7.415282147924742
 20
2.7417529507386
 30
0.0
 10
7.415282147924742
 20
2.7417529507386
 30
0.0
 10
7.40505182922206
 20
2.752335853432356
 30
0.0
 10
7.40505182922206
 20
2.752335853432356
 30
0.0
 10
7.40505182922206
 20
2.752335853432356
 30
0.0
 10
7.402582395544158
 20
2.75727472078816
 30
0.0
 10
7.402582395544158
 20
2.75727472078816
 30
0.0
 10
7.402582395544158
 20
2.75727472078816
 30
0.0
 10
7.39729094419728
 20
2.759744154466062
 30
0.0
 10
7.39729094419728
 20
2.759744154466062
 30
0.0
 10
7.39729094419728
 20
2.759744154466062
 30
0.0
 10
7.394821510519378
 20
2.76503560581294
 30
0.0
 10
7.394821510519378
 20
2.76503560581294
 30
0.0
 10
7.394821510519378
 20
2.76503560581294
 30
0.0
 10
7.392352076841461
 20
2.767505039490856
 30
0.0
 10
7.392352076841461
 20
2.767505039490856
 30
0.0
 10
7.392352076841461
 20
2.767505039490856
 30
0.0
 10
7.3895300591725
 20
2.772796490837734
 30
0.0
 10
7.3895300591725
 20
2.772796490837734
 30
0.0
 10
7.3895300591725
 20
2.772796490837734
 30
0.0
 10
7.38459119181671
 20
2.775265924515608
 30
0.0
 10
7.38459119181671
 20
2.775265924515608
 30
0.0
 10
7.38459119181671
 20
2.775265924515608
 30
0.0
 10
7.379299740469818
 20
2.785850172949793
 30
0.0
 10
7.379299740469818
 20
2.785850172949793
 30
0.0
 10
7.379299740469818
 20
2.785850172949793
 30
0.0
 10
7.376830306791916
 20
2.788319606627709
 30
0.0
 10
7.376830306791916
 20
2.788319606627709
 30
0.0
 10
7.376830306791916
 20
2.788319606627709
 30
0.0
 10
7.374006943382511
 20
2.793611057974572
 30
0.0
 10
7.374006943382511
 20
2.793611057974572
 30
0.0
 10
7.374006943382511
 20
2.793611057974572
 30
0.0
 10
7.369068076026707
 20
2.796080491652475
 30
0.0
 10
7.369068076026707
 20
2.796080491652475
 30
0.0
 10
7.369068076026707
 20
2.796080491652475
 30
0.0
 10
7.363776624679829
 20
2.806310810355171
 30
0.0
 10
7.363776624679829
 20
2.806310810355171
 30
0.0
 10
7.363776624679829
 20
2.806310810355171
 30
0.0
 10
7.361307191001927
 20
2.808780244033073
 30
0.0
 10
7.361307191001927
 20
2.808780244033073
 30
0.0
 10
7.361307191001927
 20
2.808780244033073
 30
0.0
 10
7.353546305977147
 20
2.824302014082604
 30
0.0
 10
7.353546305977147
 20
2.824302014082604
 30
0.0
 10
7.353546305977147
 20
2.824302014082604
 30
0.0
 10
7.351076872299245
 20
2.827124031751594
 30
0.0
 10
7.351076872299245
 20
2.827124031751594
 30
0.0
 10
7.351076872299245
 20
2.827124031751594
 30
0.0
 10
7.345785420952367
 20
2.837355696194705
 30
0.0
 10
7.345785420952367
 20
2.837355696194705
 30
0.0
 10
7.342610819292332
 20
2.845116581219485
 30
0.0
 10
7.333790836553916
 20
2.851113200548496
 30
0.0
 10
7.335555102249699
 20
2.860638351269031
 30
0.0
 10
7.335555102249699
 20
2.860638351269031
 30
0.0
 10
7.332733084580709
 20
2.865577218624849
 30
0.0
 10
7.332733084580709
 20
2.865577218624849
 30
0.0
 10
7.332733084580709
 20
2.865577218624849
 30
0.0
 10
7.330263650902807
 20
2.868046652302766
 30
0.0
 10
7.330263650902807
 20
2.868046652302766
 30
0.0
 10
7.330263650902807
 20
2.868046652302766
 30
0.0
 10
7.325324783546989
 20
2.878629554996507
 30
0.0
 10
7.325324783546989
 20
2.878629554996507
 30
0.0
 10
7.325324783546989
 20
2.878629554996507
 30
0.0
 10
7.325324783546989
 20
2.883568422352311
 30
0.0
 10
7.325324783546989
 20
2.883568422352311
 30
0.0
 10
7.325324783546989
 20
2.883568422352311
 30
0.0
 10
7.322501420137612
 20
2.888861219439604
 30
0.0
 10
7.322501420137612
 20
2.888861219439604
 30
0.0
 10
7.322501420137612
 20
2.888861219439604
 30
0.0
 10
7.32003198645971
 20
2.894152670786496
 30
0.0
 10
7.32003198645971
 20
2.894152670786496
 30
0.0
 10
7.32003198645971
 20
2.894152670786496
 30
0.0
 10
7.32003198645971
 20
2.8990915381423
 30
0.0
 10
7.32003198645971
 20
2.8990915381423
 30
0.0
 10
7.32003198645971
 20
2.8990915381423
 30
0.0
 10
7.31756255278178
 20
2.901560971820202
 30
0.0
 10
7.31756255278178
 20
2.901560971820202
 30
0.0
 10
7.31756255278178
 20
2.901560971820202
 30
0.0
 10
7.314740535112818
 20
2.90685242316708
 30
0.0
 10
7.314740535112818
 20
2.90685242316708
 30
0.0
 10
7.314740535112818
 20
2.90685242316708
 30
0.0
 10
7.314740535112818
 20
2.912143874513958
 30
0.0
 10
7.314740535112818
 20
2.912143874513958
 30
0.0
 10
7.314740535112818
 20
2.912143874513958
 30
0.0
 10
7.31227110143493
 20
2.917082741869762
 30
0.0
 10
7.31227110143493
 20
2.917082741869762
 30
0.0
 10
7.31227110143493
 20
2.917082741869762
 30
0.0
 10
7.31227110143493
 20
2.922374193216654
 30
0.0
 10
7.31227110143493
 20
2.922374193216654
 30
0.0
 10
7.31227110143493
 20
2.922374193216654
 30
0.0
 10
7.309801667757014
 20
2.927665644563504
 30
0.0
 10
7.309801667757014
 20
2.927665644563504
 30
0.0
 10
7.309801667757014
 20
2.927665644563504
 30
0.0
 10
7.309801667757014
 20
2.932604511919308
 30
0.0
 10
7.309801667757014
 20
2.932604511919308
 30
0.0
 10
7.309801667757014
 20
2.932604511919308
 30
0.0
 10
7.306979650088052
 20
2.937897309006615
 30
0.0
 10
7.306979650088052
 20
2.937897309006615
 30
0.0
 10
7.306979650088052
 20
2.937897309006615
 30
0.0
 10
7.306979650088052
 20
2.942836176362419
 30
0.0
 10
7.306979650088052
 20
2.942836176362419
 30
0.0
 10
7.306979650088052
 20
2.942836176362419
 30
0.0
 10
7.30451021641015
 20
2.948127627709297
 30
0.0
 10
7.30451021641015
 20
2.948127627709297
 30
0.0
 10
7.30451021641015
 20
2.948127627709297
 30
0.0
 10
7.30451021641015
 20
2.953419079056175
 30
0.0
 10
7.30451021641015
 20
2.953419079056175
 30
0.0
 10
7.301335614750101
 20
2.973174548479391
 30
0.0
 10
7.296044163403223
 20
2.999985734945283
 30
0.0
 10
7.29674933138537
 20
3.020446372350633
 30
0.0
 10
7.29674933138537
 20
3.020446372350633
 30
0.0
 10
7.29674933138537
 20
3.035969488140608
 30
0.0
 10
7.29674933138537
 20
3.035969488140608
 30
0.0
  0
POLYLINE
  5
865
330
1F
100
AcDbEntity
  8
Livello 1
100
AcDb2dPolyline
 66
     1
 10
0.0
 20
0.0
 30
0.0
  0
VERTEX
  5
866
330
865
100
AcDbEntity
  8
Livello 1
100
AcDbVertex
100
AcDb2dVertex
 10
7.29678432063639
 20
3.280797351984602
 30
0.0
  0
VERTEX
  5
867
330
865
100
AcDbEntity
  8
Livello 1
100
AcDbVertex
100
AcDb2dVertex
 10
7.46188379306487
 20
3.280797351984602
 30
0.0
  0
SEQEND
  5
868
330
865
100
AcDbEntity
  8
Livello 1
  0
SPLINE
  5
869
330
1F
100
AcDbEntity
  8
Livello 1
100
AcDbSpline
210
0.0
220
0.0
230
1.0
 70
     8
 71
     3
 72
    14
 73
    10
 74
     0
 42
0.000000001
 43
0.0000000001
 40
0.0
 40
0.0
 40
0.0
 40
0.0
 40
1.0
 40
1.0
 40
1.0
 40
2.0
 40
2.0
 40
2.0
 40
3.0
 40
3.0
 40
3.0
 40
3.0
 10
7.745482438522117
 20
4.087882293646828
 30
0.0
 10
7.745482438522117
 20
4.087882293646828
 30
0.0
 10
7.747951872200019
 20
4.080120062881604
 30
0.0
 10
7.747951872200019
 20
4.080120062881604
 30
0.0
 10
7.975139770567167
 20
3.578471096535679
 30
0.0
 10
8.683871273346795
 20
3.578471096535679
 30
0.0
 10
8.911059171713944
 20
4.080120062881604
 30
0.0
 10
8.911059171713944
 20
4.080120062881604
 30
0.0
 10
8.916350623060807
 20
4.087882293646828
 30
0.0
 10
8.916350623060807
 20
4.087882293646828
 30
0.0
  0
POLYLINE
  5
86A
330
1F
100
AcDbEntity
  8
Livello 1
100
AcDb2dPolyline
 66
     1
 10
0.0
 20
0.0
 30
0.0
  0
VERTEX
  5
86B
330
86A
100
AcDbEntity
  8
Livello 1
100
AcDbVertex
100
AcDb2dVertex
 10
7.599361943292265
 20
2.092042931471496
 30
0.0
  0
VERTEX
  5
86C
330
86A
100
AcDbEntity
  8
Livello 1
100
AcDbVertex
100
AcDb2dVertex
 10
7.503052684113598
 20
2.092042931471496
 30
0.0
  0
VERTEX
  5
86D
330
86A
100
AcDbEntity
  8
Livello 1
100
AcDbVertex
100
AcDb2dVertex
 10
7.464246913249283
 20
2.092042931471496
 30
0.0
  0
VERTEX
  5
86E
330
86A
100
AcDbEntity
  8
Livello 1
100
AcDbVertex
100
AcDb2dVertex
 10
7.461777479571381
 20
2.092042931471496
 30
0.0
  0
VERTEX
  5
86F
330
86A
100
AcDbEntity
  8
Livello 1
100
AcDbVertex
100
AcDb2dVertex
 10
7.461777479571381
 20
4.198831862897378
 30
0.0
  0
SEQEND
  5
870
330
86A
100
AcDbEntity
  8
Livello 1
  0
POLYLINE
  5
871
330
1F
100
AcDbEntity
  8
Livello 1
100
AcDb2dPolyline
 66
     1
 10
0.0
 20
0.0
 30
0.0
  0
VERTEX
  5
872
330
871
100
AcDbEntity
  8
Livello 1
100
AcDbVertex
100
AcDb2dVertex
 10
9.150843200449017
 20
2.092042931471496
 30
0.0
  0
VERTEX
  5
873
330
871
100
AcDbEntity
  8
Livello 1
100
AcDbVertex
100
AcDb2dVertex
 10
9.1483724210307
 20
2.094512365149384
 30
0.0
  0
VERTEX
  5
874
330
871
100
AcDbEntity
  8
Livello 1
100
AcDbVertex
100
AcDb2dVertex
 10
9.1483724210307
 20
2.09733438281836
 30
0.0
  0
VERTEX
  5
875
330
871
100
AcDbEntity
  8
Livello 1
100
AcDbVertex
100
AcDb2dVertex
 10
9.14555040336171
 20
2.099803816496276
 30
0.0
  0
SEQEND
  5
876
330
871
100
AcDbEntity
  8
Livello 1
  0
POLYLINE
  5
877
330
1F
100
AcDbEntity
  8
Livello 1
100
AcDb2dPolyline
 66
     1
 10
0.0
 20
0.0
 30
0.0
  0
VERTEX
  5
878
330
877
100
AcDbEntity
  8
Livello 1
100
AcDbVertex
100
AcDb2dVertex
 10
9.150843200449017
 20
2.092042931471496
 30
0.0
  0
VERTEX
  5
879
330
877
100
AcDbEntity
  8
Livello 1
100
AcDbVertex
100
AcDb2dVertex
 10
9.1483724210307
 20
2.092042931471496
 30
0.0
  0
SEQEND
  5
87A
330
877
100
AcDbEntity
  8
Livello 1
  0
POLYLINE
  5
87B
330
1F
100
AcDbEntity
  8
Livello 1
100
AcDb2dPolyline
 66
     1
 10
0.0
 20
0.0
 30
0.0
  0
VERTEX
  5
87C
330
87B
100
AcDbEntity
  8
Livello 1
100
AcDbVertex
100
AcDb2dVertex
 10
9.204994449367376
 20
2.092042931471496
 30
0.0
  0
VERTEX
  5
87D
330
87B
100
AcDbEntity
  8
Livello 1
100
AcDbVertex
100
AcDb2dVertex
 10
9.199701652280069
 20
2.092042931471496
 30
0.0
  0
VERTEX
  5
87E
330
87B
100
AcDbEntity
  8
Livello 1
100
AcDbVertex
100
AcDb2dVertex
 10
9.161249811147229
 20
2.092042931471496
 30
0.0
  0
VERTEX
  5
87F
330
87B
100
AcDbEntity
  8
Livello 1
100
AcDbVertex
100
AcDb2dVertex
 10
9.150665562713058
 20
2.092042931471496
 30
0.0
  0
SEQEND
  5
880
330
87B
100
AcDbEntity
  8
Livello 1
  0
POLYLINE
  5
881
330
1F
100
AcDbEntity
  8
Livello 1
100
AcDb2dPolyline
 66
     1
 10
0.0
 20
0.0
 30
0.0
  0
VERTEX
  5
882
330
881
100
AcDbEntity
  8
Livello 1
100
AcDbVertex
100
AcDb2dVertex
 10
9.204994449367376
 20
4.198796873646358
 30
0.0
  0
VERTEX
  5
883
330
881
100
AcDbEntity
  8
Livello 1
100
AcDbVertex
100
AcDb2dVertex
 10
9.204994449367376
 20
2.092007942220476
 30
0.0
  0
SEQEND
  5
884
330
881
100
AcDbEntity
  8
Livello 1
  0
POLYLINE
  5
885
330
1F
100
AcDbEntity
  8
Livello 1
100
AcDb2dPolyline
 66
     1
 10
0.0
 20
0.0
 30
0.0
  0
VERTEX
  5
886
330
885
100
AcDbEntity
  8
Livello 1
100
AcDbVertex
100
AcDb2dVertex
 10
7.745482438522117
 20
2.092042931471496
 30
0.0
  0
VERTEX
  5
887
330
885
100
AcDbEntity
  8
Livello 1
100
AcDbVertex
100
AcDb2dVertex
 10
7.761004208571677
 20
2.092042931471496
 30
0.0
  0
SEQEND
  5
888
330
885
100
AcDbEntity
  8
Livello 1
  0
POLYLINE
  5
889
330
1F
100
AcDbEntity
  8
Livello 1
100
AcDb2dPolyline
 66
     1
 10
0.0
 20
0.0
 30
0.0
  0
VERTEX
  5
88A
330
889
100
AcDbEntity
  8
Livello 1
100
AcDbVertex
100
AcDb2dVertex
 10
8.918751423977099
 20
2.092042931471496
 30
0.0
  0
VERTEX
  5
88B
330
889
100
AcDbEntity
  8
Livello 1
100
AcDbVertex
100
AcDb2dVertex
 10
8.900758874509207
 20
2.092042931471496
 30
0.0
  0
SEQEND
  5
88C
330
889
100
AcDbEntity
  8
Livello 1
  0
POLYLINE
  5
88D
330
1F
100
AcDbEntity
  8
Livello 1
100
AcDb2dPolyline
 66
     1
 10
0.0
 20
0.0
 30
0.0
  0
VERTEX
  5
88E
330
88D
100
AcDbEntity
  8
Livello 1
100
AcDbVertex
100
AcDb2dVertex
 10
7.760969219320656
 20
2.092042931471496
 30
0.0
  0
VERTEX
  5
88F
330
88D
100
AcDbEntity
  8
Livello 1
100
AcDbVertex
100
AcDb2dVertex
 10
8.900793863760242
 20
2.092042931471496
 30
0.0
  0
SEQEND
  5
890
330
88D
100
AcDbEntity
  8
Livello 1
  0
POLYLINE
  5
891
330
1F
100
AcDbEntity
  8
Livello 1
100
AcDb2dPolyline
 66
     1
 10
0.0
 20
0.0
 30
0.0
  0
VERTEX
  5
892
330
891
100
AcDbEntity
  8
Livello 1
100
AcDbVertex
100
AcDb2dVertex
 10
7.742908037091169
 20
2.092042931471496
 30
0.0
  0
VERTEX
  5
893
330
891
100
AcDbEntity
  8
Livello 1
100
AcDbVertex
100
AcDb2dVertex
 10
7.634604193514036
 20
2.092042931471496
 30
0.0
  0
SEQEND
  5
894
330
891
100
AcDbEntity
  8
Livello 1
  0
POLYLINE
  5
895
330
1F
100
AcDbEntity
  8
Livello 1
100
AcDb2dPolyline
 66
     1
 10
0.0
 20
0.0
 30
0.0
  0
VERTEX
  5
896
330
895
100
AcDbEntity
  8
Livello 1
100
AcDbVertex
100
AcDb2dVertex
 10
9.027053921813788
 20
2.092042931471496
 30
0.0
  0
VERTEX
  5
897
330
895
100
AcDbEntity
  8
Livello 1
100
AcDbVertex
100
AcDb2dVertex
 10
8.918750078236669
 20
2.092042931471496
 30
0.0
  0
SEQEND
  5
898
330
895
100
AcDbEntity
  8
Livello 1
  0
POLYLINE
  5
899
330
1F
100
AcDbEntity
  8
Livello 1
100
AcDb2dPolyline
 66
     1
 10
0.0
 20
0.0
 30
0.0
  0
VERTEX
  5
89A
330
899
100
AcDbEntity
  8
Livello 1
100
AcDbVertex
100
AcDb2dVertex
 10
9.148268799018069
 20
2.092042931471496
 30
0.0
  0
VERTEX
  5
89B
330
899
100
AcDbEntity
  8
Livello 1
100
AcDbVertex
100
AcDb2dVertex
 10
9.026912619069278
 20
2.092042931471496
 30
0.0
  0
SEQEND
  5
89C
330
899
100
AcDbEntity
  8
Livello 1
  0
SPLINE
  5
89D
330
1F
100
AcDbEntity
  8
Livello 1
100
AcDbSpline
210
0.0
220
0.0
230
1.0
 70
     8
 71
     3
 72
    95
 73
    91
 74
     0
 42
0.000000001
 43
0.0000000001
 40
0.0
 40
0.0
 40
0.0
 40
0.0
 40
1.0
 40
1.0
 40
1.0
 40
2.0
 40
2.0
 40
2.0
 40
3.0
 40
3.0
 40
3.0
 40
4.0
 40
4.0
 40
4.0
 40
5.0
 40
5.0
 40
5.0
 40
6.0
 40
6.0
 40
6.0
 40
7.0
 40
7.0
 40
7.0
 40
8.0
 40
8.0
 40
8.0
 40
9.0
 40
9.0
 40
9.0
 40
10.0
 40
10.0
 40
10.0
 40
11.0
 40
11.0
 40
11.0
 40
12.0
 40
12.0
 40
12.0
 40
13.0
 40
13.0
 40
13.0
 40
14.0
 40
14.0
 40
14.0
 40
15.0
 40
15.0
 40
15.0
 40
16.0
 40
16.0
 40
16.0
 40
17.0
 40
17.0
 40
17.0
 40
18.0
 40
18.0
 40
18.0
 40
19.0
 40
19.0
 40
19.0
 40
20.0
 40
20.0
 40
20.0
 40
21.0
 40
21.0
 40
21.0
 40
22.0
 40
22.0
 40
22.0
 40
23.0
 40
23.0
 40
23.0
 40
24.0
 40
24.0
 40
24.0
 40
25.0
 40
25.0
 40
25.0
 40
26.0
 40
26.0
 40
26.0
 40
27.0
 40
27.0
 40
27.0
 40
28.0
 40
28.0
 40
28.0
 40
29.0
 40
29.0
 40
29.0
 40
30.0
 40
30.0
 40
30.0
 40
30.0
 10
9.357112909666668
 20
3.280797351984602
 30
0.0
 10
9.357112909666668
 20
3.280797351984602
 30
0.0
 10
9.357112909666668
 20
3.035969488140608
 30
0.0
 10
9.357112909666668
 20
3.035969488140608
 30
0.0
 10
9.357112909666668
 20
3.035969488140608
 30
0.0
 10
9.354642130248336
 20
3.028207257375427
 30
0.0
 10
9.354642130248336
 20
3.028207257375427
 30
0.0
 10
9.354642130248336
 20
3.028207257375427
 30
0.0
 10
9.354642130248336
 20
3.020446372350633
 30
0.0
 10
9.354642130248336
 20
3.020446372350633
 30
0.0
 10
9.356406395944105
 20
2.991518336197955
 30
0.0
 10
9.351114944597227
 20
2.983404867182102
 30
0.0
 10
9.349350678901458
 20
2.958357946411993
 30
0.0
 10
9.349350678901458
 20
2.958357946411993
 30
0.0
 10
9.34688124522357
 20
2.953419079056175
 30
0.0
 10
9.34688124522357
 20
2.953419079056175
 30
0.0
 10
9.34688124522357
 20
2.953419079056175
 30
0.0
 10
9.34688124522357
 20
2.942836176362419
 30
0.0
 10
9.34688124522357
 20
2.942836176362419
 30
0.0
 10
9.34688124522357
 20
2.942836176362419
 30
0.0
 10
9.344059227554566
 20
2.937897309006615
 30
0.0
 10
9.344059227554566
 20
2.937897309006615
 30
0.0
 10
9.344059227554566
 20
2.937897309006615
 30
0.0
 10
9.344059227554566
 20
2.932604511919308
 30
0.0
 10
9.344059227554566
 20
2.932604511919308
 30
0.0
 10
9.344059227554566
 20
2.932604511919308
 30
0.0
 10
9.341589793876678
 20
2.92731306057243
 30
0.0
 10
9.341589793876678
 20
2.92731306057243
 30
0.0
 10
9.341589793876678
 20
2.92731306057243
 30
0.0
 10
9.341589793876678
 20
2.922374193216654
 30
0.0
 10
9.341589793876678
 20
2.922374193216654
 30
0.0
 10
9.341589793876678
 20
2.922374193216654
 30
0.0
 10
9.336650926520874
 20
2.912143874513958
 30
0.0
 10
9.336650926520874
 20
2.912143874513958
 30
0.0
 10
9.336298342529801
 20
2.904030405498104
 30
0.0
 10
9.33312374086978
 20
2.895563006750762
 30
0.0
 10
9.328890041496094
 20
2.888861219439604
 30
0.0
 10
9.328890041496094
 20
2.888861219439604
 30
0.0
 10
9.328890041496094
 20
2.883568422352311
 30
0.0
 10
9.328890041496094
 20
2.883568422352311
 30
0.0
 10
9.328890041496094
 20
2.883568422352311
 30
0.0
 10
9.321129156471315
 20
2.868046652302766
 30
0.0
 10
9.321129156471315
 20
2.868046652302766
 30
0.0
 10
9.321129156471315
 20
2.868046652302766
 30
0.0
 10
9.321129156471315
 20
2.863107784946961
 30
0.0
 10
9.321129156471315
 20
2.863107784946961
 30
0.0
 10
9.321129156471315
 20
2.863107784946961
 30
0.0
 10
9.318307138802339
 20
2.860638351269031
 30
0.0
 10
9.318307138802339
 20
2.860638351269031
 30
0.0
 10
9.318307138802339
 20
2.860638351269031
 30
0.0
 10
9.315837705124437
 20
2.855346899922182
 30
0.0
 10
9.315837705124437
 20
2.855346899922182
 30
0.0
 10
9.315837705124437
 20
2.855346899922182
 30
0.0
 10
9.308075474359227
 20
2.839825129872593
 30
0.0
 10
9.308075474359227
 20
2.839825129872593
 30
0.0
 10
9.308075474359227
 20
2.839825129872593
 30
0.0
 10
9.305606040681325
 20
2.837355696194705
 30
0.0
 10
9.305606040681325
 20
2.837355696194705
 30
0.0
 10
9.305606040681325
 20
2.837355696194705
 30
0.0
 10
9.30278402301235
 20
2.832062899107398
 30
0.0
 10
9.30278402301235
 20
2.832062899107398
 30
0.0
 10
9.30278402301235
 20
2.832062899107398
 30
0.0
 10
9.300314589334448
 20
2.826771447760521
 30
0.0
 10
9.300314589334448
 20
2.826771447760521
 30
0.0
 10
9.300314589334448
 20
2.826771447760521
 30
0.0
 10
9.297845155656546
 20
2.821832580404716
 30
0.0
 10
9.297845155656546
 20
2.821832580404716
 30
0.0
 10
9.297845155656546
 20
2.821832580404716
 30
0.0
 10
9.295375721978643
 20
2.819363146726814
 30
0.0
 10
9.295375721978643
 20
2.819363146726814
 30
0.0
 10
9.295375721978643
 20
2.819363146726814
 30
0.0
 10
9.29008427063178
 20
2.808780244033073
 30
0.0
 10
9.29008427063178
 20
2.808780244033073
 30
0.0
 10
9.29008427063178
 20
2.808780244033073
 30
0.0
 10
9.287614836953878
 20
2.806310810355171
 30
0.0
 10
9.287614836953878
 20
2.806310810355171
 30
0.0
 10
9.287614836953878
 20
2.806310810355171
 30
0.0
 10
9.284792819284888
 20
2.801019359008279
 30
0.0
 10
9.284792819284888
 20
2.801019359008279
 30
0.0
 10
9.272798234886437
 20
2.781969057567195
 30
0.0
 10
9.25939331452372
 20
2.765388189803999
 30
0.0
 10
9.243517614742671
 20
2.74951383576338
 30
0.0
 10
9.243517614742671
 20
2.74951383576338
 30
0.0
 10
9.241048181064769
 20
2.744574968407576
 30
0.0
 10
9.241048181064769
 20
2.744574968407576
 30
0.0
 10
9.241048181064769
 20
2.744574968407576
 30
0.0
 10
9.235756729717891
 20
2.741751604998171
 30
0.0
 10
9.235756729717891
 20
2.741751604998171
 30
0.0
 10
9.235756729717891
 20
2.741751604998171
 30
0.0
 10
9.233287296039989
 20
2.736812737642367
 30
0.0
 10
9.233287296039989
 20
2.736812737642367
 30
0.0
  0
POLYLINE
  5
89E
330
1F
100
AcDbEntity
  8
Livello 1
100
AcDb2dPolyline
 66
     1
 10
0.0
 20
0.0
 30
0.0
  0
VERTEX
  5
89F
330
89E
100
AcDbEntity
  8
Livello 1
100
AcDbVertex
100
AcDb2dVertex
 10
9.233358620282459
 20
2.739283517060698
 30
0.0
  0
VERTEX
  5
8A0
330
89E
100
AcDbEntity
  8
Livello 1
100
AcDbVertex
100
AcDb2dVertex
 10
9.205135752111885
 20
2.711060648890111
 30
0.0
  0
SEQEND
  5
8A1
330
89E
100
AcDbEntity
  8
Livello 1
  0
POLYLINE
  5
8A2
330
1F
100
AcDbEntity
  8
Livello 1
100
AcDb2dPolyline
 66
     1
 10
0.0
 20
0.0
 30
0.0
  0
VERTEX
  5
8A3
330
8A2
100
AcDbEntity
  8
Livello 1
100
AcDbVertex
100
AcDb2dVertex
 10
9.204994449367376
 20
3.280797351984602
 30
0.0
  0
VERTEX
  5
8A4
330
8A2
100
AcDbEntity
  8
Livello 1
100
AcDbVertex
100
AcDb2dVertex
 10
9.357041585424198
 20
3.280797351984602
 30
0.0
  0
SEQEND
  5
8A5
330
8A2
100
AcDbEntity
  8
Livello 1
  0
SPLINE
  5
8A6
330
1F
100
AcDbEntity
  8
Livello 1
100
AcDbSpline
210
0.0
220
0.0
230
1.0
 70
    11
 71
     3
 72
    29
 73
    25
 74
     0
 42
0.000000001
 43
0.0000000001
 40
0.0
 40
0.0
 40
0.0
 40
0.0
 40
1.0
 40
1.0
 40
1.0
 40
2.0
 40
2.0
 40
2.0
 40
3.0
 40
3.0
 40
3.0
 40
4.0
 40
4.0
 40
4.0
 40
5.0
 40
5.0
 40
5.0
 40
6.0
 40
6.0
 40
6.0
 40
7.0
 40
7.0
 40
7.0
 40
8.0
 40
8.0
 40
8.0
 40
8.0
 10
0.4022368519493611
 20
7.832830277194105
 30
0.0
 10
0.4022368519493611
 20
7.832830277194105
 30
0.0
 10
0.4435117200564776
 20
7.835299710872007
 30
0.0
 10
0.4435117200564776
 20
7.835299710872007
 30
0.0
 10
0.4435117200564776
 20
7.835299710872007
 30
0.0
 10
0.4819645704946254
 20
7.845882613565748
 30
0.0
 10
0.4819645704946254
 20
7.845882613565748
 30
0.0
 10
0.7130339206794716
 20
7.93019594260555
 30
0.0
 10
0.7035087699589298
 20
8.257574215533949
 30
0.0
 10
0.4615032602190539
 20
8.320369155195166
 30
0.0
 10
0.4615032602190539
 20
8.320369155195166
 30
0.0
 10
0.4226978257898253
 20
8.327777456228901
 30
0.0
 10
0.4226978257898253
 20
8.327777456228901
 30
0.0
 10
0.4226978257898253
 20
8.327777456228901
 30
0.0
 10
0.3842449753516774
 20
8.327777456228901
 30
0.0
 10
0.3842449753516774
 20
8.327777456228901
 30
0.0
 10
0.1111949162073742
 20
8.293910552720362
 30
0.0
 10
0.0716839773609124
 20
7.940073677317158
 30
0.0
 10
0.3249782306468916
 20
7.845882613565748
 30
0.0
 10
0.3249782306468916
 20
7.845882613565748
 30
0.0
 10
0.3634310810850394
 20
7.835299710872007
 30
0.0
 10
0.3634310810850394
 20
7.835299710872007
 30
0.0
 10
0.3634310810850394
 20
7.835299710872007
 30
0.0
 10
0.4022368519493611
 20
7.832830277194105
 30
0.0
 10
0.4022368519493611
 20
7.832830277194105
 30
0.0
  0
POLYLINE
  5
8A7
330
1F
100
AcDbEntity
  8
Livello 1
100
AcDb2dPolyline
 66
     1
 10
0.0
 20
0.0
 30
0.0
  0
VERTEX
  5
8A8
330
8A7
100
AcDbEntity
  8
Livello 1
100
AcDbVertex
100
AcDb2dVertex
 10
-0.0000002506705528
 20
8.549675248989572
 30
0.0
  0
VERTEX
  5
8A9
330
8A7
100
AcDbEntity
  8
Livello 1
100
AcDbVertex
100
AcDb2dVertex
 10
0.0024691830073493
 20
8.325308022550984
 30
0.0
  0
SEQEND
  5
8AA
330
8A7
100
AcDbEntity
  8
Livello 1
  0
POLYLINE
  5
8AB
330
1F
100
AcDbEntity
  8
Livello 1
100
AcDb2dPolyline
 66
     1
 10
0.0
 20
0.0
 30
0.0
  0
VERTEX
  5
8AC
330
8AB
100
AcDbEntity
  8
Livello 1
100
AcDbVertex
100
AcDb2dVertex
 10
0.0025748236306242
 20
7.804467452019451
 30
0.0
  0
VERTEX
  5
8AD
330
8AB
100
AcDbEntity
  8
Livello 1
100
AcDbVertex
100
AcDb2dVertex
 10
0.0025748236306242
 20
7.830219540771679
 30
0.0
  0
VERTEX
  5
8AE
330
8AB
100
AcDbEntity
  8
Livello 1
100
AcDbVertex
100
AcDb2dVertex
 10
0.0025748236306242
 20
7.866203293967046
 30
0.0
  0
SEQEND
  5
8AF
330
8AB
100
AcDbEntity
  8
Livello 1
  0
POLYLINE
  5
8B0
330
1F
100
AcDbEntity
  8
Livello 1
100
AcDb2dPolyline
 66
     1
 10
0.0
 20
0.0
 30
0.0
  0
VERTEX
  5
8B1
330
8B0
100
AcDbEntity
  8
Livello 1
100
AcDbVertex
100
AcDb2dVertex
 10
0.0025748236306242
 20
8.325379346793454
 30
0.0
  0
VERTEX
  5
8B2
330
8B0
100
AcDbEntity
  8
Livello 1
100
AcDbVertex
100
AcDb2dVertex
 10
0.0025748236306242
 20
8.281634708573321
 30
0.0
  0
SEQEND
  5
8B3
330
8B0
100
AcDbEntity
  8
Livello 1
  0
POLYLINE
  5
8B4
330
1F
100
AcDbEntity
  8
Livello 1
100
AcDb2dPolyline
 66
     1
 10
0.0
 20
0.0
 30
0.0
  0
VERTEX
  5
8B5
330
8B4
100
AcDbEntity
  8
Livello 1
100
AcDbVertex
100
AcDb2dVertex
 10
-0.0000002506705528
 20
8.281528395079831
 30
0.0
  0
VERTEX
  5
8B6
330
8B4
100
AcDbEntity
  8
Livello 1
100
AcDbVertex
100
AcDb2dVertex
 10
-0.0000002506705528
 20
8.338325369671608
 30
0.0
  0
VERTEX
  5
8B7
330
8B4
100
AcDbEntity
  8
Livello 1
100
AcDbVertex
100
AcDb2dVertex
 10
0.0024691830073493
 20
8.338325369671608
 30
0.0
  0
SEQEND
  5
8B8
330
8B4
100
AcDbEntity
  8
Livello 1
  0
POLYLINE
  5
8B9
330
1F
100
AcDbEntity
  8
Livello 1
100
AcDb2dPolyline
 66
     1
 10
0.0
 20
0.0
 30
0.0
  0
VERTEX
  5
8BA
330
8B9
100
AcDbEntity
  8
Livello 1
100
AcDbVertex
100
AcDb2dVertex
 10
-0.0000002506705528
 20
8.338255391169582
 30
0.0
  0
VERTEX
  5
8BB
330
8B9
100
AcDbEntity
  8
Livello 1
100
AcDbVertex
100
AcDb2dVertex
 10
-0.0000002506705528
 20
8.518876633647622
 30
0.0
  0
VERTEX
  5
8BC
330
8B9
100
AcDbEntity
  8
Livello 1
100
AcDbVertex
100
AcDb2dVertex
 10
-0.0000002506705528
 20
8.596135591385191
 30
0.0
  0
VERTEX
  5
8BD
330
8B9
100
AcDbEntity
  8
Livello 1
100
AcDbVertex
100
AcDb2dVertex
 10
-0.0000002506705528
 20
8.549568935496083
 30
0.0
  0
SEQEND
  5
8BE
330
8B9
100
AcDbEntity
  8
Livello 1
  0
POLYLINE
  5
8BF
330
1F
100
AcDbEntity
  8
Livello 1
100
AcDb2dPolyline
 66
     1
 10
0.0
 20
0.0
 30
0.0
  0
VERTEX
  5
8C0
330
8BF
100
AcDbEntity
  8
Livello 1
100
AcDbVertex
100
AcDb2dVertex
 10
0.0025748236306242
 20
8.281528395079831
 30
0.0
  0
VERTEX
  5
8C1
330
8BF
100
AcDbEntity
  8
Livello 1
100
AcDbVertex
100
AcDb2dVertex
 10
0.0001050535176006
 20
8.281528395079831
 30
0.0
  0
SEQEND
  5
8C2
330
8BF
100
AcDbEntity
  8
Livello 1
  0
POLYLINE
  5
8C3
330
1F
100
AcDbEntity
  8
Livello 1
100
AcDb2dPolyline
 66
     1
 10
0.0
 20
0.0
 30
0.0
  0
VERTEX
  5
8C4
330
8C3
100
AcDbEntity
  8
Livello 1
100
AcDbVertex
100
AcDb2dVertex
 10
0.2527294645075955
 20
8.596100602134171
 30
0.0
  0
VERTEX
  5
8C5
330
8C3
100
AcDbEntity
  8
Livello 1
100
AcDbVertex
100
AcDb2dVertex
 10
0.170179391858241
 20
8.596100602134171
 30
0.0
  0
SEQEND
  5
8C6
330
8C3
100
AcDbEntity
  8
Livello 1
  0
POLYLINE
  5
8C7
330
1F
100
AcDbEntity
  8
Livello 1
100
AcDb2dPolyline
 66
     1
 10
0.0
 20
0.0
 30
0.0
  0
VERTEX
  5
8C8
330
8C7
100
AcDbEntity
  8
Livello 1
100
AcDbVertex
100
AcDb2dVertex
 10
0.2527294645075955
 20
8.864282445294932
 30
0.0
  0
VERTEX
  5
8C9
330
8C7
100
AcDbEntity
  8
Livello 1
100
AcDbVertex
100
AcDb2dVertex
 10
0.2527294645075955
 20
8.596170580636211
 30
0.0
  0
SEQEND
  5
8CA
330
8C7
100
AcDbEntity
  8
Livello 1
  0
POLYLINE
  5
8CB
330
1F
100
AcDbEntity
  8
Livello 1
100
AcDb2dPolyline
 66
     1
 10
0.0
 20
0.0
 30
0.0
  0
VERTEX
  5
8CC
330
8CB
100
AcDbEntity
  8
Livello 1
100
AcDbVertex
100
AcDb2dVertex
 10
0.17021505397949
 20
8.864282445294932
 30
0.0
  0
VERTEX
  5
8CD
330
8CB
100
AcDbEntity
  8
Livello 1
100
AcDbVertex
100
AcDb2dVertex
 10
0.2527647901937158
 20
8.864282445294932
 30
0.0
  0
SEQEND
  5
8CE
330
8CB
100
AcDbEntity
  8
Livello 1
  0
POLYLINE
  5
8CF
330
1F
100
AcDbEntity
  8
Livello 1
100
AcDb2dPolyline
 66
     1
 10
0.0
 20
0.0
 30
0.0
  0
VERTEX
  5
8D0
330
8CF
100
AcDbEntity
  8
Livello 1
100
AcDbVertex
100
AcDb2dVertex
 10
0.0980366027773201
 20
9.145375322082841
 30
0.0
  0
VERTEX
  5
8D1
330
8CF
100
AcDbEntity
  8
Livello 1
100
AcDbVertex
100
AcDb2dVertex
 10
0.0980366027773201
 20
9.142904542664496
 30
0.0
  0
SEQEND
  5
8D2
330
8CF
100
AcDbEntity
  8
Livello 1
  0
POLYLINE
  5
8D3
330
1F
100
AcDbEntity
  8
Livello 1
100
AcDb2dPolyline
 66
     1
 10
0.0
 20
0.0
 30
0.0
  0
VERTEX
  5
8D4
330
8D3
100
AcDbEntity
  8
Livello 1
100
AcDbVertex
100
AcDb2dVertex
 10
0.0980366027773201
 20
9.142800920651865
 30
0.0
  0
VERTEX
  5
8D5
330
8D3
100
AcDbEntity
  8
Livello 1
100
AcDbVertex
100
AcDb2dVertex
 10
0.0567613982350963
 20
9.117047486159208
 30
0.0
  0
VERTEX
  5
8D6
330
8D3
100
AcDbEntity
  8
Livello 1
100
AcDbVertex
100
AcDb2dVertex
 10
0.0285392029347378
 20
9.081063732963855
 30
0.0
  0
VERTEX
  5
8D7
330
8D3
100
AcDbEntity
  8
Livello 1
100
AcDbVertex
100
AcDb2dVertex
 10
0.0077253086680997
 20
9.03978852842161
 30
0.0
  0
VERTEX
  5
8D8
330
8D3
100
AcDbEntity
  8
Livello 1
100
AcDbVertex
100
AcDb2dVertex
 10
0.0024335208861075
 20
8.993221872532529
 30
0.0
  0
SEQEND
  5
8D9
330
8D3
100
AcDbEntity
  8
Livello 1
  0
POLYLINE
  5
8DA
330
1F
100
AcDbEntity
  8
Livello 1
100
AcDb2dPolyline
 66
     1
 10
0.0
 20
0.0
 30
0.0
  0
VERTEX
  5
8DB
330
8DA
100
AcDbEntity
  8
Livello 1
100
AcDbVertex
100
AcDb2dVertex
 10
-0.0000002506705528
 20
8.864282445294932
 30
0.0
  0
VERTEX
  5
8DC
330
8DA
100
AcDbEntity
  8
Livello 1
100
AcDbVertex
100
AcDb2dVertex
 10
0.1703913459750126
 20
8.864282445294932
 30
0.0
  0
SEQEND
  5
8DD
330
8DA
100
AcDbEntity
  8
Livello 1
  0
POLYLINE
  5
8DE
330
1F
100
AcDbEntity
  8
Livello 1
100
AcDb2dPolyline
 66
     1
 10
0.0
 20
0.0
 30
0.0
  0
VERTEX
  5
8DF
330
8DE
100
AcDbEntity
  8
Livello 1
100
AcDbVertex
100
AcDb2dVertex
 10
-0.0000002506705528
 20
8.993223218272945
 30
0.0
  0
VERTEX
  5
8E0
330
8DE
100
AcDbEntity
  8
Livello 1
100
AcDbVertex
100
AcDb2dVertex
 10
-0.0000002506705528
 20
8.864458737290462
 30
0.0
  0
SEQEND
  5
8E1
330
8DE
100
AcDbEntity
  8
Livello 1
  0
POLYLINE
  5
8E2
330
1F
100
AcDbEntity
  8
Livello 1
100
AcDb2dPolyline
 66
     1
 10
0.0
 20
0.0
 30
0.0
  0
VERTEX
  5
8E3
330
8E2
100
AcDbEntity
  8
Livello 1
100
AcDbVertex
100
AcDb2dVertex
 10
0.0025748236306242
 20
8.993223218272945
 30
0.0
  0
VERTEX
  5
8E4
330
8E2
100
AcDbEntity
  8
Livello 1
100
AcDbVertex
100
AcDb2dVertex
 10
0.0001050535176006
 20
8.993223218272945
 30
0.0
  0
SEQEND
  5
8E5
330
8E2
100
AcDbEntity
  8
Livello 1
  0
POLYLINE
  5
8E6
330
1F
100
AcDbEntity
  8
Livello 1
100
AcDb2dPolyline
 66
     1
 10
0.0
 20
0.0
 30
0.0
  0
VERTEX
  5
8E7
330
8E6
100
AcDbEntity
  8
Livello 1
100
AcDbVertex
100
AcDb2dVertex
 10
-0.0000002506705528
 20
8.596100602134171
 30
0.0
  0
VERTEX
  5
8E8
330
8E6
100
AcDbEntity
  8
Livello 1
100
AcDbVertex
100
AcDb2dVertex
 10
0.1703913459750126
 20
8.596100602134171
 30
0.0
  0
SEQEND
  5
8E9
330
8E6
100
AcDbEntity
  8
Livello 1
  0
POLYLINE
  5
8EA
330
1F
100
AcDbEntity
  8
Livello 1
100
AcDb2dPolyline
 66
     1
 10
0.0
 20
0.0
 30
0.0
  0
VERTEX
  5
8EB
330
8EA
100
AcDbEntity
  8
Livello 1
100
AcDbVertex
100
AcDb2dVertex
 10
0.0025748236306242
 20
7.804467452019451
 30
0.0
  0
VERTEX
  5
8EC
330
8EA
100
AcDbEntity
  8
Livello 1
100
AcDbVertex
100
AcDb2dVertex
 10
0.0128051423333133
 20
7.763192247477221
 30
0.0
  0
VERTEX
  5
8ED
330
8EA
100
AcDbEntity
  8
Livello 1
100
AcDbVertex
100
AcDb2dVertex
 10
0.0336190365999514
 20
7.724386476612892
 30
0.0
  0
VERTEX
  5
8EE
330
8EA
100
AcDbEntity
  8
Livello 1
100
AcDbVertex
100
AcDb2dVertex
 10
0.061841231900317
 20
7.693694174764431
 30
0.0
  0
VERTEX
  5
8EF
330
8EA
100
AcDbEntity
  8
Livello 1
100
AcDbVertex
100
AcDb2dVertex
 10
0.0981775690867366
 20
7.670411519690091
 30
0.0
  0
SEQEND
  5
8F0
330
8EA
100
AcDbEntity
  8
Livello 1
  0
POLYLINE
  5
8F1
330
1F
100
AcDbEntity
  8
Livello 1
100
AcDb2dPolyline
 66
     1
 10
0.0
 20
0.0
 30
0.0
  0
VERTEX
  5
8F2
330
8F1
100
AcDbEntity
  8
Livello 1
100
AcDbVertex
100
AcDb2dVertex
 10
-0.0000002506705528
 20
7.894743756877645
 30
0.0
  0
VERTEX
  5
8F3
330
8F1
100
AcDbEntity
  8
Livello 1
100
AcDbVertex
100
AcDb2dVertex
 10
-0.0000002506705528
 20
7.868990322384988
 30
0.0
  0
SEQEND
  5
8F4
330
8F1
100
AcDbEntity
  8
Livello 1
  0
POLYLINE
  5
8F5
330
1F
100
AcDbEntity
  8
Livello 1
100
AcDb2dPolyline
 66
     1
 10
0.0
 20
0.0
 30
0.0
  0
VERTEX
  5
8F6
330
8F5
100
AcDbEntity
  8
Livello 1
100
AcDbVertex
100
AcDb2dVertex
 10
-0.0000002506705528
 20
7.822529979989354
 30
0.0
  0
VERTEX
  5
8F7
330
8F5
100
AcDbEntity
  8
Livello 1
100
AcDbVertex
100
AcDb2dVertex
 10
0.0024691830073493
 20
7.822529979989354
 30
0.0
  0
SEQEND
  5
8F8
330
8F5
100
AcDbEntity
  8
Livello 1
  0
POLYLINE
  5
8F9
330
1F
100
AcDbEntity
  8
Livello 1
100
AcDb2dPolyline
 66
     1
 10
0.0
 20
0.0
 30
0.0
  0
VERTEX
  5
8FA
330
8F9
100
AcDbEntity
  8
Livello 1
100
AcDbVertex
100
AcDb2dVertex
 10
-0.0000002506705528
 20
7.894743756877645
 30
0.0
  0
VERTEX
  5
8FB
330
8F9
100
AcDbEntity
  8
Livello 1
100
AcDbVertex
100
AcDb2dVertex
 10
0.0024691830073493
 20
7.894743756877645
 30
0.0
  0
SEQEND
  5
8FC
330
8F9
100
AcDbEntity
  8
Livello 1
  0
POLYLINE
  5
8FD
330
1F
100
AcDbEntity
  8
Livello 1
100
AcDb2dPolyline
 66
     1
 10
0.0
 20
0.0
 30
0.0
  0
VERTEX
  5
8FE
330
8FD
100
AcDbEntity
  8
Livello 1
100
AcDbVertex
100
AcDb2dVertex
 10
-0.0000002506705528
 20
8.281528395079831
 30
0.0
  0
VERTEX
  5
8FF
330
8FD
100
AcDbEntity
  8
Livello 1
100
AcDbVertex
100
AcDb2dVertex
 10
-0.0000002506705528
 20
7.894883713881739
 30
0.0
  0
SEQEND
  5
900
330
8FD
100
AcDbEntity
  8
Livello 1
  0
POLYLINE
  5
901
330
1F
100
AcDbEntity
  8
Livello 1
100
AcDb2dPolyline
 66
     1
 10
0.0
 20
0.0
 30
0.0
  0
VERTEX
  5
902
330
901
100
AcDbEntity
  8
Livello 1
100
AcDbVertex
100
AcDb2dVertex
 10
-0.0000002506705528
 20
8.864282445294932
 30
0.0
  0
VERTEX
  5
903
330
901
100
AcDbEntity
  8
Livello 1
100
AcDbVertex
100
AcDb2dVertex
 10
-0.0000002506705528
 20
8.993045580537014
 30
0.0
  0
VERTEX
  5
904
330
901
100
AcDbEntity
  8
Livello 1
100
AcDbVertex
100
AcDb2dVertex
 10
0.0024691830073493
 20
8.993045580537014
 30
0.0
  0
SEQEND
  5
905
330
901
100
AcDbEntity
  8
Livello 1
  0
POLYLINE
  5
906
330
1F
100
AcDbEntity
  8
Livello 1
100
AcDb2dPolyline
 66
     1
 10
0.0
 20
0.0
 30
0.0
  0
VERTEX
  5
907
330
906
100
AcDbEntity
  8
Livello 1
100
AcDbVertex
100
AcDb2dVertex
 10
-0.0000002506705528
 20
8.864282445294932
 30
0.0
  0
VERTEX
  5
908
330
906
100
AcDbEntity
  8
Livello 1
100
AcDbVertex
100
AcDb2dVertex
 10
0.0024691830073493
 20
8.864282445294932
 30
0.0
  0
SEQEND
  5
909
330
906
100
AcDbEntity
  8
Livello 1
  0
POLYLINE
  5
90A
330
1F
100
AcDbEntity
  8
Livello 1
100
AcDb2dPolyline
 66
     1
 10
0.0
 20
0.0
 30
0.0
  0
VERTEX
  5
90B
330
90A
100
AcDbEntity
  8
Livello 1
100
AcDbVertex
100
AcDb2dVertex
 10
0.1186035536761878
 20
9.153101217856601
 30
0.0
  0
VERTEX
  5
90C
330
90A
100
AcDbEntity
  8
Livello 1
100
AcDbVertex
100
AcDb2dVertex
 10
0.0981422434006092
 20
9.145338987091392
 30
0.0
  0
SEQEND
  5
90D
330
90A
100
AcDbEntity
  8
Livello 1
  0
POLYLINE
  5
90E
330
1F
100
AcDbEntity
  8
Livello 1
100
AcDb2dPolyline
 66
     1
 10
0.0
 20
0.0
 30
0.0
  0
VERTEX
  5
90F
330
90E
100
AcDbEntity
  8
Livello 1
100
AcDbVertex
100
AcDb2dVertex
 10
0.1186035536761878
 20
7.662650634665297
 30
0.0
  0
VERTEX
  5
910
330
90E
100
AcDbEntity
  8
Livello 1
100
AcDbVertex
100
AcDb2dVertex
 10
0.0981422434006092
 20
7.670411519690091
 30
0.0
  0
SEQEND
  5
911
330
90E
100
AcDbEntity
  8
Livello 1
  0
POLYLINE
  5
912
330
1F
100
AcDbEntity
  8
Livello 1
100
AcDb2dPolyline
 66
     1
 10
0.0
 20
0.0
 30
0.0
  0
VERTEX
  5
913
330
912
100
AcDbEntity
  8
Livello 1
100
AcDbVertex
100
AcDb2dVertex
 10
0.1418515559346076
 20
9.15825271219937
 30
0.0
  0
VERTEX
  5
914
330
912
100
AcDbEntity
  8
Livello 1
100
AcDbVertex
100
AcDb2dVertex
 10
0.2244012921488547
 20
9.171305048571042
 30
0.0
  0
VERTEX
  5
915
330
912
100
AcDbEntity
  8
Livello 1
100
AcDbVertex
100
AcDb2dVertex
 10
0.2914292583135278
 20
9.184004800951612
 30
0.0
  0
VERTEX
  5
916
330
912
100
AcDbEntity
  8
Livello 1
100
AcDbVertex
100
AcDb2dVertex
 10
0.3171820199359843
 20
9.189296252298504
 30
0.0
  0
VERTEX
  5
917
330
912
100
AcDbEntity
  8
Livello 1
100
AcDbVertex
100
AcDb2dVertex
 10
0.3379959142026294
 20
9.191765685976392
 30
0.0
  0
VERTEX
  5
918
330
912
100
AcDbEntity
  8
Livello 1
100
AcDbVertex
100
AcDb2dVertex
 10
0.3429347815584336
 20
9.191765685976392
 30
0.0
  0
VERTEX
  5
919
330
912
100
AcDbEntity
  8
Livello 1
100
AcDbVertex
100
AcDb2dVertex
 10
0.3482262329053043
 20
9.194235119654308
 30
0.0
  0
VERTEX
  5
91A
330
912
100
AcDbEntity
  8
Livello 1
100
AcDbVertex
100
AcDb2dVertex
 10
0.3506960030183137
 20
9.194235119654308
 30
0.0
  0
VERTEX
  5
91B
330
912
100
AcDbEntity
  8
Livello 1
100
AcDbVertex
100
AcDb2dVertex
 10
0.701356931021067
 20
9.194235119654308
 30
0.0
  0
VERTEX
  5
91C
330
912
100
AcDbEntity
  8
Livello 1
100
AcDbVertex
100
AcDb2dVertex
 10
0.9331321220582751
 20
9.194235119654308
 30
0.0
  0
SEQEND
  5
91D
330
912
100
AcDbEntity
  8
Livello 1
  0
POLYLINE
  5
91E
330
1F
100
AcDbEntity
  8
Livello 1
100
AcDb2dPolyline
 66
     1
 10
0.0
 20
0.0
 30
0.0
  0
VERTEX
  5
91F
330
91E
100
AcDbEntity
  8
Livello 1
100
AcDbVertex
100
AcDb2dVertex
 10
0.1186035536761878
 20
9.153101217856601
 30
0.0
  0
VERTEX
  5
920
330
91E
100
AcDbEntity
  8
Livello 1
100
AcDbVertex
100
AcDb2dVertex
 10
0.1418868816207421
 20
9.158392669203479
 30
0.0
  0
SEQEND
  5
921
330
91E
100
AcDbEntity
  8
Livello 1
  0
POLYLINE
  5
922
330
1F
100
AcDbEntity
  8
Livello 1
100
AcDb2dPolyline
 66
     1
 10
0.0
 20
0.0
 30
0.0
  0
VERTEX
  5
923
330
922
100
AcDbEntity
  8
Livello 1
100
AcDbVertex
100
AcDb2dVertex
 10
0.3506960030183137
 20
7.618801028692089
 30
0.0
  0
VERTEX
  5
924
330
922
100
AcDbEntity
  8
Livello 1
100
AcDbVertex
100
AcDb2dVertex
 10
0.701356931021067
 20
7.618801028692089
 30
0.0
  0
VERTEX
  5
925
330
922
100
AcDbEntity
  8
Livello 1
100
AcDbVertex
100
AcDb2dVertex
 10
0.885507041325745
 20
7.618801028692089
 30
0.0
  0
SEQEND
  5
926
330
922
100
AcDbEntity
  8
Livello 1
  0
SPLINE
  5
927
330
1F
100
AcDbEntity
  8
Livello 1
100
AcDbSpline
210
0.0
220
0.0
230
1.0
 70
     8
 71
     3
 72
    14
 73
    10
 74
     0
 42
0.000000001
 43
0.0000000001
 40
0.0
 40
0.0
 40
0.0
 40
0.0
 40
1.0
 40
1.0
 40
1.0
 40
2.0
 40
2.0
 40
2.0
 40
3.0
 40
3.0
 40
3.0
 40
3.0
 10
0.1418515559346076
 20
7.657500486062943
 30
0.0
 10
0.1418515559346076
 20
7.657500486062943
 30
0.0
 10
0.1884182118237092
 20
7.647268821619832
 30
0.0
 10
0.1884182118237092
 20
7.647268821619832
 30
0.0
 10
0.2416876643292767
 20
7.639860520586111
 30
0.0
 10
0.2946041964086774
 20
7.626808184214468
 30
0.0
 10
0.3482262329053043
 20
7.62151673286759
 30
0.0
 10
0.3482262329053043
 20
7.62151673286759
 30
0.0
 10
0.3506960030183137
 20
7.618694715198614
 30
0.0
 10
0.3506960030183137
 20
7.618694715198614
 30
0.0
  0
POLYLINE
  5
928
330
1F
100
AcDbEntity
  8
Livello 1
100
AcDb2dPolyline
 66
     1
 10
0.0
 20
0.0
 30
0.0
  0
VERTEX
  5
929
330
928
100
AcDbEntity
  8
Livello 1
100
AcDbVertex
100
AcDb2dVertex
 10
0.1418515559346076
 20
7.657500486062943
 30
0.0
  0
VERTEX
  5
92A
330
928
100
AcDbEntity
  8
Livello 1
100
AcDbVertex
100
AcDb2dVertex
 10
0.1185678915549531
 20
7.662791937409807
 30
0.0
  0
SEQEND
  5
92B
330
928
100
AcDbEntity
  8
Livello 1
  0
POLYLINE
  5
92C
330
1F
100
AcDbEntity
  8
Livello 1
100
AcDb2dPolyline
 66
     1
 10
0.0
 20
0.0
 30
0.0
  0
VERTEX
  5
92D
330
92C
100
AcDbEntity
  8
Livello 1
100
AcDbVertex
100
AcDb2dVertex
 10
2.084281508600277
 20
8.981933801856641
 30
0.0
  0
VERTEX
  5
92E
330
92C
100
AcDbEntity
  8
Livello 1
100
AcDbVertex
100
AcDb2dVertex
 10
0.8107535158224123
 20
8.981933801856641
 30
0.0
  0
SEQEND
  5
92F
330
92C
100
AcDbEntity
  8
Livello 1
  0
POLYLINE
  5
930
330
1F
100
AcDbEntity
  8
Livello 1
100
AcDb2dPolyline
 66
     1
 10
0.0
 20
0.0
 30
0.0
  0
VERTEX
  5
931
330
930
100
AcDbEntity
  8
Livello 1
100
AcDbVertex
100
AcDb2dVertex
 10
0.6881632919048926
 20
8.859449891432618
 30
0.0
  0
VERTEX
  5
932
330
930
100
AcDbEntity
  8
Livello 1
100
AcDbVertex
100
AcDb2dVertex
 10
0.6881632919048926
 20
8.864388758788422
 30
0.0
  0
VERTEX
  5
933
330
930
100
AcDbEntity
  8
Livello 1
100
AcDbVertex
100
AcDb2dVertex
 10
0.6881632919048926
 20
8.879557944846894
 30
0.0
  0
VERTEX
  5
934
330
930
100
AcDbEntity
  8
Livello 1
100
AcDbVertex
100
AcDb2dVertex
 10
0.6881632919048926
 20
8.882027378524824
 30
0.0
  0
VERTEX
  5
935
330
930
100
AcDbEntity
  8
Livello 1
100
AcDbVertex
100
AcDb2dVertex
 10
0.690632725582816
 20
8.884496812202726
 30
0.0
  0
VERTEX
  5
936
330
930
100
AcDbEntity
  8
Livello 1
100
AcDbVertex
100
AcDb2dVertex
 10
0.690632725582816
 20
8.891905113236433
 30
0.0
  0
VERTEX
  5
937
330
930
100
AcDbEntity
  8
Livello 1
100
AcDbVertex
100
AcDb2dVertex
 10
0.6931021592607039
 20
8.894374546914335
 30
0.0
  0
VERTEX
  5
938
330
930
100
AcDbEntity
  8
Livello 1
100
AcDbVertex
100
AcDb2dVertex
 10
0.6931021592607039
 20
8.899313414270153
 30
0.0
  0
VERTEX
  5
939
330
930
100
AcDbEntity
  8
Livello 1
100
AcDbVertex
100
AcDb2dVertex
 10
0.695571592938606
 20
8.901782847948041
 30
0.0
  0
VERTEX
  5
93A
330
930
100
AcDbEntity
  8
Livello 1
100
AcDbVertex
100
AcDb2dVertex
 10
0.695571592938606
 20
8.907074299294919
 30
0.0
  0
VERTEX
  5
93B
330
930
100
AcDbEntity
  8
Livello 1
100
AcDbVertex
100
AcDb2dVertex
 10
0.6980410266165223
 20
8.907074299294919
 30
0.0
  0
VERTEX
  5
93C
330
930
100
AcDbEntity
  8
Livello 1
100
AcDbVertex
100
AcDb2dVertex
 10
0.6980410266165223
 20
8.912013166650737
 30
0.0
  0
VERTEX
  5
93D
330
930
100
AcDbEntity
  8
Livello 1
100
AcDbVertex
100
AcDb2dVertex
 10
0.7005104602944244
 20
8.914482600328653
 30
0.0
  0
VERTEX
  5
93E
330
930
100
AcDbEntity
  8
Livello 1
100
AcDbVertex
100
AcDb2dVertex
 10
0.7005104602944244
 20
8.916952034006527
 30
0.0
  0
VERTEX
  5
93F
330
930
100
AcDbEntity
  8
Livello 1
100
AcDbVertex
100
AcDb2dVertex
 10
0.7033324779633859
 20
8.916952034006527
 30
0.0
  0
VERTEX
  5
940
330
930
100
AcDbEntity
  8
Livello 1
100
AcDbVertex
100
AcDb2dVertex
 10
0.7033324779633859
 20
8.921890901362345
 30
0.0
  0
VERTEX
  5
941
330
930
100
AcDbEntity
  8
Livello 1
100
AcDbVertex
100
AcDb2dVertex
 10
0.7058019116413093
 20
8.921890901362345
 30
0.0
  0
VERTEX
  5
942
330
930
100
AcDbEntity
  8
Livello 1
100
AcDbVertex
100
AcDb2dVertex
 10
0.7058019116413093
 20
8.924360335040262
 30
0.0
  0
VERTEX
  5
943
330
930
100
AcDbEntity
  8
Livello 1
100
AcDbVertex
100
AcDb2dVertex
 10
0.7082713453191971
 20
8.926829768718135
 30
0.0
  0
VERTEX
  5
944
330
930
100
AcDbEntity
  8
Livello 1
100
AcDbVertex
100
AcDb2dVertex
 10
0.7082713453191971
 20
8.929299202396052
 30
0.0
  0
VERTEX
  5
945
330
930
100
AcDbEntity
  8
Livello 1
100
AcDbVertex
100
AcDb2dVertex
 10
0.7107407789971134
 20
8.929299202396052
 30
0.0
  0
VERTEX
  5
946
330
930
100
AcDbEntity
  8
Livello 1
100
AcDbVertex
100
AcDb2dVertex
 10
0.7107407789971134
 20
8.932121220065027
 30
0.0
  0
VERTEX
  5
947
330
930
100
AcDbEntity
  8
Livello 1
100
AcDbVertex
100
AcDb2dVertex
 10
0.7132102126750155
 20
8.932121220065027
 30
0.0
  0
VERTEX
  5
948
330
930
100
AcDbEntity
  8
Livello 1
100
AcDbVertex
100
AcDb2dVertex
 10
0.7132102126750155
 20
8.93459065374293
 30
0.0
  0
VERTEX
  5
949
330
930
100
AcDbEntity
  8
Livello 1
100
AcDbVertex
100
AcDb2dVertex
 10
0.7156796463529176
 20
8.937060087420832
 30
0.0
  0
VERTEX
  5
94A
330
930
100
AcDbEntity
  8
Livello 1
100
AcDbVertex
100
AcDb2dVertex
 10
0.7156796463529176
 20
8.939529521098734
 30
0.0
  0
VERTEX
  5
94B
330
930
100
AcDbEntity
  8
Livello 1
100
AcDbVertex
100
AcDb2dVertex
 10
0.7181490800308055
 20
8.939529521098734
 30
0.0
  0
VERTEX
  5
94C
330
930
100
AcDbEntity
  8
Livello 1
100
AcDbVertex
100
AcDb2dVertex
 10
0.7206185137087218
 20
8.941998954776636
 30
0.0
  0
VERTEX
  5
94D
330
930
100
AcDbEntity
  8
Livello 1
100
AcDbVertex
100
AcDb2dVertex
 10
0.7206185137087218
 20
8.944468388454552
 30
0.0
  0
VERTEX
  5
94E
330
930
100
AcDbEntity
  8
Livello 1
100
AcDbVertex
100
AcDb2dVertex
 10
0.7230882838217312
 20
8.944468388454552
 30
0.0
  0
VERTEX
  5
94F
330
930
100
AcDbEntity
  8
Livello 1
100
AcDbVertex
100
AcDb2dVertex
 10
0.7230882838217312
 20
8.946937822132454
 30
0.0
  0
VERTEX
  5
950
330
930
100
AcDbEntity
  8
Livello 1
100
AcDbVertex
100
AcDb2dVertex
 10
0.7255577174996333
 20
8.946937822132454
 30
0.0
  0
VERTEX
  5
951
330
930
100
AcDbEntity
  8
Livello 1
100
AcDbVertex
100
AcDb2dVertex
 10
0.7280271511775354
 20
8.949407255810356
 30
0.0
  0
VERTEX
  5
952
330
930
100
AcDbEntity
  8
Livello 1
100
AcDbVertex
100
AcDb2dVertex
 10
0.7280271511775354
 20
8.951876689488258
 30
0.0
  0
VERTEX
  5
953
330
930
100
AcDbEntity
  8
Livello 1
100
AcDbVertex
100
AcDb2dVertex
 10
0.7304965848554446
 20
8.951876689488258
 30
0.0
  0
VERTEX
  5
954
330
930
100
AcDbEntity
  8
Livello 1
100
AcDbVertex
100
AcDb2dVertex
 10
0.7333186025244061
 20
8.95434612316616
 30
0.0
  0
VERTEX
  5
955
330
930
100
AcDbEntity
  8
Livello 1
100
AcDbVertex
100
AcDb2dVertex
 10
0.7357880362023224
 20
8.95434612316616
 30
0.0
  0
VERTEX
  5
956
330
930
100
AcDbEntity
  8
Livello 1
100
AcDbVertex
100
AcDb2dVertex
 10
0.7357880362023224
 20
8.956815556844063
 30
0.0
  0
VERTEX
  5
957
330
930
100
AcDbEntity
  8
Livello 1
100
AcDbVertex
100
AcDb2dVertex
 10
0.7382574698802103
 20
8.956815556844063
 30
0.0
  0
VERTEX
  5
958
330
930
100
AcDbEntity
  8
Livello 1
100
AcDbVertex
100
AcDb2dVertex
 10
0.7382574698802103
 20
8.959284990521965
 30
0.0
  0
VERTEX
  5
959
330
930
100
AcDbEntity
  8
Livello 1
100
AcDbVertex
100
AcDb2dVertex
 10
0.7407269035581266
 20
8.959284990521965
 30
0.0
  0
VERTEX
  5
95A
330
930
100
AcDbEntity
  8
Livello 1
100
AcDbVertex
100
AcDb2dVertex
 10
0.7431963372360287
 20
8.96210700819094
 30
0.0
  0
VERTEX
  5
95B
330
930
100
AcDbEntity
  8
Livello 1
100
AcDbVertex
100
AcDb2dVertex
 10
0.7456657709139308
 20
8.96210700819094
 30
0.0
  0
VERTEX
  5
95C
330
930
100
AcDbEntity
  8
Livello 1
100
AcDbVertex
100
AcDb2dVertex
 10
0.7456657709139308
 20
8.964576441868857
 30
0.0
  0
VERTEX
  5
95D
330
930
100
AcDbEntity
  8
Livello 1
100
AcDbVertex
100
AcDb2dVertex
 10
0.7506046382697349
 20
8.964576441868857
 30
0.0
  0
VERTEX
  5
95E
330
930
100
AcDbEntity
  8
Livello 1
100
AcDbVertex
100
AcDb2dVertex
 10
0.7506046382697349
 20
8.96704587554673
 30
0.0
  0
VERTEX
  5
95F
330
930
100
AcDbEntity
  8
Livello 1
100
AcDbVertex
100
AcDb2dVertex
 10
0.753074071947637
 20
8.96704587554673
 30
0.0
  0
VERTEX
  5
960
330
930
100
AcDbEntity
  8
Livello 1
100
AcDbVertex
100
AcDb2dVertex
 10
0.7555438420606464
 20
8.969515309224647
 30
0.0
  0
VERTEX
  5
961
330
930
100
AcDbEntity
  8
Livello 1
100
AcDbVertex
100
AcDb2dVertex
 10
0.7608352934075171
 20
8.969515309224647
 30
0.0
  0
VERTEX
  5
962
330
930
100
AcDbEntity
  8
Livello 1
100
AcDbVertex
100
AcDb2dVertex
 10
0.7608352934075171
 20
8.971984742902549
 30
0.0
  0
VERTEX
  5
963
330
930
100
AcDbEntity
  8
Livello 1
100
AcDbVertex
100
AcDb2dVertex
 10
0.7657741607633426
 20
8.971984742902549
 30
0.0
  0
VERTEX
  5
964
330
930
100
AcDbEntity
  8
Livello 1
100
AcDbVertex
100
AcDb2dVertex
 10
0.7682435944412376
 20
8.974454176580465
 30
0.0
  0
VERTEX
  5
965
330
930
100
AcDbEntity
  8
Livello 1
100
AcDbVertex
100
AcDb2dVertex
 10
0.7731824617970489
 20
8.974454176580465
 30
0.0
  0
VERTEX
  5
966
330
930
100
AcDbEntity
  8
Livello 1
100
AcDbVertex
100
AcDb2dVertex
 10
0.775651895474951
 20
8.976923610258367
 30
0.0
  0
VERTEX
  5
967
330
930
100
AcDbEntity
  8
Livello 1
100
AcDbVertex
100
AcDb2dVertex
 10
0.7830601965086573
 20
8.976923610258367
 30
0.0
  0
VERTEX
  5
968
330
930
100
AcDbEntity
  8
Livello 1
100
AcDbVertex
100
AcDb2dVertex
 10
0.7855296301865736
 20
8.979393043936269
 30
0.0
  0
VERTEX
  5
969
330
930
100
AcDbEntity
  8
Livello 1
100
AcDbVertex
100
AcDb2dVertex
 10
0.7879994002995688
 20
8.979393043936269
 30
0.0
  0
VERTEX
  5
96A
330
930
100
AcDbEntity
  8
Livello 1
100
AcDbVertex
100
AcDb2dVertex
 10
0.805638020035964
 20
8.979393043936269
 30
0.0
  0
VERTEX
  5
96B
330
930
100
AcDbEntity
  8
Livello 1
100
AcDbVertex
100
AcDb2dVertex
 10
0.8105768873917824
 20
8.979393043936269
 30
0.0
  0
SEQEND
  5
96C
330
930
100
AcDbEntity
  8
Livello 1
  0
POLYLINE
  5
96D
330
1F
100
AcDbEntity
  8
Livello 1
100
AcDb2dPolyline
 66
     1
 10
0.0
 20
0.0
 30
0.0
  0
VERTEX
  5
96E
330
96D
100
AcDbEntity
  8
Livello 1
100
AcDbVertex
100
AcDb2dVertex
 10
0.6881632919048926
 20
8.859449891432618
 30
0.0
  0
VERTEX
  5
96F
330
96D
100
AcDbEntity
  8
Livello 1
100
AcDbVertex
100
AcDb2dVertex
 10
0.6881632919048926
 20
7.924588242259048
 30
0.0
  0
SEQEND
  5
970
330
96D
100
AcDbEntity
  8
Livello 1
  0
POLYLINE
  5
971
330
1F
100
AcDbEntity
  8
Livello 1
100
AcDb2dPolyline
 66
     1
 10
0.0
 20
0.0
 30
0.0
  0
VERTEX
  5
972
330
971
100
AcDbEntity
  8
Livello 1
100
AcDbVertex
100
AcDb2dVertex
 10
0.8106475387640301
 20
7.802033007592541
 30
0.0
  0
VERTEX
  5
973
330
971
100
AcDbEntity
  8
Livello 1
100
AcDbVertex
100
AcDb2dVertex
 10
0.8057083349731186
 20
7.802033007592541
 30
0.0
  0
VERTEX
  5
974
330
971
100
AcDbEntity
  8
Livello 1
100
AcDbVertex
100
AcDb2dVertex
 10
0.7880697152367162
 20
7.802033007592541
 30
0.0
  0
VERTEX
  5
975
330
971
100
AcDbEntity
  8
Livello 1
100
AcDbVertex
100
AcDb2dVertex
 10
0.7856002815588213
 20
7.802033007592541
 30
0.0
  0
VERTEX
  5
976
330
971
100
AcDbEntity
  8
Livello 1
100
AcDbVertex
100
AcDb2dVertex
 10
0.7831308478809192
 20
7.804502441270457
 30
0.0
  0
VERTEX
  5
977
330
971
100
AcDbEntity
  8
Livello 1
100
AcDbVertex
100
AcDb2dVertex
 10
0.7757222104120985
 20
7.804502441270457
 30
0.0
  0
VERTEX
  5
978
330
971
100
AcDbEntity
  8
Livello 1
100
AcDbVertex
100
AcDb2dVertex
 10
0.7732527767342035
 20
7.806971874948359
 30
0.0
  0
VERTEX
  5
979
330
971
100
AcDbEntity
  8
Livello 1
100
AcDbVertex
100
AcDb2dVertex
 10
0.7683139093783922
 20
7.806971874948359
 30
0.0
  0
VERTEX
  5
97A
330
971
100
AcDbEntity
  8
Livello 1
100
AcDbVertex
100
AcDb2dVertex
 10
0.7654918917094165
 20
7.809441308626276
 30
0.0
  0
VERTEX
  5
97B
330
971
100
AcDbEntity
  8
Livello 1
100
AcDbVertex
100
AcDb2dVertex
 10
0.7605530243536052
 20
7.809441308626276
 30
0.0
  0
VERTEX
  5
97C
330
971
100
AcDbEntity
  8
Livello 1
100
AcDbVertex
100
AcDb2dVertex
 10
0.7605530243536052
 20
7.811910742304178
 30
0.0
  0
VERTEX
  5
97D
330
971
100
AcDbEntity
  8
Livello 1
100
AcDbVertex
100
AcDb2dVertex
 10
0.755614156997801
 20
7.811910742304178
 30
0.0
  0
VERTEX
  5
97E
330
971
100
AcDbEntity
  8
Livello 1
100
AcDbVertex
100
AcDb2dVertex
 10
0.7531447233198989
 20
7.81438017598208
 30
0.0
  0
VERTEX
  5
97F
330
971
100
AcDbEntity
  8
Livello 1
100
AcDbVertex
100
AcDb2dVertex
 10
0.7506752896419969
 20
7.81438017598208
 30
0.0
  0
VERTEX
  5
980
330
971
100
AcDbEntity
  8
Livello 1
100
AcDbVertex
100
AcDb2dVertex
 10
0.7506752896419969
 20
7.817202193651056
 30
0.0
  0
VERTEX
  5
981
330
971
100
AcDbEntity
  8
Livello 1
100
AcDbVertex
100
AcDb2dVertex
 10
0.7457364222861927
 20
7.817202193651056
 30
0.0
  0
VERTEX
  5
982
330
971
100
AcDbEntity
  8
Livello 1
100
AcDbVertex
100
AcDb2dVertex
 10
0.7457364222861927
 20
7.819671627328958
 30
0.0
  0
VERTEX
  5
983
330
971
100
AcDbEntity
  8
Livello 1
100
AcDbVertex
100
AcDb2dVertex
 10
0.7432666521731833
 20
7.819671627328958
 30
0.0
  0
VERTEX
  5
984
330
971
100
AcDbEntity
  8
Livello 1
100
AcDbVertex
100
AcDb2dVertex
 10
0.740797218495267
 20
7.82214106100686
 30
0.0
  0
VERTEX
  5
985
330
971
100
AcDbEntity
  8
Livello 1
100
AcDbVertex
100
AcDb2dVertex
 10
0.7379752008263054
 20
7.82214106100686
 30
0.0
  0
VERTEX
  5
986
330
971
100
AcDbEntity
  8
Livello 1
100
AcDbVertex
100
AcDb2dVertex
 10
0.7379752008263054
 20
7.824610494684762
 30
0.0
  0
VERTEX
  5
987
330
971
100
AcDbEntity
  8
Livello 1
100
AcDbVertex
100
AcDb2dVertex
 10
0.7355057671483963
 20
7.824610494684762
 30
0.0
  0
VERTEX
  5
988
330
971
100
AcDbEntity
  8
Livello 1
100
AcDbVertex
100
AcDb2dVertex
 10
0.7355057671483963
 20
7.827079928362664
 30
0.0
  0
VERTEX
  5
989
330
971
100
AcDbEntity
  8
Livello 1
100
AcDbVertex
100
AcDb2dVertex
 10
0.7330363334704942
 20
7.827079928362664
 30
0.0
  0
VERTEX
  5
98A
330
971
100
AcDbEntity
  8
Livello 1
100
AcDbVertex
100
AcDb2dVertex
 10
0.7305668997925921
 20
7.829549362040566
 30
0.0
  0
VERTEX
  5
98B
330
971
100
AcDbEntity
  8
Livello 1
100
AcDbVertex
100
AcDb2dVertex
 10
0.7280974661146758
 20
7.829549362040566
 30
0.0
  0
VERTEX
  5
98C
330
971
100
AcDbEntity
  8
Livello 1
100
AcDbVertex
100
AcDb2dVertex
 10
0.7280974661146758
 20
7.832018795718468
 30
0.0
  0
VERTEX
  5
98D
330
971
100
AcDbEntity
  8
Livello 1
100
AcDbVertex
100
AcDb2dVertex
 10
0.7256280324367737
 20
7.83448822939637
 30
0.0
  0
VERTEX
  5
98E
330
971
100
AcDbEntity
  8
Livello 1
100
AcDbVertex
100
AcDb2dVertex
 10
0.7231585987588858
 20
7.83448822939637
 30
0.0
  0
VERTEX
  5
98F
330
971
100
AcDbEntity
  8
Livello 1
100
AcDbVertex
100
AcDb2dVertex
 10
0.7231585987588858
 20
7.836957663074272
 30
0.0
  0
VERTEX
  5
990
330
971
100
AcDbEntity
  8
Livello 1
100
AcDbVertex
100
AcDb2dVertex
 10
0.7206891650809837
 20
7.836957663074272
 30
0.0
  0
VERTEX
  5
991
330
971
100
AcDbEntity
  8
Livello 1
100
AcDbVertex
100
AcDb2dVertex
 10
0.7206891650809837
 20
7.839427096752189
 30
0.0
  0
VERTEX
  5
992
330
971
100
AcDbEntity
  8
Livello 1
100
AcDbVertex
100
AcDb2dVertex
 10
0.7182197314030674
 20
7.841896530430105
 30
0.0
  0
VERTEX
  5
993
330
971
100
AcDbEntity
  8
Livello 1
100
AcDbVertex
100
AcDb2dVertex
 10
0.7157502977251653
 20
7.841896530430105
 30
0.0
  0
VERTEX
  5
994
330
971
100
AcDbEntity
  8
Livello 1
100
AcDbVertex
100
AcDb2dVertex
 10
0.7157502977251653
 20
7.844365964107993
 30
0.0
  0
VERTEX
  5
995
330
971
100
AcDbEntity
  8
Livello 1
100
AcDbVertex
100
AcDb2dVertex
 10
0.7132808640472632
 20
7.847187981776968
 30
0.0
  0
VERTEX
  5
996
330
971
100
AcDbEntity
  8
Livello 1
100
AcDbVertex
100
AcDb2dVertex
 10
0.7132808640472632
 20
7.849657415454871
 30
0.0
  0
VERTEX
  5
997
330
971
100
AcDbEntity
  8
Livello 1
100
AcDbVertex
100
AcDb2dVertex
 10
0.7108114303693612
 20
7.849657415454871
 30
0.0
  0
VERTEX
  5
998
330
971
100
AcDbEntity
  8
Livello 1
100
AcDbVertex
100
AcDb2dVertex
 10
0.7108114303693612
 20
7.852126849132773
 30
0.0
  0
VERTEX
  5
999
330
971
100
AcDbEntity
  8
Livello 1
100
AcDbVertex
100
AcDb2dVertex
 10
0.7079890762652923
 20
7.852126849132773
 30
0.0
  0
VERTEX
  5
99A
330
971
100
AcDbEntity
  8
Livello 1
100
AcDbVertex
100
AcDb2dVertex
 10
0.7079890762652923
 20
7.854596282810675
 30
0.0
  0
VERTEX
  5
99B
330
971
100
AcDbEntity
  8
Livello 1
100
AcDbVertex
100
AcDb2dVertex
 10
0.7055196425873831
 20
7.857065716488577
 30
0.0
  0
VERTEX
  5
99C
330
971
100
AcDbEntity
  8
Livello 1
100
AcDbVertex
100
AcDb2dVertex
 10
0.7055196425873831
 20
7.859535150166479
 30
0.0
  0
VERTEX
  5
99D
330
971
100
AcDbEntity
  8
Livello 1
100
AcDbVertex
100
AcDb2dVertex
 10
0.7030502089094668
 20
7.859535150166479
 30
0.0
  0
VERTEX
  5
99E
330
971
100
AcDbEntity
  8
Livello 1
100
AcDbVertex
100
AcDb2dVertex
 10
0.7030502089094668
 20
7.864474017522283
 30
0.0
  0
VERTEX
  5
99F
330
971
100
AcDbEntity
  8
Livello 1
100
AcDbVertex
100
AcDb2dVertex
 10
0.7005807752315647
 20
7.864474017522283
 30
0.0
  0
VERTEX
  5
9A0
330
971
100
AcDbEntity
  8
Livello 1
100
AcDbVertex
100
AcDb2dVertex
 10
0.7005807752315647
 20
7.866943451200171
 30
0.0
  0
VERTEX
  5
9A1
330
971
100
AcDbEntity
  8
Livello 1
100
AcDbVertex
100
AcDb2dVertex
 10
0.6981113415536698
 20
7.869412884878101
 30
0.0
  0
VERTEX
  5
9A2
330
971
100
AcDbEntity
  8
Livello 1
100
AcDbVertex
100
AcDb2dVertex
 10
0.6981113415536698
 20
7.874704336224965
 30
0.0
  0
VERTEX
  5
9A3
330
971
100
AcDbEntity
  8
Livello 1
100
AcDbVertex
100
AcDb2dVertex
 10
0.6956419078757606
 20
7.874704336224965
 30
0.0
  0
VERTEX
  5
9A4
330
971
100
AcDbEntity
  8
Livello 1
100
AcDbVertex
100
AcDb2dVertex
 10
0.6956419078757606
 20
7.879643203580783
 30
0.0
  0
VERTEX
  5
9A5
330
971
100
AcDbEntity
  8
Livello 1
100
AcDbVertex
100
AcDb2dVertex
 10
0.6931724741978585
 20
7.882112637258671
 30
0.0
  0
VERTEX
  5
9A6
330
971
100
AcDbEntity
  8
Livello 1
100
AcDbVertex
100
AcDb2dVertex
 10
0.6931724741978585
 20
7.88705150461449
 30
0.0
  0
VERTEX
  5
9A7
330
971
100
AcDbEntity
  8
Livello 1
100
AcDbVertex
100
AcDb2dVertex
 10
0.6907030405199564
 20
7.889520938292392
 30
0.0
  0
VERTEX
  5
9A8
330
971
100
AcDbEntity
  8
Livello 1
100
AcDbVertex
100
AcDb2dVertex
 10
0.6907030405199564
 20
7.896929239326098
 30
0.0
  0
VERTEX
  5
9A9
330
971
100
AcDbEntity
  8
Livello 1
100
AcDbVertex
100
AcDb2dVertex
 10
0.6882336068420543
 20
7.899398673004
 30
0.0
  0
VERTEX
  5
9AA
330
971
100
AcDbEntity
  8
Livello 1
100
AcDbVertex
100
AcDb2dVertex
 10
0.6882336068420543
 20
7.901868106681916
 30
0.0
  0
VERTEX
  5
9AB
330
971
100
AcDbEntity
  8
Livello 1
100
AcDbVertex
100
AcDb2dVertex
 10
0.6882336068420543
 20
7.919506726418291
 30
0.0
  0
VERTEX
  5
9AC
330
971
100
AcDbEntity
  8
Livello 1
100
AcDbVertex
100
AcDb2dVertex
 10
0.6882336068420543
 20
7.924445593774109
 30
0.0
  0
SEQEND
  5
9AD
330
971
100
AcDbEntity
  8
Livello 1
  0
POLYLINE
  5
9AE
330
1F
100
AcDbEntity
  8
Livello 1
100
AcDb2dPolyline
 66
     1
 10
0.0
 20
0.0
 30
0.0
  0
VERTEX
  5
9AF
330
9AE
100
AcDbEntity
  8
Livello 1
100
AcDbVertex
100
AcDb2dVertex
 10
0.8106475387640301
 20
7.802033007592541
 30
0.0
  0
VERTEX
  5
9B0
330
9AE
100
AcDbEntity
  8
Livello 1
100
AcDbVertex
100
AcDb2dVertex
 10
2.084175195106787
 20
7.802033007592541
 30
0.0
  0
SEQEND
  5
9B1
330
9AE
100
AcDbEntity
  8
Livello 1
  0
SPLINE
  5
9B2
330
1F
100
AcDbEntity
  8
Livello 1
100
AcDbSpline
210
0.0
220
0.0
230
1.0
 70
     8
 71
     3
 72
   176
 73
   172
 74
     0
 42
0.000000001
 43
0.0000000001
 40
0.0
 40
0.0
 40
0.0
 40
0.0
 40
1.0
 40
1.0
 40
1.0
 40
2.0
 40
2.0
 40
2.0
 40
3.0
 40
3.0
 40
3.0
 40
4.0
 40
4.0
 40
4.0
 40
5.0
 40
5.0
 40
5.0
 40
6.0
 40
6.0
 40
6.0
 40
7.0
 40
7.0
 40
7.0
 40
8.0
 40
8.0
 40
8.0
 40
9.0
 40
9.0
 40
9.0
 40
10.0
 40
10.0
 40
10.0
 40
11.0
 40
11.0
 40
11.0
 40
12.0
 40
12.0
 40
12.0
 40
13.0
 40
13.0
 40
13.0
 40
14.0
 40
14.0
 40
14.0
 40
15.0
 40
15.0
 40
15.0
 40
16.0
 40
16.0
 40
16.0
 40
17.0
 40
17.0
 40
17.0
 40
18.0
 40
18.0
 40
18.0
 40
19.0
 40
19.0
 40
19.0
 40
20.0
 40
20.0
 40
20.0
 40
21.0
 40
21.0
 40
21.0
 40
22.0
 40
22.0
 40
22.0
 40
23.0
 40
23.0
 40
23.0
 40
24.0
 40
24.0
 40
24.0
 40
25.0
 40
25.0
 40
25.0
 40
26.0
 40
26.0
 40
26.0
 40
27.0
 40
27.0
 40
27.0
 40
28.0
 40
28.0
 40
28.0
 40
29.0
 40
29.0
 40
29.0
 40
30.0
 40
30.0
 40
30.0
 40
31.0
 40
31.0
 40
31.0
 40
32.0
 40
32.0
 40
32.0
 40
33.0
 40
33.0
 40
33.0
 40
34.0
 40
34.0
 40
34.0
 40
35.0
 40
35.0
 40
35.0
 40
36.0
 40
36.0
 40
36.0
 40
37.0
 40
37.0
 40
37.0
 40
38.0
 40
38.0
 40
38.0
 40
39.0
 40
39.0
 40
39.0
 40
40.0
 40
40.0
 40
40.0
 40
41.0
 40
41.0
 40
41.0
 40
42.0
 40
42.0
 40
42.0
 40
43.0
 40
43.0
 40
43.0
 40
44.0
 40
44.0
 40
44.0
 40
45.0
 40
45.0
 40
45.0
 40
46.0
 40
46.0
 40
46.0
 40
47.0
 40
47.0
 40
47.0
 40
48.0
 40
48.0
 40
48.0
 40
49.0
 40
49.0
 40
49.0
 40
50.0
 40
50.0
 40
50.0
 40
51.0
 40
51.0
 40
51.0
 40
52.0
 40
52.0
 40
52.0
 40
53.0
 40
53.0
 40
53.0
 40
54.0
 40
54.0
 40
54.0
 40
55.0
 40
55.0
 40
55.0
 40
56.0
 40
56.0
 40
56.0
 40
57.0
 40
57.0
 40
57.0
 40
57.0
 10
1.460605510704233
 20
7.397079527926948
 30
0.0
 10
1.460605510704233
 20
7.397079527926948
 30
0.0
 10
1.258110603375705
 20
7.397079527926948
 30
0.0
 10
1.258110603375705
 20
7.397079527926948
 30
0.0
 10
1.258110603375705
 20
7.397079527926948
 30
0.0
 10
1.213308213182379
 20
7.397079527926948
 30
0.0
 10
1.213308213182379
 20
7.397079527926948
 30
0.0
 10
1.213308213182379
 20
7.397079527926948
 30
0.0
 10
1.208016088965287
 20
7.39954896160485
 30
0.0
 10
1.208016088965287
 20
7.39954896160485
 30
0.0
 10
1.208016088965287
 20
7.39954896160485
 30
0.0
 10
1.198138354253664
 20
7.39954896160485
 30
0.0
 10
1.198138354253664
 20
7.39954896160485
 30
0.0
 10
1.198138354253664
 20
7.39954896160485
 30
0.0
 10
1.193199486897874
 20
7.402018395282752
 30
0.0
 10
1.193199486897874
 20
7.402018395282752
 30
0.0
 10
1.193199486897874
 20
7.402018395282752
 30
0.0
 10
1.182969168195178
 20
7.402018395282752
 30
0.0
 10
1.182969168195178
 20
7.402018395282752
 30
0.0
 10
1.182969168195178
 20
7.402018395282752
 30
0.0
 10
1.178030300839374
 20
7.404487828960682
 30
0.0
 10
1.178030300839374
 20
7.404487828960682
 30
0.0
 10
1.178030300839374
 20
7.404487828960682
 30
0.0
 10
1.168152566127758
 20
7.404487828960682
 30
0.0
 10
1.168152566127758
 20
7.404487828960682
 30
0.0
 10
1.168152566127758
 20
7.404487828960682
 30
0.0
 10
1.163213698771947
 20
7.40695726263857
 30
0.0
 10
1.163213698771947
 20
7.40695726263857
 30
0.0
 10
1.163213698771947
 20
7.40695726263857
 30
0.0
 10
1.158274831416136
 20
7.40695726263857
 30
0.0
 10
1.158274831416136
 20
7.40695726263857
 30
0.0
 10
1.158274831416136
 20
7.40695726263857
 30
0.0
 10
1.152983043634158
 20
7.409426696316472
 30
0.0
 10
1.152983043634158
 20
7.409426696316472
 30
0.0
 10
1.152983043634158
 20
7.409426696316472
 30
0.0
 10
1.148044176278347
 20
7.409426696316472
 30
0.0
 10
1.148044176278347
 20
7.409426696316472
 30
0.0
 10
1.148044176278347
 20
7.409426696316472
 30
0.0
 10
1.14310530892255
 20
7.412248713985462
 30
0.0
 10
1.14310530892255
 20
7.412248713985462
 30
0.0
 10
1.14310530892255
 20
7.412248713985462
 30
0.0
 10
1.138166441566738
 20
7.412248713985462
 30
0.0
 10
1.138166441566738
 20
7.412248713985462
 30
0.0
 10
1.138166441566738
 20
7.412248713985462
 30
0.0
 10
1.135697007888843
 20
7.41471814766335
 30
0.0
 10
1.135697007888843
 20
7.41471814766335
 30
0.0
 10
1.135697007888843
 20
7.41471814766335
 30
0.0
 10
1.130758140533032
 20
7.417187581341252
 30
0.0
 10
1.130758140533032
 20
7.417187581341252
 30
0.0
 10
1.130758140533032
 20
7.417187581341252
 30
0.0
 10
1.125466352751047
 20
7.417187581341252
 30
0.0
 10
1.125466352751047
 20
7.417187581341252
 30
0.0
 10
1.125466352751047
 20
7.417187581341252
 30
0.0
 10
1.120527485395243
 20
7.41965701501914
 30
0.0
 10
1.120527485395243
 20
7.41965701501914
 30
0.0
 10
1.120527485395243
 20
7.41965701501914
 30
0.0
 10
1.115588618039431
 20
7.422126448697056
 30
0.0
 10
1.115588618039431
 20
7.422126448697056
 30
0.0
 10
1.115588618039431
 20
7.422126448697056
 30
0.0
 10
1.110649750683627
 20
7.422126448697056
 30
0.0
 10
1.110649750683627
 20
7.422126448697056
 30
0.0
 10
1.110649750683627
 20
7.422126448697056
 30
0.0
 10
1.105710883327823
 20
7.424595882374958
 30
0.0
 10
1.105710883327823
 20
7.424595882374958
 30
0.0
 10
1.105710883327823
 20
7.424595882374958
 30
0.0
 10
1.103241449649907
 20
7.427065316052875
 30
0.0
 10
1.103241449649907
 20
7.427065316052875
 30
0.0
 10
1.103241449649907
 20
7.427065316052875
 30
0.0
 10
1.098302582294103
 20
7.429534749730748
 30
0.0
 10
1.098302582294103
 20
7.429534749730748
 30
0.0
 10
1.098302582294103
 20
7.429534749730748
 30
0.0
 10
1.093010794512132
 20
7.429534749730748
 30
0.0
 10
1.093010794512132
 20
7.429534749730748
 30
0.0
 10
1.075019254349562
 20
7.438705970719823
 30
0.0
 10
1.057733218604234
 20
7.449290219153994
 30
0.0
 10
1.040799766849971
 20
7.459520537856676
 30
0.0
 10
1.040799766849971
 20
7.459520537856676
 30
0.0
 10
1.030569111712175
 20
7.464459405212494
 30
0.0
 10
1.030569111712175
 20
7.464459405212494
 30
0.0
 10
1.030569111712175
 20
7.464459405212494
 30
0.0
 10
1.02809967803428
 20
7.466928838890396
 30
0.0
 10
1.02809967803428
 20
7.466928838890396
 30
0.0
 10
1.02809967803428
 20
7.466928838890396
 30
0.0
 10
1.023160810678483
 20
7.469750856559372
 30
0.0
 10
1.023160810678483
 20
7.469750856559372
 30
0.0
 10
1.023160810678483
 20
7.469750856559372
 30
0.0
 10
1.020691377000567
 20
7.472220290237274
 30
0.0
 10
1.020691377000567
 20
7.472220290237274
 30
0.0
 10
1.020691377000567
 20
7.472220290237274
 30
0.0
 10
1.015752509644762
 20
7.474689723915176
 30
0.0
 10
1.015752509644762
 20
7.474689723915176
 30
0.0
 10
1.015752509644762
 20
7.474689723915176
 30
0.0
 10
1.007991624619982
 20
7.482098024948882
 30
0.0
 10
1.007991624619982
 20
7.482098024948882
 30
0.0
 10
1.007991624619982
 20
7.482098024948882
 30
0.0
 10
1.003052420829071
 20
7.484567458626784
 30
0.0
 10
1.003052420829071
 20
7.484567458626784
 30
0.0
 10
0.9928221021263823
 20
7.496209459034162
 30
0.0
 10
0.9945860313870369
 20
7.492328343651564
 30
0.0
 10
0.9857663850837354
 20
7.49973664468527
 30
0.0
 10
0.9857663850837354
 20
7.49973664468527
 30
0.0
 10
0.9631885615564357
 20
7.521961547786389
 30
0.0
 10
0.9631885615564357
 20
7.521961547786389
 30
0.0
 10
0.9279109856485376
 20
7.557945300981756
 30
0.0
 10
0.9095665250597875
 20
7.593223886194991
 30
0.0
 10
0.8855776926980141
 20
7.636967178674666
 30
0.0
 10
0.8855776926980141
 20
7.636967178674666
 30
0.0
 10
0.8855776926980141
 20
7.641906046030484
 30
0.0
 10
0.8855776926980141
 20
7.641906046030484
 30
0.0
 10
0.8855776926980141
 20
7.641906046030484
 30
0.0
 10
0.8831082590201049
 20
7.647198843117777
 30
0.0
 10
0.8831082590201049
 20
7.647198843117777
 30
0.0
 10
0.8831082590201049
 20
7.647198843117777
 30
0.0
 10
0.8806388253422028
 20
7.649668276795694
 30
0.0
 10
0.8806388253422028
 20
7.649668276795694
 30
0.0
 10
0.8806388253422028
 20
7.649668276795694
 30
0.0
 10
0.8781693916642865
 20
7.654607144151512
 30
0.0
 10
0.8781693916642865
 20
7.654607144151512
 30
0.0
 10
0.8781693916642865
 20
7.654607144151512
 30
0.0
 10
0.8781693916642865
 20
7.659546011507302
 30
0.0
 10
0.8781693916642865
 20
7.659546011507302
 30
0.0
 10
0.8781693916642865
 20
7.659546011507302
 30
0.0
 10
0.8732305243084823
 20
7.669423746218924
 30
0.0
 10
0.8732305243084823
 20
7.669423746218924
 30
0.0
 10
0.8732305243084823
 20
7.669423746218924
 30
0.0
 10
0.8732305243084823
 20
7.674715197565788
 30
0.0
 10
0.8732305243084823
 20
7.674715197565788
 30
0.0
 10
0.8732305243084823
 20
7.674715197565788
 30
0.0
 10
0.8707607541954658
 20
7.679654064921606
 30
0.0
 10
0.8707607541954658
 20
7.679654064921606
 30
0.0
 10
0.8707607541954658
 20
7.679654064921606
 30
0.0
 10
0.8682913205175708
 20
7.682123498599509
 30
0.0
 10
0.8682913205175708
 20
7.682123498599509
 30
0.0
 10
0.8682913205175708
 20
7.682123498599509
 30
0.0
 10
0.8682913205175708
 20
7.687062365955313
 30
0.0
 10
0.8682913205175708
 20
7.687062365955313
 30
0.0
 10
0.8682913205175708
 20
7.687062365955313
 30
0.0
 10
0.8658218868396687
 20
7.692001233311117
 30
0.0
 10
0.8658218868396687
 20
7.692001233311117
 30
0.0
 10
0.8658218868396687
 20
7.692001233311117
 30
0.0
 10
0.8658218868396687
 20
7.696940100666921
 30
0.0
 10
0.8658218868396687
 20
7.696940100666921
 30
0.0
 10
0.8658218868396687
 20
7.696940100666921
 30
0.0
 10
0.8633524531617666
 20
7.701878968022739
 30
0.0
 10
0.8633524531617666
 20
7.701878968022739
 30
0.0
 10
0.8633524531617666
 20
7.701878968022739
 30
0.0
 10
0.8633524531617666
 20
7.707170419369617
 30
0.0
 10
0.8633524531617666
 20
7.707170419369617
 30
0.0
 10
0.8633524531617666
 20
7.707170419369617
 30
0.0
 10
0.8605304354927838
 20
7.712109286725421
 30
0.0
 10
0.8605304354927838
 20
7.712109286725421
 30
0.0
 10
0.8605304354927838
 20
7.712109286725421
 30
0.0
 10
0.8605304354927838
 20
7.721987021437044
 30
0.0
 10
0.8605304354927838
 20
7.721987021437044
 30
0.0
 10
0.8605304354927838
 20
7.721987021437044
 30
0.0
 10
0.8580610018148817
 20
7.726925888792834
 30
0.0
 10
0.8580610018148817
 20
7.726925888792834
 30
0.0
 10
0.8580610018148817
 20
7.726925888792834
 30
0.0
 10
0.8580610018148817
 20
7.737156207495544
 30
0.0
 10
0.8580610018148817
 20
7.737156207495544
 30
0.0
 10
0.8580610018148817
 20
7.737156207495544
 30
0.0
 10
0.8555915681369938
 20
7.742095074851334
 30
0.0
 10
0.8555915681369938
 20
7.742095074851334
 30
0.0
 10
0.8555915681369938
 20
7.742095074851334
 30
0.0
 10
0.8555915681369938
 20
7.751972809562943
 30
0.0
 10
0.8555915681369938
 20
7.751972809562943
 30
0.0
 10
0.8555915681369938
 20
7.751972809562943
 30
0.0
 10
0.8531221344590775
 20
7.756911676918761
 30
0.0
 10
0.8531221344590775
 20
7.756911676918761
 30
0.0
 10
0.8531221344590775
 20
7.756911676918761
 30
0.0
 10
0.8531221344590775
 20
7.802067996843575
 30
0.0
 10
0.8531221344590775
 20
7.802067996843575
 30
0.0
  0
POLYLINE
  5
9B3
330
1F
100
AcDbEntity
  8
Livello 1
100
AcDb2dPolyline
 66
     1
 10
0.0
 20
0.0
 30
0.0
  0
VERTEX
  5
9B4
330
9B3
100
AcDbEntity
  8
Livello 1
100
AcDbVertex
100
AcDb2dVertex
 10
1.500610336286278
 20
7.437049364257973
 30
0.0
  0
VERTEX
  5
9B5
330
9B3
100
AcDbEntity
  8
Livello 1
100
AcDbVertex
100
AcDb2dVertex
 10
1.498140229738162
 20
7.434578584839641
 30
0.0
  0
VERTEX
  5
9B6
330
9B3
100
AcDbEntity
  8
Livello 1
100
AcDbVertex
100
AcDb2dVertex
 10
1.498140229738162
 20
7.421878832459071
 30
0.0
  0
VERTEX
  5
9B7
330
9B3
100
AcDbEntity
  8
Livello 1
100
AcDbVertex
100
AcDb2dVertex
 10
1.495670796060259
 20
7.421878832459071
 30
0.0
  0
VERTEX
  5
9B8
330
9B3
100
AcDbEntity
  8
Livello 1
100
AcDbVertex
100
AcDb2dVertex
 10
1.495670796060259
 20
7.416939965103253
 30
0.0
  0
VERTEX
  5
9B9
330
9B3
100
AcDbEntity
  8
Livello 1
100
AcDbVertex
100
AcDb2dVertex
 10
1.49320136238235
 20
7.416939965103253
 30
0.0
  0
VERTEX
  5
9BA
330
9B3
100
AcDbEntity
  8
Livello 1
100
AcDbVertex
100
AcDb2dVertex
 10
1.49320136238235
 20
7.41200109774742
 30
0.0
  0
VERTEX
  5
9BB
330
9B3
100
AcDbEntity
  8
Livello 1
100
AcDbVertex
100
AcDb2dVertex
 10
1.490731928704448
 20
7.41200109774742
 30
0.0
  0
VERTEX
  5
9BC
330
9B3
100
AcDbEntity
  8
Livello 1
100
AcDbVertex
100
AcDb2dVertex
 10
1.490731928704448
 20
7.409531664069533
 30
0.0
  0
VERTEX
  5
9BD
330
9B3
100
AcDbEntity
  8
Livello 1
100
AcDbVertex
100
AcDb2dVertex
 10
1.488262495026553
 20
7.409531664069533
 30
0.0
  0
VERTEX
  5
9BE
330
9B3
100
AcDbEntity
  8
Livello 1
100
AcDbVertex
100
AcDb2dVertex
 10
1.488262495026553
 20
7.40706223039163
 30
0.0
  0
VERTEX
  5
9BF
330
9B3
100
AcDbEntity
  8
Livello 1
100
AcDbVertex
100
AcDb2dVertex
 10
1.48544047735757
 20
7.40706223039163
 30
0.0
  0
VERTEX
  5
9C0
330
9B3
100
AcDbEntity
  8
Livello 1
100
AcDbVertex
100
AcDb2dVertex
 10
1.48544047735757
 20
7.404592796713743
 30
0.0
  0
VERTEX
  5
9C1
330
9B3
100
AcDbEntity
  8
Livello 1
100
AcDbVertex
100
AcDb2dVertex
 10
1.482971043679668
 20
7.404592796713743
 30
0.0
  0
VERTEX
  5
9C2
330
9B3
100
AcDbEntity
  8
Livello 1
100
AcDbVertex
100
AcDb2dVertex
 10
1.482971043679668
 20
7.402123363035812
 30
0.0
  0
VERTEX
  5
9C3
330
9B3
100
AcDbEntity
  8
Livello 1
100
AcDbVertex
100
AcDb2dVertex
 10
1.478032176323857
 20
7.402123363035812
 30
0.0
  0
VERTEX
  5
9C4
330
9B3
100
AcDbEntity
  8
Livello 1
100
AcDbVertex
100
AcDb2dVertex
 10
1.478032176323857
 20
7.399653929357924
 30
0.0
  0
VERTEX
  5
9C5
330
9B3
100
AcDbEntity
  8
Livello 1
100
AcDbVertex
100
AcDb2dVertex
 10
1.473093308968053
 20
7.399653929357924
 30
0.0
  0
VERTEX
  5
9C6
330
9B3
100
AcDbEntity
  8
Livello 1
100
AcDbVertex
100
AcDb2dVertex
 10
1.473093308968053
 20
7.397184495680022
 30
0.0
  0
VERTEX
  5
9C7
330
9B3
100
AcDbEntity
  8
Livello 1
100
AcDbVertex
100
AcDb2dVertex
 10
1.460746140578542
 20
7.397184495680022
 30
0.0
  0
SEQEND
  5
9C8
330
9B3
100
AcDbEntity
  8
Livello 1
  0
POLYLINE
  5
9C9
330
1F
100
AcDbEntity
  8
Livello 1
100
AcDb2dPolyline
 66
     1
 10
0.0
 20
0.0
 30
0.0
  0
VERTEX
  5
9CA
330
9C9
100
AcDbEntity
  8
Livello 1
100
AcDbVertex
100
AcDb2dVertex
 10
1.500610336286278
 20
7.802033007592541
 30
0.0
  0
VERTEX
  5
9CB
330
9C9
100
AcDbEntity
  8
Livello 1
100
AcDbVertex
100
AcDb2dVertex
 10
1.500610336286278
 20
7.436906715773034
 30
0.0
  0
SEQEND
  5
9CC
330
9C9
100
AcDbEntity
  8
Livello 1
  0
POLYLINE
  5
9CD
330
1F
100
AcDbEntity
  8
Livello 1
100
AcDb2dPolyline
 66
     1
 10
0.0
 20
0.0
 30
0.0
  0
VERTEX
  5
9CE
330
9CD
100
AcDbEntity
  8
Livello 1
100
AcDbVertex
100
AcDb2dVertex
 10
1.460605510704233
 20
9.359405916325258
 30
0.0
  0
VERTEX
  5
9CF
330
9CD
100
AcDbEntity
  8
Livello 1
100
AcDbVertex
100
AcDb2dVertex
 10
1.460605510704233
 20
9.356935136906926
 30
0.0
  0
VERTEX
  5
9D0
330
9CD
100
AcDbEntity
  8
Livello 1
100
AcDbVertex
100
AcDb2dVertex
 10
1.472952679093765
 20
9.356935136906926
 30
0.0
  0
VERTEX
  5
9D1
330
9CD
100
AcDbEntity
  8
Livello 1
100
AcDbVertex
100
AcDb2dVertex
 10
1.472952679093765
 20
9.354465703229024
 30
0.0
  0
VERTEX
  5
9D2
330
9CD
100
AcDbEntity
  8
Livello 1
100
AcDbVertex
100
AcDb2dVertex
 10
1.478244130440629
 20
9.354465703229024
 30
0.0
  0
VERTEX
  5
9D3
330
9CD
100
AcDbEntity
  8
Livello 1
100
AcDbVertex
100
AcDb2dVertex
 10
1.480713564118531
 20
9.351996269551122
 30
0.0
  0
VERTEX
  5
9D4
330
9CD
100
AcDbEntity
  8
Livello 1
100
AcDbVertex
100
AcDb2dVertex
 10
1.483182997796447
 20
9.351996269551122
 30
0.0
  0
VERTEX
  5
9D5
330
9CD
100
AcDbEntity
  8
Livello 1
100
AcDbVertex
100
AcDb2dVertex
 10
1.483182997796447
 20
9.34952683587322
 30
0.0
  0
VERTEX
  5
9D6
330
9CD
100
AcDbEntity
  8
Livello 1
100
AcDbVertex
100
AcDb2dVertex
 10
1.485652431474349
 20
9.34952683587322
 30
0.0
  0
VERTEX
  5
9D7
330
9CD
100
AcDbEntity
  8
Livello 1
100
AcDbVertex
100
AcDb2dVertex
 10
1.488121865152237
 20
9.347057402195318
 30
0.0
  0
VERTEX
  5
9D8
330
9CD
100
AcDbEntity
  8
Livello 1
100
AcDbVertex
100
AcDb2dVertex
 10
1.490591298830153
 20
9.347057402195318
 30
0.0
  0
VERTEX
  5
9D9
330
9CD
100
AcDbEntity
  8
Livello 1
100
AcDbVertex
100
AcDb2dVertex
 10
1.490591298830153
 20
9.344235384526356
 30
0.0
  0
VERTEX
  5
9DA
330
9CD
100
AcDbEntity
  8
Livello 1
100
AcDbVertex
100
AcDb2dVertex
 10
1.493060732508062
 20
9.34176595084844
 30
0.0
  0
VERTEX
  5
9DB
330
9CD
100
AcDbEntity
  8
Livello 1
100
AcDbVertex
100
AcDb2dVertex
 10
1.493060732508062
 20
9.339296517170538
 30
0.0
  0
VERTEX
  5
9DC
330
9CD
100
AcDbEntity
  8
Livello 1
100
AcDbVertex
100
AcDb2dVertex
 10
1.495530166185957
 20
9.339296517170538
 30
0.0
  0
VERTEX
  5
9DD
330
9CD
100
AcDbEntity
  8
Livello 1
100
AcDbVertex
100
AcDb2dVertex
 10
1.495530166185957
 20
9.336827083492622
 30
0.0
  0
VERTEX
  5
9DE
330
9CD
100
AcDbEntity
  8
Livello 1
100
AcDbVertex
100
AcDb2dVertex
 10
1.497999599863859
 20
9.334357649814748
 30
0.0
  0
VERTEX
  5
9DF
330
9CD
100
AcDbEntity
  8
Livello 1
100
AcDbVertex
100
AcDb2dVertex
 10
1.497999599863859
 20
9.329418782458915
 30
0.0
  0
VERTEX
  5
9E0
330
9CD
100
AcDbEntity
  8
Livello 1
100
AcDbVertex
100
AcDb2dVertex
 10
1.500469033541762
 20
9.329418782458915
 30
0.0
  0
VERTEX
  5
9E1
330
9CD
100
AcDbEntity
  8
Livello 1
100
AcDbVertex
100
AcDb2dVertex
 10
1.500469033541762
 20
9.317071614069391
 30
0.0
  0
VERTEX
  5
9E2
330
9CD
100
AcDbEntity
  8
Livello 1
100
AcDbVertex
100
AcDb2dVertex
 10
1.502938467219671
 20
9.317071614069391
 30
0.0
  0
SEQEND
  5
9E3
330
9CD
100
AcDbEntity
  8
Livello 1
  0
POLYLINE
  5
9E4
330
1F
100
AcDbEntity
  8
Livello 1
100
AcDb2dPolyline
 66
     1
 10
0.0
 20
0.0
 30
0.0
  0
VERTEX
  5
9E5
330
9E4
100
AcDbEntity
  8
Livello 1
100
AcDbVertex
100
AcDb2dVertex
 10
1.258111276245919
 20
9.359405916325258
 30
0.0
  0
VERTEX
  5
9E6
330
9E4
100
AcDbEntity
  8
Livello 1
100
AcDbVertex
100
AcDb2dVertex
 10
1.460605510704233
 20
9.359405916325258
 30
0.0
  0
SEQEND
  5
9E7
330
9E4
100
AcDbEntity
  8
Livello 1
  0
SPLINE
  5
9E8
330
1F
100
AcDbEntity
  8
Livello 1
100
AcDbSpline
210
0.0
220
0.0
230
1.0
 70
     8
 71
     3
 72
   227
 73
   223
 74
     0
 42
0.000000001
 43
0.0000000001
 40
0.0
 40
0.0
 40
0.0
 40
0.0
 40
1.0
 40
1.0
 40
1.0
 40
2.0
 40
2.0
 40
2.0
 40
3.0
 40
3.0
 40
3.0
 40
4.0
 40
4.0
 40
4.0
 40
5.0
 40
5.0
 40
5.0
 40
6.0
 40
6.0
 40
6.0
 40
7.0
 40
7.0
 40
7.0
 40
8.0
 40
8.0
 40
8.0
 40
9.0
 40
9.0
 40
9.0
 40
10.0
 40
10.0
 40
10.0
 40
11.0
 40
11.0
 40
11.0
 40
12.0
 40
12.0
 40
12.0
 40
13.0
 40
13.0
 40
13.0
 40
14.0
 40
14.0
 40
14.0
 40
15.0
 40
15.0
 40
15.0
 40
16.0
 40
16.0
 40
16.0
 40
17.0
 40
17.0
 40
17.0
 40
18.0
 40
18.0
 40
18.0
 40
19.0
 40
19.0
 40
19.0
 40
20.0
 40
20.0
 40
20.0
 40
21.0
 40
21.0
 40
21.0
 40
22.0
 40
22.0
 40
22.0
 40
23.0
 40
23.0
 40
23.0
 40
24.0
 40
24.0
 40
24.0
 40
25.0
 40
25.0
 40
25.0
 40
26.0
 40
26.0
 40
26.0
 40
27.0
 40
27.0
 40
27.0
 40
28.0
 40
28.0
 40
28.0
 40
29.0
 40
29.0
 40
29.0
 40
30.0
 40
30.0
 40
30.0
 40
31.0
 40
31.0
 40
31.0
 40
32.0
 40
32.0
 40
32.0
 40
33.0
 40
33.0
 40
33.0
 40
34.0
 40
34.0
 40
34.0
 40
35.0
 40
35.0
 40
35.0
 40
36.0
 40
36.0
 40
36.0
 40
37.0
 40
37.0
 40
37.0
 40
38.0
 40
38.0
 40
38.0
 40
39.0
 40
39.0
 40
39.0
 40
40.0
 40
40.0
 40
40.0
 40
41.0
 40
41.0
 40
41.0
 40
42.0
 40
42.0
 40
42.0
 40
43.0
 40
43.0
 40
43.0
 40
44.0
 40
44.0
 40
44.0
 40
45.0
 40
45.0
 40
45.0
 40
46.0
 40
46.0
 40
46.0
 40
47.0
 40
47.0
 40
47.0
 40
48.0
 40
48.0
 40
48.0
 40
49.0
 40
49.0
 40
49.0
 40
50.0
 40
50.0
 40
50.0
 40
51.0
 40
51.0
 40
51.0
 40
52.0
 40
52.0
 40
52.0
 40
53.0
 40
53.0
 40
53.0
 40
54.0
 40
54.0
 40
54.0
 40
55.0
 40
55.0
 40
55.0
 40
56.0
 40
56.0
 40
56.0
 40
57.0
 40
57.0
 40
57.0
 40
58.0
 40
58.0
 40
58.0
 40
59.0
 40
59.0
 40
59.0
 40
60.0
 40
60.0
 40
60.0
 40
61.0
 40
61.0
 40
61.0
 40
62.0
 40
62.0
 40
62.0
 40
63.0
 40
63.0
 40
63.0
 40
64.0
 40
64.0
 40
64.0
 40
65.0
 40
65.0
 40
65.0
 40
66.0
 40
66.0
 40
66.0
 40
67.0
 40
67.0
 40
67.0
 40
68.0
 40
68.0
 40
68.0
 40
69.0
 40
69.0
 40
69.0
 40
70.0
 40
70.0
 40
70.0
 40
71.0
 40
71.0
 40
71.0
 40
72.0
 40
72.0
 40
72.0
 40
73.0
 40
73.0
 40
73.0
 40
74.0
 40
74.0
 40
74.0
 40
74.0
 10
0.853157460145212
 20
8.981933801856641
 30
0.0
 10
0.853157460145212
 20
8.981933801856641
 30
0.0
 10
0.853157460145212
 20
8.999572421593043
 30
0.0
 10
0.853157460145212
 20
8.999572421593043
 30
0.0
 10
0.853157460145212
 20
8.999572421593043
 30
0.0
 10
0.8556268938230999
 20
9.004511288948847
 30
0.0
 10
0.8556268938230999
 20
9.004511288948847
 30
0.0
 10
0.8556268938230999
 20
9.004511288948847
 30
0.0
 10
0.8556268938230999
 20
9.01932789101626
 30
0.0
 10
0.8556268938230999
 20
9.01932789101626
 30
0.0
 10
0.8556268938230999
 20
9.01932789101626
 30
0.0
 10
0.8580963275010233
 20
9.024266758372064
 30
0.0
 10
0.8580963275010233
 20
9.024266758372064
 30
0.0
 10
0.8580963275010233
 20
9.024266758372064
 30
0.0
 10
0.8580963275010233
 20
9.029558209718942
 30
0.0
 10
0.8580963275010233
 20
9.029558209718942
 30
0.0
 10
0.8580963275010233
 20
9.029558209718942
 30
0.0
 10
0.8605657611789183
 20
9.03449707707476
 30
0.0
 10
0.8605657611789183
 20
9.03449707707476
 30
0.0
 10
0.8605657611789183
 20
9.03449707707476
 30
0.0
 10
0.8605657611789183
 20
9.044374811786369
 30
0.0
 10
0.8605657611789183
 20
9.044374811786369
 30
0.0
 10
0.8605657611789183
 20
9.044374811786369
 30
0.0
 10
0.8630351948568204
 20
9.049313679142173
 30
0.0
 10
0.8630351948568204
 20
9.049313679142173
 30
0.0
 10
0.8630351948568204
 20
9.049313679142173
 30
0.0
 10
0.8630351948568204
 20
9.054605130489051
 30
0.0
 10
0.8630351948568204
 20
9.054605130489051
 30
0.0
 10
0.8630351948568204
 20
9.054605130489051
 30
0.0
 10
0.8655046285347296
 20
9.059543997844855
 30
0.0
 10
0.8655046285347296
 20
9.059543997844855
 30
0.0
 10
0.8655046285347296
 20
9.059543997844855
 30
0.0
 10
0.8655046285347296
 20
9.064482865200659
 30
0.0
 10
0.8655046285347296
 20
9.064482865200659
 30
0.0
 10
0.8655046285347296
 20
9.064482865200659
 30
0.0
 10
0.8707960798815932
 20
9.074360599912282
 30
0.0
 10
0.8707960798815932
 20
9.074360599912282
 30
0.0
 10
0.8707960798815932
 20
9.074360599912282
 30
0.0
 10
0.8707960798815932
 20
9.079299467268072
 30
0.0
 10
0.8707960798815932
 20
9.079299467268072
 30
0.0
 10
0.8707960798815932
 20
9.079299467268072
 30
0.0
 10
0.8732655135595166
 20
9.081768900945988
 30
0.0
 10
0.8732655135595166
 20
9.081768900945988
 30
0.0
 10
0.8732655135595166
 20
9.081768900945988
 30
0.0
 10
0.8757349472374116
 20
9.087060352292866
 30
0.0
 10
0.8757349472374116
 20
9.087060352292866
 30
0.0
 10
0.8757349472374116
 20
9.087060352292866
 30
0.0
 10
0.8757349472374116
 20
9.091999219648684
 30
0.0
 10
0.8757349472374116
 20
9.091999219648684
 30
0.0
 10
0.8757349472374116
 20
9.091999219648684
 30
0.0
 10
0.8806738145932158
 20
9.101876954360292
 30
0.0
 10
0.8806738145932158
 20
9.101876954360292
 30
0.0
 10
0.8806738145932158
 20
9.101876954360292
 30
0.0
 10
0.8806738145932158
 20
9.106815821716097
 30
0.0
 10
0.8806738145932158
 20
9.106815821716097
 30
0.0
 10
0.8806738145932158
 20
9.106815821716097
 30
0.0
 10
0.8831432482711321
 20
9.112108618803404
 30
0.0
 10
0.8831432482711321
 20
9.112108618803404
 30
0.0
 10
0.8831432482711321
 20
9.112108618803404
 30
0.0
 10
0.885612681949027
 20
9.114578052481306
 30
0.0
 10
0.885612681949027
 20
9.114578052481306
 30
0.0
 10
0.885612681949027
 20
9.114578052481306
 30
0.0
 10
0.8930213194178406
 20
9.129394654548718
 30
0.0
 10
0.8930213194178406
 20
9.129394654548718
 30
0.0
 10
0.8930213194178406
 20
9.129394654548718
 30
0.0
 10
0.8930213194178406
 20
9.134333521904537
 30
0.0
 10
0.8930213194178406
 20
9.134333521904537
 30
0.0
 10
0.8930213194178406
 20
9.134333521904537
 30
0.0
 10
0.8954907530957356
 20
9.136802955582439
 30
0.0
 10
0.8954907530957356
 20
9.136802955582439
 30
0.0
 10
0.8954907530957356
 20
9.136802955582439
 30
0.0
 10
0.9032516381205226
 20
9.151972141640925
 30
0.0
 10
0.9032516381205226
 20
9.151972141640925
 30
0.0
 10
0.9032516381205226
 20
9.151972141640925
 30
0.0
 10
0.9057210717984247
 20
9.154441575318841
 30
0.0
 10
0.9057210717984247
 20
9.154441575318841
 30
0.0
 10
0.9057210717984247
 20
9.154441575318841
 30
0.0
 10
0.910659939154236
 20
9.16431931003045
 30
0.0
 10
0.910659939154236
 20
9.16431931003045
 30
0.0
 10
0.910659939154236
 20
9.16431931003045
 30
0.0
 10
0.9131293728321381
 20
9.166788743708352
 30
0.0
 10
0.9131293728321381
 20
9.166788743708352
 30
0.0
 10
0.9131293728321381
 20
9.166788743708352
 30
0.0
 10
0.9180682401879565
 20
9.177019062411034
 30
0.0
 10
0.9180682401879565
 20
9.177019062411034
 30
0.0
 10
0.9180682401879565
 20
9.177019062411034
 30
0.0
 10
0.9230074439788538
 20
9.179488496088922
 30
0.0
 10
0.9230074439788538
 20
9.179488496088922
 30
0.0
 10
0.9230074439788538
 20
9.179488496088922
 30
0.0
 10
0.9282988953257387
 20
9.18936623080053
 30
0.0
 10
0.9282988953257387
 20
9.18936623080053
 30
0.0
 10
0.9282988953257387
 20
9.18936623080053
 30
0.0
 10
0.9307683290036408
 20
9.191835664478432
 30
0.0
 10
0.9307683290036408
 20
9.191835664478432
 30
0.0
 10
0.9307683290036408
 20
9.191835664478432
 30
0.0
 10
0.9332377626815357
 20
9.19677453183425
 30
0.0
 10
0.9332377626815357
 20
9.19677453183425
 30
0.0
 10
0.9332377626815357
 20
9.19677453183425
 30
0.0
 10
0.9406460637152633
 20
9.204535416859044
 30
0.0
 10
0.9406460637152633
 20
9.204535416859044
 30
0.0
 10
0.9406460637152633
 20
9.204535416859044
 30
0.0
 10
0.9431154973931654
 20
9.209474284214849
 30
0.0
 10
0.9431154973931654
 20
9.209474284214849
 30
0.0
 10
0.9431154973931654
 20
9.209474284214849
 30
0.0
 10
0.9529935685398811
 20
9.219352018926457
 30
0.0
 10
0.9529935685398811
 20
9.219352018926457
 30
0.0
 10
0.9529935685398811
 20
9.219352018926457
 30
0.0
 10
0.9558155862088497
 20
9.224290886282261
 30
0.0
 10
0.9558155862088497
 20
9.224290886282261
 30
0.0
 10
0.9558155862088497
 20
9.224290886282261
 30
0.0
 10
0.9607544535646539
 20
9.226760319960177
 30
0.0
 10
0.9607544535646539
 20
9.226760319960177
 30
0.0
 10
0.9607544535646539
 20
9.226760319960177
 30
0.0
 10
0.9632238872425631
 20
9.23205311704747
 30
0.0
 10
0.9632238872425631
 20
9.23205311704747
 30
0.0
 10
0.9632238872425631
 20
9.23205311704747
 30
0.0
 10
0.9656933209204723
 20
9.234522550725372
 30
0.0
 10
0.9656933209204723
 20
9.234522550725372
 30
0.0
 10
0.9656933209204723
 20
9.234522550725372
 30
0.0
 10
0.9706321882762765
 20
9.236991984403275
 30
0.0
 10
0.9706321882762765
 20
9.236991984403275
 30
0.0
 10
0.9706321882762765
 20
9.236991984403275
 30
0.0
 10
0.9731016219541785
 20
9.241930851759107
 30
0.0
 10
0.9731016219541785
 20
9.241930851759107
 30
0.0
 10
0.9731016219541785
 20
9.241930851759107
 30
0.0
 10
0.9780404893099827
 20
9.244400285437009
 30
0.0
 10
0.9780404893099827
 20
9.244400285437009
 30
0.0
 10
0.9780404893099827
 20
9.244400285437009
 30
0.0
 10
0.9805099229878848
 20
9.249339152792799
 30
0.0
 10
0.9805099229878848
 20
9.249339152792799
 30
0.0
 10
0.9805099229878848
 20
9.249339152792799
 30
0.0
 10
0.9829793566657869
 20
9.251808586470716
 30
0.0
 10
0.9829793566657869
 20
9.251808586470716
 30
0.0
 10
0.9829793566657869
 20
9.251808586470716
 30
0.0
 10
0.988271144447772
 20
9.254278020148589
 30
0.0
 10
0.988271144447772
 20
9.254278020148589
 30
0.0
 10
0.988271144447772
 20
9.254278020148589
 30
0.0
 10
0.9907405781256812
 20
9.259569471495481
 30
0.0
 10
0.9907405781256812
 20
9.259569471495481
 30
0.0
 10
0.9907405781256812
 20
9.259569471495481
 30
0.0
 10
0.9956794454814854
 20
9.262038905173383
 30
0.0
 10
0.9956794454814854
 20
9.262038905173383
 30
0.0
 10
0.9956794454814854
 20
9.262038905173383
 30
0.0
 10
0.9981488791593875
 20
9.264508338851285
 30
0.0
 10
0.9981488791593875
 20
9.264508338851285
 30
0.0
 10
0.9981488791593875
 20
9.264508338851285
 30
0.0
 10
1.003087746515198
 20
9.266977772529202
 30
0.0
 10
1.003087746515198
 20
9.266977772529202
 30
0.0
 10
1.003087746515198
 20
9.266977772529202
 30
0.0
 10
1.010496047548905
 20
9.274386073562894
 30
0.0
 10
1.010496047548905
 20
9.274386073562894
 30
0.0
 10
1.010496047548905
 20
9.274386073562894
 30
0.0
 10
1.01578783533089
 20
9.27685550724081
 30
0.0
 10
1.01578783533089
 20
9.27685550724081
 30
0.0
 10
1.01578783533089
 20
9.27685550724081
 30
0.0
 10
1.018257269008785
 20
9.279324940918712
 30
0.0
 10
1.018257269008785
 20
9.279324940918712
 30
0.0
 10
1.018257269008785
 20
9.279324940918712
 30
0.0
 10
1.023196136364596
 20
9.281794374596614
 30
0.0
 10
1.023196136364596
 20
9.281794374596614
 30
0.0
 10
1.023196136364596
 20
9.281794374596614
 30
0.0
 10
1.028135003720414
 20
9.284263808274502
 30
0.0
 10
1.028135003720414
 20
9.284263808274502
 30
0.0
 10
1.028135003720414
 20
9.284263808274502
 30
0.0
 10
1.030604437398316
 20
9.289555259621394
 30
0.0
 10
1.030604437398316
 20
9.289555259621394
 30
0.0
 10
1.030604437398316
 20
9.289555259621394
 30
0.0
 10
1.035543304754128
 20
9.29202469329931
 30
0.0
 10
1.035543304754128
 20
9.29202469329931
 30
0.0
 10
1.035543304754128
 20
9.29202469329931
 30
0.0
 10
1.040482172109932
 20
9.294494126977212
 30
0.0
 10
1.040482172109932
 20
9.294494126977212
 30
0.0
 10
1.040482172109932
 20
9.294494126977212
 30
0.0
 10
1.042951605787827
 20
9.2969635606551
 30
0.0
 10
1.042951605787827
 20
9.2969635606551
 30
0.0
 10
1.042951605787827
 20
9.2969635606551
 30
0.0
 10
1.053182260925623
 20
9.301902428010919
 30
0.0
 10
1.053182260925623
 20
9.301902428010919
 30
0.0
 10
1.053182260925623
 20
9.301902428010919
 30
0.0
 10
1.055651694603533
 20
9.304371861688821
 30
0.0
 10
1.055651694603533
 20
9.304371861688821
 30
0.0
 10
1.055651694603533
 20
9.304371861688821
 30
0.0
 10
1.07576008445293
 20
9.314249596400429
 30
0.0
 10
1.07576008445293
 20
9.314249596400429
 30
0.0
 10
1.07576008445293
 20
9.314249596400429
 30
0.0
 10
1.078229518130818
 20
9.317071614069391
 30
0.0
 10
1.078229518130818
 20
9.317071614069391
 30
0.0
 10
1.078229518130818
 20
9.317071614069391
 30
0.0
 10
1.083168385486636
 20
9.317071614069391
 30
0.0
 10
1.083168385486636
 20
9.317071614069391
 30
0.0
 10
1.083168385486636
 20
9.317071614069391
 30
0.0
 10
1.088107252842448
 20
9.319541047747293
 30
0.0
 10
1.088107252842448
 20
9.319541047747293
 30
0.0
 10
1.088107252842448
 20
9.319541047747293
 30
0.0
 10
1.093046120198245
 20
9.322010481425209
 30
0.0
 10
1.093046120198245
 20
9.322010481425209
 30
0.0
 10
1.093046120198245
 20
9.322010481425209
 30
0.0
 10
1.097984987554056
 20
9.324479915103111
 30
0.0
 10
1.097984987554056
 20
9.324479915103111
 30
0.0
 10
1.097984987554056
 20
9.324479915103111
 30
0.0
 10
1.100454421231972
 20
9.326949348781013
 30
0.0
 10
1.100454421231972
 20
9.326949348781013
 30
0.0
 10
1.100454421231972
 20
9.326949348781013
 30
0.0
 10
1.105746209013943
 20
9.326949348781013
 30
0.0
 10
1.105746209013943
 20
9.326949348781013
 30
0.0
 10
1.105746209013943
 20
9.326949348781013
 30
0.0
 10
1.115623943725559
 20
9.331888216136832
 30
0.0
 10
1.115623943725559
 20
9.331888216136832
 30
0.0
 10
1.130440545792993
 20
9.334357649814748
 30
0.0
 10
1.149490510798962
 20
9.345647066231038
 30
0.0
 10
1.168187891813893
 20
9.347058747935761
 30
0.0
 10
1.168187891813893
 20
9.347058747935761
 30
0.0
 10
1.173126759169697
 20
9.347058747935761
 30
0.0
 10
1.173126759169697
 20
9.347058747935761
 30
0.0
 10
1.173126759169697
 20
9.347058747935761
 30
0.0
 10
1.178065626525501
 20
9.349528181613649
 30
0.0
 10
1.178065626525501
 20
9.349528181613649
 30
0.0
 10
1.197115591531492
 20
9.352350199282611
 30
0.0
 10
1.218987910641551
 20
9.355172216951601
 30
0.0
 10
1.238037539212442
 20
9.356936482647341
 30
0.0
 10
1.238037539212442
 20
9.356936482647341
 30
0.0
 10
1.258146265496954
 20
9.356936482647341
 30
0.0
 10
1.258146265496954
 20
9.356936482647341
 30
0.0
  0
POLYLINE
  5
9E9
330
1F
100
AcDbEntity
  8
Livello 1
100
AcDb2dPolyline
 66
     1
 10
0.0
 20
0.0
 30
0.0
  0
VERTEX
  5
9EA
330
9E9
100
AcDbEntity
  8
Livello 1
100
AcDbVertex
100
AcDb2dVertex
 10
1.500610336286278
 20
9.316931657065325
 30
0.0
  0
VERTEX
  5
9EB
330
9E9
100
AcDbEntity
  8
Livello 1
100
AcDbVertex
100
AcDb2dVertex
 10
1.500610336286278
 20
8.981792499112131
 30
0.0
  0
SEQEND
  5
9EC
330
9E9
100
AcDbEntity
  8
Livello 1
  0
POLYLINE
  5
9ED
330
1F
100
AcDbEntity
  8
Livello 1
100
AcDb2dPolyline
 66
     1
 10
0.0
 20
0.0
 30
0.0
  0
VERTEX
  5
9EE
330
9ED
100
AcDbEntity
  8
Livello 1
100
AcDbVertex
100
AcDb2dVertex
 10
1.500610336286278
 20
9.194341433147812
 30
0.0
  0
VERTEX
  5
9EF
330
9ED
100
AcDbEntity
  8
Livello 1
100
AcDbVertex
100
AcDb2dVertex
 10
2.084104543734525
 20
9.194341433147812
 30
0.0
  0
SEQEND
  5
9F0
330
9ED
100
AcDbEntity
  8
Livello 1
  0
POLYLINE
  5
9F1
330
1F
100
AcDbEntity
  8
Livello 1
100
AcDb2dPolyline
 66
     1
 10
0.0
 20
0.0
 30
0.0
  0
VERTEX
  5
9F2
330
9F1
100
AcDbEntity
  8
Livello 1
100
AcDbVertex
100
AcDb2dVertex
 10
1.500610336286278
 20
7.620105051162894
 30
0.0
  0
VERTEX
  5
9F3
330
9F1
100
AcDbEntity
  8
Livello 1
100
AcDbVertex
100
AcDb2dVertex
 10
2.084104543734525
 20
7.620105051162894
 30
0.0
  0
SEQEND
  5
9F4
330
9F1
100
AcDbEntity
  8
Livello 1
  0
SPLINE
  5
9F5
330
1F
100
AcDbEntity
  8
Livello 1
100
AcDbSpline
210
0.0
220
0.0
230
1.0
 70
    11
 71
     3
 72
    29
 73
    25
 74
     0
 42
0.000000001
 43
0.0000000001
 40
0.0
 40
0.0
 40
0.0
 40
0.0
 40
1.0
 40
1.0
 40
1.0
 40
2.0
 40
2.0
 40
2.0
 40
3.0
 40
3.0
 40
3.0
 40
4.0
 40
4.0
 40
4.0
 40
5.0
 40
5.0
 40
5.0
 40
6.0
 40
6.0
 40
6.0
 40
7.0
 40
7.0
 40
7.0
 40
8.0
 40
8.0
 40
8.0
 40
8.0
 10
7.76738974688321
 20
0.4022720426117133
 30
0.0
 10
7.76738974688321
 20
0.4022720426117133
 30
0.0
 10
7.769859180561113
 20
0.4435459014135006
 30
0.0
 10
7.769859180561113
 20
0.4435459014135006
 30
0.0
 10
7.769859180561113
 20
0.4435459014135006
 30
0.0
 10
7.780442083254868
 20
0.4819990882867842
 30
0.0
 10
7.780442083254868
 20
0.4819990882867842
 30
0.0
 10
7.864755412294655
 20
0.7130681020365018
 30
0.0
 10
8.192133685223069
 20
0.7035429513159955
 30
0.0
 10
8.254928624884286
 20
0.4615384508813918
 30
0.0
 10
8.254928624884286
 20
0.4615384508813918
 30
0.0
 10
8.262336925918006
 20
0.4227326800170772
 30
0.0
 10
8.262336925918006
 20
0.4227326800170772
 30
0.0
 10
8.262336925918006
 20
0.4227326800170772
 30
0.0
 10
8.262336925918006
 20
0.3842801660140225
 30
0.0
 10
8.262336925918006
 20
0.3842801660140225
 30
0.0
 10
8.228470022409481
 20
0.1112301068697263
 30
0.0
 10
7.874633147006278
 20
0.0717191680232503
 30
0.0
 10
7.780442083254868
 20
0.3250130848741435
 30
0.0
 10
7.780442083254868
 20
0.3250130848741435
 30
0.0
 10
7.769859180561113
 20
0.3634662717473986
 30
0.0
 10
7.769859180561113
 20
0.3634662717473986
 30
0.0
 10
7.769859180561113
 20
0.3634662717473986
 30
0.0
 10
7.76738974688321
 20
0.4022720426117133
 30
0.0
 10
7.76738974688321
 20
0.4022720426117133
 30
0.0
  0
POLYLINE
  5
9F6
330
1F
100
AcDbEntity
  8
Livello 1
100
AcDb2dPolyline
 66
     1
 10
0.0
 20
0.0
 30
0.0
  0
VERTEX
  5
9F7
330
9F6
100
AcDbEntity
  8
Livello 1
100
AcDbVertex
100
AcDb2dVertex
 10
8.484234718678692
 20
-0.0000000492592278
 30
0.0
  0
VERTEX
  5
9F8
330
9F6
100
AcDbEntity
  8
Livello 1
100
AcDbVertex
100
AcDb2dVertex
 10
8.259867492240104
 20
0.0024693844187027
 30
0.0
  0
SEQEND
  5
9F9
330
9F6
100
AcDbEntity
  8
Livello 1
  0
POLYLINE
  5
9FA
330
1F
100
AcDbEntity
  8
Livello 1
100
AcDb2dPolyline
 66
     1
 10
0.0
 20
0.0
 30
0.0
  0
VERTEX
  5
9FB
330
9FA
100
AcDbEntity
  8
Livello 1
100
AcDbVertex
100
AcDb2dVertex
 10
7.739026921708557
 20
0.0026106871631981
 30
0.0
  0
VERTEX
  5
9FC
330
9FA
100
AcDbEntity
  8
Livello 1
100
AcDbVertex
100
AcDb2dVertex
 10
7.764779010460799
 20
0.0026106871631981
 30
0.0
  0
VERTEX
  5
9FD
330
9FA
100
AcDbEntity
  8
Livello 1
100
AcDbVertex
100
AcDb2dVertex
 10
7.800762763656138
 20
0.0026106871631981
 30
0.0
  0
SEQEND
  5
9FE
330
9FA
100
AcDbEntity
  8
Livello 1
  0
POLYLINE
  5
9FF
330
1F
100
AcDbEntity
  8
Livello 1
100
AcDb2dPolyline
 66
     1
 10
0.0
 20
0.0
 30
0.0
  0
VERTEX
  5
A00
330
9FF
100
AcDbEntity
  8
Livello 1
100
AcDbVertex
100
AcDb2dVertex
 10
8.259903827231539
 20
0.0026106871631981
 30
0.0
  0
VERTEX
  5
A01
330
9FF
100
AcDbEntity
  8
Livello 1
100
AcDbVertex
100
AcDb2dVertex
 10
8.21615918901142
 20
0.0026106871631981
 30
0.0
  0
SEQEND
  5
A02
330
9FF
100
AcDbEntity
  8
Livello 1
  0
POLYLINE
  5
A03
330
1F
100
AcDbEntity
  8
Livello 1
100
AcDb2dPolyline
 66
     1
 10
0.0
 20
0.0
 30
0.0
  0
VERTEX
  5
A04
330
A03
100
AcDbEntity
  8
Livello 1
100
AcDbVertex
100
AcDb2dVertex
 10
8.216052875517931
 20
-0.0000000492592278
 30
0.0
  0
VERTEX
  5
A05
330
A03
100
AcDbEntity
  8
Livello 1
100
AcDbVertex
100
AcDb2dVertex
 10
8.272849850109707
 20
-0.0000000492592278
 30
0.0
  0
VERTEX
  5
A06
330
A03
100
AcDbEntity
  8
Livello 1
100
AcDbVertex
100
AcDb2dVertex
 10
8.272849850109707
 20
0.0024693844187027
 30
0.0
  0
SEQEND
  5
A07
330
A03
100
AcDbEntity
  8
Livello 1
  0
POLYLINE
  5
A08
330
1F
100
AcDbEntity
  8
Livello 1
100
AcDb2dPolyline
 66
     1
 10
0.0
 20
0.0
 30
0.0
  0
VERTEX
  5
A09
330
A08
100
AcDbEntity
  8
Livello 1
100
AcDbVertex
100
AcDb2dVertex
 10
8.272779871607667
 20
-0.0000000492592278
 30
0.0
  0
VERTEX
  5
A0A
330
A08
100
AcDbEntity
  8
Livello 1
100
AcDbVertex
100
AcDb2dVertex
 10
8.453401114085707
 20
-0.0000000492592278
 30
0.0
  0
VERTEX
  5
A0B
330
A08
100
AcDbEntity
  8
Livello 1
100
AcDbVertex
100
AcDb2dVertex
 10
8.530660071823277
 20
-0.0000000492592278
 30
0.0
  0
VERTEX
  5
A0C
330
A08
100
AcDbEntity
  8
Livello 1
100
AcDbVertex
100
AcDb2dVertex
 10
8.484093415934182
 20
-0.0000000492592278
 30
0.0
  0
SEQEND
  5
A0D
330
A08
100
AcDbEntity
  8
Livello 1
  0
POLYLINE
  5
A0E
330
1F
100
AcDbEntity
  8
Livello 1
100
AcDb2dPolyline
 66
     1
 10
0.0
 20
0.0
 30
0.0
  0
VERTEX
  5
A0F
330
A0E
100
AcDbEntity
  8
Livello 1
100
AcDbVertex
100
AcDb2dVertex
 10
8.216052875517931
 20
0.0026106871631981
 30
0.0
  0
VERTEX
  5
A10
330
A0E
100
AcDbEntity
  8
Livello 1
100
AcDbVertex
100
AcDb2dVertex
 10
8.216052875517931
 20
0.0001405806150814
 30
0.0
  0
SEQEND
  5
A11
330
A0E
100
AcDbEntity
  8
Livello 1
  0
POLYLINE
  5
A12
330
1F
100
AcDbEntity
  8
Livello 1
100
AcDb2dPolyline
 66
     1
 10
0.0
 20
0.0
 30
0.0
  0
VERTEX
  5
A13
330
A12
100
AcDbEntity
  8
Livello 1
100
AcDbVertex
100
AcDb2dVertex
 10
8.530660071823277
 20
0.2527649916050763
 30
0.0
  0
VERTEX
  5
A14
330
A12
100
AcDbEntity
  8
Livello 1
100
AcDbVertex
100
AcDb2dVertex
 10
8.530660071823277
 20
0.1702145825206003
 30
0.0
  0
SEQEND
  5
A15
330
A12
100
AcDbEntity
  8
Livello 1
  0
POLYLINE
  5
A16
330
1F
100
AcDbEntity
  8
Livello 1
100
AcDb2dPolyline
 66
     1
 10
0.0
 20
0.0
 30
0.0
  0
VERTEX
  5
A17
330
A16
100
AcDbEntity
  8
Livello 1
100
AcDbVertex
100
AcDb2dVertex
 10
8.798841914984038
 20
0.2527649916050763
 30
0.0
  0
VERTEX
  5
A18
330
A16
100
AcDbEntity
  8
Livello 1
100
AcDbVertex
100
AcDb2dVertex
 10
8.530730050325317
 20
0.2527649916050763
 30
0.0
  0
SEQEND
  5
A19
330
A16
100
AcDbEntity
  8
Livello 1
  0
POLYLINE
  5
A1A
330
1F
100
AcDbEntity
  8
Livello 1
100
AcDb2dPolyline
 66
     1
 10
0.0
 20
0.0
 30
0.0
  0
VERTEX
  5
A1B
330
A1A
100
AcDbEntity
  8
Livello 1
100
AcDbVertex
100
AcDb2dVertex
 10
8.798841914984038
 20
0.1702502446418208
 30
0.0
  0
VERTEX
  5
A1C
330
A1A
100
AcDbEntity
  8
Livello 1
100
AcDbVertex
100
AcDb2dVertex
 10
8.798841914984038
 20
0.2527999808560537
 30
0.0
  0
SEQEND
  5
A1D
330
A1A
100
AcDbEntity
  8
Livello 1
  0
POLYLINE
  5
A1E
330
1F
100
AcDbEntity
  8
Livello 1
100
AcDb2dPolyline
 66
     1
 10
0.0
 20
0.0
 30
0.0
  0
VERTEX
  5
A1F
330
A1E
100
AcDbEntity
  8
Livello 1
100
AcDbVertex
100
AcDb2dVertex
 10
9.079899802520927
 20
0.0980721298747796
 30
0.0
  0
VERTEX
  5
A20
330
A1E
100
AcDbEntity
  8
Livello 1
100
AcDbVertex
100
AcDb2dVertex
 10
9.07742902310261
 20
0.0980721298747796
 30
0.0
  0
SEQEND
  5
A21
330
A1E
100
AcDbEntity
  8
Livello 1
  0
POLYLINE
  5
A22
330
1F
100
AcDbEntity
  8
Livello 1
100
AcDb2dPolyline
 66
     1
 10
0.0
 20
0.0
 30
0.0
  0
VERTEX
  5
A23
330
A22
100
AcDbEntity
  8
Livello 1
100
AcDbVertex
100
AcDb2dVertex
 10
9.077324055349535
 20
0.0980721298747796
 30
0.0
  0
VERTEX
  5
A24
330
A22
100
AcDbEntity
  8
Livello 1
100
AcDbVertex
100
AcDb2dVertex
 10
9.051570620856864
 20
0.0567969253325629
 30
0.0
  0
VERTEX
  5
A25
330
A22
100
AcDbEntity
  8
Livello 1
100
AcDbVertex
100
AcDb2dVertex
 10
9.015586867661525
 20
0.0285747300322044
 30
0.0
  0
VERTEX
  5
A26
330
A22
100
AcDbEntity
  8
Livello 1
100
AcDbVertex
100
AcDb2dVertex
 10
8.974311663119294
 20
0.0077608357655805
 30
0.0
  0
VERTEX
  5
A27
330
A22
100
AcDbEntity
  8
Livello 1
100
AcDbVertex
100
AcDb2dVertex
 10
8.9277450072302
 20
0.0024687115484596
 30
0.0
  0
SEQEND
  5
A28
330
A22
100
AcDbEntity
  8
Livello 1
  0
POLYLINE
  5
A29
330
1F
100
AcDbEntity
  8
Livello 1
100
AcDb2dPolyline
 66
     1
 10
0.0
 20
0.0
 30
0.0
  0
VERTEX
  5
A2A
330
A29
100
AcDbEntity
  8
Livello 1
100
AcDbVertex
100
AcDb2dVertex
 10
8.798841914984038
 20
-0.0000000492592278
 30
0.0
  0
VERTEX
  5
A2B
330
A29
100
AcDbEntity
  8
Livello 1
100
AcDbVertex
100
AcDb2dVertex
 10
8.798841914984038
 20
0.1703915473863446
 30
0.0
  0
SEQEND
  5
A2C
330
A29
100
AcDbEntity
  8
Livello 1
  0
POLYLINE
  5
A2D
330
1F
100
AcDbEntity
  8
Livello 1
100
AcDb2dPolyline
 66
     1
 10
0.0
 20
0.0
 30
0.0
  0
VERTEX
  5
A2E
330
A2D
100
AcDbEntity
  8
Livello 1
100
AcDbVertex
100
AcDb2dVertex
 10
8.927782687962064
 20
-0.0000000492592278
 30
0.0
  0
VERTEX
  5
A2F
330
A2D
100
AcDbEntity
  8
Livello 1
100
AcDbVertex
100
AcDb2dVertex
 10
8.799018206979567
 20
-0.0000000492592278
 30
0.0
  0
SEQEND
  5
A30
330
A2D
100
AcDbEntity
  8
Livello 1
  0
POLYLINE
  5
A31
330
1F
100
AcDbEntity
  8
Livello 1
100
AcDb2dPolyline
 66
     1
 10
0.0
 20
0.0
 30
0.0
  0
VERTEX
  5
A32
330
A31
100
AcDbEntity
  8
Livello 1
100
AcDbVertex
100
AcDb2dVertex
 10
8.927782687962064
 20
0.0026106871631981
 30
0.0
  0
VERTEX
  5
A33
330
A31
100
AcDbEntity
  8
Livello 1
100
AcDbVertex
100
AcDb2dVertex
 10
8.927782687962064
 20
0.0001405806150814
 30
0.0
  0
SEQEND
  5
A34
330
A31
100
AcDbEntity
  8
Livello 1
  0
POLYLINE
  5
A35
330
1F
100
AcDbEntity
  8
Livello 1
100
AcDb2dPolyline
 66
     1
 10
0.0
 20
0.0
 30
0.0
  0
VERTEX
  5
A36
330
A35
100
AcDbEntity
  8
Livello 1
100
AcDbVertex
100
AcDb2dVertex
 10
8.530660071823277
 20
-0.0000000492592278
 30
0.0
  0
VERTEX
  5
A37
330
A35
100
AcDbEntity
  8
Livello 1
100
AcDbVertex
100
AcDb2dVertex
 10
8.530660071823277
 20
0.1703915473863446
 30
0.0
  0
SEQEND
  5
A38
330
A35
100
AcDbEntity
  8
Livello 1
  0
POLYLINE
  5
A39
330
1F
100
AcDbEntity
  8
Livello 1
100
AcDb2dPolyline
 66
     1
 10
0.0
 20
0.0
 30
0.0
  0
VERTEX
  5
A3A
330
A39
100
AcDbEntity
  8
Livello 1
100
AcDbVertex
100
AcDb2dVertex
 10
7.739026921708557
 20
0.0026106871631981
 30
0.0
  0
VERTEX
  5
A3B
330
A39
100
AcDbEntity
  8
Livello 1
100
AcDbVertex
100
AcDb2dVertex
 10
7.697751717166326
 20
0.0128410058658801
 30
0.0
  0
VERTEX
  5
A3C
330
A39
100
AcDbEntity
  8
Livello 1
100
AcDbVertex
100
AcDb2dVertex
 10
7.658945946301997
 20
0.0336549001325466
 30
0.0
  0
VERTEX
  5
A3D
330
A39
100
AcDbEntity
  8
Livello 1
100
AcDbVertex
100
AcDb2dVertex
 10
7.628253644453536
 20
0.0618770954328909
 30
0.0
  0
VERTEX
  5
A3E
330
A39
100
AcDbEntity
  8
Livello 1
100
AcDbVertex
100
AcDb2dVertex
 10
7.604970989379197
 20
0.0982134326193034
 30
0.0
  0
SEQEND
  5
A3F
330
A39
100
AcDbEntity
  8
Livello 1
  0
POLYLINE
  5
A40
330
1F
100
AcDbEntity
  8
Livello 1
100
AcDb2dPolyline
 66
     1
 10
0.0
 20
0.0
 30
0.0
  0
VERTEX
  5
A41
330
A40
100
AcDbEntity
  8
Livello 1
100
AcDbVertex
100
AcDb2dVertex
 10
7.829266891575315
 20
-0.0000000492592278
 30
0.0
  0
VERTEX
  5
A42
330
A40
100
AcDbEntity
  8
Livello 1
100
AcDbVertex
100
AcDb2dVertex
 10
7.803513457082644
 20
-0.0000000492592278
 30
0.0
  0
SEQEND
  5
A43
330
A40
100
AcDbEntity
  8
Livello 1
  0
POLYLINE
  5
A44
330
1F
100
AcDbEntity
  8
Livello 1
100
AcDb2dPolyline
 66
     1
 10
0.0
 20
0.0
 30
0.0
  0
VERTEX
  5
A45
330
A44
100
AcDbEntity
  8
Livello 1
100
AcDbVertex
100
AcDb2dVertex
 10
7.757054460427454
 20
-0.0000000492592278
 30
0.0
  0
VERTEX
  5
A46
330
A44
100
AcDbEntity
  8
Livello 1
100
AcDbVertex
100
AcDb2dVertex
 10
7.757054460427454
 20
0.0024693844187027
 30
0.0
  0
SEQEND
  5
A47
330
A44
100
AcDbEntity
  8
Livello 1
  0
POLYLINE
  5
A48
330
1F
100
AcDbEntity
  8
Livello 1
100
AcDb2dPolyline
 66
     1
 10
0.0
 20
0.0
 30
0.0
  0
VERTEX
  5
A49
330
A48
100
AcDbEntity
  8
Livello 1
100
AcDbVertex
100
AcDb2dVertex
 10
7.829266891575315
 20
-0.0000000492592278
 30
0.0
  0
VERTEX
  5
A4A
330
A48
100
AcDbEntity
  8
Livello 1
100
AcDbVertex
100
AcDb2dVertex
 10
7.829266891575315
 20
0.0024693844187027
 30
0.0
  0
SEQEND
  5
A4B
330
A48
100
AcDbEntity
  8
Livello 1
  0
POLYLINE
  5
A4C
330
1F
100
AcDbEntity
  8
Livello 1
100
AcDb2dPolyline
 66
     1
 10
0.0
 20
0.0
 30
0.0
  0
VERTEX
  5
A4D
330
A4C
100
AcDbEntity
  8
Livello 1
100
AcDbVertex
100
AcDb2dVertex
 10
8.216052875517931
 20
-0.0000000492592278
 30
0.0
  0
VERTEX
  5
A4E
330
A4C
100
AcDbEntity
  8
Livello 1
100
AcDbVertex
100
AcDb2dVertex
 10
7.829408194319825
 20
-0.0000000492592278
 30
0.0
  0
SEQEND
  5
A4F
330
A4C
100
AcDbEntity
  8
Livello 1
  0
POLYLINE
  5
A50
330
1F
100
AcDbEntity
  8
Livello 1
100
AcDb2dPolyline
 66
     1
 10
0.0
 20
0.0
 30
0.0
  0
VERTEX
  5
A51
330
A50
100
AcDbEntity
  8
Livello 1
100
AcDbVertex
100
AcDb2dVertex
 10
8.798841914984038
 20
-0.0000000492592278
 30
0.0
  0
VERTEX
  5
A52
330
A50
100
AcDbEntity
  8
Livello 1
100
AcDbVertex
100
AcDb2dVertex
 10
8.927605050226105
 20
-0.0000000492592278
 30
0.0
  0
VERTEX
  5
A53
330
A50
100
AcDbEntity
  8
Livello 1
100
AcDbVertex
100
AcDb2dVertex
 10
8.927605050226105
 20
0.0024693844187027
 30
0.0
  0
SEQEND
  5
A54
330
A50
100
AcDbEntity
  8
Livello 1
  0
POLYLINE
  5
A55
330
1F
100
AcDbEntity
  8
Livello 1
100
AcDb2dPolyline
 66
     1
 10
0.0
 20
0.0
 30
0.0
  0
VERTEX
  5
A56
330
A55
100
AcDbEntity
  8
Livello 1
100
AcDbVertex
100
AcDb2dVertex
 10
8.798841914984038
 20
-0.0000000492592278
 30
0.0
  0
VERTEX
  5
A57
330
A55
100
AcDbEntity
  8
Livello 1
100
AcDbVertex
100
AcDb2dVertex
 10
8.798841914984038
 20
0.0024693844187027
 30
0.0
  0
SEQEND
  5
A58
330
A55
100
AcDbEntity
  8
Livello 1
  0
POLYLINE
  5
A59
330
1F
100
AcDbEntity
  8
Livello 1
100
AcDb2dPolyline
 66
     1
 10
0.0
 20
0.0
 30
0.0
  0
VERTEX
  5
A5A
330
A59
100
AcDbEntity
  8
Livello 1
100
AcDbVertex
100
AcDb2dVertex
 10
9.087625698294687
 20
0.1186390807736615
 30
0.0
  0
VERTEX
  5
A5B
330
A59
100
AcDbEntity
  8
Livello 1
100
AcDbVertex
100
AcDb2dVertex
 10
9.079863467529477
 20
0.0981777704980687
 30
0.0
  0
SEQEND
  5
A5C
330
A59
100
AcDbEntity
  8
Livello 1
  0
POLYLINE
  5
A5D
330
1F
100
AcDbEntity
  8
Livello 1
100
AcDb2dPolyline
 66
     1
 10
0.0
 20
0.0
 30
0.0
  0
VERTEX
  5
A5E
330
A5D
100
AcDbEntity
  8
Livello 1
100
AcDbVertex
100
AcDb2dVertex
 10
7.597175115103397
 20
0.1186390807736615
 30
0.0
  0
VERTEX
  5
A5F
330
A5D
100
AcDbEntity
  8
Livello 1
100
AcDbVertex
100
AcDb2dVertex
 10
7.604936000128162
 20
0.0981777704980687
 30
0.0
  0
SEQEND
  5
A60
330
A5D
100
AcDbEntity
  8
Livello 1
  0
POLYLINE
  5
A61
330
1F
100
AcDbEntity
  8
Livello 1
100
AcDb2dPolyline
 66
     1
 10
0.0
 20
0.0
 30
0.0
  0
VERTEX
  5
A62
330
A61
100
AcDbEntity
  8
Livello 1
100
AcDbVertex
100
AcDb2dVertex
 10
9.092775846897069
 20
0.1418874194671815
 30
0.0
  0
VERTEX
  5
A63
330
A61
100
AcDbEntity
  8
Livello 1
100
AcDbVertex
100
AcDb2dVertex
 10
9.105828183268712
 20
0.2244371556814286
 30
0.0
  0
VERTEX
  5
A64
330
A61
100
AcDbEntity
  8
Livello 1
100
AcDbVertex
100
AcDb2dVertex
 10
9.118527935649296
 20
0.2914651218461017
 30
0.0
  0
VERTEX
  5
A65
330
A61
100
AcDbEntity
  8
Livello 1
100
AcDbVertex
100
AcDb2dVertex
 10
9.123819386996174
 20
0.3172178834685297
 30
0.0
  0
VERTEX
  5
A66
330
A61
100
AcDbEntity
  8
Livello 1
100
AcDbVertex
100
AcDb2dVertex
 10
9.126288820674076
 20
0.3380317777352104
 30
0.0
  0
VERTEX
  5
A67
330
A61
100
AcDbEntity
  8
Livello 1
100
AcDbVertex
100
AcDb2dVertex
 10
9.126288820674076
 20
0.3429706450910004
 30
0.0
  0
VERTEX
  5
A68
330
A61
100
AcDbEntity
  8
Livello 1
100
AcDbVertex
100
AcDb2dVertex
 10
9.128758254351978
 20
0.3482620964378782
 30
0.0
  0
VERTEX
  5
A69
330
A61
100
AcDbEntity
  8
Livello 1
100
AcDbVertex
100
AcDb2dVertex
 10
9.128758254351978
 20
0.3507315301157803
 30
0.0
  0
VERTEX
  5
A6A
330
A61
100
AcDbEntity
  8
Livello 1
100
AcDbVertex
100
AcDb2dVertex
 10
9.128758254351978
 20
0.7013924581185336
 30
0.0
  0
VERTEX
  5
A6B
330
A61
100
AcDbEntity
  8
Livello 1
100
AcDbVertex
100
AcDb2dVertex
 10
9.128758254351978
 20
0.9331679855908419
 30
0.0
  0
SEQEND
  5
A6C
330
A61
100
AcDbEntity
  8
Livello 1
  0
POLYLINE
  5
A6D
330
1F
100
AcDbEntity
  8
Livello 1
100
AcDb2dPolyline
 66
     1
 10
0.0
 20
0.0
 30
0.0
  0
VERTEX
  5
A6E
330
A6D
100
AcDbEntity
  8
Livello 1
100
AcDbVertex
100
AcDb2dVertex
 10
9.087625698294687
 20
0.1186390807736615
 30
0.0
  0
VERTEX
  5
A6F
330
A6D
100
AcDbEntity
  8
Livello 1
100
AcDbVertex
100
AcDb2dVertex
 10
9.092917149641564
 20
0.1419224087182016
 30
0.0
  0
SEQEND
  5
A70
330
A6D
100
AcDbEntity
  8
Livello 1
  0
POLYLINE
  5
A71
330
1F
100
AcDbEntity
  8
Livello 1
100
AcDb2dPolyline
 66
     1
 10
0.0
 20
0.0
 30
0.0
  0
VERTEX
  5
A72
330
A71
100
AcDbEntity
  8
Livello 1
100
AcDbVertex
100
AcDb2dVertex
 10
7.553360498381209
 20
0.3507315301157803
 30
0.0
  0
VERTEX
  5
A73
330
A71
100
AcDbEntity
  8
Livello 1
100
AcDbVertex
100
AcDb2dVertex
 10
7.553360498381209
 20
0.7013924581185336
 30
0.0
  0
VERTEX
  5
A74
330
A71
100
AcDbEntity
  8
Livello 1
100
AcDbVertex
100
AcDb2dVertex
 10
7.553360498381209
 20
0.885542231988083
 30
0.0
  0
SEQEND
  5
A75
330
A71
100
AcDbEntity
  8
Livello 1
  0
SPLINE
  5
A76
330
1F
100
AcDbEntity
  8
Livello 1
100
AcDbSpline
210
0.0
220
0.0
230
1.0
 70
     8
 71
     3
 72
    14
 73
    10
 74
     0
 42
0.000000001
 43
0.0000000001
 40
0.0
 40
0.0
 40
0.0
 40
0.0
 40
1.0
 40
1.0
 40
1.0
 40
2.0
 40
2.0
 40
2.0
 40
3.0
 40
3.0
 40
3.0
 40
3.0
 10
7.592024966501028
 20
0.1418874194671815
 30
0.0
 10
7.592024966501028
 20
0.1418874194671815
 30
0.0
 10
7.581793302057917
 20
0.1884540753562618
 30
0.0
 10
7.581793302057917
 20
0.1884540753562618
 30
0.0
 10
7.574385001024211
 20
0.2417231914267433
 30
0.0
 10
7.561332664652553
 20
0.2946397235061511
 30
0.0
 10
7.556041213305661
 20
0.3482620964378782
 30
0.0
 10
7.556041213305661
 20
0.3482620964378782
 30
0.0
 10
7.5532191956367
 20
0.3507315301157803
 30
0.0
 10
7.5532191956367
 20
0.3507315301157803
 30
0.0
  0
POLYLINE
  5
A77
330
1F
100
AcDbEntity
  8
Livello 1
100
AcDb2dPolyline
 66
     1
 10
0.0
 20
0.0
 30
0.0
  0
VERTEX
  5
A78
330
A77
100
AcDbEntity
  8
Livello 1
100
AcDbVertex
100
AcDb2dVertex
 10
7.592024966501028
 20
0.1418874194671815
 30
0.0
  0
VERTEX
  5
A79
330
A77
100
AcDbEntity
  8
Livello 1
100
AcDbVertex
100
AcDb2dVertex
 10
7.59731641784792
 20
0.1186034186524267
 30
0.0
  0
SEQEND
  5
A7A
330
A77
100
AcDbEntity
  8
Livello 1
  0
POLYLINE
  5
A7B
330
1F
100
AcDbEntity
  8
Livello 1
100
AcDb2dPolyline
 66
     1
 10
0.0
 20
0.0
 30
0.0
  0
VERTEX
  5
A7C
330
A7B
100
AcDbEntity
  8
Livello 1
100
AcDbVertex
100
AcDb2dVertex
 10
8.916493271545746
 20
2.084282046446702
 30
0.0
  0
VERTEX
  5
A7D
330
A7B
100
AcDbEntity
  8
Livello 1
100
AcDbVertex
100
AcDb2dVertex
 10
8.916493271545746
 20
0.8107540536688588
 30
0.0
  0
SEQEND
  5
A7E
330
A7B
100
AcDbEntity
  8
Livello 1
  0
POLYLINE
  5
A7F
330
1F
100
AcDbEntity
  8
Livello 1
100
AcDb2dPolyline
 66
     1
 10
0.0
 20
0.0
 30
0.0
  0
VERTEX
  5
A80
330
A7F
100
AcDbEntity
  8
Livello 1
100
AcDbVertex
100
AcDb2dVertex
 10
8.793973026130288
 20
0.6881638297513462
 30
0.0
  0
VERTEX
  5
A81
330
A7F
100
AcDbEntity
  8
Livello 1
100
AcDbVertex
100
AcDb2dVertex
 10
8.798911893486092
 20
0.6881638297513462
 30
0.0
  0
VERTEX
  5
A82
330
A7F
100
AcDbEntity
  8
Livello 1
100
AcDbVertex
100
AcDb2dVertex
 10
8.814081079544578
 20
0.6881638297513462
 30
0.0
  0
VERTEX
  5
A83
330
A7F
100
AcDbEntity
  8
Livello 1
100
AcDbVertex
100
AcDb2dVertex
 10
8.81655051322248
 20
0.6881638297513462
 30
0.0
  0
VERTEX
  5
A84
330
A7F
100
AcDbEntity
  8
Livello 1
100
AcDbVertex
100
AcDb2dVertex
 10
8.819019946900382
 20
0.6906332634292625
 30
0.0
  0
VERTEX
  5
A85
330
A7F
100
AcDbEntity
  8
Livello 1
100
AcDbVertex
100
AcDb2dVertex
 10
8.826428247934103
 20
0.6906332634292625
 30
0.0
  0
VERTEX
  5
A86
330
A7F
100
AcDbEntity
  8
Livello 1
100
AcDbVertex
100
AcDb2dVertex
 10
8.828897681612005
 20
0.6931026971071504
 30
0.0
  0
VERTEX
  5
A87
330
A7F
100
AcDbEntity
  8
Livello 1
100
AcDbVertex
100
AcDb2dVertex
 10
8.833836548967809
 20
0.6931026971071504
 30
0.0
  0
VERTEX
  5
A88
330
A7F
100
AcDbEntity
  8
Livello 1
100
AcDbVertex
100
AcDb2dVertex
 10
8.836305982645711
 20
0.6955721307850667
 30
0.0
  0
VERTEX
  5
A89
330
A7F
100
AcDbEntity
  8
Livello 1
100
AcDbVertex
100
AcDb2dVertex
 10
8.841597433992589
 20
0.6955721307850667
 30
0.0
  0
VERTEX
  5
A8A
330
A7F
100
AcDbEntity
  8
Livello 1
100
AcDbVertex
100
AcDb2dVertex
 10
8.841597433992589
 20
0.6980415644629546
 30
0.0
  0
VERTEX
  5
A8B
330
A7F
100
AcDbEntity
  8
Livello 1
100
AcDbVertex
100
AcDb2dVertex
 10
8.846536301348379
 20
0.6980415644629546
 30
0.0
  0
VERTEX
  5
A8C
330
A7F
100
AcDbEntity
  8
Livello 1
100
AcDbVertex
100
AcDb2dVertex
 10
8.84900573502631
 20
0.7005109981408708
 30
0.0
  0
VERTEX
  5
A8D
330
A7F
100
AcDbEntity
  8
Livello 1
100
AcDbVertex
100
AcDb2dVertex
 10
8.851475168704197
 20
0.7005109981408708
 30
0.0
  0
VERTEX
  5
A8E
330
A7F
100
AcDbEntity
  8
Livello 1
100
AcDbVertex
100
AcDb2dVertex
 10
8.851475168704197
 20
0.7033330158098181
 30
0.0
  0
VERTEX
  5
A8F
330
A7F
100
AcDbEntity
  8
Livello 1
100
AcDbVertex
100
AcDb2dVertex
 10
8.856414036060016
 20
0.7033330158098181
 30
0.0
  0
VERTEX
  5
A90
330
A7F
100
AcDbEntity
  8
Livello 1
100
AcDbVertex
100
AcDb2dVertex
 10
8.856414036060016
 20
0.7058024494877487
 30
0.0
  0
VERTEX
  5
A91
330
A7F
100
AcDbEntity
  8
Livello 1
100
AcDbVertex
100
AcDb2dVertex
 10
8.858883469737918
 20
0.7058024494877487
 30
0.0
  0
VERTEX
  5
A92
330
A7F
100
AcDbEntity
  8
Livello 1
100
AcDbVertex
100
AcDb2dVertex
 10
8.86135290341582
 20
0.7082718831656081
 30
0.0
  0
VERTEX
  5
A93
330
A7F
100
AcDbEntity
  8
Livello 1
100
AcDbVertex
100
AcDb2dVertex
 10
8.863822337093722
 20
0.7082718831656081
 30
0.0
  0
VERTEX
  5
A94
330
A7F
100
AcDbEntity
  8
Livello 1
100
AcDbVertex
100
AcDb2dVertex
 10
8.863822337093722
 20
0.7107413168435386
 30
0.0
  0
VERTEX
  5
A95
330
A7F
100
AcDbEntity
  8
Livello 1
100
AcDbVertex
100
AcDb2dVertex
 10
8.866644354762698
 20
0.7107413168435386
 30
0.0
  0
VERTEX
  5
A96
330
A7F
100
AcDbEntity
  8
Livello 1
100
AcDbVertex
100
AcDb2dVertex
 10
8.866644354762698
 20
0.7132107505214549
 30
0.0
  0
VERTEX
  5
A97
330
A7F
100
AcDbEntity
  8
Livello 1
100
AcDbVertex
100
AcDb2dVertex
 10
8.8691137884406
 20
0.7132107505214549
 30
0.0
  0
VERTEX
  5
A98
330
A7F
100
AcDbEntity
  8
Livello 1
100
AcDbVertex
100
AcDb2dVertex
 10
8.871583222118502
 20
0.715680184199357
 30
0.0
  0
VERTEX
  5
A99
330
A7F
100
AcDbEntity
  8
Livello 1
100
AcDbVertex
100
AcDb2dVertex
 10
8.874052655796404
 20
0.715680184199357
 30
0.0
  0
VERTEX
  5
A9A
330
A7F
100
AcDbEntity
  8
Livello 1
100
AcDbVertex
100
AcDb2dVertex
 10
8.874052655796404
 20
0.7181496178772591
 30
0.0
  0
VERTEX
  5
A9B
330
A7F
100
AcDbEntity
  8
Livello 1
100
AcDbVertex
100
AcDb2dVertex
 10
8.876522089474306
 20
0.7206190515551612
 30
0.0
  0
VERTEX
  5
A9C
330
A7F
100
AcDbEntity
  8
Livello 1
100
AcDbVertex
100
AcDb2dVertex
 10
8.878991523152208
 20
0.7206190515551612
 30
0.0
  0
VERTEX
  5
A9D
330
A7F
100
AcDbEntity
  8
Livello 1
100
AcDbVertex
100
AcDb2dVertex
 10
8.878991523152208
 20
0.7230884852330633
 30
0.0
  0
VERTEX
  5
A9E
330
A7F
100
AcDbEntity
  8
Livello 1
100
AcDbVertex
100
AcDb2dVertex
 10
8.88146095683011
 20
0.7230884852330633
 30
0.0
  0
VERTEX
  5
A9F
330
A7F
100
AcDbEntity
  8
Livello 1
100
AcDbVertex
100
AcDb2dVertex
 10
8.88146095683011
 20
0.7255579189109654
 30
0.0
  0
VERTEX
  5
AA0
330
A7F
100
AcDbEntity
  8
Livello 1
100
AcDbVertex
100
AcDb2dVertex
 10
8.883930390508012
 20
0.7280273525888675
 30
0.0
  0
VERTEX
  5
AA1
330
A7F
100
AcDbEntity
  8
Livello 1
100
AcDbVertex
100
AcDb2dVertex
 10
8.886399824185929
 20
0.7280273525888675
 30
0.0
  0
VERTEX
  5
AA2
330
A7F
100
AcDbEntity
  8
Livello 1
100
AcDbVertex
100
AcDb2dVertex
 10
8.886399824185929
 20
0.7304967862667838
 30
0.0
  0
VERTEX
  5
AA3
330
A7F
100
AcDbEntity
  8
Livello 1
100
AcDbVertex
100
AcDb2dVertex
 10
8.888869257863831
 20
0.7333188039357453
 30
0.0
  0
VERTEX
  5
AA4
330
A7F
100
AcDbEntity
  8
Livello 1
100
AcDbVertex
100
AcDb2dVertex
 10
8.888869257863831
 20
0.7357882376136616
 30
0.0
  0
VERTEX
  5
AA5
330
A7F
100
AcDbEntity
  8
Livello 1
100
AcDbVertex
100
AcDb2dVertex
 10
8.891338691541733
 20
0.7357882376136616
 30
0.0
  0
VERTEX
  5
AA6
330
A7F
100
AcDbEntity
  8
Livello 1
100
AcDbVertex
100
AcDb2dVertex
 10
8.891338691541733
 20
0.7382576712915494
 30
0.0
  0
VERTEX
  5
AA7
330
A7F
100
AcDbEntity
  8
Livello 1
100
AcDbVertex
100
AcDb2dVertex
 10
8.893808125219635
 20
0.7382576712915494
 30
0.0
  0
VERTEX
  5
AA8
330
A7F
100
AcDbEntity
  8
Livello 1
100
AcDbVertex
100
AcDb2dVertex
 10
8.893808125219635
 20
0.7407271049694657
 30
0.0
  0
VERTEX
  5
AA9
330
A7F
100
AcDbEntity
  8
Livello 1
100
AcDbVertex
100
AcDb2dVertex
 10
8.896630142888611
 20
0.743196538647382
 30
0.0
  0
VERTEX
  5
AAA
330
A7F
100
AcDbEntity
  8
Livello 1
100
AcDbVertex
100
AcDb2dVertex
 10
8.896630142888611
 20
0.7456659723252557
 30
0.0
  0
VERTEX
  5
AAB
330
A7F
100
AcDbEntity
  8
Livello 1
100
AcDbVertex
100
AcDb2dVertex
 10
8.899099576566513
 20
0.7456659723252557
 30
0.0
  0
VERTEX
  5
AAC
330
A7F
100
AcDbEntity
  8
Livello 1
100
AcDbVertex
100
AcDb2dVertex
 10
8.899099576566513
 20
0.7506048396810741
 30
0.0
  0
VERTEX
  5
AAD
330
A7F
100
AcDbEntity
  8
Livello 1
100
AcDbVertex
100
AcDb2dVertex
 10
8.901569010244415
 20
0.7506048396810741
 30
0.0
  0
VERTEX
  5
AAE
330
A7F
100
AcDbEntity
  8
Livello 1
100
AcDbVertex
100
AcDb2dVertex
 10
8.901569010244415
 20
0.7530742733589904
 30
0.0
  0
VERTEX
  5
AAF
330
A7F
100
AcDbEntity
  8
Livello 1
100
AcDbVertex
100
AcDb2dVertex
 10
8.904038443922317
 20
0.7555437070368783
 30
0.0
  0
VERTEX
  5
AB0
330
A7F
100
AcDbEntity
  8
Livello 1
100
AcDbVertex
100
AcDb2dVertex
 10
8.904038443922317
 20
0.7608351583837419
 30
0.0
  0
VERTEX
  5
AB1
330
A7F
100
AcDbEntity
  8
Livello 1
100
AcDbVertex
100
AcDb2dVertex
 10
8.906507877600219
 20
0.7608351583837419
 30
0.0
  0
VERTEX
  5
AB2
330
A7F
100
AcDbEntity
  8
Livello 1
100
AcDbVertex
100
AcDb2dVertex
 10
8.906507877600219
 20
0.7657740257395603
 30
0.0
  0
VERTEX
  5
AB3
330
A7F
100
AcDbEntity
  8
Livello 1
100
AcDbVertex
100
AcDb2dVertex
 10
8.908977311278121
 20
0.7682434594174623
 30
0.0
  0
VERTEX
  5
AB4
330
A7F
100
AcDbEntity
  8
Livello 1
100
AcDbVertex
100
AcDb2dVertex
 10
8.908977311278121
 20
0.7731823267732807
 30
0.0
  0
VERTEX
  5
AB5
330
A7F
100
AcDbEntity
  8
Livello 1
100
AcDbVertex
100
AcDb2dVertex
 10
8.911446744956023
 20
0.7756517604511686
 30
0.0
  0
VERTEX
  5
AB6
330
A7F
100
AcDbEntity
  8
Livello 1
100
AcDbVertex
100
AcDb2dVertex
 10
8.911446744956023
 20
0.7830600614848891
 30
0.0
  0
VERTEX
  5
AB7
330
A7F
100
AcDbEntity
  8
Livello 1
100
AcDbVertex
100
AcDb2dVertex
 10
8.913916178633925
 20
0.7855294951627912
 30
0.0
  0
VERTEX
  5
AB8
330
A7F
100
AcDbEntity
  8
Livello 1
100
AcDbVertex
100
AcDb2dVertex
 10
8.913916178633925
 20
0.7879989288407217
 30
0.0
  0
VERTEX
  5
AB9
330
A7F
100
AcDbEntity
  8
Livello 1
100
AcDbVertex
100
AcDb2dVertex
 10
8.913916178633925
 20
0.8056375485770956
 30
0.0
  0
VERTEX
  5
ABA
330
A7F
100
AcDbEntity
  8
Livello 1
100
AcDbVertex
100
AcDb2dVertex
 10
8.913916178633925
 20
0.8105764159328856
 30
0.0
  0
SEQEND
  5
ABB
330
A7F
100
AcDbEntity
  8
Livello 1
  0
POLYLINE
  5
ABC
330
1F
100
AcDbEntity
  8
Livello 1
100
AcDb2dPolyline
 66
     1
 10
0.0
 20
0.0
 30
0.0
  0
VERTEX
  5
ABD
330
ABC
100
AcDbEntity
  8
Livello 1
100
AcDbVertex
100
AcDb2dVertex
 10
8.793973026130288
 20
0.6881638297513462
 30
0.0
  0
VERTEX
  5
ABE
330
ABC
100
AcDbEntity
  8
Livello 1
100
AcDbVertex
100
AcDb2dVertex
 10
7.859111376956718
 20
0.6881638297513462
 30
0.0
  0
SEQEND
  5
ABF
330
ABC
100
AcDbEntity
  8
Livello 1
  0
POLYLINE
  5
AC0
330
1F
100
AcDbEntity
  8
Livello 1
100
AcDb2dPolyline
 66
     1
 10
0.0
 20
0.0
 30
0.0
  0
VERTEX
  5
AC1
330
AC0
100
AcDbEntity
  8
Livello 1
100
AcDbVertex
100
AcDb2dVertex
 10
7.736592477281675
 20
0.8106827294263894
 30
0.0
  0
VERTEX
  5
AC2
330
AC0
100
AcDbEntity
  8
Livello 1
100
AcDbVertex
100
AcDb2dVertex
 10
7.736592477281675
 20
0.8057425163301559
 30
0.0
  0
VERTEX
  5
AC3
330
AC0
100
AcDbEntity
  8
Livello 1
100
AcDbVertex
100
AcDb2dVertex
 10
7.736592477281675
 20
0.7881038965937819
 30
0.0
  0
VERTEX
  5
AC4
330
AC0
100
AcDbEntity
  8
Livello 1
100
AcDbVertex
100
AcDb2dVertex
 10
7.736592477281675
 20
0.7856344629158656
 30
0.0
  0
VERTEX
  5
AC5
330
AC0
100
AcDbEntity
  8
Livello 1
100
AcDbVertex
100
AcDb2dVertex
 10
7.739061910959577
 20
0.7831650292379351
 30
0.0
  0
VERTEX
  5
AC6
330
AC0
100
AcDbEntity
  8
Livello 1
100
AcDbVertex
100
AcDb2dVertex
 10
7.739061910959577
 20
0.7757567282042288
 30
0.0
  0
VERTEX
  5
AC7
330
AC0
100
AcDbEntity
  8
Livello 1
100
AcDbVertex
100
AcDb2dVertex
 10
7.741531344637479
 20
0.7732872945263552
 30
0.0
  0
VERTEX
  5
AC8
330
AC0
100
AcDbEntity
  8
Livello 1
100
AcDbVertex
100
AcDb2dVertex
 10
7.741531344637479
 20
0.7683484271705226
 30
0.0
  0
VERTEX
  5
AC9
330
AC0
100
AcDbEntity
  8
Livello 1
100
AcDbVertex
100
AcDb2dVertex
 10
7.744000778315381
 20
0.7655264095015753
 30
0.0
  0
VERTEX
  5
ACA
330
AC0
100
AcDbEntity
  8
Livello 1
100
AcDbVertex
100
AcDb2dVertex
 10
7.744000778315381
 20
0.7605875421457569
 30
0.0
  0
VERTEX
  5
ACB
330
AC0
100
AcDbEntity
  8
Livello 1
100
AcDbVertex
100
AcDb2dVertex
 10
7.746470211993283
 20
0.7605875421457569
 30
0.0
  0
VERTEX
  5
ACC
330
AC0
100
AcDbEntity
  8
Livello 1
100
AcDbVertex
100
AcDb2dVertex
 10
7.746470211993283
 20
0.7556486747899527
 30
0.0
  0
VERTEX
  5
ACD
330
AC0
100
AcDbEntity
  8
Livello 1
100
AcDbVertex
100
AcDb2dVertex
 10
7.748939645671185
 20
0.7531792411120222
 30
0.0
  0
VERTEX
  5
ACE
330
AC0
100
AcDbEntity
  8
Livello 1
100
AcDbVertex
100
AcDb2dVertex
 10
7.748939645671185
 20
0.7507098074341485
 30
0.0
  0
VERTEX
  5
ACF
330
AC0
100
AcDbEntity
  8
Livello 1
100
AcDbVertex
100
AcDb2dVertex
 10
7.751761663340161
 20
0.7507098074341485
 30
0.0
  0
VERTEX
  5
AD0
330
AC0
100
AcDbEntity
  8
Livello 1
100
AcDbVertex
100
AcDb2dVertex
 10
7.751761663340161
 20
0.7457709400783586
 30
0.0
  0
VERTEX
  5
AD1
330
AC0
100
AcDbEntity
  8
Livello 1
100
AcDbVertex
100
AcDb2dVertex
 10
7.754231097018063
 20
0.7457709400783586
 30
0.0
  0
VERTEX
  5
AD2
330
AC0
100
AcDbEntity
  8
Livello 1
100
AcDbVertex
100
AcDb2dVertex
 10
7.754231097018063
 20
0.7433015064004423
 30
0.0
  0
VERTEX
  5
AD3
330
AC0
100
AcDbEntity
  8
Livello 1
100
AcDbVertex
100
AcDb2dVertex
 10
7.756700530695965
 20
0.7408320727225118
 30
0.0
  0
VERTEX
  5
AD4
330
AC0
100
AcDbEntity
  8
Livello 1
100
AcDbVertex
100
AcDb2dVertex
 10
7.756700530695965
 20
0.738010055053536
 30
0.0
  0
VERTEX
  5
AD5
330
AC0
100
AcDbEntity
  8
Livello 1
100
AcDbVertex
100
AcDb2dVertex
 10
7.759169964373867
 20
0.738010055053536
 30
0.0
  0
VERTEX
  5
AD6
330
AC0
100
AcDbEntity
  8
Livello 1
100
AcDbVertex
100
AcDb2dVertex
 10
7.759169964373867
 20
0.7355406213756624
 30
0.0
  0
VERTEX
  5
AD7
330
AC0
100
AcDbEntity
  8
Livello 1
100
AcDbVertex
100
AcDb2dVertex
 10
7.761639398051769
 20
0.7355406213756624
 30
0.0
  0
VERTEX
  5
AD8
330
AC0
100
AcDbEntity
  8
Livello 1
100
AcDbVertex
100
AcDb2dVertex
 10
7.761639398051769
 20
0.7330711876977319
 30
0.0
  0
VERTEX
  5
AD9
330
AC0
100
AcDbEntity
  8
Livello 1
100
AcDbVertex
100
AcDb2dVertex
 10
7.764108831729686
 20
0.7306017540198582
 30
0.0
  0
VERTEX
  5
ADA
330
AC0
100
AcDbEntity
  8
Livello 1
100
AcDbVertex
100
AcDb2dVertex
 10
7.764108831729686
 20
0.7281323203419277
 30
0.0
  0
VERTEX
  5
ADB
330
AC0
100
AcDbEntity
  8
Livello 1
100
AcDbVertex
100
AcDb2dVertex
 10
7.766578265407588
 20
0.7281323203419277
 30
0.0
  0
VERTEX
  5
ADC
330
AC0
100
AcDbEntity
  8
Livello 1
100
AcDbVertex
100
AcDb2dVertex
 10
7.76904769908549
 20
0.7256628866640256
 30
0.0
  0
VERTEX
  5
ADD
330
AC0
100
AcDbEntity
  8
Livello 1
100
AcDbVertex
100
AcDb2dVertex
 10
7.76904769908549
 20
0.7231934529861093
 30
0.0
  0
VERTEX
  5
ADE
330
AC0
100
AcDbEntity
  8
Livello 1
100
AcDbVertex
100
AcDb2dVertex
 10
7.771517132763392
 20
0.7231934529861093
 30
0.0
  0
VERTEX
  5
ADF
330
AC0
100
AcDbEntity
  8
Livello 1
100
AcDbVertex
100
AcDb2dVertex
 10
7.771517132763392
 20
0.7207240193082214
 30
0.0
  0
VERTEX
  5
AE0
330
AC0
100
AcDbEntity
  8
Livello 1
100
AcDbVertex
100
AcDb2dVertex
 10
7.77398656644128
 20
0.7207240193082214
 30
0.0
  0
VERTEX
  5
AE1
330
AC0
100
AcDbEntity
  8
Livello 1
100
AcDbVertex
100
AcDb2dVertex
 10
7.776456000119196
 20
0.7182545856303193
 30
0.0
  0
VERTEX
  5
AE2
330
AC0
100
AcDbEntity
  8
Livello 1
100
AcDbVertex
100
AcDb2dVertex
 10
7.776456000119196
 20
0.7157851519524172
 30
0.0
  0
VERTEX
  5
AE3
330
AC0
100
AcDbEntity
  8
Livello 1
100
AcDbVertex
100
AcDb2dVertex
 10
7.778925433797098
 20
0.7157851519524172
 30
0.0
  0
VERTEX
  5
AE4
330
AC0
100
AcDbEntity
  8
Livello 1
100
AcDbVertex
100
AcDb2dVertex
 10
7.781747451466074
 20
0.7133157182745009
 30
0.0
  0
VERTEX
  5
AE5
330
AC0
100
AcDbEntity
  8
Livello 1
100
AcDbVertex
100
AcDb2dVertex
 10
7.784216885143976
 20
0.7133157182745009
 30
0.0
  0
VERTEX
  5
AE6
330
AC0
100
AcDbEntity
  8
Livello 1
100
AcDbVertex
100
AcDb2dVertex
 10
7.784216885143976
 20
0.7108462845966131
 30
0.0
  0
VERTEX
  5
AE7
330
AC0
100
AcDbEntity
  8
Livello 1
100
AcDbVertex
100
AcDb2dVertex
 10
7.786686318821878
 20
0.7108462845966131
 30
0.0
  0
VERTEX
  5
AE8
330
AC0
100
AcDbEntity
  8
Livello 1
100
AcDbVertex
100
AcDb2dVertex
 10
7.786686318821878
 20
0.7080242669276516
 30
0.0
  0
VERTEX
  5
AE9
330
AC0
100
AcDbEntity
  8
Livello 1
100
AcDbVertex
100
AcDb2dVertex
 10
7.78915575249978
 20
0.7080242669276516
 30
0.0
  0
VERTEX
  5
AEA
330
AC0
100
AcDbEntity
  8
Livello 1
100
AcDbVertex
100
AcDb2dVertex
 10
7.791625186177682
 20
0.7055548332497495
 30
0.0
  0
VERTEX
  5
AEB
330
AC0
100
AcDbEntity
  8
Livello 1
100
AcDbVertex
100
AcDb2dVertex
 10
7.794094619855599
 20
0.7055548332497495
 30
0.0
  0
VERTEX
  5
AEC
330
AC0
100
AcDbEntity
  8
Livello 1
100
AcDbVertex
100
AcDb2dVertex
 10
7.794094619855599
 20
0.703085399571819
 30
0.0
  0
VERTEX
  5
AED
330
AC0
100
AcDbEntity
  8
Livello 1
100
AcDbVertex
100
AcDb2dVertex
 10
7.799033487211389
 20
0.703085399571819
 30
0.0
  0
VERTEX
  5
AEE
330
AC0
100
AcDbEntity
  8
Livello 1
100
AcDbVertex
100
AcDb2dVertex
 10
7.799033487211389
 20
0.7006159658939453
 30
0.0
  0
VERTEX
  5
AEF
330
AC0
100
AcDbEntity
  8
Livello 1
100
AcDbVertex
100
AcDb2dVertex
 10
7.801502920889319
 20
0.7006159658939453
 30
0.0
  0
VERTEX
  5
AF0
330
AC0
100
AcDbEntity
  8
Livello 1
100
AcDbVertex
100
AcDb2dVertex
 10
7.803972354567207
 20
0.6981465322160148
 30
0.0
  0
VERTEX
  5
AF1
330
AC0
100
AcDbEntity
  8
Livello 1
100
AcDbVertex
100
AcDb2dVertex
 10
7.809263805914085
 20
0.6981465322160148
 30
0.0
  0
VERTEX
  5
AF2
330
AC0
100
AcDbEntity
  8
Livello 1
100
AcDbVertex
100
AcDb2dVertex
 10
7.809263805914085
 20
0.6956770985381553
 30
0.0
  0
VERTEX
  5
AF3
330
AC0
100
AcDbEntity
  8
Livello 1
100
AcDbVertex
100
AcDb2dVertex
 10
7.814202673269889
 20
0.6956770985381553
 30
0.0
  0
VERTEX
  5
AF4
330
AC0
100
AcDbEntity
  8
Livello 1
100
AcDbVertex
100
AcDb2dVertex
 10
7.816672106947791
 20
0.693207664860239
 30
0.0
  0
VERTEX
  5
AF5
330
AC0
100
AcDbEntity
  8
Livello 1
100
AcDbVertex
100
AcDb2dVertex
 10
7.821610974303595
 20
0.693207664860239
 30
0.0
  0
VERTEX
  5
AF6
330
AC0
100
AcDbEntity
  8
Livello 1
100
AcDbVertex
100
AcDb2dVertex
 10
7.824080407981512
 20
0.6907382311823085
 30
0.0
  0
VERTEX
  5
AF7
330
AC0
100
AcDbEntity
  8
Livello 1
100
AcDbVertex
100
AcDb2dVertex
 10
7.831488709015218
 20
0.6907382311823085
 30
0.0
  0
VERTEX
  5
AF8
330
AC0
100
AcDbEntity
  8
Livello 1
100
AcDbVertex
100
AcDb2dVertex
 10
7.83395814269312
 20
0.6882687975043922
 30
0.0
  0
VERTEX
  5
AF9
330
AC0
100
AcDbEntity
  8
Livello 1
100
AcDbVertex
100
AcDb2dVertex
 10
7.836427576371022
 20
0.6882687975043922
 30
0.0
  0
VERTEX
  5
AFA
330
AC0
100
AcDbEntity
  8
Livello 1
100
AcDbVertex
100
AcDb2dVertex
 10
7.854066196107424
 20
0.6882687975043922
 30
0.0
  0
VERTEX
  5
AFB
330
AC0
100
AcDbEntity
  8
Livello 1
100
AcDbVertex
100
AcDb2dVertex
 10
7.859005063463229
 20
0.6882687975043922
 30
0.0
  0
SEQEND
  5
AFC
330
AC0
100
AcDbEntity
  8
Livello 1
  0
POLYLINE
  5
AFD
330
1F
100
AcDbEntity
  8
Livello 1
100
AcDb2dPolyline
 66
     1
 10
0.0
 20
0.0
 30
0.0
  0
VERTEX
  5
AFE
330
AFD
100
AcDbEntity
  8
Livello 1
100
AcDbVertex
100
AcDb2dVertex
 10
7.736592477281675
 20
0.8106827294263894
 30
0.0
  0
VERTEX
  5
AFF
330
AFD
100
AcDbEntity
  8
Livello 1
100
AcDbVertex
100
AcDb2dVertex
 10
7.736592477281675
 20
2.084209376463832
 30
0.0
  0
SEQEND
  5
B00
330
AFD
100
AcDbEntity
  8
Livello 1
  0
SPLINE
  5
B01
330
1F
100
AcDbEntity
  8
Livello 1
100
AcDbSpline
210
0.0
220
0.0
230
1.0
 70
     8
 71
     3
 72
   176
 73
   172
 74
     0
 42
0.000000001
 43
0.0000000001
 40
0.0
 40
0.0
 40
0.0
 40
0.0
 40
1.0
 40
1.0
 40
1.0
 40
2.0
 40
2.0
 40
2.0
 40
3.0
 40
3.0
 40
3.0
 40
4.0
 40
4.0
 40
4.0
 40
5.0
 40
5.0
 40
5.0
 40
6.0
 40
6.0
 40
6.0
 40
7.0
 40
7.0
 40
7.0
 40
8.0
 40
8.0
 40
8.0
 40
9.0
 40
9.0
 40
9.0
 40
10.0
 40
10.0
 40
10.0
 40
11.0
 40
11.0
 40
11.0
 40
12.0
 40
12.0
 40
12.0
 40
13.0
 40
13.0
 40
13.0
 40
14.0
 40
14.0
 40
14.0
 40
15.0
 40
15.0
 40
15.0
 40
16.0
 40
16.0
 40
16.0
 40
17.0
 40
17.0
 40
17.0
 40
18.0
 40
18.0
 40
18.0
 40
19.0
 40
19.0
 40
19.0
 40
20.0
 40
20.0
 40
20.0
 40
21.0
 40
21.0
 40
21.0
 40
22.0
 40
22.0
 40
22.0
 40
23.0
 40
23.0
 40
23.0
 40
24.0
 40
24.0
 40
24.0
 40
25.0
 40
25.0
 40
25.0
 40
26.0
 40
26.0
 40
26.0
 40
27.0
 40
27.0
 40
27.0
 40
28.0
 40
28.0
 40
28.0
 40
29.0
 40
29.0
 40
29.0
 40
30.0
 40
30.0
 40
30.0
 40
31.0
 40
31.0
 40
31.0
 40
32.0
 40
32.0
 40
32.0
 40
33.0
 40
33.0
 40
33.0
 40
34.0
 40
34.0
 40
34.0
 40
35.0
 40
35.0
 40
35.0
 40
36.0
 40
36.0
 40
36.0
 40
37.0
 40
37.0
 40
37.0
 40
38.0
 40
38.0
 40
38.0
 40
39.0
 40
39.0
 40
39.0
 40
40.0
 40
40.0
 40
40.0
 40
41.0
 40
41.0
 40
41.0
 40
42.0
 40
42.0
 40
42.0
 40
43.0
 40
43.0
 40
43.0
 40
44.0
 40
44.0
 40
44.0
 40
45.0
 40
45.0
 40
45.0
 40
46.0
 40
46.0
 40
46.0
 40
47.0
 40
47.0
 40
47.0
 40
48.0
 40
48.0
 40
48.0
 40
49.0
 40
49.0
 40
49.0
 40
50.0
 40
50.0
 40
50.0
 40
51.0
 40
51.0
 40
51.0
 40
52.0
 40
52.0
 40
52.0
 40
53.0
 40
53.0
 40
53.0
 40
54.0
 40
54.0
 40
54.0
 40
55.0
 40
55.0
 40
55.0
 40
56.0
 40
56.0
 40
56.0
 40
57.0
 40
57.0
 40
57.0
 40
57.0
 10
7.331604008365047
 20
1.460605375680444
 30
0.0
 10
7.331604008365047
 20
1.460605375680444
 30
0.0
 10
7.331604008365047
 20
1.258110468351944
 30
0.0
 10
7.331604008365047
 20
1.258110468351944
 30
0.0
 10
7.331604008365047
 20
1.258110468351944
 30
0.0
 10
7.331604008365047
 20
1.212954148427101
 30
0.0
 10
7.331604008365047
 20
1.212954148427101
 30
0.0
 10
7.331604008365047
 20
1.212954148427101
 30
0.0
 10
7.334073442042949
 20
1.208015281071297
 30
0.0
 10
7.334073442042949
 20
1.208015281071297
 30
0.0
 10
7.334073442042949
 20
1.208015281071297
 30
0.0
 10
7.334073442042949
 20
1.198137546359717
 30
0.0
 10
7.334073442042949
 20
1.198137546359717
 30
0.0
 10
7.334073442042949
 20
1.198137546359717
 30
0.0
 10
7.336542875720851
 20
1.19319867900387
 30
0.0
 10
7.336542875720851
 20
1.19319867900387
 30
0.0
 10
7.336542875720851
 20
1.19319867900387
 30
0.0
 10
7.336542875720851
 20
1.182968360301217
 30
0.0
 10
7.336542875720851
 20
1.182968360301217
 30
0.0
 10
7.336542875720851
 20
1.182968360301217
 30
0.0
 10
7.339012309398754
 20
1.178029492945384
 30
0.0
 10
7.339012309398754
 20
1.178029492945384
 30
0.0
 10
7.339012309398754
 20
1.178029492945384
 30
0.0
 10
7.339012309398754
 20
1.168151758233776
 30
0.0
 10
7.339012309398754
 20
1.168151758233776
 30
0.0
 10
7.339012309398754
 20
1.168151758233776
 30
0.0
 10
7.341481743076656
 20
1.163212890878
 30
0.0
 10
7.341481743076656
 20
1.163212890878
 30
0.0
 10
7.341481743076656
 20
1.163212890878
 30
0.0
 10
7.341481743076656
 20
1.158274023522167
 30
0.0
 10
7.341481743076656
 20
1.158274023522167
 30
0.0
 10
7.341481743076656
 20
1.158274023522167
 30
0.0
 10
7.343951176754558
 20
1.152982572175289
 30
0.0
 10
7.343951176754558
 20
1.152982572175289
 30
0.0
 10
7.343951176754558
 20
1.152982572175289
 30
0.0
 10
7.343951176754558
 20
1.148043704819457
 30
0.0
 10
7.343951176754558
 20
1.148043704819457
 30
0.0
 10
7.343951176754558
 20
1.148043704819457
 30
0.0
 10
7.346773194423533
 20
1.143104837463667
 30
0.0
 10
7.346773194423533
 20
1.143104837463667
 30
0.0
 10
7.346773194423533
 20
1.143104837463667
 30
0.0
 10
7.346773194423533
 20
1.138165970107863
 30
0.0
 10
7.346773194423533
 20
1.138165970107863
 30
0.0
 10
7.346773194423533
 20
1.138165970107863
 30
0.0
 10
7.349242628101436
 20
1.135696536429961
 30
0.0
 10
7.349242628101436
 20
1.135696536429961
 30
0.0
 10
7.349242628101436
 20
1.135696536429961
 30
0.0
 10
7.351712061779338
 20
1.130757669074156
 30
0.0
 10
7.351712061779338
 20
1.130757669074156
 30
0.0
 10
7.351712061779338
 20
1.130757669074156
 30
0.0
 10
7.351712061779338
 20
1.125466217727279
 30
0.0
 10
7.351712061779338
 20
1.125466217727279
 30
0.0
 10
7.351712061779338
 20
1.125466217727279
 30
0.0
 10
7.35418149545724
 20
1.12052735037146
 30
0.0
 10
7.35418149545724
 20
1.12052735037146
 30
0.0
 10
7.35418149545724
 20
1.12052735037146
 30
0.0
 10
7.356650929135142
 20
1.115588483015656
 30
0.0
 10
7.356650929135142
 20
1.115588483015656
 30
0.0
 10
7.356650929135142
 20
1.115588483015656
 30
0.0
 10
7.356650929135142
 20
1.110649615659866
 30
0.0
 10
7.356650929135142
 20
1.110649615659866
 30
0.0
 10
7.356650929135142
 20
1.110649615659866
 30
0.0
 10
7.359120362813044
 20
1.105710748304062
 30
0.0
 10
7.359120362813044
 20
1.105710748304062
 30
0.0
 10
7.359120362813044
 20
1.105710748304062
 30
0.0
 10
7.36158979649096
 20
1.103241314626146
 30
0.0
 10
7.36158979649096
 20
1.103241314626146
 30
0.0
 10
7.36158979649096
 20
1.103241314626146
 30
0.0
 10
7.364059230168862
 20
1.097948517538853
 30
0.0
 10
7.364059230168862
 20
1.097948517538853
 30
0.0
 10
7.364059230168862
 20
1.097948517538853
 30
0.0
 10
7.364059230168862
 20
1.093009650183006
 30
0.0
 10
7.364059230168862
 20
1.093009650183006
 30
0.0
 10
7.373230451157908
 20
1.075018446455572
 30
0.0
 10
7.383814699592093
 20
1.058084994701317
 30
0.0
 10
7.394045018294761
 20
1.040798958956003
 30
0.0
 10
7.394045018294761
 20
1.040798958956003
 30
0.0
 10
7.398983885650565
 20
1.030568640253292
 30
0.0
 10
7.398983885650565
 20
1.030568640253292
 30
0.0
 10
7.398983885650565
 20
1.030568640253292
 30
0.0
 10
7.401453319328481
 20
1.02809920657539
 30
0.0
 10
7.401453319328481
 20
1.02809920657539
 30
0.0
 10
7.401453319328481
 20
1.02809920657539
 30
0.0
 10
7.404275336997457
 20
1.023160339219586
 30
0.0
 10
7.404275336997457
 20
1.023160339219586
 30
0.0
 10
7.404275336997457
 20
1.023160339219586
 30
0.0
 10
7.406744770675359
 20
1.020690905541712
 30
0.0
 10
7.406744770675359
 20
1.020690905541712
 30
0.0
 10
7.406744770675359
 20
1.020690905541712
 30
0.0
 10
7.409214204353261
 20
1.01575203818588
 30
0.0
 10
7.409214204353261
 20
1.01575203818588
 30
0.0
 10
7.409214204353261
 20
1.01575203818588
 30
0.0
 10
7.416622505386968
 20
1.007991153161086
 30
0.0
 10
7.416622505386968
 20
1.007991153161086
 30
0.0
 10
7.416622505386968
 20
1.007991153161086
 30
0.0
 10
7.41909193906487
 20
1.00305228580531
 30
0.0
 10
7.41909193906487
 20
1.00305228580531
 30
0.0
 10
7.430733939472261
 20
0.9928219671025999
 30
0.0
 10
7.42685282408965
 20
0.9945848870579396
 30
0.0
 10
7.43426112512337
 20
0.9857662500599957
 30
0.0
 10
7.43426112512337
 20
0.9857662500599957
 30
0.0
 10
7.456486028224503
 20
0.9631874172273455
 30
0.0
 10
7.456486028224503
 20
0.9631874172273455
 30
0.0
 10
7.492469781419856
 20
0.9279101777545406
 30
0.0
 10
7.527748366633062
 20
0.9095663900360193
 30
0.0
 10
7.571491659112766
 20
0.8855772212391457
 30
0.0
 10
7.571491659112766
 20
0.8855772212391457
 30
0.0
 10
7.57643052646857
 20
0.8855772212391457
 30
0.0
 10
7.57643052646857
 20
0.8855772212391457
 30
0.0
 10
7.57643052646857
 20
0.8855772212391457
 30
0.0
 10
7.581723323555877
 20
0.8831077875612294
 30
0.0
 10
7.581723323555877
 20
0.8831077875612294
 30
0.0
 10
7.581723323555877
 20
0.8831077875612294
 30
0.0
 10
7.584192757233779
 20
0.8806383538833131
 30
0.0
 10
7.584192757233779
 20
0.8806383538833131
 30
0.0
 10
7.584192757233779
 20
0.8806383538833131
 30
0.0
 10
7.589131624589583
 20
0.8781689202054252
 30
0.0
 10
7.589131624589583
 20
0.8781689202054252
 30
0.0
 10
7.589131624589583
 20
0.8781689202054252
 30
0.0
 10
7.594070491945387
 20
0.8781689202054252
 30
0.0
 10
7.594070491945387
 20
0.8781689202054252
 30
0.0
 10
7.594070491945387
 20
0.8781689202054252
 30
0.0
 10
7.60394822665701
 20
0.8732300528496068
 30
0.0
 10
7.60394822665701
 20
0.8732300528496068
 30
0.0
 10
7.60394822665701
 20
0.8732300528496068
 30
0.0
 10
7.609239678003888
 20
0.8732300528496068
 30
0.0
 10
7.609239678003888
 20
0.8732300528496068
 30
0.0
 10
7.609239678003888
 20
0.8732300528496068
 30
0.0
 10
7.614178545359692
 20
0.8707606191717047
 30
0.0
 10
7.614178545359692
 20
0.8707606191717047
 30
0.0
 10
7.614178545359692
 20
0.8707606191717047
 30
0.0
 10
7.616647979037594
 20
0.8682911854938026
 30
0.0
 10
7.616647979037594
 20
0.8682911854938026
 30
0.0
 10
7.616647979037594
 20
0.8682911854938026
 30
0.0
 10
7.621586846393398
 20
0.8682911854938026
 30
0.0
 10
7.621586846393398
 20
0.8682911854938026
 30
0.0
 10
7.621586846393398
 20
0.8682911854938026
 30
0.0
 10
7.626525713749217
 20
0.8654691678248269
 30
0.0
 10
7.626525713749217
 20
0.8654691678248269
 30
0.0
 10
7.626525713749217
 20
0.8654691678248269
 30
0.0
 10
7.631464581105021
 20
0.8654691678248269
 30
0.0
 10
7.631464581105021
 20
0.8654691678248269
 30
0.0
 10
7.631464581105021
 20
0.8654691678248269
 30
0.0
 10
7.636403448460825
 20
0.8633523181380127
 30
0.0
 10
7.636403448460825
 20
0.8633523181380127
 30
0.0
 10
7.636403448460825
 20
0.8633523181380127
 30
0.0
 10
7.641694899807703
 20
0.8633523181380127
 30
0.0
 10
7.641694899807703
 20
0.8633523181380127
 30
0.0
 10
7.641694899807703
 20
0.8633523181380127
 30
0.0
 10
7.646633767163507
 20
0.8605303004690227
 30
0.0
 10
7.646633767163507
 20
0.8605303004690227
 30
0.0
 10
7.646633767163507
 20
0.8605303004690227
 30
0.0
 10
7.656511501875129
 20
0.8605303004690227
 30
0.0
 10
7.656511501875129
 20
0.8605303004690227
 30
0.0
 10
7.656511501875129
 20
0.8605303004690227
 30
0.0
 10
7.661450369230934
 20
0.8580608667911207
 30
0.0
 10
7.661450369230934
 20
0.8580608667911207
 30
0.0
 10
7.661450369230934
 20
0.8580608667911207
 30
0.0
 10
7.671680687933616
 20
0.8580608667911207
 30
0.0
 10
7.671680687933616
 20
0.8580608667911207
 30
0.0
 10
7.671680687933616
 20
0.8580608667911207
 30
0.0
 10
7.67661955528942
 20
0.8555914331132186
 30
0.0
 10
7.67661955528942
 20
0.8555914331132186
 30
0.0
 10
7.67661955528942
 20
0.8555914331132186
 30
0.0
 10
7.686497290001028
 20
0.8555914331132186
 30
0.0
 10
7.686497290001028
 20
0.8555914331132186
 30
0.0
 10
7.686497290001028
 20
0.8555914331132186
 30
0.0
 10
7.691436157356847
 20
0.8531219994352881
 30
0.0
 10
7.691436157356847
 20
0.8531219994352881
 30
0.0
 10
7.691436157356847
 20
0.8531219994352881
 30
0.0
 10
7.736592477281675
 20
0.8531219994352881
 30
0.0
 10
7.736592477281675
 20
0.8531219994352881
 30
0.0
  0
POLYLINE
  5
B02
330
1F
100
AcDbEntity
  8
Livello 1
100
AcDb2dPolyline
 66
     1
 10
0.0
 20
0.0
 30
0.0
  0
VERTEX
  5
B03
330
B02
100
AcDbEntity
  8
Livello 1
100
AcDbVertex
100
AcDb2dVertex
 10
7.371608833947078
 20
1.500610201262489
 30
0.0
  0
VERTEX
  5
B04
330
B02
100
AcDbEntity
  8
Livello 1
100
AcDbVertex
100
AcDb2dVertex
 10
7.369138054528747
 20
1.498139421844186
 30
0.0
  0
VERTEX
  5
B05
330
B02
100
AcDbEntity
  8
Livello 1
100
AcDbVertex
100
AcDb2dVertex
 10
7.356438302148177
 20
1.498139421844186
 30
0.0
  0
VERTEX
  5
B06
330
B02
100
AcDbEntity
  8
Livello 1
100
AcDbVertex
100
AcDb2dVertex
 10
7.356438302148177
 20
1.495669988166255
 30
0.0
  0
VERTEX
  5
B07
330
B02
100
AcDbEntity
  8
Livello 1
100
AcDbVertex
100
AcDb2dVertex
 10
7.351499434792359
 20
1.495669988166255
 30
0.0
  0
VERTEX
  5
B08
330
B02
100
AcDbEntity
  8
Livello 1
100
AcDbVertex
100
AcDb2dVertex
 10
7.351499434792359
 20
1.493200554488382
 30
0.0
  0
VERTEX
  5
B09
330
B02
100
AcDbEntity
  8
Livello 1
100
AcDbVertex
100
AcDb2dVertex
 10
7.346560567436554
 20
1.493200554488382
 30
0.0
  0
VERTEX
  5
B0A
330
B02
100
AcDbEntity
  8
Livello 1
100
AcDbVertex
100
AcDb2dVertex
 10
7.346560567436554
 20
1.490731120810451
 30
0.0
  0
VERTEX
  5
B0B
330
B02
100
AcDbEntity
  8
Livello 1
100
AcDbVertex
100
AcDb2dVertex
 10
7.344091133758638
 20
1.490731120810451
 30
0.0
  0
VERTEX
  5
B0C
330
B02
100
AcDbEntity
  8
Livello 1
100
AcDbVertex
100
AcDb2dVertex
 10
7.344091133758638
 20
1.488261687132578
 30
0.0
  0
VERTEX
  5
B0D
330
B02
100
AcDbEntity
  8
Livello 1
100
AcDbVertex
100
AcDb2dVertex
 10
7.34162170008075
 20
1.488261687132578
 30
0.0
  0
VERTEX
  5
B0E
330
B02
100
AcDbEntity
  8
Livello 1
100
AcDbVertex
100
AcDb2dVertex
 10
7.34162170008075
 20
1.485439669463573
 30
0.0
  0
VERTEX
  5
B0F
330
B02
100
AcDbEntity
  8
Livello 1
100
AcDbVertex
100
AcDb2dVertex
 10
7.339152266402834
 20
1.485439669463573
 30
0.0
  0
VERTEX
  5
B10
330
B02
100
AcDbEntity
  8
Livello 1
100
AcDbVertex
100
AcDb2dVertex
 10
7.339152266402834
 20
1.482970235785671
 30
0.0
  0
VERTEX
  5
B11
330
B02
100
AcDbEntity
  8
Livello 1
100
AcDbVertex
100
AcDb2dVertex
 10
7.336682832724932
 20
1.482970235785671
 30
0.0
  0
VERTEX
  5
B12
330
B02
100
AcDbEntity
  8
Livello 1
100
AcDbVertex
100
AcDb2dVertex
 10
7.336682832724932
 20
1.478031368429867
 30
0.0
  0
VERTEX
  5
B13
330
B02
100
AcDbEntity
  8
Livello 1
100
AcDbVertex
100
AcDb2dVertex
 10
7.33421339904703
 20
1.478031368429867
 30
0.0
  0
VERTEX
  5
B14
330
B02
100
AcDbEntity
  8
Livello 1
100
AcDbVertex
100
AcDb2dVertex
 10
7.33421339904703
 20
1.473092501074091
 30
0.0
  0
VERTEX
  5
B15
330
B02
100
AcDbEntity
  8
Livello 1
100
AcDbVertex
100
AcDb2dVertex
 10
7.331743965369128
 20
1.473092501074091
 30
0.0
  0
VERTEX
  5
B16
330
B02
100
AcDbEntity
  8
Livello 1
100
AcDbVertex
100
AcDb2dVertex
 10
7.331743965369128
 20
1.460745332684538
 30
0.0
  0
SEQEND
  5
B17
330
B02
100
AcDbEntity
  8
Livello 1
  0
POLYLINE
  5
B18
330
1F
100
AcDbEntity
  8
Livello 1
100
AcDb2dPolyline
 66
     1
 10
0.0
 20
0.0
 30
0.0
  0
VERTEX
  5
B19
330
B18
100
AcDbEntity
  8
Livello 1
100
AcDbVertex
100
AcDb2dVertex
 10
7.736592477281675
 20
1.500610201262489
 30
0.0
  0
VERTEX
  5
B1A
330
B18
100
AcDbEntity
  8
Livello 1
100
AcDbVertex
100
AcDb2dVertex
 10
7.371466185462139
 20
1.500610201262489
 30
0.0
  0
SEQEND
  5
B1B
330
B18
100
AcDbEntity
  8
Livello 1
  0
POLYLINE
  5
B1C
330
1F
100
AcDbEntity
  8
Livello 1
100
AcDb2dPolyline
 66
     1
 10
0.0
 20
0.0
 30
0.0
  0
VERTEX
  5
B1D
330
B1C
100
AcDbEntity
  8
Livello 1
100
AcDbVertex
100
AcDb2dVertex
 10
9.293965386014377
 20
1.460605375680444
 30
0.0
  0
VERTEX
  5
B1E
330
B1C
100
AcDbEntity
  8
Livello 1
100
AcDbVertex
100
AcDb2dVertex
 10
9.29149460659606
 20
1.460605375680444
 30
0.0
  0
VERTEX
  5
B1F
330
B1C
100
AcDbEntity
  8
Livello 1
100
AcDbVertex
100
AcDb2dVertex
 10
9.29149460659606
 20
1.472952544069983
 30
0.0
  0
VERTEX
  5
B20
330
B1C
100
AcDbEntity
  8
Livello 1
100
AcDbVertex
100
AcDb2dVertex
 10
9.289025172918144
 20
1.472952544069983
 30
0.0
  0
VERTEX
  5
B21
330
B1C
100
AcDbEntity
  8
Livello 1
100
AcDbVertex
100
AcDb2dVertex
 10
9.289025172918144
 20
1.478243995416875
 30
0.0
  0
VERTEX
  5
B22
330
B1C
100
AcDbEntity
  8
Livello 1
100
AcDbVertex
100
AcDb2dVertex
 10
9.286555739240242
 20
1.480713429094763
 30
0.0
  0
VERTEX
  5
B23
330
B1C
100
AcDbEntity
  8
Livello 1
100
AcDbVertex
100
AcDb2dVertex
 10
9.286555739240242
 20
1.483182862772665
 30
0.0
  0
VERTEX
  5
B24
330
B1C
100
AcDbEntity
  8
Livello 1
100
AcDbVertex
100
AcDb2dVertex
 10
9.284086305562325
 20
1.483182862772665
 30
0.0
  0
VERTEX
  5
B25
330
B1C
100
AcDbEntity
  8
Livello 1
100
AcDbVertex
100
AcDb2dVertex
 10
9.284086305562325
 20
1.485652296450581
 30
0.0
  0
VERTEX
  5
B26
330
B1C
100
AcDbEntity
  8
Livello 1
100
AcDbVertex
100
AcDb2dVertex
 10
9.281616871884423
 20
1.488121730128469
 30
0.0
  0
VERTEX
  5
B27
330
B1C
100
AcDbEntity
  8
Livello 1
100
AcDbVertex
100
AcDb2dVertex
 10
9.281616871884423
 20
1.490591163806385
 30
0.0
  0
VERTEX
  5
B28
330
B1C
100
AcDbEntity
  8
Livello 1
100
AcDbVertex
100
AcDb2dVertex
 10
9.278794854215448
 20
1.490591163806385
 30
0.0
  0
VERTEX
  5
B29
330
B1C
100
AcDbEntity
  8
Livello 1
100
AcDbVertex
100
AcDb2dVertex
 10
9.276325420537546
 20
1.493060597484301
 30
0.0
  0
VERTEX
  5
B2A
330
B1C
100
AcDbEntity
  8
Livello 1
100
AcDbVertex
100
AcDb2dVertex
 10
9.273855986859643
 20
1.493060597484301
 30
0.0
  0
VERTEX
  5
B2B
330
B1C
100
AcDbEntity
  8
Livello 1
100
AcDbVertex
100
AcDb2dVertex
 10
9.273855986859643
 20
1.495530031162175
 30
0.0
  0
VERTEX
  5
B2C
330
B1C
100
AcDbEntity
  8
Livello 1
100
AcDbVertex
100
AcDb2dVertex
 10
9.271386553181741
 20
1.495530031162175
 30
0.0
  0
VERTEX
  5
B2D
330
B1C
100
AcDbEntity
  8
Livello 1
100
AcDbVertex
100
AcDb2dVertex
 10
9.268917119503839
 20
1.497999464840091
 30
0.0
  0
VERTEX
  5
B2E
330
B1C
100
AcDbEntity
  8
Livello 1
100
AcDbVertex
100
AcDb2dVertex
 10
9.263978252148035
 20
1.497999464840091
 30
0.0
  0
VERTEX
  5
B2F
330
B1C
100
AcDbEntity
  8
Livello 1
100
AcDbVertex
100
AcDb2dVertex
 10
9.263978252148035
 20
1.500468898517993
 30
0.0
  0
VERTEX
  5
B30
330
B1C
100
AcDbEntity
  8
Livello 1
100
AcDbVertex
100
AcDb2dVertex
 10
9.25163108375851
 20
1.500468898517993
 30
0.0
  0
VERTEX
  5
B31
330
B1C
100
AcDbEntity
  8
Livello 1
100
AcDbVertex
100
AcDb2dVertex
 10
9.25163108375851
 20
1.502938332195896
 30
0.0
  0
SEQEND
  5
B32
330
B1C
100
AcDbEntity
  8
Livello 1
  0
POLYLINE
  5
B33
330
1F
100
AcDbEntity
  8
Livello 1
100
AcDb2dPolyline
 66
     1
 10
0.0
 20
0.0
 30
0.0
  0
VERTEX
  5
B34
330
B33
100
AcDbEntity
  8
Livello 1
100
AcDbVertex
100
AcDb2dVertex
 10
9.293965386014377
 20
1.258111814092373
 30
0.0
  0
VERTEX
  5
B35
330
B33
100
AcDbEntity
  8
Livello 1
100
AcDbVertex
100
AcDb2dVertex
 10
9.293965386014377
 20
1.460605375680444
 30
0.0
  0
SEQEND
  5
B36
330
B33
100
AcDbEntity
  8
Livello 1
  0
SPLINE
  5
B37
330
1F
100
AcDbEntity
  8
Livello 1
100
AcDbSpline
210
0.0
220
0.0
230
1.0
 70
     8
 71
     3
 72
   227
 73
   223
 74
     0
 42
0.000000001
 43
0.0000000001
 40
0.0
 40
0.0
 40
0.0
 40
0.0
 40
1.0
 40
1.0
 40
1.0
 40
2.0
 40
2.0
 40
2.0
 40
3.0
 40
3.0
 40
3.0
 40
4.0
 40
4.0
 40
4.0
 40
5.0
 40
5.0
 40
5.0
 40
6.0
 40
6.0
 40
6.0
 40
7.0
 40
7.0
 40
7.0
 40
8.0
 40
8.0
 40
8.0
 40
9.0
 40
9.0
 40
9.0
 40
10.0
 40
10.0
 40
10.0
 40
11.0
 40
11.0
 40
11.0
 40
12.0
 40
12.0
 40
12.0
 40
13.0
 40
13.0
 40
13.0
 40
14.0
 40
14.0
 40
14.0
 40
15.0
 40
15.0
 40
15.0
 40
16.0
 40
16.0
 40
16.0
 40
17.0
 40
17.0
 40
17.0
 40
18.0
 40
18.0
 40
18.0
 40
19.0
 40
19.0
 40
19.0
 40
20.0
 40
20.0
 40
20.0
 40
21.0
 40
21.0
 40
21.0
 40
22.0
 40
22.0
 40
22.0
 40
23.0
 40
23.0
 40
23.0
 40
24.0
 40
24.0
 40
24.0
 40
25.0
 40
25.0
 40
25.0
 40
26.0
 40
26.0
 40
26.0
 40
27.0
 40
27.0
 40
27.0
 40
28.0
 40
28.0
 40
28.0
 40
29.0
 40
29.0
 40
29.0
 40
30.0
 40
30.0
 40
30.0
 40
31.0
 40
31.0
 40
31.0
 40
32.0
 40
32.0
 40
32.0
 40
33.0
 40
33.0
 40
33.0
 40
34.0
 40
34.0
 40
34.0
 40
35.0
 40
35.0
 40
35.0
 40
36.0
 40
36.0
 40
36.0
 40
37.0
 40
37.0
 40
37.0
 40
38.0
 40
38.0
 40
38.0
 40
39.0
 40
39.0
 40
39.0
 40
40.0
 40
40.0
 40
40.0
 40
41.0
 40
41.0
 40
41.0
 40
42.0
 40
42.0
 40
42.0
 40
43.0
 40
43.0
 40
43.0
 40
44.0
 40
44.0
 40
44.0
 40
45.0
 40
45.0
 40
45.0
 40
46.0
 40
46.0
 40
46.0
 40
47.0
 40
47.0
 40
47.0
 40
48.0
 40
48.0
 40
48.0
 40
49.0
 40
49.0
 40
49.0
 40
50.0
 40
50.0
 40
50.0
 40
51.0
 40
51.0
 40
51.0
 40
52.0
 40
52.0
 40
52.0
 40
53.0
 40
53.0
 40
53.0
 40
54.0
 40
54.0
 40
54.0
 40
55.0
 40
55.0
 40
55.0
 40
56.0
 40
56.0
 40
56.0
 40
57.0
 40
57.0
 40
57.0
 40
58.0
 40
58.0
 40
58.0
 40
59.0
 40
59.0
 40
59.0
 40
60.0
 40
60.0
 40
60.0
 40
61.0
 40
61.0
 40
61.0
 40
62.0
 40
62.0
 40
62.0
 40
63.0
 40
63.0
 40
63.0
 40
64.0
 40
64.0
 40
64.0
 40
65.0
 40
65.0
 40
65.0
 40
66.0
 40
66.0
 40
66.0
 40
67.0
 40
67.0
 40
67.0
 40
68.0
 40
68.0
 40
68.0
 40
69.0
 40
69.0
 40
69.0
 40
70.0
 40
70.0
 40
70.0
 40
71.0
 40
71.0
 40
71.0
 40
72.0
 40
72.0
 40
72.0
 40
73.0
 40
73.0
 40
73.0
 40
74.0
 40
74.0
 40
74.0
 40
74.0
 10
8.916493271545746
 20
0.8531219994352881
 30
0.0
 10
8.916493271545746
 20
0.8531219994352881
 30
0.0
 10
8.934131891282149
 20
0.8531219994352881
 30
0.0
 10
8.934131891282149
 20
0.8531219994352881
 30
0.0
 10
8.934131891282149
 20
0.8531219994352881
 30
0.0
 10
8.939070758637953
 20
0.8555914331132186
 30
0.0
 10
8.939070758637953
 20
0.8555914331132186
 30
0.0
 10
8.939070758637953
 20
0.8555914331132186
 30
0.0
 10
8.95388736070538
 20
0.8555914331132186
 30
0.0
 10
8.95388736070538
 20
0.8555914331132186
 30
0.0
 10
8.95388736070538
 20
0.8555914331132186
 30
0.0
 10
8.95882622806117
 20
0.8580608667911207
 30
0.0
 10
8.95882622806117
 20
0.8580608667911207
 30
0.0
 10
8.95882622806117
 20
0.8580608667911207
 30
0.0
 10
8.964117679408062
 20
0.8580608667911207
 30
0.0
 10
8.964117679408062
 20
0.8580608667911207
 30
0.0
 10
8.964117679408062
 20
0.8580608667911207
 30
0.0
 10
8.969056546763866
 20
0.8605303004690227
 30
0.0
 10
8.969056546763866
 20
0.8605303004690227
 30
0.0
 10
8.969056546763866
 20
0.8605303004690227
 30
0.0
 10
8.97893428147546
 20
0.8605303004690227
 30
0.0
 10
8.97893428147546
 20
0.8605303004690227
 30
0.0
 10
8.97893428147546
 20
0.8605303004690227
 30
0.0
 10
8.983873148831278
 20
0.8629997341469248
 30
0.0
 10
8.983873148831278
 20
0.8629997341469248
 30
0.0
 10
8.983873148831278
 20
0.8629997341469248
 30
0.0
 10
8.989164600178156
 20
0.8629997341469248
 30
0.0
 10
8.989164600178156
 20
0.8629997341469248
 30
0.0
 10
8.989164600178156
 20
0.8629997341469248
 30
0.0
 10
8.99410346753396
 20
0.8654691678248269
 30
0.0
 10
8.99410346753396
 20
0.8654691678248269
 30
0.0
 10
8.99410346753396
 20
0.8654691678248269
 30
0.0
 10
8.999042334889779
 20
0.8654691678248269
 30
0.0
 10
8.999042334889779
 20
0.8654691678248269
 30
0.0
 10
8.999042334889779
 20
0.8654691678248269
 30
0.0
 10
9.008920069601387
 20
0.8707606191717047
 30
0.0
 10
9.008920069601387
 20
0.8707606191717047
 30
0.0
 10
9.008920069601387
 20
0.8707606191717047
 30
0.0
 10
9.013858936957205
 20
0.8707606191717047
 30
0.0
 10
9.013858936957205
 20
0.8707606191717047
 30
0.0
 10
9.013858936957205
 20
0.8707606191717047
 30
0.0
 10
9.016328370635108
 20
0.8732300528496068
 30
0.0
 10
9.016328370635108
 20
0.8732300528496068
 30
0.0
 10
9.016328370635108
 20
0.8732300528496068
 30
0.0
 10
9.021619821981985
 20
0.8756994865275089
 30
0.0
 10
9.021619821981985
 20
0.8756994865275089
 30
0.0
 10
9.021619821981985
 20
0.8756994865275089
 30
0.0
 10
9.02655868933779
 20
0.8756994865275089
 30
0.0
 10
9.02655868933779
 20
0.8756994865275089
 30
0.0
 10
9.02655868933779
 20
0.8756994865275089
 30
0.0
 10
9.036436424049398
 20
0.8806383538833131
 30
0.0
 10
9.036436424049398
 20
0.8806383538833131
 30
0.0
 10
9.036436424049398
 20
0.8806383538833131
 30
0.0
 10
9.041375291405202
 20
0.8806383538833131
 30
0.0
 10
9.041375291405202
 20
0.8806383538833131
 30
0.0
 10
9.041375291405202
 20
0.8806383538833131
 30
0.0
 10
9.046668088492509
 20
0.8831077875612294
 30
0.0
 10
9.046668088492509
 20
0.8831077875612294
 30
0.0
 10
9.046668088492509
 20
0.8831077875612294
 30
0.0
 10
9.049137522170411
 20
0.8855772212391457
 30
0.0
 10
9.049137522170411
 20
0.8855772212391457
 30
0.0
 10
9.049137522170411
 20
0.8855772212391457
 30
0.0
 10
9.063954124237838
 20
0.8933381062638829
 30
0.0
 10
9.063954124237838
 20
0.8933381062638829
 30
0.0
 10
9.063954124237838
 20
0.8933381062638829
 30
0.0
 10
9.068892991593642
 20
0.8933381062638829
 30
0.0
 10
9.068892991593642
 20
0.8933381062638829
 30
0.0
 10
9.068892991593642
 20
0.8933381062638829
 30
0.0
 10
9.07136242527153
 20
0.8954549559507398
 30
0.0
 10
9.07136242527153
 20
0.8954549559507398
 30
0.0
 10
9.07136242527153
 20
0.8954549559507398
 30
0.0
 10
9.08653161133003
 20
0.9032158409755197
 30
0.0
 10
9.08653161133003
 20
0.9032158409755197
 30
0.0
 10
9.08653161133003
 20
0.9032158409755197
 30
0.0
 10
9.089001045007947
 20
0.9056852746534218
 30
0.0
 10
9.089001045007947
 20
0.9056852746534218
 30
0.0
 10
9.089001045007947
 20
0.9056852746534218
 30
0.0
 10
9.098878779719555
 20
0.910624142009226
 30
0.0
 10
9.098878779719555
 20
0.910624142009226
 30
0.0
 10
9.098878779719555
 20
0.910624142009226
 30
0.0
 10
9.101348213397457
 20
0.9130935756871423
 30
0.0
 10
9.101348213397457
 20
0.9130935756871423
 30
0.0
 10
9.101348213397457
 20
0.9130935756871423
 30
0.0
 10
9.111578532100139
 20
0.9180324430429465
 30
0.0
 10
9.111578532100139
 20
0.9180324430429465
 30
0.0
 10
9.111578532100139
 20
0.9180324430429465
 30
0.0
 10
9.114047965778041
 20
0.9229713103987364
 30
0.0
 10
9.114047965778041
 20
0.9229713103987364
 30
0.0
 10
9.114047965778041
 20
0.9229713103987364
 30
0.0
 10
9.123925700489664
 20
0.9282627617456142
 30
0.0
 10
9.123925700489664
 20
0.9282627617456142
 30
0.0
 10
9.123925700489664
 20
0.9282627617456142
 30
0.0
 10
9.126395134167566
 20
0.9307321954235305
 30
0.0
 10
9.126395134167566
 20
0.9307321954235305
 30
0.0
 10
9.126395134167566
 20
0.9307321954235305
 30
0.0
 10
9.13133400152337
 20
0.9332016291014326
 30
0.0
 10
9.13133400152337
 20
0.9332016291014326
 30
0.0
 10
9.13133400152337
 20
0.9332016291014326
 30
0.0
 10
9.13909488654815
 20
0.9406099301351389
 30
0.0
 10
9.13909488654815
 20
0.9406099301351389
 30
0.0
 10
9.13909488654815
 20
0.9406099301351389
 30
0.0
 10
9.144033753903954
 20
0.9430793638130552
 30
0.0
 10
9.144033753903954
 20
0.9430793638130552
 30
0.0
 10
9.144033753903954
 20
0.9430793638130552
 30
0.0
 10
9.153911488615577
 20
0.9529570985246635
 30
0.0
 10
9.153911488615577
 20
0.9529570985246635
 30
0.0
 10
9.153911488615577
 20
0.9529570985246635
 30
0.0
 10
9.158850355971381
 20
0.9557791161936393
 30
0.0
 10
9.158850355971381
 20
0.9557791161936393
 30
0.0
 10
9.158850355971381
 20
0.9557791161936393
 30
0.0
 10
9.161319789649283
 20
0.9607179835494434
 30
0.0
 10
9.161319789649283
 20
0.9607179835494434
 30
0.0
 10
9.161319789649283
 20
0.9607179835494434
 30
0.0
 10
9.16661258673659
 20
0.9631874172273455
 30
0.0
 10
9.16661258673659
 20
0.9631874172273455
 30
0.0
 10
9.16661258673659
 20
0.9631874172273455
 30
0.0
 10
9.169082020414492
 20
0.9656568509052476
 30
0.0
 10
9.169082020414492
 20
0.9656568509052476
 30
0.0
 10
9.169082020414492
 20
0.9656568509052476
 30
0.0
 10
9.171551454092394
 20
0.9705957182610802
 30
0.0
 10
9.171551454092394
 20
0.9705957182610802
 30
0.0
 10
9.171551454092394
 20
0.9705957182610802
 30
0.0
 10
9.176490321448198
 20
0.9730651519389965
 30
0.0
 10
9.176490321448198
 20
0.9730651519389965
 30
0.0
 10
9.176490321448198
 20
0.9730651519389965
 30
0.0
 10
9.178959755126101
 20
0.9780040192947865
 30
0.0
 10
9.178959755126101
 20
0.9780040192947865
 30
0.0
 10
9.178959755126101
 20
0.9780040192947865
 30
0.0
 10
9.183898622481919
 20
0.9804734529726601
 30
0.0
 10
9.183898622481919
 20
0.9804734529726601
 30
0.0
 10
9.183898622481919
 20
0.9804734529726601
 30
0.0
 10
9.186368056159821
 20
0.9832968163820652
 30
0.0
 10
9.186368056159821
 20
0.9832968163820652
 30
0.0
 10
9.186368056159821
 20
0.9832968163820652
 30
0.0
 10
9.188837489837723
 20
0.9882356837378694
 30
0.0
 10
9.188837489837723
 20
0.9882356837378694
 30
0.0
 10
9.188837489837723
 20
0.9882356837378694
 30
0.0
 10
9.194128941184587
 20
0.9907051174157999
 30
0.0
 10
9.194128941184587
 20
0.9907051174157999
 30
0.0
 10
9.194128941184587
 20
0.9907051174157999
 30
0.0
 10
9.196598374862489
 20
0.9956439847715756
 30
0.0
 10
9.196598374862489
 20
0.9956439847715756
 30
0.0
 10
9.196598374862489
 20
0.9956439847715756
 30
0.0
 10
9.199067808540419
 20
0.9981134184495061
 30
0.0
 10
9.199067808540419
 20
0.9981134184495061
 30
0.0
 10
9.199067808540419
 20
0.9981134184495061
 30
0.0
 10
9.201537242218307
 20
1.00305228580531
 30
0.0
 10
9.201537242218307
 20
1.00305228580531
 30
0.0
 10
9.201537242218307
 20
1.00305228580531
 30
0.0
 10
9.208945543252013
 20
1.010460586839016
 30
0.0
 10
9.208945543252013
 20
1.010460586839016
 30
0.0
 10
9.208945543252013
 20
1.010460586839016
 30
0.0
 10
9.211414976929916
 20
1.01575203818588
 30
0.0
 10
9.211414976929916
 20
1.01575203818588
 30
0.0
 10
9.211414976929916
 20
1.01575203818588
 30
0.0
 10
9.213884410607818
 20
1.018221471863782
 30
0.0
 10
9.213884410607818
 20
1.018221471863782
 30
0.0
 10
9.213884410607818
 20
1.018221471863782
 30
0.0
 10
9.21635384428572
 20
1.023160339219586
 30
0.0
 10
9.21635384428572
 20
1.023160339219586
 30
0.0
 10
9.21635384428572
 20
1.023160339219586
 30
0.0
 10
9.218823277963636
 20
1.02809920657539
 30
0.0
 10
9.218823277963636
 20
1.02809920657539
 30
0.0
 10
9.218823277963636
 20
1.02809920657539
 30
0.0
 10
9.2241147293105
 20
1.030568640253292
 30
0.0
 10
9.2241147293105
 20
1.030568640253292
 30
0.0
 10
9.2241147293105
 20
1.030568640253292
 30
0.0
 10
9.226584162988416
 20
1.035507507609096
 30
0.0
 10
9.226584162988416
 20
1.035507507609096
 30
0.0
 10
9.226584162988416
 20
1.035507507609096
 30
0.0
 10
9.229053596666318
 20
1.040798958956003
 30
0.0
 10
9.229053596666318
 20
1.040798958956003
 30
0.0
 10
9.229053596666318
 20
1.040798958956003
 30
0.0
 10
9.23152303034422
 20
1.043268392633905
 30
0.0
 10
9.23152303034422
 20
1.043268392633905
 30
0.0
 10
9.23152303034422
 20
1.043268392633905
 30
0.0
 10
9.236461897700024
 20
1.053146127345513
 30
0.0
 10
9.236461897700024
 20
1.053146127345513
 30
0.0
 10
9.236461897700024
 20
1.053146127345513
 30
0.0
 10
9.238931331377926
 20
1.055615561023429
 30
0.0
 10
9.238931331377926
 20
1.055615561023429
 30
0.0
 10
9.238931331377926
 20
1.055615561023429
 30
0.0
 10
9.248809066089549
 20
1.07572361443772
 30
0.0
 10
9.248809066089549
 20
1.07572361443772
 30
0.0
 10
9.248809066089549
 20
1.07572361443772
 30
0.0
 10
9.25163108375851
 20
1.078193048115593
 30
0.0
 10
9.25163108375851
 20
1.078193048115593
 30
0.0
 10
9.25163108375851
 20
1.078193048115593
 30
0.0
 10
9.25163108375851
 20
1.083131915471426
 30
0.0
 10
9.25163108375851
 20
1.083131915471426
 30
0.0
 10
9.25163108375851
 20
1.083131915471426
 30
0.0
 10
9.254100517436413
 20
1.08807078282723
 30
0.0
 10
9.254100517436413
 20
1.08807078282723
 30
0.0
 10
9.254100517436413
 20
1.08807078282723
 30
0.0
 10
9.256569951114329
 20
1.093009650183006
 30
0.0
 10
9.256569951114329
 20
1.093009650183006
 30
0.0
 10
9.256569951114329
 20
1.093009650183006
 30
0.0
 10
9.259039384792231
 20
1.097948517538853
 30
0.0
 10
9.259039384792231
 20
1.097948517538853
 30
0.0
 10
9.259039384792231
 20
1.097948517538853
 30
0.0
 10
9.261508818470133
 20
1.100771880948244
 30
0.0
 10
9.261508818470133
 20
1.100771880948244
 30
0.0
 10
9.261508818470133
 20
1.100771880948244
 30
0.0
 10
9.261508818470133
 20
1.105710748304062
 30
0.0
 10
9.261508818470133
 20
1.105710748304062
 30
0.0
 10
9.261508818470133
 20
1.105710748304062
 30
0.0
 10
9.266447685825937
 20
1.115588483015656
 30
0.0
 10
9.266447685825937
 20
1.115588483015656
 30
0.0
 10
9.268917119503839
 20
1.130405085083083
 30
0.0
 10
9.280206535920171
 20
1.149454040783737
 30
0.0
 10
9.281618217624853
 20
1.168151758233776
 30
0.0
 10
9.281618217624853
 20
1.168151758233776
 30
0.0
 10
9.281618217624853
 20
1.17309062558958
 30
0.0
 10
9.281618217624853
 20
1.17309062558958
 30
0.0
 10
9.281618217624853
 20
1.17309062558958
 30
0.0
 10
9.284087651302755
 20
1.178029492945384
 30
0.0
 10
9.284087651302755
 20
1.178029492945384
 30
0.0
 10
9.28690966897173
 20
1.197079794386482
 30
0.0
 10
9.289731686640706
 20
1.218952113496541
 30
0.0
 10
9.291495952336461
 20
1.238002414937653
 30
0.0
 10
9.291495952336461
 20
1.238002414937653
 30
0.0
 10
9.291495952336461
 20
1.258110468351944
 30
0.0
 10
9.291495952336461
 20
1.258110468351944
 30
0.0
  0
POLYLINE
  5
B38
330
1F
100
AcDbEntity
  8
Livello 1
100
AcDb2dPolyline
 66
     1
 10
0.0
 20
0.0
 30
0.0
  0
VERTEX
  5
B39
330
B38
100
AcDbEntity
  8
Livello 1
100
AcDbVertex
100
AcDb2dVertex
 10
9.25145613750341
 20
1.500610201262489
 30
0.0
  0
VERTEX
  5
B3A
330
B38
100
AcDbEntity
  8
Livello 1
100
AcDbVertex
100
AcDb2dVertex
 10
8.916316979550217
 20
1.500610201262489
 30
0.0
  0
SEQEND
  5
B3B
330
B38
100
AcDbEntity
  8
Livello 1
  0
POLYLINE
  5
B3C
330
1F
100
AcDbEntity
  8
Livello 1
100
AcDb2dPolyline
 66
     1
 10
0.0
 20
0.0
 30
0.0
  0
VERTEX
  5
B3D
330
B3C
100
AcDbEntity
  8
Livello 1
100
AcDbVertex
100
AcDb2dVertex
 10
9.128900902836917
 20
1.500610201262489
 30
0.0
  0
VERTEX
  5
B3E
330
B3C
100
AcDbEntity
  8
Livello 1
100
AcDbVertex
100
AcDb2dVertex
 10
9.128900902836917
 20
2.084104408710743
 30
0.0
  0
SEQEND
  5
B3F
330
B3C
100
AcDbEntity
  8
Livello 1
  0
POLYLINE
  5
B40
330
1F
100
AcDbEntity
  8
Livello 1
100
AcDb2dPolyline
 66
     1
 10
0.0
 20
0.0
 30
0.0
  0
VERTEX
  5
B41
330
B40
100
AcDbEntity
  8
Livello 1
100
AcDbVertex
100
AcDb2dVertex
 10
7.55462953160098
 20
1.500610201262489
 30
0.0
  0
VERTEX
  5
B42
330
B40
100
AcDbEntity
  8
Livello 1
100
AcDbVertex
100
AcDb2dVertex
 10
7.55462953160098
 20
2.084104408710743
 30
0.0
  0
SEQEND
  5
B43
330
B40
100
AcDbEntity
  8
Livello 1
  0
POLYLINE
  5
B44
330
1F
100
AcDbEntity
  8
Livello 1
 62
     1
370
    50
100
AcDb2dPolyline
 66
     1
 10
0.0
 20
0.0
 30
0.0
  0
VERTEX
  5
B45
330
B44
100
AcDbEntity
  8
Livello 1
 62
     1
370
    50
100
AcDbVertex
100
AcDb2dVertex
 10
-0.0000002506705528
 20
8.871126881091001
 30
0.0
  0
VERTEX
  5
B46
330
B44
100
AcDbEntity
  8
Livello 1
 62
     1
370
    50
100
AcDbVertex
100
AcDb2dVertex
 10
8.761587782828513
 20
8.871126881091001
 30
0.0
  0
VERTEX
  5
B47
330
B44
100
AcDbEntity
  8
Livello 1
 62
     1
370
    50
100
AcDbVertex
100
AcDb2dVertex
 10
8.761587782828513
 20
0.000176915606545
 30
0.0
  0
SEQEND
  5
B48
330
B44
100
AcDbEntity
  8
Livello 1
 62
     1
370
    50
  0
MTEXT
  5
B49
330
1F
100
AcDbEntity
  8
Livello 1
100
AcDbMText
 10
4.040817680607091
 20
10.69426520229197
 30
0.0
 40
2.123016666135912
 41
0.0
 46
0.0
 71
     7
 72
     1
  1
\fSource Sans Pro SemiBold|b0|i0|c0|p34;\W1;L
 73
     1
 44
1.0
  0
POLYLINE
  5
B4A
330
1F
100
AcDbEntity
  8
Livello 1
100
AcDb2dPolyline
 66
     1
 10
0.0
 20
0.0
 30
0.0
  0
VERTEX
  5
B4B
330
B4A
100
AcDbEntity
  8
Livello 1
100
AcDbVertex
100
AcDb2dVertex
 10
11.13453898585298
 20
9.701847061818682
 30
0.0
  0
VERTEX
  5
B4C
330
B4A
100
AcDbEntity
  8
Livello 1
100
AcDbVertex
100
AcDb2dVertex
 10
11.13453898585298
 20
4.408416130779158
 30
0.0
  0
SEQEND
  5
B4D
330
B4A
100
AcDbEntity
  8
Livello 1
  0
MTEXT
  5
B4E
330
1F
100
AcDbEntity
  8
Livello 1
100
AcDbMText
 10
14.10558916411487
 20
3.129825981635661
 30
0.0
 40
1.998133332833799
 41
0.0
 46
0.0
 71
     7
 72
     1
  1
\fSource Sans Pro Light|b0|i0|c0|p34;\W1;69 mm
 11
-0.0000000000000002
 21
1.0
 31
0.0
 73
     1
 44
1.0
  0
ENDSEC
  0
SECTION
  2
OBJECTS
  0
DICTIONARY
  5
C
330
0
100
AcDbDictionary
281
     1
  3
ACAD_CIP_PREVIOUS_PRODUCT_INFO
350
216
  3
ACAD_COLOR
350
6B
  3
ACAD_DETAILVIEWSTYLE
350
21B
  3
ACAD_GROUP
350
D
  3
ACAD_LAYOUT
350
1A
  3
ACAD_MATERIAL
350
6A
  3
ACAD_MLEADERSTYLE
350
12D
  3
ACAD_MLINESTYLE
350
17
  3
ACAD_PLOTSETTINGS
350
19
  3
ACAD_PLOTSTYLENAME
350
E
  3
ACAD_SCALELIST
350
10C
  3
ACAD_SECTIONVIEWSTYLE
350
219
  3
ACAD_TABLESTYLE
350
7E
  3
ACAD_VISUALSTYLE
350
EF
  3
ACDB_RECOMPOSE_DATA
350
B50
  3
AcDbVariableDictionary
350
5E
  3
AcDsDecomposeData
350
B56
  0
DICTIONARY
  5
1FF
330
2
100
AcDbDictionary
280
     1
281
     1
  3
ACAD_LAYERSTATES
360
200
  0
DICTIONARY
  5
13C
330
10
100
AcDbDictionary
280
     1
281
     1
  0
DICTIONARY
  5
1CE
330
1F
100
AcDbDictionary
280
     1
281
     1
  0
XRECORD
  5
216
102
{ACAD_REACTORS
330
C
102
}
330
C
100
AcDbXrecord
280
     1
300
ACD
300
2020
300

  0
DICTIONARY
  5
6B
102
{ACAD_REACTORS
330
C
102
}
330
C
100
AcDbDictionary
281
     1
  0
DICTIONARY
  5
21B
102
{ACAD_REACTORS
330
C
102
}
330
C
100
AcDbDictionary
281
     1
  3
Imperial24
350
28F
  3
Metric50
350
21C
  0
DICTIONARY
  5
D
102
{ACAD_REACTORS
330
C
102
}
330
C
100
AcDbDictionary
281
     1
  0
DICTIONARY
  5
1A
102
{ACAD_REACTORS
330
C
102
}
330
C
100
AcDbDictionary
281
     1
  3
Layout1
350
D3
  3
Layout2
350
D7
  3
Model
350
22
  0
DICTIONARY
  5
6A
102
{ACAD_REACTORS
330
C
102
}
330
C
100
AcDbDictionary
281
     1
  3
ByBlock
350
ED
  3
ByLayer
350
EC
  3
Global
350
EE
  0
DICTIONARY
  5
12D
102
{ACAD_REACTORS
330
C
102
}
330
C
100
AcDbDictionary
281
     1
  3
Annotativa
350
13B
  3
Standard
350
12E
  0
DICTIONARY
  5
17
102
{ACAD_REACTORS
330
C
102
}
330
C
100
AcDbDictionary
281
     1
  3
Standard
350
18
  0
DICTIONARY
  5
19
102
{ACAD_REACTORS
330
C
102
}
330
C
100
AcDbDictionary
281
     1
  0
ACDBDICTIONARYWDFLT
  5
E
102
{ACAD_REACTORS
330
C
102
}
330
C
100
AcDbDictionary
281
     1
  3
Normal
350
F
100
AcDbDictionaryWithDefault
340
F
  0
DICTIONARY
  5
10C
102
{ACAD_REACTORS
330
C
102
}
330
C
100
AcDbDictionary
281
     1
  3
A0
350
10D
  3
A1
350
1BE
  3
A2
350
1BF
  3
A3
350
1C0
  3
A4
350
1C1
  3
A5
350
1C2
  3
A6
350
1C3
  3
A7
350
1C4
  3
A8
350
1C5
  3
A9
350
1C6
  3
B0
350
1C7
  3
B1
350
1C8
  3
B2
350
1C9
  3
B3
350
1CA
  3
B4
350
1CB
  3
B5
350
1CC
  3
B6
350
1CD
  0
DICTIONARY
  5
219
102
{ACAD_REACTORS
330
C
102
}
330
C
100
AcDbDictionary
281
     1
  3
Imperial24
350
28E
  3
Metric50
350
21A
  0
DICTIONARY
  5
7E
102
{ACAD_REACTORS
330
C
102
}
330
C
100
AcDbDictionary
281
     1
  3
Standard
350
7F
  0
DICTIONARY
  5
EF
102
{ACAD_REACTORS
330
C
102
}
330
C
100
AcDbDictionary
281
     1
  3
2dWireframe
350
F5
  3
Basic
350
F4
  3
Brighten
350
FB
  3
ColorChange
350
FF
  3
Conceptual
350
F8
  3
Dim
350
FA
  3
EdgeColorOff
350
1E6
  3
Facepattern
350
FE
  3
Flat
350
F0
  3
FlatWithEdges
350
F1
  3
Gouraud
350
F2
  3
GouraudWithEdges
350
F3
  3
Hidden
350
F7
  3
JitterOff
350
1E4
  3
Linepattern
350
FD
  3
OverhangOff
350
1E5
  3
Realistic
350
F9
  3
Shaded
350
1F3
  3
Shaded with edges
350
1F2
  3
Shades of Gray
350
1EF
  3
Sketchy
350
1F0
  3
Thicken
350
FC
  3
Wireframe
350
F6
  3
X-Ray
350
1F1
  0
XRECORD
  5
B50
102
{ACAD_REACTORS
330
C
102
}
330
C
100
AcDbXrecord
280
     1
 90
        1
330
7F
  0
DICTIONARY
  5
5E
102
{ACAD_REACTORS
330
C
102
}
330
C
100
AcDbDictionary
281
     1
  3
CANNOSCALE
350
146
  3
CENTEREXE
350
259
  3
CENTERLTYPEFILE
350
25A
  3
CMLEADERSTYLE
350
145
  3
CTABLESTYLE
350
84
  3
CVIEWDETAILSTYLE
350
227
  3
CVIEWSECTIONSTYLE
350
228
  3
DIMASSOC
350
5F
  3
HIDETEXT
350
63
  3
LAYEREVAL
350
1AE
  3
LAYERNOTIFY
350
1AF
  0
DICTIONARY
  5
B56
102
{ACAD_REACTORS
330
C
102
}
330
C
100
AcDbDictionary
281
     1
  3
AcDsRecords
350
B58
  3
AcDsSchemas
350
B57
1001
ACAD
1070
     2
  0
DICTIONARY
  5
200
102
{ACAD_REACTORS
330
1FF
102
}
330
1FF
100
AcDbDictionary
281
     1
  0
ACDBDETAILVIEWSTYLE
  5
28F
102
{ACAD_XDICTIONARY
360
B5F
102
}
102
{ACAD_REACTORS
330
21B
102
}
330
21B
100
AcDbModelDocViewStyle
 70
     0
  3
Imperial24
290
     0
100
AcDbDetailViewStyle
 70
     0
 71
     0
 90
        3
 71
     1
340
11
 62
   256
 40
0.24
340
0
 62
   256
 40
0.24
300

 40
0.36
280
     3
 71
     2
340
16
 90
       25
 62
   256
 71
     3
340
11
 62
   256
 40
0.24
 90
        1
 40
0.75
 90
        1
300
%<\AcVar ViewType \f "%tc1">% %<\AcVar ViewDetailId>%\PSCALA %<\AcVar ViewScale \f "%sn">%
 71
     4
340
16
 90
       25
 62
   256
340
16
 90
       25
 62
   256
280
     0
  0
ACDBDETAILVIEWSTYLE
  5
21C
102
{ACAD_XDICTIONARY
360
B5B
102
}
102
{ACAD_REACTORS
330
21B
102
}
330
21B
100
AcDbModelDocViewStyle
 70
     0
  3
Metric50
290
     0
100
AcDbDetailViewStyle
 70
     0
 71
     0
 90
        3
 71
     1
340
11
 62
   256
 40
5.0
340
0
 62
   256
 40
5.0
300

 40
0.0
280
     1
 71
     2
340
16
 90
       25
 62
   256
 71
     3
340
11
 62
   256
 40
5.0
 90
        0
 40
15.0
 90
        1
300
%<\AcVar ViewDetailId>% (%<\AcVar ViewScale \f "%sn">%)
 71
     4
340
16
 90
       25
 62
   256
340
16
 90
       25
 62
   256
280
     0
  0
LAYOUT
  5
D3
102
{ACAD_REACTORS
330
1A
102
}
330
1A
100
AcDbPlotSettings
  1

  2
C:\Documents and Settings\basas\Application Data\Autodesk\AutoCAD 2005\R16.1\enu\plotters\Default Windows System Printer.pc3
  4

  6

 40
0.0
 41
0.0
 42
0.0
 43
0.0
 44
0.0
 45
0.0
 46
0.0
 47
0.0
 48
0.0
 49
0.0
140
0.0
141
0.0
142
1.0
143
1.0
 70
   688
 72
     0
 73
     0
 74
     5
  7

 75
    16
147
1.0
 76
     0
 77
     2
 78
   300
148
0.0
149
0.0
100
AcDbLayout
  1
Layout1
 70
     1
 71
     1
 10
0.0
 20
0.0
 11
12.0
 21
9.0
 12
0.0
 22
0.0
 32
0.0
 14
0.0
 24
0.0
 34
0.0
 15
0.0
 25
0.0
 35
0.0
146
0.0
 13
0.0
 23
0.0
 33
0.0
 16
1.0
 26
0.0
 36
0.0
 17
0.0
 27
1.0
 37
0.0
 76
     0
330
D2
  0
LAYOUT
  5
D7
102
{ACAD_REACTORS
330
1A
102
}
330
1A
100
AcDbPlotSettings
  1

  2
C:\Documents and Settings\basas\Application Data\Autodesk\AutoCAD 2005\R16.1\enu\plotters\Default Windows System Printer.pc3
  4

  6

 40
0.0
 41
0.0
 42
0.0
 43
0.0
 44
0.0
 45
0.0
 46
0.0
 47
0.0
 48
0.0
 49
0.0
140
0.0
141
0.0
142
1.0
143
1.0
 70
   688
 72
     0
 73
     0
 74
     5
  7

 75
    16
147
1.0
 76
     0
 77
     2
 78
   300
148
0.0
149
0.0
100
AcDbLayout
  1
Layout2
 70
     1
 71
     2
 10
0.0
 20
0.0
 11
12.0
 21
9.0
 12
0.0
 22
0.0
 32
0.0
 14
0.0
 24
0.0
 34
0.0
 15
0.0
 25
0.0
 35
0.0
146
0.0
 13
0.0
 23
0.0
 33
0.0
 16
1.0
 26
0.0
 36
0.0
 17
0.0
 27
1.0
 37
0.0
 76
     0
330
D6
  0
LAYOUT
  5
22
102
{ACAD_XDICTIONARY
360
205
102
}
102
{ACAD_REACTORS
330
1A
102
}
330
1A
100
AcDbPlotSettings
  1

  2
none_device
  4
ISO_A4_(210.00_x_297.00_MM)
  6

 40
7.5
 41
20.0
 42
7.5
 43
20.0
 44
210.0
 45
297.0
 46
11.54999923706054
 47
-13.65000009536743
 48
0.0
 49
0.0
140
0.0
141
0.0
142
1.0
143
8.704084754739808
 70
 11952
 72
     1
 73
     0
 74
     0
  7

 75
     0
147
0.1148885871608098
 76
     0
 77
     2
 78
   300
148
0.0
149
0.0
100
AcDbLayout
  1
Model
 70
     1
 71
     0
 10
0.0
 20
0.0
 11
12.0
 21
9.0
 12
0.0
 22
0.0
 32
0.0
 14
0.0
 24
0.0
 34
0.0
 15
0.0
 25
0.0
 35
0.0
146
0.0
 13
0.0
 23
0.0
 33
0.0
 16
1.0
 26
0.0
 36
0.0
 17
0.0
 27
1.0
 37
0.0
 76
     0
330
1F
331
EA
1001
ACAD_PSEXT
1000
None
1000
None
1000
Not applicable
1000
The layout will not be plotted unless a new plotter configuration name is selected.
1070
     0
  0
MATERIAL
  5
ED
102
{ACAD_XDICTIONARY
360
1F9
102
}
102
{ACAD_REACTORS
330
6A
102
}
330
6A
100
AcDbMaterial
  1
ByBlock
 94
       63
  0
MATERIAL
  5
EC
102
{ACAD_XDICTIONARY
360
1F7
102
}
102
{ACAD_REACTORS
330
6A
102
}
330
6A
100
AcDbMaterial
  1
ByLayer
 94
       63
  0
MATERIAL
  5
EE
102
{ACAD_XDICTIONARY
360
173
102
}
102
{ACAD_REACTORS
330
6A
102
}
330
6A
100
AcDbMaterial
  1
Global
 43
0.0007999999797903
 43
0.0
 43
0.0
 43
0.0
 43
0.0
 43
0.0007999999797903
 43
0.0
 43
0.0
 43
0.0
 43
0.0
 43
1.0
 43
0.0
 43
0.0
 43
0.0
 43
0.0
 43
1.0
 49
0.0007999999797903
 49
0.0
 49
0.0
 49
0.0
 49
0.0
 49
0.0007999999797903
 49
0.0
 49
0.0
 49
0.0
 49
0.0
 49
1.0
 49
0.0
 49
0.0
 49
0.0
 49
0.0
 49
1.0
142
0.0007999999797903
142
0.0
142
0.0
142
0.0
142
0.0
142
0.0007999999797903
142
0.0
142
0.0
142
0.0
142
0.0
142
1.0
142
0.0
142
0.0
142
0.0
142
0.0
142
1.0
144
0.0007999999797903
144
0.0
144
0.0
144
0.0
144
0.0
144
0.0007999999797903
144
0.0
144
0.0
144
0.0
144
0.0
144
1.0
144
0.0
144
0.0
144
0.0
144
0.0
144
1.0
 94
       63
1001
ACAD
1070
    -1
1070
     3
1070
     0
1000

1071
        0
1070
     0
  0
MLEADERSTYLE
  5
13B
102
{ACAD_REACTORS
330
12D
102
}
330
12D
100
AcDbMLeaderStyle
179
     2
170
     2
171
     1
172
     0
 90
        2
 40
0.0
 41
0.0
173
     1
 91
-1056964608
340
14
 92
       -2
290
     1
 42
2.0
291
     1
 43
8.0
  3
Standard
 44
4.0
300

342
11
174
     1
178
     1
175
     1
176
     0
 93
-1056964608
 45
4.0
292
     0
297
     0
 46
4.0
 94
-1056964608
 47
1.0
 49
1.0
140
1.0
293
     1
141
0.0
294
     1
177
     0
142
1.0
295
     0
296
     1
143
3.75
271
     0
272
     9
273
     9
298
     0
  0
MLEADERSTYLE
  5
12E
102
{ACAD_REACTORS
330
12D
102
}
330
12D
100
AcDbMLeaderStyle
179
     2
170
     2
171
     1
172
     0
 90
        2
 40
0.0
 41
0.0
173
     1
 91
-1056964608
340
14
 92
       -2
290
     1
 42
2.0
291
     1
 43
8.0
  3
Standard
 44
4.0
300

342
11
174
     1
178
     1
175
     1
176
     0
 93
-1056964608
 45
4.0
292
     0
297
     0
 46
4.0
 94
-1056964608
 47
1.0
 49
1.0
140
1.0
293
     1
141
0.0
294
     1
177
     0
142
1.0
295
     0
296
     0
143
3.75
271
     0
272
     9
273
     9
298
     0
  0
MLINESTYLE
  5
18
102
{ACAD_REACTORS
330
17
102
}
330
17
100
AcDbMlineStyle
  2
STANDARD
 70
     0
  3

 62
   256
 51
90.0
 52
90.0
 71
     2
 49
0.5
 62
   256
  6
BYLAYER
 49
-0.5
 62
   256
  6
BYLAYER
  0
ACDBPLACEHOLDER
  5
F
102
{ACAD_REACTORS
330
E
102
}
330
E
  0
SCALE
  5
10D
102
{ACAD_REACTORS
330
10C
102
}
330
10C
100
AcDbScale
 70
     0
300
1:1
140
1.0
141
1.0
290
     1
  0
SCALE
  5
1BE
102
{ACAD_REACTORS
330
10C
102
}
330
10C
100
AcDbScale
 70
     0
300
1:2
140
1.0
141
2.0
290
     0
  0
SCALE
  5
1BF
102
{ACAD_REACTORS
330
10C
102
}
330
10C
100
AcDbScale
 70
     0
300
1:4
140
1.0
141
4.0
290
     0
  0
SCALE
  5
1C0
102
{ACAD_REACTORS
330
10C
102
}
330
10C
100
AcDbScale
 70
     0
300
1:5
140
1.0
141
5.0
290
     0
  0
SCALE
  5
1C1
102
{ACAD_REACTORS
330
10C
102
}
330
10C
100
AcDbScale
 70
     0
300
1:8
140
1.0
141
8.0
290
     0
  0
SCALE
  5
1C2
102
{ACAD_REACTORS
330
10C
102
}
330
10C
100
AcDbScale
 70
     0
300
1:10
140
1.0
141
10.0
290
     0
  0
SCALE
  5
1C3
102
{ACAD_REACTORS
330
10C
102
}
330
10C
100
AcDbScale
 70
     0
300
1:16
140
1.0
141
16.0
290
     0
  0
SCALE
  5
1C4
102
{ACAD_REACTORS
330
10C
102
}
330
10C
100
AcDbScale
 70
     0
300
1:20
140
1.0
141
20.0
290
     0
  0
SCALE
  5
1C5
102
{ACAD_REACTORS
330
10C
102
}
330
10C
100
AcDbScale
 70
     0
300
1:30
140
1.0
141
30.0
290
     0
  0
SCALE
  5
1C6
102
{ACAD_REACTORS
330
10C
102
}
330
10C
100
AcDbScale
 70
     0
300
1:40
140
1.0
141
40.0
290
     0
  0
SCALE
  5
1C7
102
{ACAD_REACTORS
330
10C
102
}
330
10C
100
AcDbScale
 70
     0
300
1:50
140
1.0
141
50.0
290
     0
  0
SCALE
  5
1C8
102
{ACAD_REACTORS
330
10C
102
}
330
10C
100
AcDbScale
 70
     0
300
1:100
140
1.0
141
100.0
290
     0
  0
SCALE
  5
1C9
102
{ACAD_REACTORS
330
10C
102
}
330
10C
100
AcDbScale
 70
     0
300
2:1
140
2.0
141
1.0
290
     0
  0
SCALE
  5
1CA
102
{ACAD_REACTORS
330
10C
102
}
330
10C
100
AcDbScale
 70
     0
300
4:1
140
4.0
141
1.0
290
     0
  0
SCALE
  5
1CB
102
{ACAD_REACTORS
330
10C
102
}
330
10C
100
AcDbScale
 70
     0
300
8:1
140
8.0
141
1.0
290
     0
  0
SCALE
  5
1CC
102
{ACAD_REACTORS
330
10C
102
}
330
10C
100
AcDbScale
 70
     0
300
10:1
140
10.0
141
1.0
290
     0
  0
SCALE
  5
1CD
102
{ACAD_REACTORS
330
10C
102
}
330
10C
100
AcDbScale
 70
     0
300
100:1
140
100.0
141
1.0
290
     0
  0
ACDBSECTIONVIEWSTYLE
  5
28E
102
{ACAD_XDICTIONARY
360
B5D
102
}
102
{ACAD_REACTORS
330
219
102
}
330
219
100
AcDbModelDocViewStyle
 70
     0
  3
Imperial24
290
     0
100
AcDbSectionViewStyle
 70
     0
 71
     0
 90
       78
 71
     1
340
11
 62
   256
 40
0.24
340
0
340
0
 62
   256
 40
0.24
300
I, O, Q, S, X, Z
 40
0.48
 90
        3
 40
0.18
 90
        1
 71
     2
340
16
 90
       25
 62
   256
340
16
 90
       50
 62
   256
 40
0.24
 40
0.0
 40
0.24
 71
     3
340
11
 62
   256
 40
0.24
 90
        1
 40
0.75
 90
        1
300
%<\AcVar ViewType \f "%tc1">% %<\AcVar ViewSectionStartId>%-%<\AcVar ViewSectionEndId>%\PSCALA %<\AcVar ViewScale \f "%sn">%
 71
     4
 62
   256
 62
   257
300
ANSI31
 40
1.0
 90
        0
290
     0
290
     0
 90
        6
 40
0.0
 40
1.570796326794896
 40
0.2617993877991494
 40
1.308996938995747
 40
-0.2617993877991494
 40
1.832595714594046
  0
ACDBSECTIONVIEWSTYLE
  5
21A
102
{ACAD_XDICTIONARY
360
B59
102
}
102
{ACAD_REACTORS
330
219
102
}
330
219
100
AcDbModelDocViewStyle
 70
     0
  3
Metric50
290
     0
100
AcDbSectionViewStyle
 70
     0
 71
     0
 90
      102
 71
     1
340
11
 62
   256
 40
5.0
340
0
340
0
 62
   256
 40
5.0
300
I, O, Q, S, X, Z
 40
10.0
 90
        0
 40
2.5
 90
        0
 71
     2
340
16
 90
       25
 62
   256
340
16
 90
       50
 62
   256
 40
5.0
 40
2.5
 40
5.0
 71
     3
340
11
 62
   256
 40
5.0
 90
        0
 40
15.0
 90
        1
300
%<\AcVar ViewSectionStartId>%-%<\AcVar ViewSectionEndId>% (%<\AcVar ViewScale \f "%sn">%)
 71
     4
 62
   256
 62
   257
300
ANSI31
 40
1.0
 90
        0
290
     0
290
     0
 90
        6
 40
0.0
 40
1.570796326794896
 40
0.2617993877991494
 40
1.308996938995747
 40
-0.2617993877991494
 40
1.832595714594046
  0
TABLESTYLE
  5
7F
102
{ACAD_XDICTIONARY
360
162
102
}
102
{ACAD_REACTORS
330
7E
102
}
330
7E
100
AcDbTableStyle
280
     0
  3
Standard
 70
     0
 71
     0
 40
1.5
 41
1.5
280
     0
281
     0
  7
Standard
140
4.5
170
     2
 62
     0
 63
     7
283
     0
 90
      512
 91
        0
  1

274
    -2
284
     1
 64
     0
275
    -2
285
     1
 65
     0
276
    -2
286
     1
 66
     0
277
    -2
287
     1
 67
     0
278
    -2
288
     1
 68
     0
279
    -2
289
     1
 69
     0
  7
Standard
140
6.0
170
     5
 62
     0
 63
     7
283
     0
 90
      512
 91
        0
  1

274
    -2
284
     1
 64
     0
275
    -2
285
     1
 65
     0
276
    -2
286
     1
 66
     0
277
    -2
287
     1
 67
     0
278
    -2
288
     1
 68
     0
279
    -2
289
     1
 69
     0
  7
Standard
140
4.5
170
     5
 62
     0
 63
     7
283
     0
 90
      512
 91
        0
  1

274
    -2
284
     1
 64
     0
275
    -2
285
     1
 65
     0
276
    -2
286
     1
 66
     0
277
    -2
287
     1
 67
     0
278
    -2
288
     1
 68
     0
279
    -2
289
     1
 69
     0
  0
VISUALSTYLE
  5
F5
102
{ACAD_REACTORS
330
EF
102
}
330
EF
100
AcDbVisualStyle
  2
2dWireframe
 70
     4
177
     3
291
     0
 70
    58
 90
        0
176
     1
 90
        2
176
     1
 90
        1
176
     1
 90
        0
176
     1
 40
0.6
176
     1
 40
30.0
176
     1
 62
     7
420
 16777215
176
     1
 90
        1
176
     1
 90
        4
176
     1
 62
     7
176
     1
 62
   257
176
     1
 90
        1
176
     1
 90
        1
176
     1
 40
1.0
176
     1
 90
        0
176
     1
 62
   257
176
     1
 40
1.0
176
     1
 90
        1
176
     1
 90
        6
176
     1
 90
        2
176
     1
 62
     7
176
     1
 90
        5
176
     1
 90
        0
176
     1
 90
        0
176
     1
290
     0
176
     1
 90
        1
176
     1
 40
0.0
176
     1
 90
        0
176
     1
290
     1
176
     1
290
     1
176
     1
290
     0
176
     1
290
     0
176
     1
290
     0
176
     1
290
     0
176
     1
290
     0
176
     1
290
     0
176
     1
290
     0
176
     1
 90
       50
176
     1
 40
0.0
176
     1
 40
1.0
176
     1
 90
        0
176
     1
 62
    18
420
        0
176
     1
 90
       50
176
     1
 90
        3
176
     1
 62
     5
420
      255
176
     1
290
     0
176
     1
 90
       50
176
     1
 90
       50
176
     1
 90
       50
176
     1
290
     0
176
     1
 90
       50
176
     1
 62
   256
176
     0
 40
1.0
176
     0
 90
        2
176
     1
  1
strokes_ogs.tif
176
     1
290
     0
176
     1
 40
1.0
176
     1
 40
1.0
176
     1
1001
ACAD
1000
AcDbSavedByObjectVersion
1070
     0
  0
VISUALSTYLE
  5
F4
102
{ACAD_REACTORS
330
EF
102
}
330
EF
100
AcDbVisualStyle
  2
Basic
 70
     7
177
     3
291
     1
 70
    58
 90
        1
176
     1
 90
        0
176
     1
 90
        1
176
     1
 90
        0
176
     1
 40
0.6
176
     1
 40
30.0
176
     1
 62
     7
420
 16777215
176
     1
 90
        0
176
     1
 90
        4
176
     1
 62
     7
176
     1
 62
   257
176
     1
 90
        1
176
     1
 90
        1
176
     1
 40
1.0
176
     1
 90
        8
176
     1
 62
     7
176
     1
 40
1.0
176
     1
 90
        1
176
     1
 90
        6
176
     1
 90
        2
176
     1
 62
     7
176
     1
 90
        5
176
     1
 90
        0
176
     1
 90
        0
176
     1
290
     0
176
     1
 90
        1
176
     1
 40
0.0
176
     1
 90
        0
176
     1
290
     0
176
     1
290
     1
176
     1
290
     1
176
     1
290
     0
176
     1
290
     0
176
     1
290
     0
176
     1
290
     0
176
     1
290
     0
176
     1
290
     0
176
     1
 90
       50
176
     1
 40
0.0
176
     1
 40
1.0
176
     1
 90
        0
176
     1
 62
    18
420
        0
176
     1
 90
       50
176
     1
 90
        3
176
     1
 62
     5
420
      255
176
     1
290
     0
176
     1
 90
       50
176
     1
 90
       50
176
     1
 90
       50
176
     1
290
     0
176
     1
 90
       50
176
     1
 62
   256
176
     0
 40
1.0
176
     0
 90
        2
176
     1
  1
strokes_ogs.tif
176
     1
290
     0
176
     1
 40
1.0
176
     1
 40
1.0
176
     1
1001
ACAD
1000
AcDbSavedByObjectVersion
1070
     0
  0
VISUALSTYLE
  5
FB
102
{ACAD_REACTORS
330
EF
102
}
330
EF
100
AcDbVisualStyle
  2
Brighten
 70
    12
177
     3
291
     1
 70
    58
 90
        2
176
     1
 90
        2
176
     1
 90
        1
176
     1
 90
        0
176
     1
 40
0.6
176
     1
 40
30.0
176
     1
 62
     7
420
 16777215
176
     1
 90
        1
176
     1
 90
        4
176
     1
 62
     7
176
     1
 62
   257
176
     1
 90
        1
176
     1
 90
        1
176
     1
 40
1.0
176
     1
 90
        8
176
     1
 62
     7
176
     1
 40
1.0
176
     1
 90
        1
176
     1
 90
        6
176
     1
 90
        2
176
     1
 62
     7
176
     1
 90
        5
176
     1
 90
        0
176
     1
 90
        0
176
     1
290
     0
176
     1
 90
        1
176
     1
 40
50.0
176
     1
 90
        0
176
     1
290
     0
176
     1
290
     1
176
     1
290
     1
176
     1
290
     0
176
     1
290
     0
176
     1
290
     0
176
     1
290
     0
176
     1
290
     0
176
     1
290
     0
176
     1
 90
       50
176
     1
 40
0.0
176
     1
 40
1.0
176
     1
 90
        0
176
     1
 62
    18
420
        0
176
     1
 90
       50
176
     1
 90
        3
176
     1
 62
     5
420
      255
176
     1
290
     0
176
     1
 90
       50
176
     1
 90
       50
176
     1
 90
       50
176
     1
290
     0
176
     1
 90
       50
176
     1
 62
   256
176
     0
 40
1.0
176
     0
 90
        2
176
     1
  1
strokes_ogs.tif
176
     1
290
     0
176
     1
 40
1.0
176
     1
 40
1.0
176
     1
1001
ACAD
1000
AcDbSavedByObjectVersion
1070
     0
  0
VISUALSTYLE
  5
FF
102
{ACAD_REACTORS
330
EF
102
}
330
EF
100
AcDbVisualStyle
  2
ColorChange
 70
    16
177
     3
291
     1
 70
    58
 90
        2
176
     1
 90
        2
176
     1
 90
        3
176
     1
 90
        0
176
     1
 40
0.6
176
     1
 40
30.0
176
     1
 62
     8
420
  8421504
176
     1
 90
        1
176
     1
 90
        4
176
     1
 62
     7
176
     1
 62
   257
176
     1
 90
        1
176
     1
 90
        1
176
     1
 40
1.0
176
     1
 90
        8
176
     1
 62
     8
420
  8421504
176
     1
 40
1.0
176
     1
 90
        1
176
     1
 90
        6
176
     1
 90
        2
176
     1
 62
     7
176
     1
 90
        5
176
     1
 90
        0
176
     1
 90
        0
176
     1
290
     0
176
     1
 90
        1
176
     1
 40
0.0
176
     1
 90
        0
176
     1
290
     0
176
     1
290
     1
176
     1
290
     1
176
     1
290
     0
176
     1
290
     0
176
     1
290
     0
176
     1
290
     0
176
     1
290
     0
176
     1
290
     0
176
     1
 90
       50
176
     1
 40
0.0
176
     1
 40
1.0
176
     1
 90
        0
176
     1
 62
    18
420
        0
176
     1
 90
       50
176
     1
 90
        3
176
     1
 62
     5
420
      255
176
     1
290
     0
176
     1
 90
       50
176
     1
 90
       50
176
     1
 90
       50
176
     1
290
     0
176
     1
 90
       50
176
     1
 62
   256
176
     0
 40
1.0
176
     0
 90
        2
176
     1
  1
strokes_ogs.tif
176
     1
290
     0
176
     1
 40
1.0
176
     1
 40
1.0
176
     1
1001
ACAD
1000
AcDbSavedByObjectVersion
1070
     0
  0
VISUALSTYLE
  5
F8
102
{ACAD_REACTORS
330
EF
102
}
330
EF
100
AcDbVisualStyle
  2
Conceptual
 70
     9
177
     3
291
     0
 70
    58
 90
        3
176
     1
 90
        2
176
     1
 90
        1
176
     1
 90
        0
176
     1
 40
0.6
176
     1
 40
30.0
176
     1
 62
     7
420
 16777215
176
     1
 90
        2
176
     1
 90
        2
176
     1
 62
     7
176
     1
 62
   257
176
     1
 90
        1
176
     1
 90
        1
176
     1
 40
40.0
176
     1
 90
        8
176
     1
 62
     7
176
     1
 40
1.0
176
     1
 90
        1
176
     1
 90
        6
176
     1
 90
        2
176
     1
 62
     7
176
     1
 90
        3
176
     1
 90
        0
176
     1
 90
        0
176
     1
290
     0
176
     1
 90
        1
176
     1
 40
0.0
176
     1
 90
        0
176
     1
290
     0
176
     1
290
     1
176
     1
290
     1
176
     1
290
     0
176
     1
290
     0
176
     1
290
     0
176
     1
290
     0
176
     1
290
     0
176
     1
290
     0
176
     1
 90
       50
176
     1
 40
0.0
176
     1
 40
1.0
176
     1
 90
        0
176
     1
 62
    18
420
        0
176
     1
 90
       50
176
     1
 90
        3
176
     1
 62
     5
420
      255
176
     1
290
     0
176
     1
 90
       50
176
     1
 90
       50
176
     1
 90
       50
176
     1
290
     0
176
     1
 90
       50
176
     1
 62
   256
176
     0
 40
1.0
176
     0
 90
        2
176
     1
  1
strokes_ogs.tif
176
     1
290
     0
176
     1
 40
1.0
176
     1
 40
1.0
176
     1
1001
ACAD
1000
AcDbSavedByObjectVersion
1070
     0
  0
VISUALSTYLE
  5
FA
102
{ACAD_REACTORS
330
EF
102
}
330
EF
100
AcDbVisualStyle
  2
Dim
 70
    11
177
     3
291
     1
 70
    58
 90
        2
176
     1
 90
        2
176
     1
 90
        1
176
     1
 90
        0
176
     1
 40
0.6
176
     1
 40
30.0
176
     1
 62
     7
420
 16777215
176
     1
 90
        1
176
     1
 90
        4
176
     1
 62
     7
176
     1
 62
   257
176
     1
 90
        1
176
     1
 90
        1
176
     1
 40
1.0
176
     1
 90
        8
176
     1
 62
     7
176
     1
 40
1.0
176
     1
 90
        1
176
     1
 90
        6
176
     1
 90
        2
176
     1
 62
     7
176
     1
 90
        5
176
     1
 90
        0
176
     1
 90
        0
176
     1
290
     0
176
     1
 90
        1
176
     1
 40
-50.0
176
     1
 90
        0
176
     1
290
     0
176
     1
290
     1
176
     1
290
     1
176
     1
290
     0
176
     1
290
     0
176
     1
290
     0
176
     1
290
     0
176
     1
290
     0
176
     1
290
     0
176
     1
 90
       50
176
     1
 40
0.0
176
     1
 40
1.0
176
     1
 90
        0
176
     1
 62
    18
420
        0
176
     1
 90
       50
176
     1
 90
        3
176
     1
 62
     5
420
      255
176
     1
290
     0
176
     1
 90
       50
176
     1
 90
       50
176
     1
 90
       50
176
     1
290
     0
176
     1
 90
       50
176
     1
 62
   256
176
     0
 40
1.0
176
     0
 90
        2
176
     1
  1
strokes_ogs.tif
176
     1
290
     0
176
     1
 40
1.0
176
     1
 40
1.0
176
     1
1001
ACAD
1000
AcDbSavedByObjectVersion
1070
     0
  0
VISUALSTYLE
  5
1E6
102
{ACAD_REACTORS
330
EF
102
}
330
EF
100
AcDbVisualStyle
  2
EdgeColorOff
 70
    22
177
     3
291
     1
 70
    58
 90
        2
176
     0
 90
        2
176
     0
 90
        0
176
     0
 90
        0
176
     0
 40
0.6
176
     0
 40
30.0
176
     0
 62
     7
420
 16777215
176
     0
 90
        1
176
     0
 90
        4
176
     0
 62
     7
176
     0
 62
   257
176
     0
 90
        1
176
     0
 90
        1
176
     0
 40
1.0
176
     0
 90
        8
176
     2
 62
     7
176
     0
 40
1.0
176
     0
 90
        1
176
     0
 90
        6
176
     0
 90
        2
176
     0
 62
     7
176
     0
 90
        5
176
     0
 90
        0
176
     0
 90
        0
176
     0
290
     0
176
     0
 90
        1
176
     0
 40
0.0
176
     0
 90
        0
176
     0
290
     0
176
     1
290
     1
176
     1
290
     1
176
     1
290
     0
176
     1
290
     0
176
     1
290
     0
176
     1
290
     0
176
     1
290
     0
176
     1
290
     0
176
     1
 90
       50
176
     1
 40
0.0
176
     1
 40
1.0
176
     1
 90
        0
176
     1
 62
    18
420
        0
176
     1
 90
       50
176
     1
 90
        3
176
     1
 62
     5
420
      255
176
     1
290
     0
176
     1
 90
       50
176
     1
 90
       50
176
     1
 90
       50
176
     1
290
     0
176
     1
 90
       50
176
     1
 62
   256
176
     0
 40
1.0
176
     0
 90
        2
176
     1
  1
strokes_ogs.tif
176
     1
290
     0
176
     1
 40
1.0
176
     1
 40
1.0
176
     1
1001
ACAD
1000
AcDbSavedByObjectVersion
1070
     0
  0
VISUALSTYLE
  5
FE
102
{ACAD_REACTORS
330
EF
102
}
330
EF
100
AcDbVisualStyle
  2
Facepattern
 70
    15
177
     3
291
     1
 70
    58
 90
        2
176
     1
 90
        2
176
     1
 90
        1
176
     1
 90
        0
176
     1
 40
0.6
176
     1
 40
30.0
176
     1
 62
     7
420
 16777215
176
     1
 90
        1
176
     1
 90
        4
176
     1
 62
     7
176
     1
 62
   257
176
     1
 90
        1
176
     1
 90
        1
176
     1
 40
1.0
176
     1
 90
        8
176
     1
 62
     7
176
     1
 40
1.0
176
     1
 90
        1
176
     1
 90
        6
176
     1
 90
        2
176
     1
 62
     7
176
     1
 90
        5
176
     1
 90
        0
176
     1
 90
        0
176
     1
290
     0
176
     1
 90
        1
176
     1
 40
0.0
176
     1
 90
        0
176
     1
290
     0
176
     1
290
     1
176
     1
290
     1
176
     1
290
     0
176
     1
290
     0
176
     1
290
     0
176
     1
290
     0
176
     1
290
     0
176
     1
290
     0
176
     1
 90
       50
176
     1
 40
0.0
176
     1
 40
1.0
176
     1
 90
        0
176
     1
 62
    18
420
        0
176
     1
 90
       50
176
     1
 90
        3
176
     1
 62
     5
420
      255
176
     1
290
     0
176
     1
 90
       50
176
     1
 90
       50
176
     1
 90
       50
176
     1
290
     0
176
     1
 90
       50
176
     1
 62
   256
176
     0
 40
1.0
176
     0
 90
        2
176
     1
  1
strokes_ogs.tif
176
     1
290
     0
176
     1
 40
1.0
176
     1
 40
1.0
176
     1
1001
ACAD
1000
AcDbSavedByObjectVersion
1070
     0
  0
VISUALSTYLE
  5
F0
102
{ACAD_REACTORS
330
EF
102
}
330
EF
100
AcDbVisualStyle
  2
Flat
 70
     0
177
     3
291
     1
 70
    58
 90
        2
176
     1
 90
        1
176
     1
 90
        1
176
     1
 90
        2
176
     1
 40
0.6
176
     1
 40
30.0
176
     1
 62
     7
420
 16777215
176
     1
 90
        0
176
     1
 90
        0
176
     1
 62
     7
176
     1
 62
   257
176
     1
 90
        1
176
     1
 90
        1
176
     1
 40
1.0
176
     1
 90
        8
176
     1
 62
     7
176
     1
 40
1.0
176
     1
 90
        1
176
     1
 90
        6
176
     1
 90
        2
176
     1
 62
     7
176
     1
 90
        5
176
     1
 90
        0
176
     1
 90
        0
176
     1
290
     0
176
     1
 90
       13
176
     1
 40
0.0
176
     1
 90
        0
176
     1
290
     0
176
     1
290
     1
176
     1
290
     1
176
     1
290
     0
176
     1
290
     0
176
     1
290
     0
176
     1
290
     0
176
     1
290
     0
176
     1
290
     0
176
     1
 90
       50
176
     1
 40
0.0
176
     1
 40
1.0
176
     1
 90
        0
176
     1
 62
    18
420
        0
176
     1
 90
       50
176
     1
 90
        3
176
     1
 62
     5
420
      255
176
     1
290
     0
176
     1
 90
       50
176
     1
 90
       50
176
     1
 90
       50
176
     1
290
     0
176
     1
 90
       50
176
     1
 62
   256
176
     0
 40
1.0
176
     0
 90
        2
176
     1
  1
strokes_ogs.tif
176
     1
290
     0
176
     1
 40
1.0
176
     1
 40
1.0
176
     1
1001
ACAD
1000
AcDbSavedByObjectVersion
1070
     0
  0
VISUALSTYLE
  5
F1
102
{ACAD_REACTORS
330
EF
102
}
330
EF
100
AcDbVisualStyle
  2
FlatWithEdges
 70
     1
177
     3
291
     1
 70
    58
 90
        2
176
     1
 90
        1
176
     1
 90
        1
176
     1
 90
        2
176
     1
 40
0.6
176
     1
 40
30.0
176
     1
 62
     7
420
 16777215
176
     1
 90
        1
176
     1
 90
        0
176
     1
 62
     7
176
     1
 62
   257
176
     1
 90
        1
176
     1
 90
        1
176
     1
 40
1.0
176
     1
 90
        0
176
     1
 62
   257
176
     1
 40
1.0
176
     1
 90
        1
176
     1
 90
        6
176
     1
 90
        2
176
     1
 62
     7
176
     1
 90
        5
176
     1
 90
        0
176
     1
 90
        0
176
     1
290
     0
176
     1
 90
       13
176
     1
 40
0.0
176
     1
 90
        0
176
     1
290
     0
176
     1
290
     1
176
     1
290
     1
176
     1
290
     0
176
     1
290
     0
176
     1
290
     0
176
     1
290
     0
176
     1
290
     0
176
     1
290
     0
176
     1
 90
       50
176
     1
 40
0.0
176
     1
 40
1.0
176
     1
 90
        0
176
     1
 62
    18
420
        0
176
     1
 90
       50
176
     1
 90
        3
176
     1
 62
     5
420
      255
176
     1
290
     0
176
     1
 90
       50
176
     1
 90
       50
176
     1
 90
       50
176
     1
290
     0
176
     1
 90
       50
176
     1
 62
   256
176
     0
 40
1.0
176
     0
 90
        2
176
     1
  1
strokes_ogs.tif
176
     1
290
     0
176
     1
 40
1.0
176
     1
 40
1.0
176
     1
1001
ACAD
1000
AcDbSavedByObjectVersion
1070
     0
  0
VISUALSTYLE
  5
F2
102
{ACAD_REACTORS
330
EF
102
}
330
EF
100
AcDbVisualStyle
  2
Gouraud
 70
     2
177
     3
291
     1
 70
    58
 90
        2
176
     1
 90
        2
176
     1
 90
        1
176
     1
 90
        2
176
     1
 40
0.6
176
     1
 40
30.0
176
     1
 62
     7
420
 16777215
176
     1
 90
        0
176
     1
 90
        0
176
     1
 62
     7
176
     1
 62
   257
176
     1
 90
        1
176
     1
 90
        1
176
     1
 40
1.0
176
     1
 90
        0
176
     1
 62
     7
176
     1
 40
1.0
176
     1
 90
        1
176
     1
 90
        6
176
     1
 90
        2
176
     1
 62
     7
176
     1
 90
        5
176
     1
 90
        0
176
     1
 90
        0
176
     1
290
     0
176
     1
 90
       13
176
     1
 40
0.0
176
     1
 90
        0
176
     1
290
     0
176
     1
290
     1
176
     1
290
     1
176
     1
290
     0
176
     1
290
     0
176
     1
290
     0
176
     1
290
     0
176
     1
290
     0
176
     1
290
     0
176
     1
 90
       50
176
     1
 40
0.0
176
     1
 40
1.0
176
     1
 90
        0
176
     1
 62
    18
420
        0
176
     1
 90
       50
176
     1
 90
        3
176
     1
 62
     5
420
      255
176
     1
290
     0
176
     1
 90
       50
176
     1
 90
       50
176
     1
 90
       50
176
     1
290
     0
176
     1
 90
       50
176
     1
 62
   256
176
     0
 40
1.0
176
     0
 90
        2
176
     1
  1
strokes_ogs.tif
176
     1
290
     0
176
     1
 40
1.0
176
     1
 40
1.0
176
     1
1001
ACAD
1000
AcDbSavedByObjectVersion
1070
     0
  0
VISUALSTYLE
  5
F3
102
{ACAD_REACTORS
330
EF
102
}
330
EF
100
AcDbVisualStyle
  2
GouraudWithEdges
 70
     3
177
     3
291
     1
 70
    58
 90
        2
176
     1
 90
        2
176
     1
 90
        1
176
     1
 90
        2
176
     1
 40
0.6
176
     1
 40
30.0
176
     1
 62
     7
420
 16777215
176
     1
 90
        1
176
     1
 90
        0
176
     1
 62
     7
176
     1
 62
   257
176
     1
 90
        1
176
     1
 90
        1
176
     1
 40
1.0
176
     1
 90
        0
176
     1
 62
   257
176
     1
 40
1.0
176
     1
 90
        1
176
     1
 90
        6
176
     1
 90
        2
176
     1
 62
     7
176
     1
 90
        5
176
     1
 90
        0
176
     1
 90
        0
176
     1
290
     0
176
     1
 90
       13
176
     1
 40
0.0
176
     1
 90
        0
176
     1
290
     0
176
     1
290
     1
176
     1
290
     1
176
     1
290
     0
176
     1
290
     0
176
     1
290
     0
176
     1
290
     0
176
     1
290
     0
176
     1
290
     0
176
     1
 90
       50
176
     1
 40
0.0
176
     1
 40
1.0
176
     1
 90
        0
176
     1
 62
    18
420
        0
176
     1
 90
       50
176
     1
 90
        3
176
     1
 62
     5
420
      255
176
     1
290
     0
176
     1
 90
       50
176
     1
 90
       50
176
     1
 90
       50
176
     1
290
     0
176
     1
 90
       50
176
     1
 62
   256
176
     0
 40
1.0
176
     0
 90
        2
176
     1
  1
strokes_ogs.tif
176
     1
290
     0
176
     1
 40
1.0
176
     1
 40
1.0
176
     1
1001
ACAD
1000
AcDbSavedByObjectVersion
1070
     0
  0
VISUALSTYLE
  5
F7
102
{ACAD_REACTORS
330
EF
102
}
330
EF
100
AcDbVisualStyle
  2
Hidden
 70
     6
177
     3
291
     0
 70
    58
 90
        1
176
     1
 90
        2
176
     1
 90
        2
176
     1
 90
        0
176
     1
 40
0.6
176
     1
 40
30.0
176
     1
 62
     7
420
 16777215
176
     1
 90
        2
176
     1
 90
        2
176
     1
 62
     7
176
     1
 62
   257
176
     1
 90
        2
176
     1
 90
        1
176
     1
 40
40.0
176
     1
 90
        0
176
     1
 62
   257
176
     1
 40
1.0
176
     1
 90
        1
176
     1
 90
        6
176
     1
 90
        2
176
     1
 62
     7
176
     1
 90
        3
176
     1
 90
        0
176
     1
 90
        0
176
     1
290
     0
176
     1
 90
        1
176
     1
 40
0.0
176
     1
 90
        0
176
     1
290
     0
176
     1
290
     1
176
     1
290
     1
176
     1
290
     0
176
     1
290
     0
176
     1
290
     0
176
     1
290
     0
176
     1
290
     0
176
     1
290
     0
176
     1
 90
       50
176
     1
 40
0.0
176
     1
 40
1.0
176
     1
 90
        0
176
     1
 62
    18
420
        0
176
     1
 90
       50
176
     1
 90
        3
176
     1
 62
     5
420
      255
176
     1
290
     0
176
     1
 90
       50
176
     1
 90
       50
176
     1
 90
       50
176
     1
290
     0
176
     1
 90
       50
176
     1
 62
   256
176
     0
 40
1.0
176
     0
 90
        2
176
     1
  1
strokes_ogs.tif
176
     1
290
     0
176
     1
 40
1.0
176
     1
 40
1.0
176
     1
1001
ACAD
1000
AcDbSavedByObjectVersion
1070
     0
  0
VISUALSTYLE
  5
1E4
102
{ACAD_REACTORS
330
EF
102
}
330
EF
100
AcDbVisualStyle
  2
JitterOff
 70
    20
177
     3
291
     1
 70
    58
 90
        2
176
     0
 90
        2
176
     0
 90
        0
176
     0
 90
        0
176
     0
 40
0.6
176
     0
 40
30.0
176
     0
 62
     7
420
 16777215
176
     0
 90
        1
176
     0
 90
        4
176
     0
 62
     7
176
     0
 62
   257
176
     0
 90
        1
176
     0
 90
        1
176
     0
 40
1.0
176
     0
 90
       10
176
     2
 62
     7
176
     0
 40
1.0
176
     0
 90
        1
176
     0
 90
        6
176
     0
 90
        2
176
     0
 62
     7
176
     0
 90
        5
176
     0
 90
        0
176
     0
 90
        0
176
     0
290
     0
176
     0
 90
        1
176
     0
 40
0.0
176
     0
 90
        0
176
     0
290
     0
176
     1
290
     1
176
     1
290
     1
176
     1
290
     0
176
     1
290
     0
176
     1
290
     0
176
     1
290
     0
176
     1
290
     0
176
     1
290
     0
176
     1
 90
       50
176
     1
 40
0.0
176
     1
 40
1.0
176
     1
 90
        0
176
     1
 62
    18
420
        0
176
     1
 90
       50
176
     1
 90
        3
176
     1
 62
     5
420
      255
176
     1
290
     0
176
     1
 90
       50
176
     1
 90
       50
176
     1
 90
       50
176
     1
290
     0
176
     1
 90
       50
176
     1
 62
   256
176
     0
 40
1.0
176
     0
 90
        2
176
     1
  1
strokes_ogs.tif
176
     1
290
     0
176
     1
 40
1.0
176
     1
 40
1.0
176
     1
1001
ACAD
1000
AcDbSavedByObjectVersion
1070
     0
  0
VISUALSTYLE
  5
FD
102
{ACAD_REACTORS
330
EF
102
}
330
EF
100
AcDbVisualStyle
  2
Linepattern
 70
    14
177
     3
291
     1
 70
    58
 90
        2
176
     1
 90
        2
176
     1
 90
        1
176
     1
 90
        0
176
     1
 40
0.6
176
     1
 40
30.0
176
     1
 62
     7
420
 16777215
176
     1
 90
        1
176
     1
 90
        4
176
     1
 62
     7
176
     1
 62
   257
176
     1
 90
        7
176
     1
 90
        7
176
     1
 40
1.0
176
     1
 90
        8
176
     1
 62
     7
176
     1
 40
1.0
176
     1
 90
        1
176
     1
 90
        6
176
     1
 90
        2
176
     1
 62
     7
176
     1
 90
        5
176
     1
 90
        0
176
     1
 90
        0
176
     1
290
     0
176
     1
 90
        1
176
     1
 40
0.0
176
     1
 90
        0
176
     1
290
     0
176
     1
290
     1
176
     1
290
     1
176
     1
290
     0
176
     1
290
     0
176
     1
290
     0
176
     1
290
     0
176
     1
290
     0
176
     1
290
     0
176
     1
 90
       50
176
     1
 40
0.0
176
     1
 40
1.0
176
     1
 90
        0
176
     1
 62
    18
420
        0
176
     1
 90
       50
176
     1
 90
        3
176
     1
 62
     5
420
      255
176
     1
290
     0
176
     1
 90
       50
176
     1
 90
       50
176
     1
 90
       50
176
     1
290
     0
176
     1
 90
       50
176
     1
 62
   256
176
     0
 40
1.0
176
     0
 90
        2
176
     1
  1
strokes_ogs.tif
176
     1
290
     0
176
     1
 40
1.0
176
     1
 40
1.0
176
     1
1001
ACAD
1000
AcDbSavedByObjectVersion
1070
     0
  0
VISUALSTYLE
  5
1E5
102
{ACAD_REACTORS
330
EF
102
}
330
EF
100
AcDbVisualStyle
  2
OverhangOff
 70
    21
177
     3
291
     1
 70
    58
 90
        2
176
     0
 90
        2
176
     0
 90
        0
176
     0
 90
        0
176
     0
 40
0.6
176
     0
 40
30.0
176
     0
 62
     7
420
 16777215
176
     0
 90
        1
176
     0
 90
        4
176
     0
 62
     7
176
     0
 62
   257
176
     0
 90
        1
176
     0
 90
        1
176
     0
 40
1.0
176
     0
 90
        9
176
     2
 62
     7
176
     0
 40
1.0
176
     0
 90
        1
176
     0
 90
        6
176
     0
 90
        2
176
     0
 62
     7
176
     0
 90
        5
176
     0
 90
        0
176
     0
 90
        0
176
     0
290
     0
176
     0
 90
        1
176
     0
 40
0.0
176
     0
 90
        0
176
     0
290
     0
176
     1
290
     1
176
     1
290
     1
176
     1
290
     0
176
     1
290
     0
176
     1
290
     0
176
     1
290
     0
176
     1
290
     0
176
     1
290
     0
176
     1
 90
       50
176
     1
 40
0.0
176
     1
 40
1.0
176
     1
 90
        0
176
     1
 62
    18
420
        0
176
     1
 90
       50
176
     1
 90
        3
176
     1
 62
     5
420
      255
176
     1
290
     0
176
     1
 90
       50
176
     1
 90
       50
176
     1
 90
       50
176
     1
290
     0
176
     1
 90
       50
176
     1
 62
   256
176
     0
 40
1.0
176
     0
 90
        2
176
     1
  1
strokes_ogs.tif
176
     1
290
     0
176
     1
 40
1.0
176
     1
 40
1.0
176
     1
1001
ACAD
1000
AcDbSavedByObjectVersion
1070
     0
  0
VISUALSTYLE
  5
F9
102
{ACAD_REACTORS
330
EF
102
}
330
EF
100
AcDbVisualStyle
  2
Realistic
 70
     8
177
     3
291
     0
 70
    58
 90
        2
176
     1
 90
        3
176
     1
 90
        0
176
     1
 90
        2
176
     1
 40
0.6
176
     1
 40
30.0
176
     1
 62
     7
420
 16777215
176
     1
 90
        0
176
     1
 90
        0
176
     1
 62
     7
176
     1
 62
   257
176
     1
 90
        1
176
     1
 90
        1
176
     1
 40
1.0
176
     1
 90
        8
176
     1
 62
   257
176
     1
 40
1.0
176
     1
 90
        1
176
     1
 90
        6
176
     1
 90
        2
176
     1
 62
     7
176
     1
 90
        3
176
     1
 90
        0
176
     1
 90
        0
176
     1
290
     0
176
     1
 90
       13
176
     1
 40
0.0
176
     1
 90
        0
176
     1
290
     0
176
     1
290
     1
176
     1
290
     1
176
     1
290
     0
176
     1
290
     0
176
     1
290
     0
176
     1
290
     0
176
     1
290
     0
176
     1
290
     0
176
     1
 90
       50
176
     1
 40
0.0
176
     1
 40
1.0
176
     1
 90
        0
176
     1
 62
    18
420
        0
176
     1
 90
       50
176
     1
 90
        3
176
     1
 62
     5
420
      255
176
     1
290
     0
176
     1
 90
       50
176
     1
 90
       50
176
     1
 90
       50
176
     1
290
     0
176
     1
 90
       50
176
     1
 62
   256
176
     0
 40
1.0
176
     0
 90
        2
176
     1
  1
strokes_ogs.tif
176
     1
290
     0
176
     1
 40
1.0
176
     1
 40
1.0
176
     1
1001
ACAD
1000
AcDbSavedByObjectVersion
1070
     0
  0
VISUALSTYLE
  5
1F3
102
{ACAD_REACTORS
330
EF
102
}
330
EF
100
AcDbVisualStyle
  2
Shaded
 70
    27
177
     3
291
     0
 70
    58
 90
        2
176
     1
 90
        2
176
     1
 90
        1
176
     1
 90
        2
176
     1
 40
0.6
176
     1
 40
30.0
176
     1
 62
     7
420
 16777215
176
     1
 90
        0
176
     1
 90
        4
176
     1
 62
     7
176
     1
 62
   257
176
     1
 90
        1
176
     1
 90
        1
176
     1
 40
1.0
176
     1
 90
        8
176
     1
 62
   257
176
     1
 40
1.0
176
     1
 90
        1
176
     1
 90
        6
176
     1
 90
        2
176
     1
 62
     8
420
  7895160
176
     1
 90
        3
176
     1
 90
        0
176
     1
 90
        0
176
     1
290
     0
176
     1
 90
        5
176
     1
 40
0.0
176
     1
 90
        0
176
     1
290
     0
176
     1
290
     1
176
     1
290
     1
176
     1
290
     0
176
     1
290
     0
176
     1
290
     0
176
     1
290
     0
176
     1
290
     0
176
     1
290
     0
176
     1
 90
       50
176
     1
 40
0.0
176
     1
 40
1.0
176
     1
 90
        0
176
     1
 62
    18
420
        0
176
     1
 90
       50
176
     1
 90
        3
176
     1
 62
     5
420
      255
176
     1
290
     0
176
     1
 90
       50
176
     1
 90
       50
176
     1
 90
       50
176
     1
290
     0
176
     1
 90
       50
176
     1
 62
   256
176
     0
 40
1.0
176
     0
 90
        2
176
     1
  1
strokes_ogs.tif
176
     1
290
     0
176
     1
 40
1.0
176
     1
 40
1.0
176
     1
1001
ACAD
1000
AcDbSavedByObjectVersion
1070
     0
  0
VISUALSTYLE
  5
1F2
102
{ACAD_REACTORS
330
EF
102
}
330
EF
100
AcDbVisualStyle
  2
Shaded with edges
 70
    26
177
     3
291
     0
 70
    58
 90
        2
176
     1
 90
        2
176
     1
 90
        1
176
     1
 90
        2
176
     1
 40
0.6
176
     1
 40
30.0
176
     1
 62
     7
420
 16777215
176
     1
 90
        1
176
     1
 90
        2
176
     1
 62
     7
176
     1
 62
   257
176
     1
 90
        2
176
     1
 90
        1
176
     1
 40
1.0
176
     1
 90
        8
176
     1
 62
   257
176
     1
 40
1.0
176
     1
 90
        1
176
     1
 90
        6
176
     1
 90
        2
176
     1
 62
     7
176
     1
 90
        3
176
     1
 90
        0
176
     1
 90
        0
176
     1
290
     0
176
     1
 90
        5
176
     1
 40
0.0
176
     1
 90
        0
176
     1
290
     0
176
     1
290
     1
176
     1
290
     1
176
     1
290
     0
176
     1
290
     0
176
     1
290
     0
176
     1
290
     0
176
     1
290
     0
176
     1
290
     0
176
     1
 90
       50
176
     1
 40
0.0
176
     1
 40
1.0
176
     1
 90
        0
176
     1
 62
    18
420
        0
176
     1
 90
       50
176
     1
 90
        3
176
     1
 62
     5
420
      255
176
     1
290
     0
176
     1
 90
       50
176
     1
 90
       50
176
     1
 90
       50
176
     1
290
     0
176
     1
 90
       50
176
     1
 62
   256
176
     0
 40
1.0
176
     0
 90
        2
176
     1
  1
strokes_ogs.tif
176
     1
290
     0
176
     1
 40
1.0
176
     1
 40
1.0
176
     1
1001
ACAD
1000
AcDbSavedByObjectVersion
1070
     0
  0
VISUALSTYLE
  5
1EF
102
{ACAD_REACTORS
330
EF
102
}
330
EF
100
AcDbVisualStyle
  2
Shades of Gray
 70
    23
177
     3
291
     0
 70
    58
 90
        2
176
     1
 90
        2
176
     1
 90
        3
176
     1
 90
        0
176
     1
 40
0.6
176
     1
 40
30.0
176
     1
 62
     7
420
 16777215
176
     1
 90
        2
176
     1
 90
        2
176
     1
 62
     7
176
     1
 62
     7
176
     1
 90
        1
176
     1
 90
        1
176
     1
 40
40.0
176
     1
 90
        8
176
     1
 62
     7
176
     1
 40
1.0
176
     1
 90
        1
176
     1
 90
        6
176
     1
 90
        2
176
     1
 62
     7
176
     1
 90
        3
176
     1
 90
        0
176
     1
 90
        0
176
     1
290
     0
176
     1
 90
        1
176
     1
 40
0.0
176
     1
 90
        0
176
     1
290
     0
176
     1
290
     1
176
     1
290
     1
176
     1
290
     0
176
     1
290
     0
176
     1
290
     0
176
     1
290
     0
176
     1
290
     0
176
     1
290
     0
176
     1
 90
       50
176
     1
 40
0.0
176
     1
 40
1.0
176
     1
 90
        0
176
     1
 62
    18
420
        0
176
     1
 90
       50
176
     1
 90
        3
176
     1
 62
     5
420
      255
176
     1
290
     0
176
     1
 90
       50
176
     1
 90
       50
176
     1
 90
       50
176
     1
290
     0
176
     1
 90
       50
176
     1
 62
   256
176
     0
 40
1.0
176
     0
 90
        2
176
     1
  1
strokes_ogs.tif
176
     1
290
     0
176
     1
 40
1.0
176
     1
 40
1.0
176
     1
1001
ACAD
1000
AcDbSavedByObjectVersion
1070
     0
  0
VISUALSTYLE
  5
1F0
102
{ACAD_REACTORS
330
EF
102
}
330
EF
100
AcDbVisualStyle
  2
Sketchy
 70
    24
177
     3
291
     0
 70
    58
 90
        1
176
     1
 90
        2
176
     1
 90
        2
176
     1
 90
        0
176
     1
 40
0.6
176
     1
 40
30.0
176
     1
 62
     7
420
 16777215
176
     1
 90
        2
176
     1
 90
        2
176
     1
 62
     7
176
     1
 62
     7
176
     1
 90
        1
176
     1
 90
        1
176
     1
 40
40.0
176
     1
 90
       11
176
     1
 62
     7
176
     1
 40
1.0
176
     1
 90
        1
176
     1
 90
        6
176
     1
 90
        2
176
     1
 62
     7
176
     1
 90
        6
176
     1
 90
        0
176
     1
 90
        0
176
     1
290
     0
176
     1
 90
        1
176
     1
 40
0.0
176
     1
 90
        0
176
     1
290
     0
176
     1
290
     1
176
     1
290
     1
176
     1
290
     0
176
     1
290
     0
176
     1
290
     0
176
     1
290
     0
176
     1
290
     0
176
     1
290
     0
176
     1
 90
       50
176
     1
 40
0.0
176
     1
 40
1.0
176
     1
 90
        0
176
     1
 62
    18
420
        0
176
     1
 90
       50
176
     1
 90
        3
176
     1
 62
     5
420
      255
176
     1
290
     0
176
     1
 90
       50
176
     1
 90
       50
176
     1
 90
       50
176
     1
290
     0
176
     1
 90
       50
176
     1
 62
   256
176
     0
 40
1.0
176
     0
 90
        2
176
     1
  1
strokes_ogs.tif
176
     1
290
     0
176
     1
 40
1.0
176
     1
 40
1.0
176
     1
1001
ACAD
1000
AcDbSavedByObjectVersion
1070
     0
  0
VISUALSTYLE
  5
FC
102
{ACAD_REACTORS
330
EF
102
}
330
EF
100
AcDbVisualStyle
  2
Thicken
 70
    13
177
     3
291
     1
 70
    58
 90
        2
176
     1
 90
        2
176
     1
 90
        1
176
     1
 90
        0
176
     1
 40
0.6
176
     1
 40
30.0
176
     1
 62
     7
420
 16777215
176
     1
 90
        1
176
     1
 90
        4
176
     1
 62
     7
176
     1
 62
   257
176
     1
 90
        1
176
     1
 90
        1
176
     1
 40
1.0
176
     1
 90
       12
176
     1
 62
     7
176
     1
 40
1.0
176
     1
 90
        1
176
     1
 90
        6
176
     1
 90
        2
176
     1
 62
     7
176
     1
 90
        5
176
     1
 90
        0
176
     1
 90
        0
176
     1
290
     0
176
     1
 90
        1
176
     1
 40
0.0
176
     1
 90
        0
176
     1
290
     0
176
     1
290
     1
176
     1
290
     1
176
     1
290
     0
176
     1
290
     0
176
     1
290
     0
176
     1
290
     0
176
     1
290
     0
176
     1
290
     0
176
     1
 90
       50
176
     1
 40
0.0
176
     1
 40
1.0
176
     1
 90
        0
176
     1
 62
    18
420
        0
176
     1
 90
       50
176
     1
 90
        3
176
     1
 62
     5
420
      255
176
     1
290
     0
176
     1
 90
       50
176
     1
 90
       50
176
     1
 90
       50
176
     1
290
     0
176
     1
 90
       50
176
     1
 62
   256
176
     0
 40
1.0
176
     0
 90
        2
176
     1
  1
strokes_ogs.tif
176
     1
290
     0
176
     1
 40
1.0
176
     1
 40
1.0
176
     1
1001
ACAD
1000
AcDbSavedByObjectVersion
1070
     0
  0
VISUALSTYLE
  5
F6
102
{ACAD_REACTORS
330
EF
102
}
330
EF
100
AcDbVisualStyle
  2
Wireframe
 70
     5
177
     3
291
     0
 70
    58
 90
        0
176
     1
 90
        2
176
     1
 90
        0
176
     1
 90
        0
176
     1
 40
0.6
176
     1
 40
30.0
176
     1
 62
     7
420
 16777215
176
     1
 90
        1
176
     1
 90
        4
176
     1
 62
     7
176
     1
 62
   257
176
     1
 90
        1
176
     1
 90
        1
176
     1
 40
1.0
176
     1
 90
        0
176
     1
 62
   257
176
     1
 40
1.0
176
     1
 90
        1
176
     1
 90
        6
176
     1
 90
        2
176
     1
 62
     7
176
     1
 90
        3
176
     1
 90
        0
176
     1
 90
        0
176
     1
290
     0
176
     1
 90
        1
176
     1
 40
0.0
176
     1
 90
        0
176
     1
290
     0
176
     1
290
     1
176
     1
290
     1
176
     1
290
     0
176
     1
290
     0
176
     1
290
     0
176
     1
290
     0
176
     1
290
     0
176
     1
290
     0
176
     1
 90
       50
176
     1
 40
0.0
176
     1
 40
1.0
176
     1
 90
        0
176
     1
 62
    18
420
        0
176
     1
 90
       50
176
     1
 90
        3
176
     1
 62
     5
420
      255
176
     1
290
     0
176
     1
 90
       50
176
     1
 90
       50
176
     1
 90
       50
176
     1
290
     0
176
     1
 90
       50
176
     1
 62
   256
176
     0
 40
1.0
176
     0
 90
        2
176
     1
  1
strokes_ogs.tif
176
     1
290
     0
176
     1
 40
1.0
176
     1
 40
1.0
176
     1
1001
ACAD
1000
AcDbSavedByObjectVersion
1070
     0
  0
VISUALSTYLE
  5
1F1
102
{ACAD_REACTORS
330
EF
102
}
330
EF
100
AcDbVisualStyle
  2
X-Ray
 70
    25
177
     3
291
     0
 70
    58
 90
        2
176
     1
 90
        2
176
     1
 90
        1
176
     1
 90
        1
176
     1
 40
0.5
176
     1
 40
30.0
176
     1
 62
     7
420
 16777215
176
     1
 90
        1
176
     1
 90
        0
176
     1
 62
     7
176
     1
 62
   257
176
     1
 90
        1
176
     1
 90
        1
176
     1
 40
1.0
176
     1
 90
        8
176
     1
 62
     7
176
     1
 40
1.0
176
     1
 90
        1
176
     1
 90
        6
176
     1
 90
        2
176
     1
 62
     7
176
     1
 90
        3
176
     1
 90
        0
176
     1
 90
        0
176
     1
290
     0
176
     1
 90
       13
176
     1
 40
0.0
176
     1
 90
        0
176
     1
290
     0
176
     1
290
     1
176
     1
290
     1
176
     1
290
     0
176
     1
290
     0
176
     1
290
     0
176
     1
290
     0
176
     1
290
     0
176
     1
290
     0
176
     1
 90
       50
176
     1
 40
0.0
176
     1
 40
1.0
176
     1
 90
        0
176
     1
 62
    18
420
        0
176
     1
 90
       50
176
     1
 90
        3
176
     1
 62
     5
420
      255
176
     1
290
     0
176
     1
 90
       50
176
     1
 90
       50
176
     1
 90
       50
176
     1
290
     0
176
     1
 90
       50
176
     1
 62
   256
176
     0
 40
1.0
176
     0
 90
        2
176
     1
  1
strokes_ogs.tif
176
     1
290
     0
176
     1
 40
1.0
176
     1
 40
1.0
176
     1
1001
ACAD
1000
AcDbSavedByObjectVersion
1070
     0
  0
DICTIONARYVAR
  5
146
102
{ACAD_REACTORS
330
5E
102
}
330
5E
100
DictionaryVariables
280
     0
  1
1:1
  0
DICTIONARYVAR
  5
259
102
{ACAD_REACTORS
330
5E
102
}
330
5E
100
DictionaryVariables
280
     0
  1
3.500000
  0
DICTIONARYVAR
  5
25A
102
{ACAD_REACTORS
330
5E
102
}
330
5E
100
DictionaryVariables
280
     0
  1
acadiso.lin
  0
DICTIONARYVAR
  5
145
102
{ACAD_REACTORS
330
5E
102
}
330
5E
100
DictionaryVariables
280
     0
  1
STANDARD
  0
DICTIONARYVAR
  5
84
102
{ACAD_REACTORS
330
5E
102
}
330
5E
100
DictionaryVariables
280
     0
  1
STANDARD
  0
DICTIONARYVAR
  5
227
102
{ACAD_REACTORS
330
5E
102
}
330
5E
100
DictionaryVariables
280
     0
  1
Metric50
  0
DICTIONARYVAR
  5
228
102
{ACAD_REACTORS
330
5E
102
}
330
5E
100
DictionaryVariables
280
     0
  1
Metric50
  0
DICTIONARYVAR
  5
5F
102
{ACAD_REACTORS
330
5E
102
}
330
5E
100
DictionaryVariables
280
     0
  1
2
  0
DICTIONARYVAR
  5
63
102
{ACAD_REACTORS
330
5E
102
}
330
5E
100
DictionaryVariables
280
     0
  1
1
  0
DICTIONARYVAR
  5
1AE
102
{ACAD_REACTORS
330
5E
102
}
330
5E
100
DictionaryVariables
280
     0
  1
0
  0
DICTIONARYVAR
  5
1AF
102
{ACAD_REACTORS
330
5E
102
}
330
5E
100
DictionaryVariables
280
     0
  1
0
  0
DICTIONARY
  5
B58
102
{ACAD_REACTORS
330
B56
102
}
330
B56
100
AcDbDictionary
281
     1
  0
DICTIONARY
  5
B57
102
{ACAD_REACTORS
330
B56
102
}
330
B56
100
AcDbDictionary
281
     1
  3
1670318430736
350
B51
  3
1670318430752
350
B52
  3
1670318430768
350
B53
  3
1670318430784
350
B54
  3
1670318430800
350
B55
  0
DICTIONARY
  5
B5F
330
28F
100
AcDbDictionary
280
     1
281
     1
  3
ACAD_XREC_ROUNDTRIP
360
B60
  0
DICTIONARY
  5
B5B
330
21C
100
AcDbDictionary
280
     1
281
     1
  3
ACAD_XREC_ROUNDTRIP
360
B5C
  0
DICTIONARY
  5
205
330
22
100
AcDbDictionary
280
     1
281
     1
  0
DICTIONARY
  5
1F9
330
ED
100
AcDbDictionary
280
     1
281
     1
  3
FBXASSET
360
1FA
  0
DICTIONARY
  5
1F7
330
EC
100
AcDbDictionary
280
     1
281
     1
  3
FBXASSET
360
1F8
  0
DICTIONARY
  5
173
330
EE
100
AcDbDictionary
280
     1
281
     1
  3
BUMPTILE
360
175
  3
DIFFUSETILE
360
174
  3
FBXASSET
360
1FB
  3
OPACITYTILE
360
176
  3
REFLECTIONTILE
360
177
  0
DICTIONARY
  5
B5D
330
28E
100
AcDbDictionary
280
     1
281
     1
  3
ACAD_XREC_ROUNDTRIP
360
B5E
  0
DICTIONARY
  5
B59
330
21A
100
AcDbDictionary
280
     1
281
     1
  3
ACAD_XREC_ROUNDTRIP
360
B5A
  0
DICTIONARY
  5
162
330
7F
100
AcDbDictionary
280
     1
281
     1
  3
ACAD_ROUNDTRIP_2008_TABLESTYLE_CELLSTYLEMAP
360
B4F
  0
XRECORD
  5
B51
102
{ACAD_REACTORS
330
B57
102
}
330
B57
100
AcDbXrecord
280
     1
  1
AcDb_Thumbnail_Schema
102
{ATTRRECORD
341
B52
  2
AcDbDs::TreatedAsObjectData
280
     1
291
     1
102
ATTRRECORD}
102
{ATTRRECORD
341
B53
  2
AcDbDs::Legacy
280
     1
291
     1
102
ATTRRECORD}
  2
AcDbDs::ID
280
    10
 91
        8
102
{ATTRRECORD
341
B54
  2
AcDs:Indexable
280
     1
291
     1
102
ATTRRECORD}
102
{ATTRRECORD
341
B55
  2
AcDbDs::HandleAttribute
280
     7
282
     1
102
ATTRRECORD}
  2
Thumbnail_Data
280
    15
 91
        0
  0
XRECORD
  5
B52
102
{ACAD_REACTORS
330
B57
102
}
330
B57
100
AcDbXrecord
280
     1
  1
AcDbDs::TreatedAsObjectDataSchema
  2
AcDbDs::TreatedAsObjectData
280
     1
 91
        0
  0
XRECORD
  5
B53
102
{ACAD_REACTORS
330
B57
102
}
330
B57
100
AcDbXrecord
280
     1
  1
AcDbDs::LegacySchema
  2
AcDbDs::Legacy
280
     1
 91
        0
  0
XRECORD
  5
B54
102
{ACAD_REACTORS
330
B57
102
}
330
B57
100
AcDbXrecord
280
     1
  1
AcDbDs::IndexedPropertySchema
  2
AcDs:Indexable
280
     1
 91
        0
  0
XRECORD
  5
B55
102
{ACAD_REACTORS
330
B57
102
}
330
B57
100
AcDbXrecord
280
     1
  1
AcDbDs::HandleAttributeSchema
  2
AcDbDs::HandleAttribute
280
     7
 91
        1
284
     1
  0
XRECORD
  5
B60
102
{ACAD_REACTORS
330
B5F
102
}
330
B5F
100
AcDbXrecord
280
     1
102
DISPLAYNAME
  1
Imperial24
102
FLAGS
 90
        0
  0
XRECORD
  5
B5C
102
{ACAD_REACTORS
330
B5B
102
}
330
B5B
100
AcDbXrecord
280
     1
102
DISPLAYNAME
  1
Metric50
102
FLAGS
 90
        0
  0
XRECORD
  5
1FA
102
{ACAD_REACTORS
330
1F9
102
}
330
1F9
100
AcDbXrecord
280
     1
 70
     1
 90
429727718
  1
D62C5603-E3A1-4AEA-B7FB-FE5D8D0755AF
310
504B03040A0000080000CC70623B3DEE336E79000000790000001B0000006175746F6465736B2D64657369676E2D7061636B6167652E786D6C3C3F786D6C2076657273696F6E3D22312E302220656E636F64696E673D227574662D3822203F3E3C666F726D6174733E3C666F726D61743E687474703A2F2F736368656D612E
310
6175746F6465736B2E636F6D2F64657369676E2D7061636B6167652F323030393C2F666F726D61743E3C2F666F726D6174733E504B0304140006080800CC70623BD486FD9CA0000000F4000000130000005B436F6E74656E745F54797065735D2E786D6C7D8EC10E82300C865F65E91D8A1E8C310C0EEA1BF002731658846E
310
D98AC1B77784ABF1D8FE5FBFBF75BBCE937A534CCEB38643598122B6FEE978D0B0485F9C41B54DDD7D022595594E1A469170414C76A4D9A4D207E29CF43ECE46F218070CC6BECC4078ACAA135ACF422C856C0E68EA1BF5669944DDD7BCDE7B1F8E415D77AECB980613C2E4AC91FC167A2B244592486606FC29C8FD7F045B9A
310
EF7053A7E60B504B0304140006080800CC70623B853B8169EB0000007C01000008000000636F72652E786D6C8D90416EC3201045AF62CDB6C206821CC7C244919D9CA01740401C94182C03558F5F9C3852BBEB6A467FFE9B197D7EFC9E1EC5975982F5AE035262288C535E5B377690E21535501C055FBC8FBF6C503839990E
310
5619041F179FE64D52DE45E362569DD7661365082642A11EB9E920A89B99642953CC8E702F67A9EE7234257977194EC9EAE275C4EABCCF5EAD5940D4AC6F0E35A568B8F43562CD7046CD199FD07E60174276A7BE677B5EADB0E0D14EEFFB6A31321A0D82627C4084204C3F096B71DD52F6819B16635EADF63F509AF53FA164
310
5DDCD1EDDD17164090FCC8732078B56691CB33A85CD7DCC40F504B0304140006080800CC70623B55019EA25F0000007C00000007000000636E782E786D6C4DCB3B0E80201045D1AD90E915ED2CF8AC45050C11660C8261F98AB1B07AC9C97D42D718D865D3E909258CFD00CCE24AC6E326A164D74DC0B4128928FF32603847
310
2BA13128B1252AC747C6BAB984FC68F0B87FE8960A5C09FE86CFB69FBA01504B0304140006080800CC70623BDBABAAF470010000D40300000C0000006662782F636F72652E786D6CC553D16E823014FD95A6AF4B694182CC941A83FA05FB810A9511A125A5257EFE2E82712ECEB8A7F100CD39F7F69E734AF9FADC366850B6
310
AF8DCE7018308C942E4C59EB2AC3DE1D498AD15A706B8CFB56869196ADCAF00863C12B6B7C374385D14E6907A836A59A41D9F7CA615434B0C8705F7CAA5606D23BA8E84F41278B93AC54100640439DE0BDB320004D43C63716C7C399D30917DCFBBA9CD9BA8469F5B156168B24CED3F7248AC8769F27244EB73B92EED8862C
310
B7F13E0C179B3C8F979C8ECD82BBBABDAA2BAC924E9558448CBD9330242CFA08E3154B5651FCC6D215639C8EE5774DBE2B5F6CF2B5768B68963BB5F5588420E442FC700B1139D4CB01F450C1E918227C2E09DF070D8140C84E1E9AAB8F1340832A9CB13130A5F1376A908D57309505ECF2A0DF179C4E9D30F5B239B87E3823
310
7A79C6F31DE1A8A5AEC08474B03C7837EAE4938639B44E5932B833D2C6B6B279CDC613877FA26EE21F4A2A4C63EC7F29A2F301D1F9F7A0E37D145F504B0304140006080800CC70623B9C113CC27E0000009D0000000B0000006662782F636E782E786D6C4DCCDF0A83201C86E15B91DFB94BFB330DD428C8FB886521330DA7
310
6397BF1A1DECE883878F57749FCDA1B7892F1BBC047A23808C7F84D9FA55424E0BE6803A256208E9EF06C84F9B91703228B1C690F78B66B34CD9A5439DF5CF0BFBF65E35BCA1B8D6A5C6F540381E886698B5741C695F9503EBA150A2F8958E3DC3EA0B504B0304140006080800CC70623B7DF2F77C2A010000120200003100
310
00006662782F41393633353835312D344632462D344230382D423046372D3739314545314133324237412F636F72652E786D6C8D51DB8EC22014FC15C2939B0D2DB4B45643319AE817EC0F6041255A68B86CFCFC856D4D76DF7CE190393373060EDB3DC707F856CE6B6B7A480A0C81328395DA5C7B18C3057510EC3873D686
310
3F34088C18550F330C39BB3A1BA7051AAC09CA84841A2BD5020AEF55806078A44B0FFD7053A328440C89E1EFC52486BBB8AA8214A99D789CF9E05200300FC927E4FB4D5B375D43103D5527440FB843077C5AA3F5861C8F645F5787F59E95B390B318B55CE45AA638FAA2957BD7248B390B7A7CC51F9C124149C82B8C378810
310
84AB2F42B7B8DD56F413775B8C5999E9FF4471926F8AA236A1AE96B8B3CC434E5839373893369E1FAF30EA395917409EB7F26AF8801C171837A4A6AC9C89E9F9C9B1A58BA30FD6A5EF5DDDCF894B9AD9B6A59C957943A9FCAE2FD5BC4DFE03504B0304140006080800CC70623BAD7543B64E01000033030000300000006662
310
782F41393633353835312D344632462D344230382D423046372D3739314545314133324237412F636E782E786D6CD593CD6EC32010845F0571AD6CE3D48AD20813A9873E410FBD12D82434182C7EAAE6EDBB2424CD25871E7B41D6EC30B3FA84F9E67BB2E40B4234DE8DB46F1925E094D7C6ED479AD3AE5951B2113C789FEE
310
6C943839C1488B4C05DF079FE72A69D8C96C13AAD6B8631503449F83828872B949AC57D26200B826A308D316B4064D6E46FCDA41C05550DC9E483A00797BFD207EFB092A45DE9514C1BBD22178396BD39D891265658C238DEA00936C654E5E433CB65A26D9F6EDB5EBC14EBF49A45CB856E66048291F6939A9A81BB5C89177
310
38143CA680F4AA299D66A042CEB3354A2684DC9D8D178FE0D9B8B41CAAD720F880EE7EF93C0C18769E099ECC04D5A102C8049A8A05632F4DDF376CF1DE0F6BB65C2F8627B65A33C6BB62177CEBBDAD973006829F89F22E814B54F4BC2BE347F8AA8F681390B50FA73F804400B5F542E796F19FF974E7F78DB802FE05E20750
310
4B0304140006080800CC70623BE75B7789680500003C100000340000006662782F41393633353835312D344632462D344230382D423046372D3739314545314133324237412F6F626A656374732E786D6CAD575B8F9B3818FD2B887D06C22499CB8AA1CA655245D5B455A356FB305264C061D8018C6C3393D95FBFC7600890
310
A4CD5EF210B0B1BFEBF98E3F7B1FF6596ABC522E1296DF9BAE3D320D9A872C4AF2F8DE2CE5CEBA358D0FBEC719939D65A691938CDE9B6ADAF4BD98B3B2D05311DD91329583D9D5FC0F438434A7A611A644887B5384CF34233629258BA878B12322891DEFF6B66BD70BFB62634E8AE781D082709A4B588AF91C528CDA28B73F
310
1C998EEF39EABBEFA97FBD6A7C7E9553F9D3D79FE442923C3C523610337627CB87ABE99D359D4CC6D6E4FACAB5E6ABF9D2726FC6A3C5F56271377BB88362213924694B38DD99FE47C48627A1E7D49F5A8BB5E1A74C0A599ED3B0F21F1E56366B89112D681E218F0915D0D6F17AD41FBA2A369DCF6335D62ABBD39779D5DDD1
310
11D4D8DE3CBB96B2E04FB8202E41051754A1AA8E8F76B4C6DFE810B580B1547F4B84911149794252234D024EF8BBE963A95AE27B3D310A9D5C215C7960FAEE415ED75694C6AFB17BCACA5D99A60A9AA65F217B0BFC53292ACB92BF283FAD0D3621576592CB5BED907C2FA8E9DF794E35E97BEA31BED21FEB401ABB94C44839
310
DCACBF0E1C5DA8DA5B2F4DFFD32AD86F543D9E565E7056502E157C00AD2671CD534549AB752FCA9CDA00677A313F04E51B22FF19E57B300579E3C97EB29F682D92935CEC18CF901B7B54FD8C51F362B56FC72FE0B3C1EAE335EDCCBF5AEC39ADB17DC238973F804BA5E6F6BFE7AF1FB32E523BE9F3BD571418E3631DCA4D48
310
5250CF639223210A9446CA30052EDF057BD35F8329C1ECD84552BF0DC8D18BE7BCE23BFE6BD960AB4A7DE79923A103BEBD80F911CBAA2C60DB19B01CF164A5583B772EE6D3FFA56666CBCDA74DC97724A48F9A58967497E489C4D979006FD7A05E227A1EBDD0F737C623387A9C844D3709995625106D157315F8B8392CD4E0
310
A0B9A720C4BE9829CEF37EA1E13111214D53925356365ADA634861B52519DD27A00AEB808EAF0628E6F435519D446F45CF2C9CF5214F0A15B2F6D06B79DA3EE3CBF7F56780D2F4E7EF73A0F5E5B02A38D07DC852C6B7C1FBB6664213E0C39E3EBA7FF4E1AD23EA2829407C85E586727488B751B2DB9502BC7B228A3FD68B6E
310
A65A22397E690AA8D158D7E404EC8CDA235CC3B7D1898680131CEC2CDF2638C65196279577750F15884AEE19F94199155B92B13297978469D4F8D358DF0AEF7631E28DC8F0D9F437D5D39A83B2231A1D52D543813A824EF8D44BCFF2FA6A31BD1E8DAD87F1CCB526B3879935BF59CDADD5C37479BB1CDD4CA7B3556B516589
310
EF352754B706114D9C885EC9131DE6EFEB43D99AFE2391C2F958179413D7CFEF6B1B6DB1E7600F00DE6E5C67454A339A4BA2E0FBA85ED26F045D454F463DBFCE484C2F90F2E5E3666003662ED8F755951A7D1BECD5B30B550B2785C8E7320B7292A4838DDA71BBC863ED7613CAF659337A3354231D4FF4A182A54904C2898C
310
98B28C4AD0CE056CCF332A80986E571EE9DBC305BB5FEB7E509220A58D25CF042D712A806AC0AD0C657FDEF80D2D9CEAA2EE4D1C76F60BFE74219A06527D6F82DF6412526107381E55E353090704D085B52408A8913C4ED159D79BDA71BB4BC506F4831350EB6F975CD22D69BF7AC49B91A2C0A9DDA3D5CA36AD20FC478E37
310
E61844E2352865EBCB61A275A65283CAAA9DD27703B4102F5AF51EF5F573B75CBB5AD38BC845F7A49F82A0966A49C2E3EA5EA0ECD326CD965F1DB402C6FA8B51A4658C5C5E2EC9E214602E55810345408596591009A82E7E7FFACA19EEA299B14A0081A705CB3296EBC14CDF658DCD336EA6D1136881AAEB87B81AB9EE53D5
310
F5EB8BC8362082DA24122F98680A4E7930C01A0079749CEA14382A0783E5EBA5A10F8C098456A03D6A4AEB6BB881E2513747552A5DB22C7EDAF83BD5528081A365F7FF06504B0304140006080000CC70623B000000000000000000000000350000006662782F41393633353835312D344632462D344230382D423046372D37
310
39314545314133324237412F76657274696365732E62696E504B0304140006080800CC70623BF270F1330600000004000000360000006662782F41393633353835312D344632462D344230382D423046372D3739314545314133324237412F747269616E676C65732E62696E636660600000504B0304140006080000CC7062
310
3B000000000000000000000000370000006662782F41393633353835312D344632462D344230382D423046372D3739314545314133324237412F617474726962757465732E62696E504B0304140006080800CC70623B08DA0BD19000000041010000360000006662782F41393633353835312D344632462D344230382D4230
310
46372D3739314545314133324237412F6469726563746F72792E786D6C858F410AC3201045AF22B36F53E9A60B35CBEEBAE80D244E44489C6234F4F835464A48035D0DF398FF9F8AF63D0E6CC63039F212F8F9020C7D47C6792B21C5FE7403D62A1188E2E60C98D7234A5830286103A55745067B9D86B8A3CF9C7F90C11DE6
310
07FB144396D7B6A82D282E9A152AD114D5EF2CB866EEE831B8EEA07A7BB5A8D7D61A2BAAEB7FD5F70921FF497D00504B0304140006080800CC70623BEDD1DC58FD000000A00100003B0000006662782F41393633353835312D344632462D344230382D423046372D3739314545314133324237412F7265736F75726365732F
310
636F72652E786D6C8D504B6E833010BD0A9A6D65B00922041947112427E8052C33A156828DFCA97AFC9A40A576D7CDCCE87D344F8F9FBFE667F689CE6B6B3A6039850C8DB2A336530731DC4903D95970676DF82583CCC8193B5861107C72362E3BA4AC096842428D1D7107A5F7182053CF7474E0D507CE32973124857FE48B
310
540F3961CEF244279DE03EB81420DB9EAC1384436FA353E879B1B182C7A8C75DA3C7F453DF353A1075D537A7BA6464B8F535A99AE14A9A2BBD90E350DD183B5CFABE3AF262350B1EF4FC9351399401471025A527C218A1E53BAB5A5AB765F5469B96525EACF23FA6B88CFF34456DC2A1DCE36E360F82A5202F42F062ED2BAD
310
579969AFDD8A6F504B010214000A0000080000CC70623B3DEE336E79000000790000001B00000000000000000000000000000000006175746F6465736B2D64657369676E2D7061636B6167652E786D6C504B01021400140006080800CC70623BD486FD9CA0000000F40000001300000000000000000000000000B20000005B
310
436F6E74656E745F54797065735D2E786D6C504B01021400140006080800CC70623B853B8169EB0000007C010000080000000000000000000000000083010000636F72652E786D6C504B01021400140006080800CC70623B55019EA25F0000007C000000070000000000000000000000000094020000636E782E786D6C504B
310
01021400140006080800CC70623BDBABAAF470010000D40300000C00000000000000000000000000180300006662782F636F72652E786D6C504B01021400140006080800CC70623B9C113CC27E0000009D0000000B00000000000000000000000000B20400006662782F636E782E786D6C504B01021400140006080800CC70
310
623B7DF2F77C2A010000120200003100000000000000000000000000590500006662782F41393633353835312D344632462D344230382D423046372D3739314545314133324237412F636F72652E786D6C504B01021400140006080800CC70623BAD7543B64E010000330300003000000000000000000000000000D2060000
310
6662782F41393633353835312D344632462D344230382D423046372D3739314545314133324237412F636E782E786D6C504B01021400140006080800CC70623BE75B7789680500003C10000034000000000000000000000000006E0800006662782F41393633353835312D344632462D344230382D423046372D3739314545
310
314133324237412F6F626A656374732E786D6C504B01021400140006080000CC70623B0000000000000000000000003500000000000000000000000000280E00006662782F41393633353835312D344632462D344230382D423046372D3739314545314133324237412F76657274696365732E62696E504B01021400140006
310
080800CC70623BF270F133060000000400000036000000000000000000000000007B0E00006662782F41393633353835312D344632462D344230382D423046372D3739314545314133324237412F747269616E676C65732E62696E504B01021400140006080000CC70623B0000000000000000000000003700000000000000
310
000000000000D50E00006662782F41393633353835312D344632462D344230382D423046372D3739314545314133324237412F617474726962757465732E62696E504B01021400140006080800CC70623B08DA0BD1900000004101000036000000000000000000000000002A0F00006662782F41393633353835312D344632
310
462D344230382D423046372D3739314545314133324237412F6469726563746F72792E786D6C504B01021400140006080800CC70623BEDD1DC58FD000000A00100003B000000000000000000000000000E1000006662782F41393633353835312D344632462D344230382D423046372D3739314545314133324237412F7265
310
736F75726365732F636F72652E786D6C504B0506000000000E000E0080040000641100000000
  0
XRECORD
  5
1F8
102
{ACAD_REACTORS
330
1F7
102
}
330
1F7
100
AcDbXrecord
280
     1
 70
     1
 90
429727718
  1
30362254-06B7-45E0-A893-8CFA70E3D6BC
310
504B03040A0000080000CC70623B3DEE336E79000000790000001B0000006175746F6465736B2D64657369676E2D7061636B6167652E786D6C3C3F786D6C2076657273696F6E3D22312E302220656E636F64696E673D227574662D3822203F3E3C666F726D6174733E3C666F726D61743E687474703A2F2F736368656D612E
310
6175746F6465736B2E636F6D2F64657369676E2D7061636B6167652F323030393C2F666F726D61743E3C2F666F726D6174733E504B0304140006080800CC70623BD486FD9CA0000000F4000000130000005B436F6E74656E745F54797065735D2E786D6C7D8EC10E82300C865F65E91D8A1E8C310C0EEA1BF002731658846E
310
D98AC1B77784ABF1D8FE5FBFBF75BBCE937A534CCEB38643598122B6FEE978D0B0485F9C41B54DDD7D022595594E1A469170414C76A4D9A4D207E29CF43ECE46F218070CC6BECC4078ACAA135ACF422C856C0E68EA1BF5669944DDD7BCDE7B1F8E415D77AECB980613C2E4AC91FC167A2B244592486606FC29C8FD7F045B9A
310
EF7053A7E60B504B0304140006080800CC70623B1EC5D7A3EB0000007C01000008000000636F72652E786D6C8D90416EC3201045AF82665B6103C6756C6122AB4D4ED00B204C5C94182C03558F5F9C3852BBEB6A467FFE9B197D71FC9E6FE8CBACC17AD7032D0820E3B41FAD9B7A48F1820F808E52ACDEC75F36404ECDA687
310
4D0629A6D5A76597B477D1B89855E747B38B2A041301E95B6E7A08FAD3CCAA50296647B8168BD2573599823EBB0CA76447F43862C7BCCF5EAC59410E4DDD9C7973C2755553CCCFA4C603E3040F1565ED3B1FDE4E432BCA0D9622DAF9795FAF464533826484B498524CD807E51D79ED187F21878E10516EF63F505AC67F42C9
310
BA58B1FDDD071640D2FCC87D2045B96591CB3DA85CB7DCE40F504B0304140006080800CC70623B55019EA25F0000007C00000007000000636E782E786D6C4DCB3B0E80201045D1AD90E915ED2CF8AC45050C11660C8261F98AB1B07AC9C97D42D718D865D3E909258CFD00CCE24AC6E326A164D74DC0B4128928FF32603847
310
2BA13128B1252AC747C6BAB984FC68F0B87FE8960A5C09FE86CFB69FBA01504B0304140006080800CC70623B8C9102E971010000D40300000C0000006662782F636F72652E786D6CC5535B6E833010BC8AE5DF0A6C08340F1947A84D4ED00B38C6A128602363A31CBFCB234A53A551FA553EC09AD9F5CE8C31DB9E9B1AF5CA
310
7695D1198E428A91D2D214952E33ECDD315861B4E5CC1AE3BE9561A445A3323CC098B3D21ADFCE9034DA29ED00D5A6503328BA4E398C640D8B0C77F253352214DE4145770A5B214FA2546114020D759C75CE8200340D19DE981F0F6746269C33EFAB6266AB02A655C74A59CCF365BADC27CB5D902ED22848F6340DF238A141
310
BE88E2F57B92BFEDF23523433367AE6A2EEAA455C2A902F398D2751045018D3FA264435F3771F242571B4A1919CA6F9A7C5B3CD9E42BED16F12C776AEB308F40C848FC700B1139D4891EF410CEC810227CC6846F8386402064270EF5C5C709A05E49676C024C61FC95EA45ED154CA5211D1FF4FB8291A913A68E9B83EBBB33
310
E2A7673CDE118E5AE8124C0807CB8377834E366998436B950D7A7746DAD846D4CFD978E0F04FD455FC5D49D2D4C6FE9722321F10997F0F32DC47FE05504B0304140006080800CC70623BFFEA85907E0000009D0000000B0000006662782F636E782E786D6C4DCCD10A83201886E15B91FFDC95D95A811AB6F23E625948A6C3
310
E9D8E5AF46073BFAE0E1E365ED67B3E8ADC3CB78C7815C7240DA3DFC64DCC221C519D7805AC182F7F1EF06C88D9BE6703008B6049F9E274D7A1E938DBB5AE3D6131B2589BA0D3D965551E0B2EA732C9B9A624AAEB41E3A557677029960D9AFB4EF11165F504B0304140006080800CC70623B4FEEA4082C0100001202000031
310
0000006662782F39464131463745442D413632322D343644302D413938332D3331353338454246344243312F636F72652E786D6C8D515B6EC32010BC0AE2AB55850DD871ED0813254D72825EC00192A2C460F1A872FC42ED48ED5F7E00CDCECCCEB26C731F6FE05B39AFADE921293004CA082BB5B9F43086336A21D870E6AC
310
0D7F68109861543DCC30E4ECE26C9C164858139409093556AA051CBC570102714B8F1E7AF1A5C6A11862480C7F2DA6415C878B2A4891CA89C7990F2E050073937C42DE1DB7E4F87ED8A36D4329AA9B3D46DBAEAD504556557BD81DEBDD0761E52CE42C462D17B996298E3E6BE59E35C962CE821E1FF18553435012728A7187
310
0841987E927A8D9B35ADDF70BBC6989599FE4F1427F9A4286A132ABAC49D651EF234CD5CE04CDA78BA3DC2A8FB645D00B9DF8B57E215725C60BCA2A463E54C4CE327C7A65E1C7DB02E7DEFCBF594B864C5CA6CDBD49C957943E9FA5D5FBAF336F90F504B0304140006080800CC70623BAD7543B64E01000033030000300000
310
006662782F39464131463745442D413632322D343644302D413938332D3331353338454246344243312F636E782E786D6CD593CD6EC32010845F0571AD6CE3D48AD20813A9873E410FBD12D82434182C7EAAE6EDBB2424CD25871E7B41D6EC30B3FA84F9E67BB2E40B4234DE8DB46F1925E094D7C6ED479AD3AE5951B2113C
310
789FEE6C943839C1488B4C05DF079FE72A69D8C96C13AAD6B8631503449F83828872B949AC57D26200B826A308D316B4064D6E46FCDA41C05550DC9E483A00797BFD207EFB092A45DE9514C1BBD22178396BD39D891265658C238DEA00936C654E5E433CB65A26D9F6EDB5EBC14EBF49A45CB856E66048291F6939A9A81BB5
310
C8917738143CA680F4AA299D66A042CEB3354A2684DC9D8D178FE0D9B8B41CAAD720F880EE7EF93C0C18769E099ECC04D5A102C8049A8A05632F4DDF376CF1DE0F6BB65C2F8627B65A33C6BB62177CEBBDAD973006829F89F22E814B54F4BC2BE347F8AA8F681390B50FA73F804400B5F542E796F19FF974E7F78DB802FE05
310
E207504B0304140006080800CC70623B16AB87BA640500003C100000340000006662782F39464131463745442D413632322D343644302D413938332D3331353338454246344243312F6F626A656374732E786D6CAD575B6FA33818FD2B887DE6924B3BED8A326A92B68A663B534DD4D13E548A0C38942D60649B369D5FBFC7
310
600890A493BDE42160637FD7F31D7FF63E6FB3D478A55C242CBF3247B66B1A340F5994E4F19559CA8D75611A9F7D8F33263BCB4C232719BD32D5B4E97B316765A1A722BA21652A07B3B7B33F0D11D29C9A46981221AE4C113ED38CD8A4942CA2E2C58E882476BCD9DA23BB5ED8171B73523C0F841684D35CC252CCE79062D4
310
468DFA43D7747CCF51DF7D4FFDEB5593E3AB9CCA9FBEFE241792E4E19EB28198C968BAB8199F5D5A67D3E9C49A9E8F47D6EC76B6B0469F26EEFC7C3EBFBCBEB98462213924694B38DD98FE1D62C393D073EA4FADC5DAF04326852CCF6958F90F0F2B9BB5C48816348F90C7840A68EB78EDF68723159BCEE7891A6B95DDE9D3
310
BCEAEEE8086A6C6F9E5D4B59F0175C10A7A0820BAA5055C7473B5AE3CFDD452D602CD5DF12616444529E90D448938013FE6EFA58AA96F85E4F8C42275708571E98FE6827AF6B2B4AE3D7D83D64E5A64C53054DD3AF90BD06FEA9149565C94FCA0F6B834DC85599E4F2423B24DF0B6AFA979E534DFA9E7A4CC6FA631D486393
310
921829879BF5D781A373557BCB85E97FB90DB62B558F8795179C15944B051F40AB495CF35451D26A4727654E6D8033BD98EF82F21D91FF8AF2DD9982BCF1643BDD4EB516C9492E368C67C88DED563FC36D5EACF66DFF057C3658BDBFA69DF9578B3DA735B64F18C7F20770A9D45CFCF7FCF563D6456A277DBEF78A02637CA2
310
43B90A490AEAB94F72244481D24819A6C0E59B606BFA4B3025981DBB48EAB701D97BF19C577CC77F2D1B6C55A9EF3C732474C0B727303F625995056C3B02963D9EAC146BE78EC5FCEC7FA999EBC5EACBAAE41B12D27B4D2C0BBA49F244E2ECDC81B76B502F113D8F5EE8FB1BE3111CDD4FC2AA9B844CAB1288B68AB90A7CDC
310
1C166AB0D3DC5310625FCC14E779BFD0709F8890A629C9292B1B2DED31A4B0DA928CEE135085754027E3018A397D4D5427D15BD1330B677DC8934285AC3DF45A9EB68FF8F2B8FC0A509AFEECFD0FF2DE25CC6047F7214B195F07EFEB9A094D800F7BFAE8FED187B78EA8A3A400F115961BCAD1215E47C966530AF0EE8128FE
310
58CEBB996A8964FFA529A046635D9353B0336A8F700DDF46271A024E70B0B37C9DE01847591E54DED53D54202AB947E4076556AC49C6CA5C9E1226B7F1A7B1BE15DEED62C41B91E1B3E9AFAAA735036547343A925075041DF0A9979E893B391F8FCFA6967B3EFB644DCF6E5CEBFAE272625DCC6FAF3FB93793C5F90CE1EF57
310
407342756B10D1C489E8953CD1617E5CEECAD6F4EF8914CE5D5D504E5C3F1F9736DA62CFC11E00BCDDB8CC8A9466349744C1F75EBDA4DF09BA8A9E8C7A7E9991989E20E5DBDD6A6003664ED8F7A04A8DBE0DF6EAD9B9AA858342E47399053949D2C146EDB85DE4B176BB0965FBAC19BD19AA918E27FA50C1D22402E144464C
310
59462568E704B6E71915404CB72B8FF4EDE184DDAF753F284990D2C6926782963815403548A70C657FDEF80D2D9CEAA2AE4C1C76F60BFE74219A06527D6582DF6412526107381E55E353090704D085B52408D0933C4ED159D79BDA71BB4BC506F4831350EB6F979CD22D69BF7AC49B91A2C0A9DDA3D5CA36AD20FC478E37E6
310
1844E2352865EBCB6EA275A652E3836BE04EFB400BF1A2556F515F1FBB35B2AB35BD889C744FFA1004B5544B121E57F70215746DD2F5E2C1412B602CBF19455AC6C8E5E9922C4E01E65215385004546899059180EAFCF7A707CE7017CD8CDB0410789AB32C63B91E5CEBBBACB17AC6CD347A022D5075FD106377347AAABA7E
310
7D11590744509B44E205134DC1290F06580320F78E537D3D73540E06CB970B431F185308AD40BBD794D6D77003C5A36E8EAA54BA64597CD8F83BD552A080A365F7FF06504B0304140006080000CC70623B000000000000000000000000350000006662782F39464131463745442D413632322D343644302D413938332D3331
310
353338454246344243312F76657274696365732E62696E504B0304140006080800CC70623BF270F1330600000004000000360000006662782F39464131463745442D413632322D343644302D413938332D3331353338454246344243312F747269616E676C65732E62696E636660600000504B0304140006080000CC70623B
310
000000000000000000000000370000006662782F39464131463745442D413632322D343644302D413938332D3331353338454246344243312F617474726962757465732E62696E504B0304140006080800CC70623B08DA0BD19000000041010000360000006662782F39464131463745442D413632322D343644302D413938
310
332D3331353338454246344243312F6469726563746F72792E786D6C858F410AC3201045AF22B36F53E9A60B35CBEEBAE80D244E44489C6234F4F835464A48035D0DF398FF9F8AF63D0E6CC63039F212F8F9020C7D47C6792B21C5FE7403D62A1188E2E60C98D7234A5830286103A55745067B9D86B8A3CF9C7F90C11DE607
310
FB144396D7B6A82D282E9A152AD114D5EF2CB866EEE831B8EEA07A7BB5A8D7D61A2BAAEB7FD5F70921FF497D00504B0304140006080800CC70623B0D6EF93BFE000000A00100003B0000006662782F39464131463745442D413632322D343644302D413938332D3331353338454246344243312F7265736F75726365732F63
310
6F72652E786D6C8D50596E833010BD0A9ADFCA60B334011947A8694ED00B586642AC041B79A97AFC9A40A5F6AF3F33A3B7689E1E3F7DCD8FEC139DD7D6F4C0720A191A65476DA61E62B892236427C19DB5E1970C322367EC618541F0C9D9B8EC90B226A009093576C41D94DE63804C3DD2D18357379C652E63480A7FCF17A9
310
EE72C29CE5894E3AC17D702940B63D59270887DE46A7D0F36263058F518FBB468FE9A7BE6A7420864373B8D4873369AA8691FA421B3294352543C5CAF65C0F6FEF43CB8BD52C78D0F34F46E550061C419494B6843142CB0F5677F4B52BEB177AEC28E5C52AFF638ACBF84F53D42654E51E77B379102C05791282176B5F693D
310
CB4C7BED567C03504B010214000A0000080000CC70623B3DEE336E79000000790000001B00000000000000000000000000000000006175746F6465736B2D64657369676E2D7061636B6167652E786D6C504B01021400140006080800CC70623BD486FD9CA0000000F40000001300000000000000000000000000B20000005B
310
436F6E74656E745F54797065735D2E786D6C504B01021400140006080800CC70623B1EC5D7A3EB0000007C010000080000000000000000000000000083010000636F72652E786D6C504B01021400140006080800CC70623B55019EA25F0000007C000000070000000000000000000000000094020000636E782E786D6C504B
310
01021400140006080800CC70623B8C9102E971010000D40300000C00000000000000000000000000180300006662782F636F72652E786D6C504B01021400140006080800CC70623BFFEA85907E0000009D0000000B00000000000000000000000000B30400006662782F636E782E786D6C504B01021400140006080800CC70
310
623B4FEEA4082C0100001202000031000000000000000000000000005A0500006662782F39464131463745442D413632322D343644302D413938332D3331353338454246344243312F636F72652E786D6C504B01021400140006080800CC70623BAD7543B64E010000330300003000000000000000000000000000D5060000
310
6662782F39464131463745442D413632322D343644302D413938332D3331353338454246344243312F636E782E786D6C504B01021400140006080800CC70623B16AB87BA640500003C1000003400000000000000000000000000710800006662782F39464131463745442D413632322D343644302D413938332D3331353338
310
454246344243312F6F626A656374732E786D6C504B01021400140006080000CC70623B0000000000000000000000003500000000000000000000000000270E00006662782F39464131463745442D413632322D343644302D413938332D3331353338454246344243312F76657274696365732E62696E504B01021400140006
310
080800CC70623BF270F133060000000400000036000000000000000000000000007A0E00006662782F39464131463745442D413632322D343644302D413938332D3331353338454246344243312F747269616E676C65732E62696E504B01021400140006080000CC70623B0000000000000000000000003700000000000000
310
000000000000D40E00006662782F39464131463745442D413632322D343644302D413938332D3331353338454246344243312F617474726962757465732E62696E504B01021400140006080800CC70623B08DA0BD190000000410100003600000000000000000000000000290F00006662782F39464131463745442D413632
310
322D343644302D413938332D3331353338454246344243312F6469726563746F72792E786D6C504B01021400140006080800CC70623B0D6EF93BFE000000A00100003B000000000000000000000000000D1000006662782F39464131463745442D413632322D343644302D413938332D3331353338454246344243312F7265
310
736F75726365732F636F72652E786D6C504B0506000000000E000E0080040000641100000000
  0
XRECORD
  5
175
102
{ACAD_REACTORS
330
173
102
}
330
173
100
AcDbXrecord
280
     1
270
     1
271
     1
  0
XRECORD
  5
174
102
{ACAD_REACTORS
330
173
102
}
330
173
100
AcDbXrecord
280
     1
270
     1
271
     1
  0
XRECORD
  5
1FB
102
{ACAD_REACTORS
330
173
102
}
330
173
100
AcDbXrecord
280
     1
 70
     0
 90
1673772943
  1
ECE7A1D2-D628-4531-984C-D00F80459256
310
504B03040A0000080000CC70623B3DEE336E79000000790000001B0000006175746F6465736B2D64657369676E2D7061636B6167652E786D6C3C3F786D6C2076657273696F6E3D22312E302220656E636F64696E673D227574662D3822203F3E3C666F726D6174733E3C666F726D61743E687474703A2F2F736368656D612E
310
6175746F6465736B2E636F6D2F64657369676E2D7061636B6167652F323030393C2F666F726D61743E3C2F666F726D6174733E504B0304140006080800CC70623BD486FD9CA0000000F4000000130000005B436F6E74656E745F54797065735D2E786D6C7D8EC10E82300C865F65E91D8A1E8C310C0EEA1BF002731658846E
310
D98AC1B77784ABF1D8FE5FBFBF75BBCE937A534CCEB38643598122B6FEE978D0B0485F9C41B54DDD7D022595594E1A469170414C76A4D9A4D207E29CF43ECE46F218070CC6BECC4078ACAA135ACF422C856C0E68EA1BF5669944DDD7BCDE7B1F8E415D77AECB980613C2E4AC91FC167A2B244592486606FC29C8FD7F045B9A
310
EF7053A7E60B504B0304140006080800CC70623BD9DDAED0EC0000007C01000008000000636F72652E786D6C8D90416EC3201045AF82665B61836D9CD8C2444DD39CA01740405C94182C03558F5F9C3852BBEB6A467FFE9B197D7EF89E6EE8CB2CC17A37002D0820E394D7D68D03A478C17B4007C117EFE32F1B20272733C0
310
2A83E0E3E2D3BC49CABB685CCCAAF3DA6CA20CC14440EA969B0182FA34932C648AD911AEC52CD5558EA6A0CF2EC329598D1E47ACCEFBECC59A050463A7EA5833865FEBDD0E37353BE3EE8DBDE3F6786A48D375FBF6CC78B9C282473B3DEFABC5C86834888A900E538A49F5419B9EB47DD5BC907D4F082F57FB1F28CDFA9F50
310
B22ED6D5F6EE030B20687EE43E10BC5CB3C8E51E54AE6B6EE207504B0304140006080800CC70623B55019EA25F0000007C00000007000000636E782E786D6C4DCB3B0E80201045D1AD90E915ED2CF8AC45050C11660C8261F98AB1B07AC9C97D42D718D865D3E909258CFD00CCE24AC6E326A164D74DC0B4128928FF326038
310
472BA13128B1252AC747C6BAB984FC68F0B87FE8960A5C09FE86CFB69FBA01504B0304140006080800CC70623BA24EB22D72010000D40300000C0000006662782F636F72652E786D6CC5535B6E833010BC8AE5DF0A6C5E49888CA3A6694ED00B38E05014B091B1518EDFE511A5A9D228FD2A1F60CDEC7A67C6986DCE4D8D7A
310
69BA4AAB0C073EC548AA5C17952A33ECECD15B61B4E1CC686DBF9561A44423333CC098B3D268D7CE50AE9595CA02AA74216750749DB418E5352C32DCE59FB211BE70162ABA93DF8AFC244AE9073ED050C759670D0840D390E18DF9F1706664C23973AE2A66B62A605A75ACA4C13C4976E1364A12EF355A2EBD384AF65EFA96
310
BC7B8BED2EA6719AAE16FB8491A199335B351775B991C2CA02F390D2D40B028F861F41BCA68B7518BFD0D59A524686F29B26D7164F36B94AD9289CE54E6D1DE6010819891F6E21228B3AD1831EC219194284CF98F06DD01008846CC5A1BEF83801D4CBDC6A1303536877A57A513B0953A94FC707FDBE6064EA84A9E3E6E0FA
310
EE8CF0E9198F7784A316AA0413C2C2F2E0ECA0934D1AE6D05A69BCDE9E91D2A611F573361E38FC1375157F5752AE6B6DFE4B11990F88CCBF0719EE23FF02504B0304140006080800CC70623B408A7D3B7C0000009D0000000B0000006662782F636E782E786D6C4DCCD10A83201886E15B91FFDC552A92A0064DBC8F581632
310
D3703A76F9ABD1C18E3E78F878E5F0D9027ABBFCF2292AE86E2D20171F69F6715550CB827B40839639A5F2770314A7CD293819B45C73AAFB45B35BA61ACAA1C1C7E7855C58C15BC331339661262CC762340413D68D77DA5B42298546CBE6573AF60CEB2F504B0304140006080800CC70623B449FB9BD290100001202000031
310
0000006662782F36394639363044362D344446342D343946362D394244322D3234314243333846323333332F636F72652E786D6C8D515B6EC32010BC0AE22B55850D98B871848994463E412FE002495162B07854397EA176A4F62F3F2C9A9D991D587EB84F37F0AD7D30CEF6905418026DA553C65E7A98E219ED203808EE9D
310
8B7F6810D871D23D2C3014FCE25D9A57483A1BB58D19B54EE9151C43D0110279CB971E06F9A5A7B11A53CC8C70ADE6515EC78BAE4895DB992778883E0700CB907242D17643D7E2538BD869608875438BBAE38922CAC8F1BDD90DB4691A5E2F42C153326A951B95E398B3D1FE599322163C9AE9115F7A3D46ADA0A018778810
310
84E907617BDCEE297BC5BB3DC6BC2EF47FA234AB2745C9D8D8D035EE220B50105E2F0DC1954B9FB747187D9F9D8FA0CCDB042D5FA0C015C65B42DF78BD10F3F3B363CB56C7109DCFDFBBB97E662ED92EB62D13BC2E1BCAE5777DB9966D8A1F504B0304140006080800CC70623BAD7543B64E01000033030000300000006662
310
782F36394639363044362D344446342D343946362D394244322D3234314243333846323333332F636E782E786D6CD593CD6EC32010845F0571AD6CE3D48AD20813A9873E410FBD12D82434182C7EAAE6EDBB2424CD25871E7B41D6EC30B3FA84F9E67BB2E40B4234DE8DB46F1925E094D7C6ED479AD3AE5951B2113C789FEE
310
6C943839C1488B4C05DF079FE72A69D8C96C13AAD6B8631503449F83828872B949AC57D26200B826A308D316B4064D6E46FCDA41C05550DC9E483A00797BFD207EFB092A45DE9514C1BBD22178396BD39D891265658C238DEA00936C654E5E433CB65A26D9F6EDB5EBC14EBF49A45CB856E66048291F6939A9A81BB5C89177
310
38143CA680F4AA299D66A042CEB3354A2684DC9D8D178FE0D9B8B41CAAD720F880EE7EF93C0C18769E099ECC04D5A102C8049A8A05632F4DDF376CF1DE0F6BB65C2F8627B65A33C6BB62177CEBBDAD973006829F89F22E814B54F4BC2BE347F8AA8F681390B50FA73F804400B5F542E796F19FF974E7F78DB802FE05E20750
310
4B0304140006080800CC70623B8D05915C650500003B100000340000006662782F36394639363044362D344446342D343946362D394244322D3234314243333846323333332F6F626A656374732E786D6CAD575B6FA33814FE2B887D06429276DA1565D4266D158D3A339A6846FB502932E050B66023DB74D2FDF5FB190C01
310
9276B2973C046C8ECFF53B17071F77456EBD502133CEAE6CDF9DD81665314F32965ED995DA3A17B6F5310C04E7AA47665B8C14F4CAD6DB7618A48257A5D94AE89654B91AEDDEDDFC61C998326A5B714EA4BCB265FC440BE2924AF184CA6737218AB8E976E7FA6E4338649B0A523E8D98964450A6A029F619B8588D52FE7039
310
B1BD30F0F4F730D0FF866AF6369557DB33949F31A9088B0F848DD8CCFCF9F2767A76E99CCDE733677E3EF59D9BBB9BA5E37F984D16E78BC5E5F5ED25044B25C0C96822E8D60EEFE11B91C581D77CEA34368A1F5329E68CD1B8B61F16D63A1B8E092D294B10C78C4A48EB593D192E7DED9BDEE7995E1B91FDEDD3ACEA9FE831
310
6A756F9F7D4D79F4274C90A7A04248AA51D5F8C718DAE06FB2F75AC4796EBE65D22A88A22223B995679120E2D50E41AA49C260C046A35368846B0BECD0DFF3EBEB8AD4F835768F69B9ADF25C43D30E6B646F807FAA64AD59F61715C7A54127C4AACA98BA3006A9D792DAE165E0D59B61A01FB3A9F9D838D2DAE62445C86166
310
F37564E842E7DE6A69879FEEA2DD5AE7E371E1A5E025154AC307D06A03D73EB5978C58FFA4C8E9033066E0F3BD53BEC1F39F91BE7B55103791EDE6BBB991A2046172CB4581D8B893FA674DDA17A77B3B7C413D1B511FD2743BFF8A38F03A658705E3ADF8015C3A3417FF3D7E439FF591DA0B5F18BC20C1B8981957AE6392A3
310
F43C640C01D1A0B4728E2DD4F26DB4B3C3152A252A3B4E913CEC1C72F012782FF88EFF8637AA552DBEF76408E8A8DE9E50F9E1CB3A2DA0DB1B6039A893B56063DC5B3E3FFB5F72E67AB9FEB4AEC496C4F4C1149625DD662C53E89D7BF0F6151A046260D1337DFDC94502430F83B0EE07A130A224BCAD7DAE1D9FB6CD422FF6
310
920702629C4BB9AE79C12F243C6432A6794E18E5552BA56B431AAB5D91317302B2B071E86C3A42B1A02F999E24061403B5D0EB639195DA655DD3EBEAB4FB862DDF579F014AD0E73C22F99E28DA57FB98E75C6CA2D74D53086D600F4786E0FE3144B771A8A7B900F03594DB8A633CBC49B2EDB69228BB479CF863B5E807AAAB
310
23872F6DFEB4129B949CA33823F58830E86D65621E10047D9DB34D862E8EAC3C2ABC2F7B2C40D67CDFE01F5545B92105AF983AC54D93D69E56FB8E797F88913F898A9FEC705D3F9D1B54EC8426FB500D40A03BD0119B06E1B95DDC7EB8F6975367793EBD70E66733DFB9BC982F9CE564727731999F5D4ECFCE3B8D6A4DC2A0
310
6D50FD148437D110834A64C6CDDF57FBACB5C307A2A477DFE4939736CFEF2B175371E0E10CF0DD1D5C15654E0BCA14D1E87DD02FF93782A162C0A3D95F1524A52770F972BF1EE9809D13CE7DD599467F8ECE9ADD85CE85A34CD45355448C64F9E8A031DC2D596ACC6E5DD93D9B82DE2EF5CAF81363A8E47996A0DE24564A79
310
4115AACE09C55E14540231FDA13C319787134EBF34E3A022514E5B4D9E0826E25C02D5805B15ABE1BEF51B26383D445DD9E875EE33FE4C22DA16427D65A3BCA92CA6D28DD01DF5DC53330704308475351050232CCD31583787BA75774AFB06E5070DD0C8EF484E19968C5D83BA5B90B244D31E54D55A372320FE4786B7EA58
310
44E135AA5467CB7EA333A61683CC6A8C3257034C10CF46F40EF9F5BE59BE5BD30C3C72D235E95D10345C1D45445A5F0BB47E46A5EBE5570F9380B5FA629579952296A773720405982B9DE04011506178964401AA8BDF1FBF0A8EAB6861DD6580C0E38217056766716DAEB2D6FA0917D3E4116581EADB879C4E7CFFB11EFACD
310
3D641311495D92C8676CB409A72D18610D803CE8A626049E8EC1887CB5B44CC39883690DDA8399B4B9855B481E7D71D4A9D22F96E5BB73BF5793020C02137BF837504B0304140006080000CC70623B000000000000000000000000350000006662782F36394639363044362D344446342D343946362D394244322D32343142
310
43333846323333332F76657274696365732E62696E504B0304140006080800CC70623BF270F1330600000004000000360000006662782F36394639363044362D344446342D343946362D394244322D3234314243333846323333332F747269616E676C65732E62696E636660600000504B0304140006080000CC70623B0000
310
00000000000000000000370000006662782F36394639363044362D344446342D343946362D394244322D3234314243333846323333332F617474726962757465732E62696E504B0304140006080800CC70623B08DA0BD19000000041010000360000006662782F36394639363044362D344446342D343946362D394244322D
310
3234314243333846323333332F6469726563746F72792E786D6C858F410AC3201045AF22B36F53E9A60B35CBEEBAE80D244E44489C6234F4F835464A48035D0DF398FF9F8AF63D0E6CC63039F212F8F9020C7D47C6792B21C5FE7403D62A1188E2E60C98D7234A5830286103A55745067B9D86B8A3CF9C7F90C11DE607FB14
310
4396D7B6A82D282E9A152AD114D5EF2CB866EEE831B8EEA07A7BB5A8D7D61A2BAAEB7FD5F70921FF497D00504B0304140006080800CC70623BCA768048FE000000A00100003B0000006662782F36394639363044362D344446342D343946362D394244322D3234314243333846323333332F7265736F75726365732F636F72
310
652E786D6C8D50596E833010BD0A9ADFCA60D600328E9AA639412F609909B1126CE4A5EAF16B0295DABFFECC8CDEA2797AECF8353F924FB44E193D409E5248504B332A3D0D10FC95B4901C39B3C6F85F3248B49871801506CE266BC2B243D2688FDA47549B11775038871E12F988C7004EDE7016A9083E2ADC3D5D84BC8B09
310
D33C8D74D471E6BC8D0192EDC93A815B742658898E651BCB59086ADC356A8C3FD555A1055ED7E7E254D615792D0F075295F585746FF53B694EE78A565DD736979A65AB9933AFE69F8CD2A2F038022F28ED489E135A7CE4554F9BBEA85E68DB53CAB255FEC71496F19FA6A0B42F8B3DEE6673C0F318E4497096AD7DC5F52C33
310
EEB55BFE0D504B010214000A0000080000CC70623B3DEE336E79000000790000001B00000000000000000000000000000000006175746F6465736B2D64657369676E2D7061636B6167652E786D6C504B01021400140006080800CC70623BD486FD9CA0000000F40000001300000000000000000000000000B20000005B436F
310
6E74656E745F54797065735D2E786D6C504B01021400140006080800CC70623BD9DDAED0EC0000007C010000080000000000000000000000000083010000636F72652E786D6C504B01021400140006080800CC70623B55019EA25F0000007C000000070000000000000000000000000095020000636E782E786D6C504B0102
310
1400140006080800CC70623BA24EB22D72010000D40300000C00000000000000000000000000190300006662782F636F72652E786D6C504B01021400140006080800CC70623B408A7D3B7C0000009D0000000B00000000000000000000000000B50400006662782F636E782E786D6C504B01021400140006080800CC70623B
310
449FB9BD290100001202000031000000000000000000000000005A0500006662782F36394639363044362D344446342D343946362D394244322D3234314243333846323333332F636F72652E786D6C504B01021400140006080800CC70623BAD7543B64E010000330300003000000000000000000000000000D20600006662
310
782F36394639363044362D344446342D343946362D394244322D3234314243333846323333332F636E782E786D6C504B01021400140006080800CC70623B8D05915C650500003B10000034000000000000000000000000006E0800006662782F36394639363044362D344446342D343946362D394244322D32343142433338
310
46323333332F6F626A656374732E786D6C504B01021400140006080000CC70623B0000000000000000000000003500000000000000000000000000250E00006662782F36394639363044362D344446342D343946362D394244322D3234314243333846323333332F76657274696365732E62696E504B010214001400060808
310
00CC70623BF270F13306000000040000003600000000000000000000000000780E00006662782F36394639363044362D344446342D343946362D394244322D3234314243333846323333332F747269616E676C65732E62696E504B01021400140006080000CC70623B00000000000000000000000037000000000000000000
310
00000000D20E00006662782F36394639363044362D344446342D343946362D394244322D3234314243333846323333332F617474726962757465732E62696E504B01021400140006080800CC70623B08DA0BD190000000410100003600000000000000000000000000270F00006662782F36394639363044362D344446342D
310
343946362D394244322D3234314243333846323333332F6469726563746F72792E786D6C504B01021400140006080800CC70623BCA768048FE000000A00100003B000000000000000000000000000B1000006662782F36394639363044362D344446342D343946362D394244322D3234314243333846323333332F7265736F
310
75726365732F636F72652E786D6C504B0506000000000E000E0080040000621100000000
  0
XRECORD
  5
176
102
{ACAD_REACTORS
330
173
102
}
330
173
100
AcDbXrecord
280
     1
270
     1
271
     1
  0
XRECORD
  5
177
102
{ACAD_REACTORS
330
173
102
}
330
173
100
AcDbXrecord
280
     1
270
     1
271
     1
  0
XRECORD
  5
B5E
102
{ACAD_REACTORS
330
B5D
102
}
330
B5D
100
AcDbXrecord
280
     1
102
DISPLAYNAME
  1
Imperial24
102
FLAGS
 90
        0
  0
XRECORD
  5
B5A
102
{ACAD_REACTORS
330
B59
102
}
330
B59
100
AcDbXrecord
280
     1
102
DISPLAYNAME
  1
Metric50
102
FLAGS
 90
        0
  0
CELLSTYLEMAP
  5
B4F
102
{ACAD_REACTORS
330
162
102
}
330
162
100
AcDbCellStyleMap
 90
        3
300
CELLSTYLE
  1
TABLEFORMAT_BEGIN
 90
        5
170
     1
 91
        0
 92
    32768
 62
   257
 93
        1
300
CONTENTFORMAT
  1
CONTENTFORMAT_BEGIN
 90
        0
 91
        0
 92
      512
 93
        0
300

 40
0.0
140
1.0
 94
        5
 62
     0
340
11
144
6.0
309
CONTENTFORMAT_END
171
     1
301
MARGIN
  1
CELLMARGIN_BEGIN
 40
1.5
 40
1.5
 40
1.5
 40
1.5
 40
4.5
 40
4.5
309
CELLMARGIN_END
 94
        6
 95
        1
302
GRIDFORMAT
  1
GRIDFORMAT_BEGIN
 90
        0
 91
        1
 62
     0
 92
       -2
340
14
 93
        0
 40
1.125
309
GRIDFORMAT_END
 95
        2
302
GRIDFORMAT
  1
GRIDFORMAT_BEGIN
 90
        0
 91
        1
 62
     0
 92
       -2
340
14
 93
        0
 40
1.125
309
GRIDFORMAT_END
 95
        4
302
GRIDFORMAT
  1
GRIDFORMAT_BEGIN
 90
        0
 91
        1
 62
     0
 92
       -2
340
14
 93
        0
 40
1.125
309
GRIDFORMAT_END
 95
        8
302
GRIDFORMAT
  1
GRIDFORMAT_BEGIN
 90
        0
 91
        1
 62
     0
 92
       -2
340
14
 93
        0
 40
1.125
309
GRIDFORMAT_END
 95
       16
302
GRIDFORMAT
  1
GRIDFORMAT_BEGIN
 90
        0
 91
        1
 62
     0
 92
       -2
340
14
 93
        0
 40
1.125
309
GRIDFORMAT_END
 95
       32
302
GRIDFORMAT
  1
GRIDFORMAT_BEGIN
 90
        0
 91
        1
 62
     0
 92
       -2
340
14
 93
        0
 40
1.125
309
GRIDFORMAT_END
309
TABLEFORMAT_END
  1
CELLSTYLE_BEGIN
 90
        1
 91
        1
300
_TITLE
309
CELLSTYLE_END
300
CELLSTYLE
  1
TABLEFORMAT_BEGIN
 90
        5
170
     1
 91
        0
 92
        0
 62
   257
 93
        1
300
CONTENTFORMAT
  1
CONTENTFORMAT_BEGIN
 90
        0
 91
        0
 92
      512
 93
        0
300

 40
0.0
140
1.0
 94
        5
 62
     0
340
11
144
4.5
309
CONTENTFORMAT_END
171
     1
301
MARGIN
  1
CELLMARGIN_BEGIN
 40
1.5
 40
1.5
 40
1.5
 40
1.5
 40
4.5
 40
4.5
309
CELLMARGIN_END
 94
        6
 95
        1
302
GRIDFORMAT
  1
GRIDFORMAT_BEGIN
 90
        0
 91
        1
 62
     0
 92
       -2
340
14
 93
        0
 40
1.125
309
GRIDFORMAT_END
 95
        2
302
GRIDFORMAT
  1
GRIDFORMAT_BEGIN
 90
        0
 91
        1
 62
     0
 92
       -2
340
14
 93
        0
 40
1.125
309
GRIDFORMAT_END
 95
        4
302
GRIDFORMAT
  1
GRIDFORMAT_BEGIN
 90
        0
 91
        1
 62
     0
 92
       -2
340
14
 93
        0
 40
1.125
309
GRIDFORMAT_END
 95
        8
302
GRIDFORMAT
  1
GRIDFORMAT_BEGIN
 90
        0
 91
        1
 62
     0
 92
       -2
340
14
 93
        0
 40
1.125
309
GRIDFORMAT_END
 95
       16
302
GRIDFORMAT
  1
GRIDFORMAT_BEGIN
 90
        0
 91
        1
 62
     0
 92
       -2
340
14
 93
        0
 40
1.125
309
GRIDFORMAT_END
 95
       32
302
GRIDFORMAT
  1
GRIDFORMAT_BEGIN
 90
        0
 91
        1
 62
     0
 92
       -2
340
14
 93
        0
 40
1.125
309
GRIDFORMAT_END
309
TABLEFORMAT_END
  1
CELLSTYLE_BEGIN
 90
        2
 91
        1
300
_HEADER
309
CELLSTYLE_END
300
CELLSTYLE
  1
TABLEFORMAT_BEGIN
 90
        5
170
     1
 91
        0
 92
        0
 62
   257
 93
        1
300
CONTENTFORMAT
  1
CONTENTFORMAT_BEGIN
 90
        0
 91
        0
 92
      512
 93
        0
300

 40
0.0
140
1.0
 94
        2
 62
     0
340
11
144
4.5
309
CONTENTFORMAT_END
171
     1
301
MARGIN
  1
CELLMARGIN_BEGIN
 40
1.5
 40
1.5
 40
1.5
 40
1.5
 40
4.5
 40
4.5
309
CELLMARGIN_END
 94
        6
 95
        1
302
GRIDFORMAT
  1
GRIDFORMAT_BEGIN
 90
        0
 91
        1
 62
     0
 92
       -2
340
14
 93
        0
 40
1.125
309
GRIDFORMAT_END
 95
        2
302
GRIDFORMAT
  1
GRIDFORMAT_BEGIN
 90
        0
 91
        1
 62
     0
 92
       -2
340
14
 93
        0
 40
1.125
309
GRIDFORMAT_END
 95
        4
302
GRIDFORMAT
  1
GRIDFORMAT_BEGIN
 90
        0
 91
        1
 62
     0
 92
       -2
340
14
 93
        0
 40
1.125
309
GRIDFORMAT_END
 95
        8
302
GRIDFORMAT
  1
GRIDFORMAT_BEGIN
 90
        0
 91
        1
 62
     0
 92
       -2
340
14
 93
        0
 40
1.125
309
GRIDFORMAT_END
 95
       16
302
GRIDFORMAT
  1
GRIDFORMAT_BEGIN
 90
        0
 91
        1
 62
     0
 92
       -2
340
14
 93
        0
 40
1.125
309
GRIDFORMAT_END
 95
       32
302
GRIDFORMAT
  1
GRIDFORMAT_BEGIN
 90
        0
 91
        1
 62
     0
 92
       -2
340
14
 93
        0
 40
1.125
309
GRIDFORMAT_END
309
TABLEFORMAT_END
  1
CELLSTYLE_BEGIN
 90
        3
 91
        2
300
_DATA
309
CELLSTYLE_END
  0
ENDSEC
  0
SECTION
  2
ACDSDATA
 70
     2
 71
     8
  0
ACDSSCHEMA
 90
        0
  1
AcDb_Thumbnail_Schema
  2
AcDbDs::ID
280
    10
 91
        8
  2
Thumbnail_Data
280
    15
 91
        0
101
ACDSRECORD
 95
        0
 90
        1
  2
AcDbDs::TreatedAsObjectData
280
     1
291
     1
101
ACDSRECORD
 95
        0
 90
        2
  2
AcDbDs::Legacy
280
     1
291
     1
101
ACDSRECORD
  1
AcDbDs::ID
 90
        3
  2
AcDs:Indexable
280
     1
291
     1
101
ACDSRECORD
  1
AcDbDs::ID
 90
        4
  2
AcDbDs::HandleAttribute
280
     7
282
     1
  0
ACDSSCHEMA
 90
        1
  1
AcDbDs::TreatedAsObjectDataSchema
  2
AcDbDs::TreatedAsObjectData
280
     1
 91
        0
  0
ACDSSCHEMA
 90
        2
  1
AcDbDs::LegacySchema
  2
AcDbDs::Legacy
280
     1
 91
        0
  0
ACDSSCHEMA
 90
        3
  1
AcDbDs::IndexedPropertySchema
  2
AcDs:Indexable
280
     1
 91
        0
  0
ACDSSCHEMA
 90
        4
  1
AcDbDs::HandleAttributeSchema
  2
AcDbDs::HandleAttribute
280
     7
 91
        1
284
     1
  0
ACDSRECORD
 90
        0
  2
AcDbDs::ID
280
    10
320
22
  2
Thumbnail_Data
280
    15
 94
      896
310
89504E470D0A1A0A0000000D49484452000001000000009108030000001BE1960600000300504C5445212830FFFFFF2128300000000000000000000000000000000000000000000000000000330000660000990000CC0000FF0033000033330033660033990033CC0033FF0066000066330066660066990066CC0066FF0099
310
000099330099660099990099CC0099FF00CC0000CC3300CC6600CC9900CCCC00CCFF00FF0000FF3300FF6600FF9900FFCC00FFFF3300003300333300663300993300CC3300FF3333003333333333663333993333CC3333FF3366003366333366663366993366CC3366FF3399003399333399663399993399CC3399FF33CC00
310
33CC3333CC6633CC9933CCCC33CCFF33FF0033FF3333FF6633FF9933FFCC33FFFF6600006600336600666600996600CC6600FF6633006633336633666633996633CC6633FF6666006666336666666666996666CC6666FF6699006699336699666699996699CC6699FF66CC0066CC3366CC6666CC9966CCCC66CCFF66FF0066
310
FF3366FF6666FF9966FFCC66FFFF9900009900339900669900999900CC9900FF9933009933339933669933999933CC9933FF9966009966339966669966999966CC9966FF9999009999339999669999999999CC9999FF99CC0099CC3399CC6699CC9999CCCC99CCFF99FF0099FF3399FF6699FF9999FFCC99FFFFCC0000CC00
310
33CC0066CC0099CC00CCCC00FFCC3300CC3333CC3366CC3399CC33CCCC33FFCC6600CC6633CC6666CC6699CC66CCCC66FFCC9900CC9933CC9966CC9999CC99CCCC99FFCCCC00CCCC33CCCC66CCCC99CCCCCCCCCCFFCCFF00CCFF33CCFF66CCFF99CCFFCCCCFFFFFF0000FF0033FF0066FF0099FF00CCFF00FFFF3300FF3333
310
FF3366FF3399FF33CCFF33FFFF6600FF6633FF6666FF6699FF66CCFF66FFFF9900FF9933FF9966FF9999FF99CCFF99FFFFCC00FFCC33FFCC66FFCC99FFCCCCFFCCFFFFFF00FFFF33FFFF66FFFF99FFFFCCFFFFFF0000000D0D0D1A1A1A2828283535354343435050505D5D5D6B6B6B787878868686939393A1A1A1AEAEAEBB
310
BBBBC9C9C9D6D6D6E4E4E4F1F1F1FFFFFF0000000000000000000000000000000000000000000000000000000000002E4550F10000003B4944415478DAEDC13101000000C2A0F54F6D0B2FA0000000000000000000000000000000000000000000000000000000000000000000000000CE06919100016C9A5B1B0000000049
310
454E44AE426082
  0
ENDSEC
  0
EOF
