  0
SECTION
  2
HEADER
  9
$ACADVER
  1
AC1027
  9
$ACADMAINTVER
 70
   125
  9
$DWGCODEPAGE
  3
ANSI_1252
  9
$LASTSAVEDBY
  1
ufficio.tecnico
  9
$REQUIREDVERSIONS
160
                 0
  9
$INSBASE
 10
0.0
 20
0.0
 30
0.0
  9
$EXTMIN
 10
11.13239542364919
 20
-20.1787166290699
 30
0.0
  9
$EXTMAX
 10
21.17428259804198
 20
-2.946142306121103
 30
0.0
  9
$LIMMIN
 10
0.0
 20
0.0
  9
$LIMMAX
 10
12.0
 20
9.0
  9
$ORTHOMODE
 70
     0
  9
$REGENMODE
 70
     1
  9
$FILLMODE
 70
     1
  9
$QTEXTMODE
 70
     0
  9
$MIRRTEXT
 70
     1
  9
$LTSCALE
 40
1.0
  9
$ATTMODE
 70
     1
  9
$TEXTSIZE
 40
0.2
  9
$TRACEWID
 40
0.05
  9
$TEXTSTYLE
  7
Standard
  9
$CLAYER
  8
0
  9
$CELTYPE
  6
ByLayer
  9
$CECOLOR
 62
   256
  9
$CELTSCALE
 40
1.0
  9
$DISPSILH
 70
     0
  9
$DIMSCALE
 40
1.0
  9
$DIMASZ
 40
0.18
  9
$DIMEXO
 40
0.0625
  9
$DIMDLI
 40
0.38
  9
$DIMRND
 40
0.0
  9
$DIMDLE
 40
0.0
  9
$DIMEXE
 40
0.18
  9
$DIMTP
 40
0.0
  9
$DIMTM
 40
0.0
  9
$DIMTXT
 40
0.18
  9
$DIMCEN
 40
0.09
  9
$DIMTSZ
 40
0.0
  9
$DIMTOL
 70
     0
  9
$DIMLIM
 70
     0
  9
$DIMTIH
 70
     1
  9
$DIMTOH
 70
     1
  9
$DIMSE1
 70
     0
  9
$DIMSE2
 70
     0
  9
$DIMTAD
 70
     0
  9
$DIMZIN
 70
     0
  9
$DIMBLK
  1

  9
$DIMASO
 70
     1
  9
$DIMSHO
 70
     1
  9
$DIMPOST
  1

  9
$DIMAPOST
  1

  9
$DIMALT
 70
     0
  9
$DIMALTD
 70
     2
  9
$DIMALTF
 40
25.4
  9
$DIMLFAC
 40
1.0
  9
$DIMTOFL
 70
     0
  9
$DIMTVP
 40
0.0
  9
$DIMTIX
 70
     0
  9
$DIMSOXD
 70
     0
  9
$DIMSAH
 70
     0
  9
$DIMBLK1
  1

  9
$DIMBLK2
  1

  9
$DIMSTYLE
  2
Standard
  9
$DIMCLRD
 70
     0
  9
$DIMCLRE
 70
     0
  9
$DIMCLRT
 70
     0
  9
$DIMTFAC
 40
1.0
  9
$DIMGAP
 40
0.09
  9
$DIMJUST
 70
     0
  9
$DIMSD1
 70
     0
  9
$DIMSD2
 70
     0
  9
$DIMTOLJ
 70
     1
  9
$DIMTZIN
 70
     0
  9
$DIMALTZ
 70
     0
  9
$DIMALTTZ
 70
     0
  9
$DIMUPT
 70
     0
  9
$DIMDEC
 70
     4
  9
$DIMTDEC
 70
     4
  9
$DIMALTU
 70
     2
  9
$DIMALTTD
 70
     2
  9
$DIMTXSTY
  7
Standard
  9
$DIMAUNIT
 70
     0
  9
$DIMADEC
 70
     0
  9
$DIMALTRND
 40
0.0
  9
$DIMAZIN
 70
     0
  9
$DIMDSEP
 70
    46
  9
$DIMATFIT
 70
     3
  9
$DIMFRAC
 70
     0
  9
$DIMLDRBLK
  1

  9
$DIMLUNIT
 70
     2
  9
$DIMLWD
 70
    -2
  9
$DIMLWE
 70
    -2
  9
$DIMTMOVE
 70
     0
  9
$DIMFXL
 40
1.0
  9
$DIMFXLON
 70
     0
  9
$DIMJOGANG
 40
0.7853981633974483
  9
$DIMTFILL
 70
     0
  9
$DIMTFILLCLR
 70
     0
  9
$DIMARCSYM
 70
     0
  9
$DIMLTYPE
  6

  9
$DIMLTEX1
  6

  9
$DIMLTEX2
  6

  9
$DIMTXTDIRECTION
 70
     0
  9
$LUNITS
 70
     2
  9
$LUPREC
 70
     4
  9
$SKETCHINC
 40
0.1
  9
$FILLETRAD
 40
0.5
  9
$AUNITS
 70
     0
  9
$AUPREC
 70
     0
  9
$MENU
  1
.
  9
$ELEVATION
 40
0.0
  9
$PELEVATION
 40
0.0
  9
$THICKNESS
 40
0.0
  9
$LIMCHECK
 70
     0
  9
$CHAMFERA
 40
0.5
  9
$CHAMFERB
 40
0.5
  9
$CHAMFERC
 40
1.0
  9
$CHAMFERD
 40
0.0
  9
$SKPOLY
 70
     0
  9
$TDCREATE
 40
2459325.721099537
  9
$TDUCREATE
 40
2459325.637766331
  9
$TDUPDATE
 40
2459341.409166667
  9
$TDUUPDATE
 40
2459341.325833333
  9
$TDINDWG
 40
0.0019676042
  9
$TDUSRTIMER
 40
0.0019676042
  9
$USRTIMER
 70
     1
  9
$ANGBASE
 50
0.0
  9
$ANGDIR
 70
     0
  9
$PDMODE
 70
     0
  9
$PDSIZE
 40
0.0
  9
$PLINEWID
 40
0.0
  9
$SPLFRAME
 70
     0
  9
$SPLINETYPE
 70
     6
  9
$SPLINESEGS
 70
     8
  9
$HANDSEED
  5
2F5
  9
$SURFTAB1
 70
     6
  9
$SURFTAB2
 70
     6
  9
$SURFTYPE
 70
     6
  9
$SURFU
 70
     6
  9
$SURFV
 70
     6
  9
$UCSBASE
  2

  9
$UCSNAME
  2

  9
$UCSORG
 10
0.0
 20
0.0
 30
0.0
  9
$UCSXDIR
 10
1.0
 20
0.0
 30
0.0
  9
$UCSYDIR
 10
0.0
 20
1.0
 30
0.0
  9
$UCSORTHOREF
  2

  9
$UCSORTHOVIEW
 70
     0
  9
$UCSORGTOP
 10
0.0
 20
0.0
 30
0.0
  9
$UCSORGBOTTOM
 10
0.0
 20
0.0
 30
0.0
  9
$UCSORGLEFT
 10
0.0
 20
0.0
 30
0.0
  9
$UCSORGRIGHT
 10
0.0
 20
0.0
 30
0.0
  9
$UCSORGFRONT
 10
0.0
 20
0.0
 30
0.0
  9
$UCSORGBACK
 10
0.0
 20
0.0
 30
0.0
  9
$PUCSBASE
  2

  9
$PUCSNAME
  2

  9
$PUCSORG
 10
0.0
 20
0.0
 30
0.0
  9
$PUCSXDIR
 10
1.0
 20
0.0
 30
0.0
  9
$PUCSYDIR
 10
0.0
 20
1.0
 30
0.0
  9
$PUCSORTHOREF
  2

  9
$PUCSORTHOVIEW
 70
     0
  9
$PUCSORGTOP
 10
0.0
 20
0.0
 30
0.0
  9
$PUCSORGBOTTOM
 10
0.0
 20
0.0
 30
0.0
  9
$PUCSORGLEFT
 10
0.0
 20
0.0
 30
0.0
  9
$PUCSORGRIGHT
 10
0.0
 20
0.0
 30
0.0
  9
$PUCSORGFRONT
 10
0.0
 20
0.0
 30
0.0
  9
$PUCSORGBACK
 10
0.0
 20
0.0
 30
0.0
  9
$USERI1
 70
     0
  9
$USERI2
 70
     0
  9
$USERI3
 70
     0
  9
$USERI4
 70
     0
  9
$USERI5
 70
     0
  9
$USERR1
 40
0.0
  9
$USERR2
 40
0.0
  9
$USERR3
 40
0.0
  9
$USERR4
 40
0.0
  9
$USERR5
 40
0.0
  9
$WORLDVIEW
 70
     1
  9
$SHADEDGE
 70
     3
  9
$SHADEDIF
 70
    70
  9
$TILEMODE
 70
     1
  9
$MAXACTVP
 70
    64
  9
$PINSBASE
 10
0.0
 20
0.0
 30
0.0
  9
$PLIMCHECK
 70
     0
  9
$PEXTMIN
 10
1.000000000000000E+20
 20
1.000000000000000E+20
 30
1.000000000000000E+20
  9
$PEXTMAX
 10
-1.000000000000000E+20
 20
-1.000000000000000E+20
 30
-1.000000000000000E+20
  9
$PLIMMIN
 10
0.0
 20
0.0
  9
$PLIMMAX
 10
12.0
 20
9.0
  9
$UNITMODE
 70
     0
  9
$VISRETAIN
 70
     1
  9
$PLINEGEN
 70
     0
  9
$PSLTSCALE
 70
     1
  9
$TREEDEPTH
 70
  3020
  9
$CMLSTYLE
  2
Standard
  9
$CMLJUST
 70
     0
  9
$CMLSCALE
 40
1.0
  9
$PROXYGRAPHICS
 70
     1
  9
$MEASUREMENT
 70
     0
  9
$CELWEIGHT
370
    -1
  9
$ENDCAPS
280
     0
  9
$JOINSTYLE
280
     0
  9
$LWDISPLAY
290
     1
  9
$INSUNITS
 70
     5
  9
$HYPERLINKBASE
  1

  9
$STYLESHEET
  1

  9
$XEDIT
290
     1
  9
$CEPSNTYPE
380
     0
  9
$PSTYLEMODE
290
     1
  9
$FINGERPRINTGUID
  2
{D5C28889-4B9C-4109-825A-4B169D5081FD}
  9
$VERSIONGUID
  2
{AE6826C2-21CF-984C-9635-338CD4C34844}
  9
$EXTNAMES
290
     1
  9
$PSVPSCALE
 40
0.0
  9
$OLESTARTUP
290
     0
  9
$SORTENTS
280
   127
  9
$INDEXCTL
280
     0
  9
$HIDETEXT
280
     1
  9
$XCLIPFRAME
280
     2
  9
$HALOGAP
280
     0
  9
$OBSCOLOR
 70
   257
  9
$OBSLTYPE
280
     0
  9
$INTERSECTIONDISPLAY
280
     0
  9
$INTERSECTIONCOLOR
 70
   257
  9
$DIMASSOC
280
     2
  9
$PROJECTNAME
  1

  9
$CAMERADISPLAY
290
     0
  9
$LENSLENGTH
 40
50.0
  9
$CAMERAHEIGHT
 40
0.0
  9
$STEPSPERSEC
 40
2.0
  9
$STEPSIZE
 40
6.0
  9
$3DDWFPREC
 40
2.0
  9
$PSOLWIDTH
 40
0.25
  9
$PSOLHEIGHT
 40
4.0
  9
$LOFTANG1
 40
1.570796326794897
  9
$LOFTANG2
 40
1.570796326794897
  9
$LOFTMAG1
 40
0.0
  9
$LOFTMAG2
 40
0.0
  9
$LOFTPARAM
 70
     7
  9
$LOFTNORMALS
280
     1
  9
$LATITUDE
 40
37.795
  9
$LONGITUDE
 40
-122.394
  9
$NORTHDIRECTION
 40
0.0
  9
$TIMEZONE
 70
 -8000
  9
$LIGHTGLYPHDISPLAY
280
     1
  9
$TILEMODELIGHTSYNCH
280
     1
  9
$CMATERIAL
347
3C
  9
$SOLIDHIST
280
     1
  9
$SHOWHIST
280
     1
  9
$DWFFRAME
280
     2
  9
$DGNFRAME
280
     2
  9
$REALWORLDSCALE
290
     1
  9
$INTERFERECOLOR
 62
   256
  9
$INTERFEREOBJVS
345
33
  9
$INTERFEREVPVS
346
13B
  9
$CSHADOW
280
     0
  9
$SHADOWPLANELOCATION
 40
0.0
  0
ENDSEC
  0
SECTION
  2
CLASSES
  0
CLASS
  1
ACDBDICTIONARYWDFLT
  2
AcDbDictionaryWithDefault
  3
ObjectDBX Classes
 90
        0
 91
        1
280
     0
281
     0
  0
CLASS
  1
VISUALSTYLE
  2
AcDbVisualStyle
  3
ObjectDBX Classes
 90
     4095
 91
       26
280
     0
281
     0
  0
CLASS
  1
MATERIAL
  2
AcDbMaterial
  3
ObjectDBX Classes
 90
     1153
 91
        3
280
     0
281
     0
  0
CLASS
  1
SUN
  2
AcDbSun
  3
SCENEOE
 90
     1153
 91
        1
280
     0
281
     0
  0
CLASS
  1
TABLESTYLE
  2
AcDbTableStyle
  3
ObjectDBX Classes
 90
     4095
 91
        1
280
     0
281
     0
  0
CLASS
  1
SCALE
  2
AcDbScale
  3
ObjectDBX Classes
 90
     1153
 91
       21
280
     0
281
     0
  0
CLASS
  1
MLEADERSTYLE
  2
AcDbMLeaderStyle
  3
ACDB_MLEADERSTYLE_CLASS
 90
     4095
 91
        1
280
     0
281
     0
  0
CLASS
  1
ACDBSECTIONVIEWSTYLE
  2
AcDbSectionViewStyle
  3
ObjectDBX Classes
 90
     1025
 91
        1
280
     0
281
     0
  0
CLASS
  1
ACDBDETAILVIEWSTYLE
  2
AcDbDetailViewStyle
  3
ObjectDBX Classes
 90
     1025
 91
        1
280
     0
281
     0
  0
CLASS
  1
SORTENTSTABLE
  2
AcDbSortentsTable
  3
ObjectDBX Classes
 90
        0
 91
        1
280
     0
281
     0
  0
CLASS
  1
DICTIONARYVAR
  2
AcDbDictionaryVar
  3
ObjectDBX Classes
 90
        0
 91
        5
280
     0
281
     0
  0
CLASS
  1
CELLSTYLEMAP
  2
AcDbCellStyleMap
  3
ObjectDBX Classes
 90
     1152
 91
        5
280
     0
281
     0
  0
ENDSEC
  0
SECTION
  2
TABLES
  0
TABLE
  2
VPORT
  5
8
330
0
100
AcDbSymbolTable
 70
     1
1001
ACAD
1000
DbSaveVer
1071
      105
  0
VPORT
  5
29
330
8
100
AcDbSymbolTableRecord
100
AcDbViewportTableRecord
  2
*Active
 70
     0
 10
0.0
 20
0.0
 11
1.0
 21
1.0
 12
0.4733862924946024
 22
-4.839016247787888
 13
0.0
 23
0.0
 14
0.5
 24
0.5
 15
0.5
 25
0.5
 16
0.0
 26
0.0
 36
1.0
 17
14.84999673225613
 27
-10.50008306681943
 37
0.0
 40
34.1051915685851
 41
1.931468531468531
 42
50.0
 43
0.0
 44
0.0
 50
0.0
 51
0.0
 71
     0
 72
   100
 73
     1
 74
     3
 75
     0
 76
     0
 77
     0
 78
     0
281
     0
 65
     1
110
0.0
120
0.0
130
0.0
111
1.0
121
0.0
131
0.0
112
0.0
122
1.0
132
0.0
 79
     0
146
0.0
348
2F
 60
     3
 61
     5
292
     1
282
     1
141
0.0
142
0.0
 63
   250
361
3F
1001
ACAD_NAV_VCDISPLAY
1070
     3
  0
ENDTAB
  0
TABLE
  2
LTYPE
  5
5
330
0
100
AcDbSymbolTable
 70
     1
  0
LTYPE
  5
14
330
5
100
AcDbSymbolTableRecord
100
AcDbLinetypeTableRecord
  2
ByBlock
 70
     0
  3

 72
    65
 73
     0
 40
0.0
  0
LTYPE
  5
15
330
5
100
AcDbSymbolTableRecord
100
AcDbLinetypeTableRecord
  2
ByLayer
 70
     0
  3

 72
    65
 73
     0
 40
0.0
  0
LTYPE
  5
16
330
5
100
AcDbSymbolTableRecord
100
AcDbLinetypeTableRecord
  2
Continuous
 70
     0
  3
Solid line
 72
    65
 73
     0
 40
0.0
  0
ENDTAB
  0
TABLE
  2
LAYER
  5
2
330
0
100
AcDbSymbolTable
 70
     2
  0
LAYER
  5
10
330
2
100
AcDbSymbolTableRecord
100
AcDbLayerTableRecord
  2
0
 70
     0
 62
     7
  6
Continuous
370
    -3
390
F
347
3E
348
0
  0
LAYER
  5
40
330
2
100
AcDbSymbolTableRecord
100
AcDbLayerTableRecord
  2
Livello 3
 70
     0
 62
     7
  6
Continuous
370
    -3
390
F
347
3E
348
0
  0
ENDTAB
  0
TABLE
  2
STYLE
  5
3
330
0
100
AcDbSymbolTable
 70
     1
  0
STYLE
  5
11
330
3
100
AcDbSymbolTableRecord
100
AcDbTextStyleTableRecord
  2
Standard
 70
     0
 40
0.0
 41
1.0
 50
0.0
 71
     0
 42
0.2
  3
txt
  4

  0
ENDTAB
  0
TABLE
  2
VIEW
  5
6
330
0
100
AcDbSymbolTable
 70
     0
  0
ENDTAB
  0
TABLE
  2
UCS
  5
7
330
0
100
AcDbSymbolTable
 70
     0
  0
ENDTAB
  0
TABLE
  2
APPID
  5
9
330
0
100
AcDbSymbolTable
 70
     2
  0
APPID
  5
12
330
9
100
AcDbSymbolTableRecord
100
AcDbRegAppTableRecord
  2
ACAD
 70
     0
  0
APPID
  5
2D1
330
9
100
AcDbSymbolTableRecord
100
AcDbRegAppTableRecord
  2
ACAD_NAV_VCDISPLAY
 70
     0
  0
ENDTAB
  0
TABLE
  2
DIMSTYLE
  5
A
330
0
100
AcDbSymbolTable
 70
     1
100
AcDbDimStyleTable
 71
     0
  0
DIMSTYLE
105
27
330
A
100
AcDbSymbolTableRecord
100
AcDbDimStyleTableRecord
  2
Standard
 70
     0
340
11
  0
ENDTAB
  0
TABLE
  2
BLOCK_RECORD
  5
1
330
0
100
AcDbSymbolTable
 70
    21
  0
BLOCK_RECORD
  5
1F
102
{ACAD_XDICTIONARY
360
165
102
}
330
1
100
AcDbSymbolTableRecord
100
AcDbBlockTableRecord
  2
*Model_Space
340
22
 70
     0
280
     1
281
     0
  0
BLOCK_RECORD
  5
1B
330
1
100
AcDbSymbolTableRecord
100
AcDbBlockTableRecord
  2
*Paper_Space
340
1E
 70
     0
280
     1
281
     0
  0
BLOCK_RECORD
  5
23
330
1
100
AcDbSymbolTableRecord
100
AcDbBlockTableRecord
  2
*Paper_Space0
340
26
 70
     0
280
     1
281
     0
  0
BLOCK_RECORD
  5
41
330
1
100
AcDbSymbolTableRecord
100
AcDbBlockTableRecord
  2
block 2
340
0
 70
     0
280
     1
281
     0
  0
BLOCK_RECORD
  5
4C
330
1
100
AcDbSymbolTableRecord
100
AcDbBlockTableRecord
  2
block 3
340
0
 70
     0
280
     1
281
     0
  0
BLOCK_RECORD
  5
57
330
1
100
AcDbSymbolTableRecord
100
AcDbBlockTableRecord
  2
block 4
340
0
 70
     0
280
     1
281
     0
  0
BLOCK_RECORD
  5
62
330
1
100
AcDbSymbolTableRecord
100
AcDbBlockTableRecord
  2
block 5
340
0
 70
     0
280
     1
281
     0
  0
BLOCK_RECORD
  5
6D
330
1
100
AcDbSymbolTableRecord
100
AcDbBlockTableRecord
  2
block 6
340
0
 70
     0
280
     1
281
     0
  0
BLOCK_RECORD
  5
78
330
1
100
AcDbSymbolTableRecord
100
AcDbBlockTableRecord
  2
block 7
340
0
 70
     0
280
     1
281
     0
  0
BLOCK_RECORD
  5
83
330
1
100
AcDbSymbolTableRecord
100
AcDbBlockTableRecord
  2
block 8
340
0
 70
     0
280
     1
281
     0
  0
BLOCK_RECORD
  5
88
330
1
100
AcDbSymbolTableRecord
100
AcDbBlockTableRecord
  2
block 9
340
0
 70
     0
280
     1
281
     0
  0
BLOCK_RECORD
  5
8D
330
1
100
AcDbSymbolTableRecord
100
AcDbBlockTableRecord
  2
block 10
340
0
 70
     0
280
     1
281
     0
  0
BLOCK_RECORD
  5
92
330
1
100
AcDbSymbolTableRecord
100
AcDbBlockTableRecord
  2
block 11
340
0
 70
     0
280
     1
281
     0
  0
BLOCK_RECORD
  5
97
330
1
100
AcDbSymbolTableRecord
100
AcDbBlockTableRecord
  2
block 12
340
0
 70
     0
280
     1
281
     0
  0
BLOCK_RECORD
  5
9C
330
1
100
AcDbSymbolTableRecord
100
AcDbBlockTableRecord
  2
block 13
340
0
 70
     0
280
     1
281
     0
  0
BLOCK_RECORD
  5
A1
330
1
100
AcDbSymbolTableRecord
100
AcDbBlockTableRecord
  2
block 14
340
0
 70
     0
280
     1
281
     0
  0
BLOCK_RECORD
  5
AC
330
1
100
AcDbSymbolTableRecord
100
AcDbBlockTableRecord
  2
block 15
340
0
 70
     0
280
     1
281
     0
  0
BLOCK_RECORD
  5
B8
330
1
100
AcDbSymbolTableRecord
100
AcDbBlockTableRecord
  2
block 16
340
0
 70
     0
280
     1
281
     0
  0
BLOCK_RECORD
  5
D3
330
1
100
AcDbSymbolTableRecord
100
AcDbBlockTableRecord
  2
block 17
340
0
 70
     0
280
     1
281
     0
  0
BLOCK_RECORD
  5
E9
330
1
100
AcDbSymbolTableRecord
100
AcDbBlockTableRecord
  2
block 18
340
0
 70
     0
280
     1
281
     0
  0
BLOCK_RECORD
  5
108
330
1
100
AcDbSymbolTableRecord
100
AcDbBlockTableRecord
  2
block 19
340
0
 70
     0
280
     1
281
     0
  0
BLOCK_RECORD
  5
110
330
1
100
AcDbSymbolTableRecord
100
AcDbBlockTableRecord
  2
block 20
340
0
 70
     0
280
     1
281
     0
  0
BLOCK_RECORD
  5
12E
330
1
100
AcDbSymbolTableRecord
100
AcDbBlockTableRecord
  2
block 21
340
0
 70
     0
280
     1
281
     0
  0
ENDTAB
  0
ENDSEC
  0
SECTION
  2
BLOCKS
  0
BLOCK
  5
20
330
1F
100
AcDbEntity
  8
0
100
AcDbBlockBegin
  2
*Model_Space
 70
     0
 10
0.0
 20
0.0
 30
0.0
  3
*Model_Space
  1

  0
ENDBLK
  5
21
330
1F
100
AcDbEntity
  8
0
100
AcDbBlockEnd
  0
BLOCK
  5
1C
330
1B
100
AcDbEntity
 67
     1
  8
0
100
AcDbBlockBegin
  2
*Paper_Space
 70
     0
 10
0.0
 20
0.0
 30
0.0
  3
*Paper_Space
  1

  0
ENDBLK
  5
1D
330
1B
100
AcDbEntity
 67
     1
  8
0
100
AcDbBlockEnd
  0
BLOCK
  5
24
330
23
100
AcDbEntity
 67
     1
  8
0
100
AcDbBlockBegin
  2
*Paper_Space0
 70
     0
 10
0.0
 20
0.0
 30
0.0
  3
*Paper_Space0
  1

  0
ENDBLK
  5
25
330
23
100
AcDbEntity
 67
     1
  8
0
100
AcDbBlockEnd
  0
BLOCK
  5
43
330
41
100
AcDbEntity
  8
0
100
AcDbBlockBegin
  2
block 2
 70
     0
 10
0.0
 20
0.0
 30
0.0
  3
block 2
  1

  0
POLYLINE
  5
45
330
41
100
AcDbEntity
  8
Livello 3
 62
    28
420
  1118219
370
    70
100
AcDb2dPolyline
 66
     1
 10
0.0
 20
0.0
 30
0.0
  0
VERTEX
  5
46
330
45
100
AcDbEntity
  8
Livello 3
 62
    28
420
  1118219
370
    70
100
AcDbVertex
100
AcDb2dVertex
 10
13.34498679842991
 20
-6.317689081753911
 30
0.0
  0
VERTEX
  5
47
330
45
100
AcDbEntity
  8
Livello 3
 62
    28
420
  1118219
370
    70
100
AcDbVertex
100
AcDb2dVertex
 10
12.82886971901501
 20
-6.317689081753911
 30
0.0
  0
VERTEX
  5
48
330
45
100
AcDbEntity
  8
Livello 3
 62
    28
420
  1118219
370
    70
100
AcDbVertex
100
AcDb2dVertex
 10
12.82886971901501
 20
-6.8854708038342
 30
0.0
  0
VERTEX
  5
49
330
45
100
AcDbEntity
  8
Livello 3
 62
    28
420
  1118219
370
    70
100
AcDbVertex
100
AcDb2dVertex
 10
13.34498679842991
 20
-6.8854708038342
 30
0.0
  0
VERTEX
  5
4A
330
45
100
AcDbEntity
  8
Livello 3
 62
    28
420
  1118219
370
    70
100
AcDbVertex
100
AcDb2dVertex
 10
13.34498679842991
 20
-6.317689081753911
 30
0.0
  0
SEQEND
  5
4B
330
45
100
AcDbEntity
  8
Livello 3
 62
    28
420
  1118219
370
    70
  0
ENDBLK
  5
44
330
41
100
AcDbEntity
  8
0
100
AcDbBlockEnd
  0
BLOCK
  5
4E
330
4C
100
AcDbEntity
  8
0
100
AcDbBlockBegin
  2
block 3
 70
     0
 10
0.0
 20
0.0
 30
0.0
  3
block 3
  1

  0
POLYLINE
  5
50
330
4C
100
AcDbEntity
  8
Livello 3
 62
    28
420
  1118219
370
    70
100
AcDb2dPolyline
 66
     1
 10
0.0
 20
0.0
 30
0.0
  0
VERTEX
  5
51
330
50
100
AcDbEntity
  8
Livello 3
 62
    28
420
  1118219
370
    70
100
AcDbVertex
100
AcDb2dVertex
 10
14.30578763502895
 20
-6.642272859450529
 30
0.0
  0
VERTEX
  5
52
330
50
100
AcDbEntity
  8
Livello 3
 62
    28
420
  1118219
370
    70
100
AcDbVertex
100
AcDb2dVertex
 10
14.82190856630605
 20
-6.642272859450529
 30
0.0
  0
VERTEX
  5
53
330
50
100
AcDbEntity
  8
Livello 3
 62
    28
420
  1118219
370
    70
100
AcDbVertex
100
AcDb2dVertex
 10
14.82190856630605
 20
-18.31618693986541
 30
0.0
  0
VERTEX
  5
54
330
50
100
AcDbEntity
  8
Livello 3
 62
    28
420
  1118219
370
    70
100
AcDbVertex
100
AcDb2dVertex
 10
14.30578763502895
 20
-18.31618693986541
 30
0.0
  0
VERTEX
  5
55
330
50
100
AcDbEntity
  8
Livello 3
 62
    28
420
  1118219
370
    70
100
AcDbVertex
100
AcDb2dVertex
 10
14.30578763502895
 20
-6.642272859450529
 30
0.0
  0
SEQEND
  5
56
330
50
100
AcDbEntity
  8
Livello 3
 62
    28
420
  1118219
370
    70
  0
ENDBLK
  5
4F
330
4C
100
AcDbEntity
  8
0
100
AcDbBlockEnd
  0
BLOCK
  5
59
330
57
100
AcDbEntity
  8
0
100
AcDbBlockBegin
  2
block 4
 70
     0
 10
0.0
 20
0.0
 30
0.0
  3
block 4
  1

  0
POLYLINE
  5
5B
330
57
100
AcDbEntity
  8
Livello 3
 62
    28
420
  1118219
370
    70
100
AcDb2dPolyline
 66
     1
 10
0.0
 20
0.0
 30
0.0
  0
VERTEX
  5
5C
330
5B
100
AcDbEntity
  8
Livello 3
 62
    28
420
  1118219
370
    70
100
AcDbVertex
100
AcDb2dVertex
 10
14.22640205372091
 20
-18.40049730095545
 30
0.0
  0
VERTEX
  5
5D
330
5B
100
AcDbEntity
  8
Livello 3
 62
    28
420
  1118219
370
    70
100
AcDbVertex
100
AcDb2dVertex
 10
14.90129414761409
 20
-18.40049730095545
 30
0.0
  0
VERTEX
  5
5E
330
5B
100
AcDbEntity
  8
Livello 3
 62
    28
420
  1118219
370
    70
100
AcDbVertex
100
AcDb2dVertex
 10
14.90129414761409
 20
-18.31618693986541
 30
0.0
  0
VERTEX
  5
5F
330
5B
100
AcDbEntity
  8
Livello 3
 62
    28
420
  1118219
370
    70
100
AcDbVertex
100
AcDb2dVertex
 10
14.22640205372091
 20
-18.31618693986541
 30
0.0
  0
VERTEX
  5
60
330
5B
100
AcDbEntity
  8
Livello 3
 62
    28
420
  1118219
370
    70
100
AcDbVertex
100
AcDb2dVertex
 10
14.22640205372091
 20
-18.40049730095545
 30
0.0
  0
SEQEND
  5
61
330
5B
100
AcDbEntity
  8
Livello 3
 62
    28
420
  1118219
370
    70
  0
ENDBLK
  5
5A
330
57
100
AcDbEntity
  8
0
100
AcDbBlockEnd
  0
BLOCK
  5
64
330
62
100
AcDbEntity
  8
0
100
AcDbBlockBegin
  2
block 5
 70
     0
 10
0.0
 20
0.0
 30
0.0
  3
block 5
  1

  0
POLYLINE
  5
66
330
62
100
AcDbEntity
  8
Livello 3
 62
    28
420
  1118219
370
    70
100
AcDb2dPolyline
 66
     1
 10
0.0
 20
0.0
 30
0.0
  0
VERTEX
  5
67
330
66
100
AcDbEntity
  8
Livello 3
 62
    28
420
  1118219
370
    70
100
AcDbVertex
100
AcDb2dVertex
 10
15.78270940290509
 20
-6.317689081753911
 30
0.0
  0
VERTEX
  5
68
330
66
100
AcDbEntity
  8
Livello 3
 62
    28
420
  1118219
370
    70
100
AcDbVertex
100
AcDb2dVertex
 10
16.29882721814749
 20
-6.317689081753911
 30
0.0
  0
VERTEX
  5
69
330
66
100
AcDbEntity
  8
Livello 3
 62
    28
420
  1118219
370
    70
100
AcDbVertex
100
AcDb2dVertex
 10
16.29882721814749
 20
-6.8854708038342
 30
0.0
  0
VERTEX
  5
6A
330
66
100
AcDbEntity
  8
Livello 3
 62
    28
420
  1118219
370
    70
100
AcDbVertex
100
AcDb2dVertex
 10
15.78270940290509
 20
-6.8854708038342
 30
0.0
  0
VERTEX
  5
6B
330
66
100
AcDbEntity
  8
Livello 3
 62
    28
420
  1118219
370
    70
100
AcDbVertex
100
AcDb2dVertex
 10
15.78270940290509
 20
-6.317689081753911
 30
0.0
  0
SEQEND
  5
6C
330
66
100
AcDbEntity
  8
Livello 3
 62
    28
420
  1118219
370
    70
  0
ENDBLK
  5
65
330
62
100
AcDbEntity
  8
0
100
AcDbBlockEnd
  0
BLOCK
  5
6F
330
6D
100
AcDbEntity
  8
0
100
AcDbBlockBegin
  2
block 6
 70
     0
 10
0.0
 20
0.0
 30
0.0
  3
block 6
  1

  0
POLYLINE
  5
71
330
6D
100
AcDbEntity
  8
Livello 3
 62
    28
420
  1118219
370
    70
100
AcDb2dPolyline
 66
     1
 10
0.0
 20
0.0
 30
0.0
  0
VERTEX
  5
72
330
71
100
AcDbEntity
  8
Livello 3
 62
    28
420
  1118219
370
    70
100
AcDbVertex
100
AcDb2dVertex
 10
14.30578763502895
 20
-6.733017887205646
 30
0.0
  0
VERTEX
  5
73
330
71
100
AcDbEntity
  8
Livello 3
 62
    28
420
  1118219
370
    70
100
AcDbVertex
100
AcDb2dVertex
 10
13.34644729839265
 20
-6.55153135947323
 30
0.0
  0
VERTEX
  5
74
330
71
100
AcDbEntity
  8
Livello 3
 62
    28
420
  1118219
370
    70
100
AcDbVertex
100
AcDb2dVertex
 10
13.34644729839265
 20
-6.823762914960732
 30
0.0
  0
VERTEX
  5
75
330
71
100
AcDbEntity
  8
Livello 3
 62
    28
420
  1118219
370
    70
100
AcDbVertex
100
AcDb2dVertex
 10
14.30578763502895
 20
-7.005249442693116
 30
0.0
  0
VERTEX
  5
76
330
71
100
AcDbEntity
  8
Livello 3
 62
    28
420
  1118219
370
    70
100
AcDbVertex
100
AcDb2dVertex
 10
14.30578763502895
 20
-6.733017887205646
 30
0.0
  0
SEQEND
  5
77
330
71
100
AcDbEntity
  8
Livello 3
 62
    28
420
  1118219
370
    70
  0
ENDBLK
  5
70
330
6D
100
AcDbEntity
  8
0
100
AcDbBlockEnd
  0
BLOCK
  5
7A
330
78
100
AcDbEntity
  8
0
100
AcDbBlockBegin
  2
block 7
 70
     0
 10
0.0
 20
0.0
 30
0.0
  3
block 7
  1

  0
POLYLINE
  5
7C
330
78
100
AcDbEntity
  8
Livello 3
 62
    28
420
  1118219
370
    70
100
AcDb2dPolyline
 66
     1
 10
0.0
 20
0.0
 30
0.0
  0
VERTEX
  5
7D
330
7C
100
AcDbEntity
  8
Livello 3
 62
    28
420
  1118219
370
    70
100
AcDbVertex
100
AcDb2dVertex
 10
14.82190856630605
 20
-6.733017887205646
 30
0.0
  0
VERTEX
  5
7E
330
7C
100
AcDbEntity
  8
Livello 3
 62
    28
420
  1118219
370
    70
100
AcDbVertex
100
AcDb2dVertex
 10
15.78124890294235
 20
-6.55153135947323
 30
0.0
  0
VERTEX
  5
7F
330
7C
100
AcDbEntity
  8
Livello 3
 62
    28
420
  1118219
370
    70
100
AcDbVertex
100
AcDb2dVertex
 10
15.78124890294235
 20
-6.823762914960732
 30
0.0
  0
VERTEX
  5
80
330
7C
100
AcDbEntity
  8
Livello 3
 62
    28
420
  1118219
370
    70
100
AcDbVertex
100
AcDb2dVertex
 10
14.82190856630605
 20
-7.005249442693116
 30
0.0
  0
VERTEX
  5
81
330
7C
100
AcDbEntity
  8
Livello 3
 62
    28
420
  1118219
370
    70
100
AcDbVertex
100
AcDb2dVertex
 10
14.82190856630605
 20
-6.733017887205646
 30
0.0
  0
SEQEND
  5
82
330
7C
100
AcDbEntity
  8
Livello 3
 62
    28
420
  1118219
370
    70
  0
ENDBLK
  5
7B
330
78
100
AcDbEntity
  8
0
100
AcDbBlockEnd
  0
BLOCK
  5
85
330
83
100
AcDbEntity
  8
0
100
AcDbBlockBegin
  2
block 8
 70
     0
 10
0.0
 20
0.0
 30
0.0
  3
block 8
  1

  0
SPLINE
  5
87
330
83
100
AcDbEntity
  8
Livello 3
 62
   250
420
  1842203
370
    70
100
AcDbSpline
210
0.0
220
0.0
230
1.0
 70
     8
 71
     3
 72
    23
 73
    19
 74
     0
 42
0.000000001
 43
0.0000000001
 40
0.0
 40
0.0
 40
0.0
 40
0.0
 40
1.0
 40
1.0
 40
1.0
 40
2.0
 40
2.0
 40
2.0
 40
3.0
 40
3.0
 40
3.0
 40
4.0
 40
4.0
 40
4.0
 40
5.0
 40
5.0
 40
5.0
 40
6.0
 40
6.0
 40
6.0
 40
6.0
 10
16.05539250705948
 20
-4.029911082325846
 30
0.0
 10
15.97206992585188
 20
-4.029911082325846
 30
0.0
 10
15.89012317794251
 20
-4.051137721209435
 30
0.0
 10
15.81727809646762
 20
-4.091587221199323
 30
0.0
 10
15.39924388503905
 20
-4.29387705448208
 30
0.0
 10
15.22434686159455
 20
-4.796751193245266
 30
0.0
 10
15.42663668976704
 20
-5.214785804251865
 30
0.0
 10
15.44492116152279
 20
-5.252571832020202
 30
0.0
 10
15.46600668876263
 20
-5.288936165344427
 30
0.0
 10
15.48972393815755
 20
-5.323571887558007
 30
0.0
 10
15.54174807571919
 20
-5.401070109760847
 30
0.0
 10
15.62790699018776
 20
-5.44878330419336
 30
0.0
 10
15.7212025989187
 20
-5.45176074863705
 30
0.0
 10
15.7212025989187
 20
-5.45176074863705
 30
0.0
 10
15.80993679109935
 20
-5.45176074863705
 30
0.0
 10
15.80993679109935
 20
-5.45176074863705
 30
0.0
 10
15.80993679109935
 20
-5.45176074863705
 30
0.0
 10
16.30085175079729
 20
-5.45176074863705
 30
0.0
 10
16.30085175079729
 20
-5.45176074863705
 30
0.0
  0
ENDBLK
  5
86
330
83
100
AcDbEntity
  8
0
100
AcDbBlockEnd
  0
BLOCK
  5
8A
330
88
100
AcDbEntity
  8
0
100
AcDbBlockBegin
  2
block 9
 70
     0
 10
0.0
 20
0.0
 30
0.0
  3
block 9
  1

  0
SPLINE
  5
8C
330
88
100
AcDbEntity
  8
Livello 3
 62
   250
420
  1842203
370
    70
100
AcDbSpline
210
0.0
220
0.0
230
1.0
 70
     8
 71
     3
 72
    20
 73
    16
 74
     0
 42
0.000000001
 43
0.0000000001
 40
0.0
 40
0.0
 40
0.0
 40
0.0
 40
1.0
 40
1.0
 40
1.0
 40
2.0
 40
2.0
 40
2.0
 40
3.0
 40
3.0
 40
3.0
 40
4.0
 40
4.0
 40
4.0
 40
5.0
 40
5.0
 40
5.0
 40
5.0
 10
16.30085175079729
 20
-5.45176074863705
 30
0.0
 10
16.30085175079729
 20
-5.45176074863705
 30
0.0
 10
16.38958594297793
 20
-5.45176074863705
 30
0.0
 10
16.38958594297793
 20
-5.45176074863705
 30
0.0
 10
16.48288155170888
 20
-5.44878330419336
 30
0.0
 10
16.56903693839976
 20
-5.401070109760847
 30
0.0
 10
16.62106460373909
 20
-5.323571887558007
 30
0.0
 10
16.88343248593442
 20
-4.940377609876011
 30
0.0
 10
16.78548726621099
 20
-4.417045887784617
 30
0.0
 10
16.40229299820931
 20
-4.154677998961341
 30
0.0
 10
16.36765727687072
 20
-4.130960748967265
 30
0.0
 10
16.33129294446512
 20
-4.109871693416966
 30
0.0
 10
16.29351044542903
 20
-4.091587221199323
 30
0.0
 10
16.22066536395413
 20
-4.051137721209435
 30
0.0
 10
16.13871508826707
 20
-4.029911082325846
 30
0.0
 10
16.05539250705948
 20
-4.029911082325846
 30
0.0
  0
ENDBLK
  5
8B
330
88
100
AcDbEntity
  8
0
100
AcDbBlockEnd
  0
BLOCK
  5
8F
330
8D
100
AcDbEntity
  8
0
100
AcDbBlockBegin
  2
block 10
 70
     0
 10
0.0
 20
0.0
 30
0.0
  3
block 10
  1

  0
SPLINE
  5
91
330
8D
100
AcDbEntity
  8
Livello 3
 62
   250
420
  1842203
370
    70
100
AcDbSpline
210
0.0
220
0.0
230
1.0
 70
     8
 71
     3
 72
    23
 73
    19
 74
     0
 42
0.000000001
 43
0.0000000001
 40
0.0
 40
0.0
 40
0.0
 40
0.0
 40
1.0
 40
1.0
 40
1.0
 40
2.0
 40
2.0
 40
2.0
 40
3.0
 40
3.0
 40
3.0
 40
4.0
 40
4.0
 40
4.0
 40
5.0
 40
5.0
 40
5.0
 40
6.0
 40
6.0
 40
6.0
 40
6.0
 10
20.462722783508
 20
-4.029911082325846
 30
0.0
 10
20.37940020230041
 20
-4.029911082325846
 30
0.0
 10
20.29745345439104
 20
-4.051137721209435
 30
0.0
 10
20.22460888383274
 20
-4.091587221199323
 30
0.0
 10
19.80657377246998
 20
-4.29387705448208
 30
0.0
 10
19.63167713804308
 20
-4.796751193245266
 30
0.0
 10
19.83396696621557
 20
-5.214785804251865
 30
0.0
 10
19.85225193948138
 20
-5.252571832020202
 30
0.0
 10
19.87333696521116
 20
-5.288936165344427
 30
0.0
 10
19.89705471724797
 20
-5.323571887558007
 30
0.0
 10
19.94907835216771
 20
-5.401070109760847
 30
0.0
 10
20.03523777276896
 20
-5.44878330419336
 30
0.0
 10
20.12853287536723
 20
-5.45176074863705
 30
0.0
 10
20.12853287536723
 20
-5.45176074863705
 30
0.0
 10
20.21726706754788
 20
-5.45176074863705
 30
0.0
 10
20.21726706754788
 20
-5.45176074863705
 30
0.0
 10
20.21726706754788
 20
-5.45176074863705
 30
0.0
 10
20.70818202724582
 20
-5.45176074863705
 30
0.0
 10
20.70818202724582
 20
-5.45176074863705
 30
0.0
  0
ENDBLK
  5
90
330
8D
100
AcDbEntity
  8
0
100
AcDbBlockEnd
  0
BLOCK
  5
94
330
92
100
AcDbEntity
  8
0
100
AcDbBlockBegin
  2
block 11
 70
     0
 10
0.0
 20
0.0
 30
0.0
  3
block 11
  1

  0
SPLINE
  5
96
330
92
100
AcDbEntity
  8
Livello 3
 62
   250
420
  1842203
370
    70
100
AcDbSpline
210
0.0
220
0.0
230
1.0
 70
     8
 71
     3
 72
    20
 73
    16
 74
     0
 42
0.000000001
 43
0.0000000001
 40
0.0
 40
0.0
 40
0.0
 40
0.0
 40
1.0
 40
1.0
 40
1.0
 40
2.0
 40
2.0
 40
2.0
 40
3.0
 40
3.0
 40
3.0
 40
4.0
 40
4.0
 40
4.0
 40
5.0
 40
5.0
 40
5.0
 40
5.0
 10
20.70818202724582
 20
-5.45176074863705
 30
0.0
 10
20.70818202724582
 20
-5.45176074863705
 30
0.0
 10
20.79691621942646
 20
-5.45176074863705
 30
0.0
 10
20.79691621942646
 20
-5.45176074863705
 30
0.0
 10
20.8902118281574
 20
-5.44878330419336
 30
0.0
 10
20.97636721484828
 20
-5.401070109760847
 30
0.0
 10
21.02839488018762
 20
-5.323571887558007
 30
0.0
 10
21.29076276238294
 20
-4.940377609876011
 30
0.0
 10
21.19281754265951
 20
-4.417045887784617
 30
0.0
 10
20.80962327465783
 20
-4.154677998961341
 30
0.0
 10
20.77498755331924
 20
-4.130960748967265
 30
0.0
 10
20.73862322091364
 20
-4.109871693416966
 30
0.0
 10
20.70084072187755
 20
-4.091587221199323
 30
0.0
 10
20.62799564040265
 20
-4.051137721209435
 30
0.0
 10
20.5460453647156
 20
-4.029911082325846
 30
0.0
 10
20.462722783508
 20
-4.029911082325846
 30
0.0
  0
ENDBLK
  5
95
330
92
100
AcDbEntity
  8
0
100
AcDbBlockEnd
  0
BLOCK
  5
99
330
97
100
AcDbEntity
  8
0
100
AcDbBlockBegin
  2
block 12
 70
     0
 10
0.0
 20
0.0
 30
0.0
  3
block 12
  1

  0
SPLINE
  5
9B
330
97
100
AcDbEntity
  8
Livello 3
 62
   250
420
  1842203
370
    70
100
AcDbSpline
210
0.0
220
0.0
230
1.0
 70
     8
 71
     3
 72
    23
 73
    19
 74
     0
 42
0.000000001
 43
0.0000000001
 40
0.0
 40
0.0
 40
0.0
 40
0.0
 40
1.0
 40
1.0
 40
1.0
 40
2.0
 40
2.0
 40
2.0
 40
3.0
 40
3.0
 40
3.0
 40
4.0
 40
4.0
 40
4.0
 40
5.0
 40
5.0
 40
5.0
 40
6.0
 40
6.0
 40
6.0
 40
6.0
 10
13.07777527746927
 20
-4.029911082325846
 30
0.0
 10
12.99445269626167
 20
-4.029911082325846
 30
0.0
 10
12.9125059483523
 20
-4.051137721209435
 30
0.0
 10
12.8396608668774
 20
-4.091587221199323
 30
0.0
 10
12.42162626643124
 20
-4.29387705448208
 30
0.0
 10
12.24672963200434
 20
-4.796751193245266
 30
0.0
 10
12.44901946017683
 20
-5.214785804251865
 30
0.0
 10
12.46730393193258
 20
-5.252571832020202
 30
0.0
 10
12.48838945917242
 20
-5.288936165344427
 30
0.0
 10
12.51210670856734
 20
-5.323571887558007
 30
0.0
 10
12.56413084612898
 20
-5.401070109760847
 30
0.0
 10
12.65028623281986
 20
-5.44878330419336
 30
0.0
 10
12.74358536932849
 20
-5.45176074863705
 30
0.0
 10
12.74358536932849
 20
-5.45176074863705
 30
0.0
 10
12.83231956150914
 20
-5.45176074863705
 30
0.0
 10
12.83231956150914
 20
-5.45176074863705
 30
0.0
 10
12.83231956150914
 20
-5.45176074863705
 30
0.0
 10
13.32323452120708
 20
-5.45176074863705
 30
0.0
 10
13.32323452120708
 20
-5.45176074863705
 30
0.0
  0
ENDBLK
  5
9A
330
97
100
AcDbEntity
  8
0
100
AcDbBlockEnd
  0
BLOCK
  5
9E
330
9C
100
AcDbEntity
  8
0
100
AcDbBlockBegin
  2
block 13
 70
     0
 10
0.0
 20
0.0
 30
0.0
  3
block 13
  1

  0
SPLINE
  5
A0
330
9C
100
AcDbEntity
  8
Livello 3
 62
   250
420
  1842203
370
    70
100
AcDbSpline
210
0.0
220
0.0
230
1.0
 70
     8
 71
     3
 72
    20
 73
    16
 74
     0
 42
0.000000001
 43
0.0000000001
 40
0.0
 40
0.0
 40
0.0
 40
0.0
 40
1.0
 40
1.0
 40
1.0
 40
2.0
 40
2.0
 40
2.0
 40
3.0
 40
3.0
 40
3.0
 40
4.0
 40
4.0
 40
4.0
 40
5.0
 40
5.0
 40
5.0
 40
5.0
 10
13.32323452120708
 20
-5.45176074863705
 30
0.0
 10
13.32323452120708
 20
-5.45176074863705
 30
0.0
 10
13.41196871338773
 20
-5.45176074863705
 30
0.0
 10
13.41196871338773
 20
-5.45176074863705
 30
0.0
 10
13.50526432211867
 20
-5.44878330419336
 30
0.0
 10
13.59141970880955
 20
-5.401070109760847
 30
0.0
 10
13.64344737414888
 20
-5.323571887558007
 30
0.0
 10
13.90581525634421
 20
-4.940377609876011
 30
0.0
 10
13.80787003662078
 20
-4.417045887784617
 30
0.0
 10
13.42467610775496
 20
-4.154677998961341
 30
0.0
 10
13.39004004728051
 20
-4.130960748967265
 30
0.0
 10
13.3536757148749
 20
-4.109871693416966
 30
0.0
 10
13.31588968806113
 20
-4.091587221199323
 30
0.0
 10
13.24304813436392
 20
-4.051137721209435
 30
0.0
 10
13.16109785867686
 20
-4.029911082325846
 30
0.0
 10
13.07777527746927
 20
-4.029911082325846
 30
0.0
  0
ENDBLK
  5
9F
330
9C
100
AcDbEntity
  8
0
100
AcDbBlockEnd
  0
BLOCK
  5
A3
330
A1
100
AcDbEntity
  8
0
100
AcDbBlockBegin
  2
block 14
 70
     0
 10
0.0
 20
0.0
 30
0.0
  3
block 14
  1

  0
POLYLINE
  5
A5
330
A1
100
AcDbEntity
  8
Livello 3
 62
   250
420
  1842203
370
    70
100
AcDb2dPolyline
 66
     1
 10
0.0
 20
0.0
 30
0.0
  0
VERTEX
  5
A6
330
A5
100
AcDbEntity
  8
Livello 3
 62
   250
420
  1842203
370
    70
100
AcDbVertex
100
AcDb2dVertex
 10
20.19193409597195
 20
-6.642272859450529
 30
0.0
  0
VERTEX
  5
A7
330
A5
100
AcDbEntity
  8
Livello 3
 62
   250
420
  1842203
370
    70
100
AcDbVertex
100
AcDb2dVertex
 10
20.70805555037854
 20
-6.642272859450529
 30
0.0
  0
VERTEX
  5
A8
330
A5
100
AcDbEntity
  8
Livello 3
 62
   250
420
  1842203
370
    70
100
AcDbVertex
100
AcDb2dVertex
 10
20.70805555037854
 20
-18.31618693986541
 30
0.0
  0
VERTEX
  5
A9
330
A5
100
AcDbEntity
  8
Livello 3
 62
   250
420
  1842203
370
    70
100
AcDbVertex
100
AcDb2dVertex
 10
20.19193409597195
 20
-18.31618693986541
 30
0.0
  0
VERTEX
  5
AA
330
A5
100
AcDbEntity
  8
Livello 3
 62
   250
420
  1842203
370
    70
100
AcDbVertex
100
AcDb2dVertex
 10
20.19193409597195
 20
-6.642272859450529
 30
0.0
  0
SEQEND
  5
AB
330
A5
100
AcDbEntity
  8
Livello 3
 62
   250
420
  1842203
370
    70
  0
ENDBLK
  5
A4
330
A1
100
AcDbEntity
  8
0
100
AcDbBlockEnd
  0
BLOCK
  5
AE
330
AC
100
AcDbEntity
  8
0
100
AcDbBlockBegin
  2
block 15
 70
     0
 10
0.0
 20
0.0
 30
0.0
  3
block 15
  1

  0
POLYLINE
  5
B0
330
AC
100
AcDbEntity
  8
Livello 3
 62
   250
420
  1842203
370
    70
100
AcDb2dPolyline
 66
     1
 10
0.0
 20
0.0
 30
0.0
  0
VERTEX
  5
B1
330
B0
100
AcDbEntity
  8
Livello 3
 62
   250
420
  1842203
370
    70
100
AcDbVertex
100
AcDb2dVertex
 10
20.7044637495629
 20
-6.317689081753911
 30
0.0
  0
VERTEX
  5
B2
330
B0
100
AcDbEntity
  8
Livello 3
 62
   250
420
  1842203
370
    70
100
AcDbVertex
100
AcDb2dVertex
 10
20.18834634606348
 20
-6.317689081753911
 30
0.0
  0
VERTEX
  5
B3
330
B0
100
AcDbEntity
  8
Livello 3
 62
   250
420
  1842203
370
    70
100
AcDbVertex
100
AcDb2dVertex
 10
20.18834634606348
 20
-6.8854708038342
 30
0.0
  0
VERTEX
  5
B4
330
B0
100
AcDbEntity
  8
Livello 3
 62
   250
420
  1842203
370
    70
100
AcDbVertex
100
AcDb2dVertex
 10
20.7044637495629
 20
-6.8854708038342
 30
0.0
  0
VERTEX
  5
B5
330
B0
100
AcDbEntity
  8
Livello 3
 62
   250
420
  1842203
370
    70
100
AcDbVertex
100
AcDb2dVertex
 10
20.7044637495629
 20
-6.317689081753911
 30
0.0
  0
SEQEND
  5
B7
330
B0
100
AcDbEntity
  8
Livello 3
 62
   250
420
  1842203
370
    70
  0
HATCH
  5
B6
330
AC
100
AcDbEntity
  8
Livello 3
 62
    18
420
        0
100
AcDbHatch
 10
0.0
 20
0.0
 30
0.0
210
0.0
220
0.0
230
1.0
  2
SOLID
 70
     1
 71
     0
 91
        1
 92
        1
 93
        4
 72
     1
 10
20.7044637495629
 20
-6.317689081753911
 11
20.18834634606348
 21
-6.317689081753911
 72
     1
 10
20.18834634606348
 20
-6.317689081753911
 11
20.18834634606348
 21
-6.8854708038342
 72
     1
 10
20.18834634606348
 20
-6.8854708038342
 11
20.7044637495629
 21
-6.8854708038342
 72
     1
 10
20.7044637495629
 20
-6.8854708038342
 11
20.7044637495629
 21
-6.317689081753911
 97
        0
 75
     2
 76
     1
 98
        0
450
        0
451
        0
460
0.0
461
0.0
452
        0
462
0.0
453
        0
470

  0
ENDBLK
  5
AF
330
AC
100
AcDbEntity
  8
0
100
AcDbBlockEnd
  0
BLOCK
  5
BA
330
B8
100
AcDbEntity
  8
0
100
AcDbBlockBegin
  2
block 16
 70
     0
 10
0.0
 20
0.0
 30
0.0
  3
block 16
  1

  0
POLYLINE
  5
BC
330
B8
100
AcDbEntity
  8
Livello 3
 62
   250
420
  1842203
370
    70
100
AcDb2dPolyline
 66
     1
 10
0.0
 20
0.0
 30
0.0
  0
VERTEX
  5
BD
330
BC
100
AcDbEntity
  8
Livello 3
 62
   250
420
  1842203
370
    70
100
AcDbVertex
100
AcDb2dVertex
 10
20.11254851466391
 20
-18.40049730095545
 30
0.0
  0
VERTEX
  5
BE
330
BC
100
AcDbEntity
  8
Livello 3
 62
   250
420
  1842203
370
    70
100
AcDbVertex
100
AcDb2dVertex
 10
20.78744060855709
 20
-18.40049730095545
 30
0.0
  0
VERTEX
  5
BF
330
BC
100
AcDbEntity
  8
Livello 3
 62
   250
420
  1842203
370
    70
100
AcDbVertex
100
AcDb2dVertex
 10
20.78744060855709
 20
-18.31618693986541
 30
0.0
  0
VERTEX
  5
C0
330
BC
100
AcDbEntity
  8
Livello 3
 62
   250
420
  1842203
370
    70
100
AcDbVertex
100
AcDb2dVertex
 10
20.11254851466391
 20
-18.31618693986541
 30
0.0
  0
VERTEX
  5
C1
330
BC
100
AcDbEntity
  8
Livello 3
 62
   250
420
  1842203
370
    70
100
AcDbVertex
100
AcDb2dVertex
 10
20.11254851466391
 20
-18.40049730095545
 30
0.0
  0
SEQEND
  5
C2
330
BC
100
AcDbEntity
  8
Livello 3
 62
   250
420
  1842203
370
    70
  0
ENDBLK
  5
BB
330
B8
100
AcDbEntity
  8
0
100
AcDbBlockEnd
  0
BLOCK
  5
D5
330
D3
100
AcDbEntity
  8
0
100
AcDbBlockBegin
  2
block 17
 70
     0
 10
0.0
 20
0.0
 30
0.0
  3
block 17
  1

  0
SPLINE
  5
D7
330
D3
100
AcDbEntity
  8
Livello 3
370
     0
100
AcDbSpline
210
0.0
220
0.0
230
1.0
 70
    11
 71
     3
 72
    50
 73
    46
 74
     0
 42
0.000000001
 43
0.0000000001
 40
0.0
 40
0.0
 40
0.0
 40
0.0
 40
1.0
 40
1.0
 40
1.0
 40
2.0
 40
2.0
 40
2.0
 40
3.0
 40
3.0
 40
3.0
 40
4.0
 40
4.0
 40
4.0
 40
5.0
 40
5.0
 40
5.0
 40
6.0
 40
6.0
 40
6.0
 40
7.0
 40
7.0
 40
7.0
 40
8.0
 40
8.0
 40
8.0
 40
9.0
 40
9.0
 40
9.0
 40
10.0
 40
10.0
 40
10.0
 40
11.0
 40
11.0
 40
11.0
 40
12.0
 40
12.0
 40
12.0
 40
13.0
 40
13.0
 40
13.0
 40
14.0
 40
14.0
 40
14.0
 40
15.0
 40
15.0
 40
15.0
 40
15.0
 10
13.99056721655444
 20
-19.58684922470398
 30
0.0
 10
13.99056721655444
 20
-19.58684922470398
 30
0.0
 10
13.78057142125104
 20
-19.58684922470398
 30
0.0
 10
13.78057142125104
 20
-19.58684922470398
 30
0.0
 10
13.78057142125104
 20
-19.58684922470398
 30
0.0
 10
13.75940130949418
 20
-19.72827039437349
 30
0.0
 10
13.75940130949418
 20
-19.72827039437349
 30
0.0
 10
13.77209648635732
 20
-19.72658229758571
 30
0.0
 10
13.78396484030401
 20
-19.72485974984309
 30
0.0
 10
13.80427367818956
 20
-19.72485974984309
 30
0.0
 10
13.84661390170328
 20
-19.72485974984309
 30
0.0
 10
13.888954125217
 20
-19.73419595860812
 30
0.0
 10
13.922819413837
 20
-19.75452202197109
 30
0.0
 10
13.96600368574461
 20
-19.77905110182607
 30
0.0
 10
14.00157429662981
 20
-19.82649006665796
 30
0.0
 10
14.00157429662981
 20
-19.89590874068573
 30
0.0
 10
14.00157429662981
 20
-20.00346462173524
 30
0.0
 10
13.91604980120849
 20
-20.08390760131583
 30
0.0
 10
13.79666001716715
 20
-20.08390760131583
 30
0.0
 10
13.73654310094954
 20
-20.08390760131583
 30
0.0
 10
13.68572794254211
 20
-20.0669577315284
 30
0.0
 10
13.65949354042193
 20
-20.05000786174097
 30
0.0
 10
13.65949354042193
 20
-20.05000786174097
 30
0.0
 10
13.67811428151971
 20
-19.99330159005376
 30
0.0
 10
13.67811428151971
 20
-19.99330159005376
 30
0.0
 10
13.70097249006434
 20
-20.00684081531079
 30
0.0
 10
13.74586208423714
 20
-20.02379068509822
 30
0.0
 10
13.79581596877327
 20
-20.02379068509822
 30
0.0
 10
13.86609591667236
 20
-20.02379068509822
 30
0.0
 10
13.92621283288997
 20
-19.9780398170541
 30
0.0
 10
13.92621283288997
 20
-19.90438367557946
 30
0.0
 10
13.92536878449609
 20
-19.83324245380905
 30
0.0
 10
13.87794704514162
 20
-19.78246174635646
 30
0.0
 10
13.76787624438789
 20
-19.78246174635646
 30
0.0
 10
13.73654310094954
 20
-19.78246174635646
 30
0.0
 10
13.71197957013971
 20
-19.78583793993201
 30
0.0
 10
13.69167073225417
 20
-19.7883873105911
 30
0.0
 10
13.69167073225417
 20
-19.7883873105911
 30
0.0
 10
13.72722411766194
 20
-19.52418293782729
 30
0.0
 10
13.72722411766194
 20
-19.52418293782729
 30
0.0
 10
13.72722411766194
 20
-19.52418293782729
 30
0.0
 10
13.99056721655444
 20
-19.52418293782729
 30
0.0
 10
13.99056721655444
 20
-19.52418293782729
 30
0.0
 10
13.99056721655444
 20
-19.52418293782729
 30
0.0
 10
13.99056721655444
 20
-19.58684922470398
 30
0.0
 10
13.99056721655444
 20
-19.58684922470398
 30
0.0
  0
HATCH
  5
D8
330
D3
100
AcDbEntity
  8
Livello 3
 62
   250
420
  1842203
100
AcDbHatch
 10
0.0
 20
0.0
 30
0.0
210
0.0
220
0.0
230
1.0
  2
SOLID
 70
     1
 71
     0
 91
        1
 92
        1
 93
        1
 72
     4
 94
        3
 73
     0
 74
     0
 95
       50
 96
       46
 40
0.0
 40
0.0
 40
0.0
 40
0.0
 40
1.0
 40
1.0
 40
1.0
 40
2.0
 40
2.0
 40
2.0
 40
3.0
 40
3.0
 40
3.0
 40
4.0
 40
4.0
 40
4.0
 40
5.0
 40
5.0
 40
5.0
 40
6.0
 40
6.0
 40
6.0
 40
7.0
 40
7.0
 40
7.0
 40
8.0
 40
8.0
 40
8.0
 40
9.0
 40
9.0
 40
9.0
 40
10.0
 40
10.0
 40
10.0
 40
11.0
 40
11.0
 40
11.0
 40
12.0
 40
12.0
 40
12.0
 40
13.0
 40
13.0
 40
13.0
 40
14.0
 40
14.0
 40
14.0
 40
15.0
 40
15.0
 40
15.0
 40
15.0
 10
13.99056721655444
 20
-19.58684922470398
 10
13.99056721655444
 20
-19.58684922470398
 10
13.78057142125104
 20
-19.58684922470398
 10
13.78057142125104
 20
-19.58684922470398
 10
13.78057142125104
 20
-19.58684922470398
 10
13.75940130949418
 20
-19.72827039437349
 10
13.75940130949418
 20
-19.72827039437349
 10
13.77209648635732
 20
-19.72658229758571
 10
13.78396484030401
 20
-19.72485974984309
 10
13.80427367818956
 20
-19.72485974984309
 10
13.84661390170328
 20
-19.72485974984309
 10
13.888954125217
 20
-19.73419595860812
 10
13.922819413837
 20
-19.75452202197109
 10
13.96600368574461
 20
-19.77905110182607
 10
14.00157429662981
 20
-19.82649006665796
 10
14.00157429662981
 20
-19.89590874068573
 10
14.00157429662981
 20
-20.00346462173524
 10
13.91604980120849
 20
-20.08390760131583
 10
13.79666001716715
 20
-20.08390760131583
 10
13.73654310094954
 20
-20.08390760131583
 10
13.68572794254211
 20
-20.0669577315284
 10
13.65949354042193
 20
-20.05000786174097
 10
13.65949354042193
 20
-20.05000786174097
 10
13.67811428151971
 20
-19.99330159005376
 10
13.67811428151971
 20
-19.99330159005376
 10
13.70097249006434
 20
-20.00684081531079
 10
13.74586208423714
 20
-20.02379068509822
 10
13.79581596877327
 20
-20.02379068509822
 10
13.86609591667236
 20
-20.02379068509822
 10
13.92621283288997
 20
-19.9780398170541
 10
13.92621283288997
 20
-19.90438367557946
 10
13.92536878449609
 20
-19.83324245380905
 10
13.87794704514162
 20
-19.78246174635646
 10
13.76787624438789
 20
-19.78246174635646
 10
13.73654310094954
 20
-19.78246174635646
 10
13.71197957013971
 20
-19.78583793993201
 10
13.69167073225417
 20
-19.7883873105911
 10
13.69167073225417
 20
-19.7883873105911
 10
13.72722411766194
 20
-19.52418293782729
 10
13.72722411766194
 20
-19.52418293782729
 10
13.72722411766194
 20
-19.52418293782729
 10
13.99056721655444
 20
-19.52418293782729
 10
13.99056721655444
 20
-19.52418293782729
 10
13.99056721655444
 20
-19.52418293782729
 10
13.99056721655444
 20
-19.58684922470398
 10
13.99056721655444
 20
-19.58684922470398
 97
        0
 97
        0
 75
     2
 76
     1
 98
        0
450
        0
451
        0
460
0.0
461
0.0
452
        0
462
0.0
453
        0
470

  0
POLYLINE
  5
D9
330
D3
100
AcDbEntity
  8
Livello 3
370
     0
100
AcDb2dPolyline
 66
     1
 10
0.0
 20
0.0
 30
0.0
  0
VERTEX
  5
DA
330
D9
100
AcDbEntity
  8
Livello 3
370
     0
100
AcDbVertex
100
AcDb2dVertex
 10
14.45367417715915
 20
-19.52418293782729
 30
0.0
  0
VERTEX
  5
DB
330
D9
100
AcDbEntity
  8
Livello 3
370
     0
100
AcDbVertex
100
AcDb2dVertex
 10
14.45367417715915
 20
-19.57330999944695
 30
0.0
  0
VERTEX
  5
DC
330
D9
100
AcDbEntity
  8
Livello 3
370
     0
100
AcDbVertex
100
AcDb2dVertex
 10
14.2140505606826
 20
-20.0745713925508
 30
0.0
  0
VERTEX
  5
DD
330
D9
100
AcDbEntity
  8
Livello 3
370
     0
100
AcDbVertex
100
AcDb2dVertex
 10
14.13700100015499
 20
-20.0745713925508
 30
0.0
  0
VERTEX
  5
DE
330
D9
100
AcDbEntity
  8
Livello 3
370
     0
100
AcDbVertex
100
AcDb2dVertex
 10
14.37578056823765
 20
-19.58771049857529
 30
0.0
  0
VERTEX
  5
DF
330
D9
100
AcDbEntity
  8
Livello 3
370
     0
100
AcDbVertex
100
AcDb2dVertex
 10
14.37578056823765
 20
-19.58602240178752
 30
0.0
  0
VERTEX
  5
E0
330
D9
100
AcDbEntity
  8
Livello 3
370
     0
100
AcDbVertex
100
AcDb2dVertex
 10
14.10651190511052
 20
-19.58602240178752
 30
0.0
  0
VERTEX
  5
E1
330
D9
100
AcDbEntity
  8
Livello 3
370
     0
100
AcDbVertex
100
AcDb2dVertex
 10
14.10651190511052
 20
-19.52418293782729
 30
0.0
  0
VERTEX
  5
E2
330
D9
100
AcDbEntity
  8
Livello 3
370
     0
100
AcDbVertex
100
AcDb2dVertex
 10
14.45367417715915
 20
-19.52418293782729
 30
0.0
  0
SEQEND
  5
E3
330
D9
100
AcDbEntity
  8
Livello 3
370
     0
  0
HATCH
  5
E4
330
D3
100
AcDbEntity
  8
Livello 3
 62
   250
420
  1842203
100
AcDbHatch
 10
0.0
 20
0.0
 30
0.0
210
0.0
220
0.0
230
1.0
  2
SOLID
 70
     1
 71
     0
 91
        1
 92
        1
 93
        8
 72
     1
 10
14.45367417715915
 20
-19.52418293782729
 11
14.45367417715915
 21
-19.57330999944695
 72
     1
 10
14.45367417715915
 20
-19.57330999944695
 11
14.2140505606826
 21
-20.0745713925508
 72
     1
 10
14.2140505606826
 20
-20.0745713925508
 11
14.13700100015499
 21
-20.0745713925508
 72
     1
 10
14.13700100015499
 20
-20.0745713925508
 11
14.37578056823765
 21
-19.58771049857529
 72
     1
 10
14.37578056823765
 20
-19.58771049857529
 11
14.37578056823765
 21
-19.58602240178752
 72
     1
 10
14.37578056823765
 20
-19.58602240178752
 11
14.10651190511052
 21
-19.58602240178752
 72
     1
 10
14.10651190511052
 20
-19.58602240178752
 11
14.10651190511052
 21
-19.52418293782729
 72
     1
 10
14.10651190511052
 20
-19.52418293782729
 11
14.45367417715915
 21
-19.52418293782729
 97
        0
 75
     2
 76
     1
 98
        0
450
        0
451
        0
460
0.0
461
0.0
452
        0
462
0.0
453
        0
470

  0
SPLINE
  5
E5
330
D3
100
AcDbEntity
  8
Livello 3
370
     0
100
AcDbSpline
210
0.0
220
0.0
230
1.0
 70
     9
 71
     3
 72
    17
 73
    13
 74
     0
 42
0.000000001
 43
0.0000000001
 40
0.0
 40
0.0
 40
0.0
 40
0.0
 40
1.0
 40
1.0
 40
1.0
 40
2.0
 40
2.0
 40
2.0
 40
3.0
 40
3.0
 40
3.0
 40
4.0
 40
4.0
 40
4.0
 40
4.0
 10
14.50612575592208
 20
-20.1787166290699
 30
0.0
 10
14.52474649701985
 20
-20.12876274453378
 30
0.0
 10
14.54760470556449
 20
-20.03815673327171
 30
0.0
 10
14.55692368885209
 20
-19.97635172026633
 30
0.0
 10
14.55692368885209
 20
-19.97635172026633
 30
0.0
 10
14.63989881361433
 20
-19.96787678537261
 30
0.0
 10
14.63989881361433
 20
-19.96787678537261
 30
0.0
 10
14.62043402412267
 20
-20.03987928101433
 30
0.0
 10
14.58317531644969
 20
-20.13386148585195
 30
0.0
 10
14.55945583403375
 20
-20.17365233870659
 30
0.0
 10
14.55945583403375
 20
-20.17365233870659
 30
0.0
 10
14.50612575592208
 20
-20.1787166290699
 30
0.0
 10
14.50612575592208
 20
-20.1787166290699
 30
0.0
  0
HATCH
  5
E6
330
D3
100
AcDbEntity
  8
Livello 3
 62
   250
420
  1842203
100
AcDbHatch
 10
0.0
 20
0.0
 30
0.0
210
0.0
220
0.0
230
1.0
  2
SOLID
 70
     1
 71
     0
 91
        1
 92
        1
 93
        1
 72
     4
 94
        3
 73
     0
 74
     0
 95
       17
 96
       13
 40
0.0
 40
0.0
 40
0.0
 40
0.0
 40
1.0
 40
1.0
 40
1.0
 40
2.0
 40
2.0
 40
2.0
 40
3.0
 40
3.0
 40
3.0
 40
4.0
 40
4.0
 40
4.0
 40
4.0
 10
14.50612575592208
 20
-20.1787166290699
 10
14.52474649701985
 20
-20.12876274453378
 10
14.54760470556449
 20
-20.03815673327171
 10
14.55692368885209
 20
-19.97635172026633
 10
14.55692368885209
 20
-19.97635172026633
 10
14.63989881361433
 20
-19.96787678537261
 10
14.63989881361433
 20
-19.96787678537261
 10
14.62043402412267
 20
-20.03987928101433
 10
14.58317531644969
 20
-20.13386148585195
 10
14.55945583403375
 20
-20.17365233870659
 10
14.55945583403375
 20
-20.17365233870659
 10
14.50612575592208
 20
-20.1787166290699
 10
14.50612575592208
 20
-20.1787166290699
 97
        0
 97
        0
 75
     2
 76
     1
 98
        0
450
        0
451
        0
460
0.0
461
0.0
452
        0
462
0.0
453
        0
470

  0
SPLINE
  5
E7
330
D3
100
AcDbEntity
  8
Livello 3
370
     0
100
AcDbSpline
210
0.0
220
0.0
230
1.0
 70
    11
 71
     3
 72
    50
 73
    46
 74
     0
 42
0.000000001
 43
0.0000000001
 40
0.0
 40
0.0
 40
0.0
 40
0.0
 40
1.0
 40
1.0
 40
1.0
 40
2.0
 40
2.0
 40
2.0
 40
3.0
 40
3.0
 40
3.0
 40
4.0
 40
4.0
 40
4.0
 40
5.0
 40
5.0
 40
5.0
 40
6.0
 40
6.0
 40
6.0
 40
7.0
 40
7.0
 40
7.0
 40
8.0
 40
8.0
 40
8.0
 40
9.0
 40
9.0
 40
9.0
 40
10.0
 40
10.0
 40
10.0
 40
11.0
 40
11.0
 40
11.0
 40
12.0
 40
12.0
 40
12.0
 40
13.0
 40
13.0
 40
13.0
 40
14.0
 40
14.0
 40
14.0
 40
15.0
 40
15.0
 40
15.0
 40
15.0
 10
15.03446559953999
 20
-19.58684922470398
 30
0.0
 10
15.03446559953999
 20
-19.58684922470398
 30
0.0
 10
14.82446980423659
 20
-19.58684922470398
 30
0.0
 10
14.82446980423659
 20
-19.58684922470398
 30
0.0
 10
14.82446980423659
 20
-19.58684922470398
 30
0.0
 10
14.80329969247973
 20
-19.72827039437349
 30
0.0
 10
14.80329969247973
 20
-19.72827039437349
 30
0.0
 10
14.81599486934286
 20
-19.72658229758571
 30
0.0
 10
14.82786322328956
 20
-19.72485974984309
 30
0.0
 10
14.84817206117511
 20
-19.72485974984309
 30
0.0
 10
14.8904950592114
 20
-19.72485974984309
 30
0.0
 10
14.93283528272512
 20
-19.73419595860812
 30
0.0
 10
14.96670057134513
 20
-19.75452202197109
 30
0.0
 10
15.00990206873016
 20
-19.77905110182607
 30
0.0
 10
15.04545545413794
 20
-19.82649006665796
 30
0.0
 10
15.04545545413794
 20
-19.89590874068573
 30
0.0
 10
15.04545545413794
 20
-20.00346462173524
 30
0.0
 10
14.95994818419404
 20
-20.08390760131583
 30
0.0
 10
14.84055840015271
 20
-20.08390760131583
 30
0.0
 10
14.7804414839351
 20
-20.08390760131583
 30
0.0
 10
14.72962632552766
 20
-20.0669577315284
 30
0.0
 10
14.70339192340748
 20
-20.05000786174097
 30
0.0
 10
14.70339192340748
 20
-20.05000786174097
 30
0.0
 10
14.72201266450526
 20
-19.99330159005376
 30
0.0
 10
14.72201266450526
 20
-19.99330159005376
 30
0.0
 10
14.74487087304989
 20
-20.00684081531079
 30
0.0
 10
14.7897604672227
 20
-20.02379068509822
 30
0.0
 10
14.83971435175882
 20
-20.02379068509822
 30
0.0
 10
14.90999429965792
 20
-20.02379068509822
 30
0.0
 10
14.97011121587553
 20
-19.9780398170541
 30
0.0
 10
14.97011121587553
 20
-19.90438367557946
 30
0.0
 10
14.96924994200421
 20
-19.83324245380905
 30
0.0
 10
14.92184542812718
 20
-19.78246174635646
 30
0.0
 10
14.81177462737344
 20
-19.78246174635646
 30
0.0
 10
14.7804414839351
 20
-19.78246174635646
 30
0.0
 10
14.75587795312527
 20
-19.78583793993201
 30
0.0
 10
14.73556911523972
 20
-19.7883873105911
 30
0.0
 10
14.73556911523972
 20
-19.7883873105911
 30
0.0
 10
14.7711225006475
 20
-19.52418293782729
 30
0.0
 10
14.7711225006475
 20
-19.52418293782729
 30
0.0
 10
14.7711225006475
 20
-19.52418293782729
 30
0.0
 10
15.03446559953999
 20
-19.52418293782729
 30
0.0
 10
15.03446559953999
 20
-19.52418293782729
 30
0.0
 10
15.03446559953999
 20
-19.52418293782729
 30
0.0
 10
15.03446559953999
 20
-19.58684922470398
 30
0.0
 10
15.03446559953999
 20
-19.58684922470398
 30
0.0
  0
HATCH
  5
E8
330
D3
100
AcDbEntity
  8
Livello 3
 62
   250
420
  1842203
100
AcDbHatch
 10
0.0
 20
0.0
 30
0.0
210
0.0
220
0.0
230
1.0
  2
SOLID
 70
     1
 71
     0
 91
        1
 92
        1
 93
        1
 72
     4
 94
        3
 73
     0
 74
     0
 95
       50
 96
       46
 40
0.0
 40
0.0
 40
0.0
 40
0.0
 40
1.0
 40
1.0
 40
1.0
 40
2.0
 40
2.0
 40
2.0
 40
3.0
 40
3.0
 40
3.0
 40
4.0
 40
4.0
 40
4.0
 40
5.0
 40
5.0
 40
5.0
 40
6.0
 40
6.0
 40
6.0
 40
7.0
 40
7.0
 40
7.0
 40
8.0
 40
8.0
 40
8.0
 40
9.0
 40
9.0
 40
9.0
 40
10.0
 40
10.0
 40
10.0
 40
11.0
 40
11.0
 40
11.0
 40
12.0
 40
12.0
 40
12.0
 40
13.0
 40
13.0
 40
13.0
 40
14.0
 40
14.0
 40
14.0
 40
15.0
 40
15.0
 40
15.0
 40
15.0
 10
15.03446559953999
 20
-19.58684922470398
 10
15.03446559953999
 20
-19.58684922470398
 10
14.82446980423659
 20
-19.58684922470398
 10
14.82446980423659
 20
-19.58684922470398
 10
14.82446980423659
 20
-19.58684922470398
 10
14.80329969247973
 20
-19.72827039437349
 10
14.80329969247973
 20
-19.72827039437349
 10
14.81599486934286
 20
-19.72658229758571
 10
14.82786322328956
 20
-19.72485974984309
 10
14.84817206117511
 20
-19.72485974984309
 10
14.8904950592114
 20
-19.72485974984309
 10
14.93283528272512
 20
-19.73419595860812
 10
14.96670057134513
 20
-19.75452202197109
 10
15.00990206873016
 20
-19.77905110182607
 10
15.04545545413794
 20
-19.82649006665796
 10
15.04545545413794
 20
-19.89590874068573
 10
15.04545545413794
 20
-20.00346462173524
 10
14.95994818419404
 20
-20.08390760131583
 10
14.84055840015271
 20
-20.08390760131583
 10
14.7804414839351
 20
-20.08390760131583
 10
14.72962632552766
 20
-20.0669577315284
 10
14.70339192340748
 20
-20.05000786174097
 10
14.70339192340748
 20
-20.05000786174097
 10
14.72201266450526
 20
-19.99330159005376
 10
14.72201266450526
 20
-19.99330159005376
 10
14.74487087304989
 20
-20.00684081531079
 10
14.7897604672227
 20
-20.02379068509822
 10
14.83971435175882
 20
-20.02379068509822
 10
14.90999429965792
 20
-20.02379068509822
 10
14.97011121587553
 20
-19.9780398170541
 10
14.97011121587553
 20
-19.90438367557946
 10
14.96924994200421
 20
-19.83324245380905
 10
14.92184542812718
 20
-19.78246174635646
 10
14.81177462737344
 20
-19.78246174635646
 10
14.7804414839351
 20
-19.78246174635646
 10
14.75587795312527
 20
-19.78583793993201
 10
14.73556911523972
 20
-19.7883873105911
 10
14.73556911523972
 20
-19.7883873105911
 10
14.7711225006475
 20
-19.52418293782729
 10
14.7711225006475
 20
-19.52418293782729
 10
14.7711225006475
 20
-19.52418293782729
 10
15.03446559953999
 20
-19.52418293782729
 10
15.03446559953999
 20
-19.52418293782729
 10
15.03446559953999
 20
-19.52418293782729
 10
15.03446559953999
 20
-19.58684922470398
 10
15.03446559953999
 20
-19.58684922470398
 97
        0
 97
        0
 75
     2
 76
     1
 98
        0
450
        0
451
        0
460
0.0
461
0.0
452
        0
462
0.0
453
        0
470

  0
ENDBLK
  5
D6
330
D3
100
AcDbEntity
  8
0
100
AcDbBlockEnd
  0
BLOCK
  5
EB
330
E9
100
AcDbEntity
  8
0
100
AcDbBlockBegin
  2
block 18
 70
     0
 10
0.0
 20
0.0
 30
0.0
  3
block 18
  1

  0
POLYLINE
  5
ED
330
E9
100
AcDbEntity
  8
Livello 3
370
     0
100
AcDb2dPolyline
 66
     1
 10
0.0
 20
0.0
 30
0.0
  0
VERTEX
  5
EE
330
ED
100
AcDbEntity
  8
Livello 3
370
     0
100
AcDbVertex
100
AcDb2dVertex
 10
17.892344559329
 20
-12.58086859494506
 30
0.0
  0
VERTEX
  5
EF
330
ED
100
AcDbEntity
  8
Livello 3
370
     0
100
AcDbVertex
100
AcDb2dVertex
 10
17.892344559329
 20
-12.58255669173283
 30
0.0
  0
VERTEX
  5
F0
330
ED
100
AcDbEntity
  8
Livello 3
370
     0
100
AcDbVertex
100
AcDb2dVertex
 10
17.94402099160773
 20
-12.67822699335822
 30
0.0
  0
VERTEX
  5
F1
330
ED
100
AcDbEntity
  8
Livello 3
370
     0
100
AcDbVertex
100
AcDb2dVertex
 10
17.88728026896568
 20
-12.69262749248657
 30
0.0
  0
VERTEX
  5
F2
330
ED
100
AcDbEntity
  8
Livello 3
370
     0
100
AcDbVertex
100
AcDb2dVertex
 10
17.82292588530121
 20
-12.57239366005135
 30
0.0
  0
VERTEX
  5
F3
330
ED
100
AcDbEntity
  8
Livello 3
370
     0
100
AcDbVertex
100
AcDb2dVertex
 10
17.82292588530121
 20
-12.50890055025819
 30
0.0
  0
VERTEX
  5
F4
330
ED
100
AcDbEntity
  8
Livello 3
370
     0
100
AcDbVertex
100
AcDb2dVertex
 10
18.37331434002473
 20
-12.50890055025819
 30
0.0
  0
VERTEX
  5
F5
330
ED
100
AcDbEntity
  8
Livello 3
370
     0
100
AcDbVertex
100
AcDb2dVertex
 10
18.37331434002473
 20
-12.58086859494506
 30
0.0
  0
VERTEX
  5
F6
330
ED
100
AcDbEntity
  8
Livello 3
370
     0
100
AcDbVertex
100
AcDb2dVertex
 10
17.892344559329
 20
-12.58086859494506
 30
0.0
  0
SEQEND
  5
F7
330
ED
100
AcDbEntity
  8
Livello 3
370
     0
  0
HATCH
  5
F8
330
E9
100
AcDbEntity
  8
Livello 3
 62
   250
420
  1842203
100
AcDbHatch
 10
0.0
 20
0.0
 30
0.0
210
0.0
220
0.0
230
1.0
  2
SOLID
 70
     1
 71
     0
 91
        1
 92
        1
 93
        8
 72
     1
 10
17.892344559329
 20
-12.58086859494506
 11
17.892344559329
 21
-12.58255669173283
 72
     1
 10
17.892344559329
 20
-12.58255669173283
 11
17.94402099160773
 21
-12.67822699335822
 72
     1
 10
17.94402099160773
 20
-12.67822699335822
 11
17.88728026896568
 21
-12.69262749248657
 72
     1
 10
17.88728026896568
 20
-12.69262749248657
 11
17.82292588530121
 21
-12.57239366005135
 72
     1
 10
17.82292588530121
 20
-12.57239366005135
 11
17.82292588530121
 21
-12.50890055025819
 72
     1
 10
17.82292588530121
 20
-12.50890055025819
 11
18.37331434002473
 21
-12.50890055025819
 72
     1
 10
18.37331434002473
 20
-12.50890055025819
 11
18.37331434002473
 21
-12.58086859494506
 72
     1
 10
18.37331434002473
 20
-12.58086859494506
 11
17.892344559329
 21
-12.58086859494506
 97
        0
 75
     2
 76
     1
 98
        0
450
        0
451
        0
460
0.0
461
0.0
452
        0
462
0.0
453
        0
470

  0
SPLINE
  5
F9
330
E9
100
AcDbEntity
  8
Livello 3
370
     0
100
AcDbSpline
210
0.0
220
0.0
230
1.0
 70
     9
 71
     3
 72
    41
 73
    37
 74
     0
 42
0.000000001
 43
0.0000000001
 40
0.0
 40
0.0
 40
0.0
 40
0.0
 40
1.0
 40
1.0
 40
1.0
 40
2.0
 40
2.0
 40
2.0
 40
3.0
 40
3.0
 40
3.0
 40
4.0
 40
4.0
 40
4.0
 40
5.0
 40
5.0
 40
5.0
 40
6.0
 40
6.0
 40
6.0
 40
7.0
 40
7.0
 40
7.0
 40
8.0
 40
8.0
 40
8.0
 40
9.0
 40
9.0
 40
9.0
 40
10.0
 40
10.0
 40
10.0
 40
11.0
 40
11.0
 40
11.0
 40
12.0
 40
12.0
 40
12.0
 40
12.0
 10
18.32081108482952
 20
-12.26509114276706
 30
0.0
 10
18.32249918161729
 20
-12.24900254685094
 30
0.0
 10
18.32081108482952
 20
-12.23036458027574
 30
0.0
 10
18.31826171417043
 20
-12.20497422654945
 30
0.0
 10
18.3123361499358
 20
-12.16180718011927
 30
0.0
 10
18.29455945723192
 20
-12.12115505339332
 30
0.0
 10
18.26493163605877
 20
-12.08980468447755
 30
0.0
 10
18.23189317035522
 20
-12.05342447615331
 30
0.0
 10
18.18362738260687
 20
-12.02717284855571
 30
0.0
 10
18.11844617602594
 20
-12.01697536591937
 30
0.0
 10
18.11844617602594
 20
-12.01697536591937
 30
0.0
 10
18.11844617602594
 20
-12.01952473657845
 30
0.0
 10
18.11844617602594
 20
-12.01952473657845
 30
0.0
 10
18.15568765822149
 20
-12.05001383162291
 30
0.0
 10
18.17770181837224
 20
-12.09404215192441
 30
0.0
 10
18.17770181837224
 20
-12.1490947777787
 30
0.0
 10
18.17770181837224
 20
-12.24814127297963
 30
0.0
 10
18.10318440302629
 20
-12.31166883372764
 30
0.0
 10
18.00920219818867
 20
-12.31166883372764
 30
0.0
 10
17.90505696166957
 20
-12.31166883372764
 30
0.0
 10
17.81362412749104
 20
-12.23629014451037
 30
0.0
 10
17.81362412749104
 20
-12.12370442405241
 30
0.0
 10
17.81362412749104
 20
-12.01104980168474
 30
0.0
 10
17.90505696166957
 20
-11.94163112765695
 30
0.0
 10
18.04561685746776
 20
-11.94163112765695
 30
0.0
 10
18.16671196377429
 20
-11.94163112765695
 30
0.0
 10
18.25139241080173
 20
-11.9822832543829
 30
0.0
 10
18.30386121504209
 20
-12.03647460636588
 30
0.0
 10
18.34537461563935
 20
-12.0788148298796
 30
0.0
 10
18.37076496936564
 20
-12.13720919835459
 30
0.0
 10
18.37755180747158
 20
-12.19649929165574
 30
0.0
 10
18.38178927491844
 20
-12.22361219312465
 30
0.0
 10
18.3826160978349
 20
-12.24731445006317
 30
0.0
 10
18.38178927491844
 20
-12.26509114276706
 30
0.0
 10
18.38178927491844
 20
-12.26509114276706
 30
0.0
 10
18.32081108482952
 20
-12.26509114276706
 30
0.0
 10
18.32081108482952
 20
-12.26509114276706
 30
0.0
  0
SPLINE
  5
FA
330
E9
100
AcDbEntity
  8
Livello 3
370
     0
100
AcDbSpline
210
0.0
220
0.0
230
1.0
 70
     9
 71
     3
 72
    20
 73
    16
 74
     0
 42
0.000000001
 43
0.0000000001
 40
0.0
 40
0.0
 40
0.0
 40
0.0
 40
1.0
 40
1.0
 40
1.0
 40
2.0
 40
2.0
 40
2.0
 40
3.0
 40
3.0
 40
3.0
 40
4.0
 40
4.0
 40
4.0
 40
5.0
 40
5.0
 40
5.0
 40
5.0
 10
18.00413790782535
 20
-12.238012692253
 30
0.0
 10
18.07272975893668
 20
-12.238012692253
 30
0.0
 10
18.12096109573017
 20
-12.19649929165574
 30
0.0
 10
18.12096109573017
 20
-12.13214490799127
 30
0.0
 10
18.12096109573017
 20
-12.08219102345515
 30
0.0
 10
18.09643201587519
 20
-12.04322699351697
 30
0.0
 10
18.06339355017165
 20
-12.02376220402531
 30
0.0
 10
18.05664116302056
 20
-12.01952473657845
 30
0.0
 10
18.04816622812685
 20
-12.01697536591937
 30
0.0
 10
18.03631509965759
 20
-12.01697536591937
 30
0.0
 10
17.94229844386512
 20
-12.01697536591937
 30
0.0
 10
17.87033039917825
 20
-12.05170192841068
 30
0.0
 10
17.87033039917825
 20
-12.12962998828704
 30
0.0
 10
17.87033039917825
 20
-12.19312309808019
 30
0.0
 10
17.92624429890385
 20
-12.238012692253
 30
0.0
 10
18.00413790782535
 20
-12.238012692253
 30
0.0
  0
HATCH
  5
FB
330
E9
100
AcDbEntity
  8
Livello 3
 62
   250
420
  1842203
100
AcDbHatch
 10
0.0
 20
0.0
 30
0.0
210
0.0
220
0.0
230
1.0
  2
SOLID
 70
     1
 71
     0
 91
        2
 92
        1
 93
        1
 72
     4
 94
        3
 73
     0
 74
     0
 95
       41
 96
       37
 40
0.0
 40
0.0
 40
0.0
 40
0.0
 40
1.0
 40
1.0
 40
1.0
 40
2.0
 40
2.0
 40
2.0
 40
3.0
 40
3.0
 40
3.0
 40
4.0
 40
4.0
 40
4.0
 40
5.0
 40
5.0
 40
5.0
 40
6.0
 40
6.0
 40
6.0
 40
7.0
 40
7.0
 40
7.0
 40
8.0
 40
8.0
 40
8.0
 40
9.0
 40
9.0
 40
9.0
 40
10.0
 40
10.0
 40
10.0
 40
11.0
 40
11.0
 40
11.0
 40
12.0
 40
12.0
 40
12.0
 40
12.0
 10
18.32081108482952
 20
-12.26509114276706
 10
18.32249918161729
 20
-12.24900254685094
 10
18.32081108482952
 20
-12.23036458027574
 10
18.31826171417043
 20
-12.20497422654945
 10
18.3123361499358
 20
-12.16180718011927
 10
18.29455945723192
 20
-12.12115505339332
 10
18.26493163605877
 20
-12.08980468447755
 10
18.23189317035522
 20
-12.05342447615331
 10
18.18362738260687
 20
-12.02717284855571
 10
18.11844617602594
 20
-12.01697536591937
 10
18.11844617602594
 20
-12.01697536591937
 10
18.11844617602594
 20
-12.01952473657845
 10
18.11844617602594
 20
-12.01952473657845
 10
18.15568765822149
 20
-12.05001383162291
 10
18.17770181837224
 20
-12.09404215192441
 10
18.17770181837224
 20
-12.1490947777787
 10
18.17770181837224
 20
-12.24814127297963
 10
18.10318440302629
 20
-12.31166883372764
 10
18.00920219818867
 20
-12.31166883372764
 10
17.90505696166957
 20
-12.31166883372764
 10
17.81362412749104
 20
-12.23629014451037
 10
17.81362412749104
 20
-12.12370442405241
 10
17.81362412749104
 20
-12.01104980168474
 10
17.90505696166957
 20
-11.94163112765695
 10
18.04561685746776
 20
-11.94163112765695
 10
18.16671196377429
 20
-11.94163112765695
 10
18.25139241080173
 20
-11.9822832543829
 10
18.30386121504209
 20
-12.03647460636588
 10
18.34537461563935
 20
-12.0788148298796
 10
18.37076496936564
 20
-12.13720919835459
 10
18.37755180747158
 20
-12.19649929165574
 10
18.38178927491844
 20
-12.22361219312465
 10
18.3826160978349
 20
-12.24731445006317
 10
18.38178927491844
 20
-12.26509114276706
 10
18.38178927491844
 20
-12.26509114276706
 10
18.32081108482952
 20
-12.26509114276706
 10
18.32081108482952
 20
-12.26509114276706
 97
        0
 97
        0
 92
        1
 93
        1
 72
     4
 94
        3
 73
     0
 74
     0
 95
       20
 96
       16
 40
0.0
 40
0.0
 40
0.0
 40
0.0
 40
1.0
 40
1.0
 40
1.0
 40
2.0
 40
2.0
 40
2.0
 40
3.0
 40
3.0
 40
3.0
 40
4.0
 40
4.0
 40
4.0
 40
5.0
 40
5.0
 40
5.0
 40
5.0
 10
18.00413790782535
 20
-12.238012692253
 10
18.07272975893668
 20
-12.238012692253
 10
18.12096109573017
 20
-12.19649929165574
 10
18.12096109573017
 20
-12.13214490799127
 10
18.12096109573017
 20
-12.08219102345515
 10
18.09643201587519
 20
-12.04322699351697
 10
18.06339355017165
 20
-12.02376220402531
 10
18.05664116302056
 20
-12.01952473657845
 10
18.04816622812685
 20
-12.01697536591937
 10
18.03631509965759
 20
-12.01697536591937
 10
17.94229844386512
 20
-12.01697536591937
 10
17.87033039917825
 20
-12.05170192841068
 10
17.87033039917825
 20
-12.12962998828704
 10
17.87033039917825
 20
-12.19312309808019
 10
17.92624429890385
 20
-12.238012692253
 10
18.00413790782535
 20
-12.238012692253
 97
        0
 97
        0
 75
     2
 76
     1
 98
        0
450
        0
451
        0
460
0.0
461
0.0
452
        0
462
0.0
453
        0
470

  0
POLYLINE
  5
FC
330
E9
100
AcDbEntity
  8
Livello 3
370
     0
100
AcDb2dPolyline
 66
     1
 10
0.0
 20
0.0
 30
0.0
  0
VERTEX
  5
FD
330
FC
100
AcDbEntity
  8
Livello 3
370
     0
100
AcDbVertex
100
AcDb2dVertex
 10
17.82292588530121
 20
-11.51660969764168
 30
0.0
  0
VERTEX
  5
FE
330
FC
100
AcDbEntity
  8
Livello 3
370
     0
100
AcDbVertex
100
AcDb2dVertex
 10
17.87205294692087
 20
-11.51660969764168
 30
0.0
  0
VERTEX
  5
FF
330
FC
100
AcDbEntity
  8
Livello 3
370
     0
100
AcDbVertex
100
AcDb2dVertex
 10
18.37331434002473
 20
-11.75625053959566
 30
0.0
  0
VERTEX
  5
100
330
FC
100
AcDbEntity
  8
Livello 3
370
     0
100
AcDbVertex
100
AcDb2dVertex
 10
18.37331434002473
 20
-11.83328287464584
 30
0.0
  0
VERTEX
  5
101
330
FC
100
AcDbEntity
  8
Livello 3
370
     0
100
AcDbVertex
100
AcDb2dVertex
 10
17.88641899509437
 20
-11.59453775751803
 30
0.0
  0
VERTEX
  5
102
330
FC
100
AcDbEntity
  8
Livello 3
370
     0
100
AcDbVertex
100
AcDb2dVertex
 10
17.88473089830659
 20
-11.59453775751803
 30
0.0
  0
VERTEX
  5
103
330
FC
100
AcDbEntity
  8
Livello 3
370
     0
100
AcDbVertex
100
AcDb2dVertex
 10
17.88473089830659
 20
-11.86380642064516
 30
0.0
  0
VERTEX
  5
104
330
FC
100
AcDbEntity
  8
Livello 3
370
     0
100
AcDbVertex
100
AcDb2dVertex
 10
17.82292588530121
 20
-11.86380642064516
 30
0.0
  0
VERTEX
  5
105
330
FC
100
AcDbEntity
  8
Livello 3
370
     0
100
AcDbVertex
100
AcDb2dVertex
 10
17.82292588530121
 20
-11.51660969764168
 30
0.0
  0
SEQEND
  5
106
330
FC
100
AcDbEntity
  8
Livello 3
370
     0
  0
HATCH
  5
107
330
E9
100
AcDbEntity
  8
Livello 3
 62
   250
420
  1842203
100
AcDbHatch
 10
0.0
 20
0.0
 30
0.0
210
0.0
220
0.0
230
1.0
  2
SOLID
 70
     1
 71
     0
 91
        1
 92
        1
 93
        8
 72
     1
 10
17.82292588530121
 20
-11.51660969764168
 11
17.87205294692087
 21
-11.51660969764168
 72
     1
 10
17.87205294692087
 20
-11.51660969764168
 11
18.37331434002473
 21
-11.75625053959566
 72
     1
 10
18.37331434002473
 20
-11.75625053959566
 11
18.37331434002473
 21
-11.83328287464584
 72
     1
 10
18.37331434002473
 20
-11.83328287464584
 11
17.88641899509437
 21
-11.59453775751803
 72
     1
 10
17.88641899509437
 20
-11.59453775751803
 11
17.88473089830659
 21
-11.59453775751803
 72
     1
 10
17.88473089830659
 20
-11.59453775751803
 11
17.88473089830659
 21
-11.86380642064516
 72
     1
 10
17.88473089830659
 20
-11.86380642064516
 11
17.82292588530121
 21
-11.86380642064516
 72
     1
 10
17.82292588530121
 20
-11.86380642064516
 11
17.82292588530121
 21
-11.51660969764168
 97
        0
 75
     2
 76
     1
 98
        0
450
        0
451
        0
460
0.0
461
0.0
452
        0
462
0.0
453
        0
470

  0
ENDBLK
  5
EC
330
E9
100
AcDbEntity
  8
0
100
AcDbBlockEnd
  0
BLOCK
  5
10A
330
108
100
AcDbEntity
  8
0
100
AcDbBlockBegin
  2
block 19
 70
     0
 10
0.0
 20
0.0
 30
0.0
  3
block 19
  1

  0
SPLINE
  5
10C
330
108
100
AcDbEntity
  8
Livello 3
370
     0
100
AcDbSpline
210
0.0
220
0.0
230
1.0
 70
    11
 71
     3
 72
    47
 73
    43
 74
     0
 42
0.000000001
 43
0.0000000001
 40
0.0
 40
0.0
 40
0.0
 40
0.0
 40
1.0
 40
1.0
 40
1.0
 40
2.0
 40
2.0
 40
2.0
 40
3.0
 40
3.0
 40
3.0
 40
4.0
 40
4.0
 40
4.0
 40
5.0
 40
5.0
 40
5.0
 40
6.0
 40
6.0
 40
6.0
 40
7.0
 40
7.0
 40
7.0
 40
8.0
 40
8.0
 40
8.0
 40
9.0
 40
9.0
 40
9.0
 40
10.0
 40
10.0
 40
10.0
 40
11.0
 40
11.0
 40
11.0
 40
12.0
 40
12.0
 40
12.0
 40
13.0
 40
13.0
 40
13.0
 40
14.0
 40
14.0
 40
14.0
 40
14.0
 10
12.72210028436288
 20
-3.50583251865479
 30
0.0
 10
12.72210028436288
 20
-3.50583251865479
 30
0.0
 10
12.72210028436288
 20
-3.460116101565525
 30
0.0
 10
12.72210028436288
 20
-3.460116101565525
 30
0.0
 10
12.72210028436288
 20
-3.460116101565525
 30
0.0
 10
12.78052910379271
 20
-3.403375378923461
 30
0.0
 10
12.78052910379271
 20
-3.403375378923461
 30
0.0
 10
12.92108899959091
 20
-3.269585095753783
 30
0.0
 10
12.98458210938406
 20
-3.198461099460801
 30
0.0
 10
12.98544338325537
 20
-3.115485974698558
 30
0.0
 10
12.98544338325537
 20
-3.059606525927806
 30
0.0
 10
12.95834770726388
 20
-3.007947319126484
 30
0.0
 10
12.8761994054181
 20
-3.007947319126484
 30
0.0
 10
12.82624552088198
 20
-3.007947319126484
 30
0.0
 10
12.78476657123957
 20
-3.033354898330203
 30
0.0
 10
12.75935899203585
 20
-3.054525010087062
 30
0.0
 10
12.75935899203585
 20
-3.054525010087062
 30
0.0
 10
12.73565673509733
 20
-3.002021754891855
 30
0.0
 10
12.73565673509733
 20
-3.002021754891855
 30
0.0
 10
12.7737594911642
 20
-2.969844563059622
 30
0.0
 10
12.82795084314718
 20
-2.946142306121103
 30
0.0
 10
12.89144395294033
 20
-2.946142306121103
 30
0.0
 10
13.00998968858778
 20
-2.946142306121103
 30
0.0
 10
13.0599435731239
 20
-3.027429334095573
 30
0.0
 10
13.0599435731239
 20
-3.106166991410958
 30
0.0
 10
13.0599435731239
 20
-3.207780082748401
 30
0.0
 10
12.98628743164926
 20
-3.289911159116758
 30
0.0
 10
12.87027384118347
 20
-3.401687282135689
 30
0.0
 10
12.87027384118347
 20
-3.401687282135689
 30
0.0
 10
12.82624552088198
 20
-3.442322183384211
 30
0.0
 10
12.82624552088198
 20
-3.442322183384211
 30
0.0
 10
12.82624552088198
 20
-3.442322183384211
 30
0.0
 10
12.82624552088198
 20
-3.44402750564941
 30
0.0
 10
12.82624552088198
 20
-3.44402750564941
 30
0.0
 10
12.82624552088198
 20
-3.44402750564941
 30
0.0
 10
13.07350002385836
 20
-3.44402750564941
 30
0.0
 10
13.07350002385836
 20
-3.44402750564941
 30
0.0
 10
13.07350002385836
 20
-3.44402750564941
 30
0.0
 10
13.07350002385836
 20
-3.50583251865479
 30
0.0
 10
13.07350002385836
 20
-3.50583251865479
 30
0.0
 10
13.07350002385836
 20
-3.50583251865479
 30
0.0
 10
12.72210028436288
 20
-3.50583251865479
 30
0.0
 10
12.72210028436288
 20
-3.50583251865479
 30
0.0
  0
HATCH
  5
10D
330
108
100
AcDbEntity
  8
Livello 3
 62
   250
420
  1842203
100
AcDbHatch
 10
0.0
 20
0.0
 30
0.0
210
0.0
220
0.0
230
1.0
  2
SOLID
 70
     1
 71
     0
 91
        1
 92
        1
 93
        1
 72
     4
 94
        3
 73
     0
 74
     0
 95
       47
 96
       43
 40
0.0
 40
0.0
 40
0.0
 40
0.0
 40
1.0
 40
1.0
 40
1.0
 40
2.0
 40
2.0
 40
2.0
 40
3.0
 40
3.0
 40
3.0
 40
4.0
 40
4.0
 40
4.0
 40
5.0
 40
5.0
 40
5.0
 40
6.0
 40
6.0
 40
6.0
 40
7.0
 40
7.0
 40
7.0
 40
8.0
 40
8.0
 40
8.0
 40
9.0
 40
9.0
 40
9.0
 40
10.0
 40
10.0
 40
10.0
 40
11.0
 40
11.0
 40
11.0
 40
12.0
 40
12.0
 40
12.0
 40
13.0
 40
13.0
 40
13.0
 40
14.0
 40
14.0
 40
14.0
 40
14.0
 10
12.72210028436288
 20
-3.50583251865479
 10
12.72210028436288
 20
-3.50583251865479
 10
12.72210028436288
 20
-3.460116101565525
 10
12.72210028436288
 20
-3.460116101565525
 10
12.72210028436288
 20
-3.460116101565525
 10
12.78052910379271
 20
-3.403375378923461
 10
12.78052910379271
 20
-3.403375378923461
 10
12.92108899959091
 20
-3.269585095753783
 10
12.98458210938406
 20
-3.198461099460801
 10
12.98544338325537
 20
-3.115485974698558
 10
12.98544338325537
 20
-3.059606525927806
 10
12.95834770726388
 20
-3.007947319126484
 10
12.8761994054181
 20
-3.007947319126484
 10
12.82624552088198
 20
-3.007947319126484
 10
12.78476657123957
 20
-3.033354898330203
 10
12.75935899203585
 20
-3.054525010087062
 10
12.75935899203585
 20
-3.054525010087062
 10
12.73565673509733
 20
-3.002021754891855
 10
12.73565673509733
 20
-3.002021754891855
 10
12.7737594911642
 20
-2.969844563059622
 10
12.82795084314718
 20
-2.946142306121103
 10
12.89144395294033
 20
-2.946142306121103
 10
13.00998968858778
 20
-2.946142306121103
 10
13.0599435731239
 20
-3.027429334095573
 10
13.0599435731239
 20
-3.106166991410958
 10
13.0599435731239
 20
-3.207780082748401
 10
12.98628743164926
 20
-3.289911159116758
 10
12.87027384118347
 20
-3.401687282135689
 10
12.87027384118347
 20
-3.401687282135689
 10
12.82624552088198
 20
-3.442322183384211
 10
12.82624552088198
 20
-3.442322183384211
 10
12.82624552088198
 20
-3.442322183384211
 10
12.82624552088198
 20
-3.44402750564941
 10
12.82624552088198
 20
-3.44402750564941
 10
12.82624552088198
 20
-3.44402750564941
 10
13.07350002385836
 20
-3.44402750564941
 10
13.07350002385836
 20
-3.44402750564941
 10
13.07350002385836
 20
-3.44402750564941
 10
13.07350002385836
 20
-3.50583251865479
 10
13.07350002385836
 20
-3.50583251865479
 10
13.07350002385836
 20
-3.50583251865479
 10
12.72210028436288
 20
-3.50583251865479
 10
12.72210028436288
 20
-3.50583251865479
 97
        0
 97
        0
 75
     2
 76
     1
 98
        0
450
        0
451
        0
460
0.0
461
0.0
452
        0
462
0.0
453
        0
470

  0
SPLINE
  5
10E
330
108
100
AcDbEntity
  8
Livello 3
370
     0
100
AcDbSpline
210
0.0
220
0.0
230
1.0
 70
     9
 71
     3
 72
    59
 73
    55
 74
     0
 42
0.000000001
 43
0.0000000001
 40
0.0
 40
0.0
 40
0.0
 40
0.0
 40
1.0
 40
1.0
 40
1.0
 40
2.0
 40
2.0
 40
2.0
 40
3.0
 40
3.0
 40
3.0
 40
4.0
 40
4.0
 40
4.0
 40
5.0
 40
5.0
 40
5.0
 40
6.0
 40
6.0
 40
6.0
 40
7.0
 40
7.0
 40
7.0
 40
8.0
 40
8.0
 40
8.0
 40
9.0
 40
9.0
 40
9.0
 40
10.0
 40
10.0
 40
10.0
 40
11.0
 40
11.0
 40
11.0
 40
12.0
 40
12.0
 40
12.0
 40
13.0
 40
13.0
 40
13.0
 40
14.0
 40
14.0
 40
14.0
 40
15.0
 40
15.0
 40
15.0
 40
16.0
 40
16.0
 40
16.0
 40
17.0
 40
17.0
 40
17.0
 40
18.0
 40
18.0
 40
18.0
 40
18.0
 10
13.17420016489221
 20
-3.420308023233463
 30
0.0
 10
13.19537027664907
 20
-3.433864473967921
 30
0.0
 10
13.24448011279131
 20
-3.455034585724782
 30
0.0
 10
13.29613931959263
 20
-3.455034585724782
 30
0.0
 10
13.39180962121802
 20
-3.455034585724782
 30
0.0
 10
13.42145466786859
 20
-3.39405639563586
 30
0.0
 10
13.42061061947471
 20
-3.348339978546595
 30
0.0
 10
13.41976657108082
 20
-3.271290418018983
 30
0.0
 10
13.35033067157561
 20
-3.238269177792863
 30
0.0
 10
13.27836262688874
 20
-3.238269177792863
 30
0.0
 10
13.27836262688874
 20
-3.238269177792863
 30
0.0
 10
13.23686645176891
 20
-3.238269177792863
 30
0.0
 10
13.23686645176891
 20
-3.238269177792863
 30
0.0
 10
13.23686645176891
 20
-3.238269177792863
 30
0.0
 10
13.23686645176891
 20
-3.182372503544685
 30
0.0
 10
13.23686645176891
 20
-3.182372503544685
 30
0.0
 10
13.23686645176891
 20
-3.182372503544685
 30
0.0
 10
13.27836262688874
 20
-3.182372503544685
 30
0.0
 10
13.27836262688874
 20
-3.182372503544685
 30
0.0
 10
13.33255397887172
 20
-3.182372503544685
 30
0.0
 10
13.40112860450562
 20
-3.154432779159308
 30
0.0
 10
13.40112860450562
 20
-3.089234347100955
 30
0.0
 10
13.40112860450562
 20
-3.045206026799462
 30
0.0
 10
13.37318888012024
 20
-3.006259222338712
 30
0.0
 10
13.30459702900892
 20
-3.006259222338712
 30
0.0
 10
13.26056870870743
 20
-3.006259222338712
 30
0.0
 10
13.21822848519371
 20
-3.025724011830373
 30
0.0
 10
13.19452622825519
 20
-3.042673881617802
 30
0.0
 10
13.19452622825519
 20
-3.042673881617802
 30
0.0
 10
13.1750442132861
 20
-2.988482529634823
 30
0.0
 10
13.1750442132861
 20
-2.988482529634823
 30
0.0
 10
13.20384521154279
 20
-2.967312417877963
 30
0.0
 10
13.25972466031354
 20
-2.946142306121103
 30
0.0
 10
13.31899752813726
 20
-2.946142306121103
 30
0.0
 10
13.42738023210322
 20
-2.946142306121103
 30
0.0
 10
13.47649006824546
 20
-3.010496689785569
 30
0.0
 10
13.47649006824546
 20
-3.077383218631696
 30
0.0
 10
13.47649006824546
 20
-3.134106715796334
 30
0.0
 10
13.44262477962545
 20
-3.182372503544685
 30
0.0
 10
13.37487697690802
 20
-3.206936034354516
 30
0.0
 10
13.37487697690802
 20
-3.206936034354516
 30
0.0
 10
13.37487697690802
 20
-3.208624131142288
 30
0.0
 10
13.37487697690802
 20
-3.208624131142288
 30
0.0
 10
13.44262477962545
 20
-3.222180581876745
 30
0.0
 10
13.49766018000232
 20
-3.272978514806754
 30
0.0
 10
13.49766018000232
 20
-3.350028075334368
 30
0.0
 10
13.49766018000232
 20
-3.438101941414779
 30
0.0
 10
13.429068328891
 20
-3.515151501942392
 30
0.0
 10
13.29698336798652
 20
-3.515151501942392
 30
0.0
 10
13.23517835498114
 20
-3.515151501942392
 30
0.0
 10
13.18098700299815
 20
-3.495669486973305
 30
0.0
 10
13.15389132700667
 20
-3.477892794269415
 30
0.0
 10
13.15389132700667
 20
-3.477892794269415
 30
0.0
 10
13.17420016489221
 20
-3.420308023233463
 30
0.0
 10
13.17420016489221
 20
-3.420308023233463
 30
0.0
  0
HATCH
  5
10F
330
108
100
AcDbEntity
  8
Livello 3
 62
   250
420
  1842203
100
AcDbHatch
 10
0.0
 20
0.0
 30
0.0
210
0.0
220
0.0
230
1.0
  2
SOLID
 70
     1
 71
     0
 91
        1
 92
        1
 93
        1
 72
     4
 94
        3
 73
     0
 74
     0
 95
       59
 96
       55
 40
0.0
 40
0.0
 40
0.0
 40
0.0
 40
1.0
 40
1.0
 40
1.0
 40
2.0
 40
2.0
 40
2.0
 40
3.0
 40
3.0
 40
3.0
 40
4.0
 40
4.0
 40
4.0
 40
5.0
 40
5.0
 40
5.0
 40
6.0
 40
6.0
 40
6.0
 40
7.0
 40
7.0
 40
7.0
 40
8.0
 40
8.0
 40
8.0
 40
9.0
 40
9.0
 40
9.0
 40
10.0
 40
10.0
 40
10.0
 40
11.0
 40
11.0
 40
11.0
 40
12.0
 40
12.0
 40
12.0
 40
13.0
 40
13.0
 40
13.0
 40
14.0
 40
14.0
 40
14.0
 40
15.0
 40
15.0
 40
15.0
 40
16.0
 40
16.0
 40
16.0
 40
17.0
 40
17.0
 40
17.0
 40
18.0
 40
18.0
 40
18.0
 40
18.0
 10
13.17420016489221
 20
-3.420308023233463
 10
13.19537027664907
 20
-3.433864473967921
 10
13.24448011279131
 20
-3.455034585724782
 10
13.29613931959263
 20
-3.455034585724782
 10
13.39180962121802
 20
-3.455034585724782
 10
13.42145466786859
 20
-3.39405639563586
 10
13.42061061947471
 20
-3.348339978546595
 10
13.41976657108082
 20
-3.271290418018983
 10
13.35033067157561
 20
-3.238269177792863
 10
13.27836262688874
 20
-3.238269177792863
 10
13.27836262688874
 20
-3.238269177792863
 10
13.23686645176891
 20
-3.238269177792863
 10
13.23686645176891
 20
-3.238269177792863
 10
13.23686645176891
 20
-3.238269177792863
 10
13.23686645176891
 20
-3.182372503544685
 10
13.23686645176891
 20
-3.182372503544685
 10
13.23686645176891
 20
-3.182372503544685
 10
13.27836262688874
 20
-3.182372503544685
 10
13.27836262688874
 20
-3.182372503544685
 10
13.33255397887172
 20
-3.182372503544685
 10
13.40112860450562
 20
-3.154432779159308
 10
13.40112860450562
 20
-3.089234347100955
 10
13.40112860450562
 20
-3.045206026799462
 10
13.37318888012024
 20
-3.006259222338712
 10
13.30459702900892
 20
-3.006259222338712
 10
13.26056870870743
 20
-3.006259222338712
 10
13.21822848519371
 20
-3.025724011830373
 10
13.19452622825519
 20
-3.042673881617802
 10
13.19452622825519
 20
-3.042673881617802
 10
13.1750442132861
 20
-2.988482529634823
 10
13.1750442132861
 20
-2.988482529634823
 10
13.20384521154279
 20
-2.967312417877963
 10
13.25972466031354
 20
-2.946142306121103
 10
13.31899752813726
 20
-2.946142306121103
 10
13.42738023210322
 20
-2.946142306121103
 10
13.47649006824546
 20
-3.010496689785569
 10
13.47649006824546
 20
-3.077383218631696
 10
13.47649006824546
 20
-3.134106715796334
 10
13.44262477962545
 20
-3.182372503544685
 10
13.37487697690802
 20
-3.206936034354516
 10
13.37487697690802
 20
-3.206936034354516
 10
13.37487697690802
 20
-3.208624131142288
 10
13.37487697690802
 20
-3.208624131142288
 10
13.44262477962545
 20
-3.222180581876745
 10
13.49766018000232
 20
-3.272978514806754
 10
13.49766018000232
 20
-3.350028075334368
 10
13.49766018000232
 20
-3.438101941414779
 10
13.429068328891
 20
-3.515151501942392
 10
13.29698336798652
 20
-3.515151501942392
 10
13.23517835498114
 20
-3.515151501942392
 10
13.18098700299815
 20
-3.495669486973305
 10
13.15389132700667
 20
-3.477892794269415
 10
13.15389132700667
 20
-3.477892794269415
 10
13.17420016489221
 20
-3.420308023233463
 10
13.17420016489221
 20
-3.420308023233463
 97
        0
 97
        0
 75
     2
 76
     1
 98
        0
450
        0
451
        0
460
0.0
461
0.0
452
        0
462
0.0
453
        0
470

  0
ENDBLK
  5
10B
330
108
100
AcDbEntity
  8
0
100
AcDbBlockEnd
  0
BLOCK
  5
112
330
110
100
AcDbEntity
  8
0
100
AcDbBlockBegin
  2
block 20
 70
     0
 10
0.0
 20
0.0
 30
0.0
  3
block 20
  1

  0
SPLINE
  5
114
330
110
100
AcDbEntity
  8
Livello 3
370
     0
100
AcDbSpline
210
0.0
220
0.0
230
1.0
 70
    11
 71
     3
 72
    47
 73
    43
 74
     0
 42
0.000000001
 43
0.0000000001
 40
0.0
 40
0.0
 40
0.0
 40
0.0
 40
1.0
 40
1.0
 40
1.0
 40
2.0
 40
2.0
 40
2.0
 40
3.0
 40
3.0
 40
3.0
 40
4.0
 40
4.0
 40
4.0
 40
5.0
 40
5.0
 40
5.0
 40
6.0
 40
6.0
 40
6.0
 40
7.0
 40
7.0
 40
7.0
 40
8.0
 40
8.0
 40
8.0
 40
9.0
 40
9.0
 40
9.0
 40
10.0
 40
10.0
 40
10.0
 40
11.0
 40
11.0
 40
11.0
 40
12.0
 40
12.0
 40
12.0
 40
13.0
 40
13.0
 40
13.0
 40
14.0
 40
14.0
 40
14.0
 40
14.0
 10
11.69208563618288
 20
-5.483334552665624
 30
0.0
 10
11.69208563618288
 20
-5.483334552665624
 30
0.0
 10
11.64636921909361
 20
-5.483334552665624
 30
0.0
 10
11.64636921909361
 20
-5.483334552665624
 30
0.0
 10
11.64636921909361
 20
-5.483334552665624
 30
0.0
 10
11.58962849645155
 20
-5.424905733235787
 30
0.0
 10
11.58962849645155
 20
-5.424905733235787
 30
0.0
 10
11.45583821328187
 20
-5.284345837437594
 30
0.0
 10
11.38471421698889
 20
-5.22085272764444
 30
0.0
 10
11.30173909222665
 20
-5.219991453773126
 30
0.0
 10
11.2458596434559
 20
-5.219991453773126
 30
0.0
 10
11.19420043665457
 20
-5.247087129764616
 30
0.0
 10
11.19420043665457
 20
-5.329235431610398
 30
0.0
 10
11.19420043665457
 20
-5.379189316146521
 30
0.0
 10
11.21960801585829
 20
-5.420668265788929
 30
0.0
 10
11.24077812761515
 20
-5.446075844992646
 30
0.0
 10
11.24077812761515
 20
-5.446075844992646
 30
0.0
 10
11.18827487241994
 20
-5.469778101931165
 30
0.0
 10
11.18827487241994
 20
-5.469778101931165
 30
0.0
 10
11.15609768058771
 20
-5.431675345864302
 30
0.0
 10
11.13239542364919
 20
-5.377483993881323
 30
0.0
 10
11.13239542364919
 20
-5.313990884088168
 30
0.0
 10
11.13239542364919
 20
-5.195445148440721
 30
0.0
 10
11.21368245162366
 20
-5.145491263904598
 30
0.0
 10
11.29242010893905
 20
-5.145491263904598
 30
0.0
 10
11.39403320027649
 20
-5.145491263904598
 30
0.0
 10
11.47616427664485
 20
-5.21914740537924
 30
0.0
 10
11.58794039966378
 20
-5.335160995845027
 30
0.0
 10
11.58794039966378
 20
-5.335160995845027
 30
0.0
 10
11.6285753009123
 20
-5.379189316146521
 30
0.0
 10
11.6285753009123
 20
-5.379189316146521
 30
0.0
 10
11.6285753009123
 20
-5.379189316146521
 30
0.0
 10
11.6302806231775
 20
-5.379189316146521
 30
0.0
 10
11.6302806231775
 20
-5.379189316146521
 30
0.0
 10
11.6302806231775
 20
-5.379189316146521
 30
0.0
 10
11.6302806231775
 20
-5.131934813170141
 30
0.0
 10
11.6302806231775
 20
-5.131934813170141
 30
0.0
 10
11.6302806231775
 20
-5.131934813170141
 30
0.0
 10
11.69208563618288
 20
-5.131934813170141
 30
0.0
 10
11.69208563618288
 20
-5.131934813170141
 30
0.0
 10
11.69208563618288
 20
-5.131934813170141
 30
0.0
 10
11.69208563618288
 20
-5.483334552665624
 30
0.0
 10
11.69208563618288
 20
-5.483334552665624
 30
0.0
  0
HATCH
  5
115
330
110
100
AcDbEntity
  8
Livello 3
 62
   250
420
  1842203
100
AcDbHatch
 10
0.0
 20
0.0
 30
0.0
210
0.0
220
0.0
230
1.0
  2
SOLID
 70
     1
 71
     0
 91
        1
 92
        1
 93
        1
 72
     4
 94
        3
 73
     0
 74
     0
 95
       47
 96
       43
 40
0.0
 40
0.0
 40
0.0
 40
0.0
 40
1.0
 40
1.0
 40
1.0
 40
2.0
 40
2.0
 40
2.0
 40
3.0
 40
3.0
 40
3.0
 40
4.0
 40
4.0
 40
4.0
 40
5.0
 40
5.0
 40
5.0
 40
6.0
 40
6.0
 40
6.0
 40
7.0
 40
7.0
 40
7.0
 40
8.0
 40
8.0
 40
8.0
 40
9.0
 40
9.0
 40
9.0
 40
10.0
 40
10.0
 40
10.0
 40
11.0
 40
11.0
 40
11.0
 40
12.0
 40
12.0
 40
12.0
 40
13.0
 40
13.0
 40
13.0
 40
14.0
 40
14.0
 40
14.0
 40
14.0
 10
11.69208563618288
 20
-5.483334552665624
 10
11.69208563618288
 20
-5.483334552665624
 10
11.64636921909361
 20
-5.483334552665624
 10
11.64636921909361
 20
-5.483334552665624
 10
11.64636921909361
 20
-5.483334552665624
 10
11.58962849645155
 20
-5.424905733235787
 10
11.58962849645155
 20
-5.424905733235787
 10
11.45583821328187
 20
-5.284345837437594
 10
11.38471421698889
 20
-5.22085272764444
 10
11.30173909222665
 20
-5.219991453773126
 10
11.2458596434559
 20
-5.219991453773126
 10
11.19420043665457
 20
-5.247087129764616
 10
11.19420043665457
 20
-5.329235431610398
 10
11.19420043665457
 20
-5.379189316146521
 10
11.21960801585829
 20
-5.420668265788929
 10
11.24077812761515
 20
-5.446075844992646
 10
11.24077812761515
 20
-5.446075844992646
 10
11.18827487241994
 20
-5.469778101931165
 10
11.18827487241994
 20
-5.469778101931165
 10
11.15609768058771
 20
-5.431675345864302
 10
11.13239542364919
 20
-5.377483993881323
 10
11.13239542364919
 20
-5.313990884088168
 10
11.13239542364919
 20
-5.195445148440721
 10
11.21368245162366
 20
-5.145491263904598
 10
11.29242010893905
 20
-5.145491263904598
 10
11.39403320027649
 20
-5.145491263904598
 10
11.47616427664485
 20
-5.21914740537924
 10
11.58794039966378
 20
-5.335160995845027
 10
11.58794039966378
 20
-5.335160995845027
 10
11.6285753009123
 20
-5.379189316146521
 10
11.6285753009123
 20
-5.379189316146521
 10
11.6285753009123
 20
-5.379189316146521
 10
11.6302806231775
 20
-5.379189316146521
 10
11.6302806231775
 20
-5.379189316146521
 10
11.6302806231775
 20
-5.379189316146521
 10
11.6302806231775
 20
-5.131934813170141
 10
11.6302806231775
 20
-5.131934813170141
 10
11.6302806231775
 20
-5.131934813170141
 10
11.69208563618288
 20
-5.131934813170141
 10
11.69208563618288
 20
-5.131934813170141
 10
11.69208563618288
 20
-5.131934813170141
 10
11.69208563618288
 20
-5.483334552665624
 10
11.69208563618288
 20
-5.483334552665624
 97
        0
 97
        0
 75
     2
 76
     1
 98
        0
450
        0
451
        0
460
0.0
461
0.0
452
        0
462
0.0
453
        0
470

  0
POLYLINE
  5
116
330
110
100
AcDbEntity
  8
Livello 3
370
     0
100
AcDb2dPolyline
 66
     1
 10
0.0
 20
0.0
 30
0.0
  0
VERTEX
  5
117
330
116
100
AcDbEntity
  8
Livello 3
370
     0
100
AcDbVertex
100
AcDb2dVertex
 10
11.69208563618288
 20
-4.818689506173799
 30
0.0
  0
VERTEX
  5
118
330
116
100
AcDbEntity
  8
Livello 3
370
     0
100
AcDbVertex
100
AcDb2dVertex
 10
11.54220675709709
 20
-4.818689506173799
 30
0.0
  0
VERTEX
  5
119
330
116
100
AcDbEntity
  8
Livello 3
370
     0
100
AcDbVertex
100
AcDb2dVertex
 10
11.54220675709709
 20
-5.074418944043894
 30
0.0
  0
VERTEX
  5
11A
330
116
100
AcDbEntity
  8
Livello 3
370
     0
100
AcDbVertex
100
AcDb2dVertex
 10
11.49309692095485
 20
-5.074418944043894
 30
0.0
  0
VERTEX
  5
11B
330
116
100
AcDbEntity
  8
Livello 3
370
     0
100
AcDbVertex
100
AcDb2dVertex
 10
11.14169718145937
 20
-4.828852537855286
 30
0.0
  0
VERTEX
  5
11C
330
116
100
AcDbEntity
  8
Livello 3
370
     0
100
AcDbVertex
100
AcDb2dVertex
 10
11.14169718145937
 20
-4.748409558274703
 30
0.0
  0
VERTEX
  5
11D
330
116
100
AcDbEntity
  8
Livello 3
370
     0
100
AcDbVertex
100
AcDb2dVertex
 10
11.48379516314468
 20
-4.748409558274703
 30
0.0
  0
VERTEX
  5
11E
330
116
100
AcDbEntity
  8
Livello 3
370
     0
100
AcDbVertex
100
AcDb2dVertex
 10
11.48379516314468
 20
-4.67135999774709
 30
0.0
  0
VERTEX
  5
11F
330
116
100
AcDbEntity
  8
Livello 3
370
     0
100
AcDbVertex
100
AcDb2dVertex
 10
11.54220675709709
 20
-4.67135999774709
 30
0.0
  0
VERTEX
  5
120
330
116
100
AcDbEntity
  8
Livello 3
370
     0
100
AcDbVertex
100
AcDb2dVertex
 10
11.54220675709709
 20
-4.748409558274703
 30
0.0
  0
VERTEX
  5
121
330
116
100
AcDbEntity
  8
Livello 3
370
     0
100
AcDbVertex
100
AcDb2dVertex
 10
11.69208563618288
 20
-4.748409558274703
 30
0.0
  0
VERTEX
  5
122
330
116
100
AcDbEntity
  8
Livello 3
370
     0
100
AcDbVertex
100
AcDb2dVertex
 10
11.69208563618288
 20
-4.818689506173799
 30
0.0
  0
SEQEND
  5
123
330
116
100
AcDbEntity
  8
Livello 3
370
     0
  0
SPLINE
  5
124
330
110
100
AcDbEntity
  8
Livello 3
370
     0
100
AcDbSpline
210
0.0
220
0.0
230
1.0
 70
    11
 71
     3
 72
    26
 73
    22
 74
     0
 42
0.000000001
 43
0.0000000001
 40
0.0
 40
0.0
 40
0.0
 40
0.0
 40
1.0
 40
1.0
 40
1.0
 40
2.0
 40
2.0
 40
2.0
 40
3.0
 40
3.0
 40
3.0
 40
4.0
 40
4.0
 40
4.0
 40
5.0
 40
5.0
 40
5.0
 40
6.0
 40
6.0
 40
6.0
 40
7.0
 40
7.0
 40
7.0
 40
7.0
 10
11.48379516314468
 20
-4.818689506173799
 30
0.0
 10
11.48379516314468
 20
-4.818689506173799
 30
0.0
 10
11.30005099543888
 20
-4.818689506173799
 30
0.0
 10
11.30005099543888
 20
-4.818689506173799
 30
0.0
 10
11.27124999718219
 20
-4.818689506173799
 30
0.0
 10
11.24246622440292
 20
-4.817845457779914
 30
0.0
 10
11.21368245162366
 20
-4.816157360992141
 30
0.0
 10
11.21368245162366
 20
-4.816157360992141
 30
0.0
 10
11.21368245162366
 20
-4.818689506173799
 30
0.0
 10
11.21368245162366
 20
-4.818689506173799
 30
0.0
 10
11.2458596434559
 20
-4.835639375961228
 30
0.0
 10
11.26956190039441
 20
-4.84917860121826
 30
0.0
 10
11.29496947959813
 20
-4.864423148740491
 30
0.0
 10
11.29496947959813
 20
-4.864423148740491
 30
0.0
 10
11.48208984087948
 20
-4.999057480304054
 30
0.0
 10
11.48208984087948
 20
-4.999057480304054
 30
0.0
 10
11.48208984087948
 20
-4.999057480304054
 30
0.0
 10
11.48379516314468
 20
-4.999057480304054
 30
0.0
 10
11.48379516314468
 20
-4.999057480304054
 30
0.0
 10
11.48379516314468
 20
-4.999057480304054
 30
0.0
 10
11.48379516314468
 20
-4.818689506173799
 30
0.0
 10
11.48379516314468
 20
-4.818689506173799
 30
0.0
  0
HATCH
  5
125
330
110
100
AcDbEntity
  8
Livello 3
 62
   250
420
  1842203
100
AcDbHatch
 10
0.0
 20
0.0
 30
0.0
210
0.0
220
0.0
230
1.0
  2
SOLID
 70
     1
 71
     0
 91
        2
 92
        1
 93
       11
 72
     1
 10
11.69208563618288
 20
-4.818689506173799
 11
11.54220675709709
 21
-4.818689506173799
 72
     1
 10
11.54220675709709
 20
-4.818689506173799
 11
11.54220675709709
 21
-5.074418944043894
 72
     1
 10
11.54220675709709
 20
-5.074418944043894
 11
11.49309692095485
 21
-5.074418944043894
 72
     1
 10
11.49309692095485
 20
-5.074418944043894
 11
11.14169718145937
 21
-4.828852537855286
 72
     1
 10
11.14169718145937
 20
-4.828852537855286
 11
11.14169718145937
 21
-4.748409558274703
 72
     1
 10
11.14169718145937
 20
-4.748409558274703
 11
11.48379516314468
 21
-4.748409558274703
 72
     1
 10
11.48379516314468
 20
-4.748409558274703
 11
11.48379516314468
 21
-4.67135999774709
 72
     1
 10
11.48379516314468
 20
-4.67135999774709
 11
11.54220675709709
 21
-4.67135999774709
 72
     1
 10
11.54220675709709
 20
-4.67135999774709
 11
11.54220675709709
 21
-4.748409558274703
 72
     1
 10
11.54220675709709
 20
-4.748409558274703
 11
11.69208563618288
 21
-4.748409558274703
 72
     1
 10
11.69208563618288
 20
-4.748409558274703
 11
11.69208563618288
 21
-4.818689506173799
 97
        0
 92
        1
 93
        1
 72
     4
 94
        3
 73
     0
 74
     0
 95
       26
 96
       22
 40
0.0
 40
0.0
 40
0.0
 40
0.0
 40
1.0
 40
1.0
 40
1.0
 40
2.0
 40
2.0
 40
2.0
 40
3.0
 40
3.0
 40
3.0
 40
4.0
 40
4.0
 40
4.0
 40
5.0
 40
5.0
 40
5.0
 40
6.0
 40
6.0
 40
6.0
 40
7.0
 40
7.0
 40
7.0
 40
7.0
 10
11.48379516314468
 20
-4.818689506173799
 10
11.48379516314468
 20
-4.818689506173799
 10
11.30005099543888
 20
-4.818689506173799
 10
11.30005099543888
 20
-4.818689506173799
 10
11.27124999718219
 20
-4.818689506173799
 10
11.24246622440292
 20
-4.817845457779914
 10
11.21368245162366
 20
-4.816157360992141
 10
11.21368245162366
 20
-4.816157360992141
 10
11.21368245162366
 20
-4.818689506173799
 10
11.21368245162366
 20
-4.818689506173799
 10
11.2458596434559
 20
-4.835639375961228
 10
11.26956190039441
 20
-4.84917860121826
 10
11.29496947959813
 20
-4.864423148740491
 10
11.29496947959813
 20
-4.864423148740491
 10
11.48208984087948
 20
-4.999057480304054
 10
11.48208984087948
 20
-4.999057480304054
 10
11.48208984087948
 20
-4.999057480304054
 10
11.48379516314468
 20
-4.999057480304054
 10
11.48379516314468
 20
-4.999057480304054
 10
11.48379516314468
 20
-4.999057480304054
 10
11.48379516314468
 20
-4.818689506173799
 10
11.48379516314468
 20
-4.818689506173799
 97
        0
 97
        0
 75
     2
 76
     1
 98
        0
450
        0
451
        0
460
0.0
461
0.0
452
        0
462
0.0
453
        0
470

  0
SPLINE
  5
126
330
110
100
AcDbEntity
  8
Livello 3
370
     0
100
AcDbSpline
210
0.0
220
0.0
230
1.0
 70
     9
 71
     3
 72
    17
 73
    13
 74
     0
 42
0.000000001
 43
0.0000000001
 40
0.0
 40
0.0
 40
0.0
 40
0.0
 40
1.0
 40
1.0
 40
1.0
 40
2.0
 40
2.0
 40
2.0
 40
3.0
 40
3.0
 40
3.0
 40
4.0
 40
4.0
 40
4.0
 40
4.0
 10
11.79623087270198
 20
-4.639234482347136
 30
0.0
 10
11.74627698816586
 20
-4.62061374124936
 30
0.0
 10
11.65567097690379
 20
-4.597755532704728
 30
0.0
 10
11.59386596389841
 20
-4.588436549417126
 30
0.0
 10
11.59386596389841
 20
-4.588436549417126
 30
0.0
 10
11.58539102900469
 20
-4.505461424654884
 30
0.0
 10
11.58539102900469
 20
-4.505461424654884
 30
0.0
 10
11.65737629916899
 20
-4.524926214146546
 30
0.0
 10
11.7513585040066
 20
-4.562184921819523
 30
0.0
 10
11.79114935686124
 20
-4.585904404235467
 30
0.0
 10
11.79114935686124
 20
-4.585904404235467
 30
0.0
 10
11.79623087270198
 20
-4.639234482347136
 30
0.0
 10
11.79623087270198
 20
-4.639234482347136
 30
0.0
  0
HATCH
  5
127
330
110
100
AcDbEntity
  8
Livello 3
 62
   250
420
  1842203
100
AcDbHatch
 10
0.0
 20
0.0
 30
0.0
210
0.0
220
0.0
230
1.0
  2
SOLID
 70
     1
 71
     0
 91
        1
 92
        1
 93
        1
 72
     4
 94
        3
 73
     0
 74
     0
 95
       17
 96
       13
 40
0.0
 40
0.0
 40
0.0
 40
0.0
 40
1.0
 40
1.0
 40
1.0
 40
2.0
 40
2.0
 40
2.0
 40
3.0
 40
3.0
 40
3.0
 40
4.0
 40
4.0
 40
4.0
 40
4.0
 10
11.79623087270198
 20
-4.639234482347136
 10
11.74627698816586
 20
-4.62061374124936
 10
11.65567097690379
 20
-4.597755532704728
 10
11.59386596389841
 20
-4.588436549417126
 10
11.59386596389841
 20
-4.588436549417126
 10
11.58539102900469
 20
-4.505461424654884
 10
11.58539102900469
 20
-4.505461424654884
 10
11.65737629916899
 20
-4.524926214146546
 10
11.7513585040066
 20
-4.562184921819523
 10
11.79114935686124
 20
-4.585904404235467
 10
11.79114935686124
 20
-4.585904404235467
 10
11.79623087270198
 20
-4.639234482347136
 10
11.79623087270198
 20
-4.639234482347136
 97
        0
 97
        0
 75
     2
 76
     1
 98
        0
450
        0
451
        0
460
0.0
461
0.0
452
        0
462
0.0
453
        0
470

  0
SPLINE
  5
128
330
110
100
AcDbEntity
  8
Livello 3
370
     0
100
AcDbSpline
210
0.0
220
0.0
230
1.0
 70
    11
 71
     3
 72
    50
 73
    46
 74
     0
 42
0.000000001
 43
0.0000000001
 40
0.0
 40
0.0
 40
0.0
 40
0.0
 40
1.0
 40
1.0
 40
1.0
 40
2.0
 40
2.0
 40
2.0
 40
3.0
 40
3.0
 40
3.0
 40
4.0
 40
4.0
 40
4.0
 40
5.0
 40
5.0
 40
5.0
 40
6.0
 40
6.0
 40
6.0
 40
7.0
 40
7.0
 40
7.0
 40
8.0
 40
8.0
 40
8.0
 40
9.0
 40
9.0
 40
9.0
 40
10.0
 40
10.0
 40
10.0
 40
11.0
 40
11.0
 40
11.0
 40
12.0
 40
12.0
 40
12.0
 40
13.0
 40
13.0
 40
13.0
 40
14.0
 40
14.0
 40
14.0
 40
15.0
 40
15.0
 40
15.0
 40
15.0
 10
11.20436346833606
 20
-4.110894638729221
 30
0.0
 10
11.20436346833606
 20
-4.110894638729221
 30
0.0
 10
11.20436346833606
 20
-4.320890434032623
 30
0.0
 10
11.20436346833606
 20
-4.320890434032623
 30
0.0
 10
11.20436346833606
 20
-4.320890434032623
 30
0.0
 10
11.34576741252814
 20
-4.342060545789484
 30
0.0
 10
11.34576741252814
 20
-4.342060545789484
 30
0.0
 10
11.34407931574036
 20
-4.329365368926337
 30
0.0
 10
11.34237399347517
 20
-4.317497014979653
 30
0.0
 10
11.34237399347517
 20
-4.297188177094106
 30
0.0
 10
11.34237399347517
 20
-4.254847953580385
 30
0.0
 10
11.35169297676277
 20
-4.212507730066663
 30
0.0
 10
11.37201904012574
 20
-4.178642441446658
 30
0.0
 10
11.39656534545815
 20
-4.135458169539051
 30
0.0
 10
11.44398708481261
 20
-4.099887558653846
 30
0.0
 10
11.51342298431782
 20
-4.099887558653846
 30
0.0
 10
11.6209616398899
 20
-4.099887558653846
 30
0.0
 10
11.70140461947048
 20
-4.185412054075174
 30
0.0
 10
11.70140461947048
 20
-4.304801838116507
 30
0.0
 10
11.70140461947048
 20
-4.364918754334116
 30
0.0
 10
11.68447197516048
 20
-4.415733912741552
 30
0.0
 10
11.66752210537305
 20
-4.44196831486173
 30
0.0
 10
11.66752210537305
 20
-4.44196831486173
 30
0.0
 10
11.61079860820841
 20
-4.423347573763954
 30
0.0
 10
11.61079860820841
 20
-4.423347573763954
 30
0.0
 10
11.62435505894287
 20
-4.400489365219322
 30
0.0
 10
11.64128770325287
 20
-4.355599771046516
 30
0.0
 10
11.64128770325287
 20
-4.305645886510393
 30
0.0
 10
11.64128770325287
 20
-4.235365938611296
 30
0.0
 10
11.59555406068618
 20
-4.175249022393687
 30
0.0
 10
11.52189791921154
 20
-4.175249022393687
 30
0.0
 10
11.45075669744113
 20
-4.176093070787573
 30
0.0
 10
11.39995876451112
 20
-4.223514810142037
 30
0.0
 10
11.39995876451112
 20
-4.333585610895769
 30
0.0
 10
11.39995876451112
 20
-4.364918754334116
 30
0.0
 10
11.40335218356409
 20
-4.389482285143948
 30
0.0
 10
11.40588432874575
 20
-4.409791123029496
 30
0.0
 10
11.40588432874575
 20
-4.409791123029496
 30
0.0
 10
11.14169718145937
 20
-4.374237737621718
 30
0.0
 10
11.14169718145937
 20
-4.374237737621718
 30
0.0
 10
11.14169718145937
 20
-4.374237737621718
 30
0.0
 10
11.14169718145937
 20
-4.110894638729221
 30
0.0
 10
11.14169718145937
 20
-4.110894638729221
 30
0.0
 10
11.14169718145937
 20
-4.110894638729221
 30
0.0
 10
11.20436346833606
 20
-4.110894638729221
 30
0.0
 10
11.20436346833606
 20
-4.110894638729221
 30
0.0
  0
HATCH
  5
129
330
110
100
AcDbEntity
  8
Livello 3
 62
   250
420
  1842203
100
AcDbHatch
 10
0.0
 20
0.0
 30
0.0
210
0.0
220
0.0
230
1.0
  2
SOLID
 70
     1
 71
     0
 91
        1
 92
        1
 93
        1
 72
     4
 94
        3
 73
     0
 74
     0
 95
       50
 96
       46
 40
0.0
 40
0.0
 40
0.0
 40
0.0
 40
1.0
 40
1.0
 40
1.0
 40
2.0
 40
2.0
 40
2.0
 40
3.0
 40
3.0
 40
3.0
 40
4.0
 40
4.0
 40
4.0
 40
5.0
 40
5.0
 40
5.0
 40
6.0
 40
6.0
 40
6.0
 40
7.0
 40
7.0
 40
7.0
 40
8.0
 40
8.0
 40
8.0
 40
9.0
 40
9.0
 40
9.0
 40
10.0
 40
10.0
 40
10.0
 40
11.0
 40
11.0
 40
11.0
 40
12.0
 40
12.0
 40
12.0
 40
13.0
 40
13.0
 40
13.0
 40
14.0
 40
14.0
 40
14.0
 40
15.0
 40
15.0
 40
15.0
 40
15.0
 10
11.20436346833606
 20
-4.110894638729221
 10
11.20436346833606
 20
-4.110894638729221
 10
11.20436346833606
 20
-4.320890434032623
 10
11.20436346833606
 20
-4.320890434032623
 10
11.20436346833606
 20
-4.320890434032623
 10
11.34576741252814
 20
-4.342060545789484
 10
11.34576741252814
 20
-4.342060545789484
 10
11.34407931574036
 20
-4.329365368926337
 10
11.34237399347517
 20
-4.317497014979653
 10
11.34237399347517
 20
-4.297188177094106
 10
11.34237399347517
 20
-4.254847953580385
 10
11.35169297676277
 20
-4.212507730066663
 10
11.37201904012574
 20
-4.178642441446658
 10
11.39656534545815
 20
-4.135458169539051
 10
11.44398708481261
 20
-4.099887558653846
 10
11.51342298431782
 20
-4.099887558653846
 10
11.6209616398899
 20
-4.099887558653846
 10
11.70140461947048
 20
-4.185412054075174
 10
11.70140461947048
 20
-4.304801838116507
 10
11.70140461947048
 20
-4.364918754334116
 10
11.68447197516048
 20
-4.415733912741552
 10
11.66752210537305
 20
-4.44196831486173
 10
11.66752210537305
 20
-4.44196831486173
 10
11.61079860820841
 20
-4.423347573763954
 10
11.61079860820841
 20
-4.423347573763954
 10
11.62435505894287
 20
-4.400489365219322
 10
11.64128770325287
 20
-4.355599771046516
 10
11.64128770325287
 20
-4.305645886510393
 10
11.64128770325287
 20
-4.235365938611296
 10
11.59555406068618
 20
-4.175249022393687
 10
11.52189791921154
 20
-4.175249022393687
 10
11.45075669744113
 20
-4.176093070787573
 10
11.39995876451112
 20
-4.223514810142037
 10
11.39995876451112
 20
-4.333585610895769
 10
11.39995876451112
 20
-4.364918754334116
 10
11.40335218356409
 20
-4.389482285143948
 10
11.40588432874575
 20
-4.409791123029496
 10
11.40588432874575
 20
-4.409791123029496
 10
11.14169718145937
 20
-4.374237737621718
 10
11.14169718145937
 20
-4.374237737621718
 10
11.14169718145937
 20
-4.374237737621718
 10
11.14169718145937
 20
-4.110894638729221
 10
11.14169718145937
 20
-4.110894638729221
 10
11.14169718145937
 20
-4.110894638729221
 10
11.20436346833606
 20
-4.110894638729221
 10
11.20436346833606
 20
-4.110894638729221
 97
        0
 97
        0
 75
     2
 76
     1
 98
        0
450
        0
451
        0
460
0.0
461
0.0
452
        0
462
0.0
453
        0
470

  0
ENDBLK
  5
113
330
110
100
AcDbEntity
  8
0
100
AcDbBlockEnd
  0
BLOCK
  5
130
330
12E
100
AcDbEntity
  8
0
100
AcDbBlockBegin
  2
block 21
 70
     0
 10
0.0
 20
0.0
 30
0.0
  3
block 21
  1

  0
SPLINE
  5
132
330
12E
100
AcDbEntity
  8
Livello 3
370
     0
100
AcDbSpline
210
0.0
220
0.0
230
1.0
 70
    11
 71
     3
 72
    47
 73
    43
 74
     0
 42
0.000000001
 43
0.0000000001
 40
0.0
 40
0.0
 40
0.0
 40
0.0
 40
1.0
 40
1.0
 40
1.0
 40
2.0
 40
2.0
 40
2.0
 40
3.0
 40
3.0
 40
3.0
 40
4.0
 40
4.0
 40
4.0
 40
5.0
 40
5.0
 40
5.0
 40
6.0
 40
6.0
 40
6.0
 40
7.0
 40
7.0
 40
7.0
 40
8.0
 40
8.0
 40
8.0
 40
9.0
 40
9.0
 40
9.0
 40
10.0
 40
10.0
 40
10.0
 40
11.0
 40
11.0
 40
11.0
 40
12.0
 40
12.0
 40
12.0
 40
13.0
 40
13.0
 40
13.0
 40
14.0
 40
14.0
 40
14.0
 40
14.0
 10
20.0655796933343
 20
-19.70611843040333
 30
0.0
 10
20.0655796933343
 20
-19.70611843040333
 30
0.0
 10
20.0655796933343
 20
-19.66040201331407
 30
0.0
 10
20.0655796933343
 20
-19.66040201331407
 30
0.0
 10
20.0655796933343
 20
-19.66040201331407
 30
0.0
 10
20.12400851276414
 20
-19.603661290672
 30
0.0
 10
20.12400851276414
 20
-19.603661290672
 30
0.0
 10
20.26456840856233
 20
-19.46988823297975
 30
0.0
 10
20.32806151835548
 20
-19.39874701120934
 30
0.0
 10
20.32892279222679
 20
-19.31578911192452
 30
0.0
 10
20.32892279222679
 20
-19.25990966315377
 30
0.0
 10
20.30180989075788
 20
-19.20823323087502
 30
0.0
 10
20.21967881438952
 20
-19.20823323087502
 30
0.0
 10
20.1697249298534
 20
-19.20823323087502
 30
0.0
 10
20.12824598021099
 20
-19.23365803555617
 30
0.0
 10
20.10282117552985
 20
-19.2548109218356
 30
0.0
 10
20.10282117552985
 20
-19.2548109218356
 30
0.0
 10
20.07911891859133
 20
-19.20230766664039
 30
0.0
 10
20.07911891859133
 20
-19.20230766664039
 30
0.0
 10
20.11722167465819
 20
-19.17013047480816
 30
0.0
 10
20.17141302664117
 20
-19.14642821786964
 30
0.0
 10
20.23490613643433
 20
-19.14642821786964
 30
0.0
 10
20.35345187208177
 20
-19.14642821786964
 30
0.0
 10
20.4034057566179
 20
-19.22773247132154
 30
0.0
 10
20.4034057566179
 20
-19.3064529031595
 30
0.0
 10
20.4034057566179
 20
-19.40808321997437
 30
0.0
 10
20.32974961514326
 20
-19.49021429634272
 30
0.0
 10
20.21375325015489
 20
-19.60197319388423
 30
0.0
 10
20.21375325015489
 20
-19.60197319388423
 30
0.0
 10
20.1697249298534
 20
-19.64262532061018
 30
0.0
 10
20.1697249298534
 20
-19.64262532061018
 30
0.0
 10
20.1697249298534
 20
-19.64262532061018
 30
0.0
 10
20.1697249298534
 20
-19.64431341739795
 30
0.0
 10
20.1697249298534
 20
-19.64431341739795
 30
0.0
 10
20.1697249298534
 20
-19.64431341739795
 30
0.0
 10
20.41697943282978
 20
-19.64431341739795
 30
0.0
 10
20.41697943282978
 20
-19.64431341739795
 30
0.0
 10
20.41697943282978
 20
-19.64431341739795
 30
0.0
 10
20.41697943282978
 20
-19.70611843040333
 30
0.0
 10
20.41697943282978
 20
-19.70611843040333
 30
0.0
 10
20.41697943282978
 20
-19.70611843040333
 30
0.0
 10
20.0655796933343
 20
-19.70611843040333
 30
0.0
 10
20.0655796933343
 20
-19.70611843040333
 30
0.0
  0
HATCH
  5
133
330
12E
100
AcDbEntity
  8
Livello 3
 62
   250
420
  1842203
100
AcDbHatch
 10
0.0
 20
0.0
 30
0.0
210
0.0
220
0.0
230
1.0
  2
SOLID
 70
     1
 71
     0
 91
        1
 92
        1
 93
        1
 72
     4
 94
        3
 73
     0
 74
     0
 95
       47
 96
       43
 40
0.0
 40
0.0
 40
0.0
 40
0.0
 40
1.0
 40
1.0
 40
1.0
 40
2.0
 40
2.0
 40
2.0
 40
3.0
 40
3.0
 40
3.0
 40
4.0
 40
4.0
 40
4.0
 40
5.0
 40
5.0
 40
5.0
 40
6.0
 40
6.0
 40
6.0
 40
7.0
 40
7.0
 40
7.0
 40
8.0
 40
8.0
 40
8.0
 40
9.0
 40
9.0
 40
9.0
 40
10.0
 40
10.0
 40
10.0
 40
11.0
 40
11.0
 40
11.0
 40
12.0
 40
12.0
 40
12.0
 40
13.0
 40
13.0
 40
13.0
 40
14.0
 40
14.0
 40
14.0
 40
14.0
 10
20.0655796933343
 20
-19.70611843040333
 10
20.0655796933343
 20
-19.70611843040333
 10
20.0655796933343
 20
-19.66040201331407
 10
20.0655796933343
 20
-19.66040201331407
 10
20.0655796933343
 20
-19.66040201331407
 10
20.12400851276414
 20
-19.603661290672
 10
20.12400851276414
 20
-19.603661290672
 10
20.26456840856233
 20
-19.46988823297975
 10
20.32806151835548
 20
-19.39874701120934
 10
20.32892279222679
 20
-19.31578911192452
 10
20.32892279222679
 20
-19.25990966315377
 10
20.30180989075788
 20
-19.20823323087502
 10
20.21967881438952
 20
-19.20823323087502
 10
20.1697249298534
 20
-19.20823323087502
 10
20.12824598021099
 20
-19.23365803555617
 10
20.10282117552985
 20
-19.2548109218356
 10
20.10282117552985
 20
-19.2548109218356
 10
20.07911891859133
 20
-19.20230766664039
 10
20.07911891859133
 20
-19.20230766664039
 10
20.11722167465819
 20
-19.17013047480816
 10
20.17141302664117
 20
-19.14642821786964
 10
20.23490613643433
 20
-19.14642821786964
 10
20.35345187208177
 20
-19.14642821786964
 10
20.4034057566179
 20
-19.22773247132154
 10
20.4034057566179
 20
-19.3064529031595
 10
20.4034057566179
 20
-19.40808321997437
 10
20.32974961514326
 20
-19.49021429634272
 10
20.21375325015489
 20
-19.60197319388423
 10
20.21375325015489
 20
-19.60197319388423
 10
20.1697249298534
 20
-19.64262532061018
 10
20.1697249298534
 20
-19.64262532061018
 10
20.1697249298534
 20
-19.64262532061018
 10
20.1697249298534
 20
-19.64431341739795
 10
20.1697249298534
 20
-19.64431341739795
 10
20.1697249298534
 20
-19.64431341739795
 10
20.41697943282978
 20
-19.64431341739795
 10
20.41697943282978
 20
-19.64431341739795
 10
20.41697943282978
 20
-19.64431341739795
 10
20.41697943282978
 20
-19.70611843040333
 10
20.41697943282978
 20
-19.70611843040333
 10
20.41697943282978
 20
-19.70611843040333
 10
20.0655796933343
 20
-19.70611843040333
 10
20.0655796933343
 20
-19.70611843040333
 97
        0
 97
        0
 75
     2
 76
     1
 98
        0
450
        0
451
        0
460
0.0
461
0.0
452
        0
462
0.0
453
        0
470

  0
SPLINE
  5
134
330
12E
100
AcDbEntity
  8
Livello 3
370
     0
100
AcDbSpline
210
0.0
220
0.0
230
1.0
 70
     9
 71
     3
 72
    17
 73
    13
 74
     0
 42
0.000000001
 43
0.0000000001
 40
0.0
 40
0.0
 40
0.0
 40
0.0
 40
1.0
 40
1.0
 40
1.0
 40
2.0
 40
2.0
 40
2.0
 40
3.0
 40
3.0
 40
3.0
 40
4.0
 40
4.0
 40
4.0
 40
4.0
 10
20.86570311978357
 20
-19.42499863880694
 30
0.0
 10
20.86570311978357
 20
-19.61213622556571
 30
0.0
 10
20.79624999480093
 20
-19.71545463916836
 30
0.0
 10
20.67432806557795
 20
-19.71545463916836
 30
0.0
 10
20.56677218452844
 20
-19.71545463916836
 30
0.0
 10
20.49397731692511
 20
-19.6146855962248
 30
0.0
 10
20.49228922013734
 20
-19.4326467507842
 30
0.0
 10
20.49228922013734
 20
-19.24802408372966
 30
0.0
 10
20.57187092584661
 20
-19.14642821786964
 30
0.0
 10
20.68362982338812
 20
-19.14642821786964
 30
0.0
 10
20.79962618837648
 20
-19.14642821786964
 30
0.0
 10
20.86570311978357
 20
-19.24974663147228
 30
0.0
 10
20.86570311978357
 20
-19.42499863880694
 30
0.0
  0
SPLINE
  5
135
330
12E
100
AcDbEntity
  8
Livello 3
370
     0
100
AcDbSpline
210
0.0
220
0.0
230
1.0
 70
     9
 71
     3
 72
    17
 73
    13
 74
     0
 42
0.000000001
 43
0.0000000001
 40
0.0
 40
0.0
 40
0.0
 40
0.0
 40
1.0
 40
1.0
 40
1.0
 40
2.0
 40
2.0
 40
2.0
 40
3.0
 40
3.0
 40
3.0
 40
4.0
 40
4.0
 40
4.0
 40
4.0
 10
20.56677218452844
 20
-19.43347357370066
 30
0.0
 10
20.56677218452844
 20
-19.57658284015794
 30
0.0
 10
20.61080050482994
 20
-19.65785264265498
 30
0.0
 10
20.6785655330248
 20
-19.65785264265498
 30
0.0
 10
20.75477104515853
 20
-19.65785264265498
 30
0.0
 10
20.79118570443762
 20
-19.56896917913554
 30
0.0
 10
20.79118570443762
 20
-19.42840928333734
 30
0.0
 10
20.79118570443762
 20
-19.29291367790247
 30
0.0
 10
20.7564591419463
 20
-19.20399576342817
 30
0.0
 10
20.67939235594126
 20
-19.20399576342817
 30
0.0
 10
20.61421114936033
 20
-19.20399576342817
 30
0.0
 10
20.56677218452844
 20
-19.28361192009229
 30
0.0
 10
20.56677218452844
 20
-19.43347357370066
 30
0.0
  0
HATCH
  5
136
330
12E
100
AcDbEntity
  8
Livello 3
 62
   250
420
  1842203
100
AcDbHatch
 10
0.0
 20
0.0
 30
0.0
210
0.0
220
0.0
230
1.0
  2
SOLID
 70
     1
 71
     0
 91
        2
 92
        1
 93
        1
 72
     4
 94
        3
 73
     0
 74
     0
 95
       17
 96
       13
 40
0.0
 40
0.0
 40
0.0
 40
0.0
 40
1.0
 40
1.0
 40
1.0
 40
2.0
 40
2.0
 40
2.0
 40
3.0
 40
3.0
 40
3.0
 40
4.0
 40
4.0
 40
4.0
 40
4.0
 10
20.86570311978357
 20
-19.42499863880694
 10
20.86570311978357
 20
-19.61213622556571
 10
20.79624999480093
 20
-19.71545463916836
 10
20.67432806557795
 20
-19.71545463916836
 10
20.56677218452844
 20
-19.71545463916836
 10
20.49397731692511
 20
-19.6146855962248
 10
20.49228922013734
 20
-19.4326467507842
 10
20.49228922013734
 20
-19.24802408372966
 10
20.57187092584661
 20
-19.14642821786964
 10
20.68362982338812
 20
-19.14642821786964
 10
20.79962618837648
 20
-19.14642821786964
 10
20.86570311978357
 20
-19.24974663147228
 10
20.86570311978357
 20
-19.42499863880694
 97
        0
 97
        0
 92
        1
 93
        1
 72
     4
 94
        3
 73
     0
 74
     0
 95
       17
 96
       13
 40
0.0
 40
0.0
 40
0.0
 40
0.0
 40
1.0
 40
1.0
 40
1.0
 40
2.0
 40
2.0
 40
2.0
 40
3.0
 40
3.0
 40
3.0
 40
4.0
 40
4.0
 40
4.0
 40
4.0
 10
20.56677218452844
 20
-19.43347357370066
 10
20.56677218452844
 20
-19.57658284015794
 10
20.61080050482994
 20
-19.65785264265498
 10
20.6785655330248
 20
-19.65785264265498
 10
20.75477104515853
 20
-19.65785264265498
 10
20.79118570443762
 20
-19.56896917913554
 10
20.79118570443762
 20
-19.42840928333734
 10
20.79118570443762
 20
-19.29291367790247
 10
20.7564591419463
 20
-19.20399576342817
 10
20.67939235594126
 20
-19.20399576342817
 10
20.61421114936033
 20
-19.20399576342817
 10
20.56677218452844
 20
-19.28361192009229
 10
20.56677218452844
 20
-19.43347357370066
 97
        0
 97
        0
 75
     2
 76
     1
 98
        0
450
        0
451
        0
460
0.0
461
0.0
452
        0
462
0.0
453
        0
470

  0
ENDBLK
  5
131
330
12E
100
AcDbEntity
  8
0
100
AcDbBlockEnd
  0
ENDSEC
  0
SECTION
  2
ENTITIES
  0
HATCH
  5
1A5
330
1F
100
AcDbEntity
  8
0
100
AcDbHatch
 10
0.0
 20
0.0
 30
0.0
210
0.0
220
0.0
230
1.0
  2
SOLID
 70
     1
 71
     0
 91
        1
 92
        1
 93
        4
 72
     1
 10
20.7044637495629
 20
-6.317689081753911
 11
20.18834634606348
 21
-6.317689081753911
 72
     1
 10
20.18834634606348
 20
-6.317689081753911
 11
20.18834634606348
 21
-6.8854708038342
 72
     1
 10
20.18834634606348
 20
-6.8854708038342
 11
20.7044637495629
 21
-6.8854708038342
 72
     1
 10
20.7044637495629
 20
-6.8854708038342
 11
20.7044637495629
 21
-6.317689081753911
 97
        0
 75
     2
 76
     1
 98
        0
450
        0
451
        0
460
0.0
461
0.0
452
        0
462
0.0
453
        0
470

  0
LINE
  5
1AD
330
1F
100
AcDbEntity
  8
0
100
AcDbLine
 10
12.82886971901501
 20
-19.1715123408861
 30
0.0
 11
16.29882721814749
 21
-19.1715123408861
 31
0.0
  0
LINE
  5
1AE
330
1F
100
AcDbEntity
  8
0
100
AcDbLine
 10
17.42722221786542
 20
-6.317689081753911
 30
0.0
 11
17.42722221786542
 21
-18.40049730095545
 31
0.0
  0
HATCH
  5
1B2
330
1F
100
AcDbEntity
  8
0
100
AcDbHatch
 10
0.0
 20
0.0
 30
0.0
210
0.0
220
0.0
230
1.0
  2
SOLID
 70
     1
 71
     0
 91
        1
 92
        1
 93
        1
 72
     4
 94
        3
 73
     0
 74
     0
 95
       50
 96
       46
 40
0.0
 40
0.0
 40
0.0
 40
0.0
 40
1.0
 40
1.0
 40
1.0
 40
2.0
 40
2.0
 40
2.0
 40
3.0
 40
3.0
 40
3.0
 40
4.0
 40
4.0
 40
4.0
 40
5.0
 40
5.0
 40
5.0
 40
6.0
 40
6.0
 40
6.0
 40
7.0
 40
7.0
 40
7.0
 40
8.0
 40
8.0
 40
8.0
 40
9.0
 40
9.0
 40
9.0
 40
10.0
 40
10.0
 40
10.0
 40
11.0
 40
11.0
 40
11.0
 40
12.0
 40
12.0
 40
12.0
 40
13.0
 40
13.0
 40
13.0
 40
14.0
 40
14.0
 40
14.0
 40
15.0
 40
15.0
 40
15.0
 40
15.0
 10
13.99056721655444
 20
-19.58684922470398
 10
13.99056721655444
 20
-19.58684922470398
 10
13.78057142125104
 20
-19.58684922470398
 10
13.78057142125104
 20
-19.58684922470398
 10
13.78057142125104
 20
-19.58684922470398
 10
13.75940130949418
 20
-19.72827039437349
 10
13.75940130949418
 20
-19.72827039437349
 10
13.77209648635732
 20
-19.72658229758571
 10
13.78396484030401
 20
-19.72485974984309
 10
13.80427367818956
 20
-19.72485974984309
 10
13.84661390170328
 20
-19.72485974984309
 10
13.888954125217
 20
-19.73419595860812
 10
13.922819413837
 20
-19.75452202197109
 10
13.96600368574461
 20
-19.77905110182607
 10
14.00157429662981
 20
-19.82649006665796
 10
14.00157429662981
 20
-19.89590874068573
 10
14.00157429662981
 20
-20.00346462173524
 10
13.91604980120849
 20
-20.08390760131583
 10
13.79666001716715
 20
-20.08390760131583
 10
13.73654310094954
 20
-20.08390760131583
 10
13.68572794254211
 20
-20.0669577315284
 10
13.65949354042193
 20
-20.05000786174097
 10
13.65949354042193
 20
-20.05000786174097
 10
13.67811428151971
 20
-19.99330159005376
 10
13.67811428151971
 20
-19.99330159005376
 10
13.70097249006434
 20
-20.00684081531079
 10
13.74586208423714
 20
-20.02379068509822
 10
13.79581596877327
 20
-20.02379068509822
 10
13.86609591667236
 20
-20.02379068509822
 10
13.92621283288997
 20
-19.9780398170541
 10
13.92621283288997
 20
-19.90438367557946
 10
13.92536878449609
 20
-19.83324245380905
 10
13.87794704514162
 20
-19.78246174635646
 10
13.76787624438789
 20
-19.78246174635646
 10
13.73654310094954
 20
-19.78246174635646
 10
13.71197957013971
 20
-19.78583793993201
 10
13.69167073225417
 20
-19.7883873105911
 10
13.69167073225417
 20
-19.7883873105911
 10
13.72722411766194
 20
-19.52418293782729
 10
13.72722411766194
 20
-19.52418293782729
 10
13.72722411766194
 20
-19.52418293782729
 10
13.99056721655444
 20
-19.52418293782729
 10
13.99056721655444
 20
-19.52418293782729
 10
13.99056721655444
 20
-19.52418293782729
 10
13.99056721655444
 20
-19.58684922470398
 10
13.99056721655444
 20
-19.58684922470398
 97
        0
 97
        0
 75
     2
 76
     1
 98
        0
450
        0
451
        0
460
0.0
461
0.0
452
        0
462
0.0
453
        0
470

  0
HATCH
  5
1BE
330
1F
100
AcDbEntity
  8
0
100
AcDbHatch
 10
0.0
 20
0.0
 30
0.0
210
0.0
220
0.0
230
1.0
  2
SOLID
 70
     1
 71
     0
 91
        1
 92
        1
 93
        8
 72
     1
 10
14.45367417715915
 20
-19.52418293782729
 11
14.45367417715915
 21
-19.57330999944695
 72
     1
 10
14.45367417715915
 20
-19.57330999944695
 11
14.2140505606826
 21
-20.0745713925508
 72
     1
 10
14.2140505606826
 20
-20.0745713925508
 11
14.13700100015499
 21
-20.0745713925508
 72
     1
 10
14.13700100015499
 20
-20.0745713925508
 11
14.37578056823765
 21
-19.58771049857529
 72
     1
 10
14.37578056823765
 20
-19.58771049857529
 11
14.37578056823765
 21
-19.58602240178752
 72
     1
 10
14.37578056823765
 20
-19.58602240178752
 11
14.10651190511052
 21
-19.58602240178752
 72
     1
 10
14.10651190511052
 20
-19.58602240178752
 11
14.10651190511052
 21
-19.52418293782729
 72
     1
 10
14.10651190511052
 20
-19.52418293782729
 11
14.45367417715915
 21
-19.52418293782729
 97
        0
 75
     2
 76
     1
 98
        0
450
        0
451
        0
460
0.0
461
0.0
452
        0
462
0.0
453
        0
470

  0
HATCH
  5
1C0
330
1F
100
AcDbEntity
  8
0
100
AcDbHatch
 10
0.0
 20
0.0
 30
0.0
210
0.0
220
0.0
230
1.0
  2
SOLID
 70
     1
 71
     0
 91
        1
 92
        1
 93
        1
 72
     4
 94
        3
 73
     0
 74
     0
 95
       17
 96
       13
 40
0.0
 40
0.0
 40
0.0
 40
0.0
 40
1.0
 40
1.0
 40
1.0
 40
2.0
 40
2.0
 40
2.0
 40
3.0
 40
3.0
 40
3.0
 40
4.0
 40
4.0
 40
4.0
 40
4.0
 10
14.50612575592208
 20
-20.1787166290699
 10
14.52474649701985
 20
-20.12876274453378
 10
14.54760470556449
 20
-20.03815673327171
 10
14.55692368885209
 20
-19.97635172026633
 10
14.55692368885209
 20
-19.97635172026633
 10
14.63989881361433
 20
-19.96787678537261
 10
14.63989881361433
 20
-19.96787678537261
 10
14.62043402412267
 20
-20.03987928101433
 10
14.58317531644969
 20
-20.13386148585195
 10
14.55945583403375
 20
-20.17365233870659
 10
14.55945583403375
 20
-20.17365233870659
 10
14.50612575592208
 20
-20.1787166290699
 10
14.50612575592208
 20
-20.1787166290699
 97
        0
 97
        0
 75
     2
 76
     1
 98
        0
450
        0
451
        0
460
0.0
461
0.0
452
        0
462
0.0
453
        0
470

  0
HATCH
  5
1C2
330
1F
100
AcDbEntity
  8
0
100
AcDbHatch
 10
0.0
 20
0.0
 30
0.0
210
0.0
220
0.0
230
1.0
  2
SOLID
 70
     1
 71
     0
 91
        1
 92
        1
 93
        1
 72
     4
 94
        3
 73
     0
 74
     0
 95
       50
 96
       46
 40
0.0
 40
0.0
 40
0.0
 40
0.0
 40
1.0
 40
1.0
 40
1.0
 40
2.0
 40
2.0
 40
2.0
 40
3.0
 40
3.0
 40
3.0
 40
4.0
 40
4.0
 40
4.0
 40
5.0
 40
5.0
 40
5.0
 40
6.0
 40
6.0
 40
6.0
 40
7.0
 40
7.0
 40
7.0
 40
8.0
 40
8.0
 40
8.0
 40
9.0
 40
9.0
 40
9.0
 40
10.0
 40
10.0
 40
10.0
 40
11.0
 40
11.0
 40
11.0
 40
12.0
 40
12.0
 40
12.0
 40
13.0
 40
13.0
 40
13.0
 40
14.0
 40
14.0
 40
14.0
 40
15.0
 40
15.0
 40
15.0
 40
15.0
 10
15.03446559953999
 20
-19.58684922470398
 10
15.03446559953999
 20
-19.58684922470398
 10
14.82446980423659
 20
-19.58684922470398
 10
14.82446980423659
 20
-19.58684922470398
 10
14.82446980423659
 20
-19.58684922470398
 10
14.80329969247973
 20
-19.72827039437349
 10
14.80329969247973
 20
-19.72827039437349
 10
14.81599486934286
 20
-19.72658229758571
 10
14.82786322328956
 20
-19.72485974984309
 10
14.84817206117511
 20
-19.72485974984309
 10
14.8904950592114
 20
-19.72485974984309
 10
14.93283528272512
 20
-19.73419595860812
 10
14.96670057134513
 20
-19.75452202197109
 10
15.00990206873016
 20
-19.77905110182607
 10
15.04545545413794
 20
-19.82649006665796
 10
15.04545545413794
 20
-19.89590874068573
 10
15.04545545413794
 20
-20.00346462173524
 10
14.95994818419404
 20
-20.08390760131583
 10
14.84055840015271
 20
-20.08390760131583
 10
14.7804414839351
 20
-20.08390760131583
 10
14.72962632552766
 20
-20.0669577315284
 10
14.70339192340748
 20
-20.05000786174097
 10
14.70339192340748
 20
-20.05000786174097
 10
14.72201266450526
 20
-19.99330159005376
 10
14.72201266450526
 20
-19.99330159005376
 10
14.74487087304989
 20
-20.00684081531079
 10
14.7897604672227
 20
-20.02379068509822
 10
14.83971435175882
 20
-20.02379068509822
 10
14.90999429965792
 20
-20.02379068509822
 10
14.97011121587553
 20
-19.9780398170541
 10
14.97011121587553
 20
-19.90438367557946
 10
14.96924994200421
 20
-19.83324245380905
 10
14.92184542812718
 20
-19.78246174635646
 10
14.81177462737344
 20
-19.78246174635646
 10
14.7804414839351
 20
-19.78246174635646
 10
14.75587795312527
 20
-19.78583793993201
 10
14.73556911523972
 20
-19.7883873105911
 10
14.73556911523972
 20
-19.7883873105911
 10
14.7711225006475
 20
-19.52418293782729
 10
14.7711225006475
 20
-19.52418293782729
 10
14.7711225006475
 20
-19.52418293782729
 10
15.03446559953999
 20
-19.52418293782729
 10
15.03446559953999
 20
-19.52418293782729
 10
15.03446559953999
 20
-19.52418293782729
 10
15.03446559953999
 20
-19.58684922470398
 10
15.03446559953999
 20
-19.58684922470398
 97
        0
 97
        0
 75
     2
 76
     1
 98
        0
450
        0
451
        0
460
0.0
461
0.0
452
        0
462
0.0
453
        0
470

  0
HATCH
  5
1CE
330
1F
100
AcDbEntity
  8
0
100
AcDbHatch
 10
0.0
 20
0.0
 30
0.0
210
0.0
220
0.0
230
1.0
  2
SOLID
 70
     1
 71
     0
 91
        1
 92
        1
 93
        8
 72
     1
 10
17.892344559329
 20
-12.58086859494506
 11
17.892344559329
 21
-12.58255669173283
 72
     1
 10
17.892344559329
 20
-12.58255669173283
 11
17.94402099160773
 21
-12.67822699335822
 72
     1
 10
17.94402099160773
 20
-12.67822699335822
 11
17.88728026896568
 21
-12.69262749248657
 72
     1
 10
17.88728026896568
 20
-12.69262749248657
 11
17.82292588530121
 21
-12.57239366005135
 72
     1
 10
17.82292588530121
 20
-12.57239366005135
 11
17.82292588530121
 21
-12.50890055025819
 72
     1
 10
17.82292588530121
 20
-12.50890055025819
 11
18.37331434002473
 21
-12.50890055025819
 72
     1
 10
18.37331434002473
 20
-12.50890055025819
 11
18.37331434002473
 21
-12.58086859494506
 72
     1
 10
18.37331434002473
 20
-12.58086859494506
 11
17.892344559329
 21
-12.58086859494506
 97
        0
 75
     2
 76
     1
 98
        0
450
        0
451
        0
460
0.0
461
0.0
452
        0
462
0.0
453
        0
470

  0
HATCH
  5
1D1
330
1F
100
AcDbEntity
  8
0
100
AcDbHatch
 10
0.0
 20
0.0
 30
0.0
210
0.0
220
0.0
230
1.0
  2
SOLID
 70
     1
 71
     0
 91
        2
 92
        1
 93
        1
 72
     4
 94
        3
 73
     0
 74
     0
 95
       41
 96
       37
 40
0.0
 40
0.0
 40
0.0
 40
0.0
 40
1.0
 40
1.0
 40
1.0
 40
2.0
 40
2.0
 40
2.0
 40
3.0
 40
3.0
 40
3.0
 40
4.0
 40
4.0
 40
4.0
 40
5.0
 40
5.0
 40
5.0
 40
6.0
 40
6.0
 40
6.0
 40
7.0
 40
7.0
 40
7.0
 40
8.0
 40
8.0
 40
8.0
 40
9.0
 40
9.0
 40
9.0
 40
10.0
 40
10.0
 40
10.0
 40
11.0
 40
11.0
 40
11.0
 40
12.0
 40
12.0
 40
12.0
 40
12.0
 10
18.32081108482952
 20
-12.26509114276706
 10
18.32249918161729
 20
-12.24900254685094
 10
18.32081108482952
 20
-12.23036458027574
 10
18.31826171417043
 20
-12.20497422654945
 10
18.3123361499358
 20
-12.16180718011927
 10
18.29455945723192
 20
-12.12115505339332
 10
18.26493163605877
 20
-12.08980468447755
 10
18.23189317035522
 20
-12.05342447615331
 10
18.18362738260687
 20
-12.02717284855571
 10
18.11844617602594
 20
-12.01697536591937
 10
18.11844617602594
 20
-12.01697536591937
 10
18.11844617602594
 20
-12.01952473657845
 10
18.11844617602594
 20
-12.01952473657845
 10
18.15568765822149
 20
-12.05001383162291
 10
18.17770181837224
 20
-12.09404215192441
 10
18.17770181837224
 20
-12.1490947777787
 10
18.17770181837224
 20
-12.24814127297963
 10
18.10318440302629
 20
-12.31166883372764
 10
18.00920219818867
 20
-12.31166883372764
 10
17.90505696166957
 20
-12.31166883372764
 10
17.81362412749104
 20
-12.23629014451037
 10
17.81362412749104
 20
-12.12370442405241
 10
17.81362412749104
 20
-12.01104980168474
 10
17.90505696166957
 20
-11.94163112765695
 10
18.04561685746776
 20
-11.94163112765695
 10
18.16671196377429
 20
-11.94163112765695
 10
18.25139241080173
 20
-11.9822832543829
 10
18.30386121504209
 20
-12.03647460636588
 10
18.34537461563935
 20
-12.0788148298796
 10
18.37076496936564
 20
-12.13720919835459
 10
18.37755180747158
 20
-12.19649929165574
 10
18.38178927491844
 20
-12.22361219312465
 10
18.3826160978349
 20
-12.24731445006317
 10
18.38178927491844
 20
-12.26509114276706
 10
18.38178927491844
 20
-12.26509114276706
 10
18.32081108482952
 20
-12.26509114276706
 10
18.32081108482952
 20
-12.26509114276706
 97
        0
 97
        0
 92
        1
 93
        1
 72
     4
 94
        3
 73
     0
 74
     0
 95
       20
 96
       16
 40
0.0
 40
0.0
 40
0.0
 40
0.0
 40
1.0
 40
1.0
 40
1.0
 40
2.0
 40
2.0
 40
2.0
 40
3.0
 40
3.0
 40
3.0
 40
4.0
 40
4.0
 40
4.0
 40
5.0
 40
5.0
 40
5.0
 40
5.0
 10
18.00413790782535
 20
-12.238012692253
 10
18.07272975893668
 20
-12.238012692253
 10
18.12096109573017
 20
-12.19649929165574
 10
18.12096109573017
 20
-12.13214490799127
 10
18.12096109573017
 20
-12.08219102345515
 10
18.09643201587519
 20
-12.04322699351697
 10
18.06339355017165
 20
-12.02376220402531
 10
18.05664116302056
 20
-12.01952473657845
 10
18.04816622812685
 20
-12.01697536591937
 10
18.03631509965759
 20
-12.01697536591937
 10
17.94229844386512
 20
-12.01697536591937
 10
17.87033039917825
 20
-12.05170192841068
 10
17.87033039917825
 20
-12.12962998828704
 10
17.87033039917825
 20
-12.19312309808019
 10
17.92624429890385
 20
-12.238012692253
 10
18.00413790782535
 20
-12.238012692253
 97
        0
 97
        0
 75
     2
 76
     1
 98
        0
450
        0
451
        0
460
0.0
461
0.0
452
        0
462
0.0
453
        0
470

  0
HATCH
  5
1DD
330
1F
100
AcDbEntity
  8
0
100
AcDbHatch
 10
0.0
 20
0.0
 30
0.0
210
0.0
220
0.0
230
1.0
  2
SOLID
 70
     1
 71
     0
 91
        1
 92
        1
 93
        8
 72
     1
 10
17.82292588530121
 20
-11.51660969764168
 11
17.87205294692087
 21
-11.51660969764168
 72
     1
 10
17.87205294692087
 20
-11.51660969764168
 11
18.37331434002473
 21
-11.75625053959566
 72
     1
 10
18.37331434002473
 20
-11.75625053959566
 11
18.37331434002473
 21
-11.83328287464584
 72
     1
 10
18.37331434002473
 20
-11.83328287464584
 11
17.88641899509437
 21
-11.59453775751803
 72
     1
 10
17.88641899509437
 20
-11.59453775751803
 11
17.88473089830659
 21
-11.59453775751803
 72
     1
 10
17.88473089830659
 20
-11.59453775751803
 11
17.88473089830659
 21
-11.86380642064516
 72
     1
 10
17.88473089830659
 20
-11.86380642064516
 11
17.82292588530121
 21
-11.86380642064516
 72
     1
 10
17.82292588530121
 20
-11.86380642064516
 11
17.82292588530121
 21
-11.51660969764168
 97
        0
 75
     2
 76
     1
 98
        0
450
        0
451
        0
460
0.0
461
0.0
452
        0
462
0.0
453
        0
470

  0
LINE
  5
1F8
330
1F
100
AcDbEntity
  8
0
100
AcDbLine
 10
20.11254851466391
 20
-18.81122712595153
 30
0.0
 11
20.78744060855709
 21
-18.81122712595153
 31
0.0
  0
HATCH
  5
1FA
330
1F
100
AcDbEntity
  8
0
100
AcDbHatch
 10
0.0
 20
0.0
 30
0.0
210
0.0
220
0.0
230
1.0
  2
SOLID
 70
     1
 71
     0
 91
        1
 92
        1
 93
        1
 72
     4
 94
        3
 73
     0
 74
     0
 95
       47
 96
       43
 40
0.0
 40
0.0
 40
0.0
 40
0.0
 40
1.0
 40
1.0
 40
1.0
 40
2.0
 40
2.0
 40
2.0
 40
3.0
 40
3.0
 40
3.0
 40
4.0
 40
4.0
 40
4.0
 40
5.0
 40
5.0
 40
5.0
 40
6.0
 40
6.0
 40
6.0
 40
7.0
 40
7.0
 40
7.0
 40
8.0
 40
8.0
 40
8.0
 40
9.0
 40
9.0
 40
9.0
 40
10.0
 40
10.0
 40
10.0
 40
11.0
 40
11.0
 40
11.0
 40
12.0
 40
12.0
 40
12.0
 40
13.0
 40
13.0
 40
13.0
 40
14.0
 40
14.0
 40
14.0
 40
14.0
 10
20.0655796933343
 20
-19.70611843040333
 10
20.0655796933343
 20
-19.70611843040333
 10
20.0655796933343
 20
-19.66040201331407
 10
20.0655796933343
 20
-19.66040201331407
 10
20.0655796933343
 20
-19.66040201331407
 10
20.12400851276414
 20
-19.603661290672
 10
20.12400851276414
 20
-19.603661290672
 10
20.26456840856233
 20
-19.46988823297975
 10
20.32806151835548
 20
-19.39874701120934
 10
20.32892279222679
 20
-19.31578911192452
 10
20.32892279222679
 20
-19.25990966315377
 10
20.30180989075788
 20
-19.20823323087502
 10
20.21967881438952
 20
-19.20823323087502
 10
20.1697249298534
 20
-19.20823323087502
 10
20.12824598021099
 20
-19.23365803555617
 10
20.10282117552985
 20
-19.2548109218356
 10
20.10282117552985
 20
-19.2548109218356
 10
20.07911891859133
 20
-19.20230766664039
 10
20.07911891859133
 20
-19.20230766664039
 10
20.11722167465819
 20
-19.17013047480816
 10
20.17141302664117
 20
-19.14642821786964
 10
20.23490613643433
 20
-19.14642821786964
 10
20.35345187208177
 20
-19.14642821786964
 10
20.4034057566179
 20
-19.22773247132154
 10
20.4034057566179
 20
-19.3064529031595
 10
20.4034057566179
 20
-19.40808321997437
 10
20.32974961514326
 20
-19.49021429634272
 10
20.21375325015489
 20
-19.60197319388423
 10
20.21375325015489
 20
-19.60197319388423
 10
20.1697249298534
 20
-19.64262532061018
 10
20.1697249298534
 20
-19.64262532061018
 10
20.1697249298534
 20
-19.64262532061018
 10
20.1697249298534
 20
-19.64431341739795
 10
20.1697249298534
 20
-19.64431341739795
 10
20.1697249298534
 20
-19.64431341739795
 10
20.41697943282978
 20
-19.64431341739795
 10
20.41697943282978
 20
-19.64431341739795
 10
20.41697943282978
 20
-19.64431341739795
 10
20.41697943282978
 20
-19.70611843040333
 10
20.41697943282978
 20
-19.70611843040333
 10
20.41697943282978
 20
-19.70611843040333
 10
20.0655796933343
 20
-19.70611843040333
 10
20.0655796933343
 20
-19.70611843040333
 97
        0
 97
        0
 75
     2
 76
     1
 98
        0
450
        0
451
        0
460
0.0
461
0.0
452
        0
462
0.0
453
        0
470

  0
SPLINE
  5
1FC
330
1F
100
AcDbEntity
  8
0
100
AcDbSpline
210
0.0
220
0.0
230
1.0
 70
     9
 71
     3
 72
    17
 73
    13
 74
     0
 42
0.000000001
 43
0.0000000001
 40
0.0
 40
0.0
 40
0.0
 40
0.0
 40
1.0
 40
1.0
 40
1.0
 40
2.0
 40
2.0
 40
2.0
 40
3.0
 40
3.0
 40
3.0
 40
4.0
 40
4.0
 40
4.0
 40
4.0
 10
20.56677218452844
 20
-19.43347357370066
 30
0.0
 10
20.56677218452844
 20
-19.57658284015794
 30
0.0
 10
20.61080050482994
 20
-19.65785264265498
 30
0.0
 10
20.6785655330248
 20
-19.65785264265498
 30
0.0
 10
20.75477104515853
 20
-19.65785264265498
 30
0.0
 10
20.79118570443762
 20
-19.56896917913554
 30
0.0
 10
20.79118570443762
 20
-19.42840928333734
 30
0.0
 10
20.79118570443762
 20
-19.29291367790247
 30
0.0
 10
20.7564591419463
 20
-19.20399576342817
 30
0.0
 10
20.67939235594126
 20
-19.20399576342817
 30
0.0
 10
20.61421114936033
 20
-19.20399576342817
 30
0.0
 10
20.56677218452844
 20
-19.28361192009229
 30
0.0
 10
20.56677218452844
 20
-19.43347357370066
 30
0.0
  0
HATCH
  5
1FD
330
1F
100
AcDbEntity
  8
0
100
AcDbHatch
 10
0.0
 20
0.0
 30
0.0
210
0.0
220
0.0
230
1.0
  2
SOLID
 70
     1
 71
     0
 91
        2
 92
        1
 93
        1
 72
     4
 94
        3
 73
     0
 74
     0
 95
       17
 96
       13
 40
0.0
 40
0.0
 40
0.0
 40
0.0
 40
1.0
 40
1.0
 40
1.0
 40
2.0
 40
2.0
 40
2.0
 40
3.0
 40
3.0
 40
3.0
 40
4.0
 40
4.0
 40
4.0
 40
4.0
 10
20.86570311978357
 20
-19.42499863880694
 10
20.86570311978357
 20
-19.61213622556571
 10
20.79624999480093
 20
-19.71545463916836
 10
20.67432806557795
 20
-19.71545463916836
 10
20.56677218452844
 20
-19.71545463916836
 10
20.49397731692511
 20
-19.6146855962248
 10
20.49228922013734
 20
-19.4326467507842
 10
20.49228922013734
 20
-19.24802408372966
 10
20.57187092584661
 20
-19.14642821786964
 10
20.68362982338812
 20
-19.14642821786964
 10
20.79962618837648
 20
-19.14642821786964
 10
20.86570311978357
 20
-19.24974663147228
 10
20.86570311978357
 20
-19.42499863880694
 97
        0
 97
        0
 92
        1
 93
        1
 72
     4
 94
        3
 73
     0
 74
     0
 95
       17
 96
       13
 40
0.0
 40
0.0
 40
0.0
 40
0.0
 40
1.0
 40
1.0
 40
1.0
 40
2.0
 40
2.0
 40
2.0
 40
3.0
 40
3.0
 40
3.0
 40
4.0
 40
4.0
 40
4.0
 40
4.0
 10
20.56677218452844
 20
-19.43347357370066
 10
20.56677218452844
 20
-19.57658284015794
 10
20.61080050482994
 20
-19.65785264265498
 10
20.6785655330248
 20
-19.65785264265498
 10
20.75477104515853
 20
-19.65785264265498
 10
20.79118570443762
 20
-19.56896917913554
 10
20.79118570443762
 20
-19.42840928333734
 10
20.79118570443762
 20
-19.29291367790247
 10
20.7564591419463
 20
-19.20399576342817
 10
20.67939235594126
 20
-19.20399576342817
 10
20.61421114936033
 20
-19.20399576342817
 10
20.56677218452844
 20
-19.28361192009229
 10
20.56677218452844
 20
-19.43347357370066
 97
        0
 97
        0
 75
     2
 76
     1
 98
        0
450
        0
451
        0
460
0.0
461
0.0
452
        0
462
0.0
453
        0
470

  0
LINE
  5
1FE
330
1F
100
AcDbEntity
  8
0
100
AcDbLine
 10
14.30578763502895
 20
-6.642272859450529
 30
0.0
 11
14.82190856630605
 21
-6.642272859450529
 31
0.0
  0
LINE
  5
1FF
330
1F
100
AcDbEntity
  8
0
100
AcDbLine
 10
14.82190856630605
 20
-6.642272859450529
 30
0.0
 11
14.82190856630605
 21
-18.31618693986541
 31
0.0
  0
LINE
  5
200
330
1F
100
AcDbEntity
  8
0
100
AcDbLine
 10
14.82190856630605
 20
-18.31618693986541
 30
0.0
 11
14.30578763502895
 21
-18.31618693986541
 31
0.0
  0
LINE
  5
201
330
1F
100
AcDbEntity
  8
0
100
AcDbLine
 10
14.30578763502895
 20
-18.31618693986541
 30
0.0
 11
14.30578763502895
 21
-6.642272859450529
 31
0.0
  0
LINE
  5
202
330
1F
100
AcDbEntity
  8
0
100
AcDbLine
 10
13.34498679842991
 20
-6.317689081753911
 30
0.0
 11
12.82886971901501
 21
-6.317689081753911
 31
0.0
  0
LINE
  5
203
330
1F
100
AcDbEntity
  8
0
100
AcDbLine
 10
12.82886971901501
 20
-6.317689081753911
 30
0.0
 11
12.82886971901501
 21
-6.8854708038342
 31
0.0
  0
LINE
  5
204
330
1F
100
AcDbEntity
  8
0
100
AcDbLine
 10
12.82886971901501
 20
-6.8854708038342
 30
0.0
 11
13.34498679842991
 21
-6.8854708038342
 31
0.0
  0
LINE
  5
205
330
1F
100
AcDbEntity
  8
0
100
AcDbLine
 10
13.34498679842991
 20
-6.8854708038342
 30
0.0
 11
13.34498679842991
 21
-6.317689081753911
 31
0.0
  0
LINE
  5
206
330
1F
100
AcDbEntity
  8
0
100
AcDbLine
 10
14.22640205372091
 20
-18.40049730095545
 30
0.0
 11
14.90129414761409
 21
-18.40049730095545
 31
0.0
  0
LINE
  5
207
330
1F
100
AcDbEntity
  8
0
100
AcDbLine
 10
14.90129414761409
 20
-18.40049730095545
 30
0.0
 11
14.90129414761409
 21
-18.31618693986541
 31
0.0
  0
LINE
  5
208
330
1F
100
AcDbEntity
  8
0
100
AcDbLine
 10
14.90129414761409
 20
-18.31618693986541
 30
0.0
 11
14.22640205372091
 21
-18.31618693986541
 31
0.0
  0
LINE
  5
209
330
1F
100
AcDbEntity
  8
0
100
AcDbLine
 10
14.22640205372091
 20
-18.31618693986541
 30
0.0
 11
14.22640205372091
 21
-18.40049730095545
 31
0.0
  0
LINE
  5
20A
330
1F
100
AcDbEntity
  8
0
100
AcDbLine
 10
15.78270940290509
 20
-6.317689081753911
 30
0.0
 11
16.29882721814749
 21
-6.317689081753911
 31
0.0
  0
LINE
  5
20B
330
1F
100
AcDbEntity
  8
0
100
AcDbLine
 10
16.29882721814749
 20
-6.317689081753911
 30
0.0
 11
16.29882721814749
 21
-6.8854708038342
 31
0.0
  0
LINE
  5
20C
330
1F
100
AcDbEntity
  8
0
100
AcDbLine
 10
16.29882721814749
 20
-6.8854708038342
 30
0.0
 11
15.78270940290509
 21
-6.8854708038342
 31
0.0
  0
LINE
  5
20D
330
1F
100
AcDbEntity
  8
0
100
AcDbLine
 10
15.78270940290509
 20
-6.8854708038342
 30
0.0
 11
15.78270940290509
 21
-6.317689081753911
 31
0.0
  0
LINE
  5
20E
330
1F
100
AcDbEntity
  8
0
100
AcDbLine
 10
14.30578763502895
 20
-6.733017887205646
 30
0.0
 11
13.34644729839265
 21
-6.55153135947323
 31
0.0
  0
LINE
  5
20F
330
1F
100
AcDbEntity
  8
0
100
AcDbLine
 10
13.34644729839265
 20
-6.55153135947323
 30
0.0
 11
13.34644729839265
 21
-6.823762914960732
 31
0.0
  0
LINE
  5
210
330
1F
100
AcDbEntity
  8
0
100
AcDbLine
 10
13.34644729839265
 20
-6.823762914960732
 30
0.0
 11
14.30578763502895
 21
-7.005249442693116
 31
0.0
  0
LINE
  5
211
330
1F
100
AcDbEntity
  8
0
100
AcDbLine
 10
14.30578763502895
 20
-7.005249442693116
 30
0.0
 11
14.30578763502895
 21
-6.733017887205646
 31
0.0
  0
LINE
  5
212
330
1F
100
AcDbEntity
  8
0
100
AcDbLine
 10
14.82190856630605
 20
-6.733017887205646
 30
0.0
 11
15.78124890294235
 21
-6.55153135947323
 31
0.0
  0
LINE
  5
213
330
1F
100
AcDbEntity
  8
0
100
AcDbLine
 10
15.78124890294235
 20
-6.55153135947323
 30
0.0
 11
15.78124890294235
 21
-6.823762914960732
 31
0.0
  0
LINE
  5
214
330
1F
100
AcDbEntity
  8
0
100
AcDbLine
 10
15.78124890294235
 20
-6.823762914960732
 30
0.0
 11
14.82190856630605
 21
-7.005249442693116
 31
0.0
  0
LINE
  5
215
330
1F
100
AcDbEntity
  8
0
100
AcDbLine
 10
14.82190856630605
 20
-7.005249442693116
 30
0.0
 11
14.82190856630605
 21
-6.733017887205646
 31
0.0
  0
LINE
  5
237
330
1F
100
AcDbEntity
  8
0
100
AcDbLine
 10
20.19193409597195
 20
-6.642272859450529
 30
0.0
 11
20.70805555037854
 21
-6.642272859450529
 31
0.0
  0
LINE
  5
238
330
1F
100
AcDbEntity
  8
0
100
AcDbLine
 10
20.70805555037854
 20
-6.642272859450529
 30
0.0
 11
20.70805555037854
 21
-18.31618693986541
 31
0.0
  0
LINE
  5
239
330
1F
100
AcDbEntity
  8
0
100
AcDbLine
 10
20.70805555037854
 20
-18.31618693986541
 30
0.0
 11
20.19193409597195
 21
-18.31618693986541
 31
0.0
  0
LINE
  5
23A
330
1F
100
AcDbEntity
  8
0
100
AcDbLine
 10
20.19193409597195
 20
-18.31618693986541
 30
0.0
 11
20.19193409597195
 21
-6.642272859450529
 31
0.0
  0
LINE
  5
23B
330
1F
100
AcDbEntity
  8
0
100
AcDbLine
 10
20.7044637495629
 20
-6.317689081753911
 30
0.0
 11
20.18834634606348
 21
-6.317689081753911
 31
0.0
  0
LINE
  5
23C
330
1F
100
AcDbEntity
  8
0
100
AcDbLine
 10
20.18834634606348
 20
-6.317689081753911
 30
0.0
 11
20.18834634606348
 21
-6.8854708038342
 31
0.0
  0
LINE
  5
23D
330
1F
100
AcDbEntity
  8
0
100
AcDbLine
 10
20.18834634606348
 20
-6.8854708038342
 30
0.0
 11
20.7044637495629
 21
-6.8854708038342
 31
0.0
  0
LINE
  5
23E
330
1F
100
AcDbEntity
  8
0
100
AcDbLine
 10
20.7044637495629
 20
-6.8854708038342
 30
0.0
 11
20.7044637495629
 21
-6.317689081753911
 31
0.0
  0
LINE
  5
23F
330
1F
100
AcDbEntity
  8
0
100
AcDbLine
 10
20.11254851466391
 20
-18.40049730095545
 30
0.0
 11
20.78744060855709
 21
-18.40049730095545
 31
0.0
  0
LINE
  5
240
330
1F
100
AcDbEntity
  8
0
100
AcDbLine
 10
20.78744060855709
 20
-18.40049730095545
 30
0.0
 11
20.78744060855709
 21
-18.31618693986541
 31
0.0
  0
LINE
  5
241
330
1F
100
AcDbEntity
  8
0
100
AcDbLine
 10
20.78744060855709
 20
-18.31618693986541
 30
0.0
 11
20.11254851466391
 21
-18.31618693986541
 31
0.0
  0
LINE
  5
242
330
1F
100
AcDbEntity
  8
0
100
AcDbLine
 10
20.11254851466391
 20
-18.31618693986541
 30
0.0
 11
20.11254851466391
 21
-18.40049730095545
 31
0.0
  0
SPLINE
  5
243
330
1F
100
AcDbEntity
  8
0
100
AcDbSpline
210
0.0
220
0.0
230
1.0
 70
    24
 71
     3
 72
     8
 73
     4
 74
     0
 42
0.000000001
 43
0.0000000001
 40
0.0
 40
0.0
 40
0.0
 40
0.0
 40
1.0
 40
1.0
 40
1.0
 40
1.0
 10
13.99056721655444
 20
-19.58684922470398
 30
0.0
 10
13.99056721655444
 20
-19.58684922470398
 30
0.0
 10
13.78057142125104
 20
-19.58684922470398
 30
0.0
 10
13.78057142125104
 20
-19.58684922470398
 30
0.0
  0
SPLINE
  5
244
330
1F
100
AcDbEntity
  8
0
100
AcDbSpline
210
0.0
220
0.0
230
1.0
 70
    24
 71
     3
 72
     8
 73
     4
 74
     0
 42
0.000000001
 43
0.0000000001
 40
1.0
 40
1.0
 40
1.0
 40
1.0
 40
2.0
 40
2.0
 40
2.0
 40
2.0
 10
13.78057142125104
 20
-19.58684922470398
 30
0.0
 10
13.78057142125104
 20
-19.58684922470398
 30
0.0
 10
13.75940130949418
 20
-19.72827039437349
 30
0.0
 10
13.75940130949418
 20
-19.72827039437349
 30
0.0
  0
SPLINE
  5
245
330
1F
100
AcDbEntity
  8
0
100
AcDbSpline
210
0.0
220
0.0
230
1.0
 70
     8
 71
     3
 72
    11
 73
     7
 74
     0
 42
0.000000001
 43
0.0000000001
 40
2.0
 40
2.0
 40
2.0
 40
2.0
 40
3.0
 40
3.0
 40
3.0
 40
4.0
 40
4.0
 40
4.0
 40
4.0
 10
13.75940130949418
 20
-19.72827039437349
 30
0.0
 10
13.77209648635732
 20
-19.72658229758571
 30
0.0
 10
13.78396484030401
 20
-19.72485974984309
 30
0.0
 10
13.80427367818956
 20
-19.72485974984309
 30
0.0
 10
13.84661390170328
 20
-19.72485974984309
 30
0.0
 10
13.888954125217
 20
-19.73419595860812
 30
0.0
 10
13.922819413837
 20
-19.75452202197109
 30
0.0
  0
SPLINE
  5
246
330
1F
100
AcDbEntity
  8
0
100
AcDbSpline
210
0.0
220
0.0
230
1.0
 70
     8
 71
     3
 72
    14
 73
    10
 74
     0
 42
0.000000001
 43
0.0000000001
 40
4.0
 40
4.0
 40
4.0
 40
4.0
 40
5.0
 40
5.0
 40
5.0
 40
6.0
 40
6.0
 40
6.0
 40
7.0
 40
7.0
 40
7.0
 40
7.0
 10
13.922819413837
 20
-19.75452202197109
 30
0.0
 10
13.96600368574461
 20
-19.77905110182607
 30
0.0
 10
14.00157429662981
 20
-19.82649006665796
 30
0.0
 10
14.00157429662981
 20
-19.89590874068573
 30
0.0
 10
14.00157429662981
 20
-20.00346462173524
 30
0.0
 10
13.91604980120849
 20
-20.08390760131583
 30
0.0
 10
13.79666001716715
 20
-20.08390760131583
 30
0.0
 10
13.73654310094954
 20
-20.08390760131583
 30
0.0
 10
13.68572794254211
 20
-20.0669577315284
 30
0.0
 10
13.65949354042193
 20
-20.05000786174097
 30
0.0
  0
SPLINE
  5
247
330
1F
100
AcDbEntity
  8
0
100
AcDbSpline
210
0.0
220
0.0
230
1.0
 70
    24
 71
     3
 72
     8
 73
     4
 74
     0
 42
0.000000001
 43
0.0000000001
 40
7.0
 40
7.0
 40
7.0
 40
7.0
 40
8.0
 40
8.0
 40
8.0
 40
8.0
 10
13.65949354042193
 20
-20.05000786174097
 30
0.0
 10
13.65949354042193
 20
-20.05000786174097
 30
0.0
 10
13.67811428151971
 20
-19.99330159005376
 30
0.0
 10
13.67811428151971
 20
-19.99330159005376
 30
0.0
  0
SPLINE
  5
248
330
1F
100
AcDbEntity
  8
0
100
AcDbSpline
210
0.0
220
0.0
230
1.0
 70
     8
 71
     3
 72
    11
 73
     7
 74
     0
 42
0.000000001
 43
0.0000000001
 40
8.0
 40
8.0
 40
8.0
 40
8.0
 40
9.0
 40
9.0
 40
9.0
 40
10.0
 40
10.0
 40
10.0
 40
10.0
 10
13.67811428151971
 20
-19.99330159005376
 30
0.0
 10
13.70097249006434
 20
-20.00684081531079
 30
0.0
 10
13.74586208423714
 20
-20.02379068509822
 30
0.0
 10
13.79581596877327
 20
-20.02379068509822
 30
0.0
 10
13.86609591667236
 20
-20.02379068509822
 30
0.0
 10
13.92621283288997
 20
-19.9780398170541
 30
0.0
 10
13.92621283288997
 20
-19.90438367557946
 30
0.0
  0
SPLINE
  5
249
330
1F
100
AcDbEntity
  8
0
100
AcDbSpline
210
0.0
220
0.0
230
1.0
 70
     8
 71
     3
 72
    11
 73
     7
 74
     0
 42
0.000000001
 43
0.0000000001
 40
10.0
 40
10.0
 40
10.0
 40
10.0
 40
11.0
 40
11.0
 40
11.0
 40
12.0
 40
12.0
 40
12.0
 40
12.0
 10
13.92621283288997
 20
-19.90438367557946
 30
0.0
 10
13.92536878449609
 20
-19.83324245380905
 30
0.0
 10
13.87794704514162
 20
-19.78246174635646
 30
0.0
 10
13.76787624438789
 20
-19.78246174635646
 30
0.0
 10
13.73654310094954
 20
-19.78246174635646
 30
0.0
 10
13.71197957013971
 20
-19.78583793993201
 30
0.0
 10
13.69167073225417
 20
-19.7883873105911
 30
0.0
  0
SPLINE
  5
24A
330
1F
100
AcDbEntity
  8
0
100
AcDbSpline
210
0.0
220
0.0
230
1.0
 70
    24
 71
     3
 72
     8
 73
     4
 74
     0
 42
0.000000001
 43
0.0000000001
 40
12.0
 40
12.0
 40
12.0
 40
12.0
 40
13.0
 40
13.0
 40
13.0
 40
13.0
 10
13.69167073225417
 20
-19.7883873105911
 30
0.0
 10
13.69167073225417
 20
-19.7883873105911
 30
0.0
 10
13.72722411766194
 20
-19.52418293782729
 30
0.0
 10
13.72722411766194
 20
-19.52418293782729
 30
0.0
  0
SPLINE
  5
24B
330
1F
100
AcDbEntity
  8
0
100
AcDbSpline
210
0.0
220
0.0
230
1.0
 70
    24
 71
     3
 72
     8
 73
     4
 74
     0
 42
0.000000001
 43
0.0000000001
 40
13.0
 40
13.0
 40
13.0
 40
13.0
 40
14.0
 40
14.0
 40
14.0
 40
14.0
 10
13.72722411766194
 20
-19.52418293782729
 30
0.0
 10
13.72722411766194
 20
-19.52418293782729
 30
0.0
 10
13.99056721655444
 20
-19.52418293782729
 30
0.0
 10
13.99056721655444
 20
-19.52418293782729
 30
0.0
  0
SPLINE
  5
24C
330
1F
100
AcDbEntity
  8
0
100
AcDbSpline
210
0.0
220
0.0
230
1.0
 70
    24
 71
     3
 72
     8
 73
     4
 74
     0
 42
0.000000001
 43
0.0000000001
 40
14.0
 40
14.0
 40
14.0
 40
14.0
 40
15.0
 40
15.0
 40
15.0
 40
15.0
 10
13.99056721655444
 20
-19.52418293782729
 30
0.0
 10
13.99056721655444
 20
-19.52418293782729
 30
0.0
 10
13.99056721655444
 20
-19.58684922470398
 30
0.0
 10
13.99056721655444
 20
-19.58684922470398
 30
0.0
  0
LINE
  5
24D
330
1F
100
AcDbEntity
  8
0
100
AcDbLine
 10
14.45367417715915
 20
-19.52418293782729
 30
0.0
 11
14.45367417715915
 21
-19.57330999944695
 31
0.0
  0
LINE
  5
24E
330
1F
100
AcDbEntity
  8
0
100
AcDbLine
 10
14.45367417715915
 20
-19.57330999944695
 30
0.0
 11
14.2140505606826
 21
-20.0745713925508
 31
0.0
  0
LINE
  5
24F
330
1F
100
AcDbEntity
  8
0
100
AcDbLine
 10
14.2140505606826
 20
-20.0745713925508
 30
0.0
 11
14.13700100015499
 21
-20.0745713925508
 31
0.0
  0
LINE
  5
250
330
1F
100
AcDbEntity
  8
0
100
AcDbLine
 10
14.13700100015499
 20
-20.0745713925508
 30
0.0
 11
14.37578056823765
 21
-19.58771049857529
 31
0.0
  0
LINE
  5
251
330
1F
100
AcDbEntity
  8
0
100
AcDbLine
 10
14.37578056823765
 20
-19.58771049857529
 30
0.0
 11
14.37578056823765
 21
-19.58602240178752
 31
0.0
  0
LINE
  5
252
330
1F
100
AcDbEntity
  8
0
100
AcDbLine
 10
14.37578056823765
 20
-19.58602240178752
 30
0.0
 11
14.10651190511052
 21
-19.58602240178752
 31
0.0
  0
LINE
  5
253
330
1F
100
AcDbEntity
  8
0
100
AcDbLine
 10
14.10651190511052
 20
-19.58602240178752
 30
0.0
 11
14.10651190511052
 21
-19.52418293782729
 31
0.0
  0
LINE
  5
254
330
1F
100
AcDbEntity
  8
0
100
AcDbLine
 10
14.10651190511052
 20
-19.52418293782729
 30
0.0
 11
14.45367417715915
 21
-19.52418293782729
 31
0.0
  0
SPLINE
  5
255
330
1F
100
AcDbEntity
  8
0
100
AcDbSpline
210
0.0
220
0.0
230
1.0
 70
     8
 71
     3
 72
     8
 73
     4
 74
     0
 42
0.000000001
 43
0.0000000001
 40
0.0
 40
0.0
 40
0.0
 40
0.0
 40
1.0
 40
1.0
 40
1.0
 40
1.0
 10
14.50612575592208
 20
-20.1787166290699
 30
0.0
 10
14.52474649701985
 20
-20.12876274453378
 30
0.0
 10
14.54760470556449
 20
-20.03815673327171
 30
0.0
 10
14.55692368885209
 20
-19.97635172026633
 30
0.0
  0
SPLINE
  5
256
330
1F
100
AcDbEntity
  8
0
100
AcDbSpline
210
0.0
220
0.0
230
1.0
 70
    24
 71
     3
 72
     8
 73
     4
 74
     0
 42
0.000000001
 43
0.0000000001
 40
1.0
 40
1.0
 40
1.0
 40
1.0
 40
2.0
 40
2.0
 40
2.0
 40
2.0
 10
14.55692368885209
 20
-19.97635172026633
 30
0.0
 10
14.55692368885209
 20
-19.97635172026633
 30
0.0
 10
14.63989881361433
 20
-19.96787678537261
 30
0.0
 10
14.63989881361433
 20
-19.96787678537261
 30
0.0
  0
SPLINE
  5
257
330
1F
100
AcDbEntity
  8
0
100
AcDbSpline
210
0.0
220
0.0
230
1.0
 70
     8
 71
     3
 72
     8
 73
     4
 74
     0
 42
0.000000001
 43
0.0000000001
 40
2.0
 40
2.0
 40
2.0
 40
2.0
 40
3.0
 40
3.0
 40
3.0
 40
3.0
 10
14.63989881361433
 20
-19.96787678537261
 30
0.0
 10
14.62043402412267
 20
-20.03987928101433
 30
0.0
 10
14.58317531644969
 20
-20.13386148585195
 30
0.0
 10
14.55945583403375
 20
-20.17365233870659
 30
0.0
  0
SPLINE
  5
258
330
1F
100
AcDbEntity
  8
0
100
AcDbSpline
210
0.0
220
0.0
230
1.0
 70
    24
 71
     3
 72
     8
 73
     4
 74
     0
 42
0.000000001
 43
0.0000000001
 40
3.0
 40
3.0
 40
3.0
 40
3.0
 40
4.0
 40
4.0
 40
4.0
 40
4.0
 10
14.55945583403375
 20
-20.17365233870659
 30
0.0
 10
14.55945583403375
 20
-20.17365233870659
 30
0.0
 10
14.50612575592208
 20
-20.1787166290699
 30
0.0
 10
14.50612575592208
 20
-20.1787166290699
 30
0.0
  0
SPLINE
  5
259
330
1F
100
AcDbEntity
  8
0
100
AcDbSpline
210
0.0
220
0.0
230
1.0
 70
    24
 71
     3
 72
     8
 73
     4
 74
     0
 42
0.000000001
 43
0.0000000001
 40
0.0
 40
0.0
 40
0.0
 40
0.0
 40
1.0
 40
1.0
 40
1.0
 40
1.0
 10
15.03446559953999
 20
-19.58684922470398
 30
0.0
 10
15.03446559953999
 20
-19.58684922470398
 30
0.0
 10
14.82446980423659
 20
-19.58684922470398
 30
0.0
 10
14.82446980423659
 20
-19.58684922470398
 30
0.0
  0
SPLINE
  5
25A
330
1F
100
AcDbEntity
  8
0
100
AcDbSpline
210
0.0
220
0.0
230
1.0
 70
    24
 71
     3
 72
     8
 73
     4
 74
     0
 42
0.000000001
 43
0.0000000001
 40
1.0
 40
1.0
 40
1.0
 40
1.0
 40
2.0
 40
2.0
 40
2.0
 40
2.0
 10
14.82446980423659
 20
-19.58684922470398
 30
0.0
 10
14.82446980423659
 20
-19.58684922470398
 30
0.0
 10
14.80329969247973
 20
-19.72827039437349
 30
0.0
 10
14.80329969247973
 20
-19.72827039437349
 30
0.0
  0
SPLINE
  5
25B
330
1F
100
AcDbEntity
  8
0
100
AcDbSpline
210
0.0
220
0.0
230
1.0
 70
     8
 71
     3
 72
    11
 73
     7
 74
     0
 42
0.000000001
 43
0.0000000001
 40
2.0
 40
2.0
 40
2.0
 40
2.0
 40
3.0
 40
3.0
 40
3.0
 40
4.0
 40
4.0
 40
4.0
 40
4.0
 10
14.80329969247973
 20
-19.72827039437349
 30
0.0
 10
14.81599486934286
 20
-19.72658229758571
 30
0.0
 10
14.82786322328956
 20
-19.72485974984309
 30
0.0
 10
14.84817206117511
 20
-19.72485974984309
 30
0.0
 10
14.8904950592114
 20
-19.72485974984309
 30
0.0
 10
14.93283528272512
 20
-19.73419595860812
 30
0.0
 10
14.96670057134513
 20
-19.75452202197109
 30
0.0
  0
SPLINE
  5
25C
330
1F
100
AcDbEntity
  8
0
100
AcDbSpline
210
0.0
220
0.0
230
1.0
 70
     8
 71
     3
 72
    14
 73
    10
 74
     0
 42
0.000000001
 43
0.0000000001
 40
4.0
 40
4.0
 40
4.0
 40
4.0
 40
5.0
 40
5.0
 40
5.0
 40
6.0
 40
6.0
 40
6.0
 40
7.0
 40
7.0
 40
7.0
 40
7.0
 10
14.96670057134513
 20
-19.75452202197109
 30
0.0
 10
15.00990206873016
 20
-19.77905110182607
 30
0.0
 10
15.04545545413794
 20
-19.82649006665796
 30
0.0
 10
15.04545545413794
 20
-19.89590874068573
 30
0.0
 10
15.04545545413794
 20
-20.00346462173524
 30
0.0
 10
14.95994818419404
 20
-20.08390760131583
 30
0.0
 10
14.84055840015271
 20
-20.08390760131583
 30
0.0
 10
14.7804414839351
 20
-20.08390760131583
 30
0.0
 10
14.72962632552766
 20
-20.0669577315284
 30
0.0
 10
14.70339192340748
 20
-20.05000786174097
 30
0.0
  0
SPLINE
  5
25D
330
1F
100
AcDbEntity
  8
0
100
AcDbSpline
210
0.0
220
0.0
230
1.0
 70
    24
 71
     3
 72
     8
 73
     4
 74
     0
 42
0.000000001
 43
0.0000000001
 40
7.0
 40
7.0
 40
7.0
 40
7.0
 40
8.0
 40
8.0
 40
8.0
 40
8.0
 10
14.70339192340748
 20
-20.05000786174097
 30
0.0
 10
14.70339192340748
 20
-20.05000786174097
 30
0.0
 10
14.72201266450526
 20
-19.99330159005376
 30
0.0
 10
14.72201266450526
 20
-19.99330159005376
 30
0.0
  0
SPLINE
  5
25E
330
1F
100
AcDbEntity
  8
0
100
AcDbSpline
210
0.0
220
0.0
230
1.0
 70
     8
 71
     3
 72
    11
 73
     7
 74
     0
 42
0.000000001
 43
0.0000000001
 40
8.0
 40
8.0
 40
8.0
 40
8.0
 40
9.0
 40
9.0
 40
9.0
 40
10.0
 40
10.0
 40
10.0
 40
10.0
 10
14.72201266450526
 20
-19.99330159005376
 30
0.0
 10
14.74487087304989
 20
-20.00684081531079
 30
0.0
 10
14.7897604672227
 20
-20.02379068509822
 30
0.0
 10
14.83971435175882
 20
-20.02379068509822
 30
0.0
 10
14.90999429965792
 20
-20.02379068509822
 30
0.0
 10
14.97011121587553
 20
-19.9780398170541
 30
0.0
 10
14.97011121587553
 20
-19.90438367557946
 30
0.0
  0
SPLINE
  5
25F
330
1F
100
AcDbEntity
  8
0
100
AcDbSpline
210
0.0
220
0.0
230
1.0
 70
     8
 71
     3
 72
    11
 73
     7
 74
     0
 42
0.000000001
 43
0.0000000001
 40
10.0
 40
10.0
 40
10.0
 40
10.0
 40
11.0
 40
11.0
 40
11.0
 40
12.0
 40
12.0
 40
12.0
 40
12.0
 10
14.97011121587553
 20
-19.90438367557946
 30
0.0
 10
14.96924994200421
 20
-19.83324245380905
 30
0.0
 10
14.92184542812718
 20
-19.78246174635646
 30
0.0
 10
14.81177462737344
 20
-19.78246174635646
 30
0.0
 10
14.7804414839351
 20
-19.78246174635646
 30
0.0
 10
14.75587795312527
 20
-19.78583793993201
 30
0.0
 10
14.73556911523972
 20
-19.7883873105911
 30
0.0
  0
SPLINE
  5
260
330
1F
100
AcDbEntity
  8
0
100
AcDbSpline
210
0.0
220
0.0
230
1.0
 70
    24
 71
     3
 72
     8
 73
     4
 74
     0
 42
0.000000001
 43
0.0000000001
 40
12.0
 40
12.0
 40
12.0
 40
12.0
 40
13.0
 40
13.0
 40
13.0
 40
13.0
 10
14.73556911523972
 20
-19.7883873105911
 30
0.0
 10
14.73556911523972
 20
-19.7883873105911
 30
0.0
 10
14.7711225006475
 20
-19.52418293782729
 30
0.0
 10
14.7711225006475
 20
-19.52418293782729
 30
0.0
  0
SPLINE
  5
261
330
1F
100
AcDbEntity
  8
0
100
AcDbSpline
210
0.0
220
0.0
230
1.0
 70
    24
 71
     3
 72
     8
 73
     4
 74
     0
 42
0.000000001
 43
0.0000000001
 40
13.0
 40
13.0
 40
13.0
 40
13.0
 40
14.0
 40
14.0
 40
14.0
 40
14.0
 10
14.7711225006475
 20
-19.52418293782729
 30
0.0
 10
14.7711225006475
 20
-19.52418293782729
 30
0.0
 10
15.03446559953999
 20
-19.52418293782729
 30
0.0
 10
15.03446559953999
 20
-19.52418293782729
 30
0.0
  0
SPLINE
  5
262
330
1F
100
AcDbEntity
  8
0
100
AcDbSpline
210
0.0
220
0.0
230
1.0
 70
    24
 71
     3
 72
     8
 73
     4
 74
     0
 42
0.000000001
 43
0.0000000001
 40
14.0
 40
14.0
 40
14.0
 40
14.0
 40
15.0
 40
15.0
 40
15.0
 40
15.0
 10
15.03446559953999
 20
-19.52418293782729
 30
0.0
 10
15.03446559953999
 20
-19.52418293782729
 30
0.0
 10
15.03446559953999
 20
-19.58684922470398
 30
0.0
 10
15.03446559953999
 20
-19.58684922470398
 30
0.0
  0
LINE
  5
263
330
1F
100
AcDbEntity
  8
0
100
AcDbLine
 10
17.892344559329
 20
-12.58086859494506
 30
0.0
 11
17.892344559329
 21
-12.58255669173283
 31
0.0
  0
LINE
  5
264
330
1F
100
AcDbEntity
  8
0
100
AcDbLine
 10
17.892344559329
 20
-12.58255669173283
 30
0.0
 11
17.94402099160773
 21
-12.67822699335822
 31
0.0
  0
LINE
  5
265
330
1F
100
AcDbEntity
  8
0
100
AcDbLine
 10
17.94402099160773
 20
-12.67822699335822
 30
0.0
 11
17.88728026896568
 21
-12.69262749248657
 31
0.0
  0
LINE
  5
266
330
1F
100
AcDbEntity
  8
0
100
AcDbLine
 10
17.88728026896568
 20
-12.69262749248657
 30
0.0
 11
17.82292588530121
 21
-12.57239366005135
 31
0.0
  0
LINE
  5
267
330
1F
100
AcDbEntity
  8
0
100
AcDbLine
 10
17.82292588530121
 20
-12.57239366005135
 30
0.0
 11
17.82292588530121
 21
-12.50890055025819
 31
0.0
  0
LINE
  5
268
330
1F
100
AcDbEntity
  8
0
100
AcDbLine
 10
17.82292588530121
 20
-12.50890055025819
 30
0.0
 11
18.37331434002473
 21
-12.50890055025819
 31
0.0
  0
LINE
  5
269
330
1F
100
AcDbEntity
  8
0
100
AcDbLine
 10
18.37331434002473
 20
-12.50890055025819
 30
0.0
 11
18.37331434002473
 21
-12.58086859494506
 31
0.0
  0
LINE
  5
26A
330
1F
100
AcDbEntity
  8
0
100
AcDbLine
 10
18.37331434002473
 20
-12.58086859494506
 30
0.0
 11
17.892344559329
 21
-12.58086859494506
 31
0.0
  0
SPLINE
  5
26B
330
1F
100
AcDbEntity
  8
0
100
AcDbSpline
210
0.0
220
0.0
230
1.0
 70
     8
 71
     3
 72
     8
 73
     4
 74
     0
 42
0.000000001
 43
0.0000000001
 40
0.0
 40
0.0
 40
0.0
 40
0.0
 40
1.0
 40
1.0
 40
1.0
 40
1.0
 10
18.32081108482952
 20
-12.26509114276706
 30
0.0
 10
18.32249918161729
 20
-12.24900254685094
 30
0.0
 10
18.32081108482952
 20
-12.23036458027574
 30
0.0
 10
18.31826171417043
 20
-12.20497422654945
 30
0.0
  0
SPLINE
  5
26C
330
1F
100
AcDbEntity
  8
0
100
AcDbSpline
210
0.0
220
0.0
230
1.0
 70
     8
 71
     3
 72
     8
 73
     4
 74
     0
 42
0.000000001
 43
0.0000000001
 40
1.0
 40
1.0
 40
1.0
 40
1.0
 40
2.0
 40
2.0
 40
2.0
 40
2.0
 10
18.31826171417043
 20
-12.20497422654945
 30
0.0
 10
18.3123361499358
 20
-12.16180718011927
 30
0.0
 10
18.29455945723192
 20
-12.12115505339332
 30
0.0
 10
18.26493163605877
 20
-12.08980468447755
 30
0.0
  0
SPLINE
  5
26D
330
1F
100
AcDbEntity
  8
0
100
AcDbSpline
210
0.0
220
0.0
230
1.0
 70
     8
 71
     3
 72
     8
 73
     4
 74
     0
 42
0.000000001
 43
0.0000000001
 40
2.0
 40
2.0
 40
2.0
 40
2.0
 40
3.0
 40
3.0
 40
3.0
 40
3.0
 10
18.26493163605877
 20
-12.08980468447755
 30
0.0
 10
18.23189317035522
 20
-12.05342447615331
 30
0.0
 10
18.18362738260687
 20
-12.02717284855571
 30
0.0
 10
18.11844617602594
 20
-12.01697536591937
 30
0.0
  0
SPLINE
  5
26E
330
1F
100
AcDbEntity
  8
0
100
AcDbSpline
210
0.0
220
0.0
230
1.0
 70
    24
 71
     3
 72
     8
 73
     4
 74
     0
 42
0.000000001
 43
0.0000000001
 40
3.0
 40
3.0
 40
3.0
 40
3.0
 40
4.0
 40
4.0
 40
4.0
 40
4.0
 10
18.11844617602594
 20
-12.01697536591937
 30
0.0
 10
18.11844617602594
 20
-12.01697536591937
 30
0.0
 10
18.11844617602594
 20
-12.01952473657845
 30
0.0
 10
18.11844617602594
 20
-12.01952473657845
 30
0.0
  0
SPLINE
  5
26F
330
1F
100
AcDbEntity
  8
0
100
AcDbSpline
210
0.0
220
0.0
230
1.0
 70
     8
 71
     3
 72
    20
 73
    16
 74
     0
 42
0.000000001
 43
0.0000000001
 40
4.0
 40
4.0
 40
4.0
 40
4.0
 40
5.0
 40
5.0
 40
5.0
 40
6.0
 40
6.0
 40
6.0
 40
7.0
 40
7.0
 40
7.0
 40
8.0
 40
8.0
 40
8.0
 40
9.0
 40
9.0
 40
9.0
 40
9.0
 10
18.11844617602594
 20
-12.01952473657845
 30
0.0
 10
18.15568765822149
 20
-12.05001383162291
 30
0.0
 10
18.17770181837224
 20
-12.09404215192441
 30
0.0
 10
18.17770181837224
 20
-12.1490947777787
 30
0.0
 10
18.17770181837224
 20
-12.24814127297963
 30
0.0
 10
18.10318440302629
 20
-12.31166883372764
 30
0.0
 10
18.00920219818867
 20
-12.31166883372764
 30
0.0
 10
17.90505696166957
 20
-12.31166883372764
 30
0.0
 10
17.81362412749104
 20
-12.23629014451037
 30
0.0
 10
17.81362412749104
 20
-12.12370442405241
 30
0.0
 10
17.81362412749104
 20
-12.01104980168474
 30
0.0
 10
17.90505696166957
 20
-11.94163112765695
 30
0.0
 10
18.04561685746776
 20
-11.94163112765695
 30
0.0
 10
18.16671196377429
 20
-11.94163112765695
 30
0.0
 10
18.25139241080173
 20
-11.9822832543829
 30
0.0
 10
18.30386121504209
 20
-12.03647460636588
 30
0.0
  0
SPLINE
  5
270
330
1F
100
AcDbEntity
  8
0
100
AcDbSpline
210
0.0
220
0.0
230
1.0
 70
     8
 71
     3
 72
     8
 73
     4
 74
     0
 42
0.000000001
 43
0.0000000001
 40
9.0
 40
9.0
 40
9.0
 40
9.0
 40
10.0
 40
10.0
 40
10.0
 40
10.0
 10
18.30386121504209
 20
-12.03647460636588
 30
0.0
 10
18.34537461563935
 20
-12.0788148298796
 30
0.0
 10
18.37076496936564
 20
-12.13720919835459
 30
0.0
 10
18.37755180747158
 20
-12.19649929165574
 30
0.0
  0
SPLINE
  5
271
330
1F
100
AcDbEntity
  8
0
100
AcDbSpline
210
0.0
220
0.0
230
1.0
 70
     8
 71
     3
 72
     8
 73
     4
 74
     0
 42
0.000000001
 43
0.0000000001
 40
10.0
 40
10.0
 40
10.0
 40
10.0
 40
11.0
 40
11.0
 40
11.0
 40
11.0
 10
18.37755180747158
 20
-12.19649929165574
 30
0.0
 10
18.38178927491844
 20
-12.22361219312465
 30
0.0
 10
18.3826160978349
 20
-12.24731445006317
 30
0.0
 10
18.38178927491844
 20
-12.26509114276706
 30
0.0
  0
SPLINE
  5
272
330
1F
100
AcDbEntity
  8
0
100
AcDbSpline
210
0.0
220
0.0
230
1.0
 70
    24
 71
     3
 72
     8
 73
     4
 74
     0
 42
0.000000001
 43
0.0000000001
 40
11.0
 40
11.0
 40
11.0
 40
11.0
 40
12.0
 40
12.0
 40
12.0
 40
12.0
 10
18.38178927491844
 20
-12.26509114276706
 30
0.0
 10
18.38178927491844
 20
-12.26509114276706
 30
0.0
 10
18.32081108482952
 20
-12.26509114276706
 30
0.0
 10
18.32081108482952
 20
-12.26509114276706
 30
0.0
  0
SPLINE
  5
273
330
1F
100
AcDbEntity
  8
0
100
AcDbSpline
210
0.0
220
0.0
230
1.0
 70
     8
 71
     3
 72
    11
 73
     7
 74
     0
 42
0.000000001
 43
0.0000000001
 40
0.0
 40
0.0
 40
0.0
 40
0.0
 40
1.0
 40
1.0
 40
1.0
 40
2.0
 40
2.0
 40
2.0
 40
2.0
 10
18.00413790782535
 20
-12.238012692253
 30
0.0
 10
18.07272975893668
 20
-12.238012692253
 30
0.0
 10
18.12096109573017
 20
-12.19649929165574
 30
0.0
 10
18.12096109573017
 20
-12.13214490799127
 30
0.0
 10
18.12096109573017
 20
-12.08219102345515
 30
0.0
 10
18.09643201587519
 20
-12.04322699351697
 30
0.0
 10
18.06339355017165
 20
-12.02376220402531
 30
0.0
  0
SPLINE
  5
274
330
1F
100
AcDbEntity
  8
0
100
AcDbSpline
210
0.0
220
0.0
230
1.0
 70
     8
 71
     3
 72
    14
 73
    10
 74
     0
 42
0.000000001
 43
0.0000000001
 40
2.0
 40
2.0
 40
2.0
 40
2.0
 40
3.0
 40
3.0
 40
3.0
 40
4.0
 40
4.0
 40
4.0
 40
5.0
 40
5.0
 40
5.0
 40
5.0
 10
18.06339355017165
 20
-12.02376220402531
 30
0.0
 10
18.05664116302056
 20
-12.01952473657845
 30
0.0
 10
18.04816622812685
 20
-12.01697536591937
 30
0.0
 10
18.03631509965759
 20
-12.01697536591937
 30
0.0
 10
17.94229844386512
 20
-12.01697536591937
 30
0.0
 10
17.87033039917825
 20
-12.05170192841068
 30
0.0
 10
17.87033039917825
 20
-12.12962998828704
 30
0.0
 10
17.87033039917825
 20
-12.19312309808019
 30
0.0
 10
17.92624429890385
 20
-12.238012692253
 30
0.0
 10
18.00413790782535
 20
-12.238012692253
 30
0.0
  0
LINE
  5
275
330
1F
100
AcDbEntity
  8
0
100
AcDbLine
 10
17.82292588530121
 20
-11.51660969764168
 30
0.0
 11
17.87205294692087
 21
-11.51660969764168
 31
0.0
  0
LINE
  5
276
330
1F
100
AcDbEntity
  8
0
100
AcDbLine
 10
17.87205294692087
 20
-11.51660969764168
 30
0.0
 11
18.37331434002473
 21
-11.75625053959566
 31
0.0
  0
LINE
  5
277
330
1F
100
AcDbEntity
  8
0
100
AcDbLine
 10
18.37331434002473
 20
-11.75625053959566
 30
0.0
 11
18.37331434002473
 21
-11.83328287464584
 31
0.0
  0
LINE
  5
278
330
1F
100
AcDbEntity
  8
0
100
AcDbLine
 10
18.37331434002473
 20
-11.83328287464584
 30
0.0
 11
17.88641899509437
 21
-11.59453775751803
 31
0.0
  0
LINE
  5
279
330
1F
100
AcDbEntity
  8
0
100
AcDbLine
 10
17.88641899509437
 20
-11.59453775751803
 30
0.0
 11
17.88473089830659
 21
-11.59453775751803
 31
0.0
  0
LINE
  5
27A
330
1F
100
AcDbEntity
  8
0
100
AcDbLine
 10
17.88473089830659
 20
-11.59453775751803
 30
0.0
 11
17.88473089830659
 21
-11.86380642064516
 31
0.0
  0
LINE
  5
27B
330
1F
100
AcDbEntity
  8
0
100
AcDbLine
 10
17.88473089830659
 20
-11.86380642064516
 30
0.0
 11
17.82292588530121
 21
-11.86380642064516
 31
0.0
  0
LINE
  5
27C
330
1F
100
AcDbEntity
  8
0
100
AcDbLine
 10
17.82292588530121
 20
-11.86380642064516
 30
0.0
 11
17.82292588530121
 21
-11.51660969764168
 31
0.0
  0
SPLINE
  5
2BE
330
1F
100
AcDbEntity
  8
0
100
AcDbSpline
210
0.0
220
0.0
230
1.0
 70
    24
 71
     3
 72
     8
 73
     4
 74
     0
 42
0.000000001
 43
0.0000000001
 40
0.0
 40
0.0
 40
0.0
 40
0.0
 40
1.0
 40
1.0
 40
1.0
 40
1.0
 10
20.0655796933343
 20
-19.70611843040333
 30
0.0
 10
20.0655796933343
 20
-19.70611843040333
 30
0.0
 10
20.0655796933343
 20
-19.66040201331407
 30
0.0
 10
20.0655796933343
 20
-19.66040201331407
 30
0.0
  0
SPLINE
  5
2BF
330
1F
100
AcDbEntity
  8
0
100
AcDbSpline
210
0.0
220
0.0
230
1.0
 70
    24
 71
     3
 72
     8
 73
     4
 74
     0
 42
0.000000001
 43
0.0000000001
 40
1.0
 40
1.0
 40
1.0
 40
1.0
 40
2.0
 40
2.0
 40
2.0
 40
2.0
 10
20.0655796933343
 20
-19.66040201331407
 30
0.0
 10
20.0655796933343
 20
-19.66040201331407
 30
0.0
 10
20.12400851276414
 20
-19.603661290672
 30
0.0
 10
20.12400851276414
 20
-19.603661290672
 30
0.0
  0
SPLINE
  5
2C0
330
1F
100
AcDbEntity
  8
0
100
AcDbSpline
210
0.0
220
0.0
230
1.0
 70
     8
 71
     3
 72
     8
 73
     4
 74
     0
 42
0.000000001
 43
0.0000000001
 40
2.0
 40
2.0
 40
2.0
 40
2.0
 40
3.0
 40
3.0
 40
3.0
 40
3.0
 10
20.12400851276414
 20
-19.603661290672
 30
0.0
 10
20.26456840856233
 20
-19.46988823297975
 30
0.0
 10
20.32806151835548
 20
-19.39874701120934
 30
0.0
 10
20.32892279222679
 20
-19.31578911192452
 30
0.0
  0
SPLINE
  5
2C1
330
1F
100
AcDbEntity
  8
0
100
AcDbSpline
210
0.0
220
0.0
230
1.0
 70
     8
 71
     3
 72
    11
 73
     7
 74
     0
 42
0.000000001
 43
0.0000000001
 40
3.0
 40
3.0
 40
3.0
 40
3.0
 40
4.0
 40
4.0
 40
4.0
 40
5.0
 40
5.0
 40
5.0
 40
5.0
 10
20.32892279222679
 20
-19.31578911192452
 30
0.0
 10
20.32892279222679
 20
-19.25990966315377
 30
0.0
 10
20.30180989075788
 20
-19.20823323087502
 30
0.0
 10
20.21967881438952
 20
-19.20823323087502
 30
0.0
 10
20.1697249298534
 20
-19.20823323087502
 30
0.0
 10
20.12824598021099
 20
-19.23365803555617
 30
0.0
 10
20.10282117552985
 20
-19.2548109218356
 30
0.0
  0
SPLINE
  5
2C2
330
1F
100
AcDbEntity
  8
0
100
AcDbSpline
210
0.0
220
0.0
230
1.0
 70
    24
 71
     3
 72
     8
 73
     4
 74
     0
 42
0.000000001
 43
0.0000000001
 40
5.0
 40
5.0
 40
5.0
 40
5.0
 40
6.0
 40
6.0
 40
6.0
 40
6.0
 10
20.10282117552985
 20
-19.2548109218356
 30
0.0
 10
20.10282117552985
 20
-19.2548109218356
 30
0.0
 10
20.07911891859133
 20
-19.20230766664039
 30
0.0
 10
20.07911891859133
 20
-19.20230766664039
 30
0.0
  0
SPLINE
  5
2C3
330
1F
100
AcDbEntity
  8
0
100
AcDbSpline
210
0.0
220
0.0
230
1.0
 70
     8
 71
     3
 72
    14
 73
    10
 74
     0
 42
0.000000001
 43
0.0000000001
 40
6.0
 40
6.0
 40
6.0
 40
6.0
 40
7.0
 40
7.0
 40
7.0
 40
8.0
 40
8.0
 40
8.0
 40
9.0
 40
9.0
 40
9.0
 40
9.0
 10
20.07911891859133
 20
-19.20230766664039
 30
0.0
 10
20.11722167465819
 20
-19.17013047480816
 30
0.0
 10
20.17141302664117
 20
-19.14642821786964
 30
0.0
 10
20.23490613643433
 20
-19.14642821786964
 30
0.0
 10
20.35345187208177
 20
-19.14642821786964
 30
0.0
 10
20.4034057566179
 20
-19.22773247132154
 30
0.0
 10
20.4034057566179
 20
-19.3064529031595
 30
0.0
 10
20.4034057566179
 20
-19.40808321997437
 30
0.0
 10
20.32974961514326
 20
-19.49021429634272
 30
0.0
 10
20.21375325015489
 20
-19.60197319388423
 30
0.0
  0
SPLINE
  5
2C4
330
1F
100
AcDbEntity
  8
0
100
AcDbSpline
210
0.0
220
0.0
230
1.0
 70
    24
 71
     3
 72
     8
 73
     4
 74
     0
 42
0.000000001
 43
0.0000000001
 40
9.0
 40
9.0
 40
9.0
 40
9.0
 40
10.0
 40
10.0
 40
10.0
 40
10.0
 10
20.21375325015489
 20
-19.60197319388423
 30
0.0
 10
20.21375325015489
 20
-19.60197319388423
 30
0.0
 10
20.1697249298534
 20
-19.64262532061018
 30
0.0
 10
20.1697249298534
 20
-19.64262532061018
 30
0.0
  0
SPLINE
  5
2C5
330
1F
100
AcDbEntity
  8
0
100
AcDbSpline
210
0.0
220
0.0
230
1.0
 70
    24
 71
     3
 72
     8
 73
     4
 74
     0
 42
0.000000001
 43
0.0000000001
 40
10.0
 40
10.0
 40
10.0
 40
10.0
 40
11.0
 40
11.0
 40
11.0
 40
11.0
 10
20.1697249298534
 20
-19.64262532061018
 30
0.0
 10
20.1697249298534
 20
-19.64262532061018
 30
0.0
 10
20.1697249298534
 20
-19.64431341739795
 30
0.0
 10
20.1697249298534
 20
-19.64431341739795
 30
0.0
  0
SPLINE
  5
2C6
330
1F
100
AcDbEntity
  8
0
100
AcDbSpline
210
0.0
220
0.0
230
1.0
 70
    24
 71
     3
 72
     8
 73
     4
 74
     0
 42
0.000000001
 43
0.0000000001
 40
11.0
 40
11.0
 40
11.0
 40
11.0
 40
12.0
 40
12.0
 40
12.0
 40
12.0
 10
20.1697249298534
 20
-19.64431341739795
 30
0.0
 10
20.1697249298534
 20
-19.64431341739795
 30
0.0
 10
20.41697943282978
 20
-19.64431341739795
 30
0.0
 10
20.41697943282978
 20
-19.64431341739795
 30
0.0
  0
SPLINE
  5
2C7
330
1F
100
AcDbEntity
  8
0
100
AcDbSpline
210
0.0
220
0.0
230
1.0
 70
    24
 71
     3
 72
     8
 73
     4
 74
     0
 42
0.000000001
 43
0.0000000001
 40
12.0
 40
12.0
 40
12.0
 40
12.0
 40
13.0
 40
13.0
 40
13.0
 40
13.0
 10
20.41697943282978
 20
-19.64431341739795
 30
0.0
 10
20.41697943282978
 20
-19.64431341739795
 30
0.0
 10
20.41697943282978
 20
-19.70611843040333
 30
0.0
 10
20.41697943282978
 20
-19.70611843040333
 30
0.0
  0
SPLINE
  5
2C8
330
1F
100
AcDbEntity
  8
0
100
AcDbSpline
210
0.0
220
0.0
230
1.0
 70
    24
 71
     3
 72
     8
 73
     4
 74
     0
 42
0.000000001
 43
0.0000000001
 40
13.0
 40
13.0
 40
13.0
 40
13.0
 40
14.0
 40
14.0
 40
14.0
 40
14.0
 10
20.41697943282978
 20
-19.70611843040333
 30
0.0
 10
20.41697943282978
 20
-19.70611843040333
 30
0.0
 10
20.0655796933343
 20
-19.70611843040333
 30
0.0
 10
20.0655796933343
 20
-19.70611843040333
 30
0.0
  0
SPLINE
  5
2C9
330
1F
100
AcDbEntity
  8
0
100
AcDbSpline
210
0.0
220
0.0
230
1.0
 70
     8
 71
     3
 72
    11
 73
     7
 74
     0
 42
0.000000001
 43
0.0000000001
 40
0.0
 40
0.0
 40
0.0
 40
0.0
 40
1.0
 40
1.0
 40
1.0
 40
2.0
 40
2.0
 40
2.0
 40
2.0
 10
20.86570311978357
 20
-19.42499863880694
 30
0.0
 10
20.86570311978357
 20
-19.61213622556571
 30
0.0
 10
20.79624999480093
 20
-19.71545463916836
 30
0.0
 10
20.67432806557795
 20
-19.71545463916836
 30
0.0
 10
20.56677218452844
 20
-19.71545463916836
 30
0.0
 10
20.49397731692511
 20
-19.6146855962248
 30
0.0
 10
20.49228922013734
 20
-19.4326467507842
 30
0.0
  0
SPLINE
  5
2CA
330
1F
100
AcDbEntity
  8
0
100
AcDbSpline
210
0.0
220
0.0
230
1.0
 70
     8
 71
     3
 72
    11
 73
     7
 74
     0
 42
0.000000001
 43
0.0000000001
 40
2.0
 40
2.0
 40
2.0
 40
2.0
 40
3.0
 40
3.0
 40
3.0
 40
4.0
 40
4.0
 40
4.0
 40
4.0
 10
20.49228922013734
 20
-19.4326467507842
 30
0.0
 10
20.49228922013734
 20
-19.24802408372966
 30
0.0
 10
20.57187092584661
 20
-19.14642821786964
 30
0.0
 10
20.68362982338812
 20
-19.14642821786964
 30
0.0
 10
20.79962618837648
 20
-19.14642821786964
 30
0.0
 10
20.86570311978357
 20
-19.24974663147228
 30
0.0
 10
20.86570311978357
 20
-19.42499863880694
 30
0.0
  0
ENDSEC
  0
SECTION
  2
OBJECTS
  0
DICTIONARY
  5
C
330
0
100
AcDbDictionary
281
     1
  3
ACAD_CIP_PREVIOUS_PRODUCT_INFO
350
164
  3
ACAD_COLOR
350
145
  3
ACAD_DETAILVIEWSTYLE
350
160
  3
ACAD_GROUP
350
D
  3
ACAD_LAYOUT
350
1A
  3
ACAD_MATERIAL
350
3B
  3
ACAD_MLEADERSTYLE
350
138
  3
ACAD_MLINESTYLE
350
17
  3
ACAD_PLOTSETTINGS
350
19
  3
ACAD_PLOTSTYLENAME
350
E
  3
ACAD_SCALELIST
350
147
  3
ACAD_SECTIONVIEWSTYLE
350
15E
  3
ACAD_TABLESTYLE
350
137
  3
ACAD_VISUALSTYLE
350
2A
  3
ACDB_RECOMPOSE_DATA
350
2F0
  3
AcDbVariableDictionary
350
2CB
  0
SUN
  5
3F
330
29
100
AcDbSun
 90
        1
290
     1
 63
     7
421
 16777215
 40
1.0
291
     1
 91
  2455826
 92
 54000000
292
     0
 70
     0
 71
   256
280
     1
1001
ACAD
1000
AcDbSavedByObjectVersion
1070
     0
  0
DICTIONARY
  5
165
330
1F
100
AcDbDictionary
280
     1
281
     1
  3
ACAD_SORTENTS
360
166
  0
XRECORD
  5
164
102
{ACAD_REACTORS
330
C
102
}
330
C
100
AcDbXrecord
280
     1
300
ACD
300
2019
300
ACD_F_S
  0
DICTIONARY
  5
145
102
{ACAD_REACTORS
330
C
102
}
330
C
100
AcDbDictionary
281
     1
  0
DICTIONARY
  5
160
102
{ACAD_REACTORS
330
C
102
}
330
C
100
AcDbDictionary
281
     1
  3
Imperial24
350
161
  0
DICTIONARY
  5
D
102
{ACAD_REACTORS
330
C
102
}
330
C
100
AcDbDictionary
281
     1
  0
DICTIONARY
  5
1A
102
{ACAD_REACTORS
330
C
102
}
330
C
100
AcDbDictionary
281
     1
  3
Layout1
350
1E
  3
Layout2
350
26
  3
Model
350
22
  0
DICTIONARY
  5
3B
102
{ACAD_REACTORS
330
C
102
}
330
C
100
AcDbDictionary
281
     1
  3
ByBlock
350
3D
  3
ByLayer
350
3C
  3
Global
350
3E
  0
DICTIONARY
  5
138
102
{ACAD_REACTORS
330
C
102
}
330
C
100
AcDbDictionary
281
     1
  3
Standard
350
15D
  0
DICTIONARY
  5
17
102
{ACAD_REACTORS
330
C
102
}
330
C
100
AcDbDictionary
281
     1
  3
Standard
350
18
  0
DICTIONARY
  5
19
102
{ACAD_REACTORS
330
C
102
}
330
C
100
AcDbDictionary
281
     1
  0
ACDBDICTIONARYWDFLT
  5
E
102
{ACAD_REACTORS
330
C
102
}
330
C
100
AcDbDictionary
281
     1
  3
Normal
350
F
100
AcDbDictionaryWithDefault
340
F
  0
DICTIONARY
  5
147
102
{ACAD_REACTORS
330
C
102
}
330
C
100
AcDbDictionary
281
     1
  3
A0
350
148
  3
A1
350
149
  3
A2
350
14A
  3
A3
350
14B
  3
A4
350
14C
  3
A5
350
14D
  3
A6
350
14E
  3
A7
350
14F
  3
A8
350
150
  3
A9
350
151
  3
B0
350
152
  3
B1
350
153
  3
B2
350
154
  3
B3
350
155
  3
B4
350
156
  3
B5
350
157
  3
B6
350
158
  3
B7
350
159
  3
B8
350
15A
  3
B9
350
15B
  3
C0
350
15C
  0
DICTIONARY
  5
15E
102
{ACAD_REACTORS
330
C
102
}
330
C
100
AcDbDictionary
281
     1
  3
Imperial24
350
15F
  0
DICTIONARY
  5
137
102
{ACAD_REACTORS
330
C
102
}
330
C
100
AcDbDictionary
281
     1
  3
Standard
350
146
  0
DICTIONARY
  5
2A
102
{ACAD_REACTORS
330
C
102
}
330
C
100
AcDbDictionary
281
     1
  3
2dWireframe
350
2F
  3
3D Hidden
350
31
  3
3dWireframe
350
30
  3
Basic
350
32
  3
Brighten
350
36
  3
ColorChange
350
3A
  3
Conceptual
350
34
  3
Dim
350
35
  3
EdgeColorOff
350
144
  3
Facepattern
350
39
  3
Flat
350
2B
  3
FlatWithEdges
350
2C
  3
Gouraud
350
2D
  3
GouraudWithEdges
350
2E
  3
Hidden
350
13C
  3
JitterOff
350
142
  3
Linepattern
350
38
  3
OverhangOff
350
143
  3
Realistic
350
33
  3
Shaded
350
141
  3
Shaded with edges
350
140
  3
Shades of Gray
350
13D
  3
Sketchy
350
13E
  3
Thicken
350
37
  3
Wireframe
350
13B
  3
X-Ray
350
13F
  0
XRECORD
  5
2F0
102
{ACAD_REACTORS
330
C
102
}
330
C
100
AcDbXrecord
280
     1
 90
        1
330
146
  0
DICTIONARY
  5
2CB
102
{ACAD_REACTORS
330
C
102
}
330
C
100
AcDbDictionary
281
     1
  3
CANNOSCALE
350
2D0
  3
CMLEADERSTYLE
350
2CD
  3
CTABLESTYLE
350
2CC
  3
CVIEWDETAILSTYLE
350
2CE
  3
CVIEWSECTIONSTYLE
350
2CF
  0
SORTENTSTABLE
  5
166
102
{ACAD_REACTORS
330
165
102
}
330
165
100
AcDbSortentsTable
330
1F
331
1A5
  5
1AF
331
1AD
  5
23E
331
1AE
  5
23F
331
1B2
  5
1C0
331
1BE
  5
1C2
331
1C0
  5
1CE
331
1C2
  5
1D0
331
1CE
  5
1D2
331
1D1
  5
1DF
331
1DD
  5
1E1
331
1F8
  5
2BD
331
1FA
  5
1FE
331
1FC
  5
200
331
1FD
  5
201
331
1FE
  5
1B1
331
1FF
  5
1B2
331
200
  5
1B3
331
201
  5
1BE
331
202
  5
175
331
203
  5
17C
331
204
  5
183
331
205
  5
18A
331
206
  5
1FC
331
207
  5
202
331
208
  5
203
331
209
  5
204
331
20A
  5
205
331
20B
  5
206
331
20C
  5
207
331
20D
  5
208
331
20E
  5
209
331
20F
  5
20A
331
210
  5
20B
331
211
  5
20C
331
212
  5
20D
331
213
  5
20E
331
214
  5
20F
331
215
  5
210
331
237
  5
232
331
238
  5
233
331
239
  5
234
331
23A
  5
235
331
23B
  5
236
331
23C
  5
237
331
23D
  5
238
331
23E
  5
239
331
23F
  5
23A
331
240
  5
23B
331
241
  5
23C
331
242
  5
23D
331
243
  5
242
331
244
  5
243
331
245
  5
244
331
246
  5
245
331
247
  5
246
331
248
  5
247
331
249
  5
248
331
24A
  5
249
331
24B
  5
24A
331
24C
  5
24B
331
24D
  5
24C
331
24E
  5
24D
331
24F
  5
24E
331
250
  5
24F
331
251
  5
250
331
252
  5
251
331
253
  5
252
331
254
  5
253
331
255
  5
254
331
256
  5
255
331
257
  5
256
331
258
  5
257
331
259
  5
258
331
25A
  5
259
331
25B
  5
25A
331
25C
  5
25B
331
25D
  5
25C
331
25E
  5
25D
331
25F
  5
25E
331
260
  5
25F
331
261
  5
260
331
262
  5
261
331
263
  5
262
331
264
  5
263
331
265
  5
264
331
266
  5
265
331
267
  5
266
331
268
  5
267
331
269
  5
268
331
26A
  5
269
331
26B
  5
26A
331
26C
  5
26B
331
26D
  5
26C
331
26E
  5
26D
331
26F
  5
26E
331
270
  5
26F
331
271
  5
270
331
272
  5
271
331
273
  5
272
331
274
  5
273
331
275
  5
274
331
276
  5
275
331
277
  5
276
331
278
  5
277
331
279
  5
278
331
27A
  5
279
331
27B
  5
27A
331
27C
  5
27B
  0
ACDBDETAILVIEWSTYLE
  5
161
102
{ACAD_XDICTIONARY
360
2F3
102
}
102
{ACAD_REACTORS
330
160
102
}
330
160
100
AcDbModelDocViewStyle
 70
     0
  3
Imperial24
290
     0
100
AcDbDetailViewStyle
 70
     0
 71
     0
 90
        3
 71
     1
340
11
 62
   256
 40
0.24
340
0
 62
   256
 40
0.24
300

 40
0.36
280
     3
 71
     2
340
16
 90
       25
 62
   256
 71
     3
340
11
 62
   256
 40
0.24
 90
        1
 40
0.75
 90
        1
300
%<\AcVar ViewType \f "%tc1">% %<\AcVar ViewDetailId>%\PSCALA %<\AcVar ViewScale \f "%sn">%
 71
     4
340
16
 90
       25
 62
   256
340
16
 90
       25
 62
   256
280
     0
  0
LAYOUT
  5
1E
102
{ACAD_REACTORS
330
1A
102
}
330
1A
100
AcDbPlotSettings
  1

  2
none_device
  4

  6

 40
0.0
 41
0.0
 42
0.0
 43
0.0
 44
0.0
 45
0.0
 46
0.0
 47
0.0
 48
0.0
 49
0.0
140
0.0
141
0.0
142
1.0
143
1.0
 70
   688
 72
     0
 73
     0
 74
     5
  7

 75
    16
147
1.0
 76
     0
 77
     2
 78
   300
148
0.0
149
0.0
100
AcDbLayout
  1
Layout1
 70
     1
 71
     1
 10
0.0
 20
0.0
 11
12.0
 21
9.0
 12
0.0
 22
0.0
 32
0.0
 14
1.000000000000000E+20
 24
1.000000000000000E+20
 34
1.000000000000000E+20
 15
-1.000000000000000E+20
 25
-1.000000000000000E+20
 35
-1.000000000000000E+20
146
0.0
 13
0.0
 23
0.0
 33
0.0
 16
1.0
 26
0.0
 36
0.0
 17
0.0
 27
1.0
 37
0.0
 76
     0
330
1B
  0
LAYOUT
  5
26
102
{ACAD_REACTORS
330
1A
102
}
330
1A
100
AcDbPlotSettings
  1

  2
none_device
  4

  6

 40
0.0
 41
0.0
 42
0.0
 43
0.0
 44
0.0
 45
0.0
 46
0.0
 47
0.0
 48
0.0
 49
0.0
140
0.0
141
0.0
142
1.0
143
1.0
 70
   688
 72
     0
 73
     0
 74
     5
  7

 75
    16
147
1.0
 76
     0
 77
     2
 78
   300
148
0.0
149
0.0
100
AcDbLayout
  1
Layout2
 70
     1
 71
     2
 10
0.0
 20
0.0
 11
0.0
 21
0.0
 12
0.0
 22
0.0
 32
0.0
 14
0.0
 24
0.0
 34
0.0
 15
0.0
 25
0.0
 35
0.0
146
0.0
 13
0.0
 23
0.0
 33
0.0
 16
1.0
 26
0.0
 36
0.0
 17
0.0
 27
1.0
 37
0.0
 76
     0
330
23
  0
LAYOUT
  5
22
102
{ACAD_REACTORS
330
1A
102
}
330
1A
100
AcDbPlotSettings
  1

  2
none_device
  4

  6

 40
0.0
 41
0.0
 42
0.0
 43
0.0
 44
0.0
 45
0.0
 46
0.0
 47
0.0
 48
0.0
 49
0.0
140
0.0
141
0.0
142
1.0
143
1.0
 70
  1712
 72
     0
 73
     0
 74
     0
  7

 75
     0
147
1.0
 76
     0
 77
     2
 78
   300
148
0.0
149
0.0
100
AcDbLayout
  1
Model
 70
     1
 71
     0
 10
0.0
 20
0.0
 11
12.0
 21
9.0
 12
0.0
 22
0.0
 32
0.0
 14
1.000000000000000E+20
 24
1.000000000000000E+20
 34
1.000000000000000E+20
 15
-1.000000000000000E+20
 25
-1.000000000000000E+20
 35
-1.000000000000000E+20
146
0.0
 13
0.0
 23
0.0
 33
0.0
 16
1.0
 26
0.0
 36
0.0
 17
0.0
 27
1.0
 37
0.0
 76
     0
330
1F
331
29
  0
MATERIAL
  5
3D
102
{ACAD_REACTORS
330
3B
102
}
330
3B
100
AcDbMaterial
  1
ByBlock
  0
MATERIAL
  5
3C
102
{ACAD_REACTORS
330
3B
102
}
330
3B
100
AcDbMaterial
  1
ByLayer
  0
MATERIAL
  5
3E
102
{ACAD_REACTORS
330
3B
102
}
330
3B
100
AcDbMaterial
  1
Global
  0
MLEADERSTYLE
  5
15D
102
{ACAD_REACTORS
330
138
102
}
330
138
100
AcDbMLeaderStyle
179
     2
170
     2
171
     1
172
     0
 90
        2
 40
0.0
 41
0.0
173
     1
 91
-1056964608
340
14
 92
       -2
290
     1
 42
0.09
291
     1
 43
0.36
  3
Standard
 44
0.18
300

342
11
174
     1
178
     6
175
     1
176
     0
 93
-1056964608
 45
0.18
292
     0
297
     0
 46
0.18
 94
-1056964608
 47
1.0
 49
1.0
140
1.0
293
     1
141
0.0
294
     1
177
     0
142
1.0
295
     0
296
     0
143
0.125
271
     0
272
     9
273
     9
298
     0
  0
MLINESTYLE
  5
18
102
{ACAD_REACTORS
330
17
102
}
330
17
100
AcDbMlineStyle
  2
STANDARD
 70
     0
  3

 62
   256
 51
90.0
 52
90.0
 71
     2
 49
0.5
 62
   256
  6
BYLAYER
 49
-0.5
 62
   256
  6
BYLAYER
  0
ACDBPLACEHOLDER
  5
F
102
{ACAD_REACTORS
330
E
102
}
330
E
  0
SCALE
  5
148
102
{ACAD_REACTORS
330
147
102
}
330
147
100
AcDbScale
 70
     0
300
1:1
140
1.0
141
1.0
290
     1
  0
SCALE
  5
149
102
{ACAD_REACTORS
330
147
102
}
330
147
100
AcDbScale
 70
     0
300
1.10
140
1.0
141
10.0
290
     0
  0
SCALE
  5
14A
102
{ACAD_REACTORS
330
147
102
}
330
147
100
AcDbScale
 70
     0
300
1.50
140
1.0
141
50.0
290
     0
  0
SCALE
  5
14B
102
{ACAD_REACTORS
330
147
102
}
330
147
100
AcDbScale
 70
     0
300
1:100
140
1.0
141
100.0
290
     0
  0
SCALE
  5
14C
102
{ACAD_REACTORS
330
147
102
}
330
147
100
AcDbScale
 70
     0
300
1.200
140
1.0
141
200.0
290
     0
  0
SCALE
  5
14D
102
{ACAD_REACTORS
330
147
102
}
330
147
100
AcDbScale
 70
     0
300
1/128" = 1'-0"
140
0.0078125
141
12.0
290
     0
  0
SCALE
  5
14E
102
{ACAD_REACTORS
330
147
102
}
330
147
100
AcDbScale
 70
     0
300
1/64" = 1'-0"
140
0.015625
141
12.0
290
     0
  0
SCALE
  5
14F
102
{ACAD_REACTORS
330
147
102
}
330
147
100
AcDbScale
 70
     0
300
1/32" = 1'-0"
140
0.03125
141
12.0
290
     0
  0
SCALE
  5
150
102
{ACAD_REACTORS
330
147
102
}
330
147
100
AcDbScale
 70
     0
300
1/16" = 1'-0"
140
0.0625
141
12.0
290
     0
  0
SCALE
  5
151
102
{ACAD_REACTORS
330
147
102
}
330
147
100
AcDbScale
 70
     0
300
3/32" = 1'-0"
140
0.09375
141
12.0
290
     0
  0
SCALE
  5
152
102
{ACAD_REACTORS
330
147
102
}
330
147
100
AcDbScale
 70
     0
300
1/8" = 1'-0"
140
0.125
141
12.0
290
     0
  0
SCALE
  5
153
102
{ACAD_REACTORS
330
147
102
}
330
147
100
AcDbScale
 70
     0
300
3/16" = 1'-0"
140
0.1875
141
12.0
290
     0
  0
SCALE
  5
154
102
{ACAD_REACTORS
330
147
102
}
330
147
100
AcDbScale
 70
     0
300
1/4" = 1'-0"
140
0.25
141
12.0
290
     0
  0
SCALE
  5
155
102
{ACAD_REACTORS
330
147
102
}
330
147
100
AcDbScale
 70
     0
300
3/8" = 1'-0"
140
0.375
141
12.0
290
     0
  0
SCALE
  5
156
102
{ACAD_REACTORS
330
147
102
}
330
147
100
AcDbScale
 70
     0
300
1/2" = 1'-0"
140
0.5
141
12.0
290
     0
  0
SCALE
  5
157
102
{ACAD_REACTORS
330
147
102
}
330
147
100
AcDbScale
 70
     0
300
3/4" = 1'-0"
140
0.75
141
12.0
290
     0
  0
SCALE
  5
158
102
{ACAD_REACTORS
330
147
102
}
330
147
100
AcDbScale
 70
     0
300
1" = 1'-0"
140
1.0
141
12.0
290
     0
  0
SCALE
  5
159
102
{ACAD_REACTORS
330
147
102
}
330
147
100
AcDbScale
 70
     0
300
1-1/2" = 1'-0"
140
1.5
141
12.0
290
     0
  0
SCALE
  5
15A
102
{ACAD_REACTORS
330
147
102
}
330
147
100
AcDbScale
 70
     0
300
3" = 1'-0"
140
3.0
141
12.0
290
     0
  0
SCALE
  5
15B
102
{ACAD_REACTORS
330
147
102
}
330
147
100
AcDbScale
 70
     0
300
6" = 1'-0"
140
6.0
141
12.0
290
     0
  0
SCALE
  5
15C
102
{ACAD_REACTORS
330
147
102
}
330
147
100
AcDbScale
 70
     0
300
1'-0" = 1'-0"
140
12.0
141
12.0
290
     0
  0
ACDBSECTIONVIEWSTYLE
  5
15F
102
{ACAD_XDICTIONARY
360
2F1
102
}
102
{ACAD_REACTORS
330
15E
102
}
330
15E
100
AcDbModelDocViewStyle
 70
     0
  3
Imperial24
290
     0
100
AcDbSectionViewStyle
 70
     0
 71
     0
 90
       78
 71
     1
340
11
 62
   256
 40
0.24
340
0
340
0
 62
   256
 40
0.24
300
I, O, Q, S, X, Z
 40
0.48
 90
        3
 40
0.18
 90
        1
 71
     2
340
16
 90
       25
 62
   256
340
16
 90
       50
 62
   256
 40
0.24
 40
0.0
 40
0.24
 71
     3
340
11
 62
   256
 40
0.24
 90
        1
 40
0.75
 90
        1
300
%<\AcVar ViewType \f "%tc1">% %<\AcVar ViewSectionStartId>%-%<\AcVar ViewSectionEndId>%\PSCALA %<\AcVar ViewScale \f "%sn">%
 71
     4
 62
   256
 62
   257
300
ANSI31
 40
1.0
 90
        0
290
     0
290
     0
 90
        6
 40
0.0
 40
1.570796326794896
 40
0.2617993877991494
 40
1.308996938995747
 40
-0.2617993877991494
 40
1.832595714594046
  0
TABLESTYLE
  5
146
102
{ACAD_XDICTIONARY
360
2EE
102
}
102
{ACAD_REACTORS
330
137
102
}
330
137
100
AcDbTableStyle
280
     0
  3
Standard
 70
     0
 71
     0
 40
0.06
 41
0.06
280
     0
281
     0
  7
Standard
140
0.18
170
     2
 62
     0
 63
     7
283
     0
 90
      512
 91
        0
  1

274
    -2
284
     1
 64
     0
275
    -2
285
     1
 65
     0
276
    -2
286
     1
 66
     0
277
    -2
287
     1
 67
     0
278
    -2
288
     1
 68
     0
279
    -2
289
     1
 69
     0
  7
Standard
140
0.25
170
     5
 62
     0
 63
     7
283
     0
 90
      512
 91
        0
  1

274
    -2
284
     1
 64
     0
275
    -2
285
     1
 65
     0
276
    -2
286
     1
 66
     0
277
    -2
287
     1
 67
     0
278
    -2
288
     1
 68
     0
279
    -2
289
     1
 69
     0
  7
Standard
140
0.18
170
     5
 62
     0
 63
     7
283
     0
 90
      512
 91
        0
  1

274
    -2
284
     1
 64
     0
275
    -2
285
     1
 65
     0
276
    -2
286
     1
 66
     0
277
    -2
287
     1
 67
     0
278
    -2
288
     1
 68
     0
279
    -2
289
     1
 69
     0
  0
VISUALSTYLE
  5
2F
102
{ACAD_REACTORS
330
2A
102
}
330
2A
100
AcDbVisualStyle
  2
2dWireframe
 70
     4
177
     3
291
     0
 70
    58
 90
        0
176
     1
 90
        2
176
     1
 90
        0
176
     1
 90
        0
176
     1
 40
0.6
176
     1
 40
30.0
176
     1
 62
     7
420
 16777215
176
     1
 90
        1
176
     1
 90
        4
176
     1
 62
     7
176
     1
 62
   257
176
     1
 90
        1
176
     1
 90
        1
176
     1
 40
1.0
176
     1
 90
        0
176
     1
 62
   257
176
     1
 40
1.0
176
     1
 90
        1
176
     1
 90
        6
176
     1
 90
        2
176
     1
 62
     7
176
     1
 90
        5
176
     1
 90
        0
176
     1
 90
        0
176
     1
290
     0
176
     1
 90
        1
176
     1
 40
0.0
176
     1
 90
        0
176
     1
290
     1
176
     1
290
     1
176
     1
290
     0
176
     1
290
     0
176
     1
290
     0
176
     1
290
     0
176
     1
290
     0
176
     1
290
     0
176
     1
290
     0
176
     1
 90
       50
176
     1
 40
0.0
176
     1
 40
1.0
176
     1
 90
        0
176
     1
 62
    18
420
        0
176
     1
 90
       50
176
     1
 90
        3
176
     1
 62
     5
420
      255
176
     1
290
     0
176
     1
 90
       50
176
     1
 90
       50
176
     1
 90
       50
176
     1
290
     0
176
     1
 90
       50
176
     1
 62
   256
176
     0
 40
1.0
176
     0
 90
        2
176
     1
  1
strokes_ogs.tif
176
     1
290
     0
176
     1
 40
1.0
176
     1
 40
1.0
176
     1
1001
ACAD
1000
AcDbSavedByObjectVersion
1070
     0
  0
VISUALSTYLE
  5
31
102
{ACAD_REACTORS
330
2A
102
}
330
2A
100
AcDbVisualStyle
  2
3D Hidden
 70
     6
177
     3
291
     0
 70
    58
 90
        1
176
     1
 90
        2
176
     1
 90
        2
176
     1
 90
        0
176
     1
 40
0.6
176
     1
 40
30.0
176
     1
 62
     7
420
 16777215
176
     1
 90
        2
176
     1
 90
        2
176
     1
 62
     7
176
     1
 62
   257
176
     1
 90
        2
176
     1
 90
        1
176
     1
 40
40.0
176
     1
 90
        0
176
     1
 62
   257
176
     1
 40
1.0
176
     1
 90
        1
176
     1
 90
        6
176
     1
 90
        2
176
     1
 62
     7
176
     1
 90
        3
176
     1
 90
        0
176
     1
 90
        0
176
     1
290
     0
176
     1
 90
        1
176
     1
 40
0.0
176
     1
 90
        0
176
     1
290
     0
176
     1
290
     1
176
     1
290
     1
176
     1
290
     0
176
     1
290
     0
176
     1
290
     0
176
     1
290
     0
176
     1
290
     0
176
     1
290
     0
176
     1
 90
       50
176
     1
 40
0.0
176
     1
 40
1.0
176
     1
 90
        0
176
     1
 62
    18
420
        0
176
     1
 90
       50
176
     1
 90
        3
176
     1
 62
     5
420
      255
176
     1
290
     0
176
     1
 90
       50
176
     1
 90
       50
176
     1
 90
       50
176
     1
290
     0
176
     1
 90
       50
176
     1
 62
   256
176
     0
 40
1.0
176
     0
 90
        2
176
     1
  1
strokes_ogs.tif
176
     1
290
     0
176
     1
 40
1.0
176
     1
 40
1.0
176
     1
1001
ACAD
1000
AcDbSavedByObjectVersion
1070
     0
  0
VISUALSTYLE
  5
30
102
{ACAD_REACTORS
330
2A
102
}
330
2A
100
AcDbVisualStyle
  2
3dWireframe
 70
     5
177
     3
291
     0
 70
    58
 90
        0
176
     1
 90
        2
176
     1
 90
        0
176
     1
 90
        0
176
     1
 40
0.6
176
     1
 40
30.0
176
     1
 62
     7
420
 16777215
176
     1
 90
        1
176
     1
 90
        4
176
     1
 62
     7
176
     1
 62
   257
176
     1
 90
        1
176
     1
 90
        1
176
     1
 40
1.0
176
     1
 90
        0
176
     1
 62
   257
176
     1
 40
1.0
176
     1
 90
        1
176
     1
 90
        6
176
     1
 90
        2
176
     1
 62
     7
176
     1
 90
        5
176
     1
 90
        0
176
     1
 90
        0
176
     1
290
     0
176
     1
 90
        1
176
     1
 40
0.0
176
     1
 90
        0
176
     1
290
     0
176
     1
290
     1
176
     1
290
     1
176
     1
290
     0
176
     1
290
     0
176
     1
290
     0
176
     1
290
     0
176
     1
290
     0
176
     1
290
     0
176
     1
 90
       50
176
     1
 40
0.0
176
     1
 40
1.0
176
     1
 90
        0
176
     1
 62
    18
420
        0
176
     1
 90
       50
176
     1
 90
        3
176
     1
 62
     5
420
      255
176
     1
290
     0
176
     1
 90
       50
176
     1
 90
       50
176
     1
 90
       50
176
     1
290
     0
176
     1
 90
       50
176
     1
 62
   256
176
     0
 40
1.0
176
     0
 90
        2
176
     1
  1
strokes_ogs.tif
176
     1
290
     0
176
     1
 40
1.0
176
     1
 40
1.0
176
     1
1001
ACAD
1000
AcDbSavedByObjectVersion
1070
     0
  0
VISUALSTYLE
  5
32
102
{ACAD_REACTORS
330
2A
102
}
330
2A
100
AcDbVisualStyle
  2
Basic
 70
     7
177
     3
291
     1
 70
    58
 90
        1
176
     1
 90
        0
176
     1
 90
        1
176
     1
 90
        0
176
     1
 40
0.6
176
     1
 40
30.0
176
     1
 62
     7
420
 16777215
176
     1
 90
        0
176
     1
 90
        4
176
     1
 62
     7
176
     1
 62
   257
176
     1
 90
        1
176
     1
 90
        1
176
     1
 40
1.0
176
     1
 90
        8
176
     1
 62
     7
176
     1
 40
1.0
176
     1
 90
        1
176
     1
 90
        6
176
     1
 90
        2
176
     1
 62
     7
176
     1
 90
        5
176
     1
 90
        0
176
     1
 90
        0
176
     1
290
     0
176
     1
 90
        1
176
     1
 40
0.0
176
     1
 90
        0
176
     1
290
     0
176
     1
290
     1
176
     1
290
     1
176
     1
290
     0
176
     1
290
     0
176
     1
290
     0
176
     1
290
     0
176
     1
290
     0
176
     1
290
     0
176
     1
 90
       50
176
     1
 40
0.0
176
     1
 40
1.0
176
     1
 90
        0
176
     1
 62
    18
420
        0
176
     1
 90
       50
176
     1
 90
        3
176
     1
 62
     5
420
      255
176
     1
290
     0
176
     1
 90
       50
176
     1
 90
       50
176
     1
 90
       50
176
     1
290
     0
176
     1
 90
       50
176
     1
 62
   256
176
     0
 40
1.0
176
     0
 90
        2
176
     1
  1
strokes_ogs.tif
176
     1
290
     0
176
     1
 40
1.0
176
     1
 40
1.0
176
     1
1001
ACAD
1000
AcDbSavedByObjectVersion
1070
     0
  0
VISUALSTYLE
  5
36
102
{ACAD_REACTORS
330
2A
102
}
330
2A
100
AcDbVisualStyle
  2
Brighten
 70
    12
177
     3
291
     1
 70
    58
 90
        2
176
     1
 90
        2
176
     1
 90
        0
176
     1
 90
        0
176
     1
 40
0.6
176
     1
 40
30.0
176
     1
 62
     7
420
 16777215
176
     1
 90
        1
176
     1
 90
        4
176
     1
 62
     7
176
     1
 62
   257
176
     1
 90
        1
176
     1
 90
        1
176
     1
 40
1.0
176
     1
 90
        8
176
     1
 62
     7
176
     1
 40
1.0
176
     1
 90
        1
176
     1
 90
        6
176
     1
 90
        2
176
     1
 62
     7
176
     1
 90
        5
176
     1
 90
        0
176
     1
 90
        0
176
     1
290
     0
176
     1
 90
        1
176
     1
 40
50.0
176
     1
 90
        0
176
     1
290
     0
176
     1
290
     1
176
     1
290
     1
176
     1
290
     0
176
     1
290
     0
176
     1
290
     0
176
     1
290
     0
176
     1
290
     0
176
     1
290
     0
176
     1
 90
       50
176
     1
 40
0.0
176
     1
 40
1.0
176
     1
 90
        0
176
     1
 62
    18
420
        0
176
     1
 90
       50
176
     1
 90
        3
176
     1
 62
     5
420
      255
176
     1
290
     0
176
     1
 90
       50
176
     1
 90
       50
176
     1
 90
       50
176
     1
290
     0
176
     1
 90
       50
176
     1
 62
   256
176
     0
 40
1.0
176
     0
 90
        2
176
     1
  1
strokes_ogs.tif
176
     1
290
     0
176
     1
 40
1.0
176
     1
 40
1.0
176
     1
1001
ACAD
1000
AcDbSavedByObjectVersion
1070
     0
  0
VISUALSTYLE
  5
3A
102
{ACAD_REACTORS
330
2A
102
}
330
2A
100
AcDbVisualStyle
  2
ColorChange
 70
    16
177
     3
291
     1
 70
    58
 90
        2
176
     1
 90
        2
176
     1
 90
        3
176
     1
 90
        0
176
     1
 40
0.6
176
     1
 40
30.0
176
     1
 62
     8
420
  8421504
176
     1
 90
        1
176
     1
 90
        4
176
     1
 62
     7
176
     1
 62
   257
176
     1
 90
        1
176
     1
 90
        1
176
     1
 40
1.0
176
     1
 90
        8
176
     1
 62
     8
420
  8421504
176
     1
 40
1.0
176
     1
 90
        1
176
     1
 90
        6
176
     1
 90
        2
176
     1
 62
     7
176
     1
 90
        5
176
     1
 90
        0
176
     1
 90
        0
176
     1
290
     0
176
     1
 90
        1
176
     1
 40
0.0
176
     1
 90
        0
176
     1
290
     0
176
     1
290
     1
176
     1
290
     1
176
     1
290
     0
176
     1
290
     0
176
     1
290
     0
176
     1
290
     0
176
     1
290
     0
176
     1
290
     0
176
     1
 90
       50
176
     1
 40
0.0
176
     1
 40
1.0
176
     1
 90
        0
176
     1
 62
    18
420
        0
176
     1
 90
       50
176
     1
 90
        3
176
     1
 62
     5
420
      255
176
     1
290
     0
176
     1
 90
       50
176
     1
 90
       50
176
     1
 90
       50
176
     1
290
     0
176
     1
 90
       50
176
     1
 62
   256
176
     0
 40
1.0
176
     0
 90
        2
176
     1
  1
strokes_ogs.tif
176
     1
290
     0
176
     1
 40
1.0
176
     1
 40
1.0
176
     1
1001
ACAD
1000
AcDbSavedByObjectVersion
1070
     0
  0
VISUALSTYLE
  5
34
102
{ACAD_REACTORS
330
2A
102
}
330
2A
100
AcDbVisualStyle
  2
Conceptual
 70
     9
177
     3
291
     0
 70
    58
 90
        3
176
     1
 90
        2
176
     1
 90
        0
176
     1
 90
        0
176
     1
 40
0.6
176
     1
 40
30.0
176
     1
 62
     7
420
 16777215
176
     1
 90
        2
176
     1
 90
        2
176
     1
 62
     7
176
     1
 62
   257
176
     1
 90
        1
176
     1
 90
        1
176
     1
 40
40.0
176
     1
 90
        8
176
     1
 62
     7
176
     1
 40
1.0
176
     1
 90
        1
176
     1
 90
        6
176
     1
 90
        2
176
     1
 62
     7
176
     1
 90
        3
176
     1
 90
        0
176
     1
 90
        0
176
     1
290
     0
176
     1
 90
        1
176
     1
 40
0.0
176
     1
 90
        0
176
     1
290
     0
176
     1
290
     1
176
     1
290
     1
176
     1
290
     0
176
     1
290
     0
176
     1
290
     0
176
     1
290
     0
176
     1
290
     0
176
     1
290
     0
176
     1
 90
       50
176
     1
 40
0.0
176
     1
 40
1.0
176
     1
 90
        0
176
     1
 62
    18
420
        0
176
     1
 90
       50
176
     1
 90
        3
176
     1
 62
     5
420
      255
176
     1
290
     0
176
     1
 90
       50
176
     1
 90
       50
176
     1
 90
       50
176
     1
290
     0
176
     1
 90
       50
176
     1
 62
   256
176
     0
 40
1.0
176
     0
 90
        2
176
     1
  1
strokes_ogs.tif
176
     1
290
     0
176
     1
 40
1.0
176
     1
 40
1.0
176
     1
1001
ACAD
1000
AcDbSavedByObjectVersion
1070
     0
  0
VISUALSTYLE
  5
35
102
{ACAD_REACTORS
330
2A
102
}
330
2A
100
AcDbVisualStyle
  2
Dim
 70
    11
177
     3
291
     1
 70
    58
 90
        2
176
     1
 90
        2
176
     1
 90
        0
176
     1
 90
        0
176
     1
 40
0.6
176
     1
 40
30.0
176
     1
 62
     7
420
 16777215
176
     1
 90
        1
176
     1
 90
        4
176
     1
 62
     7
176
     1
 62
   257
176
     1
 90
        1
176
     1
 90
        1
176
     1
 40
1.0
176
     1
 90
        8
176
     1
 62
     7
176
     1
 40
1.0
176
     1
 90
        1
176
     1
 90
        6
176
     1
 90
        2
176
     1
 62
     7
176
     1
 90
        5
176
     1
 90
        0
176
     1
 90
        0
176
     1
290
     0
176
     1
 90
        1
176
     1
 40
-50.0
176
     1
 90
        0
176
     1
290
     0
176
     1
290
     1
176
     1
290
     1
176
     1
290
     0
176
     1
290
     0
176
     1
290
     0
176
     1
290
     0
176
     1
290
     0
176
     1
290
     0
176
     1
 90
       50
176
     1
 40
0.0
176
     1
 40
1.0
176
     1
 90
        0
176
     1
 62
    18
420
        0
176
     1
 90
       50
176
     1
 90
        3
176
     1
 62
     5
420
      255
176
     1
290
     0
176
     1
 90
       50
176
     1
 90
       50
176
     1
 90
       50
176
     1
290
     0
176
     1
 90
       50
176
     1
 62
   256
176
     0
 40
1.0
176
     0
 90
        2
176
     1
  1
strokes_ogs.tif
176
     1
290
     0
176
     1
 40
1.0
176
     1
 40
1.0
176
     1
1001
ACAD
1000
AcDbSavedByObjectVersion
1070
     0
  0
VISUALSTYLE
  5
144
102
{ACAD_REACTORS
330
2A
102
}
330
2A
100
AcDbVisualStyle
  2
EdgeColorOff
 70
    22
177
     3
291
     1
 70
    58
 90
        2
176
     0
 90
        2
176
     0
 90
        0
176
     0
 90
        0
176
     0
 40
0.6
176
     0
 40
30.0
176
     0
 62
     7
420
 16777215
176
     0
 90
        1
176
     0
 90
        4
176
     0
 62
     7
176
     0
 62
   257
176
     0
 90
        1
176
     0
 90
        1
176
     0
 40
1.0
176
     0
 90
        8
176
     2
 62
     7
176
     0
 40
1.0
176
     0
 90
        1
176
     0
 90
        6
176
     0
 90
        2
176
     0
 62
     7
176
     0
 90
        5
176
     0
 90
        0
176
     0
 90
        0
176
     0
290
     0
176
     0
 90
        1
176
     0
 40
0.0
176
     0
 90
        0
176
     0
290
     0
176
     1
290
     1
176
     1
290
     1
176
     1
290
     0
176
     1
290
     0
176
     1
290
     0
176
     1
290
     0
176
     1
290
     0
176
     1
290
     0
176
     1
 90
       50
176
     0
 40
0.0
176
     0
 40
1.0
176
     0
 90
        0
176
     0
 62
    18
420
        0
176
     0
 90
       50
176
     0
 90
        3
176
     0
 62
     5
420
      255
176
     0
290
     0
176
     1
 90
       50
176
     0
 90
       50
176
     0
 90
       50
176
     0
290
     0
176
     1
 90
       50
176
     0
 62
   256
176
     0
 40
1.0
176
     0
 90
        2
176
     0
  1
strokes_ogs.tif
176
     0
290
     0
176
     1
 40
1.0
176
     0
 40
1.0
176
     0
1001
ACAD
1000
AcDbSavedByObjectVersion
1070
     0
  0
VISUALSTYLE
  5
39
102
{ACAD_REACTORS
330
2A
102
}
330
2A
100
AcDbVisualStyle
  2
Facepattern
 70
    15
177
     3
291
     1
 70
    58
 90
        2
176
     1
 90
        2
176
     1
 90
        0
176
     1
 90
        0
176
     1
 40
0.6
176
     1
 40
30.0
176
     1
 62
     7
420
 16777215
176
     1
 90
        1
176
     1
 90
        4
176
     1
 62
     7
176
     1
 62
   257
176
     1
 90
        1
176
     1
 90
        1
176
     1
 40
1.0
176
     1
 90
        8
176
     1
 62
     7
176
     1
 40
1.0
176
     1
 90
        1
176
     1
 90
        6
176
     1
 90
        2
176
     1
 62
     7
176
     1
 90
        5
176
     1
 90
        0
176
     1
 90
        0
176
     1
290
     0
176
     1
 90
        1
176
     1
 40
0.0
176
     1
 90
        0
176
     1
290
     0
176
     1
290
     1
176
     1
290
     1
176
     1
290
     0
176
     1
290
     0
176
     1
290
     0
176
     1
290
     0
176
     1
290
     0
176
     1
290
     0
176
     1
 90
       50
176
     1
 40
0.0
176
     1
 40
1.0
176
     1
 90
        0
176
     1
 62
    18
420
        0
176
     1
 90
       50
176
     1
 90
        3
176
     1
 62
     5
420
      255
176
     1
290
     0
176
     1
 90
       50
176
     1
 90
       50
176
     1
 90
       50
176
     1
290
     0
176
     1
 90
       50
176
     1
 62
   256
176
     0
 40
1.0
176
     0
 90
        2
176
     1
  1
strokes_ogs.tif
176
     1
290
     0
176
     1
 40
1.0
176
     1
 40
1.0
176
     1
1001
ACAD
1000
AcDbSavedByObjectVersion
1070
     0
  0
VISUALSTYLE
  5
2B
102
{ACAD_REACTORS
330
2A
102
}
330
2A
100
AcDbVisualStyle
  2
Flat
 70
     0
177
     3
291
     1
 70
    58
 90
        2
176
     1
 90
        1
176
     1
 90
        1
176
     1
 90
        2
176
     1
 40
0.6
176
     1
 40
30.0
176
     1
 62
     7
420
 16777215
176
     1
 90
        0
176
     1
 90
        4
176
     1
 62
     7
176
     1
 62
   257
176
     1
 90
        1
176
     1
 90
        1
176
     1
 40
1.0
176
     1
 90
        8
176
     1
 62
     7
176
     1
 40
1.0
176
     1
 90
        1
176
     1
 90
        6
176
     1
 90
        2
176
     1
 62
     7
176
     1
 90
        5
176
     1
 90
        0
176
     1
 90
        0
176
     1
290
     0
176
     1
 90
       13
176
     1
 40
0.0
176
     1
 90
        0
176
     1
290
     0
176
     1
290
     1
176
     1
290
     1
176
     1
290
     0
176
     1
290
     0
176
     1
290
     0
176
     1
290
     0
176
     1
290
     0
176
     1
290
     0
176
     1
 90
       50
176
     1
 40
0.0
176
     1
 40
1.0
176
     1
 90
        0
176
     1
 62
    18
420
        0
176
     1
 90
       50
176
     1
 90
        3
176
     1
 62
     5
420
      255
176
     1
290
     0
176
     1
 90
       50
176
     1
 90
       50
176
     1
 90
       50
176
     1
290
     0
176
     1
 90
       50
176
     1
 62
   256
176
     0
 40
1.0
176
     0
 90
        2
176
     1
  1
strokes_ogs.tif
176
     1
290
     0
176
     1
 40
1.0
176
     1
 40
1.0
176
     1
1001
ACAD
1000
AcDbSavedByObjectVersion
1070
     0
  0
VISUALSTYLE
  5
2C
102
{ACAD_REACTORS
330
2A
102
}
330
2A
100
AcDbVisualStyle
  2
FlatWithEdges
 70
     1
177
     3
291
     1
 70
    58
 90
        2
176
     1
 90
        1
176
     1
 90
        1
176
     1
 90
        2
176
     1
 40
0.6
176
     1
 40
30.0
176
     1
 62
     7
420
 16777215
176
     1
 90
        1
176
     1
 90
        4
176
     1
 62
     7
176
     1
 62
   257
176
     1
 90
        1
176
     1
 90
        1
176
     1
 40
1.0
176
     1
 90
        0
176
     1
 62
   257
176
     1
 40
1.0
176
     1
 90
        1
176
     1
 90
        6
176
     1
 90
        2
176
     1
 62
     7
176
     1
 90
        5
176
     1
 90
        0
176
     1
 90
        0
176
     1
290
     0
176
     1
 90
       13
176
     1
 40
0.0
176
     1
 90
        0
176
     1
290
     0
176
     1
290
     1
176
     1
290
     1
176
     1
290
     0
176
     1
290
     0
176
     1
290
     0
176
     1
290
     0
176
     1
290
     0
176
     1
290
     0
176
     1
 90
       50
176
     1
 40
0.0
176
     1
 40
1.0
176
     1
 90
        0
176
     1
 62
    18
420
        0
176
     1
 90
       50
176
     1
 90
        3
176
     1
 62
     5
420
      255
176
     1
290
     0
176
     1
 90
       50
176
     1
 90
       50
176
     1
 90
       50
176
     1
290
     0
176
     1
 90
       50
176
     1
 62
   256
176
     0
 40
1.0
176
     0
 90
        2
176
     1
  1
strokes_ogs.tif
176
     1
290
     0
176
     1
 40
1.0
176
     1
 40
1.0
176
     1
1001
ACAD
1000
AcDbSavedByObjectVersion
1070
     0
  0
VISUALSTYLE
  5
2D
102
{ACAD_REACTORS
330
2A
102
}
330
2A
100
AcDbVisualStyle
  2
Gouraud
 70
     2
177
     3
291
     1
 70
    58
 90
        2
176
     1
 90
        2
176
     1
 90
        1
176
     1
 90
        2
176
     1
 40
0.6
176
     1
 40
30.0
176
     1
 62
     7
420
 16777215
176
     1
 90
        0
176
     1
 90
        4
176
     1
 62
     7
176
     1
 62
   257
176
     1
 90
        1
176
     1
 90
        1
176
     1
 40
1.0
176
     1
 90
        0
176
     1
 62
     7
176
     1
 40
1.0
176
     1
 90
        1
176
     1
 90
        6
176
     1
 90
        2
176
     1
 62
     7
176
     1
 90
        5
176
     1
 90
        0
176
     1
 90
        0
176
     1
290
     0
176
     1
 90
       13
176
     1
 40
0.0
176
     1
 90
        0
176
     1
290
     0
176
     1
290
     1
176
     1
290
     1
176
     1
290
     0
176
     1
290
     0
176
     1
290
     0
176
     1
290
     0
176
     1
290
     0
176
     1
290
     0
176
     1
 90
       50
176
     1
 40
0.0
176
     1
 40
1.0
176
     1
 90
        0
176
     1
 62
    18
420
        0
176
     1
 90
       50
176
     1
 90
        3
176
     1
 62
     5
420
      255
176
     1
290
     0
176
     1
 90
       50
176
     1
 90
       50
176
     1
 90
       50
176
     1
290
     0
176
     1
 90
       50
176
     1
 62
   256
176
     0
 40
1.0
176
     0
 90
        2
176
     1
  1
strokes_ogs.tif
176
     1
290
     0
176
     1
 40
1.0
176
     1
 40
1.0
176
     1
1001
ACAD
1000
AcDbSavedByObjectVersion
1070
     0
  0
VISUALSTYLE
  5
2E
102
{ACAD_REACTORS
330
2A
102
}
330
2A
100
AcDbVisualStyle
  2
GouraudWithEdges
 70
     3
177
     3
291
     1
 70
    58
 90
        2
176
     1
 90
        2
176
     1
 90
        1
176
     1
 90
        2
176
     1
 40
0.6
176
     1
 40
30.0
176
     1
 62
     7
420
 16777215
176
     1
 90
        1
176
     1
 90
        4
176
     1
 62
     7
176
     1
 62
   257
176
     1
 90
        1
176
     1
 90
        1
176
     1
 40
1.0
176
     1
 90
        0
176
     1
 62
   257
176
     1
 40
1.0
176
     1
 90
        1
176
     1
 90
        6
176
     1
 90
        2
176
     1
 62
     7
176
     1
 90
        5
176
     1
 90
        0
176
     1
 90
        0
176
     1
290
     0
176
     1
 90
       13
176
     1
 40
0.0
176
     1
 90
        0
176
     1
290
     0
176
     1
290
     1
176
     1
290
     1
176
     1
290
     0
176
     1
290
     0
176
     1
290
     0
176
     1
290
     0
176
     1
290
     0
176
     1
290
     0
176
     1
 90
       50
176
     1
 40
0.0
176
     1
 40
1.0
176
     1
 90
        0
176
     1
 62
    18
420
        0
176
     1
 90
       50
176
     1
 90
        3
176
     1
 62
     5
420
      255
176
     1
290
     0
176
     1
 90
       50
176
     1
 90
       50
176
     1
 90
       50
176
     1
290
     0
176
     1
 90
       50
176
     1
 62
   256
176
     0
 40
1.0
176
     0
 90
        2
176
     1
  1
strokes_ogs.tif
176
     1
290
     0
176
     1
 40
1.0
176
     1
 40
1.0
176
     1
1001
ACAD
1000
AcDbSavedByObjectVersion
1070
     0
  0
VISUALSTYLE
  5
13C
102
{ACAD_REACTORS
330
2A
102
}
330
2A
100
AcDbVisualStyle
  2
Hidden
 70
     6
177
     3
291
     0
 70
    58
 90
        1
176
     1
 90
        2
176
     1
 90
        2
176
     1
 90
        0
176
     1
 40
0.6
176
     1
 40
30.0
176
     1
 62
     7
420
 16777215
176
     1
 90
        2
176
     1
 90
        2
176
     1
 62
     7
176
     1
 62
   257
176
     1
 90
        2
176
     1
 90
        1
176
     1
 40
40.0
176
     1
 90
        0
176
     1
 62
   257
176
     1
 40
1.0
176
     1
 90
        1
176
     1
 90
        6
176
     1
 90
        2
176
     1
 62
     7
176
     1
 90
        3
176
     1
 90
        0
176
     1
 90
        0
176
     1
290
     0
176
     1
 90
        1
176
     1
 40
0.0
176
     1
 90
        0
176
     1
290
     0
176
     1
290
     1
176
     1
290
     1
176
     1
290
     0
176
     1
290
     0
176
     1
290
     0
176
     1
290
     0
176
     1
290
     0
176
     1
290
     0
176
     1
 90
       50
176
     1
 40
0.0
176
     1
 40
1.0
176
     1
 90
        0
176
     1
 62
    18
420
        0
176
     1
 90
       50
176
     1
 90
        3
176
     1
 62
     5
420
      255
176
     1
290
     0
176
     1
 90
       50
176
     1
 90
       50
176
     1
 90
       50
176
     1
290
     0
176
     1
 90
       50
176
     1
 62
   256
176
     0
 40
1.0
176
     0
 90
        2
176
     1
  1
strokes_ogs.tif
176
     1
290
     0
176
     1
 40
1.0
176
     1
 40
1.0
176
     1
1001
ACAD
1000
AcDbSavedByObjectVersion
1070
     0
  0
VISUALSTYLE
  5
142
102
{ACAD_REACTORS
330
2A
102
}
330
2A
100
AcDbVisualStyle
  2
JitterOff
 70
    20
177
     3
291
     1
 70
    58
 90
        2
176
     0
 90
        2
176
     0
 90
        0
176
     0
 90
        0
176
     0
 40
0.6
176
     0
 40
30.0
176
     0
 62
     7
420
 16777215
176
     0
 90
        1
176
     0
 90
        4
176
     0
 62
     7
176
     0
 62
   257
176
     0
 90
        1
176
     0
 90
        1
176
     0
 40
1.0
176
     0
 90
       10
176
     2
 62
     7
176
     0
 40
1.0
176
     0
 90
        1
176
     0
 90
        6
176
     0
 90
        2
176
     0
 62
     7
176
     0
 90
        5
176
     0
 90
        0
176
     0
 90
        0
176
     0
290
     0
176
     0
 90
        1
176
     0
 40
0.0
176
     0
 90
        0
176
     0
290
     0
176
     1
290
     1
176
     1
290
     1
176
     1
290
     0
176
     1
290
     0
176
     1
290
     0
176
     1
290
     0
176
     1
290
     0
176
     1
290
     0
176
     1
 90
       50
176
     0
 40
0.0
176
     0
 40
1.0
176
     0
 90
        0
176
     0
 62
    18
420
        0
176
     0
 90
       50
176
     0
 90
        3
176
     0
 62
     5
420
      255
176
     0
290
     0
176
     1
 90
       50
176
     0
 90
       50
176
     0
 90
       50
176
     0
290
     0
176
     1
 90
       50
176
     0
 62
   256
176
     0
 40
1.0
176
     0
 90
        2
176
     0
  1
strokes_ogs.tif
176
     0
290
     0
176
     1
 40
1.0
176
     0
 40
1.0
176
     0
1001
ACAD
1000
AcDbSavedByObjectVersion
1070
     0
  0
VISUALSTYLE
  5
38
102
{ACAD_REACTORS
330
2A
102
}
330
2A
100
AcDbVisualStyle
  2
Linepattern
 70
    14
177
     3
291
     1
 70
    58
 90
        2
176
     1
 90
        2
176
     1
 90
        0
176
     1
 90
        0
176
     1
 40
0.6
176
     1
 40
30.0
176
     1
 62
     7
420
 16777215
176
     1
 90
        1
176
     1
 90
        4
176
     1
 62
     7
176
     1
 62
   257
176
     1
 90
        7
176
     1
 90
        7
176
     1
 40
1.0
176
     1
 90
        8
176
     1
 62
     7
176
     1
 40
1.0
176
     1
 90
        1
176
     1
 90
        6
176
     1
 90
        2
176
     1
 62
     7
176
     1
 90
        5
176
     1
 90
        0
176
     1
 90
        0
176
     1
290
     0
176
     1
 90
        1
176
     1
 40
0.0
176
     1
 90
        0
176
     1
290
     0
176
     1
290
     1
176
     1
290
     1
176
     1
290
     0
176
     1
290
     0
176
     1
290
     0
176
     1
290
     0
176
     1
290
     0
176
     1
290
     0
176
     1
 90
       50
176
     1
 40
0.0
176
     1
 40
1.0
176
     1
 90
        0
176
     1
 62
    18
420
        0
176
     1
 90
       50
176
     1
 90
        3
176
     1
 62
     5
420
      255
176
     1
290
     0
176
     1
 90
       50
176
     1
 90
       50
176
     1
 90
       50
176
     1
290
     0
176
     1
 90
       50
176
     1
 62
   256
176
     0
 40
1.0
176
     0
 90
        2
176
     1
  1
strokes_ogs.tif
176
     1
290
     0
176
     1
 40
1.0
176
     1
 40
1.0
176
     1
1001
ACAD
1000
AcDbSavedByObjectVersion
1070
     0
  0
VISUALSTYLE
  5
143
102
{ACAD_REACTORS
330
2A
102
}
330
2A
100
AcDbVisualStyle
  2
OverhangOff
 70
    21
177
     3
291
     1
 70
    58
 90
        2
176
     0
 90
        2
176
     0
 90
        0
176
     0
 90
        0
176
     0
 40
0.6
176
     0
 40
30.0
176
     0
 62
     7
420
 16777215
176
     0
 90
        1
176
     0
 90
        4
176
     0
 62
     7
176
     0
 62
   257
176
     0
 90
        1
176
     0
 90
        1
176
     0
 40
1.0
176
     0
 90
        9
176
     2
 62
     7
176
     0
 40
1.0
176
     0
 90
        1
176
     0
 90
        6
176
     0
 90
        2
176
     0
 62
     7
176
     0
 90
        5
176
     0
 90
        0
176
     0
 90
        0
176
     0
290
     0
176
     0
 90
        1
176
     0
 40
0.0
176
     0
 90
        0
176
     0
290
     0
176
     1
290
     1
176
     1
290
     1
176
     1
290
     0
176
     1
290
     0
176
     1
290
     0
176
     1
290
     0
176
     1
290
     0
176
     1
290
     0
176
     1
 90
       50
176
     0
 40
0.0
176
     0
 40
1.0
176
     0
 90
        0
176
     0
 62
    18
420
        0
176
     0
 90
       50
176
     0
 90
        3
176
     0
 62
     5
420
      255
176
     0
290
     0
176
     1
 90
       50
176
     0
 90
       50
176
     0
 90
       50
176
     0
290
     0
176
     1
 90
       50
176
     0
 62
   256
176
     0
 40
1.0
176
     0
 90
        2
176
     0
  1
strokes_ogs.tif
176
     0
290
     0
176
     1
 40
1.0
176
     0
 40
1.0
176
     0
1001
ACAD
1000
AcDbSavedByObjectVersion
1070
     0
  0
VISUALSTYLE
  5
33
102
{ACAD_REACTORS
330
2A
102
}
330
2A
100
AcDbVisualStyle
  2
Realistic
 70
     8
177
     3
291
     0
 70
    58
 90
        2
176
     1
 90
        2
176
     1
 90
        0
176
     1
 90
        0
176
     1
 40
0.6
176
     1
 40
30.0
176
     1
 62
     7
420
 16777215
176
     1
 90
        1
176
     1
 90
        0
176
     1
 62
     7
176
     1
 62
   257
176
     1
 90
        1
176
     1
 90
        1
176
     1
 40
1.0
176
     1
 90
        8
176
     1
 62
     8
420
  7895160
176
     1
 40
1.0
176
     1
 90
        1
176
     1
 90
        6
176
     1
 90
        2
176
     1
 62
     7
176
     1
 90
        5
176
     1
 90
        0
176
     1
 90
        0
176
     1
290
     0
176
     1
 90
       13
176
     1
 40
0.0
176
     1
 90
        0
176
     1
290
     0
176
     1
290
     1
176
     1
290
     1
176
     1
290
     0
176
     1
290
     0
176
     1
290
     0
176
     1
290
     0
176
     1
290
     0
176
     1
290
     0
176
     1
 90
       50
176
     1
 40
0.0
176
     1
 40
1.0
176
     1
 90
        0
176
     1
 62
    18
420
        0
176
     1
 90
       50
176
     1
 90
        3
176
     1
 62
     5
420
      255
176
     1
290
     0
176
     1
 90
       50
176
     1
 90
       50
176
     1
 90
       50
176
     1
290
     0
176
     1
 90
       50
176
     1
 62
   256
176
     0
 40
1.0
176
     0
 90
        2
176
     1
  1
strokes_ogs.tif
176
     1
290
     0
176
     1
 40
1.0
176
     1
 40
1.0
176
     1
1001
ACAD
1000
AcDbSavedByObjectVersion
1070
     0
  0
VISUALSTYLE
  5
141
102
{ACAD_REACTORS
330
2A
102
}
330
2A
100
AcDbVisualStyle
  2
Shaded
 70
    27
177
     3
291
     0
 70
    58
 90
        2
176
     1
 90
        2
176
     1
 90
        1
176
     1
 90
        2
176
     1
 40
0.6
176
     1
 40
30.0
176
     1
 62
     7
420
 16777215
176
     1
 90
        0
176
     1
 90
        4
176
     1
 62
     7
176
     1
 62
   257
176
     1
 90
        1
176
     1
 90
        1
176
     1
 40
1.0
176
     1
 90
        8
176
     1
 62
   257
176
     1
 40
1.0
176
     1
 90
        1
176
     1
 90
        6
176
     1
 90
        2
176
     1
 62
     8
420
  7895160
176
     1
 90
        3
176
     1
 90
        0
176
     1
 90
        0
176
     1
290
     0
176
     1
 90
        5
176
     1
 40
0.0
176
     1
 90
        0
176
     1
290
     0
176
     1
290
     1
176
     1
290
     1
176
     1
290
     0
176
     1
290
     0
176
     1
290
     0
176
     1
290
     0
176
     1
290
     0
176
     1
290
     0
176
     1
 90
       50
176
     1
 40
0.0
176
     1
 40
1.0
176
     1
 90
        0
176
     1
 62
    18
420
        0
176
     1
 90
       50
176
     1
 90
        3
176
     1
 62
     5
420
      255
176
     1
290
     0
176
     1
 90
       50
176
     1
 90
       50
176
     1
 90
       50
176
     1
290
     0
176
     1
 90
       50
176
     1
 62
   256
176
     0
 40
1.0
176
     0
 90
        2
176
     1
  1
strokes_ogs.tif
176
     1
290
     0
176
     1
 40
1.0
176
     1
 40
1.0
176
     1
1001
ACAD
1000
AcDbSavedByObjectVersion
1070
     0
  0
VISUALSTYLE
  5
140
102
{ACAD_REACTORS
330
2A
102
}
330
2A
100
AcDbVisualStyle
  2
Shaded with edges
 70
    26
177
     3
291
     0
 70
    58
 90
        2
176
     1
 90
        2
176
     1
 90
        1
176
     1
 90
        2
176
     1
 40
0.6
176
     1
 40
30.0
176
     1
 62
     7
420
 16777215
176
     1
 90
        1
176
     1
 90
        2
176
     1
 62
     7
176
     1
 62
   257
176
     1
 90
        2
176
     1
 90
        1
176
     1
 40
1.0
176
     1
 90
        8
176
     1
 62
   257
176
     1
 40
1.0
176
     1
 90
        1
176
     1
 90
        6
176
     1
 90
        2
176
     1
 62
     7
176
     1
 90
        3
176
     1
 90
        0
176
     1
 90
        0
176
     1
290
     0
176
     1
 90
        5
176
     1
 40
0.0
176
     1
 90
        0
176
     1
290
     0
176
     1
290
     1
176
     1
290
     1
176
     1
290
     0
176
     1
290
     0
176
     1
290
     0
176
     1
290
     0
176
     1
290
     0
176
     1
290
     0
176
     1
 90
       50
176
     1
 40
0.0
176
     1
 40
1.0
176
     1
 90
        0
176
     1
 62
    18
420
        0
176
     1
 90
       50
176
     1
 90
        3
176
     1
 62
     5
420
      255
176
     1
290
     0
176
     1
 90
       50
176
     1
 90
       50
176
     1
 90
       50
176
     1
290
     0
176
     1
 90
       50
176
     1
 62
   256
176
     0
 40
1.0
176
     0
 90
        2
176
     1
  1
strokes_ogs.tif
176
     1
290
     0
176
     1
 40
1.0
176
     1
 40
1.0
176
     1
1001
ACAD
1000
AcDbSavedByObjectVersion
1070
     0
  0
VISUALSTYLE
  5
13D
102
{ACAD_REACTORS
330
2A
102
}
330
2A
100
AcDbVisualStyle
  2
Shades of Gray
 70
    23
177
     3
291
     0
 70
    58
 90
        2
176
     1
 90
        2
176
     1
 90
        3
176
     1
 90
        0
176
     1
 40
0.6
176
     1
 40
30.0
176
     1
 62
     7
420
 16777215
176
     1
 90
        2
176
     1
 90
        2
176
     1
 62
     7
176
     1
 62
     7
176
     1
 90
        1
176
     1
 90
        1
176
     1
 40
40.0
176
     1
 90
        8
176
     1
 62
     7
176
     1
 40
1.0
176
     1
 90
        1
176
     1
 90
        6
176
     1
 90
        2
176
     1
 62
     7
176
     1
 90
        3
176
     1
 90
        0
176
     1
 90
        0
176
     1
290
     0
176
     1
 90
        1
176
     1
 40
0.0
176
     1
 90
        0
176
     1
290
     0
176
     1
290
     1
176
     1
290
     1
176
     1
290
     0
176
     1
290
     0
176
     1
290
     0
176
     1
290
     0
176
     1
290
     0
176
     1
290
     0
176
     1
 90
       50
176
     1
 40
0.0
176
     1
 40
1.0
176
     1
 90
        0
176
     1
 62
    18
420
        0
176
     1
 90
       50
176
     1
 90
        3
176
     1
 62
     5
420
      255
176
     1
290
     0
176
     1
 90
       50
176
     1
 90
       50
176
     1
 90
       50
176
     1
290
     0
176
     1
 90
       50
176
     1
 62
   256
176
     0
 40
1.0
176
     0
 90
        2
176
     1
  1
strokes_ogs.tif
176
     1
290
     0
176
     1
 40
1.0
176
     1
 40
1.0
176
     1
1001
ACAD
1000
AcDbSavedByObjectVersion
1070
     0
  0
VISUALSTYLE
  5
13E
102
{ACAD_REACTORS
330
2A
102
}
330
2A
100
AcDbVisualStyle
  2
Sketchy
 70
    24
177
     3
291
     0
 70
    58
 90
        1
176
     1
 90
        2
176
     1
 90
        2
176
     1
 90
        0
176
     1
 40
0.6
176
     1
 40
30.0
176
     1
 62
     7
420
 16777215
176
     1
 90
        2
176
     1
 90
        2
176
     1
 62
     7
176
     1
 62
     7
176
     1
 90
        1
176
     1
 90
        1
176
     1
 40
40.0
176
     1
 90
       11
176
     1
 62
     7
176
     1
 40
1.0
176
     1
 90
        1
176
     1
 90
        6
176
     1
 90
        2
176
     1
 62
     7
176
     1
 90
        6
176
     1
 90
        0
176
     1
 90
        0
176
     1
290
     0
176
     1
 90
        1
176
     1
 40
0.0
176
     1
 90
        0
176
     1
290
     0
176
     1
290
     1
176
     1
290
     1
176
     1
290
     0
176
     1
290
     0
176
     1
290
     0
176
     1
290
     0
176
     1
290
     0
176
     1
290
     0
176
     1
 90
       50
176
     1
 40
0.0
176
     1
 40
1.0
176
     1
 90
        0
176
     1
 62
    18
420
        0
176
     1
 90
       50
176
     1
 90
        3
176
     1
 62
     5
420
      255
176
     1
290
     0
176
     1
 90
       50
176
     1
 90
       50
176
     1
 90
       50
176
     1
290
     0
176
     1
 90
       50
176
     1
 62
   256
176
     0
 40
1.0
176
     0
 90
        2
176
     1
  1
strokes_ogs.tif
176
     1
290
     0
176
     1
 40
1.0
176
     1
 40
1.0
176
     1
1001
ACAD
1000
AcDbSavedByObjectVersion
1070
     0
  0
VISUALSTYLE
  5
37
102
{ACAD_REACTORS
330
2A
102
}
330
2A
100
AcDbVisualStyle
  2
Thicken
 70
    13
177
     3
291
     1
 70
    58
 90
        2
176
     1
 90
        2
176
     1
 90
        0
176
     1
 90
        0
176
     1
 40
0.6
176
     1
 40
30.0
176
     1
 62
     7
420
 16777215
176
     1
 90
        1
176
     1
 90
        4
176
     1
 62
     7
176
     1
 62
   257
176
     1
 90
        1
176
     1
 90
        1
176
     1
 40
1.0
176
     1
 90
       12
176
     1
 62
     7
176
     1
 40
1.0
176
     1
 90
        1
176
     1
 90
        6
176
     1
 90
        2
176
     1
 62
     7
176
     1
 90
        5
176
     1
 90
        0
176
     1
 90
        0
176
     1
290
     0
176
     1
 90
        1
176
     1
 40
0.0
176
     1
 90
        0
176
     1
290
     0
176
     1
290
     1
176
     1
290
     1
176
     1
290
     0
176
     1
290
     0
176
     1
290
     0
176
     1
290
     0
176
     1
290
     0
176
     1
290
     0
176
     1
 90
       50
176
     1
 40
0.0
176
     1
 40
1.0
176
     1
 90
        0
176
     1
 62
    18
420
        0
176
     1
 90
       50
176
     1
 90
        3
176
     1
 62
     5
420
      255
176
     1
290
     0
176
     1
 90
       50
176
     1
 90
       50
176
     1
 90
       50
176
     1
290
     0
176
     1
 90
       50
176
     1
 62
   256
176
     0
 40
1.0
176
     0
 90
        2
176
     1
  1
strokes_ogs.tif
176
     1
290
     0
176
     1
 40
1.0
176
     1
 40
1.0
176
     1
1001
ACAD
1000
AcDbSavedByObjectVersion
1070
     0
  0
VISUALSTYLE
  5
13B
102
{ACAD_REACTORS
330
2A
102
}
330
2A
100
AcDbVisualStyle
  2
Wireframe
 70
     5
177
     3
291
     0
 70
    58
 90
        0
176
     1
 90
        2
176
     1
 90
        0
176
     1
 90
        0
176
     1
 40
0.6
176
     1
 40
30.0
176
     1
 62
     7
420
 16777215
176
     1
 90
        1
176
     1
 90
        4
176
     1
 62
     7
176
     1
 62
   257
176
     1
 90
        1
176
     1
 90
        1
176
     1
 40
1.0
176
     1
 90
        0
176
     1
 62
   257
176
     1
 40
1.0
176
     1
 90
        1
176
     1
 90
        6
176
     1
 90
        2
176
     1
 62
     7
176
     1
 90
        3
176
     1
 90
        0
176
     1
 90
        0
176
     1
290
     0
176
     1
 90
        1
176
     1
 40
0.0
176
     1
 90
        0
176
     1
290
     0
176
     1
290
     1
176
     1
290
     1
176
     1
290
     0
176
     1
290
     0
176
     1
290
     0
176
     1
290
     0
176
     1
290
     0
176
     1
290
     0
176
     1
 90
       50
176
     1
 40
0.0
176
     1
 40
1.0
176
     1
 90
        0
176
     1
 62
    18
420
        0
176
     1
 90
       50
176
     1
 90
        3
176
     1
 62
     5
420
      255
176
     1
290
     0
176
     1
 90
       50
176
     1
 90
       50
176
     1
 90
       50
176
     1
290
     0
176
     1
 90
       50
176
     1
 62
   256
176
     0
 40
1.0
176
     0
 90
        2
176
     1
  1
strokes_ogs.tif
176
     1
290
     0
176
     1
 40
1.0
176
     1
 40
1.0
176
     1
1001
ACAD
1000
AcDbSavedByObjectVersion
1070
     0
  0
VISUALSTYLE
  5
13F
102
{ACAD_REACTORS
330
2A
102
}
330
2A
100
AcDbVisualStyle
  2
X-Ray
 70
    25
177
     3
291
     0
 70
    58
 90
        2
176
     1
 90
        2
176
     1
 90
        1
176
     1
 90
        1
176
     1
 40
0.5
176
     1
 40
30.0
176
     1
 62
     7
420
 16777215
176
     1
 90
        1
176
     1
 90
        0
176
     1
 62
     7
176
     1
 62
   257
176
     1
 90
        1
176
     1
 90
        1
176
     1
 40
1.0
176
     1
 90
        8
176
     1
 62
     7
176
     1
 40
1.0
176
     1
 90
        1
176
     1
 90
        6
176
     1
 90
        2
176
     1
 62
     7
176
     1
 90
        3
176
     1
 90
        0
176
     1
 90
        0
176
     1
290
     0
176
     1
 90
       13
176
     1
 40
0.0
176
     1
 90
        0
176
     1
290
     0
176
     1
290
     1
176
     1
290
     1
176
     1
290
     0
176
     1
290
     0
176
     1
290
     0
176
     1
290
     0
176
     1
290
     0
176
     1
290
     0
176
     1
 90
       50
176
     1
 40
0.0
176
     1
 40
1.0
176
     1
 90
        0
176
     1
 62
    18
420
        0
176
     1
 90
       50
176
     1
 90
        3
176
     1
 62
     5
420
      255
176
     1
290
     0
176
     1
 90
       50
176
     1
 90
       50
176
     1
 90
       50
176
     1
290
     0
176
     1
 90
       50
176
     1
 62
   256
176
     0
 40
1.0
176
     0
 90
        2
176
     1
  1
strokes_ogs.tif
176
     1
290
     0
176
     1
 40
1.0
176
     1
 40
1.0
176
     1
1001
ACAD
1000
AcDbSavedByObjectVersion
1070
     0
  0
DICTIONARYVAR
  5
2D0
102
{ACAD_REACTORS
330
2CB
102
}
330
2CB
100
DictionaryVariables
280
     0
  1
1:1
  0
DICTIONARYVAR
  5
2CD
102
{ACAD_REACTORS
330
2CB
102
}
330
2CB
100
DictionaryVariables
280
     0
  1
STANDARD
  0
DICTIONARYVAR
  5
2CC
102
{ACAD_REACTORS
330
2CB
102
}
330
2CB
100
DictionaryVariables
280
     0
  1
STANDARD
  0
DICTIONARYVAR
  5
2CE
102
{ACAD_REACTORS
330
2CB
102
}
330
2CB
100
DictionaryVariables
280
     0
  1
Imperial24
  0
DICTIONARYVAR
  5
2CF
102
{ACAD_REACTORS
330
2CB
102
}
330
2CB
100
DictionaryVariables
280
     0
  1
Imperial24
  0
DICTIONARY
  5
2F3
330
161
100
AcDbDictionary
280
     1
281
     1
  3
ACAD_XREC_ROUNDTRIP
360
2F4
  0
DICTIONARY
  5
2F1
330
15F
100
AcDbDictionary
280
     1
281
     1
  3
ACAD_XREC_ROUNDTRIP
360
2F2
  0
DICTIONARY
  5
2EE
330
146
100
AcDbDictionary
280
     1
281
     1
  3
ACAD_ROUNDTRIP_2008_TABLESTYLE_CELLSTYLEMAP
360
2EF
  0
XRECORD
  5
2F4
102
{ACAD_REACTORS
330
2F3
102
}
330
2F3
100
AcDbXrecord
280
     1
102
DISPLAYNAME
  1
Imperial24
102
FLAGS
 90
        0
  0
XRECORD
  5
2F2
102
{ACAD_REACTORS
330
2F1
102
}
330
2F1
100
AcDbXrecord
280
     1
102
DISPLAYNAME
  1
Imperial24
102
FLAGS
 90
        0
  0
CELLSTYLEMAP
  5
2EF
102
{ACAD_REACTORS
330
2EE
102
}
330
2EE
100
AcDbCellStyleMap
 90
        3
300
CELLSTYLE
  1
TABLEFORMAT_BEGIN
 90
        5
170
     1
 91
        0
 92
    32768
 62
   257
 93
        1
300
CONTENTFORMAT
  1
CONTENTFORMAT_BEGIN
 90
        0
 91
        0
 92
      512
 93
        0
300

 40
0.0
140
1.0
 94
        5
 62
     0
340
11
144
0.25
309
CONTENTFORMAT_END
171
     0
 94
        0
309
TABLEFORMAT_END
  1
CELLSTYLE_BEGIN
 90
        1
 91
        1
300
_TITLE
309
CELLSTYLE_END
300
CELLSTYLE
  1
TABLEFORMAT_BEGIN
 90
        5
170
     1
 91
        0
 92
        0
 62
   257
 93
        1
300
CONTENTFORMAT
  1
CONTENTFORMAT_BEGIN
 90
        0
 91
        0
 92
      512
 93
        0
300

 40
0.0
140
1.0
 94
        5
 62
     0
340
11
144
0.18
309
CONTENTFORMAT_END
171
     0
 94
        0
309
TABLEFORMAT_END
  1
CELLSTYLE_BEGIN
 90
        2
 91
        1
300
_HEADER
309
CELLSTYLE_END
300
CELLSTYLE
  1
TABLEFORMAT_BEGIN
 90
        5
170
     1
 91
        0
 92
        0
 62
   257
 93
        1
300
CONTENTFORMAT
  1
CONTENTFORMAT_BEGIN
 90
        0
 91
        0
 92
      512
 93
        0
300

 40
0.0
140
1.0
 94
        2
 62
     0
340
11
144
0.18
309
CONTENTFORMAT_END
171
     0
 94
        0
309
TABLEFORMAT_END
  1
CELLSTYLE_BEGIN
 90
        3
 91
        2
300
_DATA
309
CELLSTYLE_END
  0
ENDSEC
  0
EOF
