  0
SECTION
  2
HEADER
  9
$ACADVER
  1
AC1027
  9
$ACADMAINTVER
 70
   125
  9
$DWGCODEPAGE
  3
ANSI_1252
  9
$LASTSAVEDBY
  1
ufficio.tecnico
  9
$REQUIREDVERSIONS
160
                 0
  9
$INSBASE
 10
0.0
 20
0.0
 30
0.0
  9
$EXTMIN
 10
0.9315080246488211
 20
-10.75283202856179
 30
0.0
  9
$EXTMAX
 10
19.07804307248743
 20
-2.449144893180022
 30
0.0
  9
$LIMMIN
 10
0.0
 20
0.0
  9
$LIMMAX
 10
12.0
 20
9.0
  9
$ORTHOMODE
 70
     0
  9
$REGENMODE
 70
     1
  9
$FILLMODE
 70
     1
  9
$QTEXTMODE
 70
     0
  9
$MIRRTEXT
 70
     0
  9
$LTSCALE
 40
1.0
  9
$ATTMODE
 70
     1
  9
$TEXTSIZE
 40
0.2
  9
$TRACEWID
 40
0.05
  9
$TEXTSTYLE
  7
Standard
  9
$CLAYER
  8
0
  9
$CELTYPE
  6
ByLayer
  9
$CECOLOR
 62
   256
  9
$CELTSCALE
 40
1.0
  9
$DISPSILH
 70
     0
  9
$DIMSCALE
 40
1.0
  9
$DIMASZ
 40
0.18
  9
$DIMEXO
 40
0.0625
  9
$DIMDLI
 40
0.38
  9
$DIMRND
 40
0.0
  9
$DIMDLE
 40
0.0
  9
$DIMEXE
 40
0.18
  9
$DIMTP
 40
0.0
  9
$DIMTM
 40
0.0
  9
$DIMTXT
 40
0.18
  9
$DIMCEN
 40
0.09
  9
$DIMTSZ
 40
0.0
  9
$DIMTOL
 70
     0
  9
$DIMLIM
 70
     0
  9
$DIMTIH
 70
     1
  9
$DIMTOH
 70
     1
  9
$DIMSE1
 70
     0
  9
$DIMSE2
 70
     0
  9
$DIMTAD
 70
     0
  9
$DIMZIN
 70
     0
  9
$DIMBLK
  1

  9
$DIMASO
 70
     1
  9
$DIMSHO
 70
     1
  9
$DIMPOST
  1

  9
$DIMAPOST
  1

  9
$DIMALT
 70
     0
  9
$DIMALTD
 70
     2
  9
$DIMALTF
 40
25.4
  9
$DIMLFAC
 40
1.0
  9
$DIMTOFL
 70
     0
  9
$DIMTVP
 40
0.0
  9
$DIMTIX
 70
     0
  9
$DIMSOXD
 70
     0
  9
$DIMSAH
 70
     0
  9
$DIMBLK1
  1

  9
$DIMBLK2
  1

  9
$DIMSTYLE
  2
Standard
  9
$DIMCLRD
 70
     0
  9
$DIMCLRE
 70
     0
  9
$DIMCLRT
 70
     0
  9
$DIMTFAC
 40
1.0
  9
$DIMGAP
 40
0.09
  9
$DIMJUST
 70
     0
  9
$DIMSD1
 70
     0
  9
$DIMSD2
 70
     0
  9
$DIMTOLJ
 70
     1
  9
$DIMTZIN
 70
     0
  9
$DIMALTZ
 70
     0
  9
$DIMALTTZ
 70
     0
  9
$DIMUPT
 70
     0
  9
$DIMDEC
 70
     4
  9
$DIMTDEC
 70
     4
  9
$DIMALTU
 70
     2
  9
$DIMALTTD
 70
     2
  9
$DIMTXSTY
  7
Standard
  9
$DIMAUNIT
 70
     0
  9
$DIMADEC
 70
     0
  9
$DIMALTRND
 40
0.0
  9
$DIMAZIN
 70
     0
  9
$DIMDSEP
 70
    46
  9
$DIMATFIT
 70
     3
  9
$DIMFRAC
 70
     0
  9
$DIMLDRBLK
  1

  9
$DIMLUNIT
 70
     2
  9
$DIMLWD
 70
    -2
  9
$DIMLWE
 70
    -2
  9
$DIMTMOVE
 70
     0
  9
$DIMFXL
 40
1.0
  9
$DIMFXLON
 70
     0
  9
$DIMJOGANG
 40
0.7853981633974483
  9
$DIMTFILL
 70
     0
  9
$DIMTFILLCLR
 70
     0
  9
$DIMARCSYM
 70
     0
  9
$DIMLTYPE
  6

  9
$DIMLTEX1
  6

  9
$DIMLTEX2
  6

  9
$DIMTXTDIRECTION
 70
     0
  9
$LUNITS
 70
     2
  9
$LUPREC
 70
     4
  9
$SKETCHINC
 40
0.1
  9
$FILLETRAD
 40
0.0
  9
$AUNITS
 70
     0
  9
$AUPREC
 70
     0
  9
$MENU
  1
.
  9
$ELEVATION
 40
0.0
  9
$PELEVATION
 40
0.0
  9
$THICKNESS
 40
0.0
  9
$LIMCHECK
 70
     0
  9
$CHAMFERA
 40
0.0
  9
$CHAMFERB
 40
0.0
  9
$CHAMFERC
 40
0.0
  9
$CHAMFERD
 40
0.0
  9
$SKPOLY
 70
     0
  9
$TDCREATE
 40
2459328.429791667
  9
$TDUCREATE
 40
2459328.346458334
  9
$TDUPDATE
 40
2459341.383993056
  9
$TDUUPDATE
 40
2459341.300659722
  9
$TDINDWG
 40
0.0167708333
  9
$TDUSRTIMER
 40
0.0167708333
  9
$USRTIMER
 70
     1
  9
$ANGBASE
 50
0.0
  9
$ANGDIR
 70
     0
  9
$PDMODE
 70
     0
  9
$PDSIZE
 40
0.0
  9
$PLINEWID
 40
0.0
  9
$SPLFRAME
 70
     0
  9
$SPLINETYPE
 70
     6
  9
$SPLINESEGS
 70
     8
  9
$HANDSEED
  5
174
  9
$SURFTAB1
 70
     6
  9
$SURFTAB2
 70
     6
  9
$SURFTYPE
 70
     6
  9
$SURFU
 70
     6
  9
$SURFV
 70
     6
  9
$UCSBASE
  2

  9
$UCSNAME
  2

  9
$UCSORG
 10
0.0
 20
0.0
 30
0.0
  9
$UCSXDIR
 10
1.0
 20
0.0
 30
0.0
  9
$UCSYDIR
 10
0.0
 20
1.0
 30
0.0
  9
$UCSORTHOREF
  2

  9
$UCSORTHOVIEW
 70
     0
  9
$UCSORGTOP
 10
0.0
 20
0.0
 30
0.0
  9
$UCSORGBOTTOM
 10
0.0
 20
0.0
 30
0.0
  9
$UCSORGLEFT
 10
0.0
 20
0.0
 30
0.0
  9
$UCSORGRIGHT
 10
0.0
 20
0.0
 30
0.0
  9
$UCSORGFRONT
 10
0.0
 20
0.0
 30
0.0
  9
$UCSORGBACK
 10
0.0
 20
0.0
 30
0.0
  9
$PUCSBASE
  2

  9
$PUCSNAME
  2

  9
$PUCSORG
 10
0.0
 20
0.0
 30
0.0
  9
$PUCSXDIR
 10
1.0
 20
0.0
 30
0.0
  9
$PUCSYDIR
 10
0.0
 20
1.0
 30
0.0
  9
$PUCSORTHOREF
  2

  9
$PUCSORTHOVIEW
 70
     0
  9
$PUCSORGTOP
 10
0.0
 20
0.0
 30
0.0
  9
$PUCSORGBOTTOM
 10
0.0
 20
0.0
 30
0.0
  9
$PUCSORGLEFT
 10
0.0
 20
0.0
 30
0.0
  9
$PUCSORGRIGHT
 10
0.0
 20
0.0
 30
0.0
  9
$PUCSORGFRONT
 10
0.0
 20
0.0
 30
0.0
  9
$PUCSORGBACK
 10
0.0
 20
0.0
 30
0.0
  9
$USERI1
 70
     0
  9
$USERI2
 70
     0
  9
$USERI3
 70
     0
  9
$USERI4
 70
     0
  9
$USERI5
 70
     0
  9
$USERR1
 40
0.0
  9
$USERR2
 40
0.0
  9
$USERR3
 40
0.0
  9
$USERR4
 40
0.0
  9
$USERR5
 40
0.0
  9
$WORLDVIEW
 70
     1
  9
$SHADEDGE
 70
     3
  9
$SHADEDIF
 70
    70
  9
$TILEMODE
 70
     1
  9
$MAXACTVP
 70
    64
  9
$PINSBASE
 10
0.0
 20
0.0
 30
0.0
  9
$PLIMCHECK
 70
     0
  9
$PEXTMIN
 10
1.000000000000000E+20
 20
1.000000000000000E+20
 30
1.000000000000000E+20
  9
$PEXTMAX
 10
-1.000000000000000E+20
 20
-1.000000000000000E+20
 30
-1.000000000000000E+20
  9
$PLIMMIN
 10
0.0
 20
0.0
  9
$PLIMMAX
 10
12.0
 20
9.0
  9
$UNITMODE
 70
     0
  9
$VISRETAIN
 70
     1
  9
$PLINEGEN
 70
     0
  9
$PSLTSCALE
 70
     1
  9
$TREEDEPTH
 70
  3020
  9
$CMLSTYLE
  2
Standard
  9
$CMLJUST
 70
     0
  9
$CMLSCALE
 40
1.0
  9
$PROXYGRAPHICS
 70
     1
  9
$MEASUREMENT
 70
     0
  9
$CELWEIGHT
370
    -1
  9
$ENDCAPS
280
     0
  9
$JOINSTYLE
280
     0
  9
$LWDISPLAY
290
     1
  9
$INSUNITS
 70
     5
  9
$HYPERLINKBASE
  1

  9
$STYLESHEET
  1

  9
$XEDIT
290
     1
  9
$CEPSNTYPE
380
     0
  9
$PSTYLEMODE
290
     1
  9
$FINGERPRINTGUID
  2
{5A26BC2D-DC9D-844F-AB69-4DD9E2CED505}
  9
$VERSIONGUID
  2
{99B89E57-67E4-1245-91D2-A3B80F8F453D}
  9
$EXTNAMES
290
     1
  9
$PSVPSCALE
 40
0.0
  9
$OLESTARTUP
290
     0
  9
$SORTENTS
280
   127
  9
$INDEXCTL
280
     0
  9
$HIDETEXT
280
     1
  9
$XCLIPFRAME
280
     2
  9
$HALOGAP
280
     0
  9
$OBSCOLOR
 70
   257
  9
$OBSLTYPE
280
     0
  9
$INTERSECTIONDISPLAY
280
     0
  9
$INTERSECTIONCOLOR
 70
   257
  9
$DIMASSOC
280
     2
  9
$PROJECTNAME
  1

  9
$CAMERADISPLAY
290
     0
  9
$LENSLENGTH
 40
50.0
  9
$CAMERAHEIGHT
 40
0.0
  9
$STEPSPERSEC
 40
2.0
  9
$STEPSIZE
 40
6.0
  9
$3DDWFPREC
 40
2.0
  9
$PSOLWIDTH
 40
0.25
  9
$PSOLHEIGHT
 40
4.0
  9
$LOFTANG1
 40
1.570796326794896
  9
$LOFTANG2
 40
1.570796326794896
  9
$LOFTMAG1
 40
0.0
  9
$LOFTMAG2
 40
0.0
  9
$LOFTPARAM
 70
     7
  9
$LOFTNORMALS
280
     1
  9
$LATITUDE
 40
37.795
  9
$LONGITUDE
 40
-122.394
  9
$NORTHDIRECTION
 40
0.0
  9
$TIMEZONE
 70
 -8000
  9
$LIGHTGLYPHDISPLAY
280
     1
  9
$TILEMODELIGHTSYNCH
280
     1
  9
$CMATERIAL
347
11
  9
$SOLIDHIST
280
     0
  9
$SHOWHIST
280
     1
  9
$DWFFRAME
280
     2
  9
$DGNFRAME
280
     0
  9
$REALWORLDSCALE
290
     1
  9
$INTERFERECOLOR
 62
     1
  9
$INTERFEREOBJVS
345
33
  9
$INTERFEREVPVS
346
30
  9
$CSHADOW
280
     0
  9
$SHADOWPLANELOCATION
 40
0.0
  0
ENDSEC
  0
SECTION
  2
CLASSES
  0
CLASS
  1
ACDBDICTIONARYWDFLT
  2
AcDbDictionaryWithDefault
  3
ObjectDBX Classes
 90
        0
 91
        1
280
     0
281
     0
  0
CLASS
  1
MATERIAL
  2
AcDbMaterial
  3
ObjectDBX Classes
 90
     1153
 91
        3
280
     0
281
     0
  0
CLASS
  1
VISUALSTYLE
  2
AcDbVisualStyle
  3
ObjectDBX Classes
 90
     4095
 91
       24
280
     0
281
     0
  0
CLASS
  1
SCALE
  2
AcDbScale
  3
ObjectDBX Classes
 90
     1153
 91
       17
280
     0
281
     0
  0
CLASS
  1
TABLESTYLE
  2
AcDbTableStyle
  3
ObjectDBX Classes
 90
     4095
 91
        1
280
     0
281
     0
  0
CLASS
  1
MLEADERSTYLE
  2
AcDbMLeaderStyle
  3
ACDB_MLEADERSTYLE_CLASS
 90
     4095
 91
        1
280
     0
281
     0
  0
CLASS
  1
ACDBSECTIONVIEWSTYLE
  2
AcDbSectionViewStyle
  3
ObjectDBX Classes
 90
     1025
 91
        1
280
     0
281
     0
  0
CLASS
  1
ACDBDETAILVIEWSTYLE
  2
AcDbDetailViewStyle
  3
ObjectDBX Classes
 90
     1025
 91
        1
280
     0
281
     0
  0
CLASS
  1
DICTIONARYVAR
  2
AcDbDictionaryVar
  3
ObjectDBX Classes
 90
        0
 91
        5
280
     0
281
     0
  0
CLASS
  1
CELLSTYLEMAP
  2
AcDbCellStyleMap
  3
ObjectDBX Classes
 90
     1152
 91
        2
280
     0
281
     0
  0
CLASS
  1
SORTENTSTABLE
  2
AcDbSortentsTable
  3
ObjectDBX Classes
 90
        0
 91
        1
280
     0
281
     0
  0
ENDSEC
  0
SECTION
  2
TABLES
  0
TABLE
  2
VPORT
  5
8
330
0
100
AcDbSymbolTable
 70
     1
1001
ACAD
1000
DbSaveVer
1071
      105
  0
VPORT
  5
57
330
8
100
AcDbSymbolTableRecord
100
AcDbViewportTableRecord
  2
*Active
 70
     0
 10
0.0
 20
0.0
 11
1.0
 21
1.0
 12
-0.9883997036327514
 22
-2.156111965718967
 13
0.0
 23
0.0
 14
1.0
 24
1.0
 15
0.0
 25
0.0
 16
0.0
 26
0.0
 36
1.0
 17
10.50008280156501
 27
-5.732638887455728
 37
0.0
 40
19.10099197628096
 41
1.931468531468531
 42
50.0
 43
0.0
 44
0.0
 50
0.0
 51
0.0
 71
     0
 72
   100
 73
     1
 74
     0
 75
     1
 76
     0
 77
     0
 78
     0
281
     0
 65
     1
110
0.0
120
0.0
130
0.0
111
1.0
121
0.0
131
0.0
112
0.0
122
1.0
132
0.0
 79
     0
146
0.0
348
2F
 60
     3
 61
     5
292
     1
282
     1
141
0.0
142
0.0
 63
   250
421
  3355443
1001
ACAD_NAV_VCDISPLAY
1070
     3
  0
ENDTAB
  0
TABLE
  2
LTYPE
  5
5
330
0
100
AcDbSymbolTable
 70
     1
  0
LTYPE
  5
5B
330
5
100
AcDbSymbolTableRecord
100
AcDbLinetypeTableRecord
  2
ByBlock
 70
     0
  3

 72
    65
 73
     0
 40
0.0
  0
LTYPE
  5
5C
330
5
100
AcDbSymbolTableRecord
100
AcDbLinetypeTableRecord
  2
ByLayer
 70
     0
  3

 72
    65
 73
     0
 40
0.0
  0
LTYPE
  5
5D
330
5
100
AcDbSymbolTableRecord
100
AcDbLinetypeTableRecord
  2
Continuous
 70
     0
  3
Solid line
 72
    65
 73
     0
 40
0.0
  0
ENDTAB
  0
TABLE
  2
LAYER
  5
2
330
0
100
AcDbSymbolTable
 70
     2
  0
LAYER
  5
54
330
2
100
AcDbSymbolTableRecord
100
AcDbLayerTableRecord
  2
0
 70
     0
 62
     7
  6
Continuous
370
    -3
390
F
347
21
348
0
  0
LAYER
  5
78
330
2
100
AcDbSymbolTableRecord
100
AcDbLayerTableRecord
  2
Livello 1
 70
     0
 62
     7
  6
Continuous
370
     0
390
F
347
21
348
0
  0
ENDTAB
  0
TABLE
  2
STYLE
  5
3
330
0
100
AcDbSymbolTable
 70
     2
  0
STYLE
  5
55
330
3
100
AcDbSymbolTableRecord
100
AcDbTextStyleTableRecord
  2
Standard
 70
     0
 40
0.0
 41
1.0
 50
0.0
 71
     0
 42
0.2
  3
txt
  4

  0
STYLE
  5
5A
330
3
100
AcDbSymbolTableRecord
100
AcDbTextStyleTableRecord
  2
Annotative
 70
     0
 40
0.0
 41
1.0
 50
0.0
 71
     0
 42
0.2
  3
txt
  4

1001
AcadAnnotative
1000
AnnotativeData
1002
{
1070
     1
1070
     1
1002
}
  0
ENDTAB
  0
TABLE
  2
VIEW
  5
6
330
0
100
AcDbSymbolTable
 70
     0
  0
ENDTAB
  0
TABLE
  2
UCS
  5
7
330
0
100
AcDbSymbolTable
 70
     0
  0
ENDTAB
  0
TABLE
  2
APPID
  5
9
330
0
100
AcDbSymbolTable
 70
     3
  0
APPID
  5
56
330
9
100
AcDbSymbolTableRecord
100
AcDbRegAppTableRecord
  2
ACAD
 70
     0
  0
APPID
  5
5E
330
9
100
AcDbSymbolTableRecord
100
AcDbRegAppTableRecord
  2
AcadAnnotative
 70
     0
  0
APPID
  5
15B
330
9
100
AcDbSymbolTableRecord
100
AcDbRegAppTableRecord
  2
ACAD_NAV_VCDISPLAY
 70
     0
  0
ENDTAB
  0
TABLE
  2
DIMSTYLE
  5
A
330
0
100
AcDbSymbolTable
 70
     2
100
AcDbDimStyleTable
 71
     0
  0
DIMSTYLE
105
58
330
A
100
AcDbSymbolTableRecord
100
AcDbDimStyleTableRecord
  2
Standard
 70
     0
340
55
  0
DIMSTYLE
105
59
330
A
100
AcDbSymbolTableRecord
100
AcDbDimStyleTableRecord
  2
Annotative
 70
     0
340
55
1001
AcadAnnotative
1000
AnnotativeData
1002
{
1070
     1
1070
     1
1002
}
  0
ENDTAB
  0
TABLE
  2
BLOCK_RECORD
  5
1
330
0
100
AcDbSymbolTable
 70
    13
  0
BLOCK_RECORD
  5
70
102
{ACAD_XDICTIONARY
360
12D
102
}
330
1
100
AcDbSymbolTableRecord
100
AcDbBlockTableRecord
  2
*Model_Space
340
73
 70
     0
280
     1
281
     0
  0
BLOCK_RECORD
  5
6C
330
1
100
AcDbSymbolTableRecord
100
AcDbBlockTableRecord
  2
*Paper_Space
340
6F
 70
     0
280
     1
281
     0
  0
BLOCK_RECORD
  5
74
330
1
100
AcDbSymbolTableRecord
100
AcDbBlockTableRecord
  2
*Paper_Space0
340
77
 70
     0
280
     1
281
     0
  0
BLOCK_RECORD
  5
95
330
1
100
AcDbSymbolTableRecord
100
AcDbBlockTableRecord
  2
Block_0
340
0
 70
     0
280
     1
281
     0
  0
BLOCK_RECORD
  5
99
330
1
100
AcDbSymbolTableRecord
100
AcDbBlockTableRecord
  2
Block_1
340
0
102
{BLKREFS
331
9A
331
155
102
}
 70
     0
280
     1
281
     0
  0
BLOCK_RECORD
  5
A5
330
1
100
AcDbSymbolTableRecord
100
AcDbBlockTableRecord
  2
Block_2
340
0
 70
     0
280
     1
281
     0
  0
BLOCK_RECORD
  5
A9
330
1
100
AcDbSymbolTableRecord
100
AcDbBlockTableRecord
  2
Block_3
340
0
102
{BLKREFS
331
AA
331
156
102
}
 70
     0
280
     1
281
     0
  0
BLOCK_RECORD
  5
B1
330
1
100
AcDbSymbolTableRecord
100
AcDbBlockTableRecord
  2
Block_4
340
0
 70
     0
280
     1
281
     0
  0
BLOCK_RECORD
  5
B5
330
1
100
AcDbSymbolTableRecord
100
AcDbBlockTableRecord
  2
Block_5
340
0
102
{BLKREFS
331
157
331
B6
102
}
 70
     0
280
     1
281
     0
  0
BLOCK_RECORD
  5
BF
330
1
100
AcDbSymbolTableRecord
100
AcDbBlockTableRecord
  2
Block_6
340
0
 70
     0
280
     1
281
     0
  0
BLOCK_RECORD
  5
C3
330
1
100
AcDbSymbolTableRecord
100
AcDbBlockTableRecord
  2
Block_7
340
0
102
{BLKREFS
331
C4
102
}
 70
     0
280
     1
281
     0
  0
BLOCK_RECORD
  5
CB
330
1
100
AcDbSymbolTableRecord
100
AcDbBlockTableRecord
  2
Block_8
340
0
 70
     0
280
     1
281
     0
  0
BLOCK_RECORD
  5
CF
330
1
100
AcDbSymbolTableRecord
100
AcDbBlockTableRecord
  2
Block_9
340
0
102
{BLKREFS
331
D0
102
}
 70
     0
280
     1
281
     0
  0
BLOCK_RECORD
  5
D9
330
1
100
AcDbSymbolTableRecord
100
AcDbBlockTableRecord
  2
Block_10
340
0
 70
     0
280
     1
281
     0
  0
BLOCK_RECORD
  5
DD
330
1
100
AcDbSymbolTableRecord
100
AcDbBlockTableRecord
  2
Block_11
340
0
102
{BLKREFS
331
DE
102
}
 70
     0
280
     1
281
     0
  0
ENDTAB
  0
ENDSEC
  0
SECTION
  2
BLOCKS
  0
BLOCK
  5
71
330
70
100
AcDbEntity
  8
0
100
AcDbBlockBegin
  2
*Model_Space
 70
     0
 10
0.0
 20
0.0
 30
0.0
  3
*Model_Space
  1

  0
ENDBLK
  5
72
330
70
100
AcDbEntity
  8
0
100
AcDbBlockEnd
  0
BLOCK
  5
6D
330
6C
100
AcDbEntity
 67
     1
  8
0
100
AcDbBlockBegin
  2
*Paper_Space
 70
     0
 10
0.0
 20
0.0
 30
0.0
  3
*Paper_Space
  1

  0
ENDBLK
  5
6E
330
6C
100
AcDbEntity
 67
     1
  8
0
100
AcDbBlockEnd
  0
BLOCK
  5
75
330
74
100
AcDbEntity
 67
     1
  8
0
100
AcDbBlockBegin
  2
*Paper_Space0
 70
     0
 10
0.0
 20
0.0
 30
0.0
  3
*Paper_Space0
  1

  0
ENDBLK
  5
76
330
74
100
AcDbEntity
 67
     1
  8
0
100
AcDbBlockEnd
  0
BLOCK
  5
97
330
95
100
AcDbEntity
  8
0
100
AcDbBlockBegin
  2
Block_0
 70
     0
 10
0.0
 20
0.0
 30
0.0
  3
Block_0
  1

  0
INSERT
  5
9A
330
95
100
AcDbEntity
  8
Livello 1
100
AcDbBlockReference
  2
Block_1
 10
0.0
 20
0.0
 30
0.0
  0
ENDBLK
  5
98
330
95
100
AcDbEntity
  8
0
100
AcDbBlockEnd
  0
BLOCK
  5
9B
330
99
100
AcDbEntity
  8
0
100
AcDbBlockBegin
  2
Block_1
 70
     0
 10
0.0
 20
0.0
 30
0.0
  3
Block_1
  1

  0
SPLINE
  5
9D
330
99
100
AcDbEntity
  8
Livello 1
100
AcDbSpline
210
0.0
220
0.0
230
1.0
 70
    11
 71
     3
 72
    47
 73
    43
 74
     0
 42
0.000000001
 43
0.0000000001
 40
0.0
 40
0.0
 40
0.0
 40
0.0
 40
1.0
 40
1.0
 40
1.0
 40
2.0
 40
2.0
 40
2.0
 40
3.0
 40
3.0
 40
3.0
 40
4.0
 40
4.0
 40
4.0
 40
5.0
 40
5.0
 40
5.0
 40
6.0
 40
6.0
 40
6.0
 40
7.0
 40
7.0
 40
7.0
 40
8.0
 40
8.0
 40
8.0
 40
9.0
 40
9.0
 40
9.0
 40
10.0
 40
10.0
 40
10.0
 40
11.0
 40
11.0
 40
11.0
 40
12.0
 40
12.0
 40
12.0
 40
13.0
 40
13.0
 40
13.0
 40
14.0
 40
14.0
 40
14.0
 40
14.0
 10
2.229080131821201
 20
-8.913581676374032
 30
0.0
 10
2.229080131821201
 20
-8.913581676374032
 30
0.0
 10
2.229080131821201
 20
-8.845007050740136
 30
0.0
 10
2.229080131821201
 20
-8.845007050740136
 30
0.0
 10
2.229080131821201
 20
-8.845007050740136
 30
0.0
 10
2.31670613548853
 20
-8.759930417731892
 30
0.0
 10
2.31670613548853
 20
-8.759930417731892
 30
0.0
 10
2.527494302753543
 20
-8.55928805667094
 30
0.0
 10
2.622733967443274
 20
-8.452627900447605
 30
0.0
 10
2.624008652772817
 20
-8.328191051520382
 30
0.0
 10
2.624008652772817
 20
-8.244371878364253
 30
0.0
 10
2.583373751524294
 20
-8.166908906378411
 30
0.0
 10
2.460194362449187
 20
-8.166908906378411
 30
0.0
 10
2.385280761122428
 20
-8.166908906378411
 30
0.0
 10
2.323062336658817
 20
-8.205011662445272
 30
0.0
 10
2.284959580591953
 20
-8.236758217341851
 30
0.0
 10
2.284959580591953
 20
-8.236758217341851
 30
0.0
 10
2.249406195184174
 20
-8.158020560026464
 30
0.0
 10
2.249406195184174
 20
-8.158020560026464
 30
0.0
 10
2.306543103807043
 20
-8.109771997755542
 30
0.0
 10
2.387812906304088
 20
-8.074218612347761
 30
0.0
 10
2.48305257099382
 20
-8.074218612347761
 30
0.0
 10
2.660836723510136
 20
-8.074218612347761
 30
0.0
 10
2.735750324836895
 20
-8.196123316093329
 30
0.0
 10
2.735750324836895
 20
-8.314221189327692
 30
0.0
 10
2.735750324836895
 20
-8.466597762640294
 30
0.0
 10
2.625283338102359
 20
-8.589777151715402
 30
0.0
 10
2.451306016097241
 20
-8.757398272550233
 30
0.0
 10
2.451306016097241
 20
-8.757398272550233
 30
0.0
 10
2.385280761122428
 20
-8.818342011684302
 30
0.0
 10
2.385280761122428
 20
-8.818342011684302
 30
0.0
 10
2.385280761122428
 20
-8.818342011684302
 30
0.0
 10
2.385280761122428
 20
-8.820891382343386
 30
0.0
 10
2.385280761122428
 20
-8.820891382343386
 30
0.0
 10
2.385280761122428
 20
-8.820891382343386
 30
0.0
 10
2.756076388199869
 20
-8.820891382343386
 30
0.0
 10
2.756076388199869
 20
-8.820891382343386
 30
0.0
 10
2.756076388199869
 20
-8.820891382343386
 30
0.0
 10
2.756076388199869
 20
-8.913581676374032
 30
0.0
 10
2.756076388199869
 20
-8.913581676374032
 30
0.0
 10
2.756076388199869
 20
-8.913581676374032
 30
0.0
 10
2.229080131821201
 20
-8.913581676374032
 30
0.0
 10
2.229080131821201
 20
-8.913581676374032
 30
0.0
  0
HATCH
  5
9E
330
99
100
AcDbEntity
  8
Livello 1
 62
   250
420
  1907995
440
 33554687
100
AcDbHatch
 10
0.0
 20
0.0
 30
0.0
210
0.0
220
0.0
230
1.0
  2
SOLID
 70
     1
 71
     1
 91
        1
 92
        1
 93
        1
 72
     4
 94
        3
 73
     0
 74
     0
 95
       47
 96
       43
 40
0.0
 40
0.0
 40
0.0
 40
0.0
 40
1.0
 40
1.0
 40
1.0
 40
2.0
 40
2.0
 40
2.0
 40
3.0
 40
3.0
 40
3.0
 40
4.0
 40
4.0
 40
4.0
 40
5.0
 40
5.0
 40
5.0
 40
6.0
 40
6.0
 40
6.0
 40
7.0
 40
7.0
 40
7.0
 40
8.0
 40
8.0
 40
8.0
 40
9.0
 40
9.0
 40
9.0
 40
10.0
 40
10.0
 40
10.0
 40
11.0
 40
11.0
 40
11.0
 40
12.0
 40
12.0
 40
12.0
 40
13.0
 40
13.0
 40
13.0
 40
14.0
 40
14.0
 40
14.0
 40
14.0
 10
2.229080131821201
 20
-8.913581676374032
 10
2.229080131821201
 20
-8.913581676374032
 10
2.229080131821201
 20
-8.845007050740136
 10
2.229080131821201
 20
-8.845007050740136
 10
2.229080131821201
 20
-8.845007050740136
 10
2.31670613548853
 20
-8.759930417731892
 10
2.31670613548853
 20
-8.759930417731892
 10
2.527494302753543
 20
-8.55928805667094
 10
2.622733967443274
 20
-8.452627900447605
 10
2.624008652772817
 20
-8.328191051520382
 10
2.624008652772817
 20
-8.244371878364253
 10
2.583373751524294
 20
-8.166908906378411
 10
2.460194362449187
 20
-8.166908906378411
 10
2.385280761122428
 20
-8.166908906378411
 10
2.323062336658817
 20
-8.205011662445272
 10
2.284959580591953
 20
-8.236758217341851
 10
2.284959580591953
 20
-8.236758217341851
 10
2.249406195184174
 20
-8.158020560026464
 10
2.249406195184174
 20
-8.158020560026464
 10
2.306543103807043
 20
-8.109771997755542
 10
2.387812906304088
 20
-8.074218612347761
 10
2.48305257099382
 20
-8.074218612347761
 10
2.660836723510136
 20
-8.074218612347761
 10
2.735750324836895
 20
-8.196123316093329
 10
2.735750324836895
 20
-8.314221189327692
 10
2.735750324836895
 20
-8.466597762640294
 10
2.625283338102359
 20
-8.589777151715402
 10
2.451306016097241
 20
-8.757398272550233
 10
2.451306016097241
 20
-8.757398272550233
 10
2.385280761122428
 20
-8.818342011684302
 10
2.385280761122428
 20
-8.818342011684302
 10
2.385280761122428
 20
-8.818342011684302
 10
2.385280761122428
 20
-8.820891382343386
 10
2.385280761122428
 20
-8.820891382343386
 10
2.385280761122428
 20
-8.820891382343386
 10
2.756076388199869
 20
-8.820891382343386
 10
2.756076388199869
 20
-8.820891382343386
 10
2.756076388199869
 20
-8.820891382343386
 10
2.756076388199869
 20
-8.913581676374032
 10
2.756076388199869
 20
-8.913581676374032
 10
2.756076388199869
 20
-8.913581676374032
 10
2.229080131821201
 20
-8.913581676374032
 10
2.229080131821201
 20
-8.913581676374032
 97
        0
 97
        1
330
9D
 75
     2
 76
     1
 98
        1
 10
0.0
 20
0.0
450
        0
451
        0
460
0.0
461
0.0
452
        0
462
0.0
453
        0
470

  0
SPLINE
  5
9F
330
99
100
AcDbEntity
  8
Livello 1
100
AcDbSpline
210
0.0
220
0.0
230
1.0
 70
    11
 71
     3
 72
    47
 73
    43
 74
     0
 42
0.000000001
 43
0.0000000001
 40
0.0
 40
0.0
 40
0.0
 40
0.0
 40
1.0
 40
1.0
 40
1.0
 40
2.0
 40
2.0
 40
2.0
 40
3.0
 40
3.0
 40
3.0
 40
4.0
 40
4.0
 40
4.0
 40
5.0
 40
5.0
 40
5.0
 40
6.0
 40
6.0
 40
6.0
 40
7.0
 40
7.0
 40
7.0
 40
8.0
 40
8.0
 40
8.0
 40
9.0
 40
9.0
 40
9.0
 40
10.0
 40
10.0
 40
10.0
 40
11.0
 40
11.0
 40
11.0
 40
12.0
 40
12.0
 40
12.0
 40
13.0
 40
13.0
 40
13.0
 40
14.0
 40
14.0
 40
14.0
 40
14.0
 10
2.880564913559371
 20
-8.913581676374032
 30
0.0
 10
2.880564913559371
 20
-8.913581676374032
 30
0.0
 10
2.880564913559371
 20
-8.845007050740136
 30
0.0
 10
2.880564913559371
 20
-8.845007050740136
 30
0.0
 10
2.880564913559371
 20
-8.845007050740136
 30
0.0
 10
2.968190917226701
 20
-8.759930417731892
 30
0.0
 10
2.968190917226701
 20
-8.759930417731892
 30
0.0
 10
3.178979084491713
 20
-8.55928805667094
 30
0.0
 10
3.274218749181444
 20
-8.452627900447605
 30
0.0
 10
3.275493434510986
 20
-8.328191051520382
 30
0.0
 10
3.275493434510986
 20
-8.244371878364253
 30
0.0
 10
3.234858533262464
 20
-8.166908906378411
 30
0.0
 10
3.111679144187356
 20
-8.166908906378411
 30
0.0
 10
3.036765542860598
 20
-8.166908906378411
 30
0.0
 10
2.974547118396986
 20
-8.205011662445272
 30
0.0
 10
2.936444362330123
 20
-8.236758217341851
 30
0.0
 10
2.936444362330123
 20
-8.236758217341851
 30
0.0
 10
2.900890976922346
 20
-8.158020560026464
 30
0.0
 10
2.900890976922346
 20
-8.158020560026464
 30
0.0
 10
2.958027885545213
 20
-8.109771997755542
 30
0.0
 10
3.039297688042258
 20
-8.074218612347761
 30
0.0
 10
3.13453735273199
 20
-8.074218612347761
 30
0.0
 10
3.312321505248308
 20
-8.074218612347761
 30
0.0
 10
3.387235106575066
 20
-8.196123316093329
 30
0.0
 10
3.387235106575066
 20
-8.314221189327692
 30
0.0
 10
3.387235106575066
 20
-8.466597762640294
 30
0.0
 10
3.276768119840529
 20
-8.589777151715402
 30
0.0
 10
3.102790797835413
 20
-8.757398272550233
 30
0.0
 10
3.102790797835413
 20
-8.757398272550233
 30
0.0
 10
3.036765542860598
 20
-8.818342011684302
 30
0.0
 10
3.036765542860598
 20
-8.818342011684302
 30
0.0
 10
3.036765542860598
 20
-8.818342011684302
 30
0.0
 10
3.036765542860598
 20
-8.820891382343386
 30
0.0
 10
3.036765542860598
 20
-8.820891382343386
 30
0.0
 10
3.036765542860598
 20
-8.820891382343386
 30
0.0
 10
3.407561169938038
 20
-8.820891382343386
 30
0.0
 10
3.407561169938038
 20
-8.820891382343386
 30
0.0
 10
3.407561169938038
 20
-8.820891382343386
 30
0.0
 10
3.407561169938038
 20
-8.913581676374032
 30
0.0
 10
3.407561169938038
 20
-8.913581676374032
 30
0.0
 10
3.407561169938038
 20
-8.913581676374032
 30
0.0
 10
2.880564913559371
 20
-8.913581676374032
 30
0.0
 10
2.880564913559371
 20
-8.913581676374032
 30
0.0
  0
HATCH
  5
A0
330
99
100
AcDbEntity
  8
Livello 1
 62
   250
420
  1907995
440
 33554687
100
AcDbHatch
 10
0.0
 20
0.0
 30
0.0
210
0.0
220
0.0
230
1.0
  2
SOLID
 70
     1
 71
     1
 91
        1
 92
        1
 93
        1
 72
     4
 94
        3
 73
     0
 74
     0
 95
       47
 96
       43
 40
0.0
 40
0.0
 40
0.0
 40
0.0
 40
1.0
 40
1.0
 40
1.0
 40
2.0
 40
2.0
 40
2.0
 40
3.0
 40
3.0
 40
3.0
 40
4.0
 40
4.0
 40
4.0
 40
5.0
 40
5.0
 40
5.0
 40
6.0
 40
6.0
 40
6.0
 40
7.0
 40
7.0
 40
7.0
 40
8.0
 40
8.0
 40
8.0
 40
9.0
 40
9.0
 40
9.0
 40
10.0
 40
10.0
 40
10.0
 40
11.0
 40
11.0
 40
11.0
 40
12.0
 40
12.0
 40
12.0
 40
13.0
 40
13.0
 40
13.0
 40
14.0
 40
14.0
 40
14.0
 40
14.0
 10
2.880564913559371
 20
-8.913581676374032
 10
2.880564913559371
 20
-8.913581676374032
 10
2.880564913559371
 20
-8.845007050740136
 10
2.880564913559371
 20
-8.845007050740136
 10
2.880564913559371
 20
-8.845007050740136
 10
2.968190917226701
 20
-8.759930417731892
 10
2.968190917226701
 20
-8.759930417731892
 10
3.178979084491713
 20
-8.55928805667094
 10
3.274218749181444
 20
-8.452627900447605
 10
3.275493434510986
 20
-8.328191051520382
 10
3.275493434510986
 20
-8.244371878364253
 10
3.234858533262464
 20
-8.166908906378411
 10
3.111679144187356
 20
-8.166908906378411
 10
3.036765542860598
 20
-8.166908906378411
 10
2.974547118396986
 20
-8.205011662445272
 10
2.936444362330123
 20
-8.236758217341851
 10
2.936444362330123
 20
-8.236758217341851
 10
2.900890976922346
 20
-8.158020560026464
 10
2.900890976922346
 20
-8.158020560026464
 10
2.958027885545213
 20
-8.109771997755542
 10
3.039297688042258
 20
-8.074218612347761
 10
3.13453735273199
 20
-8.074218612347761
 10
3.312321505248308
 20
-8.074218612347761
 10
3.387235106575066
 20
-8.196123316093329
 10
3.387235106575066
 20
-8.314221189327692
 10
3.387235106575066
 20
-8.466597762640294
 10
3.276768119840529
 20
-8.589777151715402
 10
3.102790797835413
 20
-8.757398272550233
 10
3.102790797835413
 20
-8.757398272550233
 10
3.036765542860598
 20
-8.818342011684302
 10
3.036765542860598
 20
-8.818342011684302
 10
3.036765542860598
 20
-8.818342011684302
 10
3.036765542860598
 20
-8.820891382343386
 10
3.036765542860598
 20
-8.820891382343386
 10
3.036765542860598
 20
-8.820891382343386
 10
3.407561169938038
 20
-8.820891382343386
 10
3.407561169938038
 20
-8.820891382343386
 10
3.407561169938038
 20
-8.820891382343386
 10
3.407561169938038
 20
-8.913581676374032
 10
3.407561169938038
 20
-8.913581676374032
 10
3.407561169938038
 20
-8.913581676374032
 10
2.880564913559371
 20
-8.913581676374032
 10
2.880564913559371
 20
-8.913581676374032
 97
        0
 97
        1
330
9F
 75
     2
 76
     1
 98
        1
 10
0.0
 20
0.0
450
        0
451
        0
460
0.0
461
0.0
452
        0
462
0.0
453
        0
470

  0
SPLINE
  5
A1
330
99
100
AcDbEntity
  8
Livello 1
100
AcDbSpline
210
0.0
220
0.0
230
1.0
 70
     9
 71
     3
 72
    17
 73
    13
 74
     0
 42
0.000000001
 43
0.0000000001
 40
0.0
 40
0.0
 40
0.0
 40
0.0
 40
1.0
 40
1.0
 40
1.0
 40
2.0
 40
2.0
 40
2.0
 40
3.0
 40
3.0
 40
3.0
 40
4.0
 40
4.0
 40
4.0
 40
4.0
 10
3.495221624560221
 20
-9.069765080197836
 30
0.0
 10
3.523161348945598
 20
-8.994851478871078
 30
0.0
 10
3.557457274501259
 20
-8.858976912932824
 30
0.0
 10
3.571427136693948
 20
-8.766286618902178
 30
0.0
 10
3.571427136693948
 20
-8.766286618902178
 30
0.0
 10
3.695863985621171
 20
-8.753574216561606
 30
0.0
 10
3.695863985621171
 20
-8.753574216561606
 30
0.0
 10
3.66666680138368
 20
-8.861526283591908
 30
0.0
 10
3.610787352612927
 20
-9.00246513989348
 30
0.0
 10
3.575233967205148
 20
-9.062151419175432
 30
0.0
 10
3.575233967205148
 20
-9.062151419175432
 30
0.0
 10
3.495221624560221
 20
-9.069765080197836
 30
0.0
 10
3.495221624560221
 20
-9.069765080197836
 30
0.0
  0
HATCH
  5
A2
330
99
100
AcDbEntity
  8
Livello 1
 62
   250
420
  1907995
440
 33554687
100
AcDbHatch
 10
0.0
 20
0.0
 30
0.0
210
0.0
220
0.0
230
1.0
  2
SOLID
 70
     1
 71
     1
 91
        1
 92
        1
 93
        1
 72
     4
 94
        3
 73
     0
 74
     0
 95
       17
 96
       13
 40
0.0
 40
0.0
 40
0.0
 40
0.0
 40
1.0
 40
1.0
 40
1.0
 40
2.0
 40
2.0
 40
2.0
 40
3.0
 40
3.0
 40
3.0
 40
4.0
 40
4.0
 40
4.0
 40
4.0
 10
3.495221624560221
 20
-9.069765080197836
 10
3.523161348945598
 20
-8.994851478871078
 10
3.557457274501259
 20
-8.858976912932824
 10
3.571427136693948
 20
-8.766286618902178
 10
3.571427136693948
 20
-8.766286618902178
 10
3.695863985621171
 20
-8.753574216561606
 10
3.695863985621171
 20
-8.753574216561606
 10
3.66666680138368
 20
-8.861526283591908
 10
3.610787352612927
 20
-9.00246513989348
 10
3.575233967205148
 20
-9.062151419175432
 10
3.575233967205148
 20
-9.062151419175432
 10
3.495221624560221
 20
-9.069765080197836
 10
3.495221624560221
 20
-9.069765080197836
 97
        0
 97
        1
330
A1
 75
     2
 76
     1
 98
        1
 10
0.0
 20
0.0
450
        0
451
        0
460
0.0
461
0.0
452
        0
462
0.0
453
        0
470

  0
SPLINE
  5
A3
330
99
100
AcDbEntity
  8
Livello 1
100
AcDbSpline
210
0.0
220
0.0
230
1.0
 70
    11
 71
     3
 72
    50
 73
    46
 74
     0
 42
0.000000001
 43
0.0000000001
 40
0.0
 40
0.0
 40
0.0
 40
0.0
 40
1.0
 40
1.0
 40
1.0
 40
2.0
 40
2.0
 40
2.0
 40
3.0
 40
3.0
 40
3.0
 40
4.0
 40
4.0
 40
4.0
 40
5.0
 40
5.0
 40
5.0
 40
6.0
 40
6.0
 40
6.0
 40
7.0
 40
7.0
 40
7.0
 40
8.0
 40
8.0
 40
8.0
 40
9.0
 40
9.0
 40
9.0
 40
10.0
 40
10.0
 40
10.0
 40
11.0
 40
11.0
 40
11.0
 40
12.0
 40
12.0
 40
12.0
 40
13.0
 40
13.0
 40
13.0
 40
14.0
 40
14.0
 40
14.0
 40
15.0
 40
15.0
 40
15.0
 40
15.0
 10
4.287628037122535
 20
-8.182153453900641
 30
0.0
 10
4.287628037122535
 20
-8.182153453900641
 30
0.0
 10
3.972711858815848
 20
-8.182153453900641
 30
0.0
 10
3.972711858815848
 20
-8.182153453900641
 30
0.0
 10
3.972711858815848
 20
-8.182153453900641
 30
0.0
 10
3.940965303919271
 20
-8.394216306495195
 30
0.0
 10
3.940965303919271
 20
-8.394216306495195
 30
0.0
 10
3.960016681952703
 20
-8.391684161313536
 30
0.0
 10
3.977793374656592
 20
-8.389134790654452
 30
0.0
 10
4.008265244223626
 20
-8.389134790654452
 30
0.0
 10
4.071758354016781
 20
-8.389134790654452
 30
0.0
 10
4.135251463809936
 20
-8.40310465284714
 30
0.0
 10
4.186049396739944
 20
-8.433576522414174
 30
0.0
 10
4.250799966385216
 20
-8.470404593151496
 30
0.0
 10
4.304147269974308
 20
-8.54151136396705
 30
0.0
 10
4.304147269974308
 20
-8.645639375008729
 30
0.0
 10
4.304147269974308
 20
-8.8069215201507
 30
0.0
 10
4.175886365058457
 20
-8.927551538566723
 30
0.0
 10
3.996844752690023
 20
-8.927551538566723
 30
0.0
 10
3.906686603841036
 20
-8.927551538566723
 30
0.0
 10
3.830481091707309
 20
-8.90216118484043
 30
0.0
 10
3.791120875788329
 20
-8.876753605636713
 30
0.0
 10
3.791120875788329
 20
-8.876753605636713
 30
0.0
 10
3.819060600173705
 20
-8.791676972628469
 30
0.0
 10
3.819060600173705
 20
-8.791676972628469
 30
0.0
 10
3.853339300251941
 20
-8.811985810514016
 30
0.0
 10
3.920656466033723
 20
-8.837393389717734
 30
0.0
 10
3.995570067360482
 20
-8.837393389717734
 30
0.0
 10
4.1009727637317
 20
-8.837393389717734
 30
0.0
 10
4.191130912580689
 20
-8.768818764083835
 30
0.0
 10
4.191130912580689
 20
-8.658351777349301
 30
0.0
 10
4.189856227251146
 20
-8.551674395648539
 30
0.0
 10
4.118749456435588
 20
-8.475486108992237
 30
0.0
 10
3.953660480782417
 20
-8.475486108992237
 30
0.0
 10
3.906686603841036
 20
-8.475486108992237
 30
0.0
 10
3.869858533103714
 20
-8.480567624832982
 30
0.0
 10
3.83938666353668
 20
-8.484374455344182
 30
0.0
 10
3.83938666353668
 20
-8.484374455344182
 30
0.0
 10
3.892716741648348
 20
-8.088188474540451
 30
0.0
 10
3.892716741648348
 20
-8.088188474540451
 30
0.0
 10
3.892716741648348
 20
-8.088188474540451
 30
0.0
 10
4.287628037122535
 20
-8.088188474540451
 30
0.0
 10
4.287628037122535
 20
-8.088188474540451
 30
0.0
 10
4.287628037122535
 20
-8.088188474540451
 30
0.0
 10
4.287628037122535
 20
-8.182153453900641
 30
0.0
 10
4.287628037122535
 20
-8.182153453900641
 30
0.0
  0
HATCH
  5
A4
330
99
100
AcDbEntity
  8
Livello 1
 62
   250
420
  1907995
440
 33554687
100
AcDbHatch
 10
0.0
 20
0.0
 30
0.0
210
0.0
220
0.0
230
1.0
  2
SOLID
 70
     1
 71
     1
 91
        1
 92
        1
 93
        1
 72
     4
 94
        3
 73
     0
 74
     0
 95
       50
 96
       46
 40
0.0
 40
0.0
 40
0.0
 40
0.0
 40
1.0
 40
1.0
 40
1.0
 40
2.0
 40
2.0
 40
2.0
 40
3.0
 40
3.0
 40
3.0
 40
4.0
 40
4.0
 40
4.0
 40
5.0
 40
5.0
 40
5.0
 40
6.0
 40
6.0
 40
6.0
 40
7.0
 40
7.0
 40
7.0
 40
8.0
 40
8.0
 40
8.0
 40
9.0
 40
9.0
 40
9.0
 40
10.0
 40
10.0
 40
10.0
 40
11.0
 40
11.0
 40
11.0
 40
12.0
 40
12.0
 40
12.0
 40
13.0
 40
13.0
 40
13.0
 40
14.0
 40
14.0
 40
14.0
 40
15.0
 40
15.0
 40
15.0
 40
15.0
 10
4.287628037122535
 20
-8.182153453900641
 10
4.287628037122535
 20
-8.182153453900641
 10
3.972711858815848
 20
-8.182153453900641
 10
3.972711858815848
 20
-8.182153453900641
 10
3.972711858815848
 20
-8.182153453900641
 10
3.940965303919271
 20
-8.394216306495195
 10
3.940965303919271
 20
-8.394216306495195
 10
3.960016681952703
 20
-8.391684161313536
 10
3.977793374656592
 20
-8.389134790654452
 10
4.008265244223626
 20
-8.389134790654452
 10
4.071758354016781
 20
-8.389134790654452
 10
4.135251463809936
 20
-8.40310465284714
 10
4.186049396739944
 20
-8.433576522414174
 10
4.250799966385216
 20
-8.470404593151496
 10
4.304147269974308
 20
-8.54151136396705
 10
4.304147269974308
 20
-8.645639375008729
 10
4.304147269974308
 20
-8.8069215201507
 10
4.175886365058457
 20
-8.927551538566723
 10
3.996844752690023
 20
-8.927551538566723
 10
3.906686603841036
 20
-8.927551538566723
 10
3.830481091707309
 20
-8.90216118484043
 10
3.791120875788329
 20
-8.876753605636713
 10
3.791120875788329
 20
-8.876753605636713
 10
3.819060600173705
 20
-8.791676972628469
 10
3.819060600173705
 20
-8.791676972628469
 10
3.853339300251941
 20
-8.811985810514016
 10
3.920656466033723
 20
-8.837393389717734
 10
3.995570067360482
 20
-8.837393389717734
 10
4.1009727637317
 20
-8.837393389717734
 10
4.191130912580689
 20
-8.768818764083835
 10
4.191130912580689
 20
-8.658351777349301
 10
4.189856227251146
 20
-8.551674395648539
 10
4.118749456435588
 20
-8.475486108992237
 10
3.953660480782417
 20
-8.475486108992237
 10
3.906686603841036
 20
-8.475486108992237
 10
3.869858533103714
 20
-8.480567624832982
 10
3.83938666353668
 20
-8.484374455344182
 10
3.83938666353668
 20
-8.484374455344182
 10
3.892716741648348
 20
-8.088188474540451
 10
3.892716741648348
 20
-8.088188474540451
 10
3.892716741648348
 20
-8.088188474540451
 10
4.287628037122535
 20
-8.088188474540451
 10
4.287628037122535
 20
-8.088188474540451
 10
4.287628037122535
 20
-8.088188474540451
 10
4.287628037122535
 20
-8.182153453900641
 10
4.287628037122535
 20
-8.182153453900641
 97
        0
 97
        1
330
A3
 75
     2
 76
     1
 98
        1
 10
0.0
 20
0.0
450
        0
451
        0
460
0.0
461
0.0
452
        0
462
0.0
453
        0
470

  0
ENDBLK
  5
9C
330
99
100
AcDbEntity
  8
0
100
AcDbBlockEnd
  0
BLOCK
  5
A7
330
A5
100
AcDbEntity
  8
0
100
AcDbBlockBegin
  2
Block_2
 70
     0
 10
0.0
 20
0.0
 30
0.0
  3
Block_2
  1

  0
INSERT
  5
AA
330
A5
100
AcDbEntity
  8
Livello 1
100
AcDbBlockReference
  2
Block_3
 10
0.0
 20
0.0
 30
0.0
  0
ENDBLK
  5
A8
330
A5
100
AcDbEntity
  8
0
100
AcDbBlockEnd
  0
BLOCK
  5
AB
330
A9
100
AcDbEntity
  8
0
100
AcDbBlockBegin
  2
Block_3
 70
     0
 10
0.0
 20
0.0
 30
0.0
  3
Block_3
  1

  0
SPLINE
  5
AD
330
A9
100
AcDbEntity
  8
Livello 1
100
AcDbSpline
210
0.0
220
0.0
230
1.0
 70
    11
 71
     3
 72
    29
 73
    25
 74
     0
 42
0.000000001
 43
0.0000000001
 40
0.0
 40
0.0
 40
0.0
 40
0.0
 40
1.0
 40
1.0
 40
1.0
 40
2.0
 40
2.0
 40
2.0
 40
3.0
 40
3.0
 40
3.0
 40
4.0
 40
4.0
 40
4.0
 40
5.0
 40
5.0
 40
5.0
 40
6.0
 40
6.0
 40
6.0
 40
7.0
 40
7.0
 40
7.0
 40
8.0
 40
8.0
 40
8.0
 40
8.0
 10
9.10125325293302
 20
-6.078733179903927
 30
0.0
 10
9.10125325293302
 20
-6.078733179903927
 30
0.0
 10
9.10125325293302
 20
-6.081282550563011
 30
0.0
 10
9.10125325293302
 20
-6.081282550563011
 30
0.0
 10
9.10125325293302
 20
-6.081282550563011
 30
0.0
 10
9.178716224918858
 20
-6.224770777523668
 30
0.0
 10
9.178716224918858
 20
-6.224770777523668
 30
0.0
 10
9.178716224918858
 20
-6.224770777523668
 30
0.0
 10
9.093622366433192
 20
-6.246354300738757
 30
0.0
 10
9.093622366433192
 20
-6.246354300738757
 30
0.0
 10
9.093622366433192
 20
-6.246354300738757
 30
0.0
 10
8.997125241891341
 20
-6.06603800304078
 30
0.0
 10
8.997125241891341
 20
-6.06603800304078
 30
0.0
 10
8.997125241891341
 20
-6.06603800304078
 30
0.0
 10
8.997125241891341
 20
-5.970798338351049
 30
0.0
 10
8.997125241891341
 20
-5.970798338351049
 30
0.0
 10
8.997125241891341
 20
-5.970798338351049
 30
0.0
 10
9.822518443724923
 20
-5.970798338351049
 30
0.0
 10
9.822518443724923
 20
-5.970798338351049
 30
0.0
 10
9.822518443724923
 20
-5.970798338351049
 30
0.0
 10
9.822518443724923
 20
-6.078733179903927
 30
0.0
 10
9.822518443724923
 20
-6.078733179903927
 30
0.0
 10
9.822518443724923
 20
-6.078733179903927
 30
0.0
 10
9.10125325293302
 20
-6.078733179903927
 30
0.0
 10
9.10125325293302
 20
-6.078733179903927
 30
0.0
  0
HATCH
  5
AE
330
A9
100
AcDbEntity
  8
Livello 1
 62
   250
420
  1907995
440
 33554687
100
AcDbHatch
 10
0.0
 20
0.0
 30
0.0
210
0.0
220
0.0
230
1.0
  2
SOLID
 70
     1
 71
     1
 91
        1
 92
        1
 93
        1
 72
     4
 94
        3
 73
     0
 74
     0
 95
       29
 96
       25
 40
0.0
 40
0.0
 40
0.0
 40
0.0
 40
1.0
 40
1.0
 40
1.0
 40
2.0
 40
2.0
 40
2.0
 40
3.0
 40
3.0
 40
3.0
 40
4.0
 40
4.0
 40
4.0
 40
5.0
 40
5.0
 40
5.0
 40
6.0
 40
6.0
 40
6.0
 40
7.0
 40
7.0
 40
7.0
 40
8.0
 40
8.0
 40
8.0
 40
8.0
 10
9.10125325293302
 20
-6.078733179903927
 10
9.10125325293302
 20
-6.078733179903927
 10
9.10125325293302
 20
-6.081282550563011
 10
9.10125325293302
 20
-6.081282550563011
 10
9.10125325293302
 20
-6.081282550563011
 10
9.178716224918858
 20
-6.224770777523668
 10
9.178716224918858
 20
-6.224770777523668
 10
9.178716224918858
 20
-6.224770777523668
 10
9.093622366433192
 20
-6.246354300738757
 10
9.093622366433192
 20
-6.246354300738757
 10
9.093622366433192
 20
-6.246354300738757
 10
8.997125241891341
 20
-6.06603800304078
 10
8.997125241891341
 20
-6.06603800304078
 10
8.997125241891341
 20
-6.06603800304078
 10
8.997125241891341
 20
-5.970798338351049
 10
8.997125241891341
 20
-5.970798338351049
 10
8.997125241891341
 20
-5.970798338351049
 10
9.822518443724923
 20
-5.970798338351049
 10
9.822518443724923
 20
-5.970798338351049
 10
9.822518443724923
 20
-5.970798338351049
 10
9.822518443724923
 20
-6.078733179903927
 10
9.822518443724923
 20
-6.078733179903927
 10
9.822518443724923
 20
-6.078733179903927
 10
9.10125325293302
 20
-6.078733179903927
 10
9.10125325293302
 20
-6.078733179903927
 97
        0
 97
        1
330
AD
 75
     2
 76
     1
 98
        1
 10
0.0
 20
0.0
450
        0
451
        0
460
0.0
461
0.0
452
        0
462
0.0
453
        0
470

  0
SPLINE
  5
AF
330
A9
100
AcDbEntity
  8
Livello 1
100
AcDbSpline
210
0.0
220
0.0
230
1.0
 70
     9
 71
     3
 72
    59
 73
    55
 74
     0
 42
0.000000001
 43
0.0000000001
 40
0.0
 40
0.0
 40
0.0
 40
0.0
 40
1.0
 40
1.0
 40
1.0
 40
2.0
 40
2.0
 40
2.0
 40
3.0
 40
3.0
 40
3.0
 40
4.0
 40
4.0
 40
4.0
 40
5.0
 40
5.0
 40
5.0
 40
6.0
 40
6.0
 40
6.0
 40
7.0
 40
7.0
 40
7.0
 40
8.0
 40
8.0
 40
8.0
 40
9.0
 40
9.0
 40
9.0
 40
10.0
 40
10.0
 40
10.0
 40
11.0
 40
11.0
 40
11.0
 40
12.0
 40
12.0
 40
12.0
 40
13.0
 40
13.0
 40
13.0
 40
14.0
 40
14.0
 40
14.0
 40
15.0
 40
15.0
 40
15.0
 40
16.0
 40
16.0
 40
16.0
 40
17.0
 40
17.0
 40
17.0
 40
18.0
 40
18.0
 40
18.0
 40
18.0
 10
9.694257538809074
 20
-5.643135306748937
 30
0.0
 10
9.714583602172046
 20
-5.611388751852359
 30
0.0
 10
9.746330157068623
 20
-5.537732610377718
 30
0.0
 10
9.746330157068623
 20
-5.460269638391876
 30
0.0
 10
9.746330157068623
 20
-5.316781411431222
 30
0.0
 10
9.654897322890095
 20
-5.272339679671498
 30
0.0
 10
9.586322697256195
 20
-5.273597139523613
 30
0.0
 10
9.470774194680915
 20
-5.274871824853156
 30
0.0
 10
9.421250947080448
 20
-5.378999835894832
 30
0.0
 10
9.421250947080448
 20
-5.48693467744771
 30
0.0
 10
9.421250947080448
 20
-5.48693467744771
 30
0.0
 10
9.421250947080448
 20
-5.549153101911321
 30
0.0
 10
9.421250947080448
 20
-5.549153101911321
 30
0.0
 10
9.421250947080448
 20
-5.549153101911321
 30
0.0
 10
9.337431773924322
 20
-5.549153101911321
 30
0.0
 10
9.337431773924322
 20
-5.549153101911321
 30
0.0
 10
9.337431773924322
 20
-5.549153101911321
 30
0.0
 10
9.337431773924322
 20
-5.48693467744771
 30
0.0
 10
9.337431773924322
 20
-5.48693467744771
 30
0.0
 10
9.337431773924322
 20
-5.405664874950666
 30
0.0
 10
9.295539412823682
 20
-5.302811549238533
 30
0.0
 10
9.197750377474866
 20
-5.302811549238533
 30
0.0
 10
9.131725122500052
 20
-5.302811549238533
 30
0.0
 10
9.073313528547645
 20
-5.344721135816596
 30
0.0
 10
9.073313528547645
 20
-5.447574461528731
 30
0.0
 10
9.073313528547645
 20
-5.513599716503542
 30
0.0
 10
9.102510712785136
 20
-5.577092826296699
 30
0.0
 10
9.127918291988851
 20
-5.612646211704476
 30
0.0
 10
9.127918291988851
 20
-5.612646211704476
 30
0.0
 10
9.046648489491806
 20
-5.641860621419393
 30
0.0
 10
9.046648489491806
 20
-5.641860621419393
 30
0.0
 10
9.014901934595231
 20
-5.598676349511787
 30
0.0
 10
8.983155379698654
 20
-5.514874401833085
 30
0.0
 10
8.983155379698654
 20
-5.425990938313638
 30
0.0
 10
8.983155379698654
 20
-5.263451333319552
 30
0.0
 10
9.079669729717927
 20
-5.18979519184491
 30
0.0
 10
9.179973684770976
 20
-5.18979519184491
 30
0.0
 10
9.265050317779222
 20
-5.18979519184491
 30
0.0
 10
9.337431773924322
 20
-5.240593124774919
 30
0.0
 10
9.374259844661642
 20
-5.342171765157512
 30
0.0
 10
9.374259844661642
 20
-5.342171765157512
 30
0.0
 10
9.376809215320726
 20
-5.342171765157512
 30
0.0
 10
9.376809215320726
 20
-5.342171765157512
 30
0.0
 10
9.397118053206275
 20
-5.240593124774919
 30
0.0
 10
9.473306339862576
 20
-5.158048636948334
 30
0.0
 10
9.588872067915279
 20
-5.158048636948334
 30
0.0
 10
9.720939803342334
 20
-5.158048636948334
 30
0.0
 10
9.836488305917614
 20
-5.260901962660467
 30
0.0
 10
9.836488305917614
 20
-5.458994953062333
 30
0.0
 10
9.836488305917614
 20
-5.551702472570407
 30
0.0
 10
9.807273896202692
 20
-5.632972275067451
 30
0.0
 10
9.780608857146859
 20
-5.673607176315972
 30
0.0
 10
9.780608857146859
 20
-5.673607176315972
 30
0.0
 10
9.694257538809074
 20
-5.643135306748937
 30
0.0
 10
9.694257538809074
 20
-5.643135306748937
 30
0.0
  0
HATCH
  5
B0
330
A9
100
AcDbEntity
  8
Livello 1
 62
   250
420
  1907995
440
 33554687
100
AcDbHatch
 10
0.0
 20
0.0
 30
0.0
210
0.0
220
0.0
230
1.0
  2
SOLID
 70
     1
 71
     1
 91
        1
 92
        1
 93
        1
 72
     4
 94
        3
 73
     0
 74
     0
 95
       59
 96
       55
 40
0.0
 40
0.0
 40
0.0
 40
0.0
 40
1.0
 40
1.0
 40
1.0
 40
2.0
 40
2.0
 40
2.0
 40
3.0
 40
3.0
 40
3.0
 40
4.0
 40
4.0
 40
4.0
 40
5.0
 40
5.0
 40
5.0
 40
6.0
 40
6.0
 40
6.0
 40
7.0
 40
7.0
 40
7.0
 40
8.0
 40
8.0
 40
8.0
 40
9.0
 40
9.0
 40
9.0
 40
10.0
 40
10.0
 40
10.0
 40
11.0
 40
11.0
 40
11.0
 40
12.0
 40
12.0
 40
12.0
 40
13.0
 40
13.0
 40
13.0
 40
14.0
 40
14.0
 40
14.0
 40
15.0
 40
15.0
 40
15.0
 40
16.0
 40
16.0
 40
16.0
 40
17.0
 40
17.0
 40
17.0
 40
18.0
 40
18.0
 40
18.0
 40
18.0
 10
9.694257538809074
 20
-5.643135306748937
 10
9.714583602172046
 20
-5.611388751852359
 10
9.746330157068623
 20
-5.537732610377718
 10
9.746330157068623
 20
-5.460269638391876
 10
9.746330157068623
 20
-5.316781411431222
 10
9.654897322890095
 20
-5.272339679671498
 10
9.586322697256195
 20
-5.273597139523613
 10
9.470774194680915
 20
-5.274871824853156
 10
9.421250947080448
 20
-5.378999835894832
 10
9.421250947080448
 20
-5.48693467744771
 10
9.421250947080448
 20
-5.48693467744771
 10
9.421250947080448
 20
-5.549153101911321
 10
9.421250947080448
 20
-5.549153101911321
 10
9.421250947080448
 20
-5.549153101911321
 10
9.337431773924322
 20
-5.549153101911321
 10
9.337431773924322
 20
-5.549153101911321
 10
9.337431773924322
 20
-5.549153101911321
 10
9.337431773924322
 20
-5.48693467744771
 10
9.337431773924322
 20
-5.48693467744771
 10
9.337431773924322
 20
-5.405664874950666
 10
9.295539412823682
 20
-5.302811549238533
 10
9.197750377474866
 20
-5.302811549238533
 10
9.131725122500052
 20
-5.302811549238533
 10
9.073313528547645
 20
-5.344721135816596
 10
9.073313528547645
 20
-5.447574461528731
 10
9.073313528547645
 20
-5.513599716503542
 10
9.102510712785136
 20
-5.577092826296699
 10
9.127918291988851
 20
-5.612646211704476
 10
9.127918291988851
 20
-5.612646211704476
 10
9.046648489491806
 20
-5.641860621419393
 10
9.046648489491806
 20
-5.641860621419393
 10
9.014901934595231
 20
-5.598676349511787
 10
8.983155379698654
 20
-5.514874401833085
 10
8.983155379698654
 20
-5.425990938313638
 10
8.983155379698654
 20
-5.263451333319552
 10
9.079669729717927
 20
-5.18979519184491
 10
9.179973684770976
 20
-5.18979519184491
 10
9.265050317779222
 20
-5.18979519184491
 10
9.337431773924322
 20
-5.240593124774919
 10
9.374259844661642
 20
-5.342171765157512
 10
9.374259844661642
 20
-5.342171765157512
 10
9.376809215320726
 20
-5.342171765157512
 10
9.376809215320726
 20
-5.342171765157512
 10
9.397118053206275
 20
-5.240593124774919
 10
9.473306339862576
 20
-5.158048636948334
 10
9.588872067915279
 20
-5.158048636948334
 10
9.720939803342334
 20
-5.158048636948334
 10
9.836488305917614
 20
-5.260901962660467
 10
9.836488305917614
 20
-5.458994953062333
 10
9.836488305917614
 20
-5.551702472570407
 10
9.807273896202692
 20
-5.632972275067451
 10
9.780608857146859
 20
-5.673607176315972
 10
9.780608857146859
 20
-5.673607176315972
 10
9.694257538809074
 20
-5.643135306748937
 10
9.694257538809074
 20
-5.643135306748937
 97
        0
 97
        1
330
AF
 75
     2
 76
     1
 98
        1
 10
0.0
 20
0.0
450
        0
451
        0
460
0.0
461
0.0
452
        0
462
0.0
453
        0
470

  0
ENDBLK
  5
AC
330
A9
100
AcDbEntity
  8
0
100
AcDbBlockEnd
  0
BLOCK
  5
B3
330
B1
100
AcDbEntity
  8
0
100
AcDbBlockBegin
  2
Block_4
 70
     0
 10
0.0
 20
0.0
 30
0.0
  3
Block_4
  1

  0
INSERT
  5
B6
330
B1
100
AcDbEntity
  8
Livello 1
100
AcDbBlockReference
  2
Block_5
 10
0.0
 20
0.0
 30
0.0
  0
ENDBLK
  5
B4
330
B1
100
AcDbEntity
  8
0
100
AcDbBlockEnd
  0
BLOCK
  5
B7
330
B5
100
AcDbEntity
  8
0
100
AcDbBlockBegin
  2
Block_5
 70
     0
 10
0.0
 20
0.0
 30
0.0
  3
Block_5
  1

  0
SPLINE
  5
B9
330
B5
100
AcDbEntity
  8
Livello 1
100
AcDbSpline
210
0.0
220
0.0
230
1.0
 70
     9
 71
     3
 72
    59
 73
    55
 74
     0
 42
0.000000001
 43
0.0000000001
 40
0.0
 40
0.0
 40
0.0
 40
0.0
 40
1.0
 40
1.0
 40
1.0
 40
2.0
 40
2.0
 40
2.0
 40
3.0
 40
3.0
 40
3.0
 40
4.0
 40
4.0
 40
4.0
 40
5.0
 40
5.0
 40
5.0
 40
6.0
 40
6.0
 40
6.0
 40
7.0
 40
7.0
 40
7.0
 40
8.0
 40
8.0
 40
8.0
 40
9.0
 40
9.0
 40
9.0
 40
10.0
 40
10.0
 40
10.0
 40
11.0
 40
11.0
 40
11.0
 40
12.0
 40
12.0
 40
12.0
 40
13.0
 40
13.0
 40
13.0
 40
14.0
 40
14.0
 40
14.0
 40
15.0
 40
15.0
 40
15.0
 40
16.0
 40
16.0
 40
16.0
 40
17.0
 40
17.0
 40
17.0
 40
18.0
 40
18.0
 40
18.0
 40
18.0
 10
7.236095782696184
 20
-8.847556421399222
 30
0.0
 10
7.267842337592759
 20
-8.867882484762192
 30
0.0
 10
7.341498479067402
 20
-8.899629039658773
 30
0.0
 10
7.418961451053244
 20
-8.899629039658773
 30
0.0
 10
7.5624496780139
 20
-8.899629039658773
 30
0.0
 10
7.606891409773621
 20
-8.808196205480241
 30
0.0
 10
7.605633949921507
 20
-8.739621579846344
 30
0.0
 10
7.604359264591963
 20
-8.624073077271065
 30
0.0
 10
7.500231253550287
 20
-8.574549829670598
 30
0.0
 10
7.392296411997411
 20
-8.574549829670598
 30
0.0
 10
7.392296411997411
 20
-8.574549829670598
 30
0.0
 10
7.330077987533799
 20
-8.574549829670598
 30
0.0
 10
7.330077987533799
 20
-8.574549829670598
 30
0.0
 10
7.330077987533799
 20
-8.574549829670598
 30
0.0
 10
7.330077987533799
 20
-8.490730656514468
 30
0.0
 10
7.330077987533799
 20
-8.490730656514468
 30
0.0
 10
7.330077987533799
 20
-8.490730656514468
 30
0.0
 10
7.392296411997411
 20
-8.490730656514468
 30
0.0
 10
7.392296411997411
 20
-8.490730656514468
 30
0.0
 10
7.473566214494455
 20
-8.490730656514468
 30
0.0
 10
7.576419540206588
 20
-8.448838295413832
 30
0.0
 10
7.576419540206588
 20
-8.351049260065012
 30
0.0
 10
7.576419540206588
 20
-8.2850240050902
 30
0.0
 10
7.534509953628523
 20
-8.226612411137789
 30
0.0
 10
7.431656627916392
 20
-8.226612411137789
 30
0.0
 10
7.365631372941577
 20
-8.226612411137789
 30
0.0
 10
7.302138263148423
 20
-8.255809595375282
 30
0.0
 10
7.266584877740642
 20
-8.281217174578999
 30
0.0
 10
7.266584877740642
 20
-8.281217174578999
 30
0.0
 10
7.237370468025726
 20
-8.199947372081956
 30
0.0
 10
7.237370468025726
 20
-8.199947372081956
 30
0.0
 10
7.280554739933331
 20
-8.168200817185379
 30
0.0
 10
7.364356687612035
 20
-8.136454262288802
 30
0.0
 10
7.45324015113148
 20
-8.136454262288802
 30
0.0
 10
7.615779756125567
 20
-8.136454262288802
 30
0.0
 10
7.689435897600208
 20
-8.232968612308075
 30
0.0
 10
7.689435897600208
 20
-8.333272567361126
 30
0.0
 10
7.689435897600208
 20
-8.41834920036937
 30
0.0
 10
7.6386379646702
 20
-8.490730656514468
 30
0.0
 10
7.537059324287608
 20
-8.52755872725179
 30
0.0
 10
7.537059324287608
 20
-8.52755872725179
 30
0.0
 10
7.537059324287608
 20
-8.530108097910874
 30
0.0
 10
7.537059324287608
 20
-8.530108097910874
 30
0.0
 10
7.6386379646702
 20
-8.550416935796423
 30
0.0
 10
7.721182452496787
 20
-8.626605222452722
 30
0.0
 10
7.721182452496787
 20
-8.742170950505428
 30
0.0
 10
7.721182452496787
 20
-8.874221460455055
 30
0.0
 10
7.618329126784652
 20
-8.98978718850776
 30
0.0
 10
7.420236136382786
 20
-8.98978718850776
 30
0.0
 10
7.327528616874714
 20
-8.98978718850776
 30
0.0
 10
7.246258814377671
 20
-8.96057277879284
 30
0.0
 10
7.205623913129148
 20
-8.933907739737007
 30
0.0
 10
7.205623913129148
 20
-8.933907739737007
 30
0.0
 10
7.236095782696184
 20
-8.847556421399222
 30
0.0
 10
7.236095782696184
 20
-8.847556421399222
 30
0.0
  0
HATCH
  5
BA
330
B5
100
AcDbEntity
  8
Livello 1
 62
   250
420
  1907995
440
 33554687
100
AcDbHatch
 10
0.0
 20
0.0
 30
0.0
210
0.0
220
0.0
230
1.0
  2
SOLID
 70
     1
 71
     1
 91
        1
 92
        1
 93
        1
 72
     4
 94
        3
 73
     0
 74
     0
 95
       59
 96
       55
 40
0.0
 40
0.0
 40
0.0
 40
0.0
 40
1.0
 40
1.0
 40
1.0
 40
2.0
 40
2.0
 40
2.0
 40
3.0
 40
3.0
 40
3.0
 40
4.0
 40
4.0
 40
4.0
 40
5.0
 40
5.0
 40
5.0
 40
6.0
 40
6.0
 40
6.0
 40
7.0
 40
7.0
 40
7.0
 40
8.0
 40
8.0
 40
8.0
 40
9.0
 40
9.0
 40
9.0
 40
10.0
 40
10.0
 40
10.0
 40
11.0
 40
11.0
 40
11.0
 40
12.0
 40
12.0
 40
12.0
 40
13.0
 40
13.0
 40
13.0
 40
14.0
 40
14.0
 40
14.0
 40
15.0
 40
15.0
 40
15.0
 40
16.0
 40
16.0
 40
16.0
 40
17.0
 40
17.0
 40
17.0
 40
18.0
 40
18.0
 40
18.0
 40
18.0
 10
7.236095782696184
 20
-8.847556421399222
 10
7.267842337592759
 20
-8.867882484762192
 10
7.341498479067402
 20
-8.899629039658773
 10
7.418961451053244
 20
-8.899629039658773
 10
7.5624496780139
 20
-8.899629039658773
 10
7.606891409773621
 20
-8.808196205480241
 10
7.605633949921507
 20
-8.739621579846344
 10
7.604359264591963
 20
-8.624073077271065
 10
7.500231253550287
 20
-8.574549829670598
 10
7.392296411997411
 20
-8.574549829670598
 10
7.392296411997411
 20
-8.574549829670598
 10
7.330077987533799
 20
-8.574549829670598
 10
7.330077987533799
 20
-8.574549829670598
 10
7.330077987533799
 20
-8.574549829670598
 10
7.330077987533799
 20
-8.490730656514468
 10
7.330077987533799
 20
-8.490730656514468
 10
7.330077987533799
 20
-8.490730656514468
 10
7.392296411997411
 20
-8.490730656514468
 10
7.392296411997411
 20
-8.490730656514468
 10
7.473566214494455
 20
-8.490730656514468
 10
7.576419540206588
 20
-8.448838295413832
 10
7.576419540206588
 20
-8.351049260065012
 10
7.576419540206588
 20
-8.2850240050902
 10
7.534509953628523
 20
-8.226612411137789
 10
7.431656627916392
 20
-8.226612411137789
 10
7.365631372941577
 20
-8.226612411137789
 10
7.302138263148423
 20
-8.255809595375282
 10
7.266584877740642
 20
-8.281217174578999
 10
7.266584877740642
 20
-8.281217174578999
 10
7.237370468025726
 20
-8.199947372081956
 10
7.237370468025726
 20
-8.199947372081956
 10
7.280554739933331
 20
-8.168200817185379
 10
7.364356687612035
 20
-8.136454262288802
 10
7.45324015113148
 20
-8.136454262288802
 10
7.615779756125567
 20
-8.136454262288802
 10
7.689435897600208
 20
-8.232968612308075
 10
7.689435897600208
 20
-8.333272567361126
 10
7.689435897600208
 20
-8.41834920036937
 10
7.6386379646702
 20
-8.490730656514468
 10
7.537059324287608
 20
-8.52755872725179
 10
7.537059324287608
 20
-8.52755872725179
 10
7.537059324287608
 20
-8.530108097910874
 10
7.537059324287608
 20
-8.530108097910874
 10
7.6386379646702
 20
-8.550416935796423
 10
7.721182452496787
 20
-8.626605222452722
 10
7.721182452496787
 20
-8.742170950505428
 10
7.721182452496787
 20
-8.874221460455055
 10
7.618329126784652
 20
-8.98978718850776
 10
7.420236136382786
 20
-8.98978718850776
 10
7.327528616874714
 20
-8.98978718850776
 10
7.246258814377671
 20
-8.96057277879284
 10
7.205623913129148
 20
-8.933907739737007
 10
7.205623913129148
 20
-8.933907739737007
 10
7.236095782696184
 20
-8.847556421399222
 10
7.236095782696184
 20
-8.847556421399222
 97
        0
 97
        1
330
B9
 75
     2
 76
     1
 98
        1
 10
0.0
 20
0.0
450
        0
451
        0
460
0.0
461
0.0
452
        0
462
0.0
453
        0
470

  0
SPLINE
  5
BB
330
B5
100
AcDbEntity
  8
Livello 1
100
AcDbSpline
210
0.0
220
0.0
230
1.0
 70
     9
 71
     3
 72
    17
 73
    13
 74
     0
 42
0.000000001
 43
0.0000000001
 40
0.0
 40
0.0
 40
0.0
 40
0.0
 40
1.0
 40
1.0
 40
1.0
 40
2.0
 40
2.0
 40
2.0
 40
3.0
 40
3.0
 40
3.0
 40
4.0
 40
4.0
 40
4.0
 40
4.0
 10
7.824104680118626
 20
-9.132000730138873
 30
0.0
 10
7.852027179026576
 20
-9.057087128812117
 30
0.0
 10
7.886323104582237
 20
-8.921212562873863
 30
0.0
 10
7.900292966774926
 20
-8.828522268843213
 30
0.0
 10
7.900292966774926
 20
-8.828522268843213
 30
0.0
 10
8.02472981570215
 20
-8.815809866502641
 30
0.0
 10
8.02472981570215
 20
-8.815809866502641
 30
0.0
 10
7.995532631464658
 20
-8.923761933532947
 30
0.0
 10
7.939653182693906
 20
-9.064700789834516
 30
0.0
 10
7.904099797286128
 20
-9.124387069116473
 30
0.0
 10
7.904099797286128
 20
-9.124387069116473
 30
0.0
 10
7.824104680118626
 20
-9.132000730138873
 30
0.0
 10
7.824104680118626
 20
-9.132000730138873
 30
0.0
  0
HATCH
  5
BC
330
B5
100
AcDbEntity
  8
Livello 1
 62
   250
420
  1907995
440
 33554687
100
AcDbHatch
 10
0.0
 20
0.0
 30
0.0
210
0.0
220
0.0
230
1.0
  2
SOLID
 70
     1
 71
     1
 91
        1
 92
        1
 93
        1
 72
     4
 94
        3
 73
     0
 74
     0
 95
       17
 96
       13
 40
0.0
 40
0.0
 40
0.0
 40
0.0
 40
1.0
 40
1.0
 40
1.0
 40
2.0
 40
2.0
 40
2.0
 40
3.0
 40
3.0
 40
3.0
 40
4.0
 40
4.0
 40
4.0
 40
4.0
 10
7.824104680118626
 20
-9.132000730138873
 10
7.852027179026576
 20
-9.057087128812117
 10
7.886323104582237
 20
-8.921212562873863
 10
7.900292966774926
 20
-8.828522268843213
 10
7.900292966774926
 20
-8.828522268843213
 10
8.02472981570215
 20
-8.815809866502641
 10
8.02472981570215
 20
-8.815809866502641
 10
7.995532631464658
 20
-8.923761933532947
 10
7.939653182693906
 20
-9.064700789834516
 10
7.904099797286128
 20
-9.124387069116473
 10
7.904099797286128
 20
-9.124387069116473
 10
7.824104680118626
 20
-9.132000730138873
 10
7.824104680118626
 20
-9.132000730138873
 97
        0
 97
        1
330
BB
 75
     2
 76
     1
 98
        1
 10
0.0
 20
0.0
450
        0
451
        0
460
0.0
461
0.0
452
        0
462
0.0
453
        0
470

  0
SPLINE
  5
BD
330
B5
100
AcDbEntity
  8
Livello 1
100
AcDbSpline
210
0.0
220
0.0
230
1.0
 70
    11
 71
     3
 72
    50
 73
    46
 74
     0
 42
0.000000001
 43
0.0000000001
 40
0.0
 40
0.0
 40
0.0
 40
0.0
 40
1.0
 40
1.0
 40
1.0
 40
2.0
 40
2.0
 40
2.0
 40
3.0
 40
3.0
 40
3.0
 40
4.0
 40
4.0
 40
4.0
 40
5.0
 40
5.0
 40
5.0
 40
6.0
 40
6.0
 40
6.0
 40
7.0
 40
7.0
 40
7.0
 40
8.0
 40
8.0
 40
8.0
 40
9.0
 40
9.0
 40
9.0
 40
10.0
 40
10.0
 40
10.0
 40
11.0
 40
11.0
 40
11.0
 40
12.0
 40
12.0
 40
12.0
 40
13.0
 40
13.0
 40
13.0
 40
14.0
 40
14.0
 40
14.0
 40
15.0
 40
15.0
 40
15.0
 40
15.0
 10
8.616493867203512
 20
-8.244389103841678
 30
0.0
 10
8.616493867203512
 20
-8.244389103841678
 30
0.0
 10
8.301577688896827
 20
-8.244389103841678
 30
0.0
 10
8.301577688896827
 20
-8.244389103841678
 30
0.0
 10
8.301577688896827
 20
-8.244389103841678
 30
0.0
 10
8.26983113400025
 20
-8.456451956436232
 30
0.0
 10
8.26983113400025
 20
-8.456451956436232
 30
0.0
 10
8.288882512033682
 20
-8.453919811254575
 30
0.0
 10
8.30665920473757
 20
-8.451370440595487
 30
0.0
 10
8.337131074304606
 20
-8.451370440595487
 30
0.0
 10
8.400624184097758
 20
-8.451370440595487
 30
0.0
 10
8.464117293890915
 20
-8.465340302788177
 30
0.0
 10
8.514915226820923
 20
-8.495812172355213
 30
0.0
 10
8.579665796466192
 20
-8.532640243092531
 30
0.0
 10
8.633013100055286
 20
-8.603747013908089
 30
0.0
 10
8.633013100055286
 20
-8.707875024949766
 30
0.0
 10
8.633013100055286
 20
-8.869157170091739
 30
0.0
 10
8.504752195139436
 20
-8.98978718850776
 30
0.0
 10
8.325710582771003
 20
-8.98978718850776
 30
0.0
 10
8.235552433922013
 20
-8.98978718850776
 30
0.0
 10
8.159346921788287
 20
-8.964396834781469
 30
0.0
 10
8.119986705869306
 20
-8.938989255577752
 30
0.0
 10
8.119986705869306
 20
-8.938989255577752
 30
0.0
 10
8.147926430254685
 20
-8.853912622569508
 30
0.0
 10
8.147926430254685
 20
-8.853912622569508
 30
0.0
 10
8.182205130332921
 20
-8.874221460455055
 30
0.0
 10
8.249505070637276
 20
-8.899629039658773
 30
0.0
 10
8.324435897441459
 20
-8.899629039658773
 30
0.0
 10
8.429838593812679
 20
-8.899629039658773
 30
0.0
 10
8.519996742661666
 20
-8.831054414024873
 30
0.0
 10
8.519996742661666
 20
-8.720587427290338
 30
0.0
 10
8.518722057332125
 20
-8.613910045589577
 30
0.0
 10
8.447615286516567
 20
-8.537721758933276
 30
0.0
 10
8.282526310863396
 20
-8.537721758933276
 30
0.0
 10
8.235552433922013
 20
-8.537721758933276
 30
0.0
 10
8.198724363184693
 20
-8.542803274774021
 30
0.0
 10
8.168235268140232
 20
-8.546610105285221
 30
0.0
 10
8.168235268140232
 20
-8.546610105285221
 30
0.0
 10
8.221582571729326
 20
-8.150424124481491
 30
0.0
 10
8.221582571729326
 20
-8.150424124481491
 30
0.0
 10
8.221582571729326
 20
-8.150424124481491
 30
0.0
 10
8.616493867203512
 20
-8.150424124481491
 30
0.0
 10
8.616493867203512
 20
-8.150424124481491
 30
0.0
 10
8.616493867203512
 20
-8.150424124481491
 30
0.0
 10
8.616493867203512
 20
-8.244389103841678
 30
0.0
 10
8.616493867203512
 20
-8.244389103841678
 30
0.0
  0
HATCH
  5
BE
330
B5
100
AcDbEntity
  8
Livello 1
 62
   250
420
  1907995
440
 33554687
100
AcDbHatch
 10
0.0
 20
0.0
 30
0.0
210
0.0
220
0.0
230
1.0
  2
SOLID
 70
     1
 71
     1
 91
        1
 92
        1
 93
        1
 72
     4
 94
        3
 73
     0
 74
     0
 95
       50
 96
       46
 40
0.0
 40
0.0
 40
0.0
 40
0.0
 40
1.0
 40
1.0
 40
1.0
 40
2.0
 40
2.0
 40
2.0
 40
3.0
 40
3.0
 40
3.0
 40
4.0
 40
4.0
 40
4.0
 40
5.0
 40
5.0
 40
5.0
 40
6.0
 40
6.0
 40
6.0
 40
7.0
 40
7.0
 40
7.0
 40
8.0
 40
8.0
 40
8.0
 40
9.0
 40
9.0
 40
9.0
 40
10.0
 40
10.0
 40
10.0
 40
11.0
 40
11.0
 40
11.0
 40
12.0
 40
12.0
 40
12.0
 40
13.0
 40
13.0
 40
13.0
 40
14.0
 40
14.0
 40
14.0
 40
15.0
 40
15.0
 40
15.0
 40
15.0
 10
8.616493867203512
 20
-8.244389103841678
 10
8.616493867203512
 20
-8.244389103841678
 10
8.301577688896827
 20
-8.244389103841678
 10
8.301577688896827
 20
-8.244389103841678
 10
8.301577688896827
 20
-8.244389103841678
 10
8.26983113400025
 20
-8.456451956436232
 10
8.26983113400025
 20
-8.456451956436232
 10
8.288882512033682
 20
-8.453919811254575
 10
8.30665920473757
 20
-8.451370440595487
 10
8.337131074304606
 20
-8.451370440595487
 10
8.400624184097758
 20
-8.451370440595487
 10
8.464117293890915
 20
-8.465340302788177
 10
8.514915226820923
 20
-8.495812172355213
 10
8.579665796466192
 20
-8.532640243092531
 10
8.633013100055286
 20
-8.603747013908089
 10
8.633013100055286
 20
-8.707875024949766
 10
8.633013100055286
 20
-8.869157170091739
 10
8.504752195139436
 20
-8.98978718850776
 10
8.325710582771003
 20
-8.98978718850776
 10
8.235552433922013
 20
-8.98978718850776
 10
8.159346921788287
 20
-8.964396834781469
 10
8.119986705869306
 20
-8.938989255577752
 10
8.119986705869306
 20
-8.938989255577752
 10
8.147926430254685
 20
-8.853912622569508
 10
8.147926430254685
 20
-8.853912622569508
 10
8.182205130332921
 20
-8.874221460455055
 10
8.249505070637276
 20
-8.899629039658773
 10
8.324435897441459
 20
-8.899629039658773
 10
8.429838593812679
 20
-8.899629039658773
 10
8.519996742661666
 20
-8.831054414024873
 10
8.519996742661666
 20
-8.720587427290338
 10
8.518722057332125
 20
-8.613910045589577
 10
8.447615286516567
 20
-8.537721758933276
 10
8.282526310863396
 20
-8.537721758933276
 10
8.235552433922013
 20
-8.537721758933276
 10
8.198724363184693
 20
-8.542803274774021
 10
8.168235268140232
 20
-8.546610105285221
 10
8.168235268140232
 20
-8.546610105285221
 10
8.221582571729326
 20
-8.150424124481491
 10
8.221582571729326
 20
-8.150424124481491
 10
8.221582571729326
 20
-8.150424124481491
 10
8.616493867203512
 20
-8.150424124481491
 10
8.616493867203512
 20
-8.150424124481491
 10
8.616493867203512
 20
-8.150424124481491
 10
8.616493867203512
 20
-8.244389103841678
 10
8.616493867203512
 20
-8.244389103841678
 97
        0
 97
        1
330
BD
 75
     2
 76
     1
 98
        1
 10
0.0
 20
0.0
450
        0
451
        0
460
0.0
461
0.0
452
        0
462
0.0
453
        0
470

  0
ENDBLK
  5
B8
330
B5
100
AcDbEntity
  8
0
100
AcDbBlockEnd
  0
BLOCK
  5
C1
330
BF
100
AcDbEntity
  8
0
100
AcDbBlockBegin
  2
Block_6
 70
     0
 10
0.0
 20
0.0
 30
0.0
  3
Block_6
  1

  0
INSERT
  5
C4
330
BF
100
AcDbEntity
  8
Livello 1
100
AcDbBlockReference
  2
Block_7
 10
0.0
 20
0.0
 30
0.0
  0
ENDBLK
  5
C2
330
BF
100
AcDbEntity
  8
0
100
AcDbBlockEnd
  0
BLOCK
  5
C5
330
C3
100
AcDbEntity
  8
0
100
AcDbBlockBegin
  2
Block_7
 70
     0
 10
0.0
 20
0.0
 30
0.0
  3
Block_7
  1

  0
SPLINE
  5
C7
330
C3
100
AcDbEntity
  8
Livello 1
100
AcDbSpline
210
0.0
220
0.0
230
1.0
 70
    11
 71
     3
 72
    29
 73
    25
 74
     0
 42
0.000000001
 43
0.0000000001
 40
0.0
 40
0.0
 40
0.0
 40
0.0
 40
1.0
 40
1.0
 40
1.0
 40
2.0
 40
2.0
 40
2.0
 40
3.0
 40
3.0
 40
3.0
 40
4.0
 40
4.0
 40
4.0
 40
5.0
 40
5.0
 40
5.0
 40
6.0
 40
6.0
 40
6.0
 40
7.0
 40
7.0
 40
7.0
 40
8.0
 40
8.0
 40
8.0
 40
8.0
 10
13.60078911335327
 20
-9.875383433946083
 30
0.0
 10
13.60078911335327
 20
-9.875383433946083
 30
0.0
 10
13.59823974269419
 20
-9.875383433946083
 30
0.0
 10
13.59823974269419
 20
-9.875383433946083
 30
0.0
 10
13.59823974269419
 20
-9.875383433946083
 30
0.0
 10
13.45475151573353
 20
-9.952846405931929
 30
0.0
 10
13.45475151573353
 20
-9.952846405931929
 30
0.0
 10
13.45475151573353
 20
-9.952846405931929
 30
0.0
 10
13.43315076704101
 20
-9.867752547446254
 30
0.0
 10
13.43315076704101
 20
-9.867752547446254
 30
0.0
 10
13.43315076704101
 20
-9.867752547446254
 30
0.0
 10
13.61346706473899
 20
-9.771255422904408
 30
0.0
 10
13.61346706473899
 20
-9.771255422904408
 30
0.0
 10
13.61346706473899
 20
-9.771255422904408
 30
0.0
 10
13.70872395490615
 20
-9.771255422904408
 30
0.0
 10
13.70872395490615
 20
-9.771255422904408
 30
0.0
 10
13.70872395490615
 20
-9.771255422904408
 30
0.0
 10
13.70872395490615
 20
-10.59664862473799
 30
0.0
 10
13.70872395490615
 20
-10.59664862473799
 30
0.0
 10
13.70872395490615
 20
-10.59664862473799
 30
0.0
 10
13.60078911335327
 20
-10.59664862473799
 30
0.0
 10
13.60078911335327
 20
-10.59664862473799
 30
0.0
 10
13.60078911335327
 20
-10.59664862473799
 30
0.0
 10
13.60078911335327
 20
-9.875383433946083
 30
0.0
 10
13.60078911335327
 20
-9.875383433946083
 30
0.0
  0
HATCH
  5
C8
330
C3
100
AcDbEntity
  8
Livello 1
 62
   250
420
  1907995
440
 33554687
100
AcDbHatch
 10
0.0
 20
0.0
 30
0.0
210
0.0
220
0.0
230
1.0
  2
SOLID
 70
     1
 71
     1
 91
        1
 92
        1
 93
        1
 72
     4
 94
        3
 73
     0
 74
     0
 95
       29
 96
       25
 40
0.0
 40
0.0
 40
0.0
 40
0.0
 40
1.0
 40
1.0
 40
1.0
 40
2.0
 40
2.0
 40
2.0
 40
3.0
 40
3.0
 40
3.0
 40
4.0
 40
4.0
 40
4.0
 40
5.0
 40
5.0
 40
5.0
 40
6.0
 40
6.0
 40
6.0
 40
7.0
 40
7.0
 40
7.0
 40
8.0
 40
8.0
 40
8.0
 40
8.0
 10
13.60078911335327
 20
-9.875383433946083
 10
13.60078911335327
 20
-9.875383433946083
 10
13.59823974269419
 20
-9.875383433946083
 10
13.59823974269419
 20
-9.875383433946083
 10
13.59823974269419
 20
-9.875383433946083
 10
13.45475151573353
 20
-9.952846405931929
 10
13.45475151573353
 20
-9.952846405931929
 10
13.45475151573353
 20
-9.952846405931929
 10
13.43315076704101
 20
-9.867752547446254
 10
13.43315076704101
 20
-9.867752547446254
 10
13.43315076704101
 20
-9.867752547446254
 10
13.61346706473899
 20
-9.771255422904408
 10
13.61346706473899
 20
-9.771255422904408
 10
13.61346706473899
 20
-9.771255422904408
 10
13.70872395490615
 20
-9.771255422904408
 10
13.70872395490615
 20
-9.771255422904408
 10
13.70872395490615
 20
-9.771255422904408
 10
13.70872395490615
 20
-10.59664862473799
 10
13.70872395490615
 20
-10.59664862473799
 10
13.70872395490615
 20
-10.59664862473799
 10
13.60078911335327
 20
-10.59664862473799
 10
13.60078911335327
 20
-10.59664862473799
 10
13.60078911335327
 20
-10.59664862473799
 10
13.60078911335327
 20
-9.875383433946083
 10
13.60078911335327
 20
-9.875383433946083
 97
        0
 97
        1
330
C7
 75
     2
 76
     1
 98
        1
 10
0.0
 20
0.0
450
        0
451
        0
460
0.0
461
0.0
452
        0
462
0.0
453
        0
470

  0
SPLINE
  5
C9
330
C3
100
AcDbEntity
  8
Livello 1
100
AcDbSpline
210
0.0
220
0.0
230
1.0
 70
     9
 71
     3
 72
    59
 73
    55
 74
     0
 42
0.000000001
 43
0.0000000001
 40
0.0
 40
0.0
 40
0.0
 40
0.0
 40
1.0
 40
1.0
 40
1.0
 40
2.0
 40
2.0
 40
2.0
 40
3.0
 40
3.0
 40
3.0
 40
4.0
 40
4.0
 40
4.0
 40
5.0
 40
5.0
 40
5.0
 40
6.0
 40
6.0
 40
6.0
 40
7.0
 40
7.0
 40
7.0
 40
8.0
 40
8.0
 40
8.0
 40
9.0
 40
9.0
 40
9.0
 40
10.0
 40
10.0
 40
10.0
 40
11.0
 40
11.0
 40
11.0
 40
12.0
 40
12.0
 40
12.0
 40
13.0
 40
13.0
 40
13.0
 40
14.0
 40
14.0
 40
14.0
 40
15.0
 40
15.0
 40
15.0
 40
16.0
 40
16.0
 40
16.0
 40
17.0
 40
17.0
 40
17.0
 40
18.0
 40
18.0
 40
18.0
 40
18.0
 10
14.03638698650826
 20
-10.46838771982214
 30
0.0
 10
14.06811631592741
 20
-10.48871378318511
 30
0.0
 10
14.14177245740205
 20
-10.52046033808169
 30
0.0
 10
14.21925265486532
 20
-10.52046033808169
 30
0.0
 10
14.36274088182598
 20
-10.52046033808169
 30
0.0
 10
14.4071826135857
 20
-10.42902750390316
 30
0.0
 10
14.40590792825616
 20
-10.36045287826926
 30
0.0
 10
14.40463324292662
 20
-10.24490437569398
 30
0.0
 10
14.30052245736237
 20
-10.19538112809351
 30
0.0
 10
14.19258761580949
 20
-10.19538112809351
 30
0.0
 10
14.19258761580949
 20
-10.19538112809351
 30
0.0
 10
14.13036919134588
 20
-10.19538112809351
 30
0.0
 10
14.13036919134588
 20
-10.19538112809351
 30
0.0
 10
14.13036919134588
 20
-10.19538112809351
 30
0.0
 10
14.13036919134588
 20
-10.11156195493738
 30
0.0
 10
14.13036919134588
 20
-10.11156195493738
 30
0.0
 10
14.13036919134588
 20
-10.11156195493738
 30
0.0
 10
14.19258761580949
 20
-10.11156195493738
 30
0.0
 10
14.19258761580949
 20
-10.11156195493738
 30
0.0
 10
14.27385741830653
 20
-10.11156195493738
 30
0.0
 10
14.37669351854124
 20
-10.06966959383674
 30
0.0
 10
14.37669351854124
 20
-9.971880558487931
 30
0.0
 10
14.37669351854124
 20
-9.905855303513119
 30
0.0
 10
14.3348011574406
 20
-9.847443709560707
 30
0.0
 10
14.23193060625104
 20
-9.847443709560707
 30
0.0
 10
14.16592257675366
 20
-9.847443709560707
 30
0.0
 10
14.1024294669605
 20
-9.876640893798198
 30
0.0
 10
14.06687608155272
 20
-9.902048473001915
 30
0.0
 10
14.06687608155272
 20
-9.902048473001915
 30
0.0
 10
14.0376616718378
 20
-9.820778670504873
 30
0.0
 10
14.0376616718378
 20
-9.820778670504873
 30
0.0
 10
14.08082871826798
 20
-9.789032115608296
 30
0.0
 10
14.16464789142411
 20
-9.757285560711721
 30
0.0
 10
14.25353135494356
 20
-9.757285560711721
 30
0.0
 10
14.41607095993765
 20
-9.757285560711721
 30
0.0
 10
14.48972710141229
 20
-9.853799910730993
 30
0.0
 10
14.48972710141229
 20
-9.954103865784043
 30
0.0
 10
14.48972710141229
 20
-10.03918049879229
 30
0.0
 10
14.43891194300485
 20
-10.11156195493738
 30
0.0
 10
14.33735052809969
 20
-10.1483900256747
 30
0.0
 10
14.33735052809969
 20
-10.1483900256747
 30
0.0
 10
14.33735052809969
 20
-10.15093939633379
 30
0.0
 10
14.33735052809969
 20
-10.15093939633379
 30
0.0
 10
14.43891194300485
 20
-10.17124823421934
 30
0.0
 10
14.52145643083144
 20
-10.24743652087564
 30
0.0
 10
14.52145643083144
 20
-10.36300224892834
 30
0.0
 10
14.52145643083144
 20
-10.49505275887797
 30
0.0
 10
14.41862033059673
 20
-10.61061848693068
 30
0.0
 10
14.22052734019487
 20
-10.61061848693068
 30
0.0
 10
14.12781982068679
 20
-10.61061848693068
 30
0.0
 10
14.04655001818975
 20
-10.58140407721576
 30
0.0
 10
14.0058978914638
 20
-10.55473903815992
 30
0.0
 10
14.0058978914638
 20
-10.55473903815992
 30
0.0
 10
14.03638698650826
 20
-10.46838771982214
 30
0.0
 10
14.03638698650826
 20
-10.46838771982214
 30
0.0
  0
HATCH
  5
CA
330
C3
100
AcDbEntity
  8
Livello 1
 62
   250
420
  1907995
440
 33554687
100
AcDbHatch
 10
0.0
 20
0.0
 30
0.0
210
0.0
220
0.0
230
1.0
  2
SOLID
 70
     1
 71
     1
 91
        1
 92
        1
 93
        1
 72
     4
 94
        3
 73
     0
 74
     0
 95
       59
 96
       55
 40
0.0
 40
0.0
 40
0.0
 40
0.0
 40
1.0
 40
1.0
 40
1.0
 40
2.0
 40
2.0
 40
2.0
 40
3.0
 40
3.0
 40
3.0
 40
4.0
 40
4.0
 40
4.0
 40
5.0
 40
5.0
 40
5.0
 40
6.0
 40
6.0
 40
6.0
 40
7.0
 40
7.0
 40
7.0
 40
8.0
 40
8.0
 40
8.0
 40
9.0
 40
9.0
 40
9.0
 40
10.0
 40
10.0
 40
10.0
 40
11.0
 40
11.0
 40
11.0
 40
12.0
 40
12.0
 40
12.0
 40
13.0
 40
13.0
 40
13.0
 40
14.0
 40
14.0
 40
14.0
 40
15.0
 40
15.0
 40
15.0
 40
16.0
 40
16.0
 40
16.0
 40
17.0
 40
17.0
 40
17.0
 40
18.0
 40
18.0
 40
18.0
 40
18.0
 10
14.03638698650826
 20
-10.46838771982214
 10
14.06811631592741
 20
-10.48871378318511
 10
14.14177245740205
 20
-10.52046033808169
 10
14.21925265486532
 20
-10.52046033808169
 10
14.36274088182598
 20
-10.52046033808169
 10
14.4071826135857
 20
-10.42902750390316
 10
14.40590792825616
 20
-10.36045287826926
 10
14.40463324292662
 20
-10.24490437569398
 10
14.30052245736237
 20
-10.19538112809351
 10
14.19258761580949
 20
-10.19538112809351
 10
14.19258761580949
 20
-10.19538112809351
 10
14.13036919134588
 20
-10.19538112809351
 10
14.13036919134588
 20
-10.19538112809351
 10
14.13036919134588
 20
-10.19538112809351
 10
14.13036919134588
 20
-10.11156195493738
 10
14.13036919134588
 20
-10.11156195493738
 10
14.13036919134588
 20
-10.11156195493738
 10
14.19258761580949
 20
-10.11156195493738
 10
14.19258761580949
 20
-10.11156195493738
 10
14.27385741830653
 20
-10.11156195493738
 10
14.37669351854124
 20
-10.06966959383674
 10
14.37669351854124
 20
-9.971880558487931
 10
14.37669351854124
 20
-9.905855303513119
 10
14.3348011574406
 20
-9.847443709560707
 10
14.23193060625104
 20
-9.847443709560707
 10
14.16592257675366
 20
-9.847443709560707
 10
14.1024294669605
 20
-9.876640893798198
 10
14.06687608155272
 20
-9.902048473001915
 10
14.06687608155272
 20
-9.902048473001915
 10
14.0376616718378
 20
-9.820778670504873
 10
14.0376616718378
 20
-9.820778670504873
 10
14.08082871826798
 20
-9.789032115608296
 10
14.16464789142411
 20
-9.757285560711721
 10
14.25353135494356
 20
-9.757285560711721
 10
14.41607095993765
 20
-9.757285560711721
 10
14.48972710141229
 20
-9.853799910730993
 10
14.48972710141229
 20
-9.954103865784043
 10
14.48972710141229
 20
-10.03918049879229
 10
14.43891194300485
 20
-10.11156195493738
 10
14.33735052809969
 20
-10.1483900256747
 10
14.33735052809969
 20
-10.1483900256747
 10
14.33735052809969
 20
-10.15093939633379
 10
14.33735052809969
 20
-10.15093939633379
 10
14.43891194300485
 20
-10.17124823421934
 10
14.52145643083144
 20
-10.24743652087564
 10
14.52145643083144
 20
-10.36300224892834
 10
14.52145643083144
 20
-10.49505275887797
 10
14.41862033059673
 20
-10.61061848693068
 10
14.22052734019487
 20
-10.61061848693068
 10
14.12781982068679
 20
-10.61061848693068
 10
14.04655001818975
 20
-10.58140407721576
 10
14.0058978914638
 20
-10.55473903815992
 10
14.0058978914638
 20
-10.55473903815992
 10
14.03638698650826
 20
-10.46838771982214
 10
14.03638698650826
 20
-10.46838771982214
 97
        0
 97
        1
330
C9
 75
     2
 76
     1
 98
        1
 10
0.0
 20
0.0
450
        0
451
        0
460
0.0
461
0.0
452
        0
462
0.0
453
        0
470

  0
ENDBLK
  5
C6
330
C3
100
AcDbEntity
  8
0
100
AcDbBlockEnd
  0
BLOCK
  5
CD
330
CB
100
AcDbEntity
  8
0
100
AcDbBlockBegin
  2
Block_8
 70
     0
 10
0.0
 20
0.0
 30
0.0
  3
Block_8
  1

  0
INSERT
  5
D0
330
CB
100
AcDbEntity
  8
Livello 1
100
AcDbBlockReference
  2
Block_9
 10
0.0
 20
0.0
 30
0.0
  0
ENDBLK
  5
CE
330
CB
100
AcDbEntity
  8
0
100
AcDbBlockEnd
  0
BLOCK
  5
D1
330
CF
100
AcDbEntity
  8
0
100
AcDbBlockBegin
  2
Block_9
 70
     0
 10
0.0
 20
0.0
 30
0.0
  3
Block_9
  1

  0
SPLINE
  5
D3
330
CF
100
AcDbEntity
  8
Livello 1
100
AcDbSpline
210
0.0
220
0.0
230
1.0
 70
     9
 71
     3
 72
    59
 73
    55
 74
     0
 42
0.000000001
 43
0.0000000001
 40
0.0
 40
0.0
 40
0.0
 40
0.0
 40
1.0
 40
1.0
 40
1.0
 40
2.0
 40
2.0
 40
2.0
 40
3.0
 40
3.0
 40
3.0
 40
4.0
 40
4.0
 40
4.0
 40
5.0
 40
5.0
 40
5.0
 40
6.0
 40
6.0
 40
6.0
 40
7.0
 40
7.0
 40
7.0
 40
8.0
 40
8.0
 40
8.0
 40
9.0
 40
9.0
 40
9.0
 40
10.0
 40
10.0
 40
10.0
 40
11.0
 40
11.0
 40
11.0
 40
12.0
 40
12.0
 40
12.0
 40
13.0
 40
13.0
 40
13.0
 40
14.0
 40
14.0
 40
14.0
 40
15.0
 40
15.0
 40
15.0
 40
16.0
 40
16.0
 40
16.0
 40
17.0
 40
17.0
 40
17.0
 40
18.0
 40
18.0
 40
18.0
 40
18.0
 10
16.23439235705251
 20
-10.46838771982214
 30
0.0
 10
16.26615613742651
 20
-10.48871378318511
 30
0.0
 10
16.33981227890116
 20
-10.52046033808169
 30
0.0
 10
16.41725802540957
 20
-10.52046033808169
 30
0.0
 10
16.56074625237023
 20
-10.52046033808169
 30
0.0
 10
16.60518798412995
 20
-10.42902750390316
 30
0.0
 10
16.60394774975526
 20
-10.36045287826926
 30
0.0
 10
16.60267306442572
 20
-10.24490437569398
 30
0.0
 10
16.49852782790661
 20
-10.19538112809351
 30
0.0
 10
16.39059298635373
 20
-10.19538112809351
 30
0.0
 10
16.39059298635373
 20
-10.19538112809351
 30
0.0
 10
16.32837456189012
 20
-10.19538112809351
 30
0.0
 10
16.32837456189012
 20
-10.19538112809351
 30
0.0
 10
16.32837456189012
 20
-10.19538112809351
 30
0.0
 10
16.32837456189012
 20
-10.11156195493738
 30
0.0
 10
16.32837456189012
 20
-10.11156195493738
 30
0.0
 10
16.32837456189012
 20
-10.11156195493738
 30
0.0
 10
16.39059298635373
 20
-10.11156195493738
 30
0.0
 10
16.39059298635373
 20
-10.11156195493738
 30
0.0
 10
16.47186278885078
 20
-10.11156195493738
 30
0.0
 10
16.57473334004034
 20
-10.06966959383674
 30
0.0
 10
16.57473334004034
 20
-9.971880558487931
 30
0.0
 10
16.57473334004034
 20
-9.905855303513119
 30
0.0
 10
16.53280652798485
 20
-9.847443709560707
 30
0.0
 10
16.42997042775014
 20
-9.847443709560707
 30
0.0
 10
16.3639279472979
 20
-9.847443709560707
 30
0.0
 10
16.30043483750475
 20
-9.876640893798198
 30
0.0
 10
16.26488145209697
 20
-9.902048473001915
 30
0.0
 10
16.26488145209697
 20
-9.902048473001915
 30
0.0
 10
16.23566704238205
 20
-9.820778670504873
 30
0.0
 10
16.23566704238205
 20
-9.820778670504873
 30
0.0
 10
16.27886853976709
 20
-9.789032115608296
 30
0.0
 10
16.36265326196836
 20
-9.757285560711721
 30
0.0
 10
16.45153672548781
 20
-9.757285560711721
 30
0.0
 10
16.61407633048189
 20
-9.757285560711721
 30
0.0
 10
16.68773247195654
 20
-9.853799910730993
 30
0.0
 10
16.68773247195654
 20
-9.954103865784043
 30
0.0
 10
16.68773247195654
 20
-10.03918049879229
 30
0.0
 10
16.63695176450395
 20
-10.11156195493738
 30
0.0
 10
16.53535589864394
 20
-10.1483900256747
 30
0.0
 10
16.53535589864394
 20
-10.1483900256747
 30
0.0
 10
16.53535589864394
 20
-10.15093939633379
 30
0.0
 10
16.53535589864394
 20
-10.15093939633379
 30
0.0
 10
16.63695176450395
 20
-10.17124823421934
 30
0.0
 10
16.71949625233054
 20
-10.24743652087564
 30
0.0
 10
16.71949625233054
 20
-10.36300224892834
 30
0.0
 10
16.71949625233054
 20
-10.49505275887797
 30
0.0
 10
16.61662570114098
 20
-10.61061848693068
 30
0.0
 10
16.41853271073911
 20
-10.61061848693068
 30
0.0
 10
16.32582519123104
 20
-10.61061848693068
 30
0.0
 10
16.244555388734
 20
-10.58140407721576
 30
0.0
 10
16.2039377129629
 20
-10.55473903815992
 30
0.0
 10
16.2039377129629
 20
-10.55473903815992
 30
0.0
 10
16.23439235705251
 20
-10.46838771982214
 30
0.0
 10
16.23439235705251
 20
-10.46838771982214
 30
0.0
  0
HATCH
  5
D4
330
CF
100
AcDbEntity
  8
Livello 1
 62
   250
420
  1907995
440
 33554687
100
AcDbHatch
 10
0.0
 20
0.0
 30
0.0
210
0.0
220
0.0
230
1.0
  2
SOLID
 70
     1
 71
     1
 91
        1
 92
        1
 93
        1
 72
     4
 94
        3
 73
     0
 74
     0
 95
       59
 96
       55
 40
0.0
 40
0.0
 40
0.0
 40
0.0
 40
1.0
 40
1.0
 40
1.0
 40
2.0
 40
2.0
 40
2.0
 40
3.0
 40
3.0
 40
3.0
 40
4.0
 40
4.0
 40
4.0
 40
5.0
 40
5.0
 40
5.0
 40
6.0
 40
6.0
 40
6.0
 40
7.0
 40
7.0
 40
7.0
 40
8.0
 40
8.0
 40
8.0
 40
9.0
 40
9.0
 40
9.0
 40
10.0
 40
10.0
 40
10.0
 40
11.0
 40
11.0
 40
11.0
 40
12.0
 40
12.0
 40
12.0
 40
13.0
 40
13.0
 40
13.0
 40
14.0
 40
14.0
 40
14.0
 40
15.0
 40
15.0
 40
15.0
 40
16.0
 40
16.0
 40
16.0
 40
17.0
 40
17.0
 40
17.0
 40
18.0
 40
18.0
 40
18.0
 40
18.0
 10
16.23439235705251
 20
-10.46838771982214
 10
16.26615613742651
 20
-10.48871378318511
 10
16.33981227890116
 20
-10.52046033808169
 10
16.41725802540957
 20
-10.52046033808169
 10
16.56074625237023
 20
-10.52046033808169
 10
16.60518798412995
 20
-10.42902750390316
 10
16.60394774975526
 20
-10.36045287826926
 10
16.60267306442572
 20
-10.24490437569398
 10
16.49852782790661
 20
-10.19538112809351
 10
16.39059298635373
 20
-10.19538112809351
 10
16.39059298635373
 20
-10.19538112809351
 10
16.32837456189012
 20
-10.19538112809351
 10
16.32837456189012
 20
-10.19538112809351
 10
16.32837456189012
 20
-10.19538112809351
 10
16.32837456189012
 20
-10.11156195493738
 10
16.32837456189012
 20
-10.11156195493738
 10
16.32837456189012
 20
-10.11156195493738
 10
16.39059298635373
 20
-10.11156195493738
 10
16.39059298635373
 20
-10.11156195493738
 10
16.47186278885078
 20
-10.11156195493738
 10
16.57473334004034
 20
-10.06966959383674
 10
16.57473334004034
 20
-9.971880558487931
 10
16.57473334004034
 20
-9.905855303513119
 10
16.53280652798485
 20
-9.847443709560707
 10
16.42997042775014
 20
-9.847443709560707
 10
16.3639279472979
 20
-9.847443709560707
 10
16.30043483750475
 20
-9.876640893798198
 10
16.26488145209697
 20
-9.902048473001915
 10
16.26488145209697
 20
-9.902048473001915
 10
16.23566704238205
 20
-9.820778670504873
 10
16.23566704238205
 20
-9.820778670504873
 10
16.27886853976709
 20
-9.789032115608296
 10
16.36265326196836
 20
-9.757285560711721
 10
16.45153672548781
 20
-9.757285560711721
 10
16.61407633048189
 20
-9.757285560711721
 10
16.68773247195654
 20
-9.853799910730993
 10
16.68773247195654
 20
-9.954103865784043
 10
16.68773247195654
 20
-10.03918049879229
 10
16.63695176450395
 20
-10.11156195493738
 10
16.53535589864394
 20
-10.1483900256747
 10
16.53535589864394
 20
-10.1483900256747
 10
16.53535589864394
 20
-10.15093939633379
 10
16.53535589864394
 20
-10.15093939633379
 10
16.63695176450395
 20
-10.17124823421934
 10
16.71949625233054
 20
-10.24743652087564
 10
16.71949625233054
 20
-10.36300224892834
 10
16.71949625233054
 20
-10.49505275887797
 10
16.61662570114098
 20
-10.61061848693068
 10
16.41853271073911
 20
-10.61061848693068
 10
16.32582519123104
 20
-10.61061848693068
 10
16.244555388734
 20
-10.58140407721576
 10
16.2039377129629
 20
-10.55473903815992
 10
16.2039377129629
 20
-10.55473903815992
 10
16.23439235705251
 20
-10.46838771982214
 10
16.23439235705251
 20
-10.46838771982214
 97
        0
 97
        1
330
D3
 75
     2
 76
     1
 98
        1
 10
0.0
 20
0.0
450
        0
451
        0
460
0.0
461
0.0
452
        0
462
0.0
453
        0
470

  0
SPLINE
  5
D5
330
CF
100
AcDbEntity
  8
Livello 1
100
AcDbSpline
210
0.0
220
0.0
230
1.0
 70
     9
 71
     3
 72
    17
 73
    13
 74
     0
 42
0.000000001
 43
0.0000000001
 40
0.0
 40
0.0
 40
0.0
 40
0.0
 40
1.0
 40
1.0
 40
1.0
 40
2.0
 40
2.0
 40
2.0
 40
3.0
 40
3.0
 40
3.0
 40
4.0
 40
4.0
 40
4.0
 40
4.0
 10
16.82240125447495
 20
-10.75283202856179
 30
0.0
 10
16.85034097886033
 20
-10.67791842723503
 30
0.0
 10
16.88461967893857
 20
-10.54204386129678
 30
0.0
 10
16.89860676660868
 20
-10.44935356726613
 30
0.0
 10
16.89860676660868
 20
-10.44935356726613
 30
0.0
 10
17.0230436155359
 20
-10.43664116492556
 30
0.0
 10
17.0230436155359
 20
-10.43664116492556
 30
0.0
 10
16.99382920582098
 20
-10.54459323195586
 30
0.0
 10
16.93794975705023
 20
-10.68553208825743
 30
0.0
 10
16.90239637164246
 20
-10.74521836753939
 30
0.0
 10
16.90239637164246
 20
-10.74521836753939
 30
0.0
 10
16.82240125447495
 20
-10.75283202856179
 30
0.0
 10
16.82240125447495
 20
-10.75283202856179
 30
0.0
  0
HATCH
  5
D6
330
CF
100
AcDbEntity
  8
Livello 1
 62
   250
420
  1907995
440
 33554687
100
AcDbHatch
 10
0.0
 20
0.0
 30
0.0
210
0.0
220
0.0
230
1.0
  2
SOLID
 70
     1
 71
     1
 91
        1
 92
        1
 93
        1
 72
     4
 94
        3
 73
     0
 74
     0
 95
       17
 96
       13
 40
0.0
 40
0.0
 40
0.0
 40
0.0
 40
1.0
 40
1.0
 40
1.0
 40
2.0
 40
2.0
 40
2.0
 40
3.0
 40
3.0
 40
3.0
 40
4.0
 40
4.0
 40
4.0
 40
4.0
 10
16.82240125447495
 20
-10.75283202856179
 10
16.85034097886033
 20
-10.67791842723503
 10
16.88461967893857
 20
-10.54204386129678
 10
16.89860676660868
 20
-10.44935356726613
 10
16.89860676660868
 20
-10.44935356726613
 10
17.0230436155359
 20
-10.43664116492556
 10
17.0230436155359
 20
-10.43664116492556
 10
16.99382920582098
 20
-10.54459323195586
 10
16.93794975705023
 20
-10.68553208825743
 10
16.90239637164246
 20
-10.74521836753939
 10
16.90239637164246
 20
-10.74521836753939
 10
16.82240125447495
 20
-10.75283202856179
 10
16.82240125447495
 20
-10.75283202856179
 97
        0
 97
        1
330
D5
 75
     2
 76
     1
 98
        1
 10
0.0
 20
0.0
450
        0
451
        0
460
0.0
461
0.0
452
        0
462
0.0
453
        0
470

  0
SPLINE
  5
D7
330
CF
100
AcDbEntity
  8
Livello 1
100
AcDbSpline
210
0.0
220
0.0
230
1.0
 70
    11
 71
     3
 72
    50
 73
    46
 74
     0
 42
0.000000001
 43
0.0000000001
 40
0.0
 40
0.0
 40
0.0
 40
0.0
 40
1.0
 40
1.0
 40
1.0
 40
2.0
 40
2.0
 40
2.0
 40
3.0
 40
3.0
 40
3.0
 40
4.0
 40
4.0
 40
4.0
 40
5.0
 40
5.0
 40
5.0
 40
6.0
 40
6.0
 40
6.0
 40
7.0
 40
7.0
 40
7.0
 40
8.0
 40
8.0
 40
8.0
 40
9.0
 40
9.0
 40
9.0
 40
10.0
 40
10.0
 40
10.0
 40
11.0
 40
11.0
 40
11.0
 40
12.0
 40
12.0
 40
12.0
 40
13.0
 40
13.0
 40
13.0
 40
14.0
 40
14.0
 40
14.0
 40
15.0
 40
15.0
 40
15.0
 40
15.0
 10
17.61480766703727
 20
-9.865220402264595
 30
0.0
 10
17.61480766703727
 20
-9.865220402264595
 30
0.0
 10
17.29989148873058
 20
-9.865220402264595
 30
0.0
 10
17.29989148873058
 20
-9.865220402264595
 30
0.0
 10
17.29989148873058
 20
-9.865220402264595
 30
0.0
 10
17.26812770835658
 20
-10.07728325485915
 30
0.0
 10
17.26812770835658
 20
-10.07728325485915
 30
0.0
 10
17.28717908639001
 20
-10.07475110967749
 30
0.0
 10
17.3049557790939
 20
-10.0722017390184
 30
0.0
 10
17.33544487413836
 20
-10.0722017390184
 30
0.0
 10
17.39893798393151
 20
-10.0722017390184
 30
0.0
 10
17.46243109372467
 20
-10.08617160121109
 30
0.0
 10
17.51321180117725
 20
-10.11664347077813
 30
0.0
 10
17.57797959629995
 20
-10.15347154151545
 30
0.0
 10
17.63130967441161
 20
-10.22457831233101
 30
0.0
 10
17.63130967441161
 20
-10.32870632337268
 30
0.0
 10
17.63130967441161
 20
-10.48998846851465
 30
0.0
 10
17.50304876949576
 20
-10.61061848693068
 30
0.0
 10
17.32400715712733
 20
-10.61061848693068
 30
0.0
 10
17.23384900827834
 20
-10.61061848693068
 30
0.0
 10
17.15764349614461
 20
-10.58522813320438
 30
0.0
 10
17.11830050570306
 20
-10.55982055400067
 30
0.0
 10
17.11830050570306
 20
-10.55982055400067
 30
0.0
 10
17.14624023008844
 20
-10.47474392099242
 30
0.0
 10
17.14624023008844
 20
-10.47474392099242
 30
0.0
 10
17.18051893016667
 20
-10.49505275887797
 30
0.0
 10
17.2478016449936
 20
-10.52046033808169
 30
0.0
 10
17.32273247179779
 20
-10.52046033808169
 30
0.0
 10
17.42815239364643
 20
-10.52046033808169
 30
0.0
 10
17.51831054249542
 20
-10.45188571244779
 30
0.0
 10
17.51831054249542
 20
-10.34141872571325
 30
0.0
 10
17.51703585716588
 20
-10.23474134401249
 30
0.0
 10
17.44592908635032
 20
-10.15855305735619
 30
0.0
 10
17.28084011069715
 20
-10.15855305735619
 30
0.0
 10
17.23384900827834
 20
-10.15855305735619
 30
0.0
 10
17.19702093754102
 20
-10.16363457319694
 30
0.0
 10
17.16653184249656
 20
-10.16744140370814
 30
0.0
 10
17.16653184249656
 20
-10.16744140370814
 30
0.0
 10
17.21989637156308
 20
-9.771255422904408
 30
0.0
 10
17.21989637156308
 20
-9.771255422904408
 30
0.0
 10
17.21989637156308
 20
-9.771255422904408
 30
0.0
 10
17.61480766703727
 20
-9.771255422904408
 30
0.0
 10
17.61480766703727
 20
-9.771255422904408
 30
0.0
 10
17.61480766703727
 20
-9.771255422904408
 30
0.0
 10
17.61480766703727
 20
-9.865220402264595
 30
0.0
 10
17.61480766703727
 20
-9.865220402264595
 30
0.0
  0
HATCH
  5
D8
330
CF
100
AcDbEntity
  8
Livello 1
 62
   250
420
  1907995
440
 33554687
100
AcDbHatch
 10
0.0
 20
0.0
 30
0.0
210
0.0
220
0.0
230
1.0
  2
SOLID
 70
     1
 71
     1
 91
        1
 92
        1
 93
        1
 72
     4
 94
        3
 73
     0
 74
     0
 95
       50
 96
       46
 40
0.0
 40
0.0
 40
0.0
 40
0.0
 40
1.0
 40
1.0
 40
1.0
 40
2.0
 40
2.0
 40
2.0
 40
3.0
 40
3.0
 40
3.0
 40
4.0
 40
4.0
 40
4.0
 40
5.0
 40
5.0
 40
5.0
 40
6.0
 40
6.0
 40
6.0
 40
7.0
 40
7.0
 40
7.0
 40
8.0
 40
8.0
 40
8.0
 40
9.0
 40
9.0
 40
9.0
 40
10.0
 40
10.0
 40
10.0
 40
11.0
 40
11.0
 40
11.0
 40
12.0
 40
12.0
 40
12.0
 40
13.0
 40
13.0
 40
13.0
 40
14.0
 40
14.0
 40
14.0
 40
15.0
 40
15.0
 40
15.0
 40
15.0
 10
17.61480766703727
 20
-9.865220402264595
 10
17.61480766703727
 20
-9.865220402264595
 10
17.29989148873058
 20
-9.865220402264595
 10
17.29989148873058
 20
-9.865220402264595
 10
17.29989148873058
 20
-9.865220402264595
 10
17.26812770835658
 20
-10.07728325485915
 10
17.26812770835658
 20
-10.07728325485915
 10
17.28717908639001
 20
-10.07475110967749
 10
17.3049557790939
 20
-10.0722017390184
 10
17.33544487413836
 20
-10.0722017390184
 10
17.39893798393151
 20
-10.0722017390184
 10
17.46243109372467
 20
-10.08617160121109
 10
17.51321180117725
 20
-10.11664347077813
 10
17.57797959629995
 20
-10.15347154151545
 10
17.63130967441161
 20
-10.22457831233101
 10
17.63130967441161
 20
-10.32870632337268
 10
17.63130967441161
 20
-10.48998846851465
 10
17.50304876949576
 20
-10.61061848693068
 10
17.32400715712733
 20
-10.61061848693068
 10
17.23384900827834
 20
-10.61061848693068
 10
17.15764349614461
 20
-10.58522813320438
 10
17.11830050570306
 20
-10.55982055400067
 10
17.11830050570306
 20
-10.55982055400067
 10
17.14624023008844
 20
-10.47474392099242
 10
17.14624023008844
 20
-10.47474392099242
 10
17.18051893016667
 20
-10.49505275887797
 10
17.2478016449936
 20
-10.52046033808169
 10
17.32273247179779
 20
-10.52046033808169
 10
17.42815239364643
 20
-10.52046033808169
 10
17.51831054249542
 20
-10.45188571244779
 10
17.51831054249542
 20
-10.34141872571325
 10
17.51703585716588
 20
-10.23474134401249
 10
17.44592908635032
 20
-10.15855305735619
 10
17.28084011069715
 20
-10.15855305735619
 10
17.23384900827834
 20
-10.15855305735619
 10
17.19702093754102
 20
-10.16363457319694
 10
17.16653184249656
 20
-10.16744140370814
 10
17.16653184249656
 20
-10.16744140370814
 10
17.21989637156308
 20
-9.771255422904408
 10
17.21989637156308
 20
-9.771255422904408
 10
17.21989637156308
 20
-9.771255422904408
 10
17.61480766703727
 20
-9.771255422904408
 10
17.61480766703727
 20
-9.771255422904408
 10
17.61480766703727
 20
-9.771255422904408
 10
17.61480766703727
 20
-9.865220402264595
 10
17.61480766703727
 20
-9.865220402264595
 97
        0
 97
        1
330
D7
 75
     2
 76
     1
 98
        1
 10
0.0
 20
0.0
450
        0
451
        0
460
0.0
461
0.0
452
        0
462
0.0
453
        0
470

  0
ENDBLK
  5
D2
330
CF
100
AcDbEntity
  8
0
100
AcDbBlockEnd
  0
BLOCK
  5
DB
330
D9
100
AcDbEntity
  8
0
100
AcDbBlockBegin
  2
Block_10
 70
     0
 10
0.0
 20
0.0
 30
0.0
  3
Block_10
  1

  0
INSERT
  5
DE
330
D9
100
AcDbEntity
  8
Livello 1
100
AcDbBlockReference
  2
Block_11
 10
0.0
 20
0.0
 30
0.0
  0
ENDBLK
  5
DC
330
D9
100
AcDbEntity
  8
0
100
AcDbBlockEnd
  0
BLOCK
  5
DF
330
DD
100
AcDbEntity
  8
0
100
AcDbBlockBegin
  2
Block_11
 70
     0
 10
0.0
 20
0.0
 30
0.0
  3
Block_11
  1

  0
SPLINE
  5
E1
330
DD
100
AcDbEntity
  8
Livello 1
100
AcDbSpline
210
0.0
220
0.0
230
1.0
 70
    11
 71
     3
 72
    47
 73
    43
 74
     0
 42
0.000000001
 43
0.0000000001
 40
0.0
 40
0.0
 40
0.0
 40
0.0
 40
1.0
 40
1.0
 40
1.0
 40
2.0
 40
2.0
 40
2.0
 40
3.0
 40
3.0
 40
3.0
 40
4.0
 40
4.0
 40
4.0
 40
5.0
 40
5.0
 40
5.0
 40
6.0
 40
6.0
 40
6.0
 40
7.0
 40
7.0
 40
7.0
 40
8.0
 40
8.0
 40
8.0
 40
9.0
 40
9.0
 40
9.0
 40
10.0
 40
10.0
 40
10.0
 40
11.0
 40
11.0
 40
11.0
 40
12.0
 40
12.0
 40
12.0
 40
13.0
 40
13.0
 40
13.0
 40
14.0
 40
14.0
 40
14.0
 40
14.0
 10
18.9218424431862
 20
-6.695284693421664
 30
0.0
 10
18.9218424431862
 20
-6.695284693421664
 30
0.0
 10
18.85328504302973
 20
-6.695284693421664
 30
0.0
 10
18.85328504302973
 20
-6.695284693421664
 30
0.0
 10
18.85328504302973
 20
-6.695284693421664
 30
0.0
 10
18.76819118454406
 20
-6.607658689754334
 30
0.0
 10
18.76819118454406
 20
-6.607658689754334
 30
0.0
 10
18.56754882348311
 20
-6.396870522489322
 30
0.0
 10
18.46088866725978
 20
-6.30163085779959
 30
0.0
 10
18.33645181833255
 20
-6.300356172470048
 30
0.0
 10
18.25263264517642
 20
-6.300356172470048
 30
0.0
 10
18.175186898668
 20
-6.340991073718571
 30
0.0
 10
18.175186898668
 20
-6.464170462793679
 30
0.0
 10
18.175186898668
 20
-6.539084064120436
 30
0.0
 10
18.21328965473487
 20
-6.601302488584048
 30
0.0
 10
18.24501898415402
 20
-6.639405244650911
 30
0.0
 10
18.24501898415402
 20
-6.639405244650911
 30
0.0
 10
18.16629855231606
 20
-6.67495863005869
 30
0.0
 10
18.16629855231606
 20
-6.67495863005869
 30
0.0
 10
18.11803276456771
 20
-6.617821721435821
 30
0.0
 10
18.08247937915993
 20
-6.536551918938777
 30
0.0
 10
18.08247937915993
 20
-6.441312254249045
 30
0.0
 10
18.08247937915993
 20
-6.263528101732727
 30
0.0
 10
18.20440130838292
 20
-6.188614500405972
 30
0.0
 10
18.32249918161729
 20
-6.188614500405972
 30
0.0
 10
18.47487575492989
 20
-6.188614500405972
 30
0.0
 10
18.59803791852757
 20
-6.299081487140504
 30
0.0
 10
18.76567626483983
 20
-6.473058809145622
 30
0.0
 10
18.76567626483983
 20
-6.473058809145622
 30
0.0
 10
18.8266200039739
 20
-6.539084064120436
 30
0.0
 10
18.8266200039739
 20
-6.539084064120436
 30
0.0
 10
18.8266200039739
 20
-6.539084064120436
 30
0.0
 10
18.82916937463298
 20
-6.539084064120436
 30
0.0
 10
18.82916937463298
 20
-6.539084064120436
 30
0.0
 10
18.82916937463298
 20
-6.539084064120436
 30
0.0
 10
18.82916937463298
 20
-6.168288437042996
 30
0.0
 10
18.82916937463298
 20
-6.168288437042996
 30
0.0
 10
18.82916937463298
 20
-6.168288437042996
 30
0.0
 10
18.9218424431862
 20
-6.168288437042996
 30
0.0
 10
18.9218424431862
 20
-6.168288437042996
 30
0.0
 10
18.9218424431862
 20
-6.168288437042996
 30
0.0
 10
18.9218424431862
 20
-6.695284693421664
 30
0.0
 10
18.9218424431862
 20
-6.695284693421664
 30
0.0
  0
HATCH
  5
E2
330
DD
100
AcDbEntity
  8
Livello 1
 62
   250
420
  1907995
440
 33554687
100
AcDbHatch
 10
0.0
 20
0.0
 30
0.0
210
0.0
220
0.0
230
1.0
  2
SOLID
 70
     1
 71
     1
 91
        1
 92
        1
 93
        1
 72
     4
 94
        3
 73
     0
 74
     0
 95
       47
 96
       43
 40
0.0
 40
0.0
 40
0.0
 40
0.0
 40
1.0
 40
1.0
 40
1.0
 40
2.0
 40
2.0
 40
2.0
 40
3.0
 40
3.0
 40
3.0
 40
4.0
 40
4.0
 40
4.0
 40
5.0
 40
5.0
 40
5.0
 40
6.0
 40
6.0
 40
6.0
 40
7.0
 40
7.0
 40
7.0
 40
8.0
 40
8.0
 40
8.0
 40
9.0
 40
9.0
 40
9.0
 40
10.0
 40
10.0
 40
10.0
 40
11.0
 40
11.0
 40
11.0
 40
12.0
 40
12.0
 40
12.0
 40
13.0
 40
13.0
 40
13.0
 40
14.0
 40
14.0
 40
14.0
 40
14.0
 10
18.9218424431862
 20
-6.695284693421664
 10
18.9218424431862
 20
-6.695284693421664
 10
18.85328504302973
 20
-6.695284693421664
 10
18.85328504302973
 20
-6.695284693421664
 10
18.85328504302973
 20
-6.695284693421664
 10
18.76819118454406
 20
-6.607658689754334
 10
18.76819118454406
 20
-6.607658689754334
 10
18.56754882348311
 20
-6.396870522489322
 10
18.46088866725978
 20
-6.30163085779959
 10
18.33645181833255
 20
-6.300356172470048
 10
18.25263264517642
 20
-6.300356172470048
 10
18.175186898668
 20
-6.340991073718571
 10
18.175186898668
 20
-6.464170462793679
 10
18.175186898668
 20
-6.539084064120436
 10
18.21328965473487
 20
-6.601302488584048
 10
18.24501898415402
 20
-6.639405244650911
 10
18.24501898415402
 20
-6.639405244650911
 10
18.16629855231606
 20
-6.67495863005869
 10
18.16629855231606
 20
-6.67495863005869
 10
18.11803276456771
 20
-6.617821721435821
 10
18.08247937915993
 20
-6.536551918938777
 10
18.08247937915993
 20
-6.441312254249045
 10
18.08247937915993
 20
-6.263528101732727
 10
18.20440130838292
 20
-6.188614500405972
 10
18.32249918161729
 20
-6.188614500405972
 10
18.47487575492989
 20
-6.188614500405972
 10
18.59803791852757
 20
-6.299081487140504
 10
18.76567626483983
 20
-6.473058809145622
 10
18.76567626483983
 20
-6.473058809145622
 10
18.8266200039739
 20
-6.539084064120436
 10
18.8266200039739
 20
-6.539084064120436
 10
18.8266200039739
 20
-6.539084064120436
 10
18.82916937463298
 20
-6.539084064120436
 10
18.82916937463298
 20
-6.539084064120436
 10
18.82916937463298
 20
-6.539084064120436
 10
18.82916937463298
 20
-6.168288437042996
 10
18.82916937463298
 20
-6.168288437042996
 10
18.82916937463298
 20
-6.168288437042996
 10
18.9218424431862
 20
-6.168288437042996
 10
18.9218424431862
 20
-6.168288437042996
 10
18.9218424431862
 20
-6.168288437042996
 10
18.9218424431862
 20
-6.695284693421664
 10
18.9218424431862
 20
-6.695284693421664
 97
        0
 97
        1
330
E1
 75
     2
 76
     1
 98
        1
 10
0.0
 20
0.0
450
        0
451
        0
460
0.0
461
0.0
452
        0
462
0.0
453
        0
470

  0
SPLINE
  5
E3
330
DD
100
AcDbEntity
  8
Livello 1
100
AcDbSpline
210
0.0
220
0.0
230
1.0
 70
    11
 71
     3
 72
    47
 73
    43
 74
     0
 42
0.000000001
 43
0.0000000001
 40
0.0
 40
0.0
 40
0.0
 40
0.0
 40
1.0
 40
1.0
 40
1.0
 40
2.0
 40
2.0
 40
2.0
 40
3.0
 40
3.0
 40
3.0
 40
4.0
 40
4.0
 40
4.0
 40
5.0
 40
5.0
 40
5.0
 40
6.0
 40
6.0
 40
6.0
 40
7.0
 40
7.0
 40
7.0
 40
8.0
 40
8.0
 40
8.0
 40
9.0
 40
9.0
 40
9.0
 40
10.0
 40
10.0
 40
10.0
 40
11.0
 40
11.0
 40
11.0
 40
12.0
 40
12.0
 40
12.0
 40
13.0
 40
13.0
 40
13.0
 40
14.0
 40
14.0
 40
14.0
 40
14.0
 10
18.9218424431862
 20
-6.043799911683493
 30
0.0
 10
18.9218424431862
 20
-6.043799911683493
 30
0.0
 10
18.85328504302973
 20
-6.043799911683493
 30
0.0
 10
18.85328504302973
 20
-6.043799911683493
 30
0.0
 10
18.85328504302973
 20
-6.043799911683493
 30
0.0
 10
18.76819118454406
 20
-5.956173908016164
 30
0.0
 10
18.76819118454406
 20
-5.956173908016164
 30
0.0
 10
18.56754882348311
 20
-5.745385740751151
 30
0.0
 10
18.46088866725978
 20
-5.65014607606142
 30
0.0
 10
18.33645181833255
 20
-5.648871390731878
 30
0.0
 10
18.25263264517642
 20
-5.648871390731878
 30
0.0
 10
18.175186898668
 20
-5.6895062919804
 30
0.0
 10
18.175186898668
 20
-5.812685681055508
 30
0.0
 10
18.175186898668
 20
-5.887599282382266
 30
0.0
 10
18.21328965473487
 20
-5.949817706845878
 30
0.0
 10
18.24501898415402
 20
-5.98792046291274
 30
0.0
 10
18.24501898415402
 20
-5.98792046291274
 30
0.0
 10
18.16629855231606
 20
-6.023473848320518
 30
0.0
 10
18.16629855231606
 20
-6.023473848320518
 30
0.0
 10
18.11803276456771
 20
-5.966336939697652
 30
0.0
 10
18.08247937915993
 20
-5.885067137200606
 30
0.0
 10
18.08247937915993
 20
-5.789827472510875
 30
0.0
 10
18.08247937915993
 20
-5.612043319994556
 30
0.0
 10
18.20440130838292
 20
-5.537129718667799
 30
0.0
 10
18.32249918161729
 20
-5.537129718667799
 30
0.0
 10
18.47487575492989
 20
-5.537129718667799
 30
0.0
 10
18.59803791852757
 20
-5.647596705402335
 30
0.0
 10
18.76567626483983
 20
-5.821574027407451
 30
0.0
 10
18.76567626483983
 20
-5.821574027407451
 30
0.0
 10
18.8266200039739
 20
-5.887599282382266
 30
0.0
 10
18.8266200039739
 20
-5.887599282382266
 30
0.0
 10
18.8266200039739
 20
-5.887599282382266
 30
0.0
 10
18.82916937463298
 20
-5.887599282382266
 30
0.0
 10
18.82916937463298
 20
-5.887599282382266
 30
0.0
 10
18.82916937463298
 20
-5.887599282382266
 30
0.0
 10
18.82916937463298
 20
-5.516803655304826
 30
0.0
 10
18.82916937463298
 20
-5.516803655304826
 30
0.0
 10
18.82916937463298
 20
-5.516803655304826
 30
0.0
 10
18.9218424431862
 20
-5.516803655304826
 30
0.0
 10
18.9218424431862
 20
-5.516803655304826
 30
0.0
 10
18.9218424431862
 20
-5.516803655304826
 30
0.0
 10
18.9218424431862
 20
-6.043799911683493
 30
0.0
 10
18.9218424431862
 20
-6.043799911683493
 30
0.0
  0
HATCH
  5
E4
330
DD
100
AcDbEntity
  8
Livello 1
 62
   250
420
  1907995
440
 33554687
100
AcDbHatch
 10
0.0
 20
0.0
 30
0.0
210
0.0
220
0.0
230
1.0
  2
SOLID
 70
     1
 71
     1
 91
        1
 92
        1
 93
        1
 72
     4
 94
        3
 73
     0
 74
     0
 95
       47
 96
       43
 40
0.0
 40
0.0
 40
0.0
 40
0.0
 40
1.0
 40
1.0
 40
1.0
 40
2.0
 40
2.0
 40
2.0
 40
3.0
 40
3.0
 40
3.0
 40
4.0
 40
4.0
 40
4.0
 40
5.0
 40
5.0
 40
5.0
 40
6.0
 40
6.0
 40
6.0
 40
7.0
 40
7.0
 40
7.0
 40
8.0
 40
8.0
 40
8.0
 40
9.0
 40
9.0
 40
9.0
 40
10.0
 40
10.0
 40
10.0
 40
11.0
 40
11.0
 40
11.0
 40
12.0
 40
12.0
 40
12.0
 40
13.0
 40
13.0
 40
13.0
 40
14.0
 40
14.0
 40
14.0
 40
14.0
 10
18.9218424431862
 20
-6.043799911683493
 10
18.9218424431862
 20
-6.043799911683493
 10
18.85328504302973
 20
-6.043799911683493
 10
18.85328504302973
 20
-6.043799911683493
 10
18.85328504302973
 20
-6.043799911683493
 10
18.76819118454406
 20
-5.956173908016164
 10
18.76819118454406
 20
-5.956173908016164
 10
18.56754882348311
 20
-5.745385740751151
 10
18.46088866725978
 20
-5.65014607606142
 10
18.33645181833255
 20
-5.648871390731878
 10
18.25263264517642
 20
-5.648871390731878
 10
18.175186898668
 20
-5.6895062919804
 10
18.175186898668
 20
-5.812685681055508
 10
18.175186898668
 20
-5.887599282382266
 10
18.21328965473487
 20
-5.949817706845878
 10
18.24501898415402
 20
-5.98792046291274
 10
18.24501898415402
 20
-5.98792046291274
 10
18.16629855231606
 20
-6.023473848320518
 10
18.16629855231606
 20
-6.023473848320518
 10
18.11803276456771
 20
-5.966336939697652
 10
18.08247937915993
 20
-5.885067137200606
 10
18.08247937915993
 20
-5.789827472510875
 10
18.08247937915993
 20
-5.612043319994556
 10
18.20440130838292
 20
-5.537129718667799
 10
18.32249918161729
 20
-5.537129718667799
 10
18.47487575492989
 20
-5.537129718667799
 10
18.59803791852757
 20
-5.647596705402335
 10
18.76567626483983
 20
-5.821574027407451
 10
18.76567626483983
 20
-5.821574027407451
 10
18.8266200039739
 20
-5.887599282382266
 10
18.8266200039739
 20
-5.887599282382266
 10
18.8266200039739
 20
-5.887599282382266
 10
18.82916937463298
 20
-5.887599282382266
 10
18.82916937463298
 20
-5.887599282382266
 10
18.82916937463298
 20
-5.887599282382266
 10
18.82916937463298
 20
-5.516803655304826
 10
18.82916937463298
 20
-5.516803655304826
 10
18.82916937463298
 20
-5.516803655304826
 10
18.9218424431862
 20
-5.516803655304826
 10
18.9218424431862
 20
-5.516803655304826
 10
18.9218424431862
 20
-5.516803655304826
 10
18.9218424431862
 20
-6.043799911683493
 10
18.9218424431862
 20
-6.043799911683493
 97
        0
 97
        1
330
E3
 75
     2
 76
     1
 98
        1
 10
0.0
 20
0.0
450
        0
451
        0
460
0.0
461
0.0
452
        0
462
0.0
453
        0
470

  0
SPLINE
  5
E5
330
DD
100
AcDbEntity
  8
Livello 1
100
AcDbSpline
210
0.0
220
0.0
230
1.0
 70
     9
 71
     3
 72
    17
 73
    13
 74
     0
 42
0.000000001
 43
0.0000000001
 40
0.0
 40
0.0
 40
0.0
 40
0.0
 40
1.0
 40
1.0
 40
1.0
 40
2.0
 40
2.0
 40
2.0
 40
3.0
 40
3.0
 40
3.0
 40
4.0
 40
4.0
 40
4.0
 40
4.0
 10
19.07804307248743
 20
-5.429125975205216
 30
0.0
 10
19.00311224568325
 20
-5.401203476297268
 30
0.0
 10
18.86723767974499
 20
-5.366907550741606
 30
0.0
 10
18.77456461119177
 20
-5.352937688548918
 30
0.0
 10
18.77456461119177
 20
-5.352937688548918
 30
0.0
 10
18.7618522088512
 20
-5.228500839621693
 30
0.0
 10
18.7618522088512
 20
-5.228500839621693
 30
0.0
 10
18.86978705040408
 20
-5.257698023859187
 30
0.0
 10
19.01072590670565
 20
-5.313577472629938
 30
0.0
 10
19.07042941146503
 20
-5.349130858037717
 30
0.0
 10
19.07042941146503
 20
-5.349130858037717
 30
0.0
 10
19.07804307248743
 20
-5.429125975205216
 30
0.0
 10
19.07804307248743
 20
-5.429125975205216
 30
0.0
  0
HATCH
  5
E6
330
DD
100
AcDbEntity
  8
Livello 1
 62
   250
420
  1907995
440
 33554687
100
AcDbHatch
 10
0.0
 20
0.0
 30
0.0
210
0.0
220
0.0
230
1.0
  2
SOLID
 70
     1
 71
     1
 91
        1
 92
        1
 93
        1
 72
     4
 94
        3
 73
     0
 74
     0
 95
       17
 96
       13
 40
0.0
 40
0.0
 40
0.0
 40
0.0
 40
1.0
 40
1.0
 40
1.0
 40
2.0
 40
2.0
 40
2.0
 40
3.0
 40
3.0
 40
3.0
 40
4.0
 40
4.0
 40
4.0
 40
4.0
 10
19.07804307248743
 20
-5.429125975205216
 10
19.00311224568325
 20
-5.401203476297268
 10
18.86723767974499
 20
-5.366907550741606
 10
18.77456461119177
 20
-5.352937688548918
 10
18.77456461119177
 20
-5.352937688548918
 10
18.7618522088512
 20
-5.228500839621693
 10
18.7618522088512
 20
-5.228500839621693
 10
18.86978705040408
 20
-5.257698023859187
 10
19.01072590670565
 20
-5.313577472629938
 10
19.07042941146503
 20
-5.349130858037717
 10
19.07042941146503
 20
-5.349130858037717
 10
19.07804307248743
 20
-5.429125975205216
 10
19.07804307248743
 20
-5.429125975205216
 97
        0
 97
        1
330
E5
 75
     2
 76
     1
 98
        1
 10
0.0
 20
0.0
450
        0
451
        0
460
0.0
461
0.0
452
        0
462
0.0
453
        0
470

  0
SPLINE
  5
E7
330
DD
100
AcDbEntity
  8
Livello 1
100
AcDbSpline
210
0.0
220
0.0
230
1.0
 70
    11
 71
     3
 72
    50
 73
    46
 74
     0
 42
0.000000001
 43
0.0000000001
 40
0.0
 40
0.0
 40
0.0
 40
0.0
 40
1.0
 40
1.0
 40
1.0
 40
2.0
 40
2.0
 40
2.0
 40
3.0
 40
3.0
 40
3.0
 40
4.0
 40
4.0
 40
4.0
 40
5.0
 40
5.0
 40
5.0
 40
6.0
 40
6.0
 40
6.0
 40
7.0
 40
7.0
 40
7.0
 40
8.0
 40
8.0
 40
8.0
 40
9.0
 40
9.0
 40
9.0
 40
10.0
 40
10.0
 40
10.0
 40
11.0
 40
11.0
 40
11.0
 40
12.0
 40
12.0
 40
12.0
 40
13.0
 40
13.0
 40
13.0
 40
14.0
 40
14.0
 40
14.0
 40
15.0
 40
15.0
 40
15.0
 40
15.0
 10
18.19041422071281
 20
-4.636736788120328
 30
0.0
 10
18.19041422071281
 20
-4.636736788120328
 30
0.0
 10
18.19041422071281
 20
-4.951652966427016
 30
0.0
 10
18.19041422071281
 20
-4.951652966427016
 30
0.0
 10
18.19041422071281
 20
-4.951652966427016
 30
0.0
 10
18.40249429878479
 20
-4.983399521323593
 30
0.0
 10
18.40249429878479
 20
-4.983399521323593
 30
0.0
 10
18.3999449281257
 20
-4.964348143290162
 30
0.0
 10
18.39739555746662
 20
-4.946571450586273
 30
0.0
 10
18.39739555746662
 20
-4.916099581019238
 30
0.0
 10
18.39739555746662
 20
-4.852606471226084
 30
0.0
 10
18.41138264513674
 20
-4.789113361432928
 30
0.0
 10
18.44183728922634
 20
-4.738315428502921
 30
0.0
 10
18.47866535996367
 20
-4.673564858857647
 30
0.0
 10
18.54977213077922
 20
-4.620217555268556
 30
0.0
 10
18.65391736729832
 20
-4.620217555268556
 30
0.0
 10
18.81518228696287
 20
-4.620217555268556
 30
0.0
 10
18.93582953085632
 20
-4.748478460184407
 30
0.0
 10
18.93582953085632
 20
-4.92752007255284
 30
0.0
 10
18.93582953085632
 20
-5.01767822140183
 30
0.0
 10
18.91043917713002
 20
-5.093883733535556
 30
0.0
 10
18.88501437244888
 20
-5.133243949454535
 30
0.0
 10
18.88501437244888
 20
-5.133243949454535
 30
0.0
 10
18.79995496491806
 20
-5.10530422506916
 30
0.0
 10
18.79995496491806
 20
-5.10530422506916
 30
0.0
 10
18.82028102828104
 20
-5.071025524990924
 30
0.0
 10
18.84567138200733
 20
-5.003725584686566
 30
0.0
 10
18.84567138200733
 20
-4.928794757882384
 30
0.0
 10
18.84567138200733
 20
-4.823392061511165
 30
0.0
 10
18.77707953089601
 20
-4.733233912662176
 30
0.0
 10
18.66662976963889
 20
-4.733233912662176
 30
0.0
 10
18.55993516246071
 20
-4.73450859799172
 30
0.0
 10
18.48376410128183
 20
-4.805615368807276
 30
0.0
 10
18.48376410128183
 20
-4.970704344460448
 30
0.0
 10
18.48376410128183
 20
-5.01767822140183
 30
0.0
 10
18.48882839164514
 20
-5.054506292139151
 30
0.0
 10
18.49265244763378
 20
-5.084995387183611
 30
0.0
 10
18.49265244763378
 20
-5.084995387183611
 30
0.0
 10
18.09646646683004
 20
-5.031648083594518
 30
0.0
 10
18.09646646683004
 20
-5.031648083594518
 30
0.0
 10
18.09646646683004
 20
-5.031648083594518
 30
0.0
 10
18.09646646683004
 20
-4.636736788120328
 30
0.0
 10
18.09646646683004
 20
-4.636736788120328
 30
0.0
 10
18.09646646683004
 20
-4.636736788120328
 30
0.0
 10
18.19041422071281
 20
-4.636736788120328
 30
0.0
 10
18.19041422071281
 20
-4.636736788120328
 30
0.0
  0
HATCH
  5
E8
330
DD
100
AcDbEntity
  8
Livello 1
 62
   250
420
  1907995
440
 33554687
100
AcDbHatch
 10
0.0
 20
0.0
 30
0.0
210
0.0
220
0.0
230
1.0
  2
SOLID
 70
     1
 71
     1
 91
        1
 92
        1
 93
        1
 72
     4
 94
        3
 73
     0
 74
     0
 95
       50
 96
       46
 40
0.0
 40
0.0
 40
0.0
 40
0.0
 40
1.0
 40
1.0
 40
1.0
 40
2.0
 40
2.0
 40
2.0
 40
3.0
 40
3.0
 40
3.0
 40
4.0
 40
4.0
 40
4.0
 40
5.0
 40
5.0
 40
5.0
 40
6.0
 40
6.0
 40
6.0
 40
7.0
 40
7.0
 40
7.0
 40
8.0
 40
8.0
 40
8.0
 40
9.0
 40
9.0
 40
9.0
 40
10.0
 40
10.0
 40
10.0
 40
11.0
 40
11.0
 40
11.0
 40
12.0
 40
12.0
 40
12.0
 40
13.0
 40
13.0
 40
13.0
 40
14.0
 40
14.0
 40
14.0
 40
15.0
 40
15.0
 40
15.0
 40
15.0
 10
18.19041422071281
 20
-4.636736788120328
 10
18.19041422071281
 20
-4.636736788120328
 10
18.19041422071281
 20
-4.951652966427016
 10
18.19041422071281
 20
-4.951652966427016
 10
18.19041422071281
 20
-4.951652966427016
 10
18.40249429878479
 20
-4.983399521323593
 10
18.40249429878479
 20
-4.983399521323593
 10
18.3999449281257
 20
-4.964348143290162
 10
18.39739555746662
 20
-4.946571450586273
 10
18.39739555746662
 20
-4.916099581019238
 10
18.39739555746662
 20
-4.852606471226084
 10
18.41138264513674
 20
-4.789113361432928
 10
18.44183728922634
 20
-4.738315428502921
 10
18.47866535996367
 20
-4.673564858857647
 10
18.54977213077922
 20
-4.620217555268556
 10
18.65391736729832
 20
-4.620217555268556
 10
18.81518228696287
 20
-4.620217555268556
 10
18.93582953085632
 20
-4.748478460184407
 10
18.93582953085632
 20
-4.92752007255284
 10
18.93582953085632
 20
-5.01767822140183
 10
18.91043917713002
 20
-5.093883733535556
 10
18.88501437244888
 20
-5.133243949454535
 10
18.88501437244888
 20
-5.133243949454535
 10
18.79995496491806
 20
-5.10530422506916
 10
18.79995496491806
 20
-5.10530422506916
 10
18.82028102828104
 20
-5.071025524990924
 10
18.84567138200733
 20
-5.003725584686566
 10
18.84567138200733
 20
-4.928794757882384
 10
18.84567138200733
 20
-4.823392061511165
 10
18.77707953089601
 20
-4.733233912662176
 10
18.66662976963889
 20
-4.733233912662176
 10
18.55993516246071
 20
-4.73450859799172
 10
18.48376410128183
 20
-4.805615368807276
 10
18.48376410128183
 20
-4.970704344460448
 10
18.48376410128183
 20
-5.01767822140183
 10
18.48882839164514
 20
-5.054506292139151
 10
18.49265244763378
 20
-5.084995387183611
 10
18.49265244763378
 20
-5.084995387183611
 10
18.09646646683004
 20
-5.031648083594518
 10
18.09646646683004
 20
-5.031648083594518
 10
18.09646646683004
 20
-5.031648083594518
 10
18.09646646683004
 20
-4.636736788120328
 10
18.09646646683004
 20
-4.636736788120328
 10
18.09646646683004
 20
-4.636736788120328
 10
18.19041422071281
 20
-4.636736788120328
 10
18.19041422071281
 20
-4.636736788120328
 97
        0
 97
        1
330
E7
 75
     2
 76
     1
 98
        1
 10
0.0
 20
0.0
450
        0
451
        0
460
0.0
461
0.0
452
        0
462
0.0
453
        0
470

  0
ENDBLK
  5
E0
330
DD
100
AcDbEntity
  8
0
100
AcDbBlockEnd
  0
ENDSEC
  0
SECTION
  2
ENTITIES
  0
LINE
  5
7B
330
70
100
AcDbEntity
  8
Livello 1
100
AcDbLine
 10
8.275350274446811
 20
-7.060777586673046
 30
0.0
 11
8.131974211214357
 21
-7.151901141128455
 31
0.0
  0
LINE
  5
7C
330
70
100
AcDbEntity
  8
Livello 1
100
AcDbLine
 10
8.275350274446811
 20
-3.593192171898391
 30
0.0
 11
8.275350274446811
 21
-7.060777586673046
 31
0.0
  0
LINE
  5
7F
330
70
100
AcDbEntity
  8
Livello 1
100
AcDbLine
 10
8.131974211214357
 20
-7.151901141128455
 30
0.0
 11
7.610633214583802
 21
-7.151901141128455
 31
0.0
  0
LINE
  5
8F
330
70
100
AcDbEntity
  8
Livello 1
100
AcDbLine
 10
0.9315080246488211
 20
-7.904835388970285
 30
0.0
 11
6.542068445954153
 21
-7.904835388970285
 31
0.0
  0
LINE
  5
90
330
70
100
AcDbEntity
  8
Livello 1
100
AcDbLine
 10
7.570546230151037
 20
-7.904835388970285
 30
0.0
 11
8.275350274446811
 21
-7.904835388970285
 31
0.0
  0
LINE
  5
91
330
70
100
AcDbEntity
  8
Livello 1
100
AcDbLine
 10
8.833816870219511
 20
-3.487678837421174
 30
0.0
 11
8.833816870219511
 21
-7.256769545510901
 31
0.0
  0
LINE
  5
12F
330
70
100
AcDbEntity
  8
Livello 1
100
AcDbLine
 10
8.131974211214357
 20
-7.151901141128455
 30
0.0
 11
8.131974211214357
 21
-3.487678837421174
 31
0.0
  0
LINE
  5
130
330
70
100
AcDbEntity
  8
Livello 1
100
AcDbLine
 10
8.131974211214357
 20
-3.487678837421174
 30
0.0
 11
8.275350274446811
 21
-3.593192171898391
 31
0.0
  0
LINE
  5
131
330
70
100
AcDbEntity
  8
Livello 1
100
AcDbLine
 10
8.131974211214357
 20
-3.487678837421174
 30
0.0
 11
8.131974211214357
 21
-3.487678837421174
 31
0.0
  0
LINE
  5
132
330
70
100
AcDbEntity
  8
Livello 1
100
AcDbLine
 10
7.84059770663998
 20
-3.473060536582968
 30
0.0
 11
7.84059770663998
 21
-3.473060536582968
 31
0.0
  0
LINE
  5
133
330
70
100
AcDbEntity
  8
Livello 1
100
AcDbLine
 10
8.275350274446811
 20
-7.060777586673046
 30
0.0
 11
8.275350274446811
 21
-7.060777586673046
 31
0.0
  0
LINE
  5
134
330
70
100
AcDbEntity
  8
Livello 1
100
AcDbLine
 10
7.570546230151037
 20
-7.151901141128455
 30
0.0
 11
7.570546230151037
 21
-3.473060536582968
 31
0.0
  0
LINE
  5
135
330
70
100
AcDbEntity
  8
Livello 1
100
AcDbLine
 10
7.570546230151037
 20
-3.473060536582968
 30
0.0
 11
8.131974211214357
 21
-3.487675321716283
 31
0.0
  0
LINE
  5
136
330
70
100
AcDbEntity
  8
Livello 1
100
AcDbLine
 10
6.542068445954153
 20
-7.119298252041634
 30
0.0
 11
0.9315080246488211
 21
-7.119298252041634
 31
0.0
  0
LINE
  5
137
330
70
100
AcDbEntity
  8
Livello 1
100
AcDbLine
 10
0.9315080246488211
 20
-7.119298252041634
 30
0.0
 11
0.9315080246488211
 21
-3.476655344809776
 31
0.0
  0
LINE
  5
138
330
70
100
AcDbEntity
  8
Livello 1
100
AcDbLine
 10
0.9315080246488211
 20
-3.476655344809776
 30
0.0
 11
6.542068445954153
 21
-3.476655344809776
 31
0.0
  0
LINE
  5
139
330
70
100
AcDbEntity
  8
Livello 1
100
AcDbLine
 10
6.542068445954153
 20
-3.476655344809776
 30
0.0
 11
6.542068445954153
 21
-7.119298252041634
 31
0.0
  0
LINE
  5
13A
330
70
100
AcDbEntity
  8
Livello 1
100
AcDbLine
 10
6.417691663668277
 20
-6.979302884225973
 30
0.0
 11
1.055884810076711
 21
-6.979302884225973
 31
0.0
  0
LINE
  5
13B
330
70
100
AcDbEntity
  8
Livello 1
100
AcDbLine
 10
1.055884810076711
 20
-6.979302884225973
 30
0.0
 11
1.055884810076711
 21
-3.629539286668899
 31
0.0
  0
LINE
  5
13C
330
70
100
AcDbEntity
  8
Livello 1
100
AcDbLine
 10
1.055884810076711
 20
-3.629539286668899
 30
0.0
 11
6.417691663668277
 21
-3.629539286668899
 31
0.0
  0
LINE
  5
13D
330
70
100
AcDbEntity
  8
Livello 1
100
AcDbLine
 10
6.417691663668277
 20
-3.629539286668899
 30
0.0
 11
6.417691663668277
 21
-6.979302884225973
 31
0.0
  0
LINE
  5
13E
330
70
100
AcDbEntity
  8
Livello 1
100
AcDbLine
 10
6.189724067918298
 20
-6.746109696083304
 30
0.0
 11
1.283855711663429
 21
-6.746109696083304
 31
0.0
  0
LINE
  5
13F
330
70
100
AcDbEntity
  8
Livello 1
100
AcDbLine
 10
1.283855711663429
 20
-6.746109696083304
 30
0.0
 11
1.283855711663429
 21
-4.830507585041156
 31
0.0
  0
LINE
  5
140
330
70
100
AcDbEntity
  8
Livello 1
100
AcDbLine
 10
1.283855711663429
 20
-4.830507585041156
 30
0.0
 11
6.189724067918298
 21
-4.830507585041156
 31
0.0
  0
LINE
  5
141
330
70
100
AcDbEntity
  8
Livello 1
100
AcDbLine
 10
6.189724067918298
 20
-4.830507585041156
 30
0.0
 11
6.189724067918298
 21
-6.746109696083304
 31
0.0
  0
INSERT
  5
155
330
70
100
AcDbEntity
  8
Livello 1
100
AcDbBlockReference
  2
Block_1
 10
0.0
 20
0.0
 30
0.0
  0
INSERT
  5
156
330
70
100
AcDbEntity
  8
Livello 1
100
AcDbBlockReference
  2
Block_3
 10
0.0
 20
0.0
 30
0.0
  0
INSERT
  5
157
330
70
100
AcDbEntity
  8
Livello 1
100
AcDbBlockReference
  2
Block_5
 10
0.0
 20
0.0
 30
0.0
  0
ENDSEC
  0
SECTION
  2
OBJECTS
  0
DICTIONARY
  5
C
330
0
100
AcDbDictionary
281
     1
  3
ACAD_CIP_PREVIOUS_PRODUCT_INFO
350
12C
  3
ACAD_COLOR
350
63
  3
ACAD_DETAILVIEWSTYLE
350
6A
  3
ACAD_GROUP
350
D
  3
ACAD_LAYOUT
350
62
  3
ACAD_MATERIAL
350
10
  3
ACAD_MLEADERSTYLE
350
66
  3
ACAD_MLINESTYLE
350
5F
  3
ACAD_PLOTSETTINGS
350
61
  3
ACAD_PLOTSTYLENAME
350
E
  3
ACAD_SCALELIST
350
42
  3
ACAD_SECTIONVIEWSTYLE
350
68
  3
ACAD_TABLESTYLE
350
64
  3
ACAD_VISUALSTYLE
350
29
  3
ACDB_RECOMPOSE_DATA
350
16F
  3
AcDbVariableDictionary
350
E9
  0
DICTIONARY
  5
12D
330
70
100
AcDbDictionary
280
     1
281
     1
  3
ACAD_SORTENTS
360
12E
  0
XRECORD
  5
12C
102
{ACAD_REACTORS
330
C
102
}
330
C
100
AcDbXrecord
280
     1
300
ACD
300
2019
300
ACD_F_S
  0
DICTIONARY
  5
63
102
{ACAD_REACTORS
330
C
102
}
330
C
100
AcDbDictionary
281
     1
  0
DICTIONARY
  5
6A
102
{ACAD_REACTORS
330
C
102
}
330
C
100
AcDbDictionary
281
     1
  3
Imperial24
350
6B
  0
DICTIONARY
  5
D
102
{ACAD_REACTORS
330
C
102
}
330
C
100
AcDbDictionary
281
     1
  0
DICTIONARY
  5
62
102
{ACAD_REACTORS
330
C
102
}
330
C
100
AcDbDictionary
281
     1
  3
Layout1
350
6F
  3
Layout2
350
77
  3
Model
350
73
  0
DICTIONARY
  5
10
102
{ACAD_REACTORS
330
C
102
}
330
C
100
AcDbDictionary
281
     1
  3
ByBlock
350
19
  3
ByLayer
350
11
  3
Global
350
21
  0
DICTIONARY
  5
66
102
{ACAD_REACTORS
330
C
102
}
330
C
100
AcDbDictionary
281
     1
  3
Standard
350
67
  0
DICTIONARY
  5
5F
102
{ACAD_REACTORS
330
C
102
}
330
C
100
AcDbDictionary
281
     1
  3
Standard
350
60
  0
DICTIONARY
  5
61
102
{ACAD_REACTORS
330
C
102
}
330
C
100
AcDbDictionary
281
     1
  0
ACDBDICTIONARYWDFLT
  5
E
102
{ACAD_REACTORS
330
C
102
}
330
C
100
AcDbDictionary
281
     1
  3
Normal
350
F
100
AcDbDictionaryWithDefault
340
F
  0
DICTIONARY
  5
42
102
{ACAD_REACTORS
330
C
102
}
330
C
100
AcDbDictionary
281
     1
  3
A0
350
43
  3
A1
350
44
  3
A2
350
45
  3
A3
350
46
  3
A4
350
47
  3
A5
350
48
  3
A6
350
49
  3
A7
350
4A
  3
A8
350
4B
  3
A9
350
4C
  3
B0
350
4D
  3
B1
350
4E
  3
B2
350
4F
  3
B3
350
50
  3
B4
350
51
  3
B5
350
52
  3
B6
350
53
  0
DICTIONARY
  5
68
102
{ACAD_REACTORS
330
C
102
}
330
C
100
AcDbDictionary
281
     1
  3
Imperial24
350
69
  0
DICTIONARY
  5
64
102
{ACAD_REACTORS
330
C
102
}
330
C
100
AcDbDictionary
281
     1
  3
Standard
350
65
  0
DICTIONARY
  5
29
102
{ACAD_REACTORS
330
C
102
}
330
C
100
AcDbDictionary
281
     1
  3
2dWireframe
350
2F
  3
Basic
350
2E
  3
Brighten
350
35
  3
ColorChange
350
39
  3
Conceptual
350
32
  3
Dim
350
34
  3
EdgeColorOff
350
41
  3
Facepattern
350
38
  3
Flat
350
2A
  3
FlatWithEdges
350
2B
  3
Gouraud
350
2C
  3
GouraudWithEdges
350
2D
  3
Hidden
350
31
  3
JitterOff
350
3F
  3
Linepattern
350
37
  3
OverhangOff
350
40
  3
Realistic
350
33
  3
Shaded
350
3E
  3
Shaded with edges
350
3D
  3
Shades of Gray
350
3A
  3
Sketchy
350
3B
  3
Thicken
350
36
  3
Wireframe
350
30
  3
X-Ray
350
3C
  0
XRECORD
  5
16F
102
{ACAD_REACTORS
330
C
102
}
330
C
100
AcDbXrecord
280
     1
 90
        1
330
65
  0
DICTIONARY
  5
E9
102
{ACAD_REACTORS
330
C
102
}
330
C
100
AcDbDictionary
281
     1
  3
CANNOSCALE
350
EE
  3
CMLEADERSTYLE
350
EB
  3
CTABLESTYLE
350
EA
  3
CVIEWDETAILSTYLE
350
EC
  3
CVIEWSECTIONSTYLE
350
ED
  0
SORTENTSTABLE
  5
12E
102
{ACAD_REACTORS
330
12D
102
}
330
12D
100
AcDbSortentsTable
330
70
331
7B
  5
86
331
7C
  5
87
331
7F
  5
90
331
8F
  5
14F
331
90
  5
150
331
91
  5
151
331
12F
  5
7B
331
130
  5
7C
331
131
  5
7F
331
132
  5
8A
331
133
  5
8F
331
134
  5
91
331
135
  5
92
331
136
  5
93
331
137
  5
94
331
138
  5
12F
331
139
  5
130
331
13A
  5
131
331
13B
  5
132
331
13C
  5
133
331
13D
  5
134
331
13E
  5
135
331
13F
  5
136
331
140
  5
137
331
141
  5
138
  0
ACDBDETAILVIEWSTYLE
  5
6B
102
{ACAD_XDICTIONARY
360
172
102
}
102
{ACAD_REACTORS
330
6A
102
}
330
6A
100
AcDbModelDocViewStyle
 70
     0
  3
Imperial24
290
     0
100
AcDbDetailViewStyle
 70
     0
 71
     0
 90
        3
 71
     1
340
55
 62
   256
 40
0.24
340
0
 62
   256
 40
0.24
300

 40
0.36
280
     3
 71
     2
340
5D
 90
       25
 62
   256
 71
     3
340
55
 62
   256
 40
0.24
 90
        1
 40
0.75
 90
        1
300
%<\AcVar ViewType \f "%tc1">% %<\AcVar ViewDetailId>%\PSCALE %<\AcVar ViewScale \f "%sn">%
 71
     4
340
5D
 90
       25
 62
   256
340
5D
 90
       25
 62
   256
280
     0
  0
LAYOUT
  5
6F
102
{ACAD_REACTORS
330
62
102
}
330
62
100
AcDbPlotSettings
  1

  2

  4

  6

 40
0.0
 41
0.0
 42
0.0
 43
0.0
 44
0.0
 45
0.0
 46
0.0
 47
0.0
 48
0.0
 49
0.0
140
0.0
141
0.0
142
1.0
143
1.0
 70
   688
 72
     0
 73
     0
 74
     5
  7

 75
    16
147
1.0
 76
     0
 77
     2
 78
   300
148
0.0
149
0.0
100
AcDbLayout
  1
Layout1
 70
     1
 71
     1
 10
0.0
 20
0.0
 11
12.0
 21
9.0
 12
0.0
 22
0.0
 32
0.0
 14
1.000000000000000E+20
 24
1.000000000000000E+20
 34
1.000000000000000E+20
 15
-1.000000000000000E+20
 25
-1.000000000000000E+20
 35
-1.000000000000000E+20
146
0.0
 13
0.0
 23
0.0
 33
0.0
 16
1.0
 26
0.0
 36
0.0
 17
0.0
 27
1.0
 37
0.0
 76
     0
330
6C
  0
LAYOUT
  5
77
102
{ACAD_REACTORS
330
62
102
}
330
62
100
AcDbPlotSettings
  1

  2

  4

  6

 40
0.0
 41
0.0
 42
0.0
 43
0.0
 44
0.0
 45
0.0
 46
0.0
 47
0.0
 48
0.0
 49
0.0
140
0.0
141
0.0
142
1.0
143
1.0
 70
   688
 72
     0
 73
     0
 74
     5
  7

 75
    16
147
1.0
 76
     0
 77
     2
 78
   300
148
0.0
149
0.0
100
AcDbLayout
  1
Layout2
 70
     1
 71
     2
 10
0.0
 20
0.0
 11
12.0
 21
9.0
 12
0.0
 22
0.0
 32
0.0
 14
0.0
 24
0.0
 34
0.0
 15
0.0
 25
0.0
 35
0.0
146
0.0
 13
0.0
 23
0.0
 33
0.0
 16
1.0
 26
0.0
 36
0.0
 17
0.0
 27
1.0
 37
0.0
 76
     0
330
74
  0
LAYOUT
  5
73
102
{ACAD_REACTORS
330
62
102
}
330
62
100
AcDbPlotSettings
  1

  2

  4

  6

 40
0.0
 41
0.0
 42
0.0
 43
0.0
 44
0.0
 45
0.0
 46
0.0
 47
0.0
 48
0.0
 49
0.0
140
0.0
141
0.0
142
1.0
143
1.0
 70
  1712
 72
     0
 73
     0
 74
     0
  7

 75
     0
147
1.0
 76
     0
 77
     2
 78
   300
148
0.0
149
0.0
100
AcDbLayout
  1
Model
 70
     1
 71
     0
 10
0.0
 20
0.0
 11
12.0
 21
9.0
 12
0.0
 22
0.0
 32
0.0
 14
0.0
 24
0.0
 34
0.0
 15
0.0
 25
0.0
 35
0.0
146
0.0
 13
0.0
 23
0.0
 33
0.0
 16
1.0
 26
0.0
 36
0.0
 17
0.0
 27
1.0
 37
0.0
 76
     0
330
70
331
57
  0
MATERIAL
  5
19
102
{ACAD_XDICTIONARY
360
1A
102
}
102
{ACAD_REACTORS
330
10
102
}
330
10
100
AcDbMaterial
  1
ByBlock
 72
     0
 43
0.0208333333333333
 43
0.0
 43
0.0
 43
0.0
 43
0.0
 43
0.0208333333333333
 43
0.0
 43
0.0
 43
0.0
 43
0.0
 43
1.0
 43
0.0
 43
0.0
 43
0.0
 43
0.0
 43
1.0
 77
     0
 47
0.0208333333333333
 47
0.0
 47
0.0
 47
0.0
 47
0.0
 47
0.0208333333333333
 47
0.0
 47
0.0
 47
0.0
 47
0.0
 47
1.0
 47
0.0
 47
0.0
 47
0.0
 47
0.0
 47
1.0
171
     0
 49
0.0208333333333333
 49
0.0
 49
0.0
 49
0.0
 49
0.0
 49
0.0208333333333333
 49
0.0
 49
0.0
 49
0.0
 49
0.0
 49
1.0
 49
0.0
 49
0.0
 49
0.0
 49
0.0
 49
1.0
175
     0
142
0.0208333333333333
142
0.0
142
0.0
142
0.0
142
0.0
142
0.0208333333333333
142
0.0
142
0.0
142
0.0
142
0.0
142
1.0
142
0.0
142
0.0
142
0.0
142
0.0
142
1.0
179
     0
144
0.0208333333333333
144
0.0
144
0.0
144
0.0
144
0.0
144
0.0208333333333333
144
0.0
144
0.0
144
0.0
144
0.0
144
1.0
144
0.0
144
0.0
144
0.0
144
0.0
144
1.0
147
0.0208333333333333
147
0.0
147
0.0
147
0.0
147
0.0
147
0.0208333333333333
147
0.0
147
0.0
147
0.0
147
0.0
147
1.0
147
0.0
147
0.0
147
0.0
147
0.0
147
1.0
  0
MATERIAL
  5
11
102
{ACAD_XDICTIONARY
360
12
102
}
102
{ACAD_REACTORS
330
10
102
}
330
10
100
AcDbMaterial
  1
ByLayer
 72
     0
 43
0.0208333333333333
 43
0.0
 43
0.0
 43
0.0
 43
0.0
 43
0.0208333333333333
 43
0.0
 43
0.0
 43
0.0
 43
0.0
 43
1.0
 43
0.0
 43
0.0
 43
0.0
 43
0.0
 43
1.0
 77
     0
 47
0.0208333333333333
 47
0.0
 47
0.0
 47
0.0
 47
0.0
 47
0.0208333333333333
 47
0.0
 47
0.0
 47
0.0
 47
0.0
 47
1.0
 47
0.0
 47
0.0
 47
0.0
 47
0.0
 47
1.0
171
     0
 49
0.0208333333333333
 49
0.0
 49
0.0
 49
0.0
 49
0.0
 49
0.0208333333333333
 49
0.0
 49
0.0
 49
0.0
 49
0.0
 49
1.0
 49
0.0
 49
0.0
 49
0.0
 49
0.0
 49
1.0
175
     0
142
0.0208333333333333
142
0.0
142
0.0
142
0.0
142
0.0
142
0.0208333333333333
142
0.0
142
0.0
142
0.0
142
0.0
142
1.0
142
0.0
142
0.0
142
0.0
142
0.0
142
1.0
179
     0
144
0.0208333333333333
144
0.0
144
0.0
144
0.0
144
0.0
144
0.0208333333333333
144
0.0
144
0.0
144
0.0
144
0.0
144
1.0
144
0.0
144
0.0
144
0.0
144
0.0
144
1.0
147
0.0208333333333333
147
0.0
147
0.0
147
0.0
147
0.0
147
0.0208333333333333
147
0.0
147
0.0
147
0.0
147
0.0
147
1.0
147
0.0
147
0.0
147
0.0
147
0.0
147
1.0
  0
MATERIAL
  5
21
102
{ACAD_XDICTIONARY
360
22
102
}
102
{ACAD_REACTORS
330
10
102
}
330
10
100
AcDbMaterial
  1
Global
 72
     0
 43
0.0208333333333333
 43
0.0
 43
0.0
 43
0.0
 43
0.0
 43
0.0208333333333333
 43
0.0
 43
0.0
 43
0.0
 43
0.0
 43
1.0
 43
0.0
 43
0.0
 43
0.0
 43
0.0
 43
1.0
 77
     0
 47
0.0208333333333333
 47
0.0
 47
0.0
 47
0.0
 47
0.0
 47
0.0208333333333333
 47
0.0
 47
0.0
 47
0.0
 47
0.0
 47
1.0
 47
0.0
 47
0.0
 47
0.0
 47
0.0
 47
1.0
171
     0
 49
0.0208333333333333
 49
0.0
 49
0.0
 49
0.0
 49
0.0
 49
0.0208333333333333
 49
0.0
 49
0.0
 49
0.0
 49
0.0
 49
1.0
 49
0.0
 49
0.0
 49
0.0
 49
0.0
 49
1.0
175
     0
142
0.0208333333333333
142
0.0
142
0.0
142
0.0
142
0.0
142
0.0208333333333333
142
0.0
142
0.0
142
0.0
142
0.0
142
1.0
142
0.0
142
0.0
142
0.0
142
0.0
142
1.0
179
     0
144
0.0208333333333333
144
0.0
144
0.0
144
0.0
144
0.0
144
0.0208333333333333
144
0.0
144
0.0
144
0.0
144
0.0
144
1.0
144
0.0
144
0.0
144
0.0
144
0.0
144
1.0
147
0.0208333333333333
147
0.0
147
0.0
147
0.0
147
0.0
147
0.0208333333333333
147
0.0
147
0.0
147
0.0
147
0.0
147
1.0
147
0.0
147
0.0
147
0.0
147
0.0
147
1.0
  0
MLEADERSTYLE
  5
67
102
{ACAD_REACTORS
330
66
102
}
330
66
100
AcDbMLeaderStyle
179
     2
170
     2
171
     1
172
     0
 90
        2
 40
0.0
 41
0.0
173
     1
 91
-1056964608
340
5B
 92
       -2
290
     1
 42
0.09
291
     1
 43
0.36
  3
Standard
 44
0.18
300

342
55
174
     1
178
     6
175
     1
176
     0
 93
-1056964608
 45
0.18
292
     0
297
     0
 46
0.18
 94
-1056964608
 47
1.0
 49
1.0
140
1.0
293
     1
141
0.0
294
     1
177
     0
142
1.0
295
     0
296
     0
143
0.125
271
     0
272
     9
273
     9
298
     1
  0
MLINESTYLE
  5
60
102
{ACAD_REACTORS
330
5F
102
}
330
5F
100
AcDbMlineStyle
  2
STANDARD
 70
     0
  3

 62
   256
 51
90.0
 52
90.0
 71
     2
 49
0.5
 62
   256
  6
BYLAYER
 49
-0.5
 62
   256
  6
BYLAYER
  0
ACDBPLACEHOLDER
  5
F
102
{ACAD_REACTORS
330
E
102
}
330
E
  0
SCALE
  5
43
102
{ACAD_REACTORS
330
42
102
}
330
42
100
AcDbScale
 70
     0
300
1:1
140
1.0
141
1.0
290
     1
  0
SCALE
  5
44
102
{ACAD_REACTORS
330
42
102
}
330
42
100
AcDbScale
 70
     0
300
1/128" = 1'-0"
140
0.0078125
141
12.0
290
     0
  0
SCALE
  5
45
102
{ACAD_REACTORS
330
42
102
}
330
42
100
AcDbScale
 70
     0
300
1/64" = 1'-0"
140
0.015625
141
12.0
290
     0
  0
SCALE
  5
46
102
{ACAD_REACTORS
330
42
102
}
330
42
100
AcDbScale
 70
     0
300
1/32" = 1'-0"
140
0.03125
141
12.0
290
     0
  0
SCALE
  5
47
102
{ACAD_REACTORS
330
42
102
}
330
42
100
AcDbScale
 70
     0
300
1/16" = 1'-0"
140
0.0625
141
12.0
290
     0
  0
SCALE
  5
48
102
{ACAD_REACTORS
330
42
102
}
330
42
100
AcDbScale
 70
     0
300
3/32" = 1'-0"
140
0.09375
141
12.0
290
     0
  0
SCALE
  5
49
102
{ACAD_REACTORS
330
42
102
}
330
42
100
AcDbScale
 70
     0
300
1/8" = 1'-0"
140
0.125
141
12.0
290
     0
  0
SCALE
  5
4A
102
{ACAD_REACTORS
330
42
102
}
330
42
100
AcDbScale
 70
     0
300
3/16" = 1'-0"
140
0.1875
141
12.0
290
     0
  0
SCALE
  5
4B
102
{ACAD_REACTORS
330
42
102
}
330
42
100
AcDbScale
 70
     0
300
1/4" = 1'-0"
140
0.25
141
12.0
290
     0
  0
SCALE
  5
4C
102
{ACAD_REACTORS
330
42
102
}
330
42
100
AcDbScale
 70
     0
300
3/8" = 1'-0"
140
0.375
141
12.0
290
     0
  0
SCALE
  5
4D
102
{ACAD_REACTORS
330
42
102
}
330
42
100
AcDbScale
 70
     0
300
1/2" = 1'-0"
140
0.5
141
12.0
290
     0
  0
SCALE
  5
4E
102
{ACAD_REACTORS
330
42
102
}
330
42
100
AcDbScale
 70
     0
300
3/4" = 1'-0"
140
0.75
141
12.0
290
     0
  0
SCALE
  5
4F
102
{ACAD_REACTORS
330
42
102
}
330
42
100
AcDbScale
 70
     0
300
1" = 1'-0"
140
1.0
141
12.0
290
     0
  0
SCALE
  5
50
102
{ACAD_REACTORS
330
42
102
}
330
42
100
AcDbScale
 70
     0
300
1-1/2" = 1'-0"
140
1.5
141
12.0
290
     0
  0
SCALE
  5
51
102
{ACAD_REACTORS
330
42
102
}
330
42
100
AcDbScale
 70
     0
300
3" = 1'-0"
140
3.0
141
12.0
290
     0
  0
SCALE
  5
52
102
{ACAD_REACTORS
330
42
102
}
330
42
100
AcDbScale
 70
     0
300
6" = 1'-0"
140
6.0
141
12.0
290
     0
  0
SCALE
  5
53
102
{ACAD_REACTORS
330
42
102
}
330
42
100
AcDbScale
 70
     0
300
1'-0" = 1'-0"
140
12.0
141
12.0
290
     0
  0
ACDBSECTIONVIEWSTYLE
  5
69
102
{ACAD_XDICTIONARY
360
170
102
}
102
{ACAD_REACTORS
330
68
102
}
330
68
100
AcDbModelDocViewStyle
 70
     0
  3
Imperial24
290
     0
100
AcDbSectionViewStyle
 70
     0
 71
     0
 90
       78
 71
     1
340
55
 62
   256
 40
0.24
340
0
340
0
 62
   256
 40
0.24
300
I, O, Q, S, X, Z
 40
0.48
 90
        3
 40
0.18
 90
        1
 71
     2
340
5D
 90
       25
 62
   256
340
5D
 90
       50
 62
   256
 40
0.24
 40
0.0
 40
0.24
 71
     3
340
55
 62
   256
 40
0.24
 90
        1
 40
0.75
 90
        1
300
%<\AcVar ViewType \f "%tc1">% %<\AcVar ViewSectionStartId>%-%<\AcVar ViewSectionEndId>%\PSCALE %<\AcVar ViewScale \f "%sn">%
 71
     4
 62
   256
 62
   257
300
ANSI31
 40
1.0
 90
        0
290
     0
290
     0
 90
        6
 40
0.0
 40
1.570796326794896
 40
0.2617993877991494
 40
1.308996938995747
 40
-0.2617993877991494
 40
1.832595714594045
  0
TABLESTYLE
  5
65
102
{ACAD_XDICTIONARY
360
EF
102
}
102
{ACAD_REACTORS
330
64
102
}
330
64
100
AcDbTableStyle
280
     0
  3
Standard
 70
     0
 71
     0
 40
0.06
 41
0.06
280
     0
281
     0
  7
Standard
140
0.18
170
     2
 62
     0
 63
     7
283
     0
 90
      512
 91
        0
  1

274
    -2
284
     1
 64
     0
275
    -2
285
     1
 65
     0
276
    -2
286
     1
 66
     0
277
    -2
287
     1
 67
     0
278
    -2
288
     1
 68
     0
279
    -2
289
     1
 69
     0
  7
Standard
140
0.25
170
     5
 62
     0
 63
     7
283
     0
 90
      512
 91
        0
  1

274
    -2
284
     1
 64
     0
275
    -2
285
     1
 65
     0
276
    -2
286
     1
 66
     0
277
    -2
287
     1
 67
     0
278
    -2
288
     1
 68
     0
279
    -2
289
     1
 69
     0
  7
Standard
140
0.18
170
     5
 62
     0
 63
     7
283
     0
 90
      512
 91
        0
  1

274
    -2
284
     1
 64
     0
275
    -2
285
     1
 65
     0
276
    -2
286
     1
 66
     0
277
    -2
287
     1
 67
     0
278
    -2
288
     1
 68
     0
279
    -2
289
     1
 69
     0
  0
VISUALSTYLE
  5
2F
102
{ACAD_REACTORS
330
29
102
}
330
29
100
AcDbVisualStyle
  2
2dWireframe
 70
     4
177
     3
291
     0
 70
    58
 90
        0
176
     1
 90
        2
176
     1
 90
        0
176
     1
 90
        0
176
     1
 40
0.6
176
     1
 40
30.0
176
     1
 62
     7
420
 16777215
176
     1
 90
        1
176
     1
 90
        4
176
     1
 62
     7
176
     1
 62
   257
176
     1
 90
        1
176
     1
 90
        1
176
     1
 40
1.0
176
     1
 90
        0
176
     1
 62
   257
176
     1
 40
1.0
176
     1
 90
        1
176
     1
 90
        6
176
     1
 90
        2
176
     1
 62
     7
176
     1
 90
        5
176
     1
 90
        0
176
     1
 90
        0
176
     1
290
     0
176
     1
 90
        1
176
     1
 40
0.0
176
     1
 90
        0
176
     1
290
     1
176
     1
290
     1
176
     1
290
     0
176
     1
290
     0
176
     1
290
     0
176
     1
290
     0
176
     1
290
     0
176
     1
290
     0
176
     1
290
     0
176
     1
 90
       50
176
     1
 40
0.0
176
     1
 40
1.0
176
     1
 90
        0
176
     1
 62
    18
420
        0
176
     1
 90
       50
176
     1
 90
        3
176
     1
 62
     5
420
      255
176
     1
290
     0
176
     1
 90
       50
176
     1
 90
       50
176
     1
 90
       50
176
     1
290
     0
176
     1
 90
       50
176
     1
 62
   256
176
     0
 40
1.0
176
     0
 90
        2
176
     1
  1
strokes_ogs.tif
176
     1
290
     0
176
     1
 40
1.0
176
     1
 40
1.0
176
     1
1001
ACAD
1000
AcDbSavedByObjectVersion
1070
     0
  0
VISUALSTYLE
  5
2E
102
{ACAD_REACTORS
330
29
102
}
330
29
100
AcDbVisualStyle
  2
Basic
 70
     7
177
     3
291
     1
 70
    58
 90
        1
176
     1
 90
        0
176
     1
 90
        1
176
     1
 90
        0
176
     1
 40
0.6
176
     1
 40
30.0
176
     1
 62
     7
420
 16777215
176
     1
 90
        0
176
     1
 90
        4
176
     1
 62
     7
176
     1
 62
   257
176
     1
 90
        1
176
     1
 90
        1
176
     1
 40
1.0
176
     1
 90
        8
176
     1
 62
     7
176
     1
 40
1.0
176
     1
 90
        1
176
     1
 90
        6
176
     1
 90
        2
176
     1
 62
     7
176
     1
 90
        5
176
     1
 90
        0
176
     1
 90
        0
176
     1
290
     0
176
     1
 90
        1
176
     1
 40
0.0
176
     1
 90
        0
176
     1
290
     0
176
     1
290
     1
176
     1
290
     1
176
     1
290
     0
176
     1
290
     0
176
     1
290
     0
176
     1
290
     0
176
     1
290
     0
176
     1
290
     0
176
     1
 90
       50
176
     1
 40
0.0
176
     1
 40
1.0
176
     1
 90
        0
176
     1
 62
    18
420
        0
176
     1
 90
       50
176
     1
 90
        3
176
     1
 62
     5
420
      255
176
     1
290
     0
176
     1
 90
       50
176
     1
 90
       50
176
     1
 90
       50
176
     1
290
     0
176
     1
 90
       50
176
     1
 62
   256
176
     0
 40
1.0
176
     0
 90
        2
176
     1
  1
strokes_ogs.tif
176
     1
290
     0
176
     1
 40
1.0
176
     1
 40
1.0
176
     1
1001
ACAD
1000
AcDbSavedByObjectVersion
1070
     0
  0
VISUALSTYLE
  5
35
102
{ACAD_REACTORS
330
29
102
}
330
29
100
AcDbVisualStyle
  2
Brighten
 70
    12
177
     3
291
     1
 70
    58
 90
        2
176
     1
 90
        2
176
     1
 90
        0
176
     1
 90
        0
176
     1
 40
0.6
176
     1
 40
30.0
176
     1
 62
     7
420
 16777215
176
     1
 90
        1
176
     1
 90
        4
176
     1
 62
     7
176
     1
 62
   257
176
     1
 90
        1
176
     1
 90
        1
176
     1
 40
1.0
176
     1
 90
        8
176
     1
 62
     7
176
     1
 40
1.0
176
     1
 90
        1
176
     1
 90
        6
176
     1
 90
        2
176
     1
 62
     7
176
     1
 90
        5
176
     1
 90
        0
176
     1
 90
        0
176
     1
290
     0
176
     1
 90
        1
176
     1
 40
50.0
176
     1
 90
        0
176
     1
290
     0
176
     1
290
     1
176
     1
290
     1
176
     1
290
     0
176
     1
290
     0
176
     1
290
     0
176
     1
290
     0
176
     1
290
     0
176
     1
290
     0
176
     1
 90
       50
176
     1
 40
0.0
176
     1
 40
1.0
176
     1
 90
        0
176
     1
 62
    18
420
        0
176
     1
 90
       50
176
     1
 90
        3
176
     1
 62
     5
420
      255
176
     1
290
     0
176
     1
 90
       50
176
     1
 90
       50
176
     1
 90
       50
176
     1
290
     0
176
     1
 90
       50
176
     1
 62
   256
176
     0
 40
1.0
176
     0
 90
        2
176
     1
  1
strokes_ogs.tif
176
     1
290
     0
176
     1
 40
1.0
176
     1
 40
1.0
176
     1
1001
ACAD
1000
AcDbSavedByObjectVersion
1070
     0
  0
VISUALSTYLE
  5
39
102
{ACAD_REACTORS
330
29
102
}
330
29
100
AcDbVisualStyle
  2
ColorChange
 70
    16
177
     3
291
     1
 70
    58
 90
        2
176
     1
 90
        2
176
     1
 90
        3
176
     1
 90
        0
176
     1
 40
0.6
176
     1
 40
30.0
176
     1
 62
     8
420
  8421504
176
     1
 90
        1
176
     1
 90
        4
176
     1
 62
     7
176
     1
 62
   257
176
     1
 90
        1
176
     1
 90
        1
176
     1
 40
1.0
176
     1
 90
        8
176
     1
 62
     8
420
  8421504
176
     1
 40
1.0
176
     1
 90
        1
176
     1
 90
        6
176
     1
 90
        2
176
     1
 62
     7
176
     1
 90
        5
176
     1
 90
        0
176
     1
 90
        0
176
     1
290
     0
176
     1
 90
        1
176
     1
 40
0.0
176
     1
 90
        0
176
     1
290
     0
176
     1
290
     1
176
     1
290
     1
176
     1
290
     0
176
     1
290
     0
176
     1
290
     0
176
     1
290
     0
176
     1
290
     0
176
     1
290
     0
176
     1
 90
       50
176
     1
 40
0.0
176
     1
 40
1.0
176
     1
 90
        0
176
     1
 62
    18
420
        0
176
     1
 90
       50
176
     1
 90
        3
176
     1
 62
     5
420
      255
176
     1
290
     0
176
     1
 90
       50
176
     1
 90
       50
176
     1
 90
       50
176
     1
290
     0
176
     1
 90
       50
176
     1
 62
   256
176
     0
 40
1.0
176
     0
 90
        2
176
     1
  1
strokes_ogs.tif
176
     1
290
     0
176
     1
 40
1.0
176
     1
 40
1.0
176
     1
1001
ACAD
1000
AcDbSavedByObjectVersion
1070
     0
  0
VISUALSTYLE
  5
32
102
{ACAD_REACTORS
330
29
102
}
330
29
100
AcDbVisualStyle
  2
Conceptual
 70
     9
177
     3
291
     0
 70
    58
 90
        3
176
     1
 90
        2
176
     1
 90
        0
176
     1
 90
        0
176
     1
 40
0.6
176
     1
 40
30.0
176
     1
 62
     7
420
 16777215
176
     1
 90
        2
176
     1
 90
        2
176
     1
 62
     7
176
     1
 62
   257
176
     1
 90
        1
176
     1
 90
        1
176
     1
 40
179.0
176
     1
 90
        8
176
     1
 62
     7
176
     1
 40
1.0
176
     1
 90
        1
176
     1
 90
        6
176
     1
 90
        2
176
     1
 62
     7
176
     1
 90
        3
176
     1
 90
        0
176
     1
 90
        0
176
     1
290
     0
176
     1
 90
        1
176
     1
 40
0.0
176
     1
 90
        0
176
     1
290
     0
176
     1
290
     1
176
     1
290
     1
176
     1
290
     0
176
     1
290
     0
176
     1
290
     0
176
     1
290
     0
176
     1
290
     0
176
     1
290
     0
176
     1
 90
       50
176
     1
 40
0.0
176
     1
 40
1.0
176
     1
 90
        0
176
     1
 62
    18
420
        0
176
     1
 90
       50
176
     1
 90
        3
176
     1
 62
     5
420
      255
176
     1
290
     0
176
     1
 90
       50
176
     1
 90
       50
176
     1
 90
       50
176
     1
290
     0
176
     1
 90
       50
176
     1
 62
   256
176
     0
 40
1.0
176
     0
 90
        2
176
     1
  1
strokes_ogs.tif
176
     1
290
     0
176
     1
 40
1.0
176
     1
 40
1.0
176
     1
1001
ACAD
1000
AcDbSavedByObjectVersion
1070
     0
  0
VISUALSTYLE
  5
34
102
{ACAD_REACTORS
330
29
102
}
330
29
100
AcDbVisualStyle
  2
Dim
 70
    11
177
     3
291
     1
 70
    58
 90
        2
176
     1
 90
        2
176
     1
 90
        0
176
     1
 90
        0
176
     1
 40
0.6
176
     1
 40
30.0
176
     1
 62
     7
420
 16777215
176
     1
 90
        1
176
     1
 90
        4
176
     1
 62
     7
176
     1
 62
   257
176
     1
 90
        1
176
     1
 90
        1
176
     1
 40
1.0
176
     1
 90
        8
176
     1
 62
     7
176
     1
 40
1.0
176
     1
 90
        1
176
     1
 90
        6
176
     1
 90
        2
176
     1
 62
     7
176
     1
 90
        5
176
     1
 90
        0
176
     1
 90
        0
176
     1
290
     0
176
     1
 90
        1
176
     1
 40
-50.0
176
     1
 90
        0
176
     1
290
     0
176
     1
290
     1
176
     1
290
     1
176
     1
290
     0
176
     1
290
     0
176
     1
290
     0
176
     1
290
     0
176
     1
290
     0
176
     1
290
     0
176
     1
 90
       50
176
     1
 40
0.0
176
     1
 40
1.0
176
     1
 90
        0
176
     1
 62
    18
420
        0
176
     1
 90
       50
176
     1
 90
        3
176
     1
 62
     5
420
      255
176
     1
290
     0
176
     1
 90
       50
176
     1
 90
       50
176
     1
 90
       50
176
     1
290
     0
176
     1
 90
       50
176
     1
 62
   256
176
     0
 40
1.0
176
     0
 90
        2
176
     1
  1
strokes_ogs.tif
176
     1
290
     0
176
     1
 40
1.0
176
     1
 40
1.0
176
     1
1001
ACAD
1000
AcDbSavedByObjectVersion
1070
     0
  0
VISUALSTYLE
  5
41
102
{ACAD_REACTORS
330
29
102
}
330
29
100
AcDbVisualStyle
  2
EdgeColorOff
 70
    22
177
     3
291
     1
 70
    58
 90
        2
176
     0
 90
        2
176
     0
 90
        0
176
     0
 90
        0
176
     0
 40
0.6
176
     0
 40
30.0
176
     0
 62
     7
420
 16777215
176
     0
 90
        1
176
     0
 90
        4
176
     0
 62
     7
176
     0
 62
   257
176
     0
 90
        1
176
     0
 90
        1
176
     0
 40
1.0
176
     0
 90
        8
176
     2
 62
     7
176
     0
 40
1.0
176
     0
 90
        1
176
     0
 90
        6
176
     0
 90
        2
176
     0
 62
     7
176
     0
 90
        5
176
     0
 90
        0
176
     0
 90
        0
176
     0
290
     0
176
     0
 90
        1
176
     0
 40
0.0
176
     0
 90
        0
176
     0
290
     0
176
     0
290
     1
176
     0
290
     1
176
     0
290
     0
176
     0
290
     0
176
     0
290
     0
176
     0
290
     0
176
     0
290
     0
176
     0
290
     0
176
     0
 90
       50
176
     0
 40
0.0
176
     0
 40
1.0
176
     0
 90
        0
176
     0
 62
    18
420
        0
176
     0
 90
       50
176
     0
 90
        3
176
     0
 62
     5
420
      255
176
     0
290
     0
176
     0
 90
       50
176
     0
 90
       50
176
     0
 90
       50
176
     0
290
     0
176
     0
 90
       50
176
     0
 62
   256
176
     0
 40
1.0
176
     0
 90
        2
176
     0
  1
strokes_ogs.tif
176
     0
290
     0
176
     0
 40
1.0
176
     0
 40
1.0
176
     0
1001
ACAD
1000
AcDbSavedByObjectVersion
1070
     0
  0
VISUALSTYLE
  5
38
102
{ACAD_REACTORS
330
29
102
}
330
29
100
AcDbVisualStyle
  2
Facepattern
 70
    15
177
     3
291
     1
 70
    58
 90
        2
176
     1
 90
        2
176
     1
 90
        0
176
     1
 90
        0
176
     1
 40
0.6
176
     1
 40
30.0
176
     1
 62
     7
420
 16777215
176
     1
 90
        1
176
     1
 90
        4
176
     1
 62
     7
176
     1
 62
   257
176
     1
 90
        1
176
     1
 90
        1
176
     1
 40
1.0
176
     1
 90
        8
176
     1
 62
     7
176
     1
 40
1.0
176
     1
 90
        1
176
     1
 90
        6
176
     1
 90
        2
176
     1
 62
     7
176
     1
 90
        5
176
     1
 90
        0
176
     1
 90
        0
176
     1
290
     0
176
     1
 90
        1
176
     1
 40
0.0
176
     1
 90
        0
176
     1
290
     0
176
     1
290
     1
176
     1
290
     1
176
     1
290
     0
176
     1
290
     0
176
     1
290
     0
176
     1
290
     0
176
     1
290
     0
176
     1
290
     0
176
     1
 90
       50
176
     1
 40
0.0
176
     1
 40
1.0
176
     1
 90
        0
176
     1
 62
    18
420
        0
176
     1
 90
       50
176
     1
 90
        3
176
     1
 62
     5
420
      255
176
     1
290
     0
176
     1
 90
       50
176
     1
 90
       50
176
     1
 90
       50
176
     1
290
     0
176
     1
 90
       50
176
     1
 62
   256
176
     0
 40
1.0
176
     0
 90
        2
176
     1
  1
strokes_ogs.tif
176
     1
290
     0
176
     1
 40
1.0
176
     1
 40
1.0
176
     1
1001
ACAD
1000
AcDbSavedByObjectVersion
1070
     0
  0
VISUALSTYLE
  5
2A
102
{ACAD_REACTORS
330
29
102
}
330
29
100
AcDbVisualStyle
  2
Flat
 70
     0
177
     3
291
     1
 70
    58
 90
        2
176
     1
 90
        1
176
     1
 90
        1
176
     1
 90
        2
176
     1
 40
0.6
176
     1
 40
30.0
176
     1
 62
     7
420
 16777215
176
     1
 90
        0
176
     1
 90
        0
176
     1
 62
     7
176
     1
 62
   257
176
     1
 90
        1
176
     1
 90
        1
176
     1
 40
1.0
176
     1
 90
        8
176
     1
 62
     7
176
     1
 40
1.0
176
     1
 90
        1
176
     1
 90
        6
176
     1
 90
        2
176
     1
 62
     7
176
     1
 90
        5
176
     1
 90
        0
176
     1
 90
        0
176
     1
290
     0
176
     1
 90
       13
176
     1
 40
0.0
176
     1
 90
        0
176
     1
290
     0
176
     1
290
     1
176
     1
290
     1
176
     1
290
     0
176
     1
290
     0
176
     1
290
     0
176
     1
290
     0
176
     1
290
     0
176
     1
290
     0
176
     1
 90
       50
176
     1
 40
0.0
176
     1
 40
1.0
176
     1
 90
        0
176
     1
 62
    18
420
        0
176
     1
 90
       50
176
     1
 90
        3
176
     1
 62
     5
420
      255
176
     1
290
     0
176
     1
 90
       50
176
     1
 90
       50
176
     1
 90
       50
176
     1
290
     0
176
     1
 90
       50
176
     1
 62
   256
176
     0
 40
1.0
176
     0
 90
        2
176
     1
  1
strokes_ogs.tif
176
     1
290
     0
176
     1
 40
1.0
176
     1
 40
1.0
176
     1
1001
ACAD
1000
AcDbSavedByObjectVersion
1070
     0
  0
VISUALSTYLE
  5
2B
102
{ACAD_REACTORS
330
29
102
}
330
29
100
AcDbVisualStyle
  2
FlatWithEdges
 70
     1
177
     3
291
     1
 70
    58
 90
        2
176
     1
 90
        1
176
     1
 90
        1
176
     1
 90
        2
176
     1
 40
0.6
176
     1
 40
30.0
176
     1
 62
     7
420
 16777215
176
     1
 90
        1
176
     1
 90
        0
176
     1
 62
     7
176
     1
 62
   257
176
     1
 90
        1
176
     1
 90
        1
176
     1
 40
1.0
176
     1
 90
        0
176
     1
 62
   257
176
     1
 40
1.0
176
     1
 90
        1
176
     1
 90
        6
176
     1
 90
        2
176
     1
 62
     7
176
     1
 90
        5
176
     1
 90
        0
176
     1
 90
        0
176
     1
290
     0
176
     1
 90
       13
176
     1
 40
0.0
176
     1
 90
        0
176
     1
290
     0
176
     1
290
     1
176
     1
290
     1
176
     1
290
     0
176
     1
290
     0
176
     1
290
     0
176
     1
290
     0
176
     1
290
     0
176
     1
290
     0
176
     1
 90
       50
176
     1
 40
0.0
176
     1
 40
1.0
176
     1
 90
        0
176
     1
 62
    18
420
        0
176
     1
 90
       50
176
     1
 90
        3
176
     1
 62
     5
420
      255
176
     1
290
     0
176
     1
 90
       50
176
     1
 90
       50
176
     1
 90
       50
176
     1
290
     0
176
     1
 90
       50
176
     1
 62
   256
176
     0
 40
1.0
176
     0
 90
        2
176
     1
  1
strokes_ogs.tif
176
     1
290
     0
176
     1
 40
1.0
176
     1
 40
1.0
176
     1
1001
ACAD
1000
AcDbSavedByObjectVersion
1070
     0
  0
VISUALSTYLE
  5
2C
102
{ACAD_REACTORS
330
29
102
}
330
29
100
AcDbVisualStyle
  2
Gouraud
 70
     2
177
     3
291
     1
 70
    58
 90
        2
176
     1
 90
        2
176
     1
 90
        1
176
     1
 90
        2
176
     1
 40
0.6
176
     1
 40
30.0
176
     1
 62
     7
420
 16777215
176
     1
 90
        0
176
     1
 90
        0
176
     1
 62
     7
176
     1
 62
   257
176
     1
 90
        1
176
     1
 90
        1
176
     1
 40
1.0
176
     1
 90
        0
176
     1
 62
     7
176
     1
 40
1.0
176
     1
 90
        1
176
     1
 90
        6
176
     1
 90
        2
176
     1
 62
     7
176
     1
 90
        5
176
     1
 90
        0
176
     1
 90
        0
176
     1
290
     0
176
     1
 90
       13
176
     1
 40
0.0
176
     1
 90
        0
176
     1
290
     0
176
     1
290
     1
176
     1
290
     1
176
     1
290
     0
176
     1
290
     0
176
     1
290
     0
176
     1
290
     0
176
     1
290
     0
176
     1
290
     0
176
     1
 90
       50
176
     1
 40
0.0
176
     1
 40
1.0
176
     1
 90
        0
176
     1
 62
    18
420
        0
176
     1
 90
       50
176
     1
 90
        3
176
     1
 62
     5
420
      255
176
     1
290
     0
176
     1
 90
       50
176
     1
 90
       50
176
     1
 90
       50
176
     1
290
     0
176
     1
 90
       50
176
     1
 62
   256
176
     0
 40
1.0
176
     0
 90
        2
176
     1
  1
strokes_ogs.tif
176
     1
290
     0
176
     1
 40
1.0
176
     1
 40
1.0
176
     1
1001
ACAD
1000
AcDbSavedByObjectVersion
1070
     0
  0
VISUALSTYLE
  5
2D
102
{ACAD_REACTORS
330
29
102
}
330
29
100
AcDbVisualStyle
  2
GouraudWithEdges
 70
     3
177
     3
291
     1
 70
    58
 90
        2
176
     1
 90
        2
176
     1
 90
        1
176
     1
 90
        2
176
     1
 40
0.6
176
     1
 40
30.0
176
     1
 62
     7
420
 16777215
176
     1
 90
        1
176
     1
 90
        0
176
     1
 62
     7
176
     1
 62
   257
176
     1
 90
        1
176
     1
 90
        1
176
     1
 40
1.0
176
     1
 90
        0
176
     1
 62
   257
176
     1
 40
1.0
176
     1
 90
        1
176
     1
 90
        6
176
     1
 90
        2
176
     1
 62
     7
176
     1
 90
        5
176
     1
 90
        0
176
     1
 90
        0
176
     1
290
     0
176
     1
 90
       13
176
     1
 40
0.0
176
     1
 90
        0
176
     1
290
     0
176
     1
290
     1
176
     1
290
     1
176
     1
290
     0
176
     1
290
     0
176
     1
290
     0
176
     1
290
     0
176
     1
290
     0
176
     1
290
     0
176
     1
 90
       50
176
     1
 40
0.0
176
     1
 40
1.0
176
     1
 90
        0
176
     1
 62
    18
420
        0
176
     1
 90
       50
176
     1
 90
        3
176
     1
 62
     5
420
      255
176
     1
290
     0
176
     1
 90
       50
176
     1
 90
       50
176
     1
 90
       50
176
     1
290
     0
176
     1
 90
       50
176
     1
 62
   256
176
     0
 40
1.0
176
     0
 90
        2
176
     1
  1
strokes_ogs.tif
176
     1
290
     0
176
     1
 40
1.0
176
     1
 40
1.0
176
     1
1001
ACAD
1000
AcDbSavedByObjectVersion
1070
     0
  0
VISUALSTYLE
  5
31
102
{ACAD_REACTORS
330
29
102
}
330
29
100
AcDbVisualStyle
  2
Hidden
 70
     6
177
     3
291
     0
 70
    58
 90
        1
176
     1
 90
        2
176
     1
 90
        2
176
     1
 90
        0
176
     1
 40
0.6
176
     1
 40
30.0
176
     1
 62
     7
420
 16777215
176
     1
 90
        2
176
     1
 90
        2
176
     1
 62
     7
176
     1
 62
   257
176
     1
 90
        2
176
     1
 90
        1
176
     1
 40
40.0
176
     1
 90
        0
176
     1
 62
   257
176
     1
 40
1.0
176
     1
 90
        1
176
     1
 90
        6
176
     1
 90
        2
176
     1
 62
     7
176
     1
 90
        3
176
     1
 90
        0
176
     1
 90
        0
176
     1
290
     0
176
     1
 90
        1
176
     1
 40
0.0
176
     1
 90
        0
176
     1
290
     0
176
     1
290
     1
176
     1
290
     1
176
     1
290
     0
176
     1
290
     0
176
     1
290
     0
176
     1
290
     0
176
     1
290
     0
176
     1
290
     0
176
     1
 90
       50
176
     1
 40
0.0
176
     1
 40
1.0
176
     1
 90
        0
176
     1
 62
    18
420
        0
176
     1
 90
       50
176
     1
 90
        3
176
     1
 62
     5
420
      255
176
     1
290
     0
176
     1
 90
       50
176
     1
 90
       50
176
     1
 90
       50
176
     1
290
     0
176
     1
 90
       50
176
     1
 62
   256
176
     0
 40
1.0
176
     0
 90
        2
176
     1
  1
strokes_ogs.tif
176
     1
290
     0
176
     1
 40
1.0
176
     1
 40
1.0
176
     1
1001
ACAD
1000
AcDbSavedByObjectVersion
1070
     0
  0
VISUALSTYLE
  5
3F
102
{ACAD_REACTORS
330
29
102
}
330
29
100
AcDbVisualStyle
  2
JitterOff
 70
    20
177
     3
291
     1
 70
    58
 90
        2
176
     0
 90
        2
176
     0
 90
        0
176
     0
 90
        0
176
     0
 40
0.6
176
     0
 40
30.0
176
     0
 62
     7
420
 16777215
176
     0
 90
        1
176
     0
 90
        4
176
     0
 62
     7
176
     0
 62
   257
176
     0
 90
        1
176
     0
 90
        1
176
     0
 40
1.0
176
     0
 90
       10
176
     2
 62
     7
176
     0
 40
1.0
176
     0
 90
        1
176
     0
 90
        6
176
     0
 90
        2
176
     0
 62
     7
176
     0
 90
        5
176
     0
 90
        0
176
     0
 90
        0
176
     0
290
     0
176
     0
 90
        1
176
     0
 40
0.0
176
     0
 90
        0
176
     0
290
     0
176
     0
290
     1
176
     0
290
     1
176
     0
290
     0
176
     0
290
     0
176
     0
290
     0
176
     0
290
     0
176
     0
290
     0
176
     0
290
     0
176
     0
 90
       50
176
     0
 40
0.0
176
     0
 40
1.0
176
     0
 90
        0
176
     0
 62
    18
420
        0
176
     0
 90
       50
176
     0
 90
        3
176
     0
 62
     5
420
      255
176
     0
290
     0
176
     0
 90
       50
176
     0
 90
       50
176
     0
 90
       50
176
     0
290
     0
176
     0
 90
       50
176
     0
 62
   256
176
     0
 40
1.0
176
     0
 90
        2
176
     0
  1
strokes_ogs.tif
176
     0
290
     0
176
     0
 40
1.0
176
     0
 40
1.0
176
     0
1001
ACAD
1000
AcDbSavedByObjectVersion
1070
     0
  0
VISUALSTYLE
  5
37
102
{ACAD_REACTORS
330
29
102
}
330
29
100
AcDbVisualStyle
  2
Linepattern
 70
    14
177
     3
291
     1
 70
    58
 90
        2
176
     1
 90
        2
176
     1
 90
        0
176
     1
 90
        0
176
     1
 40
0.6
176
     1
 40
30.0
176
     1
 62
     7
420
 16777215
176
     1
 90
        1
176
     1
 90
        4
176
     1
 62
     7
176
     1
 62
   257
176
     1
 90
        7
176
     1
 90
        7
176
     1
 40
1.0
176
     1
 90
        8
176
     1
 62
     7
176
     1
 40
1.0
176
     1
 90
        1
176
     1
 90
        6
176
     1
 90
        2
176
     1
 62
     7
176
     1
 90
        5
176
     1
 90
        0
176
     1
 90
        0
176
     1
290
     0
176
     1
 90
        1
176
     1
 40
0.0
176
     1
 90
        0
176
     1
290
     0
176
     1
290
     1
176
     1
290
     1
176
     1
290
     0
176
     1
290
     0
176
     1
290
     0
176
     1
290
     0
176
     1
290
     0
176
     1
290
     0
176
     1
 90
       50
176
     1
 40
0.0
176
     1
 40
1.0
176
     1
 90
        0
176
     1
 62
    18
420
        0
176
     1
 90
       50
176
     1
 90
        3
176
     1
 62
     5
420
      255
176
     1
290
     0
176
     1
 90
       50
176
     1
 90
       50
176
     1
 90
       50
176
     1
290
     0
176
     1
 90
       50
176
     1
 62
   256
176
     0
 40
1.0
176
     0
 90
        2
176
     1
  1
strokes_ogs.tif
176
     1
290
     0
176
     1
 40
1.0
176
     1
 40
1.0
176
     1
1001
ACAD
1000
AcDbSavedByObjectVersion
1070
     0
  0
VISUALSTYLE
  5
40
102
{ACAD_REACTORS
330
29
102
}
330
29
100
AcDbVisualStyle
  2
OverhangOff
 70
    21
177
     3
291
     1
 70
    58
 90
        2
176
     0
 90
        2
176
     0
 90
        0
176
     0
 90
        0
176
     0
 40
0.6
176
     0
 40
30.0
176
     0
 62
     7
420
 16777215
176
     0
 90
        1
176
     0
 90
        4
176
     0
 62
     7
176
     0
 62
   257
176
     0
 90
        1
176
     0
 90
        1
176
     0
 40
1.0
176
     0
 90
        9
176
     2
 62
     7
176
     0
 40
1.0
176
     0
 90
        1
176
     0
 90
        6
176
     0
 90
        2
176
     0
 62
     7
176
     0
 90
        5
176
     0
 90
        0
176
     0
 90
        0
176
     0
290
     0
176
     0
 90
        1
176
     0
 40
0.0
176
     0
 90
        0
176
     0
290
     0
176
     0
290
     1
176
     0
290
     1
176
     0
290
     0
176
     0
290
     0
176
     0
290
     0
176
     0
290
     0
176
     0
290
     0
176
     0
290
     0
176
     0
 90
       50
176
     0
 40
0.0
176
     0
 40
1.0
176
     0
 90
        0
176
     0
 62
    18
420
        0
176
     0
 90
       50
176
     0
 90
        3
176
     0
 62
     5
420
      255
176
     0
290
     0
176
     0
 90
       50
176
     0
 90
       50
176
     0
 90
       50
176
     0
290
     0
176
     0
 90
       50
176
     0
 62
   256
176
     0
 40
1.0
176
     0
 90
        2
176
     0
  1
strokes_ogs.tif
176
     0
290
     0
176
     0
 40
1.0
176
     0
 40
1.0
176
     0
1001
ACAD
1000
AcDbSavedByObjectVersion
1070
     0
  0
VISUALSTYLE
  5
33
102
{ACAD_REACTORS
330
29
102
}
330
29
100
AcDbVisualStyle
  2
Realistic
 70
     8
177
     3
291
     0
 70
    58
 90
        2
176
     1
 90
        3
176
     1
 90
        0
176
     1
 90
        2
176
     1
 40
0.6
176
     1
 40
30.0
176
     1
 62
     7
420
 16777215
176
     1
 90
        0
176
     1
 90
        0
176
     1
 62
     7
176
     1
 62
   257
176
     1
 90
        1
176
     1
 90
        1
176
     1
 40
1.0
176
     1
 90
        8
176
     1
 62
   257
176
     1
 40
1.0
176
     1
 90
        1
176
     1
 90
        6
176
     1
 90
        2
176
     1
 62
     7
176
     1
 90
        3
176
     1
 90
        0
176
     1
 90
        0
176
     1
290
     0
176
     1
 90
       13
176
     1
 40
0.0
176
     1
 90
        0
176
     1
290
     0
176
     1
290
     1
176
     1
290
     1
176
     1
290
     0
176
     1
290
     0
176
     1
290
     0
176
     1
290
     0
176
     1
290
     0
176
     1
290
     0
176
     1
 90
       50
176
     1
 40
0.0
176
     1
 40
1.0
176
     1
 90
        0
176
     1
 62
    18
420
        0
176
     1
 90
       50
176
     1
 90
        3
176
     1
 62
     5
420
      255
176
     1
290
     0
176
     1
 90
       50
176
     1
 90
       50
176
     1
 90
       50
176
     1
290
     0
176
     1
 90
       50
176
     1
 62
   256
176
     0
 40
1.0
176
     0
 90
        2
176
     1
  1
strokes_ogs.tif
176
     1
290
     0
176
     1
 40
1.0
176
     1
 40
1.0
176
     1
1001
ACAD
1000
AcDbSavedByObjectVersion
1070
     0
  0
VISUALSTYLE
  5
3E
102
{ACAD_REACTORS
330
29
102
}
330
29
100
AcDbVisualStyle
  2
Shaded
 70
    27
177
     3
291
     0
 70
    58
 90
        2
176
     1
 90
        2
176
     1
 90
        1
176
     1
 90
        2
176
     1
 40
0.6
176
     1
 40
30.0
176
     1
 62
     7
420
 16777215
176
     1
 90
        0
176
     1
 90
        4
176
     1
 62
     7
176
     1
 62
   257
176
     1
 90
        1
176
     1
 90
        1
176
     1
 40
1.0
176
     1
 90
        8
176
     1
 62
   257
176
     1
 40
1.0
176
     1
 90
        1
176
     1
 90
        6
176
     1
 90
        2
176
     1
 62
     8
420
  7895160
176
     1
 90
        3
176
     1
 90
        0
176
     1
 90
        0
176
     1
290
     0
176
     1
 90
        5
176
     1
 40
0.0
176
     1
 90
        0
176
     1
290
     0
176
     1
290
     1
176
     1
290
     1
176
     1
290
     0
176
     1
290
     0
176
     1
290
     0
176
     1
290
     0
176
     1
290
     0
176
     1
290
     0
176
     1
 90
       50
176
     1
 40
0.0
176
     1
 40
1.0
176
     1
 90
        0
176
     1
 62
    18
420
        0
176
     1
 90
       50
176
     1
 90
        3
176
     1
 62
     5
420
      255
176
     1
290
     0
176
     1
 90
       50
176
     1
 90
       50
176
     1
 90
       50
176
     1
290
     0
176
     1
 90
       50
176
     1
 62
   256
176
     0
 40
1.0
176
     0
 90
        2
176
     1
  1
strokes_ogs.tif
176
     1
290
     0
176
     1
 40
1.0
176
     1
 40
1.0
176
     1
1001
ACAD
1000
AcDbSavedByObjectVersion
1070
     0
  0
VISUALSTYLE
  5
3D
102
{ACAD_REACTORS
330
29
102
}
330
29
100
AcDbVisualStyle
  2
Shaded with edges
 70
    26
177
     3
291
     0
 70
    58
 90
        2
176
     1
 90
        2
176
     1
 90
        1
176
     1
 90
        2
176
     1
 40
0.6
176
     1
 40
30.0
176
     1
 62
     7
420
 16777215
176
     1
 90
        1
176
     1
 90
        2
176
     1
 62
     7
176
     1
 62
   257
176
     1
 90
        2
176
     1
 90
        1
176
     1
 40
1.0
176
     1
 90
        8
176
     1
 62
   257
176
     1
 40
1.0
176
     1
 90
        1
176
     1
 90
        6
176
     1
 90
        2
176
     1
 62
     7
176
     1
 90
        3
176
     1
 90
        0
176
     1
 90
        0
176
     1
290
     0
176
     1
 90
        5
176
     1
 40
0.0
176
     1
 90
        0
176
     1
290
     0
176
     1
290
     1
176
     1
290
     1
176
     1
290
     0
176
     1
290
     0
176
     1
290
     0
176
     1
290
     0
176
     1
290
     0
176
     1
290
     0
176
     1
 90
       50
176
     1
 40
0.0
176
     1
 40
1.0
176
     1
 90
        0
176
     1
 62
    18
420
        0
176
     1
 90
       50
176
     1
 90
        3
176
     1
 62
     5
420
      255
176
     1
290
     0
176
     1
 90
       50
176
     1
 90
       50
176
     1
 90
       50
176
     1
290
     0
176
     1
 90
       50
176
     1
 62
   256
176
     0
 40
1.0
176
     0
 90
        2
176
     1
  1
strokes_ogs.tif
176
     1
290
     0
176
     1
 40
1.0
176
     1
 40
1.0
176
     1
1001
ACAD
1000
AcDbSavedByObjectVersion
1070
     0
  0
VISUALSTYLE
  5
3A
102
{ACAD_REACTORS
330
29
102
}
330
29
100
AcDbVisualStyle
  2
Shades of Gray
 70
    23
177
     3
291
     0
 70
    58
 90
        2
176
     1
 90
        2
176
     1
 90
        3
176
     1
 90
        0
176
     1
 40
0.6
176
     1
 40
30.0
176
     1
 62
     7
420
 16777215
176
     1
 90
        2
176
     1
 90
        2
176
     1
 62
     7
176
     1
 62
     7
176
     1
 90
        1
176
     1
 90
        1
176
     1
 40
40.0
176
     1
 90
        8
176
     1
 62
     7
176
     1
 40
1.0
176
     1
 90
        1
176
     1
 90
        6
176
     1
 90
        2
176
     1
 62
     7
176
     1
 90
        3
176
     1
 90
        0
176
     1
 90
        0
176
     1
290
     0
176
     1
 90
        1
176
     1
 40
0.0
176
     1
 90
        0
176
     1
290
     0
176
     1
290
     1
176
     1
290
     1
176
     1
290
     0
176
     1
290
     0
176
     1
290
     0
176
     1
290
     0
176
     1
290
     0
176
     1
290
     0
176
     1
 90
       50
176
     1
 40
0.0
176
     1
 40
1.0
176
     1
 90
        0
176
     1
 62
    18
420
        0
176
     1
 90
       50
176
     1
 90
        3
176
     1
 62
     5
420
      255
176
     1
290
     0
176
     1
 90
       50
176
     1
 90
       50
176
     1
 90
       50
176
     1
290
     0
176
     1
 90
       50
176
     1
 62
   256
176
     0
 40
1.0
176
     0
 90
        2
176
     1
  1
strokes_ogs.tif
176
     1
290
     0
176
     1
 40
1.0
176
     1
 40
1.0
176
     1
1001
ACAD
1000
AcDbSavedByObjectVersion
1070
     0
  0
VISUALSTYLE
  5
3B
102
{ACAD_REACTORS
330
29
102
}
330
29
100
AcDbVisualStyle
  2
Sketchy
 70
    24
177
     3
291
     0
 70
    58
 90
        1
176
     1
 90
        2
176
     1
 90
        2
176
     1
 90
        0
176
     1
 40
0.6
176
     1
 40
30.0
176
     1
 62
     7
420
 16777215
176
     1
 90
        2
176
     1
 90
        2
176
     1
 62
     7
176
     1
 62
     7
176
     1
 90
        1
176
     1
 90
        1
176
     1
 40
40.0
176
     1
 90
       11
176
     1
 62
     7
176
     1
 40
1.0
176
     1
 90
        1
176
     1
 90
        6
176
     1
 90
        2
176
     1
 62
     7
176
     1
 90
        6
176
     1
 90
        0
176
     1
 90
        0
176
     1
290
     0
176
     1
 90
        1
176
     1
 40
0.0
176
     1
 90
        0
176
     1
290
     0
176
     1
290
     1
176
     1
290
     1
176
     1
290
     0
176
     1
290
     0
176
     1
290
     0
176
     1
290
     0
176
     1
290
     0
176
     1
290
     0
176
     1
 90
       50
176
     1
 40
0.0
176
     1
 40
1.0
176
     1
 90
        0
176
     1
 62
    18
420
        0
176
     1
 90
       50
176
     1
 90
        3
176
     1
 62
     5
420
      255
176
     1
290
     0
176
     1
 90
       50
176
     1
 90
       50
176
     1
 90
       50
176
     1
290
     0
176
     1
 90
       50
176
     1
 62
   256
176
     0
 40
1.0
176
     0
 90
        2
176
     1
  1
strokes_ogs.tif
176
     1
290
     0
176
     1
 40
1.0
176
     1
 40
1.0
176
     1
1001
ACAD
1000
AcDbSavedByObjectVersion
1070
     0
  0
VISUALSTYLE
  5
36
102
{ACAD_REACTORS
330
29
102
}
330
29
100
AcDbVisualStyle
  2
Thicken
 70
    13
177
     3
291
     1
 70
    58
 90
        2
176
     1
 90
        2
176
     1
 90
        0
176
     1
 90
        0
176
     1
 40
0.6
176
     1
 40
30.0
176
     1
 62
     7
420
 16777215
176
     1
 90
        1
176
     1
 90
        4
176
     1
 62
     7
176
     1
 62
   257
176
     1
 90
        1
176
     1
 90
        1
176
     1
 40
1.0
176
     1
 90
       12
176
     1
 62
     7
176
     1
 40
1.0
176
     1
 90
        1
176
     1
 90
        6
176
     1
 90
        2
176
     1
 62
     7
176
     1
 90
        5
176
     1
 90
        0
176
     1
 90
        0
176
     1
290
     0
176
     1
 90
        1
176
     1
 40
0.0
176
     1
 90
        0
176
     1
290
     0
176
     1
290
     1
176
     1
290
     1
176
     1
290
     0
176
     1
290
     0
176
     1
290
     0
176
     1
290
     0
176
     1
290
     0
176
     1
290
     0
176
     1
 90
       50
176
     1
 40
0.0
176
     1
 40
1.0
176
     1
 90
        0
176
     1
 62
    18
420
        0
176
     1
 90
       50
176
     1
 90
        3
176
     1
 62
     5
420
      255
176
     1
290
     0
176
     1
 90
       50
176
     1
 90
       50
176
     1
 90
       50
176
     1
290
     0
176
     1
 90
       50
176
     1
 62
   256
176
     0
 40
1.0
176
     0
 90
        2
176
     1
  1
strokes_ogs.tif
176
     1
290
     0
176
     1
 40
1.0
176
     1
 40
1.0
176
     1
1001
ACAD
1000
AcDbSavedByObjectVersion
1070
     0
  0
VISUALSTYLE
  5
30
102
{ACAD_REACTORS
330
29
102
}
330
29
100
AcDbVisualStyle
  2
Wireframe
 70
     5
177
     3
291
     0
 70
    58
 90
        0
176
     1
 90
        2
176
     1
 90
        0
176
     1
 90
        0
176
     1
 40
0.6
176
     1
 40
30.0
176
     1
 62
     7
420
 16777215
176
     1
 90
        1
176
     1
 90
        4
176
     1
 62
     7
176
     1
 62
   257
176
     1
 90
        1
176
     1
 90
        1
176
     1
 40
1.0
176
     1
 90
        0
176
     1
 62
   257
176
     1
 40
1.0
176
     1
 90
        1
176
     1
 90
        6
176
     1
 90
        2
176
     1
 62
     7
176
     1
 90
        3
176
     1
 90
        0
176
     1
 90
        0
176
     1
290
     0
176
     1
 90
        1
176
     1
 40
0.0
176
     1
 90
        0
176
     1
290
     0
176
     1
290
     1
176
     1
290
     1
176
     1
290
     0
176
     1
290
     0
176
     1
290
     0
176
     1
290
     0
176
     1
290
     0
176
     1
290
     0
176
     1
 90
       50
176
     1
 40
0.0
176
     1
 40
1.0
176
     1
 90
        0
176
     1
 62
    18
420
        0
176
     1
 90
       50
176
     1
 90
        3
176
     1
 62
     5
420
      255
176
     1
290
     0
176
     1
 90
       50
176
     1
 90
       50
176
     1
 90
       50
176
     1
290
     0
176
     1
 90
       50
176
     1
 62
   256
176
     0
 40
1.0
176
     0
 90
        2
176
     1
  1
strokes_ogs.tif
176
     1
290
     0
176
     1
 40
1.0
176
     1
 40
1.0
176
     1
1001
ACAD
1000
AcDbSavedByObjectVersion
1070
     0
  0
VISUALSTYLE
  5
3C
102
{ACAD_REACTORS
330
29
102
}
330
29
100
AcDbVisualStyle
  2
X-Ray
 70
    25
177
     3
291
     0
 70
    58
 90
        2
176
     1
 90
        2
176
     1
 90
        1
176
     1
 90
        1
176
     1
 40
0.5
176
     1
 40
30.0
176
     1
 62
     7
420
 16777215
176
     1
 90
        1
176
     1
 90
        0
176
     1
 62
     7
176
     1
 62
   257
176
     1
 90
        1
176
     1
 90
        1
176
     1
 40
1.0
176
     1
 90
        8
176
     1
 62
     7
176
     1
 40
1.0
176
     1
 90
        1
176
     1
 90
        6
176
     1
 90
        2
176
     1
 62
     7
176
     1
 90
        3
176
     1
 90
        0
176
     1
 90
        0
176
     1
290
     0
176
     1
 90
       13
176
     1
 40
0.0
176
     1
 90
        0
176
     1
290
     0
176
     1
290
     1
176
     1
290
     1
176
     1
290
     0
176
     1
290
     0
176
     1
290
     0
176
     1
290
     0
176
     1
290
     0
176
     1
290
     0
176
     1
 90
       50
176
     1
 40
0.0
176
     1
 40
1.0
176
     1
 90
        0
176
     1
 62
    18
420
        0
176
     1
 90
       50
176
     1
 90
        3
176
     1
 62
     5
420
      255
176
     1
290
     0
176
     1
 90
       50
176
     1
 90
       50
176
     1
 90
       50
176
     1
290
     0
176
     1
 90
       50
176
     1
 62
   256
176
     0
 40
1.0
176
     0
 90
        2
176
     1
  1
strokes_ogs.tif
176
     1
290
     0
176
     1
 40
1.0
176
     1
 40
1.0
176
     1
1001
ACAD
1000
AcDbSavedByObjectVersion
1070
     0
  0
DICTIONARYVAR
  5
EE
102
{ACAD_REACTORS
330
E9
102
}
330
E9
100
DictionaryVariables
280
     0
  1
1:1
  0
DICTIONARYVAR
  5
EB
102
{ACAD_REACTORS
330
E9
102
}
330
E9
100
DictionaryVariables
280
     0
  1
STANDARD
  0
DICTIONARYVAR
  5
EA
102
{ACAD_REACTORS
330
E9
102
}
330
E9
100
DictionaryVariables
280
     0
  1
STANDARD
  0
DICTIONARYVAR
  5
EC
102
{ACAD_REACTORS
330
E9
102
}
330
E9
100
DictionaryVariables
280
     0
  1
Imperial24
  0
DICTIONARYVAR
  5
ED
102
{ACAD_REACTORS
330
E9
102
}
330
E9
100
DictionaryVariables
280
     0
  1
Imperial24
  0
DICTIONARY
  5
172
330
6B
100
AcDbDictionary
280
     1
281
     1
  3
ACAD_XREC_ROUNDTRIP
360
173
  0
DICTIONARY
  5
1A
330
19
100
AcDbDictionary
280
     1
281
     1
  3
BUMPTILE
360
1C
  3
DIFFUSETILE
360
1B
  3
OPACITYTILE
360
1F
  3
REFLECTIONTILE
360
1E
  3
REFRACTIONTILE
360
20
  3
SPECULARTILE
360
1D
  0
DICTIONARY
  5
12
330
11
100
AcDbDictionary
280
     1
281
     1
  3
BUMPTILE
360
14
  3
DIFFUSETILE
360
13
  3
OPACITYTILE
360
17
  3
REFLECTIONTILE
360
16
  3
REFRACTIONTILE
360
18
  3
SPECULARTILE
360
15
  0
DICTIONARY
  5
22
330
21
100
AcDbDictionary
280
     1
281
     1
  3
BUMPTILE
360
24
  3
DIFFUSETILE
360
23
  3
OPACITYTILE
360
27
  3
REFLECTIONTILE
360
26
  3
REFRACTIONTILE
360
28
  3
SPECULARTILE
360
25
  0
DICTIONARY
  5
170
330
69
100
AcDbDictionary
280
     1
281
     1
  3
ACAD_XREC_ROUNDTRIP
360
171
  0
DICTIONARY
  5
EF
330
65
100
AcDbDictionary
280
     1
281
     1
  3
ACAD_ROUNDTRIP_2008_TABLESTYLE_CELLSTYLEMAP
360
16E
  0
XRECORD
  5
173
102
{ACAD_REACTORS
330
172
102
}
330
172
100
AcDbXrecord
280
     1
102
DISPLAYNAME
  1
Imperial24
102
FLAGS
 90
        0
  0
XRECORD
  5
1C
102
{ACAD_REACTORS
330
1A
102
}
330
1A
100
AcDbXrecord
280
     1
270
     1
271
     1
  0
XRECORD
  5
1B
102
{ACAD_REACTORS
330
1A
102
}
330
1A
100
AcDbXrecord
280
     1
270
     1
271
     1
  0
XRECORD
  5
1F
102
{ACAD_REACTORS
330
1A
102
}
330
1A
100
AcDbXrecord
280
     1
270
     1
271
     1
  0
XRECORD
  5
1E
102
{ACAD_REACTORS
330
1A
102
}
330
1A
100
AcDbXrecord
280
     1
270
     1
271
     1
  0
XRECORD
  5
20
102
{ACAD_REACTORS
330
1A
102
}
330
1A
100
AcDbXrecord
280
     1
270
     1
271
     1
  0
XRECORD
  5
1D
102
{ACAD_REACTORS
330
1A
102
}
330
1A
100
AcDbXrecord
280
     1
270
     1
271
     1
  0
XRECORD
  5
14
102
{ACAD_REACTORS
330
12
102
}
330
12
100
AcDbXrecord
280
     1
270
     1
271
     1
  0
XRECORD
  5
13
102
{ACAD_REACTORS
330
12
102
}
330
12
100
AcDbXrecord
280
     1
270
     1
271
     1
  0
XRECORD
  5
17
102
{ACAD_REACTORS
330
12
102
}
330
12
100
AcDbXrecord
280
     1
270
     1
271
     1
  0
XRECORD
  5
16
102
{ACAD_REACTORS
330
12
102
}
330
12
100
AcDbXrecord
280
     1
270
     1
271
     1
  0
XRECORD
  5
18
102
{ACAD_REACTORS
330
12
102
}
330
12
100
AcDbXrecord
280
     1
270
     1
271
     1
  0
XRECORD
  5
15
102
{ACAD_REACTORS
330
12
102
}
330
12
100
AcDbXrecord
280
     1
270
     1
271
     1
  0
XRECORD
  5
24
102
{ACAD_REACTORS
330
22
102
}
330
22
100
AcDbXrecord
280
     1
270
     1
271
     1
  0
XRECORD
  5
23
102
{ACAD_REACTORS
330
22
102
}
330
22
100
AcDbXrecord
280
     1
270
     1
271
     1
  0
XRECORD
  5
27
102
{ACAD_REACTORS
330
22
102
}
330
22
100
AcDbXrecord
280
     1
270
     1
271
     1
  0
XRECORD
  5
26
102
{ACAD_REACTORS
330
22
102
}
330
22
100
AcDbXrecord
280
     1
270
     1
271
     1
  0
XRECORD
  5
28
102
{ACAD_REACTORS
330
22
102
}
330
22
100
AcDbXrecord
280
     1
270
     1
271
     1
  0
XRECORD
  5
25
102
{ACAD_REACTORS
330
22
102
}
330
22
100
AcDbXrecord
280
     1
270
     1
271
     1
  0
XRECORD
  5
171
102
{ACAD_REACTORS
330
170
102
}
330
170
100
AcDbXrecord
280
     1
102
DISPLAYNAME
  1
Imperial24
102
FLAGS
 90
        0
  0
CELLSTYLEMAP
  5
16E
102
{ACAD_REACTORS
330
EF
102
}
330
EF
100
AcDbCellStyleMap
 90
        3
300
CELLSTYLE
  1
TABLEFORMAT_BEGIN
 90
        5
170
     1
 91
        0
 92
    32768
 62
   257
 93
        1
300
CONTENTFORMAT
  1
CONTENTFORMAT_BEGIN
 90
        0
 91
        0
 92
      512
 93
        0
300

 40
0.0
140
1.0
 94
        5
 62
     0
340
55
144
0.25
309
CONTENTFORMAT_END
171
     1
301
MARGIN
  1
CELLMARGIN_BEGIN
 40
0.06
 40
0.06
 40
0.06
 40
0.06
 40
0.18
 40
0.18
309
CELLMARGIN_END
 94
        6
 95
        1
302
GRIDFORMAT
  1
GRIDFORMAT_BEGIN
 90
        0
 91
        1
 62
     0
 92
       -2
340
0
 93
        0
 40
0.045
309
GRIDFORMAT_END
 95
        2
302
GRIDFORMAT
  1
GRIDFORMAT_BEGIN
 90
        0
 91
        1
 62
     0
 92
       -2
340
0
 93
        0
 40
0.045
309
GRIDFORMAT_END
 95
        4
302
GRIDFORMAT
  1
GRIDFORMAT_BEGIN
 90
        0
 91
        1
 62
     0
 92
       -2
340
0
 93
        0
 40
0.045
309
GRIDFORMAT_END
 95
        8
302
GRIDFORMAT
  1
GRIDFORMAT_BEGIN
 90
        0
 91
        1
 62
     0
 92
       -2
340
0
 93
        0
 40
0.045
309
GRIDFORMAT_END
 95
       16
302
GRIDFORMAT
  1
GRIDFORMAT_BEGIN
 90
        0
 91
        1
 62
     0
 92
       -2
340
0
 93
        0
 40
0.045
309
GRIDFORMAT_END
 95
       32
302
GRIDFORMAT
  1
GRIDFORMAT_BEGIN
 90
        0
 91
        1
 62
     0
 92
       -2
340
0
 93
        0
 40
0.045
309
GRIDFORMAT_END
309
TABLEFORMAT_END
  1
CELLSTYLE_BEGIN
 90
        1
 91
        1
300
_TITLE
309
CELLSTYLE_END
300
CELLSTYLE
  1
TABLEFORMAT_BEGIN
 90
        5
170
     1
 91
        0
 92
        0
 62
   257
 93
        1
300
CONTENTFORMAT
  1
CONTENTFORMAT_BEGIN
 90
        0
 91
        0
 92
      512
 93
        0
300

 40
0.0
140
1.0
 94
        5
 62
     0
340
55
144
0.18
309
CONTENTFORMAT_END
171
     1
301
MARGIN
  1
CELLMARGIN_BEGIN
 40
0.06
 40
0.06
 40
0.06
 40
0.06
 40
0.18
 40
0.18
309
CELLMARGIN_END
 94
        6
 95
        1
302
GRIDFORMAT
  1
GRIDFORMAT_BEGIN
 90
        0
 91
        1
 62
     0
 92
       -2
340
0
 93
        0
 40
0.045
309
GRIDFORMAT_END
 95
        2
302
GRIDFORMAT
  1
GRIDFORMAT_BEGIN
 90
        0
 91
        1
 62
     0
 92
       -2
340
0
 93
        0
 40
0.045
309
GRIDFORMAT_END
 95
        4
302
GRIDFORMAT
  1
GRIDFORMAT_BEGIN
 90
        0
 91
        1
 62
     0
 92
       -2
340
0
 93
        0
 40
0.045
309
GRIDFORMAT_END
 95
        8
302
GRIDFORMAT
  1
GRIDFORMAT_BEGIN
 90
        0
 91
        1
 62
     0
 92
       -2
340
0
 93
        0
 40
0.045
309
GRIDFORMAT_END
 95
       16
302
GRIDFORMAT
  1
GRIDFORMAT_BEGIN
 90
        0
 91
        1
 62
     0
 92
       -2
340
0
 93
        0
 40
0.045
309
GRIDFORMAT_END
 95
       32
302
GRIDFORMAT
  1
GRIDFORMAT_BEGIN
 90
        0
 91
        1
 62
     0
 92
       -2
340
0
 93
        0
 40
0.045
309
GRIDFORMAT_END
309
TABLEFORMAT_END
  1
CELLSTYLE_BEGIN
 90
        2
 91
        1
300
_HEADER
309
CELLSTYLE_END
300
CELLSTYLE
  1
TABLEFORMAT_BEGIN
 90
        5
170
     1
 91
        0
 92
        0
 62
   257
 93
        1
300
CONTENTFORMAT
  1
CONTENTFORMAT_BEGIN
 90
        0
 91
        0
 92
      512
 93
        0
300

 40
0.0
140
1.0
 94
        2
 62
     0
340
55
144
0.18
309
CONTENTFORMAT_END
171
     1
301
MARGIN
  1
CELLMARGIN_BEGIN
 40
0.06
 40
0.06
 40
0.06
 40
0.06
 40
0.18
 40
0.18
309
CELLMARGIN_END
 94
        6
 95
        1
302
GRIDFORMAT
  1
GRIDFORMAT_BEGIN
 90
        0
 91
        1
 62
     0
 92
       -2
340
0
 93
        0
 40
0.045
309
GRIDFORMAT_END
 95
        2
302
GRIDFORMAT
  1
GRIDFORMAT_BEGIN
 90
        0
 91
        1
 62
     0
 92
       -2
340
0
 93
        0
 40
0.045
309
GRIDFORMAT_END
 95
        4
302
GRIDFORMAT
  1
GRIDFORMAT_BEGIN
 90
        0
 91
        1
 62
     0
 92
       -2
340
0
 93
        0
 40
0.045
309
GRIDFORMAT_END
 95
        8
302
GRIDFORMAT
  1
GRIDFORMAT_BEGIN
 90
        0
 91
        1
 62
     0
 92
       -2
340
0
 93
        0
 40
0.045
309
GRIDFORMAT_END
 95
       16
302
GRIDFORMAT
  1
GRIDFORMAT_BEGIN
 90
        0
 91
        1
 62
     0
 92
       -2
340
0
 93
        0
 40
0.045
309
GRIDFORMAT_END
 95
       32
302
GRIDFORMAT
  1
GRIDFORMAT_BEGIN
 90
        0
 91
        1
 62
     0
 92
       -2
340
0
 93
        0
 40
0.045
309
GRIDFORMAT_END
309
TABLEFORMAT_END
  1
CELLSTYLE_BEGIN
 90
        3
 91
        2
300
_DATA
309
CELLSTYLE_END
  0
ENDSEC
  0
EOF
