  0
SECTION
  2
HEADER
  9
$ACADVER
  1
AC1027
  9
$ACADMAINTVER
 70
   125
  9
$DWGCODEPAGE
  3
ANSI_1252
  9
$LASTSAVEDBY
  1
ufficio.tecnico
  9
$REQUIREDVERSIONS
160
                 0
  9
$INSBASE
 10
0.0
 20
0.0
 30
0.0
  9
$EXTMIN
 10
-25.99999954167834
 20
-22.99999961558762
 30
0.0
  9
$EXTMAX
 10
104.4822164822988
 20
88.91858137849686
 30
0.0
  9
$LIMMIN
 10
0.0
 20
0.0
  9
$LIMMAX
 10
12.0
 20
9.0
  9
$ORTHOMODE
 70
     0
  9
$REGENMODE
 70
     1
  9
$FILLMODE
 70
     1
  9
$QTEXTMODE
 70
     0
  9
$MIRRTEXT
 70
     0
  9
$LTSCALE
 40
1.0
  9
$ATTMODE
 70
     1
  9
$TEXTSIZE
 40
0.2
  9
$TRACEWID
 40
0.05
  9
$TEXTSTYLE
  7
Standard
  9
$CLAYER
  8
0
  9
$CELTYPE
  6
ByLayer
  9
$CECOLOR
 62
   256
  9
$CELTSCALE
 40
1.0
  9
$DISPSILH
 70
     0
  9
$DIMSCALE
 40
1.0
  9
$DIMASZ
 40
0.18
  9
$DIMEXO
 40
0.0625
  9
$DIMDLI
 40
0.38
  9
$DIMRND
 40
0.0
  9
$DIMDLE
 40
0.0
  9
$DIMEXE
 40
0.18
  9
$DIMTP
 40
0.0
  9
$DIMTM
 40
0.0
  9
$DIMTXT
 40
0.18
  9
$DIMCEN
 40
0.09
  9
$DIMTSZ
 40
0.0
  9
$DIMTOL
 70
     0
  9
$DIMLIM
 70
     0
  9
$DIMTIH
 70
     1
  9
$DIMTOH
 70
     1
  9
$DIMSE1
 70
     0
  9
$DIMSE2
 70
     0
  9
$DIMTAD
 70
     0
  9
$DIMZIN
 70
     0
  9
$DIMBLK
  1

  9
$DIMASO
 70
     1
  9
$DIMSHO
 70
     1
  9
$DIMPOST
  1

  9
$DIMAPOST
  1

  9
$DIMALT
 70
     0
  9
$DIMALTD
 70
     2
  9
$DIMALTF
 40
25.4
  9
$DIMLFAC
 40
1.0
  9
$DIMTOFL
 70
     0
  9
$DIMTVP
 40
0.0
  9
$DIMTIX
 70
     0
  9
$DIMSOXD
 70
     0
  9
$DIMSAH
 70
     0
  9
$DIMBLK1
  1

  9
$DIMBLK2
  1

  9
$DIMSTYLE
  2
Standard
  9
$DIMCLRD
 70
     0
  9
$DIMCLRE
 70
     0
  9
$DIMCLRT
 70
     0
  9
$DIMTFAC
 40
1.0
  9
$DIMGAP
 40
0.09
  9
$DIMJUST
 70
     0
  9
$DIMSD1
 70
     0
  9
$DIMSD2
 70
     0
  9
$DIMTOLJ
 70
     1
  9
$DIMTZIN
 70
     0
  9
$DIMALTZ
 70
     0
  9
$DIMALTTZ
 70
     0
  9
$DIMUPT
 70
     0
  9
$DIMDEC
 70
     4
  9
$DIMTDEC
 70
     4
  9
$DIMALTU
 70
     2
  9
$DIMALTTD
 70
     2
  9
$DIMTXSTY
  7
Standard
  9
$DIMAUNIT
 70
     0
  9
$DIMADEC
 70
     0
  9
$DIMALTRND
 40
0.0
  9
$DIMAZIN
 70
     0
  9
$DIMDSEP
 70
    46
  9
$DIMATFIT
 70
     3
  9
$DIMFRAC
 70
     0
  9
$DIMLDRBLK
  1

  9
$DIMLUNIT
 70
     2
  9
$DIMLWD
 70
    -2
  9
$DIMLWE
 70
    -2
  9
$DIMTMOVE
 70
     0
  9
$DIMFXL
 40
1.0
  9
$DIMFXLON
 70
     0
  9
$DIMJOGANG
 40
0.7853981633974483
  9
$DIMTFILL
 70
     0
  9
$DIMTFILLCLR
 70
     0
  9
$DIMARCSYM
 70
     0
  9
$DIMLTYPE
  6

  9
$DIMLTEX1
  6

  9
$DIMLTEX2
  6

  9
$DIMTXTDIRECTION
 70
     0
  9
$LUNITS
 70
     2
  9
$LUPREC
 70
     4
  9
$SKETCHINC
 40
0.1
  9
$FILLETRAD
 40
0.0
  9
$AUNITS
 70
     0
  9
$AUPREC
 70
     0
  9
$MENU
  1
.
  9
$ELEVATION
 40
0.0
  9
$PELEVATION
 40
0.0
  9
$THICKNESS
 40
0.0
  9
$LIMCHECK
 70
     0
  9
$CHAMFERA
 40
0.0
  9
$CHAMFERB
 40
0.0
  9
$CHAMFERC
 40
0.0
  9
$CHAMFERD
 40
0.0
  9
$SKPOLY
 70
     0
  9
$TDCREATE
 40
2459328.431932870
  9
$TDUCREATE
 40
2459328.348599537
  9
$TDUPDATE
 40
2459341.397210649
  9
$TDUUPDATE
 40
2459341.313877315
  9
$TDINDWG
 40
0.0110763889
  9
$TDUSRTIMER
 40
0.0110763889
  9
$USRTIMER
 70
     1
  9
$ANGBASE
 50
0.0
  9
$ANGDIR
 70
     0
  9
$PDMODE
 70
     0
  9
$PDSIZE
 40
0.0
  9
$PLINEWID
 40
0.0
  9
$SPLFRAME
 70
     0
  9
$SPLINETYPE
 70
     6
  9
$SPLINESEGS
 70
     8
  9
$HANDSEED
  5
1029
  9
$SURFTAB1
 70
     6
  9
$SURFTAB2
 70
     6
  9
$SURFTYPE
 70
     6
  9
$SURFU
 70
     6
  9
$SURFV
 70
     6
  9
$UCSBASE
  2

  9
$UCSNAME
  2

  9
$UCSORG
 10
0.0
 20
0.0
 30
0.0
  9
$UCSXDIR
 10
1.0
 20
0.0
 30
0.0
  9
$UCSYDIR
 10
0.0
 20
1.0
 30
0.0
  9
$UCSORTHOREF
  2

  9
$UCSORTHOVIEW
 70
     0
  9
$UCSORGTOP
 10
0.0
 20
0.0
 30
0.0
  9
$UCSORGBOTTOM
 10
0.0
 20
0.0
 30
0.0
  9
$UCSORGLEFT
 10
0.0
 20
0.0
 30
0.0
  9
$UCSORGRIGHT
 10
0.0
 20
0.0
 30
0.0
  9
$UCSORGFRONT
 10
0.0
 20
0.0
 30
0.0
  9
$UCSORGBACK
 10
0.0
 20
0.0
 30
0.0
  9
$PUCSBASE
  2

  9
$PUCSNAME
  2

  9
$PUCSORG
 10
0.0
 20
0.0
 30
0.0
  9
$PUCSXDIR
 10
1.0
 20
0.0
 30
0.0
  9
$PUCSYDIR
 10
0.0
 20
1.0
 30
0.0
  9
$PUCSORTHOREF
  2

  9
$PUCSORTHOVIEW
 70
     0
  9
$PUCSORGTOP
 10
0.0
 20
0.0
 30
0.0
  9
$PUCSORGBOTTOM
 10
0.0
 20
0.0
 30
0.0
  9
$PUCSORGLEFT
 10
0.0
 20
0.0
 30
0.0
  9
$PUCSORGRIGHT
 10
0.0
 20
0.0
 30
0.0
  9
$PUCSORGFRONT
 10
0.0
 20
0.0
 30
0.0
  9
$PUCSORGBACK
 10
0.0
 20
0.0
 30
0.0
  9
$USERI1
 70
     0
  9
$USERI2
 70
     0
  9
$USERI3
 70
     0
  9
$USERI4
 70
     0
  9
$USERI5
 70
     0
  9
$USERR1
 40
0.0
  9
$USERR2
 40
0.0
  9
$USERR3
 40
0.0
  9
$USERR4
 40
0.0
  9
$USERR5
 40
0.0
  9
$WORLDVIEW
 70
     1
  9
$SHADEDGE
 70
     3
  9
$SHADEDIF
 70
    70
  9
$TILEMODE
 70
     1
  9
$MAXACTVP
 70
    64
  9
$PINSBASE
 10
0.0
 20
0.0
 30
0.0
  9
$PLIMCHECK
 70
     0
  9
$PEXTMIN
 10
1.000000000000000E+20
 20
1.000000000000000E+20
 30
1.000000000000000E+20
  9
$PEXTMAX
 10
-1.000000000000000E+20
 20
-1.000000000000000E+20
 30
-1.000000000000000E+20
  9
$PLIMMIN
 10
0.0
 20
0.0
  9
$PLIMMAX
 10
12.0
 20
9.0
  9
$UNITMODE
 70
     0
  9
$VISRETAIN
 70
     1
  9
$PLINEGEN
 70
     0
  9
$PSLTSCALE
 70
     1
  9
$TREEDEPTH
 70
  3020
  9
$CMLSTYLE
  2
Standard
  9
$CMLJUST
 70
     0
  9
$CMLSCALE
 40
1.0
  9
$PROXYGRAPHICS
 70
     1
  9
$MEASUREMENT
 70
     0
  9
$CELWEIGHT
370
    -1
  9
$ENDCAPS
280
     0
  9
$JOINSTYLE
280
     0
  9
$LWDISPLAY
290
     1
  9
$INSUNITS
 70
     5
  9
$HYPERLINKBASE
  1

  9
$STYLESHEET
  1

  9
$XEDIT
290
     1
  9
$CEPSNTYPE
380
     0
  9
$PSTYLEMODE
290
     1
  9
$FINGERPRINTGUID
  2
{DB6A08B1-8825-3C4A-A80C-4CD52FAED8A9}
  9
$VERSIONGUID
  2
{F51952EB-D023-384F-8D24-DD05C4A7D686}
  9
$EXTNAMES
290
     1
  9
$PSVPSCALE
 40
0.0
  9
$OLESTARTUP
290
     0
  9
$SORTENTS
280
   127
  9
$INDEXCTL
280
     0
  9
$HIDETEXT
280
     1
  9
$XCLIPFRAME
280
     2
  9
$HALOGAP
280
     0
  9
$OBSCOLOR
 70
   257
  9
$OBSLTYPE
280
     0
  9
$INTERSECTIONDISPLAY
280
     0
  9
$INTERSECTIONCOLOR
 70
   257
  9
$DIMASSOC
280
     2
  9
$PROJECTNAME
  1

  9
$CAMERADISPLAY
290
     0
  9
$LENSLENGTH
 40
50.0
  9
$CAMERAHEIGHT
 40
0.0
  9
$STEPSPERSEC
 40
2.0
  9
$STEPSIZE
 40
6.0
  9
$3DDWFPREC
 40
2.0
  9
$PSOLWIDTH
 40
0.25
  9
$PSOLHEIGHT
 40
4.0
  9
$LOFTANG1
 40
1.570796326794896
  9
$LOFTANG2
 40
1.570796326794896
  9
$LOFTMAG1
 40
0.0
  9
$LOFTMAG2
 40
0.0
  9
$LOFTPARAM
 70
     7
  9
$LOFTNORMALS
280
     1
  9
$LATITUDE
 40
37.795
  9
$LONGITUDE
 40
-122.394
  9
$NORTHDIRECTION
 40
0.0
  9
$TIMEZONE
 70
 -8000
  9
$LIGHTGLYPHDISPLAY
280
     1
  9
$TILEMODELIGHTSYNCH
280
     1
  9
$CMATERIAL
347
11
  9
$SOLIDHIST
280
     0
  9
$SHOWHIST
280
     1
  9
$DWFFRAME
280
     2
  9
$DGNFRAME
280
     0
  9
$REALWORLDSCALE
290
     1
  9
$INTERFERECOLOR
 62
     1
  9
$INTERFEREOBJVS
345
33
  9
$INTERFEREVPVS
346
30
  9
$CSHADOW
280
     0
  9
$SHADOWPLANELOCATION
 40
0.0
  0
ENDSEC
  0
SECTION
  2
CLASSES
  0
CLASS
  1
ACDBDICTIONARYWDFLT
  2
AcDbDictionaryWithDefault
  3
ObjectDBX Classes
 90
        0
 91
        1
280
     0
281
     0
  0
CLASS
  1
MATERIAL
  2
AcDbMaterial
  3
ObjectDBX Classes
 90
     1153
 91
        3
280
     0
281
     0
  0
CLASS
  1
VISUALSTYLE
  2
AcDbVisualStyle
  3
ObjectDBX Classes
 90
     4095
 91
       24
280
     0
281
     0
  0
CLASS
  1
SCALE
  2
AcDbScale
  3
ObjectDBX Classes
 90
     1153
 91
       17
280
     0
281
     0
  0
CLASS
  1
TABLESTYLE
  2
AcDbTableStyle
  3
ObjectDBX Classes
 90
     4095
 91
        1
280
     0
281
     0
  0
CLASS
  1
MLEADERSTYLE
  2
AcDbMLeaderStyle
  3
ACDB_MLEADERSTYLE_CLASS
 90
     4095
 91
        1
280
     0
281
     0
  0
CLASS
  1
ACDBSECTIONVIEWSTYLE
  2
AcDbSectionViewStyle
  3
ObjectDBX Classes
 90
     1025
 91
        1
280
     0
281
     0
  0
CLASS
  1
ACDBDETAILVIEWSTYLE
  2
AcDbDetailViewStyle
  3
ObjectDBX Classes
 90
     1025
 91
        1
280
     0
281
     0
  0
CLASS
  1
DICTIONARYVAR
  2
AcDbDictionaryVar
  3
ObjectDBX Classes
 90
        0
 91
        5
280
     0
281
     0
  0
CLASS
  1
CELLSTYLEMAP
  2
AcDbCellStyleMap
  3
ObjectDBX Classes
 90
     1152
 91
        8
280
     0
281
     0
  0
CLASS
  1
SORTENTSTABLE
  2
AcDbSortentsTable
  3
ObjectDBX Classes
 90
        0
 91
        4
280
     0
281
     0
  0
ENDSEC
  0
SECTION
  2
TABLES
  0
TABLE
  2
VPORT
  5
8
330
0
100
AcDbSymbolTable
 70
     1
1001
ACAD
1000
DbSaveVer
1071
      105
  0
VPORT
  5
57
330
8
100
AcDbSymbolTableRecord
100
AcDbViewportTableRecord
  2
*Active
 70
     0
 10
0.0
 20
0.0
 11
1.0
 21
1.0
 12
-31.52164109261412
 22
84.03885586323173
 13
0.0
 23
0.0
 14
1.0
 24
1.0
 15
0.0
 25
0.0
 16
0.0
 26
0.0
 36
1.0
 17
14.84999673225613
 27
-10.50008306681943
 37
0.0
 40
576.3565685577324
 41
1.931468531468531
 42
50.0
 43
0.0
 44
0.0
 50
0.0
 51
0.0
 71
     0
 72
   100
 73
     1
 74
     0
 75
     1
 76
     0
 77
     0
 78
     0
281
     0
 65
     1
110
0.0
120
0.0
130
0.0
111
1.0
121
0.0
131
0.0
112
0.0
122
1.0
132
0.0
 79
     0
146
0.0
348
2F
 60
     3
 61
     5
292
     1
282
     1
141
0.0
142
0.0
 63
   250
421
  3355443
1001
ACAD_NAV_VCDISPLAY
1070
     3
  0
ENDTAB
  0
TABLE
  2
LTYPE
  5
5
330
0
100
AcDbSymbolTable
 70
     1
  0
LTYPE
  5
5B
330
5
100
AcDbSymbolTableRecord
100
AcDbLinetypeTableRecord
  2
ByBlock
 70
     0
  3

 72
    65
 73
     0
 40
0.0
  0
LTYPE
  5
5C
330
5
100
AcDbSymbolTableRecord
100
AcDbLinetypeTableRecord
  2
ByLayer
 70
     0
  3

 72
    65
 73
     0
 40
0.0
  0
LTYPE
  5
5D
330
5
100
AcDbSymbolTableRecord
100
AcDbLinetypeTableRecord
  2
Continuous
 70
     0
  3
Solid line
 72
    65
 73
     0
 40
0.0
  0
ENDTAB
  0
TABLE
  2
LAYER
  5
2
330
0
100
AcDbSymbolTable
 70
     3
  0
LAYER
  5
54
330
2
100
AcDbSymbolTableRecord
100
AcDbLayerTableRecord
  2
0
 70
     0
 62
     7
  6
Continuous
370
    -3
390
F
347
21
348
0
  0
LAYER
  5
78
330
2
100
AcDbSymbolTableRecord
100
AcDbLayerTableRecord
  2
Livello 3
 70
     0
 62
     7
  6
Continuous
370
     0
390
F
347
21
348
0
  0
LAYER
  5
5C8
330
2
100
AcDbSymbolTableRecord
100
AcDbLayerTableRecord
  2
Livello 1
 70
     0
 62
     7
  6
Continuous
370
     0
390
F
347
21
348
0
  0
ENDTAB
  0
TABLE
  2
STYLE
  5
3
330
0
100
AcDbSymbolTable
 70
     2
  0
STYLE
  5
55
330
3
100
AcDbSymbolTableRecord
100
AcDbTextStyleTableRecord
  2
Standard
 70
     0
 40
0.0
 41
1.0
 50
0.0
 71
     0
 42
0.2
  3
txt
  4

  0
STYLE
  5
5A
330
3
100
AcDbSymbolTableRecord
100
AcDbTextStyleTableRecord
  2
Annotative
 70
     0
 40
0.0
 41
1.0
 50
0.0
 71
     0
 42
0.2
  3
txt
  4

1001
AcadAnnotative
1000
AnnotativeData
1002
{
1070
     1
1070
     1
1002
}
  0
ENDTAB
  0
TABLE
  2
VIEW
  5
6
330
0
100
AcDbSymbolTable
 70
     0
  0
ENDTAB
  0
TABLE
  2
UCS
  5
7
330
0
100
AcDbSymbolTable
 70
     0
  0
ENDTAB
  0
TABLE
  2
APPID
  5
9
330
0
100
AcDbSymbolTable
 70
     3
  0
APPID
  5
56
330
9
100
AcDbSymbolTableRecord
100
AcDbRegAppTableRecord
  2
ACAD
 70
     0
  0
APPID
  5
5E
330
9
100
AcDbSymbolTableRecord
100
AcDbRegAppTableRecord
  2
AcadAnnotative
 70
     0
  0
APPID
  5
59C
330
9
100
AcDbSymbolTableRecord
100
AcDbRegAppTableRecord
  2
ACAD_NAV_VCDISPLAY
 70
     0
  0
ENDTAB
  0
TABLE
  2
DIMSTYLE
  5
A
330
0
100
AcDbSymbolTable
 70
     2
100
AcDbDimStyleTable
 71
     0
  0
DIMSTYLE
105
58
330
A
100
AcDbSymbolTableRecord
100
AcDbDimStyleTableRecord
  2
Standard
 70
     0
340
55
  0
DIMSTYLE
105
59
330
A
100
AcDbSymbolTableRecord
100
AcDbDimStyleTableRecord
  2
Annotative
 70
     0
340
55
1001
AcadAnnotative
1000
AnnotativeData
1002
{
1070
     1
1070
     1
1002
}
  0
ENDTAB
  0
TABLE
  2
BLOCK_RECORD
  5
1
330
0
100
AcDbSymbolTable
 70
    12
  0
BLOCK_RECORD
  5
70
102
{ACAD_XDICTIONARY
360
59D
102
}
330
1
100
AcDbSymbolTableRecord
100
AcDbBlockTableRecord
  2
*Model_Space
340
73
 70
     0
280
     1
281
     0
  0
BLOCK_RECORD
  5
6C
330
1
100
AcDbSymbolTableRecord
100
AcDbBlockTableRecord
  2
*Paper_Space
340
6F
 70
     0
280
     1
281
     0
  0
BLOCK_RECORD
  5
74
330
1
100
AcDbSymbolTableRecord
100
AcDbBlockTableRecord
  2
*Paper_Space0
340
77
 70
     0
280
     1
281
     0
  0
BLOCK_RECORD
  5
51F
330
1
100
AcDbSymbolTableRecord
100
AcDbBlockTableRecord
  2
Block_0
340
0
 70
     0
280
     1
281
     0
  0
BLOCK_RECORD
  5
523
330
1
100
AcDbSymbolTableRecord
100
AcDbBlockTableRecord
  2
Block_1
340
0
102
{BLKREFS
331
524
102
}
 70
     0
280
     1
281
     0
  0
BLOCK_RECORD
  5
52F
330
1
100
AcDbSymbolTableRecord
100
AcDbBlockTableRecord
  2
Block_2
340
0
 70
     0
280
     1
281
     0
  0
BLOCK_RECORD
  5
533
330
1
100
AcDbSymbolTableRecord
100
AcDbBlockTableRecord
  2
Block_3
340
0
102
{BLKREFS
331
534
102
}
 70
     0
280
     1
281
     0
  0
BLOCK_RECORD
  5
53C
330
1
100
AcDbSymbolTableRecord
100
AcDbBlockTableRecord
  2
Block_4
340
0
 70
     0
280
     1
281
     0
  0
BLOCK_RECORD
  5
540
330
1
100
AcDbSymbolTableRecord
100
AcDbBlockTableRecord
  2
Block_5
340
0
102
{BLKREFS
331
541
102
}
 70
     0
280
     1
281
     0
  0
BLOCK_RECORD
  5
54B
330
1
100
AcDbSymbolTableRecord
100
AcDbBlockTableRecord
  2
Block_6
340
0
 70
     0
280
     1
281
     0
  0
BLOCK_RECORD
  5
54F
330
1
100
AcDbSymbolTableRecord
100
AcDbBlockTableRecord
  2
Block_7
340
0
102
{BLKREFS
331
550
102
}
 70
     0
280
     1
281
     0
  0
ENDTAB
  0
ENDSEC
  0
SECTION
  2
BLOCKS
  0
BLOCK
  5
71
330
70
100
AcDbEntity
  8
0
100
AcDbBlockBegin
  2
*Model_Space
 70
     0
 10
0.0
 20
0.0
 30
0.0
  3
*Model_Space
  1

  0
ENDBLK
  5
72
330
70
100
AcDbEntity
  8
0
100
AcDbBlockEnd
  0
BLOCK
  5
6D
330
6C
100
AcDbEntity
 67
     1
  8
0
100
AcDbBlockBegin
  2
*Paper_Space
 70
     0
 10
0.0
 20
0.0
 30
0.0
  3
*Paper_Space
  1

  0
ENDBLK
  5
6E
330
6C
100
AcDbEntity
 67
     1
  8
0
100
AcDbBlockEnd
  0
BLOCK
  5
75
330
74
100
AcDbEntity
 67
     1
  8
0
100
AcDbBlockBegin
  2
*Paper_Space0
 70
     0
 10
0.0
 20
0.0
 30
0.0
  3
*Paper_Space0
  1

  0
ENDBLK
  5
76
330
74
100
AcDbEntity
 67
     1
  8
0
100
AcDbBlockEnd
  0
BLOCK
  5
521
330
51F
100
AcDbEntity
  8
0
100
AcDbBlockBegin
  2
Block_0
 70
     0
 10
0.0
 20
0.0
 30
0.0
  3
Block_0
  1

  0
INSERT
  5
524
330
51F
100
AcDbEntity
  8
Livello 3
100
AcDbBlockReference
  2
Block_1
 10
0.0
 20
0.0
 30
0.0
  0
ENDBLK
  5
522
330
51F
100
AcDbEntity
  8
0
100
AcDbBlockEnd
  0
BLOCK
  5
525
330
523
100
AcDbEntity
  8
0
100
AcDbBlockBegin
  2
Block_1
 70
     0
 10
0.0
 20
0.0
 30
0.0
  3
Block_1
  1

  0
SPLINE
  5
527
330
523
100
AcDbEntity
  8
Livello 3
100
AcDbSpline
210
0.0
220
0.0
230
1.0
 70
    11
 71
     3
 72
    20
 73
    16
 74
     0
 42
0.000000001
 43
0.0000000001
 40
0.0
 40
0.0
 40
0.0
 40
0.0
 40
1.0
 40
1.0
 40
1.0
 40
2.0
 40
2.0
 40
2.0
 40
3.0
 40
3.0
 40
3.0
 40
4.0
 40
4.0
 40
4.0
 40
5.0
 40
5.0
 40
5.0
 40
5.0
 10
13.54756238810616
 20
-8.907225475203746
 30
0.0
 10
13.54756238810616
 20
-8.789127601969383
 30
0.0
 10
13.48026244780181
 20
-8.718020831153825
 30
0.0
 10
13.37740912208967
 20
-8.718020831153825
 30
0.0
 10
13.31010918178532
 20
-8.718020831153825
 30
0.0
 10
13.24787353184428
 20
-8.759930417731892
 30
0.0
 10
13.21740166227724
 20
-8.819599471536418
 30
0.0
 10
13.20978800125484
 20
-8.832294648399564
 30
0.0
 10
13.2047064854141
 20
-8.848813881251338
 30
0.0
 10
13.2047064854141
 20
-8.869122719136884
 30
0.0
 10
13.20723863059576
 20
-9.004997285075136
 30
0.0
 10
13.2694742805368
 20
-9.105318465605613
 30
0.0
 10
13.38629746844162
 20
-9.105318465605613
 30
0.0
 10
13.48279459298346
 20
-9.105318465605613
 30
0.0
 10
13.54756238810616
 20
-9.025323348438112
 30
0.0
 10
13.54756238810616
 20
-8.907225475203746
 30
0.0
  0
SPLINE
  5
528
330
523
100
AcDbEntity
  8
Livello 3
100
AcDbSpline
210
0.0
220
0.0
230
1.0
 70
     9
 71
     3
 72
    38
 73
    34
 74
     0
 42
0.000000001
 43
0.0000000001
 40
0.0
 40
0.0
 40
0.0
 40
0.0
 40
1.0
 40
1.0
 40
1.0
 40
2.0
 40
2.0
 40
2.0
 40
3.0
 40
3.0
 40
3.0
 40
4.0
 40
4.0
 40
4.0
 40
5.0
 40
5.0
 40
5.0
 40
6.0
 40
6.0
 40
6.0
 40
7.0
 40
7.0
 40
7.0
 40
8.0
 40
8.0
 40
8.0
 40
9.0
 40
9.0
 40
9.0
 40
10.0
 40
10.0
 40
10.0
 40
11.0
 40
11.0
 40
11.0
 40
11.0
 10
13.57930894300274
 20
-8.43102715175509
 30
0.0
 10
13.55645073445811
 20
-8.429769691902974
 30
0.0
 10
13.52725355022061
 20
-8.43102715175509
 30
0.0
 10
13.49550699532404
 20
-8.436108667595831
 30
0.0
 10
13.32025498798938
 20
-8.465323077310751
 30
0.0
 10
13.22756469395873
 20
-8.593566756749176
 30
0.0
 10
13.2085133159253
 20
-8.729441322687428
 30
0.0
 10
13.2085133159253
 20
-8.729441322687428
 30
0.0
 10
13.2123201464365
 20
-8.729441322687428
 30
0.0
 10
13.2123201464365
 20
-8.729441322687428
 30
0.0
 10
13.25169758783291
 20
-8.677385929905305
 30
0.0
 10
13.32025498798938
 20
-8.634201657997698
 30
0.0
 10
13.41168782216791
 20
-8.634201657997698
 30
0.0
 10
13.55772541978765
 20
-8.634201657997698
 30
0.0
 10
13.66057874549978
 20
-8.739604354368918
 30
0.0
 10
13.66057874549978
 20
-8.900869274033462
 30
0.0
 10
13.66057874549978
 20
-9.051988387493942
 30
0.0
 10
13.55772541978765
 20
-9.1916697839434
 30
0.0
 10
13.38629746844162
 20
-9.1916697839434
 30
0.0
 10
13.20978800125484
 20
-9.1916697839434
 30
0.0
 10
13.09422227320214
 20
-9.054520532675603
 30
0.0
 10
13.09422227320214
 20
-8.839925534899391
 30
0.0
 10
13.09422227320214
 20
-8.677385929905305
 30
0.0
 10
13.15263386715455
 20
-8.549125024989454
 30
0.0
 10
13.23390366965159
 20
-8.46785522249241
 30
0.0
 10
13.30247829528549
 20
-8.400555282188053
 30
0.0
 10
13.39391112946402
 20
-8.35864569560999
 30
0.0
 10
13.4980391405057
 20
-8.345950518746843
 30
0.0
 10
13.53106038073182
 20
-8.340869002906101
 30
0.0
 10
13.55898287963977
 20
-8.339611543053985
 30
0.0
 10
13.57930894300274
 20
-8.339611543053985
 30
0.0
 10
13.57930894300274
 20
-8.339611543053985
 30
0.0
 10
13.57930894300274
 20
-8.43102715175509
 30
0.0
 10
13.57930894300274
 20
-8.43102715175509
 30
0.0
  0
HATCH
  5
529
330
523
100
AcDbEntity
  8
Livello 3
 62
   250
420
  1907995
440
 33554687
100
AcDbHatch
 10
0.0
 20
0.0
 30
0.0
210
0.0
220
0.0
230
1.0
  2
SOLID
 70
     1
 71
     1
 91
        2
 92
        1
 93
        1
 72
     4
 94
        3
 73
     0
 74
     0
 95
       20
 96
       16
 40
0.0
 40
0.0
 40
0.0
 40
0.0
 40
1.0
 40
1.0
 40
1.0
 40
2.0
 40
2.0
 40
2.0
 40
3.0
 40
3.0
 40
3.0
 40
4.0
 40
4.0
 40
4.0
 40
5.0
 40
5.0
 40
5.0
 40
5.0
 10
13.54756238810616
 20
-8.907225475203746
 10
13.54756238810616
 20
-8.789127601969383
 10
13.48026244780181
 20
-8.718020831153825
 10
13.37740912208967
 20
-8.718020831153825
 10
13.31010918178532
 20
-8.718020831153825
 10
13.24787353184428
 20
-8.759930417731892
 10
13.21740166227724
 20
-8.819599471536418
 10
13.20978800125484
 20
-8.832294648399564
 10
13.2047064854141
 20
-8.848813881251338
 10
13.2047064854141
 20
-8.869122719136884
 10
13.20723863059576
 20
-9.004997285075136
 10
13.2694742805368
 20
-9.105318465605613
 10
13.38629746844162
 20
-9.105318465605613
 10
13.48279459298346
 20
-9.105318465605613
 10
13.54756238810616
 20
-9.025323348438112
 10
13.54756238810616
 20
-8.907225475203746
 97
        0
 97
        1
330
527
 92
        1
 93
        1
 72
     4
 94
        3
 73
     0
 74
     0
 95
       38
 96
       34
 40
0.0
 40
0.0
 40
0.0
 40
0.0
 40
1.0
 40
1.0
 40
1.0
 40
2.0
 40
2.0
 40
2.0
 40
3.0
 40
3.0
 40
3.0
 40
4.0
 40
4.0
 40
4.0
 40
5.0
 40
5.0
 40
5.0
 40
6.0
 40
6.0
 40
6.0
 40
7.0
 40
7.0
 40
7.0
 40
8.0
 40
8.0
 40
8.0
 40
9.0
 40
9.0
 40
9.0
 40
10.0
 40
10.0
 40
10.0
 40
11.0
 40
11.0
 40
11.0
 40
11.0
 10
13.57930894300274
 20
-8.43102715175509
 10
13.55645073445811
 20
-8.429769691902974
 10
13.52725355022061
 20
-8.43102715175509
 10
13.49550699532404
 20
-8.436108667595831
 10
13.32025498798938
 20
-8.465323077310751
 10
13.22756469395873
 20
-8.593566756749176
 10
13.2085133159253
 20
-8.729441322687428
 10
13.2085133159253
 20
-8.729441322687428
 10
13.2123201464365
 20
-8.729441322687428
 10
13.2123201464365
 20
-8.729441322687428
 10
13.25169758783291
 20
-8.677385929905305
 10
13.32025498798938
 20
-8.634201657997698
 10
13.41168782216791
 20
-8.634201657997698
 10
13.55772541978765
 20
-8.634201657997698
 10
13.66057874549978
 20
-8.739604354368918
 10
13.66057874549978
 20
-8.900869274033462
 10
13.66057874549978
 20
-9.051988387493942
 10
13.55772541978765
 20
-9.1916697839434
 10
13.38629746844162
 20
-9.1916697839434
 10
13.20978800125484
 20
-9.1916697839434
 10
13.09422227320214
 20
-9.054520532675603
 10
13.09422227320214
 20
-8.839925534899391
 10
13.09422227320214
 20
-8.677385929905305
 10
13.15263386715455
 20
-8.549125024989454
 10
13.23390366965159
 20
-8.46785522249241
 10
13.30247829528549
 20
-8.400555282188053
 10
13.39391112946402
 20
-8.35864569560999
 10
13.4980391405057
 20
-8.345950518746843
 10
13.53106038073182
 20
-8.340869002906101
 10
13.55898287963977
 20
-8.339611543053985
 10
13.57930894300274
 20
-8.339611543053985
 10
13.57930894300274
 20
-8.339611543053985
 10
13.57930894300274
 20
-8.43102715175509
 10
13.57930894300274
 20
-8.43102715175509
 97
        0
 97
        1
330
528
 75
     2
 76
     1
 98
        1
 10
0.0
 20
0.0
450
        0
451
        0
460
0.0
461
0.0
452
        0
462
0.0
453
        0
470

  0
SPLINE
  5
52A
330
523
100
AcDbEntity
  8
Livello 3
100
AcDbSpline
210
0.0
220
0.0
230
1.0
 70
     9
 71
     3
 72
    17
 73
    13
 74
     0
 42
0.000000001
 43
0.0000000001
 40
0.0
 40
0.0
 40
0.0
 40
0.0
 40
1.0
 40
1.0
 40
1.0
 40
2.0
 40
2.0
 40
2.0
 40
3.0
 40
3.0
 40
3.0
 40
4.0
 40
4.0
 40
4.0
 40
4.0
 10
13.85999809766347
 20
-8.768818764083835
 30
0.0
 10
13.85999809766347
 20
-8.983413761860049
 30
0.0
 10
13.92602335263828
 20
-9.105318465605613
 30
0.0
 10
14.0276192184983
 20
-9.105318465605613
 30
0.0
 10
14.14191026122146
 20
-9.105318465605613
 30
0.0
 10
14.19651502466267
 20
-8.971993270326445
 30
0.0
 10
14.19651502466267
 20
-8.761187877584008
 30
0.0
 10
14.19651502466267
 20
-8.558013371341399
 30
0.0
 10
14.14444240640312
 20
-8.424688176062229
 30
0.0
 10
14.02889390382784
 20
-8.424688176062229
 30
0.0
 10
13.93110486847903
 20
-8.424688176062229
 30
0.0
 10
13.85999809766347
 20
-8.544043509148711
 30
0.0
 10
13.85999809766347
 20
-8.768818764083835
 30
0.0
  0
SPLINE
  5
52B
330
523
100
AcDbEntity
  8
Livello 3
100
AcDbSpline
210
0.0
220
0.0
230
1.0
 70
     9
 71
     3
 72
    17
 73
    13
 74
     0
 42
0.000000001
 43
0.0000000001
 40
0.0
 40
0.0
 40
0.0
 40
0.0
 40
1.0
 40
1.0
 40
1.0
 40
2.0
 40
2.0
 40
2.0
 40
3.0
 40
3.0
 40
3.0
 40
4.0
 40
4.0
 40
4.0
 40
4.0
 10
14.30825669672675
 20
-8.756106361743263
 30
0.0
 10
14.30825669672675
 20
-9.036743839971716
 30
0.0
 10
14.20412868568508
 20
-9.1916697839434
 30
0.0
 10
14.02126301732801
 20
-9.1916697839434
 30
0.0
 10
13.85999809766347
 20
-9.1916697839434
 30
0.0
 10
13.75078857078105
 20
-9.040550670482915
 30
0.0
 10
13.74825642559939
 20
-8.767544078754294
 30
0.0
 10
13.74825642559939
 20
-8.490713431037043
 30
0.0
 10
13.86761175868587
 20
-8.338336857724442
 30
0.0
 10
14.0352328795207
 20
-8.338336857724442
 30
0.0
 10
14.20921020152582
 20
-8.338336857724442
 30
0.0
 10
14.30825669672675
 20
-8.493262801696127
 30
0.0
 10
14.30825669672675
 20
-8.756106361743263
 30
0.0
  0
HATCH
  5
52C
330
523
100
AcDbEntity
  8
Livello 3
 62
   250
420
  1907995
440
 33554687
100
AcDbHatch
 10
0.0
 20
0.0
 30
0.0
210
0.0
220
0.0
230
1.0
  2
SOLID
 70
     1
 71
     1
 91
        2
 92
        1
 93
        1
 72
     4
 94
        3
 73
     0
 74
     0
 95
       17
 96
       13
 40
0.0
 40
0.0
 40
0.0
 40
0.0
 40
1.0
 40
1.0
 40
1.0
 40
2.0
 40
2.0
 40
2.0
 40
3.0
 40
3.0
 40
3.0
 40
4.0
 40
4.0
 40
4.0
 40
4.0
 10
13.85999809766347
 20
-8.768818764083835
 10
13.85999809766347
 20
-8.983413761860049
 10
13.92602335263828
 20
-9.105318465605613
 10
14.0276192184983
 20
-9.105318465605613
 10
14.14191026122146
 20
-9.105318465605613
 10
14.19651502466267
 20
-8.971993270326445
 10
14.19651502466267
 20
-8.761187877584008
 10
14.19651502466267
 20
-8.558013371341399
 10
14.14444240640312
 20
-8.424688176062229
 10
14.02889390382784
 20
-8.424688176062229
 10
13.93110486847903
 20
-8.424688176062229
 10
13.85999809766347
 20
-8.544043509148711
 10
13.85999809766347
 20
-8.768818764083835
 97
        0
 97
        1
330
52A
 92
        1
 93
        1
 72
     4
 94
        3
 73
     0
 74
     0
 95
       17
 96
       13
 40
0.0
 40
0.0
 40
0.0
 40
0.0
 40
1.0
 40
1.0
 40
1.0
 40
2.0
 40
2.0
 40
2.0
 40
3.0
 40
3.0
 40
3.0
 40
4.0
 40
4.0
 40
4.0
 40
4.0
 10
14.30825669672675
 20
-8.756106361743263
 10
14.30825669672675
 20
-9.036743839971716
 10
14.20412868568508
 20
-9.1916697839434
 10
14.02126301732801
 20
-9.1916697839434
 10
13.85999809766347
 20
-9.1916697839434
 10
13.75078857078105
 20
-9.040550670482915
 10
13.74825642559939
 20
-8.767544078754294
 10
13.74825642559939
 20
-8.490713431037043
 10
13.86761175868587
 20
-8.338336857724442
 10
14.0352328795207
 20
-8.338336857724442
 10
14.20921020152582
 20
-8.338336857724442
 10
14.30825669672675
 20
-8.493262801696127
 10
14.30825669672675
 20
-8.756106361743263
 97
        0
 97
        1
330
52B
 75
     2
 76
     1
 98
        1
 10
0.0
 20
0.0
450
        0
451
        0
460
0.0
461
0.0
452
        0
462
0.0
453
        0
470

  0
SPLINE
  5
52D
330
523
100
AcDbEntity
  8
Livello 3
100
AcDbSpline
210
0.0
220
0.0
230
1.0
 70
    11
 71
     3
 72
    50
 73
    46
 74
     0
 42
0.000000001
 43
0.0000000001
 40
0.0
 40
0.0
 40
0.0
 40
0.0
 40
1.0
 40
1.0
 40
1.0
 40
2.0
 40
2.0
 40
2.0
 40
3.0
 40
3.0
 40
3.0
 40
4.0
 40
4.0
 40
4.0
 40
5.0
 40
5.0
 40
5.0
 40
6.0
 40
6.0
 40
6.0
 40
7.0
 40
7.0
 40
7.0
 40
8.0
 40
8.0
 40
8.0
 40
9.0
 40
9.0
 40
9.0
 40
10.0
 40
10.0
 40
10.0
 40
11.0
 40
11.0
 40
11.0
 40
12.0
 40
12.0
 40
12.0
 40
13.0
 40
13.0
 40
13.0
 40
14.0
 40
14.0
 40
14.0
 40
15.0
 40
15.0
 40
15.0
 40
15.0
 10
14.90386202969417
 20
-8.446271699277318
 30
0.0
 10
14.90386202969417
 20
-8.446271699277318
 30
0.0
 10
14.58894585138748
 20
-8.446271699277318
 30
0.0
 10
14.58894585138748
 20
-8.446271699277318
 30
0.0
 10
14.58894585138748
 20
-8.446271699277318
 30
0.0
 10
14.55719929649091
 20
-8.658334551871874
 30
0.0
 10
14.55719929649091
 20
-8.658334551871874
 30
0.0
 10
14.57625067452434
 20
-8.655802406690215
 30
0.0
 10
14.59402736722823
 20
-8.653253036031131
 30
0.0
 10
14.62449923679526
 20
-8.653253036031131
 30
0.0
 10
14.68799234658842
 20
-8.653253036031131
 30
0.0
 10
14.75148545638157
 20
-8.667222898223817
 30
0.0
 10
14.80228338931158
 20
-8.697694767790853
 30
0.0
 10
14.86703395895685
 20
-8.734522838528175
 30
0.0
 10
14.92039848802337
 20
-8.80562960934373
 30
0.0
 10
14.92039848802337
 20
-8.909757620385407
 30
0.0
 10
14.92039848802337
 20
-9.07103976552738
 30
0.0
 10
14.79212035763009
 20
-9.1916697839434
 30
0.0
 10
14.61307874526166
 20
-9.1916697839434
 30
0.0
 10
14.52292059641267
 20
-9.1916697839434
 30
0.0
 10
14.44671508427894
 20
-9.166279430217107
 30
0.0
 10
14.40735486835996
 20
-9.140871851013391
 30
0.0
 10
14.40735486835996
 20
-9.140871851013391
 30
0.0
 10
14.43529459274534
 20
-9.055795218005147
 30
0.0
 10
14.43529459274534
 20
-9.055795218005147
 30
0.0
 10
14.46957329282358
 20
-9.076104055890695
 30
0.0
 10
14.53687323312793
 20
-9.101511635094412
 30
0.0
 10
14.61180405993212
 20
-9.101511635094412
 30
0.0
 10
14.71720675630333
 20
-9.101511635094412
 30
0.0
 10
14.80736490515232
 20
-9.032937009460512
 30
0.0
 10
14.80736490515232
 20
-8.922470022725979
 30
0.0
 10
14.80609021982278
 20
-8.815792641025216
 30
0.0
 10
14.73498344900722
 20
-8.739604354368918
 30
0.0
 10
14.56989447335405
 20
-8.739604354368918
 30
0.0
 10
14.52292059641267
 20
-8.739604354368918
 30
0.0
 10
14.48609252567535
 20
-8.744685870209661
 30
0.0
 10
14.45560343063089
 20
-8.748492700720861
 30
0.0
 10
14.45560343063089
 20
-8.748492700720861
 30
0.0
 10
14.50895073421998
 20
-8.35230671991713
 30
0.0
 10
14.50895073421998
 20
-8.35230671991713
 30
0.0
 10
14.50895073421998
 20
-8.35230671991713
 30
0.0
 10
14.90386202969417
 20
-8.35230671991713
 30
0.0
 10
14.90386202969417
 20
-8.35230671991713
 30
0.0
 10
14.90386202969417
 20
-8.35230671991713
 30
0.0
 10
14.90386202969417
 20
-8.446271699277318
 30
0.0
 10
14.90386202969417
 20
-8.446271699277318
 30
0.0
  0
HATCH
  5
52E
330
523
100
AcDbEntity
  8
Livello 3
 62
   250
420
  1907995
440
 33554687
100
AcDbHatch
 10
0.0
 20
0.0
 30
0.0
210
0.0
220
0.0
230
1.0
  2
SOLID
 70
     1
 71
     1
 91
        1
 92
        1
 93
        1
 72
     4
 94
        3
 73
     0
 74
     0
 95
       50
 96
       46
 40
0.0
 40
0.0
 40
0.0
 40
0.0
 40
1.0
 40
1.0
 40
1.0
 40
2.0
 40
2.0
 40
2.0
 40
3.0
 40
3.0
 40
3.0
 40
4.0
 40
4.0
 40
4.0
 40
5.0
 40
5.0
 40
5.0
 40
6.0
 40
6.0
 40
6.0
 40
7.0
 40
7.0
 40
7.0
 40
8.0
 40
8.0
 40
8.0
 40
9.0
 40
9.0
 40
9.0
 40
10.0
 40
10.0
 40
10.0
 40
11.0
 40
11.0
 40
11.0
 40
12.0
 40
12.0
 40
12.0
 40
13.0
 40
13.0
 40
13.0
 40
14.0
 40
14.0
 40
14.0
 40
15.0
 40
15.0
 40
15.0
 40
15.0
 10
14.90386202969417
 20
-8.446271699277318
 10
14.90386202969417
 20
-8.446271699277318
 10
14.58894585138748
 20
-8.446271699277318
 10
14.58894585138748
 20
-8.446271699277318
 10
14.58894585138748
 20
-8.446271699277318
 10
14.55719929649091
 20
-8.658334551871874
 10
14.55719929649091
 20
-8.658334551871874
 10
14.57625067452434
 20
-8.655802406690215
 10
14.59402736722823
 20
-8.653253036031131
 10
14.62449923679526
 20
-8.653253036031131
 10
14.68799234658842
 20
-8.653253036031131
 10
14.75148545638157
 20
-8.667222898223817
 10
14.80228338931158
 20
-8.697694767790853
 10
14.86703395895685
 20
-8.734522838528175
 10
14.92039848802337
 20
-8.80562960934373
 10
14.92039848802337
 20
-8.909757620385407
 10
14.92039848802337
 20
-9.07103976552738
 10
14.79212035763009
 20
-9.1916697839434
 10
14.61307874526166
 20
-9.1916697839434
 10
14.52292059641267
 20
-9.1916697839434
 10
14.44671508427894
 20
-9.166279430217107
 10
14.40735486835996
 20
-9.140871851013391
 10
14.40735486835996
 20
-9.140871851013391
 10
14.43529459274534
 20
-9.055795218005147
 10
14.43529459274534
 20
-9.055795218005147
 10
14.46957329282358
 20
-9.076104055890695
 10
14.53687323312793
 20
-9.101511635094412
 10
14.61180405993212
 20
-9.101511635094412
 10
14.71720675630333
 20
-9.101511635094412
 10
14.80736490515232
 20
-9.032937009460512
 10
14.80736490515232
 20
-8.922470022725979
 10
14.80609021982278
 20
-8.815792641025216
 10
14.73498344900722
 20
-8.739604354368918
 10
14.56989447335405
 20
-8.739604354368918
 10
14.52292059641267
 20
-8.739604354368918
 10
14.48609252567535
 20
-8.744685870209661
 10
14.45560343063089
 20
-8.748492700720861
 10
14.45560343063089
 20
-8.748492700720861
 10
14.50895073421998
 20
-8.35230671991713
 10
14.50895073421998
 20
-8.35230671991713
 10
14.50895073421998
 20
-8.35230671991713
 10
14.90386202969417
 20
-8.35230671991713
 10
14.90386202969417
 20
-8.35230671991713
 10
14.90386202969417
 20
-8.35230671991713
 10
14.90386202969417
 20
-8.446271699277318
 10
14.90386202969417
 20
-8.446271699277318
 97
        0
 97
        1
330
52D
 75
     2
 76
     1
 98
        1
 10
0.0
 20
0.0
450
        0
451
        0
460
0.0
461
0.0
452
        0
462
0.0
453
        0
470

  0
ENDBLK
  5
526
330
523
100
AcDbEntity
  8
0
100
AcDbBlockEnd
  0
BLOCK
  5
531
330
52F
100
AcDbEntity
  8
0
100
AcDbBlockBegin
  2
Block_2
 70
     0
 10
0.0
 20
0.0
 30
0.0
  3
Block_2
  1

  0
INSERT
  5
534
330
52F
100
AcDbEntity
  8
Livello 3
100
AcDbBlockReference
  2
Block_3
 10
0.0
 20
0.0
 30
0.0
  0
ENDBLK
  5
532
330
52F
100
AcDbEntity
  8
0
100
AcDbBlockEnd
  0
BLOCK
  5
535
330
533
100
AcDbEntity
  8
0
100
AcDbBlockBegin
  2
Block_3
 70
     0
 10
0.0
 20
0.0
 30
0.0
  3
Block_3
  1

  0
SPLINE
  5
537
330
533
100
AcDbEntity
  8
Livello 3
100
AcDbSpline
210
0.0
220
0.0
230
1.0
 70
    11
 71
     3
 72
    29
 73
    25
 74
     0
 42
0.000000001
 43
0.0000000001
 40
0.0
 40
0.0
 40
0.0
 40
0.0
 40
1.0
 40
1.0
 40
1.0
 40
2.0
 40
2.0
 40
2.0
 40
3.0
 40
3.0
 40
3.0
 40
4.0
 40
4.0
 40
4.0
 40
5.0
 40
5.0
 40
5.0
 40
6.0
 40
6.0
 40
6.0
 40
7.0
 40
7.0
 40
7.0
 40
8.0
 40
8.0
 40
8.0
 40
8.0
 10
24.58027397388966
 20
-6.690719941903706
 30
0.0
 10
24.58027397388966
 20
-6.690719941903706
 30
0.0
 10
24.58027397388966
 20
-6.693269312562793
 30
0.0
 10
24.58027397388966
 20
-6.693269312562793
 30
0.0
 10
24.58027397388966
 20
-6.693269312562793
 30
0.0
 10
24.65775417135292
 20
-6.836757539523448
 30
0.0
 10
24.65775417135292
 20
-6.836757539523448
 30
0.0
 10
24.65775417135292
 20
-6.836757539523448
 30
0.0
 10
24.57266031286725
 20
-6.858341062738539
 30
0.0
 10
24.57266031286725
 20
-6.858341062738539
 30
0.0
 10
24.57266031286725
 20
-6.858341062738539
 30
0.0
 10
24.4761631883254
 20
-6.678024765040562
 30
0.0
 10
24.4761631883254
 20
-6.678024765040562
 30
0.0
 10
24.4761631883254
 20
-6.678024765040562
 30
0.0
 10
24.4761631883254
 20
-6.58278510035083
 30
0.0
 10
24.4761631883254
 20
-6.58278510035083
 30
0.0
 10
24.4761631883254
 20
-6.58278510035083
 30
0.0
 10
25.30153916468156
 20
-6.58278510035083
 30
0.0
 10
25.30153916468156
 20
-6.58278510035083
 30
0.0
 10
25.30153916468156
 20
-6.58278510035083
 30
0.0
 10
25.30153916468156
 20
-6.690719941903706
 30
0.0
 10
25.30153916468156
 20
-6.690719941903706
 30
0.0
 10
25.30153916468156
 20
-6.690719941903706
 30
0.0
 10
24.58027397388966
 20
-6.690719941903706
 30
0.0
 10
24.58027397388966
 20
-6.690719941903706
 30
0.0
  0
HATCH
  5
538
330
533
100
AcDbEntity
  8
Livello 3
 62
   250
420
  1907995
440
 33554687
100
AcDbHatch
 10
0.0
 20
0.0
 30
0.0
210
0.0
220
0.0
230
1.0
  2
SOLID
 70
     1
 71
     1
 91
        1
 92
        1
 93
        1
 72
     4
 94
        3
 73
     0
 74
     0
 95
       29
 96
       25
 40
0.0
 40
0.0
 40
0.0
 40
0.0
 40
1.0
 40
1.0
 40
1.0
 40
2.0
 40
2.0
 40
2.0
 40
3.0
 40
3.0
 40
3.0
 40
4.0
 40
4.0
 40
4.0
 40
5.0
 40
5.0
 40
5.0
 40
6.0
 40
6.0
 40
6.0
 40
7.0
 40
7.0
 40
7.0
 40
8.0
 40
8.0
 40
8.0
 40
8.0
 10
24.58027397388966
 20
-6.690719941903706
 10
24.58027397388966
 20
-6.690719941903706
 10
24.58027397388966
 20
-6.693269312562793
 10
24.58027397388966
 20
-6.693269312562793
 10
24.58027397388966
 20
-6.693269312562793
 10
24.65775417135292
 20
-6.836757539523448
 10
24.65775417135292
 20
-6.836757539523448
 10
24.65775417135292
 20
-6.836757539523448
 10
24.57266031286725
 20
-6.858341062738539
 10
24.57266031286725
 20
-6.858341062738539
 10
24.57266031286725
 20
-6.858341062738539
 10
24.4761631883254
 20
-6.678024765040562
 10
24.4761631883254
 20
-6.678024765040562
 10
24.4761631883254
 20
-6.678024765040562
 10
24.4761631883254
 20
-6.58278510035083
 10
24.4761631883254
 20
-6.58278510035083
 10
24.4761631883254
 20
-6.58278510035083
 10
25.30153916468156
 20
-6.58278510035083
 10
25.30153916468156
 20
-6.58278510035083
 10
25.30153916468156
 20
-6.58278510035083
 10
25.30153916468156
 20
-6.690719941903706
 10
25.30153916468156
 20
-6.690719941903706
 10
25.30153916468156
 20
-6.690719941903706
 10
24.58027397388966
 20
-6.690719941903706
 10
24.58027397388966
 20
-6.690719941903706
 97
        0
 97
        1
330
537
 75
     2
 76
     1
 98
        1
 10
0.0
 20
0.0
450
        0
451
        0
460
0.0
461
0.0
452
        0
462
0.0
453
        0
470

  0
SPLINE
  5
539
330
533
100
AcDbEntity
  8
Livello 3
100
AcDbSpline
210
0.0
220
0.0
230
1.0
 70
    11
 71
     3
 72
    26
 73
    22
 74
     0
 42
0.000000001
 43
0.0000000001
 40
0.0
 40
0.0
 40
0.0
 40
0.0
 40
1.0
 40
1.0
 40
1.0
 40
2.0
 40
2.0
 40
2.0
 40
3.0
 40
3.0
 40
3.0
 40
4.0
 40
4.0
 40
4.0
 40
5.0
 40
5.0
 40
5.0
 40
6.0
 40
6.0
 40
6.0
 40
7.0
 40
7.0
 40
7.0
 40
7.0
 10
24.98917235703395
 20
-5.936381834453403
 30
0.0
 10
24.98917235703395
 20
-5.936381834453403
 30
0.0
 10
24.71359916916882
 20
-5.936381834453403
 30
0.0
 10
24.71359916916882
 20
-5.936381834453403
 30
0.0
 10
24.67043212273865
 20
-5.936381834453403
 30
0.0
 10
24.62726507630846
 20
-5.935107149123862
 30
0.0
 10
24.58409802987829
 20
-5.932575003942202
 30
0.0
 10
24.58409802987829
 20
-5.932575003942202
 30
0.0
 10
24.58409802987829
 20
-5.936381834453403
 30
0.0
 10
24.58409802987829
 20
-5.936381834453403
 30
0.0
 10
24.63232936667179
 20
-5.961789413657121
 30
0.0
 10
24.66788275207956
 20
-5.982098251542669
 30
0.0
 10
24.70598550814642
 20
-6.004956460087303
 30
0.0
 10
24.70598550814642
 20
-6.004956460087303
 30
0.0
 10
24.98662298637487
 20
-6.206856281000367
 30
0.0
 10
24.98662298637487
 20
-6.206856281000367
 30
0.0
 10
24.98662298637487
 20
-6.206856281000367
 30
0.0
 10
24.98917235703395
 20
-6.206856281000367
 30
0.0
 10
24.98917235703395
 20
-6.206856281000367
 30
0.0
 10
24.98917235703395
 20
-6.206856281000367
 30
0.0
 10
24.98917235703395
 20
-5.936381834453403
 30
0.0
 10
24.98917235703395
 20
-5.936381834453403
 30
0.0
  0
SPLINE
  5
53A
330
533
100
AcDbEntity
  8
Livello 3
100
AcDbSpline
210
0.0
220
0.0
230
1.0
 70
    11
 71
     3
 72
    38
 73
    34
 74
     0
 42
0.000000001
 43
0.0000000001
 40
0.0
 40
0.0
 40
0.0
 40
0.0
 40
1.0
 40
1.0
 40
1.0
 40
2.0
 40
2.0
 40
2.0
 40
3.0
 40
3.0
 40
3.0
 40
4.0
 40
4.0
 40
4.0
 40
5.0
 40
5.0
 40
5.0
 40
6.0
 40
6.0
 40
6.0
 40
7.0
 40
7.0
 40
7.0
 40
8.0
 40
8.0
 40
8.0
 40
9.0
 40
9.0
 40
9.0
 40
10.0
 40
10.0
 40
10.0
 40
11.0
 40
11.0
 40
11.0
 40
11.0
 10
25.30153916468156
 20
-5.936381834453403
 30
0.0
 10
25.30153916468156
 20
-5.936381834453403
 30
0.0
 10
25.07678113522386
 20
-5.936381834453403
 30
0.0
 10
25.07678113522386
 20
-5.936381834453403
 30
0.0
 10
25.07678113522386
 20
-5.936381834453403
 30
0.0
 10
25.07678113522386
 20
-6.319872638393988
 30
0.0
 10
25.07678113522386
 20
-6.319872638393988
 30
0.0
 10
25.07678113522386
 20
-6.319872638393988
 30
0.0
 10
25.00312499374922
 20
-6.319872638393988
 30
0.0
 10
25.00312499374922
 20
-6.319872638393988
 30
0.0
 10
25.00312499374922
 20
-6.319872638393988
 30
0.0
 10
24.4761631883254
 20
-5.951626381975634
 30
0.0
 10
24.4761631883254
 20
-5.951626381975634
 30
0.0
 10
24.4761631883254
 20
-5.951626381975634
 30
0.0
 10
24.4761631883254
 20
-5.83099636355961
 30
0.0
 10
24.4761631883254
 20
-5.83099636355961
 30
0.0
 10
24.4761631883254
 20
-5.83099636355961
 30
0.0
 10
24.98917235703395
 20
-5.83099636355961
 30
0.0
 10
24.98917235703395
 20
-5.83099636355961
 30
0.0
 10
24.98917235703395
 20
-5.83099636355961
 30
0.0
 10
24.98917235703395
 20
-5.715430635506906
 30
0.0
 10
24.98917235703395
 20
-5.715430635506906
 30
0.0
 10
24.98917235703395
 20
-5.715430635506906
 30
0.0
 10
25.07678113522386
 20
-5.715430635506906
 30
0.0
 10
25.07678113522386
 20
-5.715430635506906
 30
0.0
 10
25.07678113522386
 20
-5.715430635506906
 30
0.0
 10
25.07678113522386
 20
-5.83099636355961
 30
0.0
 10
25.07678113522386
 20
-5.83099636355961
 30
0.0
 10
25.07678113522386
 20
-5.83099636355961
 30
0.0
 10
25.30153916468156
 20
-5.83099636355961
 30
0.0
 10
25.30153916468156
 20
-5.83099636355961
 30
0.0
 10
25.30153916468156
 20
-5.83099636355961
 30
0.0
 10
25.30153916468156
 20
-5.936381834453403
 30
0.0
 10
25.30153916468156
 20
-5.936381834453403
 30
0.0
  0
HATCH
  5
53B
330
533
100
AcDbEntity
  8
Livello 3
 62
   250
420
  1907995
440
 33554687
100
AcDbHatch
 10
0.0
 20
0.0
 30
0.0
210
0.0
220
0.0
230
1.0
  2
SOLID
 70
     1
 71
     1
 91
        2
 92
        1
 93
        1
 72
     4
 94
        3
 73
     0
 74
     0
 95
       26
 96
       22
 40
0.0
 40
0.0
 40
0.0
 40
0.0
 40
1.0
 40
1.0
 40
1.0
 40
2.0
 40
2.0
 40
2.0
 40
3.0
 40
3.0
 40
3.0
 40
4.0
 40
4.0
 40
4.0
 40
5.0
 40
5.0
 40
5.0
 40
6.0
 40
6.0
 40
6.0
 40
7.0
 40
7.0
 40
7.0
 40
7.0
 10
24.98917235703395
 20
-5.936381834453403
 10
24.98917235703395
 20
-5.936381834453403
 10
24.71359916916882
 20
-5.936381834453403
 10
24.71359916916882
 20
-5.936381834453403
 10
24.67043212273865
 20
-5.936381834453403
 10
24.62726507630846
 20
-5.935107149123862
 10
24.58409802987829
 20
-5.932575003942202
 10
24.58409802987829
 20
-5.932575003942202
 10
24.58409802987829
 20
-5.936381834453403
 10
24.58409802987829
 20
-5.936381834453403
 10
24.63232936667179
 20
-5.961789413657121
 10
24.66788275207956
 20
-5.982098251542669
 10
24.70598550814642
 20
-6.004956460087303
 10
24.70598550814642
 20
-6.004956460087303
 10
24.98662298637487
 20
-6.206856281000367
 10
24.98662298637487
 20
-6.206856281000367
 10
24.98662298637487
 20
-6.206856281000367
 10
24.98917235703395
 20
-6.206856281000367
 10
24.98917235703395
 20
-6.206856281000367
 10
24.98917235703395
 20
-6.206856281000367
 10
24.98917235703395
 20
-5.936381834453403
 10
24.98917235703395
 20
-5.936381834453403
 97
        0
 97
        1
330
539
 92
        1
 93
        1
 72
     4
 94
        3
 73
     0
 74
     0
 95
       38
 96
       34
 40
0.0
 40
0.0
 40
0.0
 40
0.0
 40
1.0
 40
1.0
 40
1.0
 40
2.0
 40
2.0
 40
2.0
 40
3.0
 40
3.0
 40
3.0
 40
4.0
 40
4.0
 40
4.0
 40
5.0
 40
5.0
 40
5.0
 40
6.0
 40
6.0
 40
6.0
 40
7.0
 40
7.0
 40
7.0
 40
8.0
 40
8.0
 40
8.0
 40
9.0
 40
9.0
 40
9.0
 40
10.0
 40
10.0
 40
10.0
 40
11.0
 40
11.0
 40
11.0
 40
11.0
 10
25.30153916468156
 20
-5.936381834453403
 10
25.30153916468156
 20
-5.936381834453403
 10
25.07678113522386
 20
-5.936381834453403
 10
25.07678113522386
 20
-5.936381834453403
 10
25.07678113522386
 20
-5.936381834453403
 10
25.07678113522386
 20
-6.319872638393988
 10
25.07678113522386
 20
-6.319872638393988
 10
25.07678113522386
 20
-6.319872638393988
 10
25.00312499374922
 20
-6.319872638393988
 10
25.00312499374922
 20
-6.319872638393988
 10
25.00312499374922
 20
-6.319872638393988
 10
24.4761631883254
 20
-5.951626381975634
 10
24.4761631883254
 20
-5.951626381975634
 10
24.4761631883254
 20
-5.951626381975634
 10
24.4761631883254
 20
-5.83099636355961
 10
24.4761631883254
 20
-5.83099636355961
 10
24.4761631883254
 20
-5.83099636355961
 10
24.98917235703395
 20
-5.83099636355961
 10
24.98917235703395
 20
-5.83099636355961
 10
24.98917235703395
 20
-5.83099636355961
 10
24.98917235703395
 20
-5.715430635506906
 10
24.98917235703395
 20
-5.715430635506906
 10
24.98917235703395
 20
-5.715430635506906
 10
25.07678113522386
 20
-5.715430635506906
 10
25.07678113522386
 20
-5.715430635506906
 10
25.07678113522386
 20
-5.715430635506906
 10
25.07678113522386
 20
-5.83099636355961
 10
25.07678113522386
 20
-5.83099636355961
 10
25.07678113522386
 20
-5.83099636355961
 10
25.30153916468156
 20
-5.83099636355961
 10
25.30153916468156
 20
-5.83099636355961
 10
25.30153916468156
 20
-5.83099636355961
 10
25.30153916468156
 20
-5.936381834453403
 10
25.30153916468156
 20
-5.936381834453403
 97
        0
 97
        1
330
53A
 75
     2
 76
     1
 98
        1
 10
0.0
 20
0.0
450
        0
451
        0
460
0.0
461
0.0
452
        0
462
0.0
453
        0
470

  0
ENDBLK
  5
536
330
533
100
AcDbEntity
  8
0
100
AcDbBlockEnd
  0
BLOCK
  5
53E
330
53C
100
AcDbEntity
  8
0
100
AcDbBlockBegin
  2
Block_4
 70
     0
 10
0.0
 20
0.0
 30
0.0
  3
Block_4
  1

  0
INSERT
  5
541
330
53C
100
AcDbEntity
  8
Livello 3
100
AcDbBlockReference
  2
Block_5
 10
0.0
 20
0.0
 30
0.0
  0
ENDBLK
  5
53F
330
53C
100
AcDbEntity
  8
0
100
AcDbBlockEnd
  0
BLOCK
  5
542
330
540
100
AcDbEntity
  8
0
100
AcDbBlockBegin
  2
Block_5
 70
     0
 10
0.0
 20
0.0
 30
0.0
  3
Block_5
  1

  0
SPLINE
  5
544
330
540
100
AcDbEntity
  8
Livello 3
100
AcDbSpline
210
0.0
220
0.0
230
1.0
 70
     9
 71
     3
 72
    59
 73
    55
 74
     0
 42
0.000000001
 43
0.0000000001
 40
0.0
 40
0.0
 40
0.0
 40
0.0
 40
1.0
 40
1.0
 40
1.0
 40
2.0
 40
2.0
 40
2.0
 40
3.0
 40
3.0
 40
3.0
 40
4.0
 40
4.0
 40
4.0
 40
5.0
 40
5.0
 40
5.0
 40
6.0
 40
6.0
 40
6.0
 40
7.0
 40
7.0
 40
7.0
 40
8.0
 40
8.0
 40
8.0
 40
9.0
 40
9.0
 40
9.0
 40
10.0
 40
10.0
 40
10.0
 40
11.0
 40
11.0
 40
11.0
 40
12.0
 40
12.0
 40
12.0
 40
13.0
 40
13.0
 40
13.0
 40
14.0
 40
14.0
 40
14.0
 40
15.0
 40
15.0
 40
15.0
 40
16.0
 40
16.0
 40
16.0
 40
17.0
 40
17.0
 40
17.0
 40
18.0
 40
18.0
 40
18.0
 40
18.0
 10
13.09477348847978
 20
-17.47442002601333
 30
0.0
 10
13.12652004337635
 20
-17.49474608937631
 30
0.0
 10
13.200176184851
 20
-17.52650986975031
 30
0.0
 10
13.27763915683684
 20
-17.52650986975031
 30
0.0
 10
13.42112738379749
 20
-17.52650986975031
 30
0.0
 10
13.46556911555722
 20
-17.43507703557178
 30
0.0
 10
13.4643116557051
 20
-17.36651963541531
 30
0.0
 10
13.46303697037556
 20
-17.25097113284003
 30
0.0
 10
13.35890895933388
 20
-17.20143065976214
 30
0.0
 10
13.250974117781
 20
-17.20143065976214
 30
0.0
 10
13.250974117781
 20
-17.20143065976214
 30
0.0
 10
13.18875569331739
 20
-17.20143065976214
 30
0.0
 10
13.18875569331739
 20
-17.20143065976214
 30
0.0
 10
13.18875569331739
 20
-17.20143065976214
 30
0.0
 10
13.18875569331739
 20
-17.11761148660601
 30
0.0
 10
13.18875569331739
 20
-17.11761148660601
 30
0.0
 10
13.18875569331739
 20
-17.11761148660601
 30
0.0
 10
13.250974117781
 20
-17.11761148660601
 30
0.0
 10
13.250974117781
 20
-17.11761148660601
 30
0.0
 10
13.33224392027805
 20
-17.11761148660601
 30
0.0
 10
13.43509724599018
 20
-17.07571912550537
 30
0.0
 10
13.43509724599018
 20
-16.97791286467913
 30
0.0
 10
13.43509724599018
 20
-16.91190483518174
 30
0.0
 10
13.39318765941212
 20
-16.85347601575191
 30
0.0
 10
13.29033433369998
 20
-16.85347601575191
 30
0.0
 10
13.22430907872517
 20
-16.85347601575191
 30
0.0
 10
13.16081596893202
 20
-16.88269042546682
 30
0.0
 10
13.12526258352424
 20
-16.90811523014797
 30
0.0
 10
13.12526258352424
 20
-16.90811523014797
 30
0.0
 10
13.09604817380932
 20
-16.82681097669607
 30
0.0
 10
13.09604817380932
 20
-16.82681097669607
 30
0.0
 10
13.13923244571692
 20
-16.79508164727692
 30
0.0
 10
13.22303439339563
 20
-16.76335231785777
 30
0.0
 10
13.31191785691507
 20
-16.76335231785777
 30
0.0
 10
13.47445746190916
 20
-16.76335231785777
 30
0.0
 10
13.5481136033838
 20
-16.85984944239962
 30
0.0
 10
13.5481136033838
 20
-16.96013617197524
 30
0.0
 10
13.5481136033838
 20
-17.04523003046091
 30
0.0
 10
13.49731567045379
 20
-17.11761148660601
 30
0.0
 10
13.3957370300712
 20
-17.15443955734333
 30
0.0
 10
13.3957370300712
 20
-17.15443955734333
 30
0.0
 10
13.3957370300712
 20
-17.15698892800242
 30
0.0
 10
13.3957370300712
 20
-17.15698892800242
 30
0.0
 10
13.49731567045379
 20
-17.17731499136539
 30
0.0
 10
13.57986015828038
 20
-17.25348605254426
 30
0.0
 10
13.57986015828038
 20
-17.3690690060744
 30
0.0
 10
13.57986015828038
 20
-17.50108506506917
 30
0.0
 10
13.47700683256825
 20
-17.6166680185993
 30
0.0
 10
13.27891384216638
 20
-17.6166680185993
 30
0.0
 10
13.18620632265831
 20
-17.6166680185993
 30
0.0
 10
13.10493652016126
 20
-17.58745360888438
 30
0.0
 10
13.06430161891274
 20
-17.56078856982855
 30
0.0
 10
13.06430161891274
 20
-17.56078856982855
 30
0.0
 10
13.09477348847978
 20
-17.47442002601333
 30
0.0
 10
13.09477348847978
 20
-17.47442002601333
 30
0.0
  0
HATCH
  5
545
330
540
100
AcDbEntity
  8
Livello 3
 62
   250
420
  1907995
440
 33554687
100
AcDbHatch
 10
0.0
 20
0.0
 30
0.0
210
0.0
220
0.0
230
1.0
  2
SOLID
 70
     1
 71
     1
 91
        1
 92
        1
 93
        1
 72
     4
 94
        3
 73
     0
 74
     0
 95
       59
 96
       55
 40
0.0
 40
0.0
 40
0.0
 40
0.0
 40
1.0
 40
1.0
 40
1.0
 40
2.0
 40
2.0
 40
2.0
 40
3.0
 40
3.0
 40
3.0
 40
4.0
 40
4.0
 40
4.0
 40
5.0
 40
5.0
 40
5.0
 40
6.0
 40
6.0
 40
6.0
 40
7.0
 40
7.0
 40
7.0
 40
8.0
 40
8.0
 40
8.0
 40
9.0
 40
9.0
 40
9.0
 40
10.0
 40
10.0
 40
10.0
 40
11.0
 40
11.0
 40
11.0
 40
12.0
 40
12.0
 40
12.0
 40
13.0
 40
13.0
 40
13.0
 40
14.0
 40
14.0
 40
14.0
 40
15.0
 40
15.0
 40
15.0
 40
16.0
 40
16.0
 40
16.0
 40
17.0
 40
17.0
 40
17.0
 40
18.0
 40
18.0
 40
18.0
 40
18.0
 10
13.09477348847978
 20
-17.47442002601333
 10
13.12652004337635
 20
-17.49474608937631
 10
13.200176184851
 20
-17.52650986975031
 10
13.27763915683684
 20
-17.52650986975031
 10
13.42112738379749
 20
-17.52650986975031
 10
13.46556911555722
 20
-17.43507703557178
 10
13.4643116557051
 20
-17.36651963541531
 10
13.46303697037556
 20
-17.25097113284003
 10
13.35890895933388
 20
-17.20143065976214
 10
13.250974117781
 20
-17.20143065976214
 10
13.250974117781
 20
-17.20143065976214
 10
13.18875569331739
 20
-17.20143065976214
 10
13.18875569331739
 20
-17.20143065976214
 10
13.18875569331739
 20
-17.20143065976214
 10
13.18875569331739
 20
-17.11761148660601
 10
13.18875569331739
 20
-17.11761148660601
 10
13.18875569331739
 20
-17.11761148660601
 10
13.250974117781
 20
-17.11761148660601
 10
13.250974117781
 20
-17.11761148660601
 10
13.33224392027805
 20
-17.11761148660601
 10
13.43509724599018
 20
-17.07571912550537
 10
13.43509724599018
 20
-16.97791286467913
 10
13.43509724599018
 20
-16.91190483518174
 10
13.39318765941212
 20
-16.85347601575191
 10
13.29033433369998
 20
-16.85347601575191
 10
13.22430907872517
 20
-16.85347601575191
 10
13.16081596893202
 20
-16.88269042546682
 10
13.12526258352424
 20
-16.90811523014797
 10
13.12526258352424
 20
-16.90811523014797
 10
13.09604817380932
 20
-16.82681097669607
 10
13.09604817380932
 20
-16.82681097669607
 10
13.13923244571692
 20
-16.79508164727692
 10
13.22303439339563
 20
-16.76335231785777
 10
13.31191785691507
 20
-16.76335231785777
 10
13.47445746190916
 20
-16.76335231785777
 10
13.5481136033838
 20
-16.85984944239962
 10
13.5481136033838
 20
-16.96013617197524
 10
13.5481136033838
 20
-17.04523003046091
 10
13.49731567045379
 20
-17.11761148660601
 10
13.3957370300712
 20
-17.15443955734333
 10
13.3957370300712
 20
-17.15443955734333
 10
13.3957370300712
 20
-17.15698892800242
 10
13.3957370300712
 20
-17.15698892800242
 10
13.49731567045379
 20
-17.17731499136539
 10
13.57986015828038
 20
-17.25348605254426
 10
13.57986015828038
 20
-17.3690690060744
 10
13.57986015828038
 20
-17.50108506506917
 10
13.47700683256825
 20
-17.6166680185993
 10
13.27891384216638
 20
-17.6166680185993
 10
13.18620632265831
 20
-17.6166680185993
 10
13.10493652016126
 20
-17.58745360888438
 10
13.06430161891274
 20
-17.56078856982855
 10
13.06430161891274
 20
-17.56078856982855
 10
13.09477348847978
 20
-17.47442002601333
 10
13.09477348847978
 20
-17.47442002601333
 97
        0
 97
        1
330
544
 75
     2
 76
     1
 98
        1
 10
0.0
 20
0.0
450
        0
451
        0
460
0.0
461
0.0
452
        0
462
0.0
453
        0
470

  0
SPLINE
  5
546
330
540
100
AcDbEntity
  8
Livello 3
100
AcDbSpline
210
0.0
220
0.0
230
1.0
 70
     9
 71
     3
 72
    17
 73
    13
 74
     0
 42
0.000000001
 43
0.0000000001
 40
0.0
 40
0.0
 40
0.0
 40
0.0
 40
1.0
 40
1.0
 40
1.0
 40
2.0
 40
2.0
 40
2.0
 40
3.0
 40
3.0
 40
3.0
 40
4.0
 40
4.0
 40
4.0
 40
4.0
 10
13.81991441169259
 20
-17.19381699873974
 30
0.0
 10
13.81991441169259
 20
-17.40841199651595
 30
0.0
 10
13.8859396666674
 20
-17.53029947478409
 30
0.0
 10
13.98753553252742
 20
-17.53029947478409
 30
0.0
 10
14.10182657525058
 20
-17.53029947478409
 30
0.0
 10
14.15643133869179
 20
-17.39697427950492
 30
0.0
 10
14.15643133869179
 20
-17.18620333771734
 30
0.0
 10
14.15643133869179
 20
-16.9830116059973
 30
0.0
 10
14.10435872043224
 20
-16.84968641071813
 30
0.0
 10
13.98881021785696
 20
-16.84968641071813
 30
0.0
 10
13.89102118250814
 20
-16.84968641071813
 30
0.0
 10
13.81991441169259
 20
-16.96902451832719
 30
0.0
 10
13.81991441169259
 20
-17.19381699873974
 30
0.0
  0
SPLINE
  5
547
330
540
100
AcDbEntity
  8
Livello 3
100
AcDbSpline
210
0.0
220
0.0
230
1.0
 70
     9
 71
     3
 72
    17
 73
    13
 74
     0
 42
0.000000001
 43
0.0000000001
 40
0.0
 40
0.0
 40
0.0
 40
0.0
 40
1.0
 40
1.0
 40
1.0
 40
2.0
 40
2.0
 40
2.0
 40
3.0
 40
3.0
 40
3.0
 40
4.0
 40
4.0
 40
4.0
 40
4.0
 10
14.26817301075587
 20
-17.18110459639916
 30
0.0
 10
14.26817301075587
 20
-17.46174207462762
 30
0.0
 10
14.16404499971419
 20
-17.6166680185993
 30
0.0
 10
13.98117933135713
 20
-17.6166680185993
 30
0.0
 10
13.81991441169259
 20
-17.6166680185993
 30
0.0
 10
13.71070488481017
 20
-17.46553167966139
 30
0.0
 10
13.70817273962851
 20
-17.19254231341019
 30
0.0
 10
13.70817273962851
 20
-16.91569444021552
 30
0.0
 10
13.82752807271499
 20
-16.76335231785777
 30
0.0
 10
13.99514919354982
 20
-16.76335231785777
 30
0.0
 10
14.16912651555494
 20
-16.76335231785777
 30
0.0
 10
14.26817301075587
 20
-16.9182438108746
 30
0.0
 10
14.26817301075587
 20
-17.18110459639916
 30
0.0
  0
HATCH
  5
548
330
540
100
AcDbEntity
  8
Livello 3
 62
   250
420
  1907995
440
 33554687
100
AcDbHatch
 10
0.0
 20
0.0
 30
0.0
210
0.0
220
0.0
230
1.0
  2
SOLID
 70
     1
 71
     1
 91
        2
 92
        1
 93
        1
 72
     4
 94
        3
 73
     0
 74
     0
 95
       17
 96
       13
 40
0.0
 40
0.0
 40
0.0
 40
0.0
 40
1.0
 40
1.0
 40
1.0
 40
2.0
 40
2.0
 40
2.0
 40
3.0
 40
3.0
 40
3.0
 40
4.0
 40
4.0
 40
4.0
 40
4.0
 10
13.81991441169259
 20
-17.19381699873974
 10
13.81991441169259
 20
-17.40841199651595
 10
13.8859396666674
 20
-17.53029947478409
 10
13.98753553252742
 20
-17.53029947478409
 10
14.10182657525058
 20
-17.53029947478409
 10
14.15643133869179
 20
-17.39697427950492
 10
14.15643133869179
 20
-17.18620333771734
 10
14.15643133869179
 20
-16.9830116059973
 10
14.10435872043224
 20
-16.84968641071813
 10
13.98881021785696
 20
-16.84968641071813
 10
13.89102118250814
 20
-16.84968641071813
 10
13.81991441169259
 20
-16.96902451832719
 10
13.81991441169259
 20
-17.19381699873974
 97
        0
 97
        1
330
546
 92
        1
 93
        1
 72
     4
 94
        3
 73
     0
 74
     0
 95
       17
 96
       13
 40
0.0
 40
0.0
 40
0.0
 40
0.0
 40
1.0
 40
1.0
 40
1.0
 40
2.0
 40
2.0
 40
2.0
 40
3.0
 40
3.0
 40
3.0
 40
4.0
 40
4.0
 40
4.0
 40
4.0
 10
14.26817301075587
 20
-17.18110459639916
 10
14.26817301075587
 20
-17.46174207462762
 10
14.16404499971419
 20
-17.6166680185993
 10
13.98117933135713
 20
-17.6166680185993
 10
13.81991441169259
 20
-17.6166680185993
 10
13.71070488481017
 20
-17.46553167966139
 10
13.70817273962851
 20
-17.19254231341019
 10
13.70817273962851
 20
-16.91569444021552
 10
13.82752807271499
 20
-16.76335231785777
 10
13.99514919354982
 20
-16.76335231785777
 10
14.16912651555494
 20
-16.76335231785777
 10
14.26817301075587
 20
-16.9182438108746
 10
14.26817301075587
 20
-17.18110459639916
 97
        0
 97
        1
330
547
 75
     2
 76
     1
 98
        1
 10
0.0
 20
0.0
450
        0
451
        0
460
0.0
461
0.0
452
        0
462
0.0
453
        0
470

  0
SPLINE
  5
549
330
540
100
AcDbEntity
  8
Livello 3
100
AcDbSpline
210
0.0
220
0.0
230
1.0
 70
     9
 71
     3
 72
    59
 73
    55
 74
     0
 42
0.000000001
 43
0.0000000001
 40
0.0
 40
0.0
 40
0.0
 40
0.0
 40
1.0
 40
1.0
 40
1.0
 40
2.0
 40
2.0
 40
2.0
 40
3.0
 40
3.0
 40
3.0
 40
4.0
 40
4.0
 40
4.0
 40
5.0
 40
5.0
 40
5.0
 40
6.0
 40
6.0
 40
6.0
 40
7.0
 40
7.0
 40
7.0
 40
8.0
 40
8.0
 40
8.0
 40
9.0
 40
9.0
 40
9.0
 40
10.0
 40
10.0
 40
10.0
 40
11.0
 40
11.0
 40
11.0
 40
12.0
 40
12.0
 40
12.0
 40
13.0
 40
13.0
 40
13.0
 40
14.0
 40
14.0
 40
14.0
 40
15.0
 40
15.0
 40
15.0
 40
16.0
 40
16.0
 40
16.0
 40
17.0
 40
17.0
 40
17.0
 40
18.0
 40
18.0
 40
18.0
 40
18.0
 10
14.39774305195612
 20
-17.47442002601333
 30
0.0
 10
14.42948960685269
 20
-17.49474608937631
 30
0.0
 10
14.50314574832734
 20
-17.52650986975031
 30
0.0
 10
14.58060872031318
 20
-17.52650986975031
 30
0.0
 10
14.72409694727383
 20
-17.52650986975031
 30
0.0
 10
14.76853867903356
 20
-17.43507703557178
 30
0.0
 10
14.76728121918144
 20
-17.36651963541531
 30
0.0
 10
14.7660065338519
 20
-17.25097113284003
 30
0.0
 10
14.66187852281022
 20
-17.20143065976214
 30
0.0
 10
14.55394368125734
 20
-17.20143065976214
 30
0.0
 10
14.55394368125734
 20
-17.20143065976214
 30
0.0
 10
14.49172525679373
 20
-17.20143065976214
 30
0.0
 10
14.49172525679373
 20
-17.20143065976214
 30
0.0
 10
14.49172525679373
 20
-17.20143065976214
 30
0.0
 10
14.49172525679373
 20
-17.11761148660601
 30
0.0
 10
14.49172525679373
 20
-17.11761148660601
 30
0.0
 10
14.49172525679373
 20
-17.11761148660601
 30
0.0
 10
14.55394368125734
 20
-17.11761148660601
 30
0.0
 10
14.55394368125734
 20
-17.11761148660601
 30
0.0
 10
14.63521348375439
 20
-17.11761148660601
 30
0.0
 10
14.73806680946652
 20
-17.07571912550537
 30
0.0
 10
14.73806680946652
 20
-16.97791286467913
 30
0.0
 10
14.73806680946652
 20
-16.91190483518174
 30
0.0
 10
14.69615722288846
 20
-16.85347601575191
 30
0.0
 10
14.59330389717632
 20
-16.85347601575191
 30
0.0
 10
14.52727864220151
 20
-16.85347601575191
 30
0.0
 10
14.46378553240836
 20
-16.88269042546682
 30
0.0
 10
14.42823214700058
 20
-16.90811523014797
 30
0.0
 10
14.42823214700058
 20
-16.90811523014797
 30
0.0
 10
14.39901773728566
 20
-16.82681097669607
 30
0.0
 10
14.39901773728566
 20
-16.82681097669607
 30
0.0
 10
14.44220200919327
 20
-16.79508164727692
 30
0.0
 10
14.52600395687197
 20
-16.76335231785777
 30
0.0
 10
14.61488742039141
 20
-16.76335231785777
 30
0.0
 10
14.7774270253855
 20
-16.76335231785777
 30
0.0
 10
14.85108316686014
 20
-16.85984944239962
 30
0.0
 10
14.85108316686014
 20
-16.96013617197524
 30
0.0
 10
14.85108316686014
 20
-17.04523003046091
 30
0.0
 10
14.80028523393013
 20
-17.11761148660601
 30
0.0
 10
14.69870659354754
 20
-17.15443955734333
 30
0.0
 10
14.69870659354754
 20
-17.15443955734333
 30
0.0
 10
14.69870659354754
 20
-17.15698892800242
 30
0.0
 10
14.69870659354754
 20
-17.15698892800242
 30
0.0
 10
14.80028523393013
 20
-17.17731499136539
 30
0.0
 10
14.88282972175672
 20
-17.25348605254426
 30
0.0
 10
14.88282972175672
 20
-17.3690690060744
 30
0.0
 10
14.88282972175672
 20
-17.50108506506917
 30
0.0
 10
14.77997639604459
 20
-17.6166680185993
 30
0.0
 10
14.58188340564272
 20
-17.6166680185993
 30
0.0
 10
14.48917588613465
 20
-17.6166680185993
 30
0.0
 10
14.4079060836376
 20
-17.58745360888438
 30
0.0
 10
14.36727118238908
 20
-17.56078856982855
 30
0.0
 10
14.36727118238908
 20
-17.56078856982855
 30
0.0
 10
14.39774305195612
 20
-17.47442002601333
 30
0.0
 10
14.39774305195612
 20
-17.47442002601333
 30
0.0
  0
HATCH
  5
54A
330
540
100
AcDbEntity
  8
Livello 3
 62
   250
420
  1907995
440
 33554687
100
AcDbHatch
 10
0.0
 20
0.0
 30
0.0
210
0.0
220
0.0
230
1.0
  2
SOLID
 70
     1
 71
     1
 91
        1
 92
        1
 93
        1
 72
     4
 94
        3
 73
     0
 74
     0
 95
       59
 96
       55
 40
0.0
 40
0.0
 40
0.0
 40
0.0
 40
1.0
 40
1.0
 40
1.0
 40
2.0
 40
2.0
 40
2.0
 40
3.0
 40
3.0
 40
3.0
 40
4.0
 40
4.0
 40
4.0
 40
5.0
 40
5.0
 40
5.0
 40
6.0
 40
6.0
 40
6.0
 40
7.0
 40
7.0
 40
7.0
 40
8.0
 40
8.0
 40
8.0
 40
9.0
 40
9.0
 40
9.0
 40
10.0
 40
10.0
 40
10.0
 40
11.0
 40
11.0
 40
11.0
 40
12.0
 40
12.0
 40
12.0
 40
13.0
 40
13.0
 40
13.0
 40
14.0
 40
14.0
 40
14.0
 40
15.0
 40
15.0
 40
15.0
 40
16.0
 40
16.0
 40
16.0
 40
17.0
 40
17.0
 40
17.0
 40
18.0
 40
18.0
 40
18.0
 40
18.0
 10
14.39774305195612
 20
-17.47442002601333
 10
14.42948960685269
 20
-17.49474608937631
 10
14.50314574832734
 20
-17.52650986975031
 10
14.58060872031318
 20
-17.52650986975031
 10
14.72409694727383
 20
-17.52650986975031
 10
14.76853867903356
 20
-17.43507703557178
 10
14.76728121918144
 20
-17.36651963541531
 10
14.7660065338519
 20
-17.25097113284003
 10
14.66187852281022
 20
-17.20143065976214
 10
14.55394368125734
 20
-17.20143065976214
 10
14.55394368125734
 20
-17.20143065976214
 10
14.49172525679373
 20
-17.20143065976214
 10
14.49172525679373
 20
-17.20143065976214
 10
14.49172525679373
 20
-17.20143065976214
 10
14.49172525679373
 20
-17.11761148660601
 10
14.49172525679373
 20
-17.11761148660601
 10
14.49172525679373
 20
-17.11761148660601
 10
14.55394368125734
 20
-17.11761148660601
 10
14.55394368125734
 20
-17.11761148660601
 10
14.63521348375439
 20
-17.11761148660601
 10
14.73806680946652
 20
-17.07571912550537
 10
14.73806680946652
 20
-16.97791286467913
 10
14.73806680946652
 20
-16.91190483518174
 10
14.69615722288846
 20
-16.85347601575191
 10
14.59330389717632
 20
-16.85347601575191
 10
14.52727864220151
 20
-16.85347601575191
 10
14.46378553240836
 20
-16.88269042546682
 10
14.42823214700058
 20
-16.90811523014797
 10
14.42823214700058
 20
-16.90811523014797
 10
14.39901773728566
 20
-16.82681097669607
 10
14.39901773728566
 20
-16.82681097669607
 10
14.44220200919327
 20
-16.79508164727692
 10
14.52600395687197
 20
-16.76335231785777
 10
14.61488742039141
 20
-16.76335231785777
 10
14.7774270253855
 20
-16.76335231785777
 10
14.85108316686014
 20
-16.85984944239962
 10
14.85108316686014
 20
-16.96013617197524
 10
14.85108316686014
 20
-17.04523003046091
 10
14.80028523393013
 20
-17.11761148660601
 10
14.69870659354754
 20
-17.15443955734333
 10
14.69870659354754
 20
-17.15443955734333
 10
14.69870659354754
 20
-17.15698892800242
 10
14.69870659354754
 20
-17.15698892800242
 10
14.80028523393013
 20
-17.17731499136539
 10
14.88282972175672
 20
-17.25348605254426
 10
14.88282972175672
 20
-17.3690690060744
 10
14.88282972175672
 20
-17.50108506506917
 10
14.77997639604459
 20
-17.6166680185993
 10
14.58188340564272
 20
-17.6166680185993
 10
14.48917588613465
 20
-17.6166680185993
 10
14.4079060836376
 20
-17.58745360888438
 10
14.36727118238908
 20
-17.56078856982855
 10
14.36727118238908
 20
-17.56078856982855
 10
14.39774305195612
 20
-17.47442002601333
 10
14.39774305195612
 20
-17.47442002601333
 97
        0
 97
        1
330
549
 75
     2
 76
     1
 98
        1
 10
0.0
 20
0.0
450
        0
451
        0
460
0.0
461
0.0
452
        0
462
0.0
453
        0
470

  0
ENDBLK
  5
543
330
540
100
AcDbEntity
  8
0
100
AcDbBlockEnd
  0
BLOCK
  5
54D
330
54B
100
AcDbEntity
  8
0
100
AcDbBlockBegin
  2
Block_6
 70
     0
 10
0.0
 20
0.0
 30
0.0
  3
Block_6
  1

  0
INSERT
  5
550
330
54B
100
AcDbEntity
  8
Livello 3
100
AcDbBlockReference
  2
Block_7
 10
0.0
 20
0.0
 30
0.0
  0
ENDBLK
  5
54E
330
54B
100
AcDbEntity
  8
0
100
AcDbBlockEnd
  0
BLOCK
  5
551
330
54F
100
AcDbEntity
  8
0
100
AcDbBlockBegin
  2
Block_7
 70
     0
 10
0.0
 20
0.0
 30
0.0
  3
Block_7
  1

  0
SPLINE
  5
553
330
54F
100
AcDbEntity
  8
Livello 3
100
AcDbSpline
210
0.0
220
0.0
230
1.0
 70
    11
 71
     3
 72
    29
 73
    25
 74
     0
 42
0.000000001
 43
0.0000000001
 40
0.0
 40
0.0
 40
0.0
 40
0.0
 40
1.0
 40
1.0
 40
1.0
 40
2.0
 40
2.0
 40
2.0
 40
3.0
 40
3.0
 40
3.0
 40
4.0
 40
4.0
 40
4.0
 40
5.0
 40
5.0
 40
5.0
 40
6.0
 40
6.0
 40
6.0
 40
7.0
 40
7.0
 40
7.0
 40
8.0
 40
8.0
 40
8.0
 40
8.0
 10
24.35772080554251
 20
-14.7822846100197
 30
0.0
 10
24.35772080554251
 20
-14.7822846100197
 30
0.0
 10
24.35772080554251
 20
-14.78483398067879
 30
0.0
 10
24.35772080554251
 20
-14.78483398067879
 30
0.0
 10
24.35772080554251
 20
-14.78483398067879
 30
0.0
 10
24.43516655205093
 20
-14.92832220763945
 30
0.0
 10
24.43516655205093
 20
-14.92832220763945
 30
0.0
 10
24.43516655205093
 20
-14.92832220763945
 30
0.0
 10
24.35007269356527
 20
-14.94992295633196
 30
0.0
 10
24.35007269356527
 20
-14.94992295633196
 30
0.0
 10
24.35007269356527
 20
-14.94992295633196
 30
0.0
 10
24.25357556902341
 20
-14.76960665863398
 30
0.0
 10
24.25357556902341
 20
-14.76960665863398
 30
0.0
 10
24.25357556902341
 20
-14.76960665863398
 30
0.0
 10
24.25357556902341
 20
-14.67434976846683
 30
0.0
 10
24.25357556902341
 20
-14.67434976846683
 30
0.0
 10
24.25357556902341
 20
-14.67434976846683
 30
0.0
 10
25.07898599633442
 20
-14.67434976846683
 30
0.0
 10
25.07898599633442
 20
-14.67434976846683
 30
0.0
 10
25.07898599633442
 20
-14.67434976846683
 30
0.0
 10
25.07898599633442
 20
-14.7822846100197
 30
0.0
 10
25.07898599633442
 20
-14.7822846100197
 30
0.0
 10
25.07898599633442
 20
-14.7822846100197
 30
0.0
 10
24.35772080554251
 20
-14.7822846100197
 30
0.0
 10
24.35772080554251
 20
-14.7822846100197
 30
0.0
  0
HATCH
  5
554
330
54F
100
AcDbEntity
  8
Livello 3
 62
   250
420
  1907995
440
 33554687
100
AcDbHatch
 10
0.0
 20
0.0
 30
0.0
210
0.0
220
0.0
230
1.0
  2
SOLID
 70
     1
 71
     1
 91
        1
 92
        1
 93
        1
 72
     4
 94
        3
 73
     0
 74
     0
 95
       29
 96
       25
 40
0.0
 40
0.0
 40
0.0
 40
0.0
 40
1.0
 40
1.0
 40
1.0
 40
2.0
 40
2.0
 40
2.0
 40
3.0
 40
3.0
 40
3.0
 40
4.0
 40
4.0
 40
4.0
 40
5.0
 40
5.0
 40
5.0
 40
6.0
 40
6.0
 40
6.0
 40
7.0
 40
7.0
 40
7.0
 40
8.0
 40
8.0
 40
8.0
 40
8.0
 10
24.35772080554251
 20
-14.7822846100197
 10
24.35772080554251
 20
-14.7822846100197
 10
24.35772080554251
 20
-14.78483398067879
 10
24.35772080554251
 20
-14.78483398067879
 10
24.35772080554251
 20
-14.78483398067879
 10
24.43516655205093
 20
-14.92832220763945
 10
24.43516655205093
 20
-14.92832220763945
 10
24.43516655205093
 20
-14.92832220763945
 10
24.35007269356527
 20
-14.94992295633196
 10
24.35007269356527
 20
-14.94992295633196
 10
24.35007269356527
 20
-14.94992295633196
 10
24.25357556902341
 20
-14.76960665863398
 10
24.25357556902341
 20
-14.76960665863398
 10
24.25357556902341
 20
-14.76960665863398
 10
24.25357556902341
 20
-14.67434976846683
 10
24.25357556902341
 20
-14.67434976846683
 10
24.25357556902341
 20
-14.67434976846683
 10
25.07898599633442
 20
-14.67434976846683
 10
25.07898599633442
 20
-14.67434976846683
 10
25.07898599633442
 20
-14.67434976846683
 10
25.07898599633442
 20
-14.7822846100197
 10
25.07898599633442
 20
-14.7822846100197
 10
25.07898599633442
 20
-14.7822846100197
 10
24.35772080554251
 20
-14.7822846100197
 10
24.35772080554251
 20
-14.7822846100197
 97
        0
 97
        1
330
553
 75
     2
 76
     1
 98
        1
 10
0.0
 20
0.0
450
        0
451
        0
460
0.0
461
0.0
452
        0
462
0.0
453
        0
470

  0
SPLINE
  5
555
330
54F
100
AcDbEntity
  8
Livello 3
100
AcDbSpline
210
0.0
220
0.0
230
1.0
 70
    11
 71
     3
 72
    26
 73
    22
 74
     0
 42
0.000000001
 43
0.0000000001
 40
0.0
 40
0.0
 40
0.0
 40
0.0
 40
1.0
 40
1.0
 40
1.0
 40
2.0
 40
2.0
 40
2.0
 40
3.0
 40
3.0
 40
3.0
 40
4.0
 40
4.0
 40
4.0
 40
5.0
 40
5.0
 40
5.0
 40
6.0
 40
6.0
 40
6.0
 40
7.0
 40
7.0
 40
7.0
 40
7.0
 10
24.76658473773197
 20
-14.0279465025694
 30
0.0
 10
24.76658473773197
 20
-14.0279465025694
 30
0.0
 10
24.49104600082168
 20
-14.0279465025694
 30
0.0
 10
24.49104600082168
 20
-14.0279465025694
 30
0.0
 10
24.4478789543915
 20
-14.0279465025694
 30
0.0
 10
24.40467745700647
 20
-14.02667181723986
 30
0.0
 10
24.36151041057629
 20
-14.02415689753562
 30
0.0
 10
24.36151041057629
 20
-14.02415689753562
 30
0.0
 10
24.36151041057629
 20
-14.0279465025694
 30
0.0
 10
24.36151041057629
 20
-14.0279465025694
 30
0.0
 10
24.40977619832465
 20
-14.05337130725054
 30
0.0
 10
24.44532958373243
 20
-14.07366291965866
 30
0.0
 10
24.48343233979928
 20
-14.09650390272586
 30
0.0
 10
24.48343233979928
 20
-14.09650390272586
 30
0.0
 10
24.76406981802773
 20
-14.29842094911636
 30
0.0
 10
24.76406981802773
 20
-14.29842094911636
 30
0.0
 10
24.76406981802773
 20
-14.29842094911636
 30
0.0
 10
24.76658473773197
 20
-14.29842094911636
 30
0.0
 10
24.76658473773197
 20
-14.29842094911636
 30
0.0
 10
24.76658473773197
 20
-14.29842094911636
 30
0.0
 10
24.76658473773197
 20
-14.0279465025694
 30
0.0
 10
24.76658473773197
 20
-14.0279465025694
 30
0.0
  0
SPLINE
  5
556
330
54F
100
AcDbEntity
  8
Livello 3
100
AcDbSpline
210
0.0
220
0.0
230
1.0
 70
    11
 71
     3
 72
    38
 73
    34
 74
     0
 42
0.000000001
 43
0.0000000001
 40
0.0
 40
0.0
 40
0.0
 40
0.0
 40
1.0
 40
1.0
 40
1.0
 40
2.0
 40
2.0
 40
2.0
 40
3.0
 40
3.0
 40
3.0
 40
4.0
 40
4.0
 40
4.0
 40
5.0
 40
5.0
 40
5.0
 40
6.0
 40
6.0
 40
6.0
 40
7.0
 40
7.0
 40
7.0
 40
8.0
 40
8.0
 40
8.0
 40
9.0
 40
9.0
 40
9.0
 40
10.0
 40
10.0
 40
10.0
 40
11.0
 40
11.0
 40
11.0
 40
11.0
 10
25.07898599633442
 20
-14.0279465025694
 30
0.0
 10
25.07898599633442
 20
-14.0279465025694
 30
0.0
 10
24.85422796687672
 20
-14.0279465025694
 30
0.0
 10
24.85422796687672
 20
-14.0279465025694
 30
0.0
 10
24.85422796687672
 20
-14.0279465025694
 30
0.0
 10
24.85422796687672
 20
-14.41145453198741
 30
0.0
 10
24.85422796687672
 20
-14.41145453198741
 30
0.0
 10
24.85422796687672
 20
-14.41145453198741
 30
0.0
 10
24.78057182540208
 20
-14.41145453198741
 30
0.0
 10
24.78057182540208
 20
-14.41145453198741
 30
0.0
 10
24.78057182540208
 20
-14.41145453198741
 30
0.0
 10
24.25357556902341
 20
-14.0431738246142
 30
0.0
 10
24.25357556902341
 20
-14.0431738246142
 30
0.0
 10
24.25357556902341
 20
-14.0431738246142
 30
0.0
 10
24.25357556902341
 20
-13.92256103167561
 30
0.0
 10
24.25357556902341
 20
-13.92256103167561
 30
0.0
 10
24.25357556902341
 20
-13.92256103167561
 30
0.0
 10
24.76658473773197
 20
-13.92256103167561
 30
0.0
 10
24.76658473773197
 20
-13.92256103167561
 30
0.0
 10
24.76658473773197
 20
-13.92256103167561
 30
0.0
 10
24.76658473773197
 20
-13.80697807814547
 30
0.0
 10
24.76658473773197
 20
-13.80697807814547
 30
0.0
 10
24.76658473773197
 20
-13.80697807814547
 30
0.0
 10
24.85422796687672
 20
-13.80697807814547
 30
0.0
 10
24.85422796687672
 20
-13.80697807814547
 30
0.0
 10
24.85422796687672
 20
-13.80697807814547
 30
0.0
 10
24.85422796687672
 20
-13.92256103167561
 30
0.0
 10
24.85422796687672
 20
-13.92256103167561
 30
0.0
 10
24.85422796687672
 20
-13.92256103167561
 30
0.0
 10
25.07898599633442
 20
-13.92256103167561
 30
0.0
 10
25.07898599633442
 20
-13.92256103167561
 30
0.0
 10
25.07898599633442
 20
-13.92256103167561
 30
0.0
 10
25.07898599633442
 20
-14.0279465025694
 30
0.0
 10
25.07898599633442
 20
-14.0279465025694
 30
0.0
  0
HATCH
  5
557
330
54F
100
AcDbEntity
  8
Livello 3
 62
   250
420
  1907995
440
 33554687
100
AcDbHatch
 10
0.0
 20
0.0
 30
0.0
210
0.0
220
0.0
230
1.0
  2
SOLID
 70
     1
 71
     1
 91
        2
 92
        1
 93
        1
 72
     4
 94
        3
 73
     0
 74
     0
 95
       26
 96
       22
 40
0.0
 40
0.0
 40
0.0
 40
0.0
 40
1.0
 40
1.0
 40
1.0
 40
2.0
 40
2.0
 40
2.0
 40
3.0
 40
3.0
 40
3.0
 40
4.0
 40
4.0
 40
4.0
 40
5.0
 40
5.0
 40
5.0
 40
6.0
 40
6.0
 40
6.0
 40
7.0
 40
7.0
 40
7.0
 40
7.0
 10
24.76658473773197
 20
-14.0279465025694
 10
24.76658473773197
 20
-14.0279465025694
 10
24.49104600082168
 20
-14.0279465025694
 10
24.49104600082168
 20
-14.0279465025694
 10
24.4478789543915
 20
-14.0279465025694
 10
24.40467745700647
 20
-14.02667181723986
 10
24.36151041057629
 20
-14.02415689753562
 10
24.36151041057629
 20
-14.02415689753562
 10
24.36151041057629
 20
-14.0279465025694
 10
24.36151041057629
 20
-14.0279465025694
 10
24.40977619832465
 20
-14.05337130725054
 10
24.44532958373243
 20
-14.07366291965866
 10
24.48343233979928
 20
-14.09650390272586
 10
24.48343233979928
 20
-14.09650390272586
 10
24.76406981802773
 20
-14.29842094911636
 10
24.76406981802773
 20
-14.29842094911636
 10
24.76406981802773
 20
-14.29842094911636
 10
24.76658473773197
 20
-14.29842094911636
 10
24.76658473773197
 20
-14.29842094911636
 10
24.76658473773197
 20
-14.29842094911636
 10
24.76658473773197
 20
-14.0279465025694
 10
24.76658473773197
 20
-14.0279465025694
 97
        0
 97
        1
330
555
 92
        1
 93
        1
 72
     4
 94
        3
 73
     0
 74
     0
 95
       38
 96
       34
 40
0.0
 40
0.0
 40
0.0
 40
0.0
 40
1.0
 40
1.0
 40
1.0
 40
2.0
 40
2.0
 40
2.0
 40
3.0
 40
3.0
 40
3.0
 40
4.0
 40
4.0
 40
4.0
 40
5.0
 40
5.0
 40
5.0
 40
6.0
 40
6.0
 40
6.0
 40
7.0
 40
7.0
 40
7.0
 40
8.0
 40
8.0
 40
8.0
 40
9.0
 40
9.0
 40
9.0
 40
10.0
 40
10.0
 40
10.0
 40
11.0
 40
11.0
 40
11.0
 40
11.0
 10
25.07898599633442
 20
-14.0279465025694
 10
25.07898599633442
 20
-14.0279465025694
 10
24.85422796687672
 20
-14.0279465025694
 10
24.85422796687672
 20
-14.0279465025694
 10
24.85422796687672
 20
-14.0279465025694
 10
24.85422796687672
 20
-14.41145453198741
 10
24.85422796687672
 20
-14.41145453198741
 10
24.85422796687672
 20
-14.41145453198741
 10
24.78057182540208
 20
-14.41145453198741
 10
24.78057182540208
 20
-14.41145453198741
 10
24.78057182540208
 20
-14.41145453198741
 10
24.25357556902341
 20
-14.0431738246142
 10
24.25357556902341
 20
-14.0431738246142
 10
24.25357556902341
 20
-14.0431738246142
 10
24.25357556902341
 20
-13.92256103167561
 10
24.25357556902341
 20
-13.92256103167561
 10
24.25357556902341
 20
-13.92256103167561
 10
24.76658473773197
 20
-13.92256103167561
 10
24.76658473773197
 20
-13.92256103167561
 10
24.76658473773197
 20
-13.92256103167561
 10
24.76658473773197
 20
-13.80697807814547
 10
24.76658473773197
 20
-13.80697807814547
 10
24.76658473773197
 20
-13.80697807814547
 10
24.85422796687672
 20
-13.80697807814547
 10
24.85422796687672
 20
-13.80697807814547
 10
24.85422796687672
 20
-13.80697807814547
 10
24.85422796687672
 20
-13.92256103167561
 10
24.85422796687672
 20
-13.92256103167561
 10
24.85422796687672
 20
-13.92256103167561
 10
25.07898599633442
 20
-13.92256103167561
 10
25.07898599633442
 20
-13.92256103167561
 10
25.07898599633442
 20
-13.92256103167561
 10
25.07898599633442
 20
-14.0279465025694
 10
25.07898599633442
 20
-14.0279465025694
 97
        0
 97
        1
330
556
 75
     2
 76
     1
 98
        1
 10
0.0
 20
0.0
450
        0
451
        0
460
0.0
461
0.0
452
        0
462
0.0
453
        0
470

  0
ENDBLK
  5
552
330
54F
100
AcDbEntity
  8
0
100
AcDbBlockEnd
  0
ENDSEC
  0
SECTION
  2
ENTITIES
  0
LINE
  5
EC9
330
70
100
AcDbEntity
  8
Livello 1
100
AcDbLine
 10
10.70352868860266
 20
33.59353611455066
 30
0.0
 11
-22.07174853078521
 21
33.59353611455066
 31
0.0
  0
LINE
  5
ECA
330
70
100
AcDbEntity
  8
Livello 1
100
AcDbLine
 10
10.70352868860266
 20
35.78248694733705
 30
0.0
 11
-22.07174853078521
 21
35.78248694733705
 31
0.0
  0
LINE
  5
ECB
330
70
100
AcDbEntity
  8
Livello 1
100
AcDbLine
 10
10.70352868860266
 20
36.14235555835745
 30
0.0
 11
-22.07174853078521
 21
36.14235555835745
 31
0.0
  0
LINE
  5
ECC
330
70
100
AcDbEntity
  8
Livello 1
100
AcDbLine
 10
-25.99999954167834
 20
58.00247749733677
 30
0.0
 11
-25.99999954167834
 21
87.11941471228026
 31
0.0
  0
LINE
  5
ECD
330
70
100
AcDbEntity
  8
Livello 1
100
AcDbLine
 10
-23.63102626878265
 20
35.42265361409346
 30
0.0
 11
-23.63102626878265
 21
56.20331083112038
 31
0.0
  0
LINE
  5
ECE
330
70
100
AcDbEntity
  8
Livello 1
100
AcDbLine
 10
-23.33120044309845
 20
37.61160444687977
 30
0.0
 11
-23.33120044309845
 21
56.20331083112038
 31
0.0
  0
LINE
  5
ECF
330
70
100
AcDbEntity
  8
Livello 1
100
AcDbLine
 10
-23.12122711512194
 20
59.08201277484545
 30
0.0
 11
-23.12122711512194
 21
86.03984415699455
 31
0.0
  0
LINE
  5
ED0
330
70
100
AcDbEntity
  8
Livello 1
100
AcDbLine
 10
-20.78231050812599
 20
61.42092944092675
 30
0.0
 11
-20.78231050812599
 21
83.73087832423836
 31
0.0
  0
LINE
  5
ED1
330
70
100
AcDbEntity
  8
Livello 1
100
AcDbLine
 10
12.80259169060656
 20
56.20331083112038
 30
0.0
 11
-24.17081153278923
 21
56.20331083112038
 31
0.0
  0
LINE
  5
ED2
330
70
100
AcDbEntity
  8
Livello 1
100
AcDbLine
 10
11.72309171814692
 20
59.08201277484545
 30
0.0
 11
-23.12122711512194
 21
59.08201277484545
 31
0.0
  0
LINE
  5
ED3
330
70
100
AcDbEntity
  8
Livello 1
100
AcDbLine
 10
9.414090665943376
 20
61.42092944092675
 30
0.0
 11
-20.78231050812599
 21
61.42092944092675
 31
0.0
  0
LINE
  5
ED4
330
70
100
AcDbEntity
  8
Livello 1
100
AcDbLine
 10
-23.12122711512194
 20
86.03984415699455
 30
0.0
 11
-20.78231050812599
 21
83.73087832423836
 31
0.0
  0
LINE
  5
ED5
330
70
100
AcDbEntity
  8
Livello 1
100
AcDbLine
 10
-23.12122711512194
 20
59.08201277484545
 30
0.0
 11
-20.78231050812599
 21
61.42092944092675
 31
0.0
  0
LINE
  5
ED6
330
70
100
AcDbEntity
  8
Livello 1
100
AcDbLine
 10
9.414090665943376
 20
61.42092944092675
 30
0.0
 11
11.72309171814692
 21
59.08201277484545
 31
0.0
  0
LINE
  5
ED7
330
70
100
AcDbEntity
  8
Livello 1
100
AcDbLine
 10
9.414090665943376
 20
83.73087832423836
 30
0.0
 11
11.72309171814692
 21
86.03984415699455
 31
0.0
  0
LINE
  5
ED8
330
70
100
AcDbEntity
  8
Livello 1
100
AcDbLine
 10
-20.78231050812599
 20
83.73087832423836
 30
0.0
 11
9.414090665943376
 21
83.73087832423836
 31
0.0
  0
LINE
  5
ED9
330
70
100
AcDbEntity
  8
Livello 1
100
AcDbLine
 10
9.414090665943376
 20
83.73087832423836
 30
0.0
 11
9.414090665943376
 21
61.42092944092675
 31
0.0
  0
LINE
  5
EDA
330
70
100
AcDbEntity
  8
Livello 1
100
AcDbLine
 10
-23.12122711512194
 20
86.03984415699455
 30
0.0
 11
11.72309171814692
 21
86.03984415699455
 31
0.0
  0
LINE
  5
EDB
330
70
100
AcDbEntity
  8
Livello 1
100
AcDbLine
 10
-24.17081153278923
 20
88.79860165630487
 30
0.0
 11
12.80259169060656
 21
88.79860165630487
 31
0.0
  0
LINE
  5
EDC
330
70
100
AcDbEntity
  8
Livello 1
100
AcDbLine
 10
11.72309171814692
 20
86.03984415699455
 30
0.0
 11
11.72309171814692
 21
59.08201277484545
 31
0.0
  0
LINE
  5
EDD
330
70
100
AcDbEntity
  8
Livello 1
100
AcDbLine
 10
11.96298060091573
 20
37.61160444687977
 30
0.0
 11
11.96298060091573
 21
56.20331083112038
 31
0.0
  0
LINE
  5
EDE
330
70
100
AcDbEntity
  8
Livello 1
100
AcDbLine
 10
12.26280642659986
 20
35.42265361409346
 30
0.0
 11
12.26280642659986
 21
56.20331083112038
 31
0.0
  0
LINE
  5
EDF
330
70
100
AcDbEntity
  8
Livello 1
100
AcDbLine
 10
14.57173692324966
 20
87.11941471228026
 30
0.0
 11
14.57173692324966
 21
58.00247749733677
 31
0.0
  0
LINE
  5
EE0
330
70
100
AcDbEntity
  8
Livello 1
100
AcDbLine
 10
25.83261496929419
 20
65.23375166219586
 30
0.0
 11
25.83261496929419
 21
61.15556999654876
 31
0.0
  0
LINE
  5
EE1
330
70
100
AcDbEntity
  8
Livello 1
100
AcDbLine
 10
26.7622196678002
 20
66.19334249528947
 30
0.0
 11
26.7622196678002
 21
60.19604971901086
 31
0.0
  0
LINE
  5
EE2
330
70
100
AcDbEntity
  8
Livello 1
100
AcDbLine
 10
51.92088374817138
 20
54.76849305370087
 30
0.0
 11
49.88179296685956
 21
54.70852083149427
 31
0.0
  0
LINE
  5
EE3
330
70
100
AcDbEntity
  8
Livello 1
100
AcDbLine
 10
31.79992148372213
 20
60.04611916349296
 30
0.0
 11
31.79992148372213
 21
66.34327305080756
 31
0.0
  0
LINE
  5
EE4
330
70
100
AcDbEntity
  8
Livello 1
100
AcDbLine
 10
31.79992148372213
 20
66.34327305080756
 30
0.0
 11
31.82994287184511
 21
66.37329443968875
 31
0.0
  0
LINE
  5
EE5
330
70
100
AcDbEntity
  8
Livello 1
100
AcDbLine
 10
31.82994287184511
 20
66.37329443968875
 30
0.0
 11
31.82994287184511
 21
66.40320999523694
 31
0.0
  0
LINE
  5
EE6
330
70
100
AcDbEntity
  8
Livello 1
100
AcDbLine
 10
31.82994287184511
 20
66.40320999523694
 30
0.0
 11
31.82994287184511
 21
66.43323138411844
 31
0.0
  0
LINE
  5
EE7
330
70
100
AcDbEntity
  8
Livello 1
100
AcDbLine
 10
31.82994287184511
 20
66.43323138411844
 30
0.0
 11
31.82994287184511
 21
66.46318221744426
 31
0.0
  0
LINE
  5
EE8
330
70
100
AcDbEntity
  8
Livello 1
100
AcDbLine
 10
31.82994287184511
 20
66.46318221744426
 30
0.0
 11
31.85992898219126
 21
66.49316832854785
 31
0.0
  0
LINE
  5
EE9
330
70
100
AcDbEntity
  8
Livello 1
100
AcDbLine
 10
31.85992898219126
 20
66.49316832854785
 30
0.0
 11
31.85992898219126
 21
66.52318971742935
 31
0.0
  0
LINE
  5
EEA
330
70
100
AcDbEntity
  8
Livello 1
100
AcDbLine
 10
31.85992898219126
 20
66.52318971742935
 30
0.0
 11
31.88987981476049
 21
66.55314055075516
 31
0.0
  0
LINE
  5
EEB
330
70
100
AcDbEntity
  8
Livello 1
100
AcDbLine
 10
31.88987981476049
 20
66.55314055075516
 30
0.0
 11
31.91990120288352
 21
66.55314055075516
 31
0.0
  0
LINE
  5
EEC
330
70
100
AcDbEntity
  8
Livello 1
100
AcDbLine
 10
31.91990120288352
 20
66.55314055075516
 30
0.0
 11
31.91990120288352
 21
66.58316193963625
 31
0.0
  0
LINE
  5
EED
330
70
100
AcDbEntity
  8
Livello 1
100
AcDbLine
 10
31.91990120288352
 20
66.58316193963625
 30
0.0
 11
31.94992259100639
 21
66.58316193963625
 31
0.0
  0
LINE
  5
EEE
330
70
100
AcDbEntity
  8
Livello 1
100
AcDbLine
 10
31.94992259100639
 20
66.58316193963625
 30
0.0
 11
31.97983814579874
 21
66.61318332851775
 31
0.0
  0
LINE
  5
EEF
330
70
100
AcDbEntity
  8
Livello 1
100
AcDbLine
 10
31.97983814579874
 20
66.61318332851775
 30
0.0
 11
32.00985953392172
 21
66.61318332851775
 31
0.0
  0
LINE
  5
EF0
330
70
100
AcDbEntity
  8
Livello 1
100
AcDbLine
 10
32.00985953392172
 20
66.61318332851775
 30
0.0
 11
32.00985953392172
 21
66.64309888406606
 31
0.0
  0
LINE
  5
EF1
330
70
100
AcDbEntity
  8
Livello 1
100
AcDbLine
 10
32.00985953392172
 20
66.64309888406606
 30
0.0
 11
32.039810366491
 21
66.64309888406606
 31
0.0
  0
LINE
  5
EF2
330
70
100
AcDbEntity
  8
Livello 1
100
AcDbLine
 10
32.039810366491
 20
66.64309888406606
 30
0.0
 11
32.06983175461403
 21
66.64309888406606
 31
0.0
  0
LINE
  5
EF3
330
70
100
AcDbEntity
  8
Livello 1
100
AcDbLine
 10
32.06983175461403
 20
66.64309888406606
 30
0.0
 11
32.09981786496007
 21
66.64309888406606
 31
0.0
  0
LINE
  5
EF4
330
70
100
AcDbEntity
  8
Livello 1
100
AcDbLine
 10
32.09981786496007
 20
66.64309888406606
 30
0.0
 11
32.12976869752925
 21
66.64309888406606
 31
0.0
  0
LINE
  5
EF5
330
70
100
AcDbEntity
  8
Livello 1
100
AcDbLine
 10
49.6419040840907
 20
58.15692360840976
 30
0.0
 11
49.67192547221372
 21
58.15692360840976
 31
0.0
  0
LINE
  5
EF6
330
70
100
AcDbEntity
  8
Livello 1
100
AcDbLine
 10
49.67192547221372
 20
58.15692360840976
 30
0.0
 11
49.67192547221372
 21
58.18694499729057
 31
0.0
  0
LINE
  5
EF7
330
70
100
AcDbEntity
  8
Livello 1
100
AcDbLine
 10
49.88179296685956
 20
56.50768749771055
 30
0.0
 11
53.03044038653081
 21
56.50768749771055
 31
0.0
  0
LINE
  5
EF8
330
70
100
AcDbEntity
  8
Livello 1
100
AcDbLine
 10
47.99266801505512
 20
58.18694499729057
 30
0.0
 11
49.6419040840907
 21
58.15692360840976
 31
0.0
  0
LINE
  5
EF9
330
70
100
AcDbEntity
  8
Livello 1
100
AcDbLine
 10
44.00448006124674
 20
83.34564499100146
 30
0.0
 11
44.03446617159284
 21
83.34564499100146
 31
0.0
  0
LINE
  5
EFA
330
70
100
AcDbEntity
  8
Livello 1
100
AcDbLine
 10
44.03446617159284
 20
83.34564499100146
 30
0.0
 11
44.09443839228515
 21
83.37566637988267
 31
0.0
  0
LINE
  5
EFB
330
70
100
AcDbEntity
  8
Livello 1
100
AcDbLine
 10
44.09443839228515
 20
83.37566637988267
 30
0.0
 11
44.12435394707751
 21
83.37566637988267
 31
0.0
  0
LINE
  5
EFC
330
70
100
AcDbEntity
  8
Livello 1
100
AcDbLine
 10
44.12435394707751
 20
83.37566637988267
 30
0.0
 11
44.15438006963796
 21
83.40558193543087
 31
0.0
  0
LINE
  5
EFD
330
70
100
AcDbEntity
  8
Livello 1
100
AcDbLine
 10
44.15438006963796
 20
83.40558193543087
 30
0.0
 11
44.18439672332334
 21
83.40558193543087
 31
0.0
  0
LINE
  5
EFE
330
70
100
AcDbEntity
  8
Livello 1
100
AcDbLine
 10
42.05531233319646
 20
59.56630610805686
 30
0.0
 11
43.28481341294019
 21
59.56630610805686
 31
0.0
  0
LINE
  5
EFF
330
70
100
AcDbEntity
  8
Livello 1
100
AcDbLine
 10
43.28481341294019
 20
59.56630610805686
 30
0.0
 11
44.21435229184453
 21
59.56630610805686
 31
0.0
  0
LINE
  5
F00
330
70
100
AcDbEntity
  8
Livello 1
100
AcDbLine
 10
38.75684019512522
 20
59.74622277467924
 30
0.0
 11
32.12976869752925
 21
59.74622277467924
 31
0.0
  0
LINE
  5
F01
330
70
100
AcDbEntity
  8
Livello 1
100
AcDbLine
 10
32.12976869752925
 20
59.74622277467924
 30
0.0
 11
38.27706242958772
 21
59.74622277467924
 31
0.0
  0
LINE
  5
F02
330
70
100
AcDbEntity
  8
Livello 1
100
AcDbLine
 10
42.05531233319646
 20
59.89611805241887
 30
0.0
 11
40.79586042088322
 21
59.89611805241887
 31
0.0
  0
LINE
  5
F03
330
70
100
AcDbEntity
  8
Livello 1
100
AcDbLine
 10
40.16618738139198
 20
59.89611805241887
 30
0.0
 11
38.90673546907891
 21
59.89611805241887
 31
0.0
  0
LINE
  5
F04
330
70
100
AcDbEntity
  8
Livello 1
100
AcDbLine
 10
38.90673546907891
 20
59.89611805241887
 30
0.0
 11
40.16618738139198
 21
59.89611805241887
 31
0.0
  0
LINE
  5
F05
330
70
100
AcDbEntity
  8
Livello 1
100
AcDbLine
 10
40.79586042088322
 20
59.89611805241887
 30
0.0
 11
42.05531233319646
 21
59.89611805241887
 31
0.0
  0
LINE
  5
F06
330
70
100
AcDbEntity
  8
Livello 1
100
AcDbLine
 10
40.79586042088322
 20
60.67582749666886
 30
0.0
 11
40.16618738139198
 21
60.67582749666886
 31
0.0
  0
LINE
  5
F07
330
70
100
AcDbEntity
  8
Livello 1
100
AcDbLine
 10
32.12976869752925
 20
59.74622277467924
 30
0.0
 11
32.09981786496007
 21
59.74622277467924
 31
0.0
  0
LINE
  5
F08
330
70
100
AcDbEntity
  8
Livello 1
100
AcDbLine
 10
32.09981786496007
 20
59.74622277467924
 30
0.0
 11
32.06983175461403
 21
59.74622277467924
 31
0.0
  0
LINE
  5
F09
330
70
100
AcDbEntity
  8
Livello 1
100
AcDbLine
 10
32.06983175461403
 20
59.74622277467924
 30
0.0
 11
32.039810366491
 21
59.74622277467924
 31
0.0
  0
LINE
  5
F0A
330
70
100
AcDbEntity
  8
Livello 1
100
AcDbLine
 10
32.039810366491
 20
59.74622277467924
 30
0.0
 11
32.00985953392172
 21
59.77624416356076
 31
0.0
  0
LINE
  5
F0B
330
70
100
AcDbEntity
  8
Livello 1
100
AcDbLine
 10
32.00985953392172
 20
59.77624416356076
 30
0.0
 11
31.97983814579874
 21
59.77624416356076
 31
0.0
  0
LINE
  5
F0C
330
70
100
AcDbEntity
  8
Livello 1
100
AcDbLine
 10
31.97983814579874
 20
59.77624416356076
 30
0.0
 11
31.94992259100639
 21
59.80615971910836
 31
0.0
  0
LINE
  5
F0D
330
70
100
AcDbEntity
  8
Livello 1
100
AcDbLine
 10
31.94992259100639
 20
59.80615971910836
 30
0.0
 11
31.91990120288352
 21
59.80615971910836
 31
0.0
  0
SPLINE
  5
F0E
330
70
100
AcDbEntity
  8
Livello 1
100
AcDbSpline
210
0.0
220
0.0
230
1.0
 70
     9
 71
     3
 72
    17
 73
    13
 74
     0
 42
0.000000001
 43
0.0000000001
 40
0.0
 40
0.0
 40
0.0
 40
0.0
 40
1.0
 40
1.0
 40
1.0
 40
2.0
 40
2.0
 40
2.0
 40
3.0
 40
3.0
 40
3.0
 40
4.0
 40
4.0
 40
4.0
 40
4.0
 10
47.66282080124819
 20
68.23243332811294
 30
0.0
 10
47.66282080124819
 20
67.37126749499495
 30
0.0
 10
46.96467359683708
 20
66.67312027294716
 30
0.0
 10
46.10350778547387
 20
66.67312027294716
 30
0.0
 10
45.24230669633385
 20
66.67312027294716
 30
0.0
 10
44.54415949192292
 20
67.37126749499495
 30
0.0
 10
44.54415949192292
 20
68.23243332811294
 30
0.0
 10
44.54415949192292
 20
69.09363443900886
 30
0.0
 10
45.24230669633385
 20
69.79174638327876
 30
0.0
 10
46.10350778547387
 20
69.79174638327876
 30
0.0
 10
46.96467359683708
 20
69.79174638327876
 30
0.0
 10
47.66282080124819
 20
69.09363443900886
 30
0.0
 10
47.66282080124819
 20
68.23243332811294
 30
0.0
  0
LINE
  5
F0F
330
70
100
AcDbEntity
  8
Livello 1
100
AcDbLine
 10
31.91990120288352
 20
59.80615971910836
 30
0.0
 11
31.91990120288352
 21
59.83618110798975
 31
0.0
  0
LINE
  5
F10
330
70
100
AcDbEntity
  8
Livello 1
100
AcDbLine
 10
31.91990120288352
 20
59.83618110798975
 30
0.0
 11
31.88987981476049
 21
59.86620249687124
 31
0.0
  0
LINE
  5
F11
330
70
100
AcDbEntity
  8
Livello 1
100
AcDbLine
 10
31.88987981476049
 20
59.86620249687124
 30
0.0
 11
31.85992898219126
 21
59.86620249687124
 31
0.0
  0
LINE
  5
F12
330
70
100
AcDbEntity
  8
Livello 1
100
AcDbLine
 10
31.85992898219126
 20
59.86620249687124
 30
0.0
 11
31.85992898219126
 21
59.89611805241887
 31
0.0
  0
LINE
  5
F13
330
70
100
AcDbEntity
  8
Livello 1
100
AcDbLine
 10
31.85992898219126
 20
59.89611805241887
 30
0.0
 11
31.82994287184511
 21
59.92613944130036
 31
0.0
  0
LINE
  5
F14
330
70
100
AcDbEntity
  8
Livello 1
100
AcDbLine
 10
31.82994287184511
 20
59.92613944130036
 30
0.0
 11
31.82994287184511
 21
59.95616083018188
 31
0.0
  0
LINE
  5
F15
330
70
100
AcDbEntity
  8
Livello 1
100
AcDbLine
 10
31.82994287184511
 20
59.95616083018188
 30
0.0
 11
31.82994287184511
 21
59.98611166350824
 31
0.0
  0
LINE
  5
F16
330
70
100
AcDbEntity
  8
Livello 1
100
AcDbLine
 10
31.82994287184511
 20
59.98611166350824
 30
0.0
 11
31.82994287184511
 21
60.01613305238968
 31
0.0
  0
LINE
  5
F17
330
70
100
AcDbEntity
  8
Livello 1
100
AcDbLine
 10
31.82994287184511
 20
60.01613305238968
 30
0.0
 11
31.79992148372213
 21
60.04611916349296
 31
0.0
  0
LINE
  5
F18
330
70
100
AcDbEntity
  8
Livello 1
100
AcDbLine
 10
49.73186241512905
 20
58.15692360840976
 30
0.0
 11
49.70184102700608
 21
58.15692360840976
 31
0.0
  0
LINE
  5
F19
330
70
100
AcDbEntity
  8
Livello 1
100
AcDbLine
 10
49.70184102700608
 20
58.15692360840976
 30
0.0
 11
49.67192547221372
 21
58.18694499729057
 31
0.0
  0
LINE
  5
F1A
330
70
100
AcDbEntity
  8
Livello 1
100
AcDbLine
 10
49.7917993580445
 20
58.12700805286144
 30
0.0
 11
49.73186241512905
 21
58.15692360840976
 31
0.0
  0
LINE
  5
F1B
330
70
100
AcDbEntity
  8
Livello 1
100
AcDbLine
 10
38.90673546907891
 20
59.89611805241887
 30
0.0
 11
38.90673546907891
 21
66.49316832854785
 31
0.0
  0
LINE
  5
F1C
330
70
100
AcDbEntity
  8
Livello 1
100
AcDbLine
 10
40.16618738139198
 20
59.89611805241887
 30
0.0
 11
40.16618738139198
 21
66.49316832854785
 31
0.0
  0
LINE
  5
F1D
330
70
100
AcDbEntity
  8
Livello 1
100
AcDbLine
 10
40.79586042088322
 20
65.71352943985385
 30
0.0
 11
40.16618738139198
 21
65.71352943985385
 31
0.0
  0
LINE
  5
F1E
330
70
100
AcDbEntity
  8
Livello 1
100
AcDbLine
 10
42.05531233319646
 20
66.49316832854785
 30
0.0
 11
40.79586042088322
 21
66.49316832854785
 31
0.0
  0
LINE
  5
F1F
330
70
100
AcDbEntity
  8
Livello 1
100
AcDbLine
 10
40.16618738139198
 20
66.49316832854785
 30
0.0
 11
38.90673546907891
 21
66.49316832854785
 31
0.0
  0
LINE
  5
F20
330
70
100
AcDbEntity
  8
Livello 1
100
AcDbLine
 10
42.05531233319646
 20
66.49316832854785
 30
0.0
 11
40.79586042088322
 21
66.49316832854785
 31
0.0
  0
LINE
  5
F21
330
70
100
AcDbEntity
  8
Livello 1
100
AcDbLine
 10
40.16618738139198
 20
66.49316832854785
 30
0.0
 11
38.90673546907891
 21
66.49316832854785
 31
0.0
  0
LINE
  5
F22
330
70
100
AcDbEntity
  8
Livello 1
100
AcDbLine
 10
38.27706242958772
 20
66.64309888406606
 30
0.0
 11
32.12976869752925
 21
66.64309888406606
 31
0.0
  0
LINE
  5
F23
330
70
100
AcDbEntity
  8
Livello 1
100
AcDbLine
 10
38.75684019512522
 20
66.67312027294716
 30
0.0
 11
32.12976869752925
 21
66.67312027294716
 31
0.0
  0
LINE
  5
F24
330
70
100
AcDbEntity
  8
Livello 1
100
AcDbLine
 10
49.8518421342904
 20
58.06696527509925
 30
0.0
 11
49.82182074616736
 21
58.09698666398006
 31
0.0
  0
LINE
  5
F25
330
70
100
AcDbEntity
  8
Livello 1
100
AcDbLine
 10
49.82182074616736
 20
58.09698666398006
 30
0.0
 11
49.7917993580445
 21
58.12700805286144
 31
0.0
  0
LINE
  5
F26
330
70
100
AcDbEntity
  8
Livello 1
100
AcDbLine
 10
40.79586042088322
 20
59.89611805241887
 30
0.0
 11
40.79586042088322
 21
66.49316832854785
 31
0.0
  0
LINE
  5
F27
330
70
100
AcDbEntity
  8
Livello 1
100
AcDbLine
 10
42.05531233319646
 20
59.56630610805686
 30
0.0
 11
42.05531233319646
 21
66.82305082846525
 31
0.0
  0
LINE
  5
F28
330
70
100
AcDbEntity
  8
Livello 1
100
AcDbLine
 10
43.13481230565606
 20
81.66638749142114
 30
0.0
 11
43.13481230565606
 21
78.81763638102215
 31
0.0
  0
LINE
  5
F29
330
70
100
AcDbEntity
  8
Livello 1
100
AcDbLine
 10
43.13481230565606
 20
78.81763638102215
 30
0.0
 11
43.13481230565606
 21
76.53872721492525
 31
0.0
  0
LINE
  5
F2A
330
70
100
AcDbEntity
  8
Livello 1
100
AcDbLine
 10
43.13481230565606
 20
76.53872721492525
 30
0.0
 11
43.13481230565606
 21
68.71217582799315
 31
0.0
  0
LINE
  5
F2B
330
70
100
AcDbEntity
  8
Livello 1
100
AcDbLine
 10
43.13481230565606
 20
68.71217582799315
 30
0.0
 11
43.13481230565606
 21
66.82305082846525
 31
0.0
  0
LINE
  5
F2C
330
70
100
AcDbEntity
  8
Livello 1
100
AcDbLine
 10
43.13481230565606
 20
66.82305082846525
 30
0.0
 11
42.05531233319646
 21
66.82305082846525
 31
0.0
  0
LINE
  5
F2D
330
70
100
AcDbEntity
  8
Livello 1
100
AcDbLine
 10
43.13481230565606
 20
81.66638749142114
 30
0.0
 11
43.13481230565606
 21
81.81628276916146
 31
0.0
  0
LINE
  5
F2E
330
70
100
AcDbEntity
  8
Livello 1
100
AcDbLine
 10
43.13481230565606
 20
81.81628276916146
 30
0.0
 11
43.13481230565606
 21
81.93626249135386
 31
0.0
  0
LINE
  5
F2F
330
70
100
AcDbEntity
  8
Livello 1
100
AcDbLine
 10
43.13481230565606
 20
81.93626249135386
 30
0.0
 11
43.16483840321853
 21
82.05617165799045
 31
0.0
  0
LINE
  5
F30
330
70
100
AcDbEntity
  8
Livello 1
100
AcDbLine
 10
43.16483840321853
 20
82.05617165799045
 30
0.0
 11
43.19485508190206
 21
82.20610221350824
 31
0.0
  0
LINE
  5
F31
330
70
100
AcDbEntity
  8
Livello 1
100
AcDbLine
 10
43.19485508190206
 20
82.20610221350824
 30
0.0
 11
43.22477063669441
 21
82.32608193570065
 31
0.0
  0
LINE
  5
F32
330
70
100
AcDbEntity
  8
Livello 1
100
AcDbLine
 10
43.22477063669441
 20
82.32608193570065
 30
0.0
 11
43.28481341294019
 21
82.44606165789296
 31
0.0
  0
LINE
  5
F33
330
70
100
AcDbEntity
  8
Livello 1
100
AcDbLine
 10
43.28481341294019
 20
82.44606165789296
 30
0.0
 11
43.34475506983972
 21
82.56593554675188
 31
0.0
  0
LINE
  5
F34
330
70
100
AcDbEntity
  8
Livello 1
100
AcDbLine
 10
43.34475506983972
 20
82.56593554675188
 30
0.0
 11
43.40472729204765
 21
82.68591526894416
 31
0.0
  0
LINE
  5
F35
330
70
100
AcDbEntity
  8
Livello 1
100
AcDbLine
 10
43.40472729204765
 20
82.68591526894416
 30
0.0
 11
43.46465951946316
 21
82.77590888003254
 31
0.0
  0
LINE
  5
F36
330
70
100
AcDbEntity
  8
Livello 1
100
AcDbLine
 10
43.46465951946316
 20
82.77590888003254
 30
0.0
 11
43.52459646237844
 21
82.89578276889177
 31
0.0
  0
LINE
  5
F37
330
70
100
AcDbEntity
  8
Livello 1
100
AcDbLine
 10
43.52459646237844
 20
82.89578276889177
 30
0.0
 11
43.61459007119378
 21
82.98574110220226
 31
0.0
  0
LINE
  5
F38
330
70
100
AcDbEntity
  8
Livello 1
100
AcDbLine
 10
43.61459007119378
 20
82.98574110220226
 30
0.0
 11
43.70454840223198
 21
83.10575610217247
 31
0.0
  0
LINE
  5
F39
330
70
100
AcDbEntity
  8
Livello 1
100
AcDbLine
 10
43.70454840223198
 20
83.10575610217247
 30
0.0
 11
43.79450673327034
 21
83.19571443548337
 31
0.0
  0
LINE
  5
F3A
330
70
100
AcDbEntity
  8
Livello 1
100
AcDbLine
 10
43.79450673327034
 20
83.19571443548337
 30
0.0
 11
43.88450506970565
 21
83.25568665769054
 31
0.0
  0
LINE
  5
F3B
330
70
100
AcDbEntity
  8
Livello 1
100
AcDbLine
 10
43.88450506970565
 20
83.25568665769054
 30
0.0
 11
44.00448006124674
 21
83.34564499100146
 31
0.0
  0
LINE
  5
F3C
330
70
100
AcDbEntity
  8
Livello 1
100
AcDbLine
 10
44.99399118053952
 20
83.55551249094876
 30
0.0
 11
44.99399118053952
 21
83.55551249094876
 31
0.0
  0
LINE
  5
F3D
330
70
100
AcDbEntity
  8
Livello 1
100
AcDbLine
 10
44.21435229184453
 20
32.09874611492455
 30
0.0
 11
44.21435229184453
 21
68.23239805033516
 31
0.0
  0
LINE
  5
F3E
330
70
100
AcDbEntity
  8
Livello 1
100
AcDbLine
 10
44.66417448886107
 20
81.66638749142114
 30
0.0
 11
44.66417448886107
 21
69.46182860558356
 31
0.0
  0
LINE
  5
F3F
330
70
100
AcDbEntity
  8
Livello 1
100
AcDbLine
 10
49.6419040840907
 20
70.12152304986305
 30
0.0
 11
46.79315784675589
 21
70.00161388322637
 31
0.0
  0
LINE
  5
F40
330
70
100
AcDbEntity
  8
Livello 1
100
AcDbLine
 10
49.07216798751488
 20
70.93121860521596
 30
0.0
 11
49.88179296685956
 21
70.93121860521596
 31
0.0
  0
LINE
  5
F41
330
70
100
AcDbEntity
  8
Livello 1
100
AcDbLine
 10
49.88179296685956
 20
58.00702833066947
 30
0.0
 11
49.8518421342904
 21
58.03704971955096
 31
0.0
  0
LINE
  5
F42
330
70
100
AcDbEntity
  8
Livello 1
100
AcDbLine
 10
49.8518421342904
 20
58.03704971955096
 30
0.0
 11
49.8518421342904
 21
58.06696527509925
 31
0.0
  0
LINE
  5
F43
330
70
100
AcDbEntity
  8
Livello 1
100
AcDbLine
 10
47.99266801505512
 20
34.28769694771086
 30
0.0
 11
47.99266801505512
 21
68.23239805033516
 31
0.0
  0
LINE
  5
F44
330
70
100
AcDbEntity
  8
Livello 1
100
AcDbLine
 10
49.88179296685956
 20
66.34327305080756
 30
0.0
 11
49.88179296685956
 21
66.31325166192604
 31
0.0
  0
LINE
  5
F45
330
70
100
AcDbEntity
  8
Livello 1
100
AcDbLine
 10
49.88179296685956
 20
66.31325166192604
 30
0.0
 11
49.88179296685956
 21
66.28333610637816
 31
0.0
  0
LINE
  5
F46
330
70
100
AcDbEntity
  8
Livello 1
100
AcDbLine
 10
49.88179296685956
 20
66.28333610637816
 30
0.0
 11
49.88179296685956
 21
66.25331471749666
 31
0.0
  0
LINE
  5
F47
330
70
100
AcDbEntity
  8
Livello 1
100
AcDbLine
 10
49.88179296685956
 20
57.97700694178795
 30
0.0
 11
49.88179296685956
 21
58.00702833066947
 31
0.0
  0
LINE
  5
F48
330
70
100
AcDbEntity
  8
Livello 1
100
AcDbLine
 10
49.07216798751488
 20
70.93121860521596
 30
0.0
 11
49.07216798751488
 21
75.63903804848355
 31
0.0
  0
LINE
  5
F49
330
70
100
AcDbEntity
  8
Livello 1
100
AcDbLine
 10
49.6419040840907
 20
70.12152304986305
 30
0.0
 11
49.6419040840907
 21
70.42141943867687
 31
0.0
  0
LINE
  5
F4A
330
70
100
AcDbEntity
  8
Livello 1
100
AcDbLine
 10
49.6419040840907
 20
70.42141943867687
 30
0.0
 11
49.6419040840907
 21
70.93121860521596
 31
0.0
  0
LINE
  5
F4B
330
70
100
AcDbEntity
  8
Livello 1
100
AcDbLine
 10
49.88179296685956
 20
54.70852083149427
 30
0.0
 11
49.88179296685956
 21
87.45374221219654
 31
0.0
  0
LINE
  5
F4C
330
70
100
AcDbEntity
  8
Livello 1
100
AcDbLine
 10
49.88179296685956
 20
70.12152304986305
 30
0.0
 11
49.88179296685956
 21
70.15154443874417
 31
0.0
  0
LINE
  5
F4D
330
70
100
AcDbEntity
  8
Livello 1
100
AcDbLine
 10
49.88179296685956
 20
70.15154443874417
 30
0.0
 11
49.88179296685956
 21
70.18156582762566
 31
0.0
  0
LINE
  5
F4E
330
70
100
AcDbEntity
  8
Livello 1
100
AcDbLine
 10
49.88179296685956
 20
70.18156582762566
 30
0.0
 11
49.88179296685956
 21
70.21148138317387
 31
0.0
  0
LINE
  5
F4F
330
70
100
AcDbEntity
  8
Livello 1
100
AcDbLine
 10
49.88179296685956
 20
75.63903804848355
 30
0.0
 11
49.07216798751488
 21
75.63903804848355
 31
0.0
  0
LINE
  5
F50
330
70
100
AcDbEntity
  8
Livello 1
100
AcDbLine
 10
52.1307865205942
 20
54.85845138701205
 30
0.0
 11
52.1307865205942
 21
87.30381165667836
 31
0.0
  0
LINE
  5
F51
330
70
100
AcDbEntity
  8
Livello 1
100
AcDbLine
 10
53.03044038653081
 20
86.37431276802194
 30
0.0
 11
53.03044038653081
 21
55.75803472012023
 31
0.0
  0
LINE
  5
F52
330
70
100
AcDbEntity
  8
Livello 1
100
AcDbLine
 10
44.21435229184453
 20
83.40558193543087
 30
0.0
 11
44.18439672332334
 21
83.40558193543087
 31
0.0
  0
LINE
  5
F53
330
70
100
AcDbEntity
  8
Livello 1
100
AcDbLine
 10
45.05396340274621
 20
82.11610860241986
 30
0.0
 11
45.02393725746048
 21
82.11610860241986
 31
0.0
  0
LINE
  5
F54
330
70
100
AcDbEntity
  8
Livello 1
100
AcDbLine
 10
45.02393725746048
 20
82.11610860241986
 30
0.0
 11
44.99399118053952
 21
82.08619304687166
 31
0.0
  0
LINE
  5
F55
330
70
100
AcDbEntity
  8
Livello 1
100
AcDbLine
 10
44.99399118053952
 20
82.08619304687166
 30
0.0
 11
44.9640050694349
 21
82.08619304687166
 31
0.0
  0
LINE
  5
F56
330
70
100
AcDbEntity
  8
Livello 1
100
AcDbLine
 10
44.9640050694349
 20
82.08619304687166
 30
0.0
 11
44.93404948197587
 21
82.08619304687166
 31
0.0
  0
LINE
  5
F57
330
70
100
AcDbEntity
  8
Livello 1
100
AcDbLine
 10
44.93404948197587
 20
82.08619304687166
 30
0.0
 11
44.90403284722822
 21
82.05617165799045
 31
0.0
  0
LINE
  5
F58
330
70
100
AcDbEntity
  8
Livello 1
100
AcDbLine
 10
44.90403284722822
 20
82.05617165799045
 30
0.0
 11
44.87400670572998
 21
82.05617165799045
 31
0.0
  0
LINE
  5
F59
330
70
100
AcDbEntity
  8
Livello 1
100
AcDbLine
 10
44.87400670572998
 20
82.05617165799045
 30
0.0
 11
44.87400670572998
 21
82.02625610244217
 31
0.0
  0
LINE
  5
F5A
330
70
100
AcDbEntity
  8
Livello 1
100
AcDbLine
 10
44.87400670572998
 20
82.02625610244217
 30
0.0
 11
44.84409115093763
 21
82.02625610244217
 31
0.0
  0
LINE
  5
F5B
330
70
100
AcDbEntity
  8
Livello 1
100
AcDbLine
 10
44.84409115093763
 20
82.02625610244217
 30
0.0
 11
44.81407451391709
 21
81.99623471356105
 31
0.0
  0
LINE
  5
F5C
330
70
100
AcDbEntity
  8
Livello 1
100
AcDbLine
 10
44.81407451391709
 20
81.99623471356105
 30
0.0
 11
44.78415420802235
 21
81.96621332467955
 31
0.0
  0
LINE
  5
F5D
330
70
100
AcDbEntity
  8
Livello 1
100
AcDbLine
 10
44.78415420802235
 20
81.96621332467955
 30
0.0
 11
44.75413281989921
 21
81.96621332467955
 31
0.0
  0
LINE
  5
F5E
330
70
100
AcDbEntity
  8
Livello 1
100
AcDbLine
 10
44.75413281989921
 20
81.96621332467955
 30
0.0
 11
44.75413281989921
 21
81.93626249135386
 31
0.0
  0
LINE
  5
F5F
330
70
100
AcDbEntity
  8
Livello 1
100
AcDbLine
 10
44.75413281989921
 20
81.93626249135386
 30
0.0
 11
44.72411618060601
 21
81.90627638025016
 31
0.0
  0
LINE
  5
F60
330
70
100
AcDbEntity
  8
Livello 1
100
AcDbLine
 10
44.72411618060601
 20
81.90627638025016
 30
0.0
 11
44.72411618060601
 21
81.87632554692404
 31
0.0
  0
LINE
  5
F61
330
70
100
AcDbEntity
  8
Livello 1
100
AcDbLine
 10
44.72411618060601
 20
81.87632554692404
 30
0.0
 11
44.69416059920706
 21
81.87632554692404
 31
0.0
  0
LINE
  5
F62
330
70
100
AcDbEntity
  8
Livello 1
100
AcDbLine
 10
44.69416059920706
 20
81.87632554692404
 30
0.0
 11
44.69416059920706
 21
81.84630415804296
 31
0.0
  0
LINE
  5
F63
330
70
100
AcDbEntity
  8
Livello 1
100
AcDbLine
 10
44.69416059920706
 20
81.84630415804296
 30
0.0
 11
44.69416059920706
 21
81.81628276916146
 31
0.0
  0
LINE
  5
F64
330
70
100
AcDbEntity
  8
Livello 1
100
AcDbLine
 10
44.69416059920706
 20
81.81628276916146
 30
0.0
 11
44.69416059920706
 21
81.78633193583566
 31
0.0
  0
LINE
  5
F65
330
70
100
AcDbEntity
  8
Livello 1
100
AcDbLine
 10
44.69416059920706
 20
81.78633193583566
 30
0.0
 11
44.66417448886107
 21
81.78633193583566
 31
0.0
  0
LINE
  5
F66
330
70
100
AcDbEntity
  8
Livello 1
100
AcDbLine
 10
44.66417448886107
 20
81.78633193583566
 30
0.0
 11
44.66417448886107
 21
81.75634582473204
 31
0.0
  0
LINE
  5
F67
330
70
100
AcDbEntity
  8
Livello 1
100
AcDbLine
 10
44.66417448886107
 20
81.75634582473204
 30
0.0
 11
44.66417448886107
 21
81.72632443585056
 31
0.0
  0
LINE
  5
F68
330
70
100
AcDbEntity
  8
Livello 1
100
AcDbLine
 10
44.66417448886107
 20
81.72632443585056
 30
0.0
 11
44.66417448886107
 21
81.69637360252476
 31
0.0
  0
LINE
  5
F69
330
70
100
AcDbEntity
  8
Livello 1
100
AcDbLine
 10
44.66417448886107
 20
81.69637360252476
 30
0.0
 11
44.66417448886107
 21
81.66638749142114
 31
0.0
  0
LINE
  5
F6A
330
70
100
AcDbEntity
  8
Livello 1
100
AcDbLine
 10
49.6419040840907
 20
82.50599860232245
 30
0.0
 11
45.05396340274621
 21
82.11610860241986
 31
0.0
  0
LINE
  5
F6B
330
70
100
AcDbEntity
  8
Livello 1
100
AcDbLine
 10
49.88179296685956
 20
82.50599860232245
 30
0.0
 11
49.6419040840907
 21
82.50599860232245
 31
0.0
  0
LINE
  5
F6C
330
70
100
AcDbEntity
  8
Livello 1
100
AcDbLine
 10
44.21435229184453
 20
83.40558193543087
 30
0.0
 11
44.2742844988079
 21
83.43560332431204
 31
0.0
  0
LINE
  5
F6D
330
70
100
AcDbEntity
  8
Livello 1
100
AcDbLine
 10
44.2742844988079
 20
83.43560332431204
 30
0.0
 11
44.30431062515572
 21
83.43560332431204
 31
0.0
  0
LINE
  5
F6E
330
70
100
AcDbEntity
  8
Livello 1
100
AcDbLine
 10
44.30431062515572
 20
83.43560332431204
 30
0.0
 11
44.33432727505402
 21
83.43560332431204
 31
0.0
  0
LINE
  5
F6F
330
70
100
AcDbEntity
  8
Livello 1
100
AcDbLine
 10
44.33432727505402
 20
83.43560332431204
 30
0.0
 11
44.36424282984626
 21
83.46551887986036
 31
0.0
  0
LINE
  5
F70
330
70
100
AcDbEntity
  8
Livello 1
100
AcDbLine
 10
44.36424282984626
 20
83.46551887986036
 30
0.0
 11
44.39426895846702
 21
83.46551887986036
 31
0.0
  0
LINE
  5
F71
330
70
100
AcDbEntity
  8
Livello 1
100
AcDbLine
 10
44.39426895846702
 20
83.46551887986036
 30
0.0
 11
44.42428560609221
 21
83.46551887986036
 31
0.0
  0
LINE
  5
F72
330
70
100
AcDbEntity
  8
Livello 1
100
AcDbLine
 10
44.42428560609221
 20
83.46551887986036
 30
0.0
 11
44.45420116088445
 21
83.46551887986036
 31
0.0
  0
LINE
  5
F73
330
70
100
AcDbEntity
  8
Livello 1
100
AcDbLine
 10
44.45420116088445
 20
83.46551887986036
 30
0.0
 11
44.48422729177815
 21
83.46551887986036
 31
0.0
  0
LINE
  5
F74
330
70
100
AcDbEntity
  8
Livello 1
100
AcDbLine
 10
44.48422729177815
 20
83.46551887986036
 30
0.0
 11
44.51424393713057
 21
83.49554026874175
 31
0.0
  0
LINE
  5
F75
330
70
100
AcDbEntity
  8
Livello 1
100
AcDbLine
 10
44.51424393713057
 20
83.49554026874175
 30
0.0
 11
44.54415949192292
 21
83.49554026874175
 31
0.0
  0
LINE
  5
F76
330
70
100
AcDbEntity
  8
Livello 1
100
AcDbLine
 10
44.54415949192292
 20
83.49554026874175
 30
0.0
 11
44.5741856250882
 21
83.49554026874175
 31
0.0
  0
LINE
  5
F77
330
70
100
AcDbEntity
  8
Livello 1
100
AcDbLine
 10
44.5741856250882
 20
83.49554026874175
 30
0.0
 11
44.60420226816887
 21
83.49554026874175
 31
0.0
  0
LINE
  5
F78
330
70
100
AcDbEntity
  8
Livello 1
100
AcDbLine
 10
44.60420226816887
 20
83.49554026874175
 30
0.0
 11
44.66417448886107
 21
83.52556165762296
 31
0.0
  0
LINE
  5
F79
330
70
100
AcDbEntity
  8
Livello 1
100
AcDbLine
 10
44.66417448886107
 20
83.52556165762296
 30
0.0
 11
44.69416059920706
 21
83.52556165762296
 31
0.0
  0
LINE
  5
F7A
330
70
100
AcDbEntity
  8
Livello 1
100
AcDbLine
 10
44.69416059920706
 20
83.52556165762296
 30
0.0
 11
44.72411618060601
 21
83.52556165762296
 31
0.0
  0
LINE
  5
F7B
330
70
100
AcDbEntity
  8
Livello 1
100
AcDbLine
 10
44.72411618060601
 20
83.52556165762296
 30
0.0
 11
44.78415420802235
 21
83.52556165762296
 31
0.0
  0
LINE
  5
F7C
330
70
100
AcDbEntity
  8
Livello 1
100
AcDbLine
 10
44.78415420802235
 20
83.52556165762296
 30
0.0
 11
44.81407451391709
 21
83.52556165762296
 31
0.0
  0
LINE
  5
F7D
330
70
100
AcDbEntity
  8
Livello 1
100
AcDbLine
 10
44.81407451391709
 20
83.52556165762296
 30
0.0
 11
44.87400670572998
 21
83.55551249094876
 31
0.0
  0
LINE
  5
F7E
330
70
100
AcDbEntity
  8
Livello 1
100
AcDbLine
 10
44.87400670572998
 20
83.55551249094876
 30
0.0
 11
44.90403284722822
 21
83.55551249094876
 31
0.0
  0
LINE
  5
F7F
330
70
100
AcDbEntity
  8
Livello 1
100
AcDbLine
 10
44.90403284722822
 20
83.55551249094876
 30
0.0
 11
44.9640050694349
 21
83.55551249094876
 31
0.0
  0
LINE
  5
F80
330
70
100
AcDbEntity
  8
Livello 1
100
AcDbLine
 10
44.9640050694349
 20
83.55551249094876
 30
0.0
 11
44.99399118053952
 21
83.55551249094876
 31
0.0
  0
LINE
  5
F81
330
70
100
AcDbEntity
  8
Livello 1
100
AcDbLine
 10
44.99399118053952
 20
83.55551249094876
 30
0.0
 11
49.88179296685956
 21
83.91746249085853
 31
0.0
  0
LINE
  5
F82
330
70
100
AcDbEntity
  8
Livello 1
100
AcDbLine
 10
49.88179296685956
 20
85.62462471265375
 30
0.0
 11
53.03044038653081
 21
85.62462471265375
 31
0.0
  0
LINE
  5
F83
330
70
100
AcDbEntity
  8
Livello 1
100
AcDbLine
 10
53.03044038653081
 20
55.75803472012023
 30
0.0
 11
52.1307865205942
 21
54.85845138701205
 31
0.0
  0
LINE
  5
F84
330
70
100
AcDbEntity
  8
Livello 1
100
AcDbLine
 10
51.92088374817138
 20
87.39376998998926
 30
0.0
 11
49.88179296685956
 21
87.45374221219654
 31
0.0
  0
LINE
  5
F85
330
70
100
AcDbEntity
  8
Livello 1
100
AcDbLine
 10
53.03044038653081
 20
86.37431276802194
 30
0.0
 11
52.1307865205942
 21
87.30381165667836
 31
0.0
  0
LINE
  5
F86
330
70
100
AcDbEntity
  8
Livello 1
100
AcDbLine
 10
44.21435229184453
 20
33.92786361446736
 30
0.0
 11
47.99266801505512
 21
36.11681444725366
 31
0.0
  0
LINE
  5
F87
330
70
100
AcDbEntity
  8
Livello 1
100
AcDbLine
 10
44.21435229184453
 20
32.09874611492455
 30
0.0
 11
47.99266801505512
 21
34.28769694771086
 31
0.0
  0
LINE
  5
F88
330
70
100
AcDbEntity
  8
Livello 1
100
AcDbLine
 10
-24.17081153278923
 20
88.91858137849686
 30
0.0
 11
-24.5606309672886
 21
88.85853860073426
 31
0.0
  0
LINE
  5
F89
330
70
100
AcDbEntity
  8
Livello 1
100
AcDbLine
 10
-24.5606309672886
 20
88.85853860073426
 30
0.0
 11
-24.95041512401099
 21
88.73866471187545
 31
0.0
  0
LINE
  5
F8A
330
70
100
AcDbEntity
  8
Livello 1
100
AcDbLine
 10
-24.95041512401099
 20
88.73866471187545
 30
0.0
 11
-25.28026233781816
 21
88.52876193415005
 31
0.0
  0
LINE
  5
F8B
330
70
100
AcDbEntity
  8
Livello 1
100
AcDbLine
 10
-25.28026233781816
 20
88.52876193415005
 30
0.0
 11
-25.58019399683298
 21
88.22886554533596
 31
0.0
  0
LINE
  5
F8C
330
70
100
AcDbEntity
  8
Livello 1
100
AcDbLine
 10
-25.58019399683298
 20
88.22886554533596
 30
0.0
 11
-25.79006149147875
 21
87.89901832319635
 31
0.0
  0
LINE
  5
F8D
330
70
100
AcDbEntity
  8
Livello 1
100
AcDbLine
 10
-25.79006149147875
 20
87.89901832319635
 30
0.0
 11
-25.91004121064003
 21
87.50919887884924
 31
0.0
  0
LINE
  5
F8E
330
70
100
AcDbEntity
  8
Livello 1
100
AcDbLine
 10
-25.91004121064003
 20
87.50919887884924
 30
0.0
 11
-25.96997815355531
 21
87.11941471228026
 31
0.0
  0
LINE
  5
F8F
330
70
100
AcDbEntity
  8
Livello 1
100
AcDbLine
 10
12.80259169060656
 20
56.20331083112038
 30
0.0
 11
13.19241112510588
 21
56.26328305332766
 31
0.0
  0
LINE
  5
F90
330
70
100
AcDbEntity
  8
Livello 1
100
AcDbLine
 10
13.19241112510588
 20
56.26328305332766
 30
0.0
 11
13.58219528182837
 21
56.38319221996465
 31
0.0
  0
LINE
  5
F91
330
70
100
AcDbEntity
  8
Livello 1
100
AcDbLine
 10
13.58219528182837
 20
56.38319221996465
 30
0.0
 11
13.91204249563555
 21
56.59313027546724
 31
0.0
  0
LINE
  5
F92
330
70
100
AcDbEntity
  8
Livello 1
100
AcDbLine
 10
13.91204249563555
 20
56.59313027546724
 30
0.0
 11
14.21197415465025
 21
56.89295610872597
 31
0.0
  0
LINE
  5
F93
330
70
100
AcDbEntity
  8
Livello 1
100
AcDbLine
 10
14.21197415465025
 20
56.89295610872597
 30
0.0
 11
14.42184164929602
 21
57.22280333086553
 31
0.0
  0
LINE
  5
F94
330
70
100
AcDbEntity
  8
Livello 1
100
AcDbLine
 10
14.42184164929602
 20
57.22280333086553
 30
0.0
 11
14.54182136845742
 21
57.61269333076805
 31
0.0
  0
LINE
  5
F95
330
70
100
AcDbEntity
  8
Livello 1
100
AcDbLine
 10
14.54182136845742
 20
57.61269333076805
 30
0.0
 11
14.60175831137269
 21
58.00247749733677
 31
0.0
  0
LINE
  5
F96
330
70
100
AcDbEntity
  8
Livello 1
100
AcDbLine
 10
-25.96997815355531
 20
58.00247749733677
 30
0.0
 11
-25.91004121064003
 21
57.61269333076805
 31
0.0
  0
LINE
  5
F97
330
70
100
AcDbEntity
  8
Livello 1
100
AcDbLine
 10
-25.91004121064003
 20
57.61269333076805
 30
0.0
 11
-25.79006149147875
 21
57.22280333086553
 31
0.0
  0
LINE
  5
F98
330
70
100
AcDbEntity
  8
Livello 1
100
AcDbLine
 10
-25.79006149147875
 20
57.22280333086553
 30
0.0
 11
-25.58019399683298
 21
56.89295610872597
 31
0.0
  0
LINE
  5
F99
330
70
100
AcDbEntity
  8
Livello 1
100
AcDbLine
 10
-25.58019399683298
 20
56.89295610872597
 30
0.0
 11
-25.28026233781816
 21
56.59313027546724
 31
0.0
  0
LINE
  5
F9A
330
70
100
AcDbEntity
  8
Livello 1
100
AcDbLine
 10
-25.28026233781816
 20
56.59313027546724
 30
0.0
 11
-24.95041512401099
 21
56.38319221996465
 31
0.0
  0
LINE
  5
F9B
330
70
100
AcDbEntity
  8
Livello 1
100
AcDbLine
 10
-24.95041512401099
 20
56.38319221996465
 30
0.0
 11
-24.5606309672886
 21
56.26328305332766
 31
0.0
  0
LINE
  5
F9C
330
70
100
AcDbEntity
  8
Livello 1
100
AcDbLine
 10
-24.5606309672886
 20
56.26328305332766
 30
0.0
 11
-24.17081153278923
 21
56.20331083112038
 31
0.0
  0
LINE
  5
F9D
330
70
100
AcDbEntity
  8
Livello 1
100
AcDbLine
 10
14.54182136845742
 20
87.11941471228026
 30
0.0
 11
14.51179998033438
 21
87.50919887884924
 31
0.0
  0
LINE
  5
F9E
330
70
100
AcDbEntity
  8
Livello 1
100
AcDbLine
 10
14.51179998033438
 20
87.50919887884924
 30
0.0
 11
14.36186942860388
 21
87.86910276764846
 31
0.0
  0
LINE
  5
F9F
330
70
100
AcDbEntity
  8
Livello 1
100
AcDbLine
 10
14.36186942860388
 20
87.86910276764846
 30
0.0
 11
14.15193137840441
 21
88.19884415645475
 31
0.0
  0
LINE
  5
FA0
330
70
100
AcDbEntity
  8
Livello 1
100
AcDbLine
 10
14.15193137840441
 20
88.19884415645475
 30
0.0
 11
13.88212694084302
 21
88.46875443416495
 31
0.0
  0
LINE
  5
FA1
330
70
100
AcDbEntity
  8
Livello 1
100
AcDbLine
 10
13.88212694084302
 20
88.46875443416495
 30
0.0
 11
13.55227972703608
 21
88.67869248966817
 31
0.0
  0
LINE
  5
FA2
330
70
100
AcDbEntity
  8
Livello 1
100
AcDbLine
 10
13.55227972703608
 20
88.67869248966817
 30
0.0
 11
13.19241112510588
 21
88.82862304518605
 31
0.0
  0
LINE
  5
FA3
330
70
100
AcDbEntity
  8
Livello 1
100
AcDbLine
 10
13.19241112510588
 20
88.82862304518605
 30
0.0
 11
12.80259169060656
 21
88.85853860073426
 31
0.0
  0
LINE
  5
FA4
330
70
100
AcDbEntity
  8
Livello 1
100
AcDbLine
 10
26.7622196678002
 20
66.16335638418584
 30
0.0
 11
26.46232328656225
 21
66.10338416197857
 31
0.0
  0
LINE
  5
FA5
330
70
100
AcDbEntity
  8
Livello 1
100
AcDbLine
 10
26.46232328656225
 20
66.10338416197857
 30
0.0
 11
26.2224344037935
 21
65.98340443978614
 31
0.0
  0
LINE
  5
FA6
330
70
100
AcDbEntity
  8
Livello 1
100
AcDbLine
 10
26.2224344037935
 20
65.98340443978614
 30
0.0
 11
26.01256690914772
 21
65.77353693983894
 31
0.0
  0
LINE
  5
FA7
330
70
100
AcDbEntity
  8
Livello 1
100
AcDbLine
 10
26.01256690914772
 20
65.77353693983894
 30
0.0
 11
25.89258718998633
 21
65.53364805100997
 31
0.0
  0
LINE
  5
FA8
330
70
100
AcDbEntity
  8
Livello 1
100
AcDbLine
 10
25.89258718998633
 20
65.53364805100997
 30
0.0
 11
25.83261496929419
 21
65.23375166219586
 31
0.0
  0
LINE
  5
FA9
330
70
100
AcDbEntity
  8
Livello 1
100
AcDbLine
 10
25.83261496929419
 20
61.15556999654876
 30
0.0
 11
25.89258718998633
 21
60.85574416329066
 31
0.0
  0
LINE
  5
FAA
330
70
100
AcDbEntity
  8
Livello 1
100
AcDbLine
 10
25.89258718998633
 20
60.85574416329066
 30
0.0
 11
26.01256690914772
 21
60.61589055223947
 31
0.0
  0
LINE
  5
FAB
330
70
100
AcDbEntity
  8
Livello 1
100
AcDbLine
 10
26.01256690914772
 20
60.61589055223947
 30
0.0
 11
26.2224344037935
 21
60.40591721895836
 31
0.0
  0
LINE
  5
FAC
330
70
100
AcDbEntity
  8
Livello 1
100
AcDbLine
 10
26.2224344037935
 20
60.40591721895836
 30
0.0
 11
26.46232328656225
 21
60.28600805232173
 31
0.0
  0
LINE
  5
FAD
330
70
100
AcDbEntity
  8
Livello 1
100
AcDbLine
 10
26.46232328656225
 20
60.28600805232173
 30
0.0
 11
26.7622196678002
 21
60.22600055233723
 31
0.0
  0
LINE
  5
FAE
330
70
100
AcDbEntity
  8
Livello 1
100
AcDbLine
 10
31.82994287184511
 20
60.04611916349296
 30
0.0
 11
31.85992898219126
 21
59.89611805241887
 31
0.0
  0
LINE
  5
FAF
330
70
100
AcDbEntity
  8
Livello 1
100
AcDbLine
 10
31.85992898219126
 20
59.89611805241887
 30
0.0
 11
31.97983814579874
 21
59.77624416356076
 31
0.0
  0
LINE
  5
FB0
330
70
100
AcDbEntity
  8
Livello 1
100
AcDbLine
 10
31.97983814579874
 20
59.77624416356076
 30
0.0
 11
32.12976869752925
 21
59.74622277467924
 31
0.0
  0
LINE
  5
FB1
330
70
100
AcDbEntity
  8
Livello 1
100
AcDbLine
 10
32.12976869752925
 20
66.64309888406606
 30
0.0
 11
31.97983814579874
 21
66.61318332851775
 31
0.0
  0
LINE
  5
FB2
330
70
100
AcDbEntity
  8
Livello 1
100
AcDbLine
 10
31.97983814579874
 20
66.61318332851775
 30
0.0
 11
31.85992898219126
 21
66.49316832854785
 31
0.0
  0
LINE
  5
FB3
330
70
100
AcDbEntity
  8
Livello 1
100
AcDbLine
 10
31.85992898219126
 20
66.49316832854785
 30
0.0
 11
31.82994287184511
 21
66.34327305080756
 31
0.0
  0
LINE
  5
FB4
330
70
100
AcDbEntity
  8
Livello 1
100
AcDbLine
 10
38.75684019512522
 20
59.74622277467924
 30
0.0
 11
38.87671408095588
 21
59.77624416356076
 31
0.0
  0
LINE
  5
FB5
330
70
100
AcDbEntity
  8
Livello 1
100
AcDbLine
 10
38.87671408095588
 20
59.77624416356076
 30
0.0
 11
38.90673546907891
 21
59.89611805241887
 31
0.0
  0
LINE
  5
FB6
330
70
100
AcDbEntity
  8
Livello 1
100
AcDbLine
 10
38.90673546907891
 20
66.49316832854785
 30
0.0
 11
38.87671408095588
 21
66.61318332851775
 31
0.0
  0
LINE
  5
FB7
330
70
100
AcDbEntity
  8
Livello 1
100
AcDbLine
 10
38.87671408095588
 20
66.61318332851775
 30
0.0
 11
38.75684019512522
 21
66.64309888406606
 31
0.0
  0
LINE
  5
FB8
330
70
100
AcDbEntity
  8
Livello 1
100
AcDbLine
 10
47.99266801505512
 20
68.23239805033516
 30
0.0
 11
47.96264662693221
 21
68.62228805023765
 31
0.0
  0
LINE
  5
FB9
330
70
100
AcDbEntity
  8
Livello 1
100
AcDbLine
 10
47.96264662693221
 20
68.62228805023765
 30
0.0
 11
47.84273746332468
 21
69.01207221680696
 31
0.0
  0
LINE
  5
FBA
330
70
100
AcDbEntity
  8
Livello 1
100
AcDbLine
 10
47.84273746332468
 20
69.01207221680696
 30
0.0
 11
47.6327994131251
 21
69.34191943894686
 31
0.0
  0
LINE
  5
FBB
330
70
100
AcDbEntity
  8
Livello 1
100
AcDbLine
 10
47.6327994131251
 20
69.34191943894686
 30
0.0
 11
47.36289395772518
 21
69.64174527220496
 31
0.0
  0
LINE
  5
FBC
330
70
100
AcDbEntity
  8
Livello 1
100
AcDbLine
 10
47.36289395772518
 20
69.64174527220496
 30
0.0
 11
47.06306331654906
 21
69.88173999436717
 31
0.0
  0
LINE
  5
FBD
330
70
100
AcDbEntity
  8
Livello 1
100
AcDbLine
 10
47.06306331654906
 20
69.88173999436717
 30
0.0
 11
46.67327915982667
 21
70.03163527210745
 31
0.0
  0
LINE
  5
FBE
330
70
100
AcDbEntity
  8
Livello 1
100
AcDbLine
 10
46.67327915982667
 20
70.03163527210745
 30
0.0
 11
46.31341055789659
 21
70.12152304986305
 31
0.0
  0
LINE
  5
FBF
330
70
100
AcDbEntity
  8
Livello 1
100
AcDbLine
 10
46.31341055789659
 20
70.12152304986305
 30
0.0
 11
45.89357451364771
 21
70.12152304986305
 31
0.0
  0
LINE
  5
FC0
330
70
100
AcDbEntity
  8
Livello 1
100
AcDbLine
 10
45.89357451364771
 20
70.12152304986305
 30
0.0
 11
45.53380696667488
 21
70.03163527210745
 31
0.0
  0
LINE
  5
FC1
330
70
100
AcDbEntity
  8
Livello 1
100
AcDbLine
 10
45.53380696667488
 20
70.03163527210745
 30
0.0
 11
45.14392173605727
 21
69.88173999436717
 31
0.0
  0
LINE
  5
FC2
330
70
100
AcDbEntity
  8
Livello 1
100
AcDbLine
 10
45.14392173605727
 20
69.88173999436717
 30
0.0
 11
44.84409115093763
 21
69.64174527220496
 31
0.0
  0
LINE
  5
FC3
330
70
100
AcDbEntity
  8
Livello 1
100
AcDbLine
 10
44.84409115093763
 20
69.64174527220496
 30
0.0
 11
44.5741856250882
 21
69.34191943894686
 31
0.0
  0
LINE
  5
FC4
330
70
100
AcDbEntity
  8
Livello 1
100
AcDbLine
 10
44.5741856250882
 20
69.34191943894686
 30
0.0
 11
44.36424282984626
 21
69.01207221680696
 31
0.0
  0
LINE
  5
FC5
330
70
100
AcDbEntity
  8
Livello 1
100
AcDbLine
 10
44.36424282984626
 20
69.01207221680696
 30
0.0
 11
44.24433840294921
 21
68.62228805023765
 31
0.0
  0
LINE
  5
FC6
330
70
100
AcDbEntity
  8
Livello 1
100
AcDbLine
 10
44.24433840294921
 20
68.62228805023765
 30
0.0
 11
44.21435229184453
 21
68.23239805033516
 31
0.0
  0
LINE
  5
FC7
330
70
100
AcDbEntity
  8
Livello 1
100
AcDbLine
 10
51.92088374817138
 20
54.76849305370087
 30
0.0
 11
52.1307865205942
 21
54.85845138701205
 31
0.0
  0
LINE
  5
FC8
330
70
100
AcDbEntity
  8
Livello 1
100
AcDbLine
 10
49.88179296685956
 20
57.91706999735826
 30
0.0
 11
49.82182074616736
 21
58.06696527509925
 31
0.0
  0
LINE
  5
FC9
330
70
100
AcDbEntity
  8
Livello 1
100
AcDbLine
 10
49.82182074616736
 20
58.06696527509925
 30
0.0
 11
49.67192547221372
 21
58.15692360840976
 31
0.0
  0
LINE
  5
FCA
330
70
100
AcDbEntity
  8
Livello 1
100
AcDbLine
 10
52.1307865205942
 20
87.27389610113046
 30
0.0
 11
51.92088374817138
 21
87.36374860110776
 31
0.0
  0
LINE
  5
FCB
330
70
100
AcDbEntity
  8
Livello 1
100
AcDbLine
 10
-23.63102626878265
 20
35.42265361409346
 30
0.0
 11
-23.60100488065961
 21
35.12282778083477
 31
0.0
  0
LINE
  5
FCC
330
70
100
AcDbEntity
  8
Livello 1
100
AcDbLine
 10
-23.60100488065961
 20
35.12282778083477
 30
0.0
 11
-23.54106793774423
 21
34.79287472536138
 31
0.0
  0
LINE
  5
FCD
330
70
100
AcDbEntity
  8
Livello 1
100
AcDbLine
 10
-23.54106793774423
 20
34.79287472536138
 30
0.0
 11
-23.42115877413676
 21
34.52296444765207
 31
0.0
  0
LINE
  5
FCE
330
70
100
AcDbEntity
  8
Livello 1
100
AcDbLine
 10
-23.42115877413676
 20
34.52296444765207
 30
0.0
 11
-23.27115766685245
 21
34.25323055882987
 31
0.0
  0
LINE
  5
FCF
330
70
100
AcDbEntity
  8
Livello 1
100
AcDbLine
 10
-23.27115766685245
 20
34.25323055882987
 30
0.0
 11
-23.09124100477584
 21
34.04322194777098
 31
0.0
  0
LINE
  5
FD0
330
70
100
AcDbEntity
  8
Livello 1
100
AcDbLine
 10
-23.09124100477584
 20
34.04322194777098
 30
0.0
 11
-22.85135212200697
 21
33.86327000337164
 31
0.0
  0
LINE
  5
FD1
330
70
100
AcDbEntity
  8
Livello 1
100
AcDbLine
 10
-22.85135212200697
 20
33.86327000337164
 30
0.0
 11
-22.61146323923828
 21
33.71344528118703
 31
0.0
  0
LINE
  5
FD2
330
70
100
AcDbEntity
  8
Livello 1
100
AcDbLine
 10
-22.61146323923828
 20
33.71344528118703
 30
0.0
 11
-22.34158824612325
 21
33.62348694787716
 31
0.0
  0
LINE
  5
FD3
330
70
100
AcDbEntity
  8
Livello 1
100
AcDbLine
 10
-22.34158824612325
 20
33.62348694787716
 30
0.0
 11
-22.07174853078521
 21
33.59353611455066
 31
0.0
  0
LINE
  5
FD4
330
70
100
AcDbEntity
  8
Livello 1
100
AcDbLine
 10
10.70352868860266
 20
33.59353611455066
 30
0.0
 11
10.97343895949439
 21
33.62348694787716
 31
0.0
  0
LINE
  5
FD5
330
70
100
AcDbEntity
  8
Livello 1
100
AcDbLine
 10
10.97343895949439
 20
33.62348694787716
 30
0.0
 11
11.24324339705561
 21
33.71344528118703
 31
0.0
  0
LINE
  5
FD6
330
70
100
AcDbEntity
  8
Livello 1
100
AcDbLine
 10
11.24324339705561
 20
33.71344528118703
 30
0.0
 11
11.48313227982436
 21
33.86327000337164
 31
0.0
  0
LINE
  5
FD7
330
70
100
AcDbEntity
  8
Livello 1
100
AcDbLine
 10
11.48313227982436
 20
33.86327000337164
 30
0.0
 11
11.69307033002406
 21
34.04322194777098
 31
0.0
  0
LINE
  5
FD8
330
70
100
AcDbEntity
  8
Livello 1
100
AcDbLine
 10
11.69307033002406
 20
34.04322194777098
 30
0.0
 11
11.90293782466972
 21
34.25323055882987
 31
0.0
  0
LINE
  5
FD9
330
70
100
AcDbEntity
  8
Livello 1
100
AcDbLine
 10
11.90293782466972
 20
34.25323055882987
 30
0.0
 11
12.05293893195397
 21
34.52296444765207
 31
0.0
  0
LINE
  5
FDA
330
70
100
AcDbEntity
  8
Livello 1
100
AcDbLine
 10
12.05293893195397
 20
34.52296444765207
 30
0.0
 11
12.17284809556162
 21
34.79287472536138
 31
0.0
  0
LINE
  5
FDB
330
70
100
AcDbEntity
  8
Livello 1
100
AcDbLine
 10
12.17284809556162
 20
34.79287472536138
 30
0.0
 11
12.23278503847689
 21
35.12282778083477
 31
0.0
  0
LINE
  5
FDC
330
70
100
AcDbEntity
  8
Livello 1
100
AcDbLine
 10
12.23278503847689
 20
35.12282778083477
 30
0.0
 11
12.26280642659986
 21
35.42265361409346
 31
0.0
  0
LINE
  5
FDD
330
70
100
AcDbEntity
  8
Livello 1
100
AcDbLine
 10
-23.33120044309845
 20
37.61160444687977
 30
0.0
 11
-23.30117905497553
 21
37.34187055805754
 31
0.0
  0
LINE
  5
FDE
330
70
100
AcDbEntity
  8
Livello 1
100
AcDbLine
 10
-23.30117905497553
 20
37.34187055805754
 30
0.0
 11
-23.24124211206009
 21
37.10187583589539
 31
0.0
  0
LINE
  5
FDF
330
70
100
AcDbEntity
  8
Livello 1
100
AcDbLine
 10
-23.24124211206009
 20
37.10187583589539
 30
0.0
 11
-23.15124850324492
 21
36.89204361372595
 31
0.0
  0
LINE
  5
FE0
330
70
100
AcDbEntity
  8
Livello 1
100
AcDbLine
 10
-23.15124850324492
 20
36.89204361372595
 30
0.0
 11
-23.03126878408364
 21
36.68199972489015
 31
0.0
  0
LINE
  5
FE1
330
70
100
AcDbEntity
  8
Livello 1
100
AcDbLine
 10
-23.03126878408364
 20
36.68199972489015
 30
0.0
 11
-22.88137351013
 21
36.50222416937905
 31
0.0
  0
LINE
  5
FE2
330
70
100
AcDbEntity
  8
Livello 1
100
AcDbLine
 10
-22.88137351013
 20
36.50222416937905
 30
0.0
 11
-22.70142157027647
 21
36.35222305830496
 31
0.0
  0
LINE
  5
FE3
330
70
100
AcDbEntity
  8
Livello 1
100
AcDbLine
 10
-22.70142157027647
 20
36.35222305830496
 30
0.0
 11
-22.49158935340751
 21
36.23231389166864
 31
0.0
  0
LINE
  5
FE4
330
70
100
AcDbEntity
  8
Livello 1
100
AcDbLine
 10
-22.49158935340751
 20
36.23231389166864
 30
0.0
 11
-22.28161602543116
 21
36.17230639168386
 31
0.0
  0
LINE
  5
FE5
330
70
100
AcDbEntity
  8
Livello 1
100
AcDbLine
 10
-22.28161602543116
 20
36.17230639168386
 30
0.0
 11
-22.07174853078521
 21
36.14235555835745
 31
0.0
  0
LINE
  5
FE6
330
70
100
AcDbEntity
  8
Livello 1
100
AcDbLine
 10
10.70352868860266
 20
36.14235555835745
 30
0.0
 11
10.91339618324838
 21
36.17230639168386
 31
0.0
  0
LINE
  5
FE7
330
70
100
AcDbEntity
  8
Livello 1
100
AcDbLine
 10
10.91339618324838
 20
36.17230639168386
 30
0.0
 11
11.12333423344802
 21
36.23231389166864
 31
0.0
  0
LINE
  5
FE8
330
70
100
AcDbEntity
  8
Livello 1
100
AcDbLine
 10
11.12333423344802
 20
36.23231389166864
 30
0.0
 11
11.33320172809385
 21
36.35222305830496
 31
0.0
  0
LINE
  5
FE9
330
70
100
AcDbEntity
  8
Livello 1
100
AcDbLine
 10
11.33320172809385
 20
36.35222305830496
 30
0.0
 11
11.51315366794739
 21
36.50222416937905
 31
0.0
  0
LINE
  5
FEA
330
70
100
AcDbEntity
  8
Livello 1
100
AcDbLine
 10
11.51315366794739
 20
36.50222416937905
 30
0.0
 11
11.6630842196779
 21
36.68199972489015
 31
0.0
  0
LINE
  5
FEB
330
70
100
AcDbEntity
  8
Livello 1
100
AcDbLine
 10
11.6630842196779
 20
36.68199972489015
 30
0.0
 11
11.783063938839
 21
36.89204361372595
 31
0.0
  0
LINE
  5
FEC
330
70
100
AcDbEntity
  8
Livello 1
100
AcDbLine
 10
11.783063938839
 20
36.89204361372595
 30
0.0
 11
11.87302226987748
 21
37.10187583589539
 31
0.0
  0
LINE
  5
FED
330
70
100
AcDbEntity
  8
Livello 1
100
AcDbLine
 10
11.87302226987748
 20
37.10187583589539
 30
0.0
 11
11.93295921279275
 21
37.34187055805754
 31
0.0
  0
LINE
  5
FEE
330
70
100
AcDbEntity
  8
Livello 1
100
AcDbLine
 10
11.93295921279275
 20
37.34187055805754
 30
0.0
 11
11.96298060091573
 21
37.61160444687977
 31
0.0
  0
LINE
  5
FEF
330
70
100
AcDbEntity
  8
Livello 1
100
AcDbLine
 10
10.70352868860266
 20
35.78248694733705
 30
0.0
 11
10.97343895949439
 21
35.81243778066215
 31
0.0
  0
LINE
  5
FF0
330
70
100
AcDbEntity
  8
Livello 1
100
AcDbLine
 10
10.97343895949439
 20
35.81243778066215
 30
0.0
 11
11.24324339705561
 21
35.90239611397337
 31
0.0
  0
LINE
  5
FF1
330
70
100
AcDbEntity
  8
Livello 1
100
AcDbLine
 10
11.24324339705561
 20
35.90239611397337
 30
0.0
 11
11.48313227982436
 21
36.02230528060966
 31
0.0
  0
LINE
  5
FF2
330
70
100
AcDbEntity
  8
Livello 1
100
AcDbLine
 10
11.48313227982436
 20
36.02230528060966
 30
0.0
 11
11.69307033002406
 21
36.20222194723203
 31
0.0
  0
LINE
  5
FF3
330
70
100
AcDbEntity
  8
Livello 1
100
AcDbLine
 10
11.69307033002406
 20
36.20222194723203
 30
0.0
 11
11.90293782466972
 21
36.44221666939436
 31
0.0
  0
LINE
  5
FF4
330
70
100
AcDbEntity
  8
Livello 1
100
AcDbLine
 10
11.90293782466972
 20
36.44221666939436
 30
0.0
 11
12.05293893195397
 21
36.71209166932664
 31
0.0
  0
LINE
  5
FF5
330
70
100
AcDbEntity
  8
Livello 1
100
AcDbLine
 10
12.05293893195397
 20
36.71209166932664
 30
0.0
 11
12.17284809556162
 21
36.98200194703716
 31
0.0
  0
LINE
  5
FF6
330
70
100
AcDbEntity
  8
Livello 1
100
AcDbLine
 10
12.17284809556162
 20
36.98200194703716
 30
0.0
 11
12.23278503847689
 21
37.28182778029466
 31
0.0
  0
LINE
  5
FF7
330
70
100
AcDbEntity
  8
Livello 1
100
AcDbLine
 10
12.23278503847689
 20
37.28182778029466
 30
0.0
 11
12.26280642659986
 21
37.61160444687977
 31
0.0
  0
LINE
  5
FF8
330
70
100
AcDbEntity
  8
Livello 1
100
AcDbLine
 10
-23.63102626878265
 20
37.61160444687977
 30
0.0
 11
-23.60100488065961
 21
37.28182778029466
 31
0.0
  0
LINE
  5
FF9
330
70
100
AcDbEntity
  8
Livello 1
100
AcDbLine
 10
-23.60100488065961
 20
37.28182778029466
 30
0.0
 11
-23.54106793774423
 21
36.98200194703716
 31
0.0
  0
LINE
  5
FFA
330
70
100
AcDbEntity
  8
Livello 1
100
AcDbLine
 10
-23.54106793774423
 20
36.98200194703716
 30
0.0
 11
-23.42115877413676
 21
36.71209166932664
 31
0.0
  0
LINE
  5
FFB
330
70
100
AcDbEntity
  8
Livello 1
100
AcDbLine
 10
-23.42115877413676
 20
36.71209166932664
 30
0.0
 11
-23.27115766685245
 21
36.44221666939436
 31
0.0
  0
LINE
  5
FFC
330
70
100
AcDbEntity
  8
Livello 1
100
AcDbLine
 10
-23.27115766685245
 20
36.44221666939436
 30
0.0
 11
-23.09124100477584
 21
36.20222194723203
 31
0.0
  0
LINE
  5
FFD
330
70
100
AcDbEntity
  8
Livello 1
100
AcDbLine
 10
-23.09124100477584
 20
36.20222194723203
 30
0.0
 11
-22.85135212200697
 21
36.02230528060966
 31
0.0
  0
LINE
  5
FFE
330
70
100
AcDbEntity
  8
Livello 1
100
AcDbLine
 10
-22.85135212200697
 20
36.02230528060966
 30
0.0
 11
-22.61146323923828
 21
35.90239611397337
 31
0.0
  0
LINE
  5
FFF
330
70
100
AcDbEntity
  8
Livello 1
100
AcDbLine
 10
-22.61146323923828
 20
35.90239611397337
 30
0.0
 11
-22.34158824612325
 21
35.81243778066215
 31
0.0
  0
LINE
  5
1000
330
70
100
AcDbEntity
  8
Livello 1
100
AcDbLine
 10
-22.34158824612325
 20
35.81243778066215
 30
0.0
 11
-22.07174853078521
 21
35.78248694733705
 31
0.0
  0
LINE
  5
1001
330
70
100
AcDbEntity
  8
Livello 1
100
AcDbLine
 10
26.7622196678002
 20
59.86620249687124
 30
0.0
 11
30.39057429745537
 21
59.86620249687124
 31
0.0
  0
LINE
  5
1002
330
70
100
AcDbEntity
  8
Livello 1
100
AcDbLine
 10
30.39057429745537
 20
59.86620249687124
 30
0.0
 11
30.39057429745537
 21
66.67312027294716
 31
0.0
  0
LINE
  5
1003
330
70
100
AcDbEntity
  8
Livello 1
100
AcDbLine
 10
30.39057429745537
 20
66.67312027294716
 30
0.0
 11
26.7622196678002
 21
66.67312027294716
 31
0.0
  0
LINE
  5
1004
330
70
100
AcDbEntity
  8
Livello 1
100
AcDbLine
 10
26.7622196678002
 20
66.67312027294716
 30
0.0
 11
26.7622196678002
 21
59.86620249687124
 31
0.0
  0
LINE
  5
1005
330
70
100
AcDbEntity
  8
Livello 1
100
AcDbLine
 10
30.42056040780153
 20
60.82572277440917
 30
0.0
 11
31.78496370632598
 21
60.82572277440917
 31
0.0
  0
LINE
  5
1006
330
70
100
AcDbEntity
  8
Livello 1
100
AcDbLine
 10
31.78496370632598
 20
60.82572277440917
 30
0.0
 11
31.78496370632598
 21
65.59362027321717
 31
0.0
  0
LINE
  5
1007
330
70
100
AcDbEntity
  8
Livello 1
100
AcDbLine
 10
31.78496370632598
 20
65.59362027321717
 30
0.0
 11
30.42056040780153
 21
65.59362027321717
 31
0.0
  0
LINE
  5
1008
330
70
100
AcDbEntity
  8
Livello 1
100
AcDbLine
 10
30.42056040780153
 20
65.59362027321717
 30
0.0
 11
30.42056040780153
 21
60.82572277440917
 31
0.0
  0
LINE
  5
1009
330
70
100
AcDbEntity
  8
Livello 1
100
AcDbLine
 10
-24.17081153278923
 20
23.51259915486185
 30
0.0
 11
11.33328943024452
 21
23.51259915486185
 31
0.0
  0
LINE
  5
100A
330
70
100
AcDbEntity
  8
Livello 1
100
AcDbLine
 10
22.22690818010284
 20
23.51259915486185
 30
0.0
 11
50.85651744970068
 21
23.51259915486185
 31
0.0
  0
LINE
  5
100B
330
70
100
AcDbEntity
  8
Livello 1
100
AcDbLine
 10
58.9117874483793
 20
34.48353599320447
 30
0.0
 11
58.9117874483793
 21
88.89402250737925
 31
0.0
  0
SPLINE
  5
100C
330
70
100
AcDbEntity
  8
Livello 1
100
AcDbSpline
210
0.0
220
0.0
230
1.0
 70
    11
 71
     3
 72
    29
 73
    25
 74
     0
 42
0.000000001
 43
0.0000000001
 40
0.0
 40
0.0
 40
0.0
 40
0.0
 40
1.0
 40
1.0
 40
1.0
 40
2.0
 40
2.0
 40
2.0
 40
3.0
 40
3.0
 40
3.0
 40
4.0
 40
4.0
 40
4.0
 40
5.0
 40
5.0
 40
5.0
 40
6.0
 40
6.0
 40
6.0
 40
7.0
 40
7.0
 40
7.0
 40
8.0
 40
8.0
 40
8.0
 40
8.0
 10
-16.00866060908799
 20
18.77465802717003
 30
0.0
 10
-16.00866060908799
 20
18.77465802717003
 30
0.0
 10
-16.03415431567879
 20
18.77465802717003
 30
0.0
 10
-16.03415431567879
 20
18.77465802717003
 30
0.0
 10
-16.03415431567879
 20
18.77465802717003
 30
0.0
 10
-17.46903658528532
 20
17.99985605253735
 30
0.0
 10
-17.46903658528532
 20
17.99985605253735
 30
0.0
 10
-17.46903658528532
 20
17.99985605253735
 30
0.0
 10
-17.68504407221064
 20
18.85079463739416
 30
0.0
 10
-17.68504407221064
 20
18.85079463739416
 30
0.0
 10
-17.68504407221064
 20
18.85079463739416
 30
0.0
 10
-15.88188109523076
 20
19.81576588281254
 30
0.0
 10
-15.88188109523076
 20
19.81576588281254
 30
0.0
 10
-15.88188109523076
 20
19.81576588281254
 30
0.0
 10
-14.92931219355927
 20
19.81576588281254
 30
0.0
 10
-14.92931219355927
 20
19.81576588281254
 30
0.0
 10
-14.92931219355927
 20
19.81576588281254
 30
0.0
 10
-14.92931219355927
 20
11.56200611925106
 30
0.0
 10
-14.92931219355927
 20
11.56200611925106
 30
0.0
 10
-14.92931219355927
 20
11.56200611925106
 30
0.0
 10
-16.00866060908799
 20
11.56200611925106
 30
0.0
 10
-16.00866060908799
 20
11.56200611925106
 30
0.0
 10
-16.00866060908799
 20
11.56200611925106
 30
0.0
 10
-16.00866060908799
 20
18.77465802717003
 30
0.0
 10
-16.00866060908799
 20
18.77465802717003
 30
0.0
  0
HATCH
  5
100D
330
70
100
AcDbEntity
  8
Livello 1
440
 33554687
100
AcDbHatch
 10
0.0
 20
0.0
 30
0.0
210
0.0
220
0.0
230
1.0
  2
SOLID
 70
     1
 71
     0
 91
        1
 92
        1
 93
        1
 72
     4
 94
        3
 73
     0
 74
     0
 95
       29
 96
       25
 40
0.0
 40
0.0
 40
0.0
 40
0.0
 40
1.0
 40
1.0
 40
1.0
 40
2.0
 40
2.0
 40
2.0
 40
3.0
 40
3.0
 40
3.0
 40
4.0
 40
4.0
 40
4.0
 40
5.0
 40
5.0
 40
5.0
 40
6.0
 40
6.0
 40
6.0
 40
7.0
 40
7.0
 40
7.0
 40
8.0
 40
8.0
 40
8.0
 40
8.0
 10
-16.00866060908799
 20
18.77465802717003
 10
-16.00866060908799
 20
18.77465802717003
 10
-16.03415431567879
 20
18.77465802717003
 10
-16.03415431567879
 20
18.77465802717003
 10
-16.03415431567879
 20
18.77465802717003
 10
-17.46903658528532
 20
17.99985605253735
 10
-17.46903658528532
 20
17.99985605253735
 10
-17.46903658528532
 20
17.99985605253735
 10
-17.68504407221064
 20
18.85079463739416
 10
-17.68504407221064
 20
18.85079463739416
 10
-17.68504407221064
 20
18.85079463739416
 10
-15.88188109523076
 20
19.81576588281254
 10
-15.88188109523076
 20
19.81576588281254
 10
-15.88188109523076
 20
19.81576588281254
 10
-14.92931219355927
 20
19.81576588281254
 10
-14.92931219355927
 20
19.81576588281254
 10
-14.92931219355927
 20
19.81576588281254
 10
-14.92931219355927
 20
11.56200611925106
 10
-14.92931219355927
 20
11.56200611925106
 10
-14.92931219355927
 20
11.56200611925106
 10
-16.00866060908799
 20
11.56200611925106
 10
-16.00866060908799
 20
11.56200611925106
 10
-16.00866060908799
 20
11.56200611925106
 10
-16.00866060908799
 20
18.77465802717003
 10
-16.00866060908799
 20
18.77465802717003
 97
        0
 97
        0
 75
     2
 76
     1
 98
        1
 10
-408.2624094259551
 20
194.9871579831169
450
        0
451
        0
460
0.0
461
0.0
452
        0
462
0.0
453
        0
470

  0
SPLINE
  5
100E
330
70
100
AcDbEntity
  8
Livello 1
100
AcDbSpline
210
0.0
220
0.0
230
1.0
 70
    11
 71
     3
 72
    26
 73
    22
 74
     0
 42
0.000000001
 43
0.0000000001
 40
0.0
 40
0.0
 40
0.0
 40
0.0
 40
1.0
 40
1.0
 40
1.0
 40
2.0
 40
2.0
 40
2.0
 40
3.0
 40
3.0
 40
3.0
 40
4.0
 40
4.0
 40
4.0
 40
5.0
 40
5.0
 40
5.0
 40
6.0
 40
6.0
 40
6.0
 40
7.0
 40
7.0
 40
7.0
 40
7.0
 10
-8.465279534584965
 20
14.68567419572704
 30
0.0
 10
-8.465279534584965
 20
14.68567419572704
 30
0.0
 10
-8.465279534584965
 20
17.44140607437845
 30
0.0
 10
-8.465279534584965
 20
17.44140607437845
 30
0.0
 10
-8.465279534584965
 20
17.87307653868015
 30
0.0
 10
-8.45253268128954
 20
18.30474700298208
 30
0.0
 10
-8.427383484247116
 20
18.73641746728387
 30
0.0
 10
-8.427383484247116
 20
18.73641746728387
 30
0.0
 10
-8.465279534584965
 20
18.73641746728387
 30
0.0
 10
-8.465279534584965
 20
18.73641746728387
 30
0.0
 10
-8.719527581396391
 20
18.25410409934886
 30
0.0
 10
-8.922443705477519
 20
17.89857024527103
 30
0.0
 10
-9.151198045698265
 20
17.51754268460243
 30
0.0
 10
-9.151198045698265
 20
17.51754268460243
 30
0.0
 10
-11.17002400005447
 20
14.71116790231798
 30
0.0
 10
-11.17002400005447
 20
14.71116790231798
 30
0.0
 10
-11.17002400005447
 20
14.71116790231798
 30
0.0
 10
-11.17002400005447
 20
14.68567419572704
 30
0.0
 10
-11.17002400005447
 20
14.68567419572704
 30
0.0
 10
-11.17002400005447
 20
14.68567419572704
 30
0.0
 10
-8.465279534584965
 20
14.68567419572704
 30
0.0
 10
-8.465279534584965
 20
14.68567419572704
 30
0.0
  0
SPLINE
  5
100F
330
70
100
AcDbEntity
  8
Livello 1
100
AcDbSpline
210
0.0
220
0.0
230
1.0
 70
    11
 71
     3
 72
    38
 73
    34
 74
     0
 42
0.000000001
 43
0.0000000001
 40
0.0
 40
0.0
 40
0.0
 40
0.0
 40
1.0
 40
1.0
 40
1.0
 40
2.0
 40
2.0
 40
2.0
 40
3.0
 40
3.0
 40
3.0
 40
4.0
 40
4.0
 40
4.0
 40
5.0
 40
5.0
 40
5.0
 40
6.0
 40
6.0
 40
6.0
 40
7.0
 40
7.0
 40
7.0
 40
8.0
 40
8.0
 40
8.0
 40
9.0
 40
9.0
 40
9.0
 40
10.0
 40
10.0
 40
10.0
 40
11.0
 40
11.0
 40
11.0
 40
11.0
 10
-8.465279534584965
 20
11.56200611925106
 30
0.0
 10
-8.465279534584965
 20
11.56200611925106
 30
0.0
 10
-8.465279534584965
 20
13.80958641382804
 30
0.0
 10
-8.465279534584965
 20
13.80958641382804
 30
0.0
 10
-8.465279534584965
 20
13.80958641382804
 30
0.0
 10
-12.30035982876501
 20
13.80958641382804
 30
0.0
 10
-12.30035982876501
 20
13.80958641382804
 30
0.0
 10
-12.30035982876501
 20
13.80958641382804
 30
0.0
 10
-12.30035982876501
 20
14.54614782857445
 30
0.0
 10
-12.30035982876501
 20
14.54614782857445
 30
0.0
 10
-12.30035982876501
 20
14.54614782857445
 30
0.0
 10
-8.617897264581529
 20
19.81576588281254
 30
0.0
 10
-8.617897264581529
 20
19.81576588281254
 30
0.0
 10
-8.617897264581529
 20
19.81576588281254
 30
0.0
 10
-7.411424825646975
 20
19.81576588281254
 30
0.0
 10
-7.411424825646975
 20
19.81576588281254
 30
0.0
 10
-7.411424825646975
 20
19.81576588281254
 30
0.0
 10
-7.411424825646975
 20
14.68567419572704
 30
0.0
 10
-7.411424825646975
 20
14.68567419572704
 30
0.0
 10
-7.411424825646975
 20
14.68567419572704
 30
0.0
 10
-6.255939799894349
 20
14.68567419572704
 30
0.0
 10
-6.255939799894349
 20
14.68567419572704
 30
0.0
 10
-6.255939799894349
 20
14.68567419572704
 30
0.0
 10
-6.255939799894349
 20
13.80958641382804
 30
0.0
 10
-6.255939799894349
 20
13.80958641382804
 30
0.0
 10
-6.255939799894349
 20
13.80958641382804
 30
0.0
 10
-7.411424825646975
 20
13.80958641382804
 30
0.0
 10
-7.411424825646975
 20
13.80958641382804
 30
0.0
 10
-7.411424825646975
 20
13.80958641382804
 30
0.0
 10
-7.411424825646975
 20
11.56200611925106
 30
0.0
 10
-7.411424825646975
 20
11.56200611925106
 30
0.0
 10
-7.411424825646975
 20
11.56200611925106
 30
0.0
 10
-8.465279534584965
 20
11.56200611925106
 30
0.0
 10
-8.465279534584965
 20
11.56200611925106
 30
0.0
  0
HATCH
  5
1010
330
70
100
AcDbEntity
  8
Livello 1
440
 33554687
100
AcDbHatch
 10
0.0
 20
0.0
 30
0.0
210
0.0
220
0.0
230
1.0
  2
SOLID
 70
     1
 71
     0
 91
        2
 92
        1
 93
        1
 72
     4
 94
        3
 73
     0
 74
     0
 95
       26
 96
       22
 40
0.0
 40
0.0
 40
0.0
 40
0.0
 40
1.0
 40
1.0
 40
1.0
 40
2.0
 40
2.0
 40
2.0
 40
3.0
 40
3.0
 40
3.0
 40
4.0
 40
4.0
 40
4.0
 40
5.0
 40
5.0
 40
5.0
 40
6.0
 40
6.0
 40
6.0
 40
7.0
 40
7.0
 40
7.0
 40
7.0
 10
-8.465279534584965
 20
14.68567419572704
 10
-8.465279534584965
 20
14.68567419572704
 10
-8.465279534584965
 20
17.44140607437845
 10
-8.465279534584965
 20
17.44140607437845
 10
-8.465279534584965
 20
17.87307653868015
 10
-8.45253268128954
 20
18.30474700298208
 10
-8.427383484247116
 20
18.73641746728387
 10
-8.427383484247116
 20
18.73641746728387
 10
-8.465279534584965
 20
18.73641746728387
 10
-8.465279534584965
 20
18.73641746728387
 10
-8.719527581396391
 20
18.25410409934886
 10
-8.922443705477519
 20
17.89857024527103
 10
-9.151198045698265
 20
17.51754268460243
 10
-9.151198045698265
 20
17.51754268460243
 10
-11.17002400005447
 20
14.71116790231798
 10
-11.17002400005447
 20
14.71116790231798
 10
-11.17002400005447
 20
14.71116790231798
 10
-11.17002400005447
 20
14.68567419572704
 10
-11.17002400005447
 20
14.68567419572704
 10
-11.17002400005447
 20
14.68567419572704
 10
-8.465279534584965
 20
14.68567419572704
 10
-8.465279534584965
 20
14.68567419572704
 97
        0
 97
        0
 92
        1
 93
        1
 72
     4
 94
        3
 73
     0
 74
     0
 95
       38
 96
       34
 40
0.0
 40
0.0
 40
0.0
 40
0.0
 40
1.0
 40
1.0
 40
1.0
 40
2.0
 40
2.0
 40
2.0
 40
3.0
 40
3.0
 40
3.0
 40
4.0
 40
4.0
 40
4.0
 40
5.0
 40
5.0
 40
5.0
 40
6.0
 40
6.0
 40
6.0
 40
7.0
 40
7.0
 40
7.0
 40
8.0
 40
8.0
 40
8.0
 40
9.0
 40
9.0
 40
9.0
 40
10.0
 40
10.0
 40
10.0
 40
11.0
 40
11.0
 40
11.0
 40
11.0
 10
-8.465279534584965
 20
11.56200611925106
 10
-8.465279534584965
 20
11.56200611925106
 10
-8.465279534584965
 20
13.80958641382804
 10
-8.465279534584965
 20
13.80958641382804
 10
-8.465279534584965
 20
13.80958641382804
 10
-12.30035982876501
 20
13.80958641382804
 10
-12.30035982876501
 20
13.80958641382804
 10
-12.30035982876501
 20
13.80958641382804
 10
-12.30035982876501
 20
14.54614782857445
 10
-12.30035982876501
 20
14.54614782857445
 10
-12.30035982876501
 20
14.54614782857445
 10
-8.617897264581529
 20
19.81576588281254
 10
-8.617897264581529
 20
19.81576588281254
 10
-8.617897264581529
 20
19.81576588281254
 10
-7.411424825646975
 20
19.81576588281254
 10
-7.411424825646975
 20
19.81576588281254
 10
-7.411424825646975
 20
19.81576588281254
 10
-7.411424825646975
 20
14.68567419572704
 10
-7.411424825646975
 20
14.68567419572704
 10
-7.411424825646975
 20
14.68567419572704
 10
-6.255939799894349
 20
14.68567419572704
 10
-6.255939799894349
 20
14.68567419572704
 10
-6.255939799894349
 20
14.68567419572704
 10
-6.255939799894349
 20
13.80958641382804
 10
-6.255939799894349
 20
13.80958641382804
 10
-6.255939799894349
 20
13.80958641382804
 10
-7.411424825646975
 20
13.80958641382804
 10
-7.411424825646975
 20
13.80958641382804
 10
-7.411424825646975
 20
13.80958641382804
 10
-7.411424825646975
 20
11.56200611925106
 10
-7.411424825646975
 20
11.56200611925106
 10
-7.411424825646975
 20
11.56200611925106
 10
-8.465279534584965
 20
11.56200611925106
 10
-8.465279534584965
 20
11.56200611925106
 97
        0
 97
        0
 75
     2
 76
     1
 98
        1
 10
-408.2624094259551
 20
194.9871579831169
450
        0
451
        0
460
0.0
461
0.0
452
        0
462
0.0
453
        0
470

  0
SPLINE
  5
1011
330
70
100
AcDbEntity
  8
Livello 1
100
AcDbSpline
210
0.0
220
0.0
230
1.0
 70
     9
 71
     3
 72
    17
 73
    13
 74
     0
 42
0.000000001
 43
0.0000000001
 40
0.0
 40
0.0
 40
0.0
 40
0.0
 40
1.0
 40
1.0
 40
1.0
 40
2.0
 40
2.0
 40
2.0
 40
3.0
 40
3.0
 40
3.0
 40
4.0
 40
4.0
 40
4.0
 40
4.0
 10
-5.772937412862233
 20
9.999999826238763
 30
0.0
 10
-5.493540169008383
 20
10.74930809428062
 30
0.0
 10
-5.150408658677577
 20
12.10805375366314
 30
0.0
 10
-5.010882291524978
 20
13.03478443919536
 30
0.0
 10
-5.010882291524978
 20
13.03478443919536
 30
0.0
 10
-3.766513802252745
 20
13.16190846260105
 30
0.0
 10
-3.766513802252745
 20
13.16190846260105
 30
0.0
 10
-4.058313389853424
 20
12.08256004707226
 30
0.0
 10
-4.617107877561011
 20
10.67317148405655
 30
0.0
 10
-4.972641731638702
 20
10.07613643646275
 30
0.0
 10
-4.972641731638702
 20
10.07613643646275
 30
0.0
 10
-5.772937412862233
 20
9.999999826238763
 30
0.0
 10
-5.772937412862233
 20
9.999999826238763
 30
0.0
  0
HATCH
  5
1012
330
70
100
AcDbEntity
  8
Livello 1
440
 33554687
100
AcDbHatch
 10
0.0
 20
0.0
 30
0.0
210
0.0
220
0.0
230
1.0
  2
SOLID
 70
     1
 71
     0
 91
        1
 92
        1
 93
        1
 72
     4
 94
        3
 73
     0
 74
     0
 95
       17
 96
       13
 40
0.0
 40
0.0
 40
0.0
 40
0.0
 40
1.0
 40
1.0
 40
1.0
 40
2.0
 40
2.0
 40
2.0
 40
3.0
 40
3.0
 40
3.0
 40
4.0
 40
4.0
 40
4.0
 40
4.0
 10
-5.772937412862233
 20
9.999999826238763
 10
-5.493540169008383
 20
10.74930809428062
 10
-5.150408658677577
 20
12.10805375366314
 10
-5.010882291524978
 20
13.03478443919536
 10
-5.010882291524978
 20
13.03478443919536
 10
-3.766513802252745
 20
13.16190846260105
 10
-3.766513802252745
 20
13.16190846260105
 10
-4.058313389853424
 20
12.08256004707226
 10
-4.617107877561011
 20
10.67317148405655
 10
-4.972641731638702
 20
10.07613643646275
 10
-4.972641731638702
 20
10.07613643646275
 10
-5.772937412862233
 20
9.999999826238763
 10
-5.772937412862233
 20
9.999999826238763
 97
        0
 97
        0
 75
     2
 76
     1
 98
        1
 10
-408.2624094259551
 20
194.9871579831169
450
        0
451
        0
460
0.0
461
0.0
452
        0
462
0.0
453
        0
470

  0
SPLINE
  5
1013
330
70
100
AcDbEntity
  8
Livello 1
100
AcDbSpline
210
0.0
220
0.0
230
1.0
 70
    11
 71
     3
 72
    50
 73
    46
 74
     0
 42
0.000000001
 43
0.0000000001
 40
0.0
 40
0.0
 40
0.0
 40
0.0
 40
1.0
 40
1.0
 40
1.0
 40
2.0
 40
2.0
 40
2.0
 40
3.0
 40
3.0
 40
3.0
 40
4.0
 40
4.0
 40
4.0
 40
5.0
 40
5.0
 40
5.0
 40
6.0
 40
6.0
 40
6.0
 40
7.0
 40
7.0
 40
7.0
 40
8.0
 40
8.0
 40
8.0
 40
9.0
 40
9.0
 40
9.0
 40
10.0
 40
10.0
 40
10.0
 40
11.0
 40
11.0
 40
11.0
 40
12.0
 40
12.0
 40
12.0
 40
13.0
 40
13.0
 40
13.0
 40
14.0
 40
14.0
 40
14.0
 40
15.0
 40
15.0
 40
15.0
 40
15.0
 10
2.151126712761026
 20
18.87628834398495
 30
0.0
 10
2.151126712761026
 20
18.87628834398495
 30
0.0
 10
-0.9980350703059457
 20
18.87628834398495
 30
0.0
 10
-0.9980350703059457
 20
18.87628834398495
 30
0.0
 10
-0.9980350703059457
 20
18.87628834398495
 30
0.0
 10
-1.315328364497474
 20
16.75548756326515
 30
0.0
 10
-1.315328364497474
 20
16.75548756326515
 30
0.0
 10
-1.124814584163289
 20
16.78098126985602
 30
0.0
 10
-0.947047657124358
 20
16.80647497644685
 30
0.0
 10
-0.6425012162280837
 20
16.80647497644685
 30
0.0
 10
-0.0075701182966554
 20
16.80647497644685
 30
0.0
 10
0.6273609796348297
 20
16.66660409974577
 30
0.0
 10
1.135512563709255
 20
16.36205765884963
 30
0.0
 10
1.782846005387739
 20
15.99377695147643
 30
0.0
 10
2.316491296053015
 20
15.28270924332085
 30
0.0
 10
2.316491296053015
 20
14.24125687812986
 30
0.0
 10
2.316491296053015
 20
12.62860768148437
 30
0.0
 10
1.033882246894393
 20
11.42213524254987
 30
0.0
 10
-0.7565338767899448
 20
11.42213524254987
 30
0.0
 10
-1.658115365279854
 20
11.42213524254987
 30
0.0
 10
-2.420170486617109
 20
11.67603877981278
 30
0.0
 10
-2.813944900581304
 20
11.93028682662427
 30
0.0
 10
-2.813944900581304
 20
11.93028682662427
 30
0.0
 10
-2.534547656727454
 20
12.78088090193245
 30
0.0
 10
-2.534547656727454
 20
12.78088090193245
 30
0.0
 10
-2.19176065594496
 20
12.57762026830266
 30
0.0
 10
-1.518588998127199
 20
12.32371673103978
 30
0.0
 10
-0.769280730085427
 20
12.32371673103978
 30
0.0
 10
0.2845739788525634
 20
12.32371673103978
 30
0.0
 10
1.18615546734253
 20
13.00963524215305
 30
0.0
 10
1.18615546734253
 20
14.11413285472406
 30
0.0
 10
1.173408614046991
 20
15.18107892650596
 30
0.0
 10
0.4623409058914945
 20
15.94278953829476
 30
0.0
 10
-1.188548850640358
 20
15.94278953829476
 30
0.0
 10
-1.658115365279854
 20
15.94278953829476
 30
0.0
 10
-2.026396072652971
 20
15.89214663466157
 30
0.0
 10
-2.331287023097615
 20
15.85390607477529
 30
0.0
 10
-2.331287023097615
 20
15.85390607477529
 30
0.0
 10
-1.797986241980993
 20
19.81576588281254
 30
0.0
 10
-1.797986241980993
 20
19.81576588281254
 30
0.0
 10
-1.797986241980993
 20
19.81576588281254
 30
0.0
 10
2.151126712761026
 20
19.81576588281254
 30
0.0
 10
2.151126712761026
 20
19.81576588281254
 30
0.0
 10
2.151126712761026
 20
19.81576588281254
 30
0.0
 10
2.151126712761026
 20
18.87628834398495
 30
0.0
 10
2.151126712761026
 20
18.87628834398495
 30
0.0
  0
HATCH
  5
1014
330
70
100
AcDbEntity
  8
Livello 1
440
 33554687
100
AcDbHatch
 10
0.0
 20
0.0
 30
0.0
210
0.0
220
0.0
230
1.0
  2
SOLID
 70
     1
 71
     0
 91
        1
 92
        1
 93
        1
 72
     4
 94
        3
 73
     0
 74
     0
 95
       50
 96
       46
 40
0.0
 40
0.0
 40
0.0
 40
0.0
 40
1.0
 40
1.0
 40
1.0
 40
2.0
 40
2.0
 40
2.0
 40
3.0
 40
3.0
 40
3.0
 40
4.0
 40
4.0
 40
4.0
 40
5.0
 40
5.0
 40
5.0
 40
6.0
 40
6.0
 40
6.0
 40
7.0
 40
7.0
 40
7.0
 40
8.0
 40
8.0
 40
8.0
 40
9.0
 40
9.0
 40
9.0
 40
10.0
 40
10.0
 40
10.0
 40
11.0
 40
11.0
 40
11.0
 40
12.0
 40
12.0
 40
12.0
 40
13.0
 40
13.0
 40
13.0
 40
14.0
 40
14.0
 40
14.0
 40
15.0
 40
15.0
 40
15.0
 40
15.0
 10
2.151126712761026
 20
18.87628834398495
 10
2.151126712761026
 20
18.87628834398495
 10
-0.9980350703059457
 20
18.87628834398495
 10
-0.9980350703059457
 20
18.87628834398495
 10
-0.9980350703059457
 20
18.87628834398495
 10
-1.315328364497474
 20
16.75548756326515
 10
-1.315328364497474
 20
16.75548756326515
 10
-1.124814584163289
 20
16.78098126985602
 10
-0.947047657124358
 20
16.80647497644685
 10
-0.6425012162280837
 20
16.80647497644685
 10
-0.0075701182966554
 20
16.80647497644685
 10
0.6273609796348297
 20
16.66660409974577
 10
1.135512563709255
 20
16.36205765884963
 10
1.782846005387739
 20
15.99377695147643
 10
2.316491296053015
 20
15.28270924332085
 10
2.316491296053015
 20
14.24125687812986
 10
2.316491296053015
 20
12.62860768148437
 10
1.033882246894393
 20
11.42213524254987
 10
-0.7565338767899448
 20
11.42213524254987
 10
-1.658115365279854
 20
11.42213524254987
 10
-2.420170486617109
 20
11.67603877981278
 10
-2.813944900581304
 20
11.93028682662427
 10
-2.813944900581304
 20
11.93028682662427
 10
-2.534547656727454
 20
12.78088090193245
 10
-2.534547656727454
 20
12.78088090193245
 10
-2.19176065594496
 20
12.57762026830266
 10
-1.518588998127199
 20
12.32371673103978
 10
-0.769280730085427
 20
12.32371673103978
 10
0.2845739788525634
 20
12.32371673103978
 10
1.18615546734253
 20
13.00963524215305
 10
1.18615546734253
 20
14.11413285472406
 10
1.173408614046991
 20
15.18107892650596
 10
0.4623409058914945
 20
15.94278953829476
 10
-1.188548850640358
 20
15.94278953829476
 10
-1.658115365279854
 20
15.94278953829476
 10
-2.026396072652971
 20
15.89214663466157
 10
-2.331287023097615
 20
15.85390607477529
 10
-2.331287023097615
 20
15.85390607477529
 10
-1.797986241980993
 20
19.81576588281254
 10
-1.797986241980993
 20
19.81576588281254
 10
-1.797986241980993
 20
19.81576588281254
 10
2.151126712761026
 20
19.81576588281254
 10
2.151126712761026
 20
19.81576588281254
 10
2.151126712761026
 20
19.81576588281254
 10
2.151126712761026
 20
18.87628834398495
 10
2.151126712761026
 20
18.87628834398495
 97
        0
 97
        0
 75
     2
 76
     1
 98
        1
 10
-408.2624094259551
 20
194.9871579831169
450
        0
451
        0
460
0.0
461
0.0
452
        0
462
0.0
453
        0
470

  0
SPLINE
  5
1015
330
70
100
AcDbEntity
  8
Livello 1
100
AcDbSpline
210
0.0
220
0.0
230
1.0
 70
    11
 71
     3
 72
    29
 73
    25
 74
     0
 42
0.000000001
 43
0.0000000001
 40
0.0
 40
0.0
 40
0.0
 40
0.0
 40
1.0
 40
1.0
 40
1.0
 40
2.0
 40
2.0
 40
2.0
 40
3.0
 40
3.0
 40
3.0
 40
4.0
 40
4.0
 40
4.0
 40
5.0
 40
5.0
 40
5.0
 40
6.0
 40
6.0
 40
6.0
 40
7.0
 40
7.0
 40
7.0
 40
8.0
 40
8.0
 40
8.0
 40
8.0
 10
62.78170666722139
 20
51.33528898691185
 30
0.0
 10
62.78170666722139
 20
51.33528898691185
 30
0.0
 10
62.78170666722139
 20
51.30979528032105
 30
0.0
 10
62.78170666722139
 20
51.30979528032105
 30
0.0
 10
62.78170666722139
 20
51.30979528032105
 30
0.0
 10
63.55616413230553
 20
49.87491301071447
 30
0.0
 10
63.55616413230553
 20
49.87491301071447
 30
0.0
 10
63.55616413230553
 20
49.87491301071447
 30
0.0
 10
62.70522554744871
 20
49.65907777856355
 30
0.0
 10
62.70522554744871
 20
49.65907777856355
 30
0.0
 10
62.70522554744871
 20
49.65907777856355
 30
0.0
 10
61.74025430203028
 20
51.46224075554338
 30
0.0
 10
61.74025430203028
 20
51.46224075554338
 30
0.0
 10
61.74025430203028
 20
51.46224075554338
 30
0.0
 10
61.74025430203028
 20
52.41463740244066
 30
0.0
 10
61.74025430203028
 20
52.41463740244066
 30
0.0
 10
61.74025430203028
 20
52.41463740244066
 30
0.0
 10
69.99435857514038
 20
52.41463740244066
 30
0.0
 10
69.99435857514038
 20
52.41463740244066
 30
0.0
 10
69.99435857514038
 20
52.41463740244066
 30
0.0
 10
69.99435857514038
 20
51.33528898691185
 30
0.0
 10
69.99435857514038
 20
51.33528898691185
 30
0.0
 10
69.99435857514038
 20
51.33528898691185
 30
0.0
 10
62.78170666722139
 20
51.33528898691185
 30
0.0
 10
62.78170666722139
 20
51.33528898691185
 30
0.0
  0
HATCH
  5
1016
330
70
100
AcDbEntity
  8
Livello 1
440
 33554687
100
AcDbHatch
 10
0.0
 20
0.0
 30
0.0
210
0.0
220
0.0
230
1.0
  2
SOLID
 70
     1
 71
     0
 91
        1
 92
        1
 93
        1
 72
     4
 94
        3
 73
     0
 74
     0
 95
       29
 96
       25
 40
0.0
 40
0.0
 40
0.0
 40
0.0
 40
1.0
 40
1.0
 40
1.0
 40
2.0
 40
2.0
 40
2.0
 40
3.0
 40
3.0
 40
3.0
 40
4.0
 40
4.0
 40
4.0
 40
5.0
 40
5.0
 40
5.0
 40
6.0
 40
6.0
 40
6.0
 40
7.0
 40
7.0
 40
7.0
 40
8.0
 40
8.0
 40
8.0
 40
8.0
 10
62.78170666722139
 20
51.33528898691185
 10
62.78170666722139
 20
51.33528898691185
 10
62.78170666722139
 20
51.30979528032105
 10
62.78170666722139
 20
51.30979528032105
 10
62.78170666722139
 20
51.30979528032105
 10
63.55616413230553
 20
49.87491301071447
 10
63.55616413230553
 20
49.87491301071447
 10
63.55616413230553
 20
49.87491301071447
 10
62.70522554744871
 20
49.65907777856355
 10
62.70522554744871
 20
49.65907777856355
 10
62.70522554744871
 20
49.65907777856355
 10
61.74025430203028
 20
51.46224075554338
 10
61.74025430203028
 20
51.46224075554338
 10
61.74025430203028
 20
51.46224075554338
 10
61.74025430203028
 20
52.41463740244066
 10
61.74025430203028
 20
52.41463740244066
 10
61.74025430203028
 20
52.41463740244066
 10
69.99435857514038
 20
52.41463740244066
 10
69.99435857514038
 20
52.41463740244066
 10
69.99435857514038
 20
52.41463740244066
 10
69.99435857514038
 20
51.33528898691185
 10
69.99435857514038
 20
51.33528898691185
 10
69.99435857514038
 20
51.33528898691185
 10
62.78170666722139
 20
51.33528898691185
 10
62.78170666722139
 20
51.33528898691185
 97
        0
 97
        0
 75
     2
 76
     1
 98
        1
 10
-408.2624094259551
 20
194.9871579831169
450
        0
451
        0
460
0.0
461
0.0
452
        0
462
0.0
453
        0
470

  0
SPLINE
  5
1017
330
70
100
AcDbEntity
  8
Livello 1
100
AcDbSpline
210
0.0
220
0.0
230
1.0
 70
     9
 71
     3
 72
    17
 73
    13
 74
     0
 42
0.000000001
 43
0.0000000001
 40
0.0
 40
0.0
 40
0.0
 40
0.0
 40
1.0
 40
1.0
 40
1.0
 40
2.0
 40
2.0
 40
2.0
 40
3.0
 40
3.0
 40
3.0
 40
4.0
 40
4.0
 40
4.0
 40
4.0
 10
65.90537474369734
 20
56.42782913320818
 30
0.0
 10
68.0513247214596
 20
56.42782913320818
 30
0.0
 10
69.27054401368952
 20
57.08825393773054
 30
0.0
 10
69.27054401368952
 20
58.10404034155647
 30
0.0
 10
69.27054401368952
 20
59.24695076878816
 30
0.0
 10
67.93729206089768
 20
59.79299840320024
 30
0.0
 10
65.82923813347338
 20
59.79299840320024
 30
0.0
 10
63.79732081627299
 20
59.79299840320024
 30
0.0
 10
62.4640688634812
 20
59.27227222060475
 30
0.0
 10
62.4640688634812
 20
58.11678719485195
 30
0.0
 10
62.4640688634812
 20
57.13889684136375
 30
0.0
 10
63.65779444912039
 20
56.42782913320818
 30
0.0
 10
65.90537474369734
 20
56.42782913320818
 30
0.0
  0
SPLINE
  5
1018
330
70
100
AcDbEntity
  8
Livello 1
100
AcDbSpline
210
0.0
220
0.0
230
1.0
 70
     9
 71
     3
 72
    17
 73
    13
 74
     0
 42
0.000000001
 43
0.0000000001
 40
0.0
 40
0.0
 40
0.0
 40
0.0
 40
1.0
 40
1.0
 40
1.0
 40
2.0
 40
2.0
 40
2.0
 40
3.0
 40
3.0
 40
3.0
 40
4.0
 40
4.0
 40
4.0
 40
4.0
 10
65.77825072029168
 20
60.91041512384103
 30
0.0
 10
68.58462550257621
 20
60.91041512384103
 30
0.0
 10
70.13388494229303
 20
59.86913501342425
 30
0.0
 10
70.13388494229303
 20
58.04047832985367
 30
0.0
 10
70.13388494229303
 20
56.42782913320818
 30
0.0
 10
68.62286606246243
 20
55.33573386438394
 30
0.0
 10
65.89262789040197
 20
55.31041241256744
 30
0.0
 10
63.12449366800371
 20
55.31041241256744
 30
0.0
 10
61.60072793487768
 20
56.50396574343227
 30
0.0
 10
61.60072793487768
 20
58.18017695178056
 30
0.0
 10
61.60072793487768
 20
59.91995017183166
 30
0.0
 10
63.1499873745945
 20
60.91041512384103
 30
0.0
 10
65.77825072029168
 20
60.91041512384103
 30
0.0
  0
HATCH
  5
1019
330
70
100
AcDbEntity
  8
Livello 1
440
 33554687
100
AcDbHatch
 10
0.0
 20
0.0
 30
0.0
210
0.0
220
0.0
230
1.0
  2
SOLID
 70
     1
 71
     0
 91
        2
 92
        1
 93
        1
 72
     4
 94
        3
 73
     0
 74
     0
 95
       17
 96
       13
 40
0.0
 40
0.0
 40
0.0
 40
0.0
 40
1.0
 40
1.0
 40
1.0
 40
2.0
 40
2.0
 40
2.0
 40
3.0
 40
3.0
 40
3.0
 40
4.0
 40
4.0
 40
4.0
 40
4.0
 10
65.90537474369734
 20
56.42782913320818
 10
68.0513247214596
 20
56.42782913320818
 10
69.27054401368952
 20
57.08825393773054
 10
69.27054401368952
 20
58.10404034155647
 10
69.27054401368952
 20
59.24695076878816
 10
67.93729206089768
 20
59.79299840320024
 10
65.82923813347338
 20
59.79299840320024
 10
63.79732081627299
 20
59.79299840320024
 10
62.4640688634812
 20
59.27227222060475
 10
62.4640688634812
 20
58.11678719485195
 10
62.4640688634812
 20
57.13889684136375
 10
63.65779444912039
 20
56.42782913320818
 10
65.90537474369734
 20
56.42782913320818
 97
        0
 97
        0
 92
        1
 93
        1
 72
     4
 94
        3
 73
     0
 74
     0
 95
       17
 96
       13
 40
0.0
 40
0.0
 40
0.0
 40
0.0
 40
1.0
 40
1.0
 40
1.0
 40
2.0
 40
2.0
 40
2.0
 40
3.0
 40
3.0
 40
3.0
 40
4.0
 40
4.0
 40
4.0
 40
4.0
 10
65.77825072029168
 20
60.91041512384103
 10
68.58462550257621
 20
60.91041512384103
 10
70.13388494229303
 20
59.86913501342425
 10
70.13388494229303
 20
58.04047832985367
 10
70.13388494229303
 20
56.42782913320818
 10
68.62286606246243
 20
55.33573386438394
 10
65.89262789040197
 20
55.31041241256744
 10
63.12449366800371
 20
55.31041241256744
 10
61.60072793487768
 20
56.50396574343227
 10
61.60072793487768
 20
58.18017695178056
 10
61.60072793487768
 20
59.91995017183166
 10
63.1499873745945
 20
60.91041512384103
 10
65.77825072029168
 20
60.91041512384103
 97
        0
 97
        0
 75
     2
 76
     1
 98
        1
 10
-408.2624094259551
 20
194.9871579831169
450
        0
451
        0
460
0.0
461
0.0
452
        0
462
0.0
453
        0
470

  0
SPLINE
  5
101A
330
70
100
AcDbEntity
  8
Livello 1
100
AcDbSpline
210
0.0
220
0.0
230
1.0
 70
     9
 71
     3
 72
    17
 73
    13
 74
     0
 42
0.000000001
 43
0.0000000001
 40
0.0
 40
0.0
 40
0.0
 40
0.0
 40
1.0
 40
1.0
 40
1.0
 40
2.0
 40
2.0
 40
2.0
 40
3.0
 40
3.0
 40
3.0
 40
4.0
 40
4.0
 40
4.0
 40
4.0
 10
71.5560203586042
 20
61.57135669268615
 30
0.0
 10
70.8070566001108
 20
61.85058168176564
 30
0.0
 10
69.44831094072822
 20
62.19354093732235
 30
0.0
 10
68.52123574564757
 20
62.33323955924916
 30
0.0
 10
68.52123574564757
 20
62.33323955924916
 30
0.0
 10
68.39411172224174
 20
63.57760804852145
 30
0.0
 10
68.39411172224174
 20
63.57760804852145
 30
0.0
 10
69.47380464731901
 20
63.28563620614656
 30
0.0
 10
70.88319321033492
 20
62.72684171843895
 30
0.0
 10
71.47988374838007
 20
62.37130786436125
 30
0.0
 10
71.47988374838007
 20
62.37130786436125
 30
0.0
 10
71.5560203586042
 20
61.57135669268615
 30
0.0
 10
71.5560203586042
 20
61.57135669268615
 30
0.0
  0
HATCH
  5
101B
330
70
100
AcDbEntity
  8
Livello 1
440
 33554687
100
AcDbHatch
 10
0.0
 20
0.0
 30
0.0
210
0.0
220
0.0
230
1.0
  2
SOLID
 70
     1
 71
     0
 91
        1
 92
        1
 93
        1
 72
     4
 94
        3
 73
     0
 74
     0
 95
       17
 96
       13
 40
0.0
 40
0.0
 40
0.0
 40
0.0
 40
1.0
 40
1.0
 40
1.0
 40
2.0
 40
2.0
 40
2.0
 40
3.0
 40
3.0
 40
3.0
 40
4.0
 40
4.0
 40
4.0
 40
4.0
 10
71.5560203586042
 20
61.57135669268615
 10
70.8070566001108
 20
61.85058168176564
 10
69.44831094072822
 20
62.19354093732235
 10
68.52123574564757
 20
62.33323955924916
 10
68.52123574564757
 20
62.33323955924916
 10
68.39411172224174
 20
63.57760804852145
 10
68.39411172224174
 20
63.57760804852145
 10
69.47380464731901
 20
63.28563620614656
 10
70.88319321033492
 20
62.72684171843895
 10
71.47988374838007
 20
62.37130786436125
 10
71.47988374838007
 20
62.37130786436125
 10
71.5560203586042
 20
61.57135669268615
 10
71.5560203586042
 20
61.57135669268615
 97
        0
 97
        0
 75
     2
 76
     1
 98
        1
 10
-408.2624094259551
 20
194.9871579831169
450
        0
451
        0
460
0.0
461
0.0
452
        0
462
0.0
453
        0
470

  0
SPLINE
  5
101C
330
70
100
AcDbEntity
  8
Livello 1
100
AcDbSpline
210
0.0
220
0.0
230
1.0
 70
    11
 71
     3
 72
    50
 73
    46
 74
     0
 42
0.000000001
 43
0.0000000001
 40
0.0
 40
0.0
 40
0.0
 40
0.0
 40
1.0
 40
1.0
 40
1.0
 40
2.0
 40
2.0
 40
2.0
 40
3.0
 40
3.0
 40
3.0
 40
4.0
 40
4.0
 40
4.0
 40
5.0
 40
5.0
 40
5.0
 40
6.0
 40
6.0
 40
6.0
 40
7.0
 40
7.0
 40
7.0
 40
8.0
 40
8.0
 40
8.0
 40
9.0
 40
9.0
 40
9.0
 40
10.0
 40
10.0
 40
10.0
 40
11.0
 40
11.0
 40
11.0
 40
12.0
 40
12.0
 40
12.0
 40
13.0
 40
13.0
 40
13.0
 40
14.0
 40
14.0
 40
14.0
 40
15.0
 40
15.0
 40
15.0
 40
15.0
 10
62.68007635040646
 20
69.49524856353504
 30
0.0
 10
62.68007635040646
 20
69.49524856353504
 30
0.0
 10
62.68007635040646
 20
66.34608678046825
 30
0.0
 10
62.68007635040646
 20
66.34608678046825
 30
0.0
 10
62.68007635040646
 20
66.34608678046825
 30
0.0
 10
64.8005326215777
 20
66.02862123150245
 30
0.0
 10
64.8005326215777
 20
66.02862123150245
 30
0.0
 10
64.77538342453539
 20
66.21913501183676
 30
0.0
 10
64.74988971794454
 20
66.39690193887566
 30
0.0
 10
64.74988971794454
 20
66.70162063454606
 30
0.0
 10
64.74988971794454
 20
67.33655173247756
 30
0.0
 10
64.88941608509719
 20
67.97148283040906
 30
0.0
 10
65.19430703554178
 20
68.47946215970916
 30
0.0
 10
65.56258774291501
 20
69.12696785616187
 30
0.0
 10
66.27365545107057
 20
69.66044089205286
 30
0.0
 10
67.31476330671302
 20
69.66044089205286
 30
0.0
 10
68.92775701290702
 20
69.66044089205286
 30
0.0
 10
70.13388494229303
 20
68.37783184289425
 30
0.0
 10
70.13388494229303
 20
66.58741571920995
 30
0.0
 10
70.13388494229303
 20
65.68583423072005
 30
0.0
 10
69.8799814050302
 20
64.92377910938287
 30
0.0
 10
69.62607786776715
 20
64.53017695019304
 30
0.0
 10
69.62607786776715
 20
64.53017695019304
 30
0.0
 10
68.77513928291051
 20
64.80957419404674
 30
0.0
 10
68.77513928291051
 20
64.80957419404674
 30
0.0
 10
68.97839991654024
 20
65.15236119482915
 30
0.0
 10
69.23230345380318
 20
65.82536059787267
 30
0.0
 10
69.23230345380318
 20
66.57466886591453
 30
0.0
 10
69.23230345380318
 20
67.62869582962676
 30
0.0
 10
68.54672945223836
 20
68.53027731811656
 30
0.0
 10
67.44188733011885
 20
68.53027731811656
 30
0.0
 10
66.37528576788549
 20
68.51753046482115
 30
0.0
 10
65.61323064654823
 20
67.80646275666565
 30
0.0
 10
65.61323064654823
 20
66.15557300013387
 30
0.0
 10
65.61323064654823
 20
65.68583423072005
 30
0.0
 10
65.66421805972976
 20
65.31755352334688
 30
0.0
 10
65.70211411006761
 20
65.01266257290225
 30
0.0
 10
65.70211411006761
 20
65.01266257290225
 30
0.0
 10
61.74025430203028
 20
65.54613560879317
 30
0.0
 10
61.74025430203028
 20
65.54613560879317
 30
0.0
 10
61.74025430203028
 20
65.54613560879317
 30
0.0
 10
61.74025430203028
 20
69.49524856353504
 30
0.0
 10
61.74025430203028
 20
69.49524856353504
 30
0.0
 10
61.74025430203028
 20
69.49524856353504
 30
0.0
 10
62.68007635040646
 20
69.49524856353504
 30
0.0
 10
62.68007635040646
 20
69.49524856353504
 30
0.0
  0
HATCH
  5
101D
330
70
100
AcDbEntity
  8
Livello 1
440
 33554687
100
AcDbHatch
 10
0.0
 20
0.0
 30
0.0
210
0.0
220
0.0
230
1.0
  2
SOLID
 70
     1
 71
     0
 91
        1
 92
        1
 93
        1
 72
     4
 94
        3
 73
     0
 74
     0
 95
       50
 96
       46
 40
0.0
 40
0.0
 40
0.0
 40
0.0
 40
1.0
 40
1.0
 40
1.0
 40
2.0
 40
2.0
 40
2.0
 40
3.0
 40
3.0
 40
3.0
 40
4.0
 40
4.0
 40
4.0
 40
5.0
 40
5.0
 40
5.0
 40
6.0
 40
6.0
 40
6.0
 40
7.0
 40
7.0
 40
7.0
 40
8.0
 40
8.0
 40
8.0
 40
9.0
 40
9.0
 40
9.0
 40
10.0
 40
10.0
 40
10.0
 40
11.0
 40
11.0
 40
11.0
 40
12.0
 40
12.0
 40
12.0
 40
13.0
 40
13.0
 40
13.0
 40
14.0
 40
14.0
 40
14.0
 40
15.0
 40
15.0
 40
15.0
 40
15.0
 10
62.68007635040646
 20
69.49524856353504
 10
62.68007635040646
 20
69.49524856353504
 10
62.68007635040646
 20
66.34608678046825
 10
62.68007635040646
 20
66.34608678046825
 10
62.68007635040646
 20
66.34608678046825
 10
64.8005326215777
 20
66.02862123150245
 10
64.8005326215777
 20
66.02862123150245
 10
64.77538342453539
 20
66.21913501183676
 10
64.74988971794454
 20
66.39690193887566
 10
64.74988971794454
 20
66.70162063454606
 10
64.74988971794454
 20
67.33655173247756
 10
64.88941608509719
 20
67.97148283040906
 10
65.19430703554178
 20
68.47946215970916
 10
65.56258774291501
 20
69.12696785616187
 10
66.27365545107057
 20
69.66044089205286
 10
67.31476330671302
 20
69.66044089205286
 10
68.92775701290702
 20
69.66044089205286
 10
70.13388494229303
 20
68.37783184289425
 10
70.13388494229303
 20
66.58741571920995
 10
70.13388494229303
 20
65.68583423072005
 10
69.8799814050302
 20
64.92377910938287
 10
69.62607786776715
 20
64.53017695019304
 10
69.62607786776715
 20
64.53017695019304
 10
68.77513928291051
 20
64.80957419404674
 10
68.77513928291051
 20
64.80957419404674
 10
68.97839991654024
 20
65.15236119482915
 10
69.23230345380318
 20
65.82536059787267
 10
69.23230345380318
 20
66.57466886591453
 10
69.23230345380318
 20
67.62869582962676
 10
68.54672945223836
 20
68.53027731811656
 10
67.44188733011885
 20
68.53027731811656
 10
66.37528576788549
 20
68.51753046482115
 10
65.61323064654823
 20
67.80646275666565
 10
65.61323064654823
 20
66.15557300013387
 10
65.61323064654823
 20
65.68583423072005
 10
65.66421805972976
 20
65.31755352334688
 10
65.70211411006761
 20
65.01266257290225
 10
65.70211411006761
 20
65.01266257290225
 10
61.74025430203028
 20
65.54613560879317
 10
61.74025430203028
 20
65.54613560879317
 10
61.74025430203028
 20
65.54613560879317
 10
61.74025430203028
 20
69.49524856353504
 10
61.74025430203028
 20
69.49524856353504
 10
61.74025430203028
 20
69.49524856353504
 10
62.68007635040646
 20
69.49524856353504
 10
62.68007635040646
 20
69.49524856353504
 97
        0
 97
        0
 75
     2
 76
     1
 98
        1
 10
-408.2624094259551
 20
194.9871579831169
450
        0
451
        0
460
0.0
461
0.0
452
        0
462
0.0
453
        0
470

  0
SPLINE
  5
101E
330
70
100
AcDbEntity
  8
Livello 1
100
AcDbSpline
210
0.0
220
0.0
230
1.0
 70
    11
 71
     3
 72
    29
 73
    25
 74
     0
 42
0.000000001
 43
0.0000000001
 40
0.0
 40
0.0
 40
0.0
 40
0.0
 40
1.0
 40
1.0
 40
1.0
 40
2.0
 40
2.0
 40
2.0
 40
3.0
 40
3.0
 40
3.0
 40
4.0
 40
4.0
 40
4.0
 40
5.0
 40
5.0
 40
5.0
 40
6.0
 40
6.0
 40
6.0
 40
7.0
 40
7.0
 40
7.0
 40
8.0
 40
8.0
 40
8.0
 40
8.0
 10
34.09232950425474
 20
19.20495045327777
 30
0.0
 10
34.09232950425474
 20
19.20495045327777
 30
0.0
 10
34.06683579766406
 20
19.20495045327777
 30
0.0
 10
34.06683579766406
 20
19.20495045327777
 30
0.0
 10
34.06683579766406
 20
19.20495045327777
 30
0.0
 10
32.63195352805741
 20
18.43014847864515
 30
0.0
 10
32.63195352805741
 20
18.43014847864515
 30
0.0
 10
32.63195352805741
 20
18.43014847864515
 30
0.0
 10
32.4159460411322
 20
19.28108706350187
 30
0.0
 10
32.4159460411322
 20
19.28108706350187
 30
0.0
 10
32.4159460411322
 20
19.28108706350187
 30
0.0
 10
34.21910901811202
 20
20.24605830892026
 30
0.0
 10
34.21910901811202
 20
20.24605830892026
 30
0.0
 10
34.21910901811202
 20
20.24605830892026
 30
0.0
 10
35.17167791978358
 20
20.24605830892026
 30
0.0
 10
35.17167791978358
 20
20.24605830892026
 30
0.0
 10
35.17167791978358
 20
20.24605830892026
 30
0.0
 10
35.17167791978358
 20
11.99229854535878
 30
0.0
 10
35.17167791978358
 20
11.99229854535878
 30
0.0
 10
35.17167791978358
 20
11.99229854535878
 30
0.0
 10
34.09232950425474
 20
11.99229854535878
 30
0.0
 10
34.09232950425474
 20
11.99229854535878
 30
0.0
 10
34.09232950425474
 20
11.99229854535878
 30
0.0
 10
34.09232950425474
 20
19.20495045327777
 30
0.0
 10
34.09232950425474
 20
19.20495045327777
 30
0.0
  0
HATCH
  5
101F
330
70
100
AcDbEntity
  8
Livello 1
440
 33554687
100
AcDbHatch
 10
0.0
 20
0.0
 30
0.0
210
0.0
220
0.0
230
1.0
  2
SOLID
 70
     1
 71
     0
 91
        1
 92
        1
 93
        1
 72
     4
 94
        3
 73
     0
 74
     0
 95
       29
 96
       25
 40
0.0
 40
0.0
 40
0.0
 40
0.0
 40
1.0
 40
1.0
 40
1.0
 40
2.0
 40
2.0
 40
2.0
 40
3.0
 40
3.0
 40
3.0
 40
4.0
 40
4.0
 40
4.0
 40
5.0
 40
5.0
 40
5.0
 40
6.0
 40
6.0
 40
6.0
 40
7.0
 40
7.0
 40
7.0
 40
8.0
 40
8.0
 40
8.0
 40
8.0
 10
34.09232950425474
 20
19.20495045327777
 10
34.09232950425474
 20
19.20495045327777
 10
34.06683579766406
 20
19.20495045327777
 10
34.06683579766406
 20
19.20495045327777
 10
34.06683579766406
 20
19.20495045327777
 10
32.63195352805741
 20
18.43014847864515
 10
32.63195352805741
 20
18.43014847864515
 10
32.63195352805741
 20
18.43014847864515
 10
32.4159460411322
 20
19.28108706350187
 10
32.4159460411322
 20
19.28108706350187
 10
32.4159460411322
 20
19.28108706350187
 10
34.21910901811202
 20
20.24605830892026
 10
34.21910901811202
 20
20.24605830892026
 10
34.21910901811202
 20
20.24605830892026
 10
35.17167791978358
 20
20.24605830892026
 10
35.17167791978358
 20
20.24605830892026
 10
35.17167791978358
 20
20.24605830892026
 10
35.17167791978358
 20
11.99229854535878
 10
35.17167791978358
 20
11.99229854535878
 10
35.17167791978358
 20
11.99229854535878
 10
34.09232950425474
 20
11.99229854535878
 10
34.09232950425474
 20
11.99229854535878
 10
34.09232950425474
 20
11.99229854535878
 10
34.09232950425474
 20
19.20495045327777
 10
34.09232950425474
 20
19.20495045327777
 97
        0
 97
        0
 75
     2
 76
     1
 98
        1
 10
-408.2624094259551
 20
194.9871579831169
450
        0
451
        0
460
0.0
461
0.0
452
        0
462
0.0
453
        0
470

  0
SPLINE
  5
1020
330
70
100
AcDbEntity
  8
Livello 1
100
AcDbSpline
210
0.0
220
0.0
230
1.0
 70
     9
 71
     3
 72
    20
 73
    16
 74
     0
 42
0.000000001
 43
0.0000000001
 40
0.0
 40
0.0
 40
0.0
 40
0.0
 40
1.0
 40
1.0
 40
1.0
 40
2.0
 40
2.0
 40
2.0
 40
3.0
 40
3.0
 40
3.0
 40
4.0
 40
4.0
 40
4.0
 40
5.0
 40
5.0
 40
5.0
 40
5.0
 10
39.23551255418426
 20
17.52856699015527
 30
0.0
 10
39.23551255418426
 20
16.50020598780816
 30
0.0
 10
39.85769679882031
 20
15.77639142635715
 30
0.0
 10
40.8230125537874
 20
15.77639142635715
 30
0.0
 10
41.57197631228075
 20
15.77639142635715
 30
0.0
 10
42.15626450657907
 20
16.14467213373035
 30
0.0
 10
42.44840860372824
 20
16.63973235496075
 30
0.0
 10
42.51179836065688
 20
16.74136267177565
 30
0.0
 10
42.55003892054321
 20
16.86848669518136
 30
0.0
 10
42.55003892054321
 20
17.04625362222026
 30
0.0
 10
42.55003892054321
 20
18.45564218523594
 30
0.0
 10
42.02914048317336
 20
19.53499060076478
 30
0.0
 10
40.86090860412508
 20
19.53499060076478
 30
0.0
 10
39.90868421200202
 20
19.53499060076478
 30
0.0
 10
39.23551255418426
 20
18.69679886920346
 30
0.0
 10
39.23551255418426
 20
17.52856699015527
 30
0.0
  0
SPLINE
  5
1021
330
70
100
AcDbEntity
  8
Livello 1
100
AcDbSpline
210
0.0
220
0.0
230
1.0
 70
     9
 71
     3
 72
    41
 73
    37
 74
     0
 42
0.000000001
 43
0.0000000001
 40
0.0
 40
0.0
 40
0.0
 40
0.0
 40
1.0
 40
1.0
 40
1.0
 40
2.0
 40
2.0
 40
2.0
 40
3.0
 40
3.0
 40
3.0
 40
4.0
 40
4.0
 40
4.0
 40
5.0
 40
5.0
 40
5.0
 40
6.0
 40
6.0
 40
6.0
 40
7.0
 40
7.0
 40
7.0
 40
8.0
 40
8.0
 40
8.0
 40
9.0
 40
9.0
 40
9.0
 40
10.0
 40
10.0
 40
10.0
 40
11.0
 40
11.0
 40
11.0
 40
12.0
 40
12.0
 40
12.0
 40
12.0
 10
38.82933579647323
 20
12.77950286373837
 30
0.0
 10
39.07049248044075
 20
12.75400915714746
 30
0.0
 10
39.3498897242946
 20
12.77950286373837
 30
0.0
 10
39.7309172849632
 20
12.81774342362465
 30
0.0
 10
40.37859523619016
 20
12.90662688714405
 30
0.0
 10
40.98803262753091
 20
13.17327727770237
 30
0.0
 10
41.45794365171889
 20
13.61769459529952
 30
0.0
 10
42.00399128613105
 20
14.11275481652995
 30
0.0
 10
42.3974211905466
 20
14.83656937798105
 30
0.0
 10
42.55003892054321
 20
15.81428747669488
 30
0.0
 10
42.55003892054321
 20
15.81428747669488
 30
0.0
 10
42.51179836065688
 20
15.81428747669488
 30
0.0
 10
42.51179836065688
 20
15.81428747669488
 30
0.0
 10
42.05463418976416
 20
15.25583749853595
 30
0.0
 10
41.39420938524176
 20
14.92545284150043
 30
0.0
 10
40.56876450697603
 20
14.92545284150043
 30
0.0
 10
39.08323933373629
 20
14.92545284150043
 30
0.0
 10
38.13067043206456
 20
16.04304181691555
 30
0.0
 10
38.13067043206456
 20
17.45243037993126
 30
0.0
 10
38.13067043206456
 20
19.01443667294347
 30
0.0
 10
39.26100626077505
 20
20.38592918562145
 30
0.0
 10
40.94979206764458
 20
20.38592918562145
 30
0.0
 10
42.63892238406259
 20
20.38592918562145
 30
0.0
 10
43.68003023970504
 20
19.01443667294347
 30
0.0
 10
43.68003023970504
 20
16.90638274551915
 30
0.0
 10
43.68003023970504
 20
15.09047291524396
 30
0.0
 10
43.07059284836441
 20
13.82061071938088
 30
0.0
 10
42.257894823394
 20
13.03340640100129
 30
0.0
 10
41.62296372546234
 20
12.41122215636514
 30
0.0
 10
40.7468759435634
 20
12.03019459569645
 30
0.0
 10
39.85769679882031
 20
11.92856427888165
 30
0.0
 10
39.45152004110946
 20
11.86517452195306
 30
0.0
 10
39.09598618703171
 20
11.85242766865764
 30
0.0
 10
38.82933579647323
 20
11.86517452195306
 30
0.0
 10
38.82933579647323
 20
11.86517452195306
 30
0.0
 10
38.82933579647323
 20
12.77950286373837
 30
0.0
 10
38.82933579647323
 20
12.77950286373837
 30
0.0
  0
HATCH
  5
1022
330
70
100
AcDbEntity
  8
Livello 1
440
 33554687
100
AcDbHatch
 10
0.0
 20
0.0
 30
0.0
210
0.0
220
0.0
230
1.0
  2
SOLID
 70
     1
 71
     0
 91
        2
 92
        1
 93
        1
 72
     4
 94
        3
 73
     0
 74
     0
 95
       20
 96
       16
 40
0.0
 40
0.0
 40
0.0
 40
0.0
 40
1.0
 40
1.0
 40
1.0
 40
2.0
 40
2.0
 40
2.0
 40
3.0
 40
3.0
 40
3.0
 40
4.0
 40
4.0
 40
4.0
 40
5.0
 40
5.0
 40
5.0
 40
5.0
 10
39.23551255418426
 20
17.52856699015527
 10
39.23551255418426
 20
16.50020598780816
 10
39.85769679882031
 20
15.77639142635715
 10
40.8230125537874
 20
15.77639142635715
 10
41.57197631228075
 20
15.77639142635715
 10
42.15626450657907
 20
16.14467213373035
 10
42.44840860372824
 20
16.63973235496075
 10
42.51179836065688
 20
16.74136267177565
 10
42.55003892054321
 20
16.86848669518136
 10
42.55003892054321
 20
17.04625362222026
 10
42.55003892054321
 20
18.45564218523594
 10
42.02914048317336
 20
19.53499060076478
 10
40.86090860412508
 20
19.53499060076478
 10
39.90868421200202
 20
19.53499060076478
 10
39.23551255418426
 20
18.69679886920346
 10
39.23551255418426
 20
17.52856699015527
 97
        0
 97
        0
 92
        1
 93
        1
 72
     4
 94
        3
 73
     0
 74
     0
 95
       41
 96
       37
 40
0.0
 40
0.0
 40
0.0
 40
0.0
 40
1.0
 40
1.0
 40
1.0
 40
2.0
 40
2.0
 40
2.0
 40
3.0
 40
3.0
 40
3.0
 40
4.0
 40
4.0
 40
4.0
 40
5.0
 40
5.0
 40
5.0
 40
6.0
 40
6.0
 40
6.0
 40
7.0
 40
7.0
 40
7.0
 40
8.0
 40
8.0
 40
8.0
 40
9.0
 40
9.0
 40
9.0
 40
10.0
 40
10.0
 40
10.0
 40
11.0
 40
11.0
 40
11.0
 40
12.0
 40
12.0
 40
12.0
 40
12.0
 10
38.82933579647323
 20
12.77950286373837
 10
39.07049248044075
 20
12.75400915714746
 10
39.3498897242946
 20
12.77950286373837
 10
39.7309172849632
 20
12.81774342362465
 10
40.37859523619016
 20
12.90662688714405
 10
40.98803262753091
 20
13.17327727770237
 10
41.45794365171889
 20
13.61769459529952
 10
42.00399128613105
 20
14.11275481652995
 10
42.3974211905466
 20
14.83656937798105
 10
42.55003892054321
 20
15.81428747669488
 10
42.55003892054321
 20
15.81428747669488
 10
42.51179836065688
 20
15.81428747669488
 10
42.51179836065688
 20
15.81428747669488
 10
42.05463418976416
 20
15.25583749853595
 10
41.39420938524176
 20
14.92545284150043
 10
40.56876450697603
 20
14.92545284150043
 10
39.08323933373629
 20
14.92545284150043
 10
38.13067043206456
 20
16.04304181691555
 10
38.13067043206456
 20
17.45243037993126
 10
38.13067043206456
 20
19.01443667294347
 10
39.26100626077505
 20
20.38592918562145
 10
40.94979206764458
 20
20.38592918562145
 10
42.63892238406259
 20
20.38592918562145
 10
43.68003023970504
 20
19.01443667294347
 10
43.68003023970504
 20
16.90638274551915
 10
43.68003023970504
 20
15.09047291524396
 10
43.07059284836441
 20
13.82061071938088
 10
42.257894823394
 20
13.03340640100129
 10
41.62296372546234
 20
12.41122215636514
 10
40.7468759435634
 20
12.03019459569645
 10
39.85769679882031
 20
11.92856427888165
 10
39.45152004110946
 20
11.86517452195306
 10
39.09598618703171
 20
11.85242766865764
 10
38.82933579647323
 20
11.86517452195306
 10
38.82933579647323
 20
11.86517452195306
 10
38.82933579647323
 20
12.77950286373837
 10
38.82933579647323
 20
12.77950286373837
 97
        0
 97
        0
 75
     2
 76
     1
 98
        1
 10
-408.2624094259551
 20
194.9871579831169
450
        0
451
        0
460
0.0
461
0.0
452
        0
462
0.0
453
        0
470

  0
ENDSEC
  0
SECTION
  2
OBJECTS
  0
DICTIONARY
  5
C
330
0
100
AcDbDictionary
281
     1
  3
ACAD_CIP_PREVIOUS_PRODUCT_INFO
350
59B
  3
ACAD_COLOR
350
63
  3
ACAD_DETAILVIEWSTYLE
350
6A
  3
ACAD_GROUP
350
D
  3
ACAD_LAYOUT
350
62
  3
ACAD_MATERIAL
350
10
  3
ACAD_MLEADERSTYLE
350
66
  3
ACAD_MLINESTYLE
350
5F
  3
ACAD_PLOTSETTINGS
350
61
  3
ACAD_PLOTSTYLENAME
350
E
  3
ACAD_SCALELIST
350
42
  3
ACAD_SECTIONVIEWSTYLE
350
68
  3
ACAD_TABLESTYLE
350
64
  3
ACAD_VISUALSTYLE
350
29
  3
ACDB_RECOMPOSE_DATA
350
1024
  3
AcDbVariableDictionary
350
558
  0
DICTIONARY
  5
59D
330
70
100
AcDbDictionary
280
     1
281
     1
  3
ACAD_SORTENTS
360
59E
  0
XRECORD
  5
59B
102
{ACAD_REACTORS
330
C
102
}
330
C
100
AcDbXrecord
280
     1
300
ACD
300
2019
300
ACD_F_S
  0
DICTIONARY
  5
63
102
{ACAD_REACTORS
330
C
102
}
330
C
100
AcDbDictionary
281
     1
  0
DICTIONARY
  5
6A
102
{ACAD_REACTORS
330
C
102
}
330
C
100
AcDbDictionary
281
     1
  3
Imperial24
350
6B
  0
DICTIONARY
  5
D
102
{ACAD_REACTORS
330
C
102
}
330
C
100
AcDbDictionary
281
     1
  0
DICTIONARY
  5
62
102
{ACAD_REACTORS
330
C
102
}
330
C
100
AcDbDictionary
281
     1
  3
Layout1
350
6F
  3
Layout2
350
77
  3
Model
350
73
  0
DICTIONARY
  5
10
102
{ACAD_REACTORS
330
C
102
}
330
C
100
AcDbDictionary
281
     1
  3
ByBlock
350
19
  3
ByLayer
350
11
  3
Global
350
21
  0
DICTIONARY
  5
66
102
{ACAD_REACTORS
330
C
102
}
330
C
100
AcDbDictionary
281
     1
  3
Standard
350
67
  0
DICTIONARY
  5
5F
102
{ACAD_REACTORS
330
C
102
}
330
C
100
AcDbDictionary
281
     1
  3
Standard
350
60
  0
DICTIONARY
  5
61
102
{ACAD_REACTORS
330
C
102
}
330
C
100
AcDbDictionary
281
     1
  0
ACDBDICTIONARYWDFLT
  5
E
102
{ACAD_REACTORS
330
C
102
}
330
C
100
AcDbDictionary
281
     1
  3
Normal
350
F
100
AcDbDictionaryWithDefault
340
F
  0
DICTIONARY
  5
42
102
{ACAD_REACTORS
330
C
102
}
330
C
100
AcDbDictionary
281
     1
  3
A0
350
43
  3
A1
350
44
  3
A2
350
45
  3
A3
350
46
  3
A4
350
47
  3
A5
350
48
  3
A6
350
49
  3
A7
350
4A
  3
A8
350
4B
  3
A9
350
4C
  3
B0
350
4D
  3
B1
350
4E
  3
B2
350
4F
  3
B3
350
50
  3
B4
350
51
  3
B5
350
52
  3
B6
350
53
  0
DICTIONARY
  5
68
102
{ACAD_REACTORS
330
C
102
}
330
C
100
AcDbDictionary
281
     1
  3
Imperial24
350
69
  0
DICTIONARY
  5
64
102
{ACAD_REACTORS
330
C
102
}
330
C
100
AcDbDictionary
281
     1
  3
Standard
350
65
  0
DICTIONARY
  5
29
102
{ACAD_REACTORS
330
C
102
}
330
C
100
AcDbDictionary
281
     1
  3
2dWireframe
350
2F
  3
Basic
350
2E
  3
Brighten
350
35
  3
ColorChange
350
39
  3
Conceptual
350
32
  3
Dim
350
34
  3
EdgeColorOff
350
41
  3
Facepattern
350
38
  3
Flat
350
2A
  3
FlatWithEdges
350
2B
  3
Gouraud
350
2C
  3
GouraudWithEdges
350
2D
  3
Hidden
350
31
  3
JitterOff
350
3F
  3
Linepattern
350
37
  3
OverhangOff
350
40
  3
Realistic
350
33
  3
Shaded
350
3E
  3
Shaded with edges
350
3D
  3
Shades of Gray
350
3A
  3
Sketchy
350
3B
  3
Thicken
350
36
  3
Wireframe
350
30
  3
X-Ray
350
3C
  0
XRECORD
  5
1024
102
{ACAD_REACTORS
330
C
102
}
330
C
100
AcDbXrecord
280
     1
 90
        1
330
65
  0
DICTIONARY
  5
558
102
{ACAD_REACTORS
330
C
102
}
330
C
100
AcDbDictionary
281
     1
  3
CANNOSCALE
350
55D
  3
CMLEADERSTYLE
350
55A
  3
CTABLESTYLE
350
559
  3
CVIEWDETAILSTYLE
350
55B
  3
CVIEWSECTIONSTYLE
350
55C
  0
SORTENTSTABLE
  5
59E
102
{ACAD_REACTORS
330
59D
102
}
330
59D
100
AcDbSortentsTable
330
70
  0
ACDBDETAILVIEWSTYLE
  5
6B
102
{ACAD_XDICTIONARY
360
1027
102
}
102
{ACAD_REACTORS
330
6A
102
}
330
6A
100
AcDbModelDocViewStyle
 70
     0
  3
Imperial24
290
     0
100
AcDbDetailViewStyle
 70
     0
 71
     0
 90
        3
 71
     1
340
55
 62
   256
 40
0.24
340
0
 62
   256
 40
0.24
300

 40
0.36
280
     3
 71
     2
340
5D
 90
       25
 62
   256
 71
     3
340
55
 62
   256
 40
0.24
 90
        1
 40
0.75
 90
        1
300
%<\AcVar ViewType \f "%tc1">% %<\AcVar ViewDetailId>%\PSCALE %<\AcVar ViewScale \f "%sn">%
 71
     4
340
5D
 90
       25
 62
   256
340
5D
 90
       25
 62
   256
280
     0
  0
LAYOUT
  5
6F
102
{ACAD_REACTORS
330
62
102
}
330
62
100
AcDbPlotSettings
  1

  2

  4

  6

 40
0.0
 41
0.0
 42
0.0
 43
0.0
 44
0.0
 45
0.0
 46
0.0
 47
0.0
 48
0.0
 49
0.0
140
0.0
141
0.0
142
1.0
143
1.0
 70
   688
 72
     0
 73
     0
 74
     5
  7

 75
    16
147
1.0
 76
     0
 77
     2
 78
   300
148
0.0
149
0.0
100
AcDbLayout
  1
Layout1
 70
     1
 71
     1
 10
0.0
 20
0.0
 11
12.0
 21
9.0
 12
0.0
 22
0.0
 32
0.0
 14
1.000000000000000E+20
 24
1.000000000000000E+20
 34
1.000000000000000E+20
 15
-1.000000000000000E+20
 25
-1.000000000000000E+20
 35
-1.000000000000000E+20
146
0.0
 13
0.0
 23
0.0
 33
0.0
 16
1.0
 26
0.0
 36
0.0
 17
0.0
 27
1.0
 37
0.0
 76
     0
330
6C
  0
LAYOUT
  5
77
102
{ACAD_REACTORS
330
62
102
}
330
62
100
AcDbPlotSettings
  1

  2

  4

  6

 40
0.0
 41
0.0
 42
0.0
 43
0.0
 44
0.0
 45
0.0
 46
0.0
 47
0.0
 48
0.0
 49
0.0
140
0.0
141
0.0
142
1.0
143
1.0
 70
   688
 72
     0
 73
     0
 74
     5
  7

 75
    16
147
1.0
 76
     0
 77
     2
 78
   300
148
0.0
149
0.0
100
AcDbLayout
  1
Layout2
 70
     1
 71
     2
 10
0.0
 20
0.0
 11
12.0
 21
9.0
 12
0.0
 22
0.0
 32
0.0
 14
0.0
 24
0.0
 34
0.0
 15
0.0
 25
0.0
 35
0.0
146
0.0
 13
0.0
 23
0.0
 33
0.0
 16
1.0
 26
0.0
 36
0.0
 17
0.0
 27
1.0
 37
0.0
 76
     0
330
74
  0
LAYOUT
  5
73
102
{ACAD_REACTORS
330
62
102
}
330
62
100
AcDbPlotSettings
  1

  2

  4

  6

 40
0.0
 41
0.0
 42
0.0
 43
0.0
 44
0.0
 45
0.0
 46
0.0
 47
0.0
 48
0.0
 49
0.0
140
0.0
141
0.0
142
1.0
143
1.0
 70
  1712
 72
     0
 73
     0
 74
     0
  7

 75
     0
147
1.0
 76
     0
 77
     2
 78
   300
148
0.0
149
0.0
100
AcDbLayout
  1
Model
 70
     1
 71
     0
 10
0.0
 20
0.0
 11
12.0
 21
9.0
 12
0.0
 22
0.0
 32
0.0
 14
0.0
 24
0.0
 34
0.0
 15
0.0
 25
0.0
 35
0.0
146
0.0
 13
0.0
 23
0.0
 33
0.0
 16
1.0
 26
0.0
 36
0.0
 17
0.0
 27
1.0
 37
0.0
 76
     0
330
70
331
57
  0
MATERIAL
  5
19
102
{ACAD_XDICTIONARY
360
1A
102
}
102
{ACAD_REACTORS
330
10
102
}
330
10
100
AcDbMaterial
  1
ByBlock
 72
     0
 43
0.0208333333333333
 43
0.0
 43
0.0
 43
0.0
 43
0.0
 43
0.0208333333333333
 43
0.0
 43
0.0
 43
0.0
 43
0.0
 43
1.0
 43
0.0
 43
0.0
 43
0.0
 43
0.0
 43
1.0
 77
     0
 47
0.0208333333333333
 47
0.0
 47
0.0
 47
0.0
 47
0.0
 47
0.0208333333333333
 47
0.0
 47
0.0
 47
0.0
 47
0.0
 47
1.0
 47
0.0
 47
0.0
 47
0.0
 47
0.0
 47
1.0
171
     0
 49
0.0208333333333333
 49
0.0
 49
0.0
 49
0.0
 49
0.0
 49
0.0208333333333333
 49
0.0
 49
0.0
 49
0.0
 49
0.0
 49
1.0
 49
0.0
 49
0.0
 49
0.0
 49
0.0
 49
1.0
175
     0
142
0.0208333333333333
142
0.0
142
0.0
142
0.0
142
0.0
142
0.0208333333333333
142
0.0
142
0.0
142
0.0
142
0.0
142
1.0
142
0.0
142
0.0
142
0.0
142
0.0
142
1.0
179
     0
144
0.0208333333333333
144
0.0
144
0.0
144
0.0
144
0.0
144
0.0208333333333333
144
0.0
144
0.0
144
0.0
144
0.0
144
1.0
144
0.0
144
0.0
144
0.0
144
0.0
144
1.0
147
0.0208333333333333
147
0.0
147
0.0
147
0.0
147
0.0
147
0.0208333333333333
147
0.0
147
0.0
147
0.0
147
0.0
147
1.0
147
0.0
147
0.0
147
0.0
147
0.0
147
1.0
  0
MATERIAL
  5
11
102
{ACAD_XDICTIONARY
360
12
102
}
102
{ACAD_REACTORS
330
10
102
}
330
10
100
AcDbMaterial
  1
ByLayer
 72
     0
 43
0.0208333333333333
 43
0.0
 43
0.0
 43
0.0
 43
0.0
 43
0.0208333333333333
 43
0.0
 43
0.0
 43
0.0
 43
0.0
 43
1.0
 43
0.0
 43
0.0
 43
0.0
 43
0.0
 43
1.0
 77
     0
 47
0.0208333333333333
 47
0.0
 47
0.0
 47
0.0
 47
0.0
 47
0.0208333333333333
 47
0.0
 47
0.0
 47
0.0
 47
0.0
 47
1.0
 47
0.0
 47
0.0
 47
0.0
 47
0.0
 47
1.0
171
     0
 49
0.0208333333333333
 49
0.0
 49
0.0
 49
0.0
 49
0.0
 49
0.0208333333333333
 49
0.0
 49
0.0
 49
0.0
 49
0.0
 49
1.0
 49
0.0
 49
0.0
 49
0.0
 49
0.0
 49
1.0
175
     0
142
0.0208333333333333
142
0.0
142
0.0
142
0.0
142
0.0
142
0.0208333333333333
142
0.0
142
0.0
142
0.0
142
0.0
142
1.0
142
0.0
142
0.0
142
0.0
142
0.0
142
1.0
179
     0
144
0.0208333333333333
144
0.0
144
0.0
144
0.0
144
0.0
144
0.0208333333333333
144
0.0
144
0.0
144
0.0
144
0.0
144
1.0
144
0.0
144
0.0
144
0.0
144
0.0
144
1.0
147
0.0208333333333333
147
0.0
147
0.0
147
0.0
147
0.0
147
0.0208333333333333
147
0.0
147
0.0
147
0.0
147
0.0
147
1.0
147
0.0
147
0.0
147
0.0
147
0.0
147
1.0
  0
MATERIAL
  5
21
102
{ACAD_XDICTIONARY
360
22
102
}
102
{ACAD_REACTORS
330
10
102
}
330
10
100
AcDbMaterial
  1
Global
 72
     0
 43
0.0208333333333333
 43
0.0
 43
0.0
 43
0.0
 43
0.0
 43
0.0208333333333333
 43
0.0
 43
0.0
 43
0.0
 43
0.0
 43
1.0
 43
0.0
 43
0.0
 43
0.0
 43
0.0
 43
1.0
 77
     0
 47
0.0208333333333333
 47
0.0
 47
0.0
 47
0.0
 47
0.0
 47
0.0208333333333333
 47
0.0
 47
0.0
 47
0.0
 47
0.0
 47
1.0
 47
0.0
 47
0.0
 47
0.0
 47
0.0
 47
1.0
171
     0
 49
0.0208333333333333
 49
0.0
 49
0.0
 49
0.0
 49
0.0
 49
0.0208333333333333
 49
0.0
 49
0.0
 49
0.0
 49
0.0
 49
1.0
 49
0.0
 49
0.0
 49
0.0
 49
0.0
 49
1.0
175
     0
142
0.0208333333333333
142
0.0
142
0.0
142
0.0
142
0.0
142
0.0208333333333333
142
0.0
142
0.0
142
0.0
142
0.0
142
1.0
142
0.0
142
0.0
142
0.0
142
0.0
142
1.0
179
     0
144
0.0208333333333333
144
0.0
144
0.0
144
0.0
144
0.0
144
0.0208333333333333
144
0.0
144
0.0
144
0.0
144
0.0
144
1.0
144
0.0
144
0.0
144
0.0
144
0.0
144
1.0
147
0.0208333333333333
147
0.0
147
0.0
147
0.0
147
0.0
147
0.0208333333333333
147
0.0
147
0.0
147
0.0
147
0.0
147
1.0
147
0.0
147
0.0
147
0.0
147
0.0
147
1.0
  0
MLEADERSTYLE
  5
67
102
{ACAD_REACTORS
330
66
102
}
330
66
100
AcDbMLeaderStyle
179
     2
170
     2
171
     1
172
     0
 90
        2
 40
0.0
 41
0.0
173
     1
 91
-1056964608
340
5B
 92
       -2
290
     1
 42
0.09
291
     1
 43
0.36
  3
Standard
 44
0.18
300

342
55
174
     1
178
     6
175
     1
176
     0
 93
-1056964608
 45
0.18
292
     0
297
     0
 46
0.18
 94
-1056964608
 47
1.0
 49
1.0
140
1.0
293
     1
141
0.0
294
     1
177
     0
142
1.0
295
     0
296
     0
143
0.125
271
     0
272
     9
273
     9
298
     1
  0
MLINESTYLE
  5
60
102
{ACAD_REACTORS
330
5F
102
}
330
5F
100
AcDbMlineStyle
  2
STANDARD
 70
     0
  3

 62
   256
 51
90.0
 52
90.0
 71
     2
 49
0.5
 62
   256
  6
BYLAYER
 49
-0.5
 62
   256
  6
BYLAYER
  0
ACDBPLACEHOLDER
  5
F
102
{ACAD_REACTORS
330
E
102
}
330
E
  0
SCALE
  5
43
102
{ACAD_REACTORS
330
42
102
}
330
42
100
AcDbScale
 70
     0
300
1:1
140
1.0
141
1.0
290
     1
  0
SCALE
  5
44
102
{ACAD_REACTORS
330
42
102
}
330
42
100
AcDbScale
 70
     0
300
1/128" = 1'-0"
140
0.0078125
141
12.0
290
     0
  0
SCALE
  5
45
102
{ACAD_REACTORS
330
42
102
}
330
42
100
AcDbScale
 70
     0
300
1/64" = 1'-0"
140
0.015625
141
12.0
290
     0
  0
SCALE
  5
46
102
{ACAD_REACTORS
330
42
102
}
330
42
100
AcDbScale
 70
     0
300
1/32" = 1'-0"
140
0.03125
141
12.0
290
     0
  0
SCALE
  5
47
102
{ACAD_REACTORS
330
42
102
}
330
42
100
AcDbScale
 70
     0
300
1/16" = 1'-0"
140
0.0625
141
12.0
290
     0
  0
SCALE
  5
48
102
{ACAD_REACTORS
330
42
102
}
330
42
100
AcDbScale
 70
     0
300
3/32" = 1'-0"
140
0.09375
141
12.0
290
     0
  0
SCALE
  5
49
102
{ACAD_REACTORS
330
42
102
}
330
42
100
AcDbScale
 70
     0
300
1/8" = 1'-0"
140
0.125
141
12.0
290
     0
  0
SCALE
  5
4A
102
{ACAD_REACTORS
330
42
102
}
330
42
100
AcDbScale
 70
     0
300
3/16" = 1'-0"
140
0.1875
141
12.0
290
     0
  0
SCALE
  5
4B
102
{ACAD_REACTORS
330
42
102
}
330
42
100
AcDbScale
 70
     0
300
1/4" = 1'-0"
140
0.25
141
12.0
290
     0
  0
SCALE
  5
4C
102
{ACAD_REACTORS
330
42
102
}
330
42
100
AcDbScale
 70
     0
300
3/8" = 1'-0"
140
0.375
141
12.0
290
     0
  0
SCALE
  5
4D
102
{ACAD_REACTORS
330
42
102
}
330
42
100
AcDbScale
 70
     0
300
1/2" = 1'-0"
140
0.5
141
12.0
290
     0
  0
SCALE
  5
4E
102
{ACAD_REACTORS
330
42
102
}
330
42
100
AcDbScale
 70
     0
300
3/4" = 1'-0"
140
0.75
141
12.0
290
     0
  0
SCALE
  5
4F
102
{ACAD_REACTORS
330
42
102
}
330
42
100
AcDbScale
 70
     0
300
1" = 1'-0"
140
1.0
141
12.0
290
     0
  0
SCALE
  5
50
102
{ACAD_REACTORS
330
42
102
}
330
42
100
AcDbScale
 70
     0
300
1-1/2" = 1'-0"
140
1.5
141
12.0
290
     0
  0
SCALE
  5
51
102
{ACAD_REACTORS
330
42
102
}
330
42
100
AcDbScale
 70
     0
300
3" = 1'-0"
140
3.0
141
12.0
290
     0
  0
SCALE
  5
52
102
{ACAD_REACTORS
330
42
102
}
330
42
100
AcDbScale
 70
     0
300
6" = 1'-0"
140
6.0
141
12.0
290
     0
  0
SCALE
  5
53
102
{ACAD_REACTORS
330
42
102
}
330
42
100
AcDbScale
 70
     0
300
1'-0" = 1'-0"
140
12.0
141
12.0
290
     0
  0
ACDBSECTIONVIEWSTYLE
  5
69
102
{ACAD_XDICTIONARY
360
1025
102
}
102
{ACAD_REACTORS
330
68
102
}
330
68
100
AcDbModelDocViewStyle
 70
     0
  3
Imperial24
290
     0
100
AcDbSectionViewStyle
 70
     0
 71
     0
 90
       78
 71
     1
340
55
 62
   256
 40
0.24
340
0
340
0
 62
   256
 40
0.24
300
I, O, Q, S, X, Z
 40
0.48
 90
        3
 40
0.18
 90
        1
 71
     2
340
5D
 90
       25
 62
   256
340
5D
 90
       50
 62
   256
 40
0.24
 40
0.0
 40
0.24
 71
     3
340
55
 62
   256
 40
0.24
 90
        1
 40
0.75
 90
        1
300
%<\AcVar ViewType \f "%tc1">% %<\AcVar ViewSectionStartId>%-%<\AcVar ViewSectionEndId>%\PSCALE %<\AcVar ViewScale \f "%sn">%
 71
     4
 62
   256
 62
   257
300
ANSI31
 40
1.0
 90
        0
290
     0
290
     0
 90
        6
 40
0.0
 40
1.570796326794896
 40
0.2617993877991494
 40
1.308996938995747
 40
-0.2617993877991494
 40
1.832595714594045
  0
TABLESTYLE
  5
65
102
{ACAD_XDICTIONARY
360
55E
102
}
102
{ACAD_REACTORS
330
64
102
}
330
64
100
AcDbTableStyle
280
     0
  3
Standard
 70
     0
 71
     0
 40
0.06
 41
0.06
280
     0
281
     0
  7
Standard
140
0.18
170
     2
 62
     0
 63
     7
283
     0
 90
      512
 91
        0
  1

274
    -2
284
     1
 64
     0
275
    -2
285
     1
 65
     0
276
    -2
286
     1
 66
     0
277
    -2
287
     1
 67
     0
278
    -2
288
     1
 68
     0
279
    -2
289
     1
 69
     0
  7
Standard
140
0.25
170
     5
 62
     0
 63
     7
283
     0
 90
      512
 91
        0
  1

274
    -2
284
     1
 64
     0
275
    -2
285
     1
 65
     0
276
    -2
286
     1
 66
     0
277
    -2
287
     1
 67
     0
278
    -2
288
     1
 68
     0
279
    -2
289
     1
 69
     0
  7
Standard
140
0.18
170
     5
 62
     0
 63
     7
283
     0
 90
      512
 91
        0
  1

274
    -2
284
     1
 64
     0
275
    -2
285
     1
 65
     0
276
    -2
286
     1
 66
     0
277
    -2
287
     1
 67
     0
278
    -2
288
     1
 68
     0
279
    -2
289
     1
 69
     0
  0
VISUALSTYLE
  5
2F
102
{ACAD_REACTORS
330
29
102
}
330
29
100
AcDbVisualStyle
  2
2dWireframe
 70
     4
177
     3
291
     0
 70
    58
 90
        0
176
     1
 90
        2
176
     1
 90
        0
176
     1
 90
        0
176
     1
 40
0.6
176
     1
 40
30.0
176
     1
 62
     7
420
 16777215
176
     1
 90
        1
176
     1
 90
        4
176
     1
 62
     7
176
     1
 62
   257
176
     1
 90
        1
176
     1
 90
        1
176
     1
 40
1.0
176
     1
 90
        0
176
     1
 62
   257
176
     1
 40
1.0
176
     1
 90
        1
176
     1
 90
        6
176
     1
 90
        2
176
     1
 62
     7
176
     1
 90
        5
176
     1
 90
        0
176
     1
 90
        0
176
     1
290
     0
176
     1
 90
        1
176
     1
 40
0.0
176
     1
 90
        0
176
     1
290
     1
176
     1
290
     1
176
     1
290
     0
176
     1
290
     0
176
     1
290
     0
176
     1
290
     0
176
     1
290
     0
176
     1
290
     0
176
     1
290
     0
176
     1
 90
       50
176
     1
 40
0.0
176
     1
 40
1.0
176
     1
 90
        0
176
     1
 62
    18
420
        0
176
     1
 90
       50
176
     1
 90
        3
176
     1
 62
     5
420
      255
176
     1
290
     0
176
     1
 90
       50
176
     1
 90
       50
176
     1
 90
       50
176
     1
290
     0
176
     1
 90
       50
176
     1
 62
   256
176
     0
 40
1.0
176
     0
 90
        2
176
     1
  1
strokes_ogs.tif
176
     1
290
     0
176
     1
 40
1.0
176
     1
 40
1.0
176
     1
1001
ACAD
1000
AcDbSavedByObjectVersion
1070
     0
  0
VISUALSTYLE
  5
2E
102
{ACAD_REACTORS
330
29
102
}
330
29
100
AcDbVisualStyle
  2
Basic
 70
     7
177
     3
291
     1
 70
    58
 90
        1
176
     1
 90
        0
176
     1
 90
        1
176
     1
 90
        0
176
     1
 40
0.6
176
     1
 40
30.0
176
     1
 62
     7
420
 16777215
176
     1
 90
        0
176
     1
 90
        4
176
     1
 62
     7
176
     1
 62
   257
176
     1
 90
        1
176
     1
 90
        1
176
     1
 40
1.0
176
     1
 90
        8
176
     1
 62
     7
176
     1
 40
1.0
176
     1
 90
        1
176
     1
 90
        6
176
     1
 90
        2
176
     1
 62
     7
176
     1
 90
        5
176
     1
 90
        0
176
     1
 90
        0
176
     1
290
     0
176
     1
 90
        1
176
     1
 40
0.0
176
     1
 90
        0
176
     1
290
     0
176
     1
290
     1
176
     1
290
     1
176
     1
290
     0
176
     1
290
     0
176
     1
290
     0
176
     1
290
     0
176
     1
290
     0
176
     1
290
     0
176
     1
 90
       50
176
     1
 40
0.0
176
     1
 40
1.0
176
     1
 90
        0
176
     1
 62
    18
420
        0
176
     1
 90
       50
176
     1
 90
        3
176
     1
 62
     5
420
      255
176
     1
290
     0
176
     1
 90
       50
176
     1
 90
       50
176
     1
 90
       50
176
     1
290
     0
176
     1
 90
       50
176
     1
 62
   256
176
     0
 40
1.0
176
     0
 90
        2
176
     1
  1
strokes_ogs.tif
176
     1
290
     0
176
     1
 40
1.0
176
     1
 40
1.0
176
     1
1001
ACAD
1000
AcDbSavedByObjectVersion
1070
     0
  0
VISUALSTYLE
  5
35
102
{ACAD_REACTORS
330
29
102
}
330
29
100
AcDbVisualStyle
  2
Brighten
 70
    12
177
     3
291
     1
 70
    58
 90
        2
176
     1
 90
        2
176
     1
 90
        0
176
     1
 90
        0
176
     1
 40
0.6
176
     1
 40
30.0
176
     1
 62
     7
420
 16777215
176
     1
 90
        1
176
     1
 90
        4
176
     1
 62
     7
176
     1
 62
   257
176
     1
 90
        1
176
     1
 90
        1
176
     1
 40
1.0
176
     1
 90
        8
176
     1
 62
     7
176
     1
 40
1.0
176
     1
 90
        1
176
     1
 90
        6
176
     1
 90
        2
176
     1
 62
     7
176
     1
 90
        5
176
     1
 90
        0
176
     1
 90
        0
176
     1
290
     0
176
     1
 90
        1
176
     1
 40
50.0
176
     1
 90
        0
176
     1
290
     0
176
     1
290
     1
176
     1
290
     1
176
     1
290
     0
176
     1
290
     0
176
     1
290
     0
176
     1
290
     0
176
     1
290
     0
176
     1
290
     0
176
     1
 90
       50
176
     1
 40
0.0
176
     1
 40
1.0
176
     1
 90
        0
176
     1
 62
    18
420
        0
176
     1
 90
       50
176
     1
 90
        3
176
     1
 62
     5
420
      255
176
     1
290
     0
176
     1
 90
       50
176
     1
 90
       50
176
     1
 90
       50
176
     1
290
     0
176
     1
 90
       50
176
     1
 62
   256
176
     0
 40
1.0
176
     0
 90
        2
176
     1
  1
strokes_ogs.tif
176
     1
290
     0
176
     1
 40
1.0
176
     1
 40
1.0
176
     1
1001
ACAD
1000
AcDbSavedByObjectVersion
1070
     0
  0
VISUALSTYLE
  5
39
102
{ACAD_REACTORS
330
29
102
}
330
29
100
AcDbVisualStyle
  2
ColorChange
 70
    16
177
     3
291
     1
 70
    58
 90
        2
176
     1
 90
        2
176
     1
 90
        3
176
     1
 90
        0
176
     1
 40
0.6
176
     1
 40
30.0
176
     1
 62
     8
420
  8421504
176
     1
 90
        1
176
     1
 90
        4
176
     1
 62
     7
176
     1
 62
   257
176
     1
 90
        1
176
     1
 90
        1
176
     1
 40
1.0
176
     1
 90
        8
176
     1
 62
     8
420
  8421504
176
     1
 40
1.0
176
     1
 90
        1
176
     1
 90
        6
176
     1
 90
        2
176
     1
 62
     7
176
     1
 90
        5
176
     1
 90
        0
176
     1
 90
        0
176
     1
290
     0
176
     1
 90
        1
176
     1
 40
0.0
176
     1
 90
        0
176
     1
290
     0
176
     1
290
     1
176
     1
290
     1
176
     1
290
     0
176
     1
290
     0
176
     1
290
     0
176
     1
290
     0
176
     1
290
     0
176
     1
290
     0
176
     1
 90
       50
176
     1
 40
0.0
176
     1
 40
1.0
176
     1
 90
        0
176
     1
 62
    18
420
        0
176
     1
 90
       50
176
     1
 90
        3
176
     1
 62
     5
420
      255
176
     1
290
     0
176
     1
 90
       50
176
     1
 90
       50
176
     1
 90
       50
176
     1
290
     0
176
     1
 90
       50
176
     1
 62
   256
176
     0
 40
1.0
176
     0
 90
        2
176
     1
  1
strokes_ogs.tif
176
     1
290
     0
176
     1
 40
1.0
176
     1
 40
1.0
176
     1
1001
ACAD
1000
AcDbSavedByObjectVersion
1070
     0
  0
VISUALSTYLE
  5
32
102
{ACAD_REACTORS
330
29
102
}
330
29
100
AcDbVisualStyle
  2
Conceptual
 70
     9
177
     3
291
     0
 70
    58
 90
        3
176
     1
 90
        2
176
     1
 90
        0
176
     1
 90
        0
176
     1
 40
0.6
176
     1
 40
30.0
176
     1
 62
     7
420
 16777215
176
     1
 90
        2
176
     1
 90
        2
176
     1
 62
     7
176
     1
 62
   257
176
     1
 90
        1
176
     1
 90
        1
176
     1
 40
179.0
176
     1
 90
        8
176
     1
 62
     7
176
     1
 40
1.0
176
     1
 90
        1
176
     1
 90
        6
176
     1
 90
        2
176
     1
 62
     7
176
     1
 90
        3
176
     1
 90
        0
176
     1
 90
        0
176
     1
290
     0
176
     1
 90
        1
176
     1
 40
0.0
176
     1
 90
        0
176
     1
290
     0
176
     1
290
     1
176
     1
290
     1
176
     1
290
     0
176
     1
290
     0
176
     1
290
     0
176
     1
290
     0
176
     1
290
     0
176
     1
290
     0
176
     1
 90
       50
176
     1
 40
0.0
176
     1
 40
1.0
176
     1
 90
        0
176
     1
 62
    18
420
        0
176
     1
 90
       50
176
     1
 90
        3
176
     1
 62
     5
420
      255
176
     1
290
     0
176
     1
 90
       50
176
     1
 90
       50
176
     1
 90
       50
176
     1
290
     0
176
     1
 90
       50
176
     1
 62
   256
176
     0
 40
1.0
176
     0
 90
        2
176
     1
  1
strokes_ogs.tif
176
     1
290
     0
176
     1
 40
1.0
176
     1
 40
1.0
176
     1
1001
ACAD
1000
AcDbSavedByObjectVersion
1070
     0
  0
VISUALSTYLE
  5
34
102
{ACAD_REACTORS
330
29
102
}
330
29
100
AcDbVisualStyle
  2
Dim
 70
    11
177
     3
291
     1
 70
    58
 90
        2
176
     1
 90
        2
176
     1
 90
        0
176
     1
 90
        0
176
     1
 40
0.6
176
     1
 40
30.0
176
     1
 62
     7
420
 16777215
176
     1
 90
        1
176
     1
 90
        4
176
     1
 62
     7
176
     1
 62
   257
176
     1
 90
        1
176
     1
 90
        1
176
     1
 40
1.0
176
     1
 90
        8
176
     1
 62
     7
176
     1
 40
1.0
176
     1
 90
        1
176
     1
 90
        6
176
     1
 90
        2
176
     1
 62
     7
176
     1
 90
        5
176
     1
 90
        0
176
     1
 90
        0
176
     1
290
     0
176
     1
 90
        1
176
     1
 40
-50.0
176
     1
 90
        0
176
     1
290
     0
176
     1
290
     1
176
     1
290
     1
176
     1
290
     0
176
     1
290
     0
176
     1
290
     0
176
     1
290
     0
176
     1
290
     0
176
     1
290
     0
176
     1
 90
       50
176
     1
 40
0.0
176
     1
 40
1.0
176
     1
 90
        0
176
     1
 62
    18
420
        0
176
     1
 90
       50
176
     1
 90
        3
176
     1
 62
     5
420
      255
176
     1
290
     0
176
     1
 90
       50
176
     1
 90
       50
176
     1
 90
       50
176
     1
290
     0
176
     1
 90
       50
176
     1
 62
   256
176
     0
 40
1.0
176
     0
 90
        2
176
     1
  1
strokes_ogs.tif
176
     1
290
     0
176
     1
 40
1.0
176
     1
 40
1.0
176
     1
1001
ACAD
1000
AcDbSavedByObjectVersion
1070
     0
  0
VISUALSTYLE
  5
41
102
{ACAD_REACTORS
330
29
102
}
330
29
100
AcDbVisualStyle
  2
EdgeColorOff
 70
    22
177
     3
291
     1
 70
    58
 90
        2
176
     0
 90
        2
176
     0
 90
        0
176
     0
 90
        0
176
     0
 40
0.6
176
     0
 40
30.0
176
     0
 62
     7
420
 16777215
176
     0
 90
        1
176
     0
 90
        4
176
     0
 62
     7
176
     0
 62
   257
176
     0
 90
        1
176
     0
 90
        1
176
     0
 40
1.0
176
     0
 90
        8
176
     2
 62
     7
176
     0
 40
1.0
176
     0
 90
        1
176
     0
 90
        6
176
     0
 90
        2
176
     0
 62
     7
176
     0
 90
        5
176
     0
 90
        0
176
     0
 90
        0
176
     0
290
     0
176
     0
 90
        1
176
     0
 40
0.0
176
     0
 90
        0
176
     0
290
     0
176
     0
290
     1
176
     0
290
     1
176
     0
290
     0
176
     0
290
     0
176
     0
290
     0
176
     0
290
     0
176
     0
290
     0
176
     0
290
     0
176
     0
 90
       50
176
     0
 40
0.0
176
     0
 40
1.0
176
     0
 90
        0
176
     0
 62
    18
420
        0
176
     0
 90
       50
176
     0
 90
        3
176
     0
 62
     5
420
      255
176
     0
290
     0
176
     0
 90
       50
176
     0
 90
       50
176
     0
 90
       50
176
     0
290
     0
176
     0
 90
       50
176
     0
 62
   256
176
     0
 40
1.0
176
     0
 90
        2
176
     0
  1
strokes_ogs.tif
176
     0
290
     0
176
     0
 40
1.0
176
     0
 40
1.0
176
     0
1001
ACAD
1000
AcDbSavedByObjectVersion
1070
     0
  0
VISUALSTYLE
  5
38
102
{ACAD_REACTORS
330
29
102
}
330
29
100
AcDbVisualStyle
  2
Facepattern
 70
    15
177
     3
291
     1
 70
    58
 90
        2
176
     1
 90
        2
176
     1
 90
        0
176
     1
 90
        0
176
     1
 40
0.6
176
     1
 40
30.0
176
     1
 62
     7
420
 16777215
176
     1
 90
        1
176
     1
 90
        4
176
     1
 62
     7
176
     1
 62
   257
176
     1
 90
        1
176
     1
 90
        1
176
     1
 40
1.0
176
     1
 90
        8
176
     1
 62
     7
176
     1
 40
1.0
176
     1
 90
        1
176
     1
 90
        6
176
     1
 90
        2
176
     1
 62
     7
176
     1
 90
        5
176
     1
 90
        0
176
     1
 90
        0
176
     1
290
     0
176
     1
 90
        1
176
     1
 40
0.0
176
     1
 90
        0
176
     1
290
     0
176
     1
290
     1
176
     1
290
     1
176
     1
290
     0
176
     1
290
     0
176
     1
290
     0
176
     1
290
     0
176
     1
290
     0
176
     1
290
     0
176
     1
 90
       50
176
     1
 40
0.0
176
     1
 40
1.0
176
     1
 90
        0
176
     1
 62
    18
420
        0
176
     1
 90
       50
176
     1
 90
        3
176
     1
 62
     5
420
      255
176
     1
290
     0
176
     1
 90
       50
176
     1
 90
       50
176
     1
 90
       50
176
     1
290
     0
176
     1
 90
       50
176
     1
 62
   256
176
     0
 40
1.0
176
     0
 90
        2
176
     1
  1
strokes_ogs.tif
176
     1
290
     0
176
     1
 40
1.0
176
     1
 40
1.0
176
     1
1001
ACAD
1000
AcDbSavedByObjectVersion
1070
     0
  0
VISUALSTYLE
  5
2A
102
{ACAD_REACTORS
330
29
102
}
330
29
100
AcDbVisualStyle
  2
Flat
 70
     0
177
     3
291
     1
 70
    58
 90
        2
176
     1
 90
        1
176
     1
 90
        1
176
     1
 90
        2
176
     1
 40
0.6
176
     1
 40
30.0
176
     1
 62
     7
420
 16777215
176
     1
 90
        0
176
     1
 90
        0
176
     1
 62
     7
176
     1
 62
   257
176
     1
 90
        1
176
     1
 90
        1
176
     1
 40
1.0
176
     1
 90
        8
176
     1
 62
     7
176
     1
 40
1.0
176
     1
 90
        1
176
     1
 90
        6
176
     1
 90
        2
176
     1
 62
     7
176
     1
 90
        5
176
     1
 90
        0
176
     1
 90
        0
176
     1
290
     0
176
     1
 90
       13
176
     1
 40
0.0
176
     1
 90
        0
176
     1
290
     0
176
     1
290
     1
176
     1
290
     1
176
     1
290
     0
176
     1
290
     0
176
     1
290
     0
176
     1
290
     0
176
     1
290
     0
176
     1
290
     0
176
     1
 90
       50
176
     1
 40
0.0
176
     1
 40
1.0
176
     1
 90
        0
176
     1
 62
    18
420
        0
176
     1
 90
       50
176
     1
 90
        3
176
     1
 62
     5
420
      255
176
     1
290
     0
176
     1
 90
       50
176
     1
 90
       50
176
     1
 90
       50
176
     1
290
     0
176
     1
 90
       50
176
     1
 62
   256
176
     0
 40
1.0
176
     0
 90
        2
176
     1
  1
strokes_ogs.tif
176
     1
290
     0
176
     1
 40
1.0
176
     1
 40
1.0
176
     1
1001
ACAD
1000
AcDbSavedByObjectVersion
1070
     0
  0
VISUALSTYLE
  5
2B
102
{ACAD_REACTORS
330
29
102
}
330
29
100
AcDbVisualStyle
  2
FlatWithEdges
 70
     1
177
     3
291
     1
 70
    58
 90
        2
176
     1
 90
        1
176
     1
 90
        1
176
     1
 90
        2
176
     1
 40
0.6
176
     1
 40
30.0
176
     1
 62
     7
420
 16777215
176
     1
 90
        1
176
     1
 90
        0
176
     1
 62
     7
176
     1
 62
   257
176
     1
 90
        1
176
     1
 90
        1
176
     1
 40
1.0
176
     1
 90
        0
176
     1
 62
   257
176
     1
 40
1.0
176
     1
 90
        1
176
     1
 90
        6
176
     1
 90
        2
176
     1
 62
     7
176
     1
 90
        5
176
     1
 90
        0
176
     1
 90
        0
176
     1
290
     0
176
     1
 90
       13
176
     1
 40
0.0
176
     1
 90
        0
176
     1
290
     0
176
     1
290
     1
176
     1
290
     1
176
     1
290
     0
176
     1
290
     0
176
     1
290
     0
176
     1
290
     0
176
     1
290
     0
176
     1
290
     0
176
     1
 90
       50
176
     1
 40
0.0
176
     1
 40
1.0
176
     1
 90
        0
176
     1
 62
    18
420
        0
176
     1
 90
       50
176
     1
 90
        3
176
     1
 62
     5
420
      255
176
     1
290
     0
176
     1
 90
       50
176
     1
 90
       50
176
     1
 90
       50
176
     1
290
     0
176
     1
 90
       50
176
     1
 62
   256
176
     0
 40
1.0
176
     0
 90
        2
176
     1
  1
strokes_ogs.tif
176
     1
290
     0
176
     1
 40
1.0
176
     1
 40
1.0
176
     1
1001
ACAD
1000
AcDbSavedByObjectVersion
1070
     0
  0
VISUALSTYLE
  5
2C
102
{ACAD_REACTORS
330
29
102
}
330
29
100
AcDbVisualStyle
  2
Gouraud
 70
     2
177
     3
291
     1
 70
    58
 90
        2
176
     1
 90
        2
176
     1
 90
        1
176
     1
 90
        2
176
     1
 40
0.6
176
     1
 40
30.0
176
     1
 62
     7
420
 16777215
176
     1
 90
        0
176
     1
 90
        0
176
     1
 62
     7
176
     1
 62
   257
176
     1
 90
        1
176
     1
 90
        1
176
     1
 40
1.0
176
     1
 90
        0
176
     1
 62
     7
176
     1
 40
1.0
176
     1
 90
        1
176
     1
 90
        6
176
     1
 90
        2
176
     1
 62
     7
176
     1
 90
        5
176
     1
 90
        0
176
     1
 90
        0
176
     1
290
     0
176
     1
 90
       13
176
     1
 40
0.0
176
     1
 90
        0
176
     1
290
     0
176
     1
290
     1
176
     1
290
     1
176
     1
290
     0
176
     1
290
     0
176
     1
290
     0
176
     1
290
     0
176
     1
290
     0
176
     1
290
     0
176
     1
 90
       50
176
     1
 40
0.0
176
     1
 40
1.0
176
     1
 90
        0
176
     1
 62
    18
420
        0
176
     1
 90
       50
176
     1
 90
        3
176
     1
 62
     5
420
      255
176
     1
290
     0
176
     1
 90
       50
176
     1
 90
       50
176
     1
 90
       50
176
     1
290
     0
176
     1
 90
       50
176
     1
 62
   256
176
     0
 40
1.0
176
     0
 90
        2
176
     1
  1
strokes_ogs.tif
176
     1
290
     0
176
     1
 40
1.0
176
     1
 40
1.0
176
     1
1001
ACAD
1000
AcDbSavedByObjectVersion
1070
     0
  0
VISUALSTYLE
  5
2D
102
{ACAD_REACTORS
330
29
102
}
330
29
100
AcDbVisualStyle
  2
GouraudWithEdges
 70
     3
177
     3
291
     1
 70
    58
 90
        2
176
     1
 90
        2
176
     1
 90
        1
176
     1
 90
        2
176
     1
 40
0.6
176
     1
 40
30.0
176
     1
 62
     7
420
 16777215
176
     1
 90
        1
176
     1
 90
        0
176
     1
 62
     7
176
     1
 62
   257
176
     1
 90
        1
176
     1
 90
        1
176
     1
 40
1.0
176
     1
 90
        0
176
     1
 62
   257
176
     1
 40
1.0
176
     1
 90
        1
176
     1
 90
        6
176
     1
 90
        2
176
     1
 62
     7
176
     1
 90
        5
176
     1
 90
        0
176
     1
 90
        0
176
     1
290
     0
176
     1
 90
       13
176
     1
 40
0.0
176
     1
 90
        0
176
     1
290
     0
176
     1
290
     1
176
     1
290
     1
176
     1
290
     0
176
     1
290
     0
176
     1
290
     0
176
     1
290
     0
176
     1
290
     0
176
     1
290
     0
176
     1
 90
       50
176
     1
 40
0.0
176
     1
 40
1.0
176
     1
 90
        0
176
     1
 62
    18
420
        0
176
     1
 90
       50
176
     1
 90
        3
176
     1
 62
     5
420
      255
176
     1
290
     0
176
     1
 90
       50
176
     1
 90
       50
176
     1
 90
       50
176
     1
290
     0
176
     1
 90
       50
176
     1
 62
   256
176
     0
 40
1.0
176
     0
 90
        2
176
     1
  1
strokes_ogs.tif
176
     1
290
     0
176
     1
 40
1.0
176
     1
 40
1.0
176
     1
1001
ACAD
1000
AcDbSavedByObjectVersion
1070
     0
  0
VISUALSTYLE
  5
31
102
{ACAD_REACTORS
330
29
102
}
330
29
100
AcDbVisualStyle
  2
Hidden
 70
     6
177
     3
291
     0
 70
    58
 90
        1
176
     1
 90
        2
176
     1
 90
        2
176
     1
 90
        0
176
     1
 40
0.6
176
     1
 40
30.0
176
     1
 62
     7
420
 16777215
176
     1
 90
        2
176
     1
 90
        2
176
     1
 62
     7
176
     1
 62
   257
176
     1
 90
        2
176
     1
 90
        1
176
     1
 40
40.0
176
     1
 90
        0
176
     1
 62
   257
176
     1
 40
1.0
176
     1
 90
        1
176
     1
 90
        6
176
     1
 90
        2
176
     1
 62
     7
176
     1
 90
        3
176
     1
 90
        0
176
     1
 90
        0
176
     1
290
     0
176
     1
 90
        1
176
     1
 40
0.0
176
     1
 90
        0
176
     1
290
     0
176
     1
290
     1
176
     1
290
     1
176
     1
290
     0
176
     1
290
     0
176
     1
290
     0
176
     1
290
     0
176
     1
290
     0
176
     1
290
     0
176
     1
 90
       50
176
     1
 40
0.0
176
     1
 40
1.0
176
     1
 90
        0
176
     1
 62
    18
420
        0
176
     1
 90
       50
176
     1
 90
        3
176
     1
 62
     5
420
      255
176
     1
290
     0
176
     1
 90
       50
176
     1
 90
       50
176
     1
 90
       50
176
     1
290
     0
176
     1
 90
       50
176
     1
 62
   256
176
     0
 40
1.0
176
     0
 90
        2
176
     1
  1
strokes_ogs.tif
176
     1
290
     0
176
     1
 40
1.0
176
     1
 40
1.0
176
     1
1001
ACAD
1000
AcDbSavedByObjectVersion
1070
     0
  0
VISUALSTYLE
  5
3F
102
{ACAD_REACTORS
330
29
102
}
330
29
100
AcDbVisualStyle
  2
JitterOff
 70
    20
177
     3
291
     1
 70
    58
 90
        2
176
     0
 90
        2
176
     0
 90
        0
176
     0
 90
        0
176
     0
 40
0.6
176
     0
 40
30.0
176
     0
 62
     7
420
 16777215
176
     0
 90
        1
176
     0
 90
        4
176
     0
 62
     7
176
     0
 62
   257
176
     0
 90
        1
176
     0
 90
        1
176
     0
 40
1.0
176
     0
 90
       10
176
     2
 62
     7
176
     0
 40
1.0
176
     0
 90
        1
176
     0
 90
        6
176
     0
 90
        2
176
     0
 62
     7
176
     0
 90
        5
176
     0
 90
        0
176
     0
 90
        0
176
     0
290
     0
176
     0
 90
        1
176
     0
 40
0.0
176
     0
 90
        0
176
     0
290
     0
176
     0
290
     1
176
     0
290
     1
176
     0
290
     0
176
     0
290
     0
176
     0
290
     0
176
     0
290
     0
176
     0
290
     0
176
     0
290
     0
176
     0
 90
       50
176
     0
 40
0.0
176
     0
 40
1.0
176
     0
 90
        0
176
     0
 62
    18
420
        0
176
     0
 90
       50
176
     0
 90
        3
176
     0
 62
     5
420
      255
176
     0
290
     0
176
     0
 90
       50
176
     0
 90
       50
176
     0
 90
       50
176
     0
290
     0
176
     0
 90
       50
176
     0
 62
   256
176
     0
 40
1.0
176
     0
 90
        2
176
     0
  1
strokes_ogs.tif
176
     0
290
     0
176
     0
 40
1.0
176
     0
 40
1.0
176
     0
1001
ACAD
1000
AcDbSavedByObjectVersion
1070
     0
  0
VISUALSTYLE
  5
37
102
{ACAD_REACTORS
330
29
102
}
330
29
100
AcDbVisualStyle
  2
Linepattern
 70
    14
177
     3
291
     1
 70
    58
 90
        2
176
     1
 90
        2
176
     1
 90
        0
176
     1
 90
        0
176
     1
 40
0.6
176
     1
 40
30.0
176
     1
 62
     7
420
 16777215
176
     1
 90
        1
176
     1
 90
        4
176
     1
 62
     7
176
     1
 62
   257
176
     1
 90
        7
176
     1
 90
        7
176
     1
 40
1.0
176
     1
 90
        8
176
     1
 62
     7
176
     1
 40
1.0
176
     1
 90
        1
176
     1
 90
        6
176
     1
 90
        2
176
     1
 62
     7
176
     1
 90
        5
176
     1
 90
        0
176
     1
 90
        0
176
     1
290
     0
176
     1
 90
        1
176
     1
 40
0.0
176
     1
 90
        0
176
     1
290
     0
176
     1
290
     1
176
     1
290
     1
176
     1
290
     0
176
     1
290
     0
176
     1
290
     0
176
     1
290
     0
176
     1
290
     0
176
     1
290
     0
176
     1
 90
       50
176
     1
 40
0.0
176
     1
 40
1.0
176
     1
 90
        0
176
     1
 62
    18
420
        0
176
     1
 90
       50
176
     1
 90
        3
176
     1
 62
     5
420
      255
176
     1
290
     0
176
     1
 90
       50
176
     1
 90
       50
176
     1
 90
       50
176
     1
290
     0
176
     1
 90
       50
176
     1
 62
   256
176
     0
 40
1.0
176
     0
 90
        2
176
     1
  1
strokes_ogs.tif
176
     1
290
     0
176
     1
 40
1.0
176
     1
 40
1.0
176
     1
1001
ACAD
1000
AcDbSavedByObjectVersion
1070
     0
  0
VISUALSTYLE
  5
40
102
{ACAD_REACTORS
330
29
102
}
330
29
100
AcDbVisualStyle
  2
OverhangOff
 70
    21
177
     3
291
     1
 70
    58
 90
        2
176
     0
 90
        2
176
     0
 90
        0
176
     0
 90
        0
176
     0
 40
0.6
176
     0
 40
30.0
176
     0
 62
     7
420
 16777215
176
     0
 90
        1
176
     0
 90
        4
176
     0
 62
     7
176
     0
 62
   257
176
     0
 90
        1
176
     0
 90
        1
176
     0
 40
1.0
176
     0
 90
        9
176
     2
 62
     7
176
     0
 40
1.0
176
     0
 90
        1
176
     0
 90
        6
176
     0
 90
        2
176
     0
 62
     7
176
     0
 90
        5
176
     0
 90
        0
176
     0
 90
        0
176
     0
290
     0
176
     0
 90
        1
176
     0
 40
0.0
176
     0
 90
        0
176
     0
290
     0
176
     0
290
     1
176
     0
290
     1
176
     0
290
     0
176
     0
290
     0
176
     0
290
     0
176
     0
290
     0
176
     0
290
     0
176
     0
290
     0
176
     0
 90
       50
176
     0
 40
0.0
176
     0
 40
1.0
176
     0
 90
        0
176
     0
 62
    18
420
        0
176
     0
 90
       50
176
     0
 90
        3
176
     0
 62
     5
420
      255
176
     0
290
     0
176
     0
 90
       50
176
     0
 90
       50
176
     0
 90
       50
176
     0
290
     0
176
     0
 90
       50
176
     0
 62
   256
176
     0
 40
1.0
176
     0
 90
        2
176
     0
  1
strokes_ogs.tif
176
     0
290
     0
176
     0
 40
1.0
176
     0
 40
1.0
176
     0
1001
ACAD
1000
AcDbSavedByObjectVersion
1070
     0
  0
VISUALSTYLE
  5
33
102
{ACAD_REACTORS
330
29
102
}
330
29
100
AcDbVisualStyle
  2
Realistic
 70
     8
177
     3
291
     0
 70
    58
 90
        2
176
     1
 90
        3
176
     1
 90
        0
176
     1
 90
        2
176
     1
 40
0.6
176
     1
 40
30.0
176
     1
 62
     7
420
 16777215
176
     1
 90
        0
176
     1
 90
        0
176
     1
 62
     7
176
     1
 62
   257
176
     1
 90
        1
176
     1
 90
        1
176
     1
 40
1.0
176
     1
 90
        8
176
     1
 62
   257
176
     1
 40
1.0
176
     1
 90
        1
176
     1
 90
        6
176
     1
 90
        2
176
     1
 62
     7
176
     1
 90
        3
176
     1
 90
        0
176
     1
 90
        0
176
     1
290
     0
176
     1
 90
       13
176
     1
 40
0.0
176
     1
 90
        0
176
     1
290
     0
176
     1
290
     1
176
     1
290
     1
176
     1
290
     0
176
     1
290
     0
176
     1
290
     0
176
     1
290
     0
176
     1
290
     0
176
     1
290
     0
176
     1
 90
       50
176
     1
 40
0.0
176
     1
 40
1.0
176
     1
 90
        0
176
     1
 62
    18
420
        0
176
     1
 90
       50
176
     1
 90
        3
176
     1
 62
     5
420
      255
176
     1
290
     0
176
     1
 90
       50
176
     1
 90
       50
176
     1
 90
       50
176
     1
290
     0
176
     1
 90
       50
176
     1
 62
   256
176
     0
 40
1.0
176
     0
 90
        2
176
     1
  1
strokes_ogs.tif
176
     1
290
     0
176
     1
 40
1.0
176
     1
 40
1.0
176
     1
1001
ACAD
1000
AcDbSavedByObjectVersion
1070
     0
  0
VISUALSTYLE
  5
3E
102
{ACAD_REACTORS
330
29
102
}
330
29
100
AcDbVisualStyle
  2
Shaded
 70
    27
177
     3
291
     0
 70
    58
 90
        2
176
     1
 90
        2
176
     1
 90
        1
176
     1
 90
        2
176
     1
 40
0.6
176
     1
 40
30.0
176
     1
 62
     7
420
 16777215
176
     1
 90
        0
176
     1
 90
        4
176
     1
 62
     7
176
     1
 62
   257
176
     1
 90
        1
176
     1
 90
        1
176
     1
 40
1.0
176
     1
 90
        8
176
     1
 62
   257
176
     1
 40
1.0
176
     1
 90
        1
176
     1
 90
        6
176
     1
 90
        2
176
     1
 62
     8
420
  7895160
176
     1
 90
        3
176
     1
 90
        0
176
     1
 90
        0
176
     1
290
     0
176
     1
 90
        5
176
     1
 40
0.0
176
     1
 90
        0
176
     1
290
     0
176
     1
290
     1
176
     1
290
     1
176
     1
290
     0
176
     1
290
     0
176
     1
290
     0
176
     1
290
     0
176
     1
290
     0
176
     1
290
     0
176
     1
 90
       50
176
     1
 40
0.0
176
     1
 40
1.0
176
     1
 90
        0
176
     1
 62
    18
420
        0
176
     1
 90
       50
176
     1
 90
        3
176
     1
 62
     5
420
      255
176
     1
290
     0
176
     1
 90
       50
176
     1
 90
       50
176
     1
 90
       50
176
     1
290
     0
176
     1
 90
       50
176
     1
 62
   256
176
     0
 40
1.0
176
     0
 90
        2
176
     1
  1
strokes_ogs.tif
176
     1
290
     0
176
     1
 40
1.0
176
     1
 40
1.0
176
     1
1001
ACAD
1000
AcDbSavedByObjectVersion
1070
     0
  0
VISUALSTYLE
  5
3D
102
{ACAD_REACTORS
330
29
102
}
330
29
100
AcDbVisualStyle
  2
Shaded with edges
 70
    26
177
     3
291
     0
 70
    58
 90
        2
176
     1
 90
        2
176
     1
 90
        1
176
     1
 90
        2
176
     1
 40
0.6
176
     1
 40
30.0
176
     1
 62
     7
420
 16777215
176
     1
 90
        1
176
     1
 90
        2
176
     1
 62
     7
176
     1
 62
   257
176
     1
 90
        2
176
     1
 90
        1
176
     1
 40
1.0
176
     1
 90
        8
176
     1
 62
   257
176
     1
 40
1.0
176
     1
 90
        1
176
     1
 90
        6
176
     1
 90
        2
176
     1
 62
     7
176
     1
 90
        3
176
     1
 90
        0
176
     1
 90
        0
176
     1
290
     0
176
     1
 90
        5
176
     1
 40
0.0
176
     1
 90
        0
176
     1
290
     0
176
     1
290
     1
176
     1
290
     1
176
     1
290
     0
176
     1
290
     0
176
     1
290
     0
176
     1
290
     0
176
     1
290
     0
176
     1
290
     0
176
     1
 90
       50
176
     1
 40
0.0
176
     1
 40
1.0
176
     1
 90
        0
176
     1
 62
    18
420
        0
176
     1
 90
       50
176
     1
 90
        3
176
     1
 62
     5
420
      255
176
     1
290
     0
176
     1
 90
       50
176
     1
 90
       50
176
     1
 90
       50
176
     1
290
     0
176
     1
 90
       50
176
     1
 62
   256
176
     0
 40
1.0
176
     0
 90
        2
176
     1
  1
strokes_ogs.tif
176
     1
290
     0
176
     1
 40
1.0
176
     1
 40
1.0
176
     1
1001
ACAD
1000
AcDbSavedByObjectVersion
1070
     0
  0
VISUALSTYLE
  5
3A
102
{ACAD_REACTORS
330
29
102
}
330
29
100
AcDbVisualStyle
  2
Shades of Gray
 70
    23
177
     3
291
     0
 70
    58
 90
        2
176
     1
 90
        2
176
     1
 90
        3
176
     1
 90
        0
176
     1
 40
0.6
176
     1
 40
30.0
176
     1
 62
     7
420
 16777215
176
     1
 90
        2
176
     1
 90
        2
176
     1
 62
     7
176
     1
 62
     7
176
     1
 90
        1
176
     1
 90
        1
176
     1
 40
40.0
176
     1
 90
        8
176
     1
 62
     7
176
     1
 40
1.0
176
     1
 90
        1
176
     1
 90
        6
176
     1
 90
        2
176
     1
 62
     7
176
     1
 90
        3
176
     1
 90
        0
176
     1
 90
        0
176
     1
290
     0
176
     1
 90
        1
176
     1
 40
0.0
176
     1
 90
        0
176
     1
290
     0
176
     1
290
     1
176
     1
290
     1
176
     1
290
     0
176
     1
290
     0
176
     1
290
     0
176
     1
290
     0
176
     1
290
     0
176
     1
290
     0
176
     1
 90
       50
176
     1
 40
0.0
176
     1
 40
1.0
176
     1
 90
        0
176
     1
 62
    18
420
        0
176
     1
 90
       50
176
     1
 90
        3
176
     1
 62
     5
420
      255
176
     1
290
     0
176
     1
 90
       50
176
     1
 90
       50
176
     1
 90
       50
176
     1
290
     0
176
     1
 90
       50
176
     1
 62
   256
176
     0
 40
1.0
176
     0
 90
        2
176
     1
  1
strokes_ogs.tif
176
     1
290
     0
176
     1
 40
1.0
176
     1
 40
1.0
176
     1
1001
ACAD
1000
AcDbSavedByObjectVersion
1070
     0
  0
VISUALSTYLE
  5
3B
102
{ACAD_REACTORS
330
29
102
}
330
29
100
AcDbVisualStyle
  2
Sketchy
 70
    24
177
     3
291
     0
 70
    58
 90
        1
176
     1
 90
        2
176
     1
 90
        2
176
     1
 90
        0
176
     1
 40
0.6
176
     1
 40
30.0
176
     1
 62
     7
420
 16777215
176
     1
 90
        2
176
     1
 90
        2
176
     1
 62
     7
176
     1
 62
     7
176
     1
 90
        1
176
     1
 90
        1
176
     1
 40
40.0
176
     1
 90
       11
176
     1
 62
     7
176
     1
 40
1.0
176
     1
 90
        1
176
     1
 90
        6
176
     1
 90
        2
176
     1
 62
     7
176
     1
 90
        6
176
     1
 90
        0
176
     1
 90
        0
176
     1
290
     0
176
     1
 90
        1
176
     1
 40
0.0
176
     1
 90
        0
176
     1
290
     0
176
     1
290
     1
176
     1
290
     1
176
     1
290
     0
176
     1
290
     0
176
     1
290
     0
176
     1
290
     0
176
     1
290
     0
176
     1
290
     0
176
     1
 90
       50
176
     1
 40
0.0
176
     1
 40
1.0
176
     1
 90
        0
176
     1
 62
    18
420
        0
176
     1
 90
       50
176
     1
 90
        3
176
     1
 62
     5
420
      255
176
     1
290
     0
176
     1
 90
       50
176
     1
 90
       50
176
     1
 90
       50
176
     1
290
     0
176
     1
 90
       50
176
     1
 62
   256
176
     0
 40
1.0
176
     0
 90
        2
176
     1
  1
strokes_ogs.tif
176
     1
290
     0
176
     1
 40
1.0
176
     1
 40
1.0
176
     1
1001
ACAD
1000
AcDbSavedByObjectVersion
1070
     0
  0
VISUALSTYLE
  5
36
102
{ACAD_REACTORS
330
29
102
}
330
29
100
AcDbVisualStyle
  2
Thicken
 70
    13
177
     3
291
     1
 70
    58
 90
        2
176
     1
 90
        2
176
     1
 90
        0
176
     1
 90
        0
176
     1
 40
0.6
176
     1
 40
30.0
176
     1
 62
     7
420
 16777215
176
     1
 90
        1
176
     1
 90
        4
176
     1
 62
     7
176
     1
 62
   257
176
     1
 90
        1
176
     1
 90
        1
176
     1
 40
1.0
176
     1
 90
       12
176
     1
 62
     7
176
     1
 40
1.0
176
     1
 90
        1
176
     1
 90
        6
176
     1
 90
        2
176
     1
 62
     7
176
     1
 90
        5
176
     1
 90
        0
176
     1
 90
        0
176
     1
290
     0
176
     1
 90
        1
176
     1
 40
0.0
176
     1
 90
        0
176
     1
290
     0
176
     1
290
     1
176
     1
290
     1
176
     1
290
     0
176
     1
290
     0
176
     1
290
     0
176
     1
290
     0
176
     1
290
     0
176
     1
290
     0
176
     1
 90
       50
176
     1
 40
0.0
176
     1
 40
1.0
176
     1
 90
        0
176
     1
 62
    18
420
        0
176
     1
 90
       50
176
     1
 90
        3
176
     1
 62
     5
420
      255
176
     1
290
     0
176
     1
 90
       50
176
     1
 90
       50
176
     1
 90
       50
176
     1
290
     0
176
     1
 90
       50
176
     1
 62
   256
176
     0
 40
1.0
176
     0
 90
        2
176
     1
  1
strokes_ogs.tif
176
     1
290
     0
176
     1
 40
1.0
176
     1
 40
1.0
176
     1
1001
ACAD
1000
AcDbSavedByObjectVersion
1070
     0
  0
VISUALSTYLE
  5
30
102
{ACAD_REACTORS
330
29
102
}
330
29
100
AcDbVisualStyle
  2
Wireframe
 70
     5
177
     3
291
     0
 70
    58
 90
        0
176
     1
 90
        2
176
     1
 90
        0
176
     1
 90
        0
176
     1
 40
0.6
176
     1
 40
30.0
176
     1
 62
     7
420
 16777215
176
     1
 90
        1
176
     1
 90
        4
176
     1
 62
     7
176
     1
 62
   257
176
     1
 90
        1
176
     1
 90
        1
176
     1
 40
1.0
176
     1
 90
        0
176
     1
 62
   257
176
     1
 40
1.0
176
     1
 90
        1
176
     1
 90
        6
176
     1
 90
        2
176
     1
 62
     7
176
     1
 90
        3
176
     1
 90
        0
176
     1
 90
        0
176
     1
290
     0
176
     1
 90
        1
176
     1
 40
0.0
176
     1
 90
        0
176
     1
290
     0
176
     1
290
     1
176
     1
290
     1
176
     1
290
     0
176
     1
290
     0
176
     1
290
     0
176
     1
290
     0
176
     1
290
     0
176
     1
290
     0
176
     1
 90
       50
176
     1
 40
0.0
176
     1
 40
1.0
176
     1
 90
        0
176
     1
 62
    18
420
        0
176
     1
 90
       50
176
     1
 90
        3
176
     1
 62
     5
420
      255
176
     1
290
     0
176
     1
 90
       50
176
     1
 90
       50
176
     1
 90
       50
176
     1
290
     0
176
     1
 90
       50
176
     1
 62
   256
176
     0
 40
1.0
176
     0
 90
        2
176
     1
  1
strokes_ogs.tif
176
     1
290
     0
176
     1
 40
1.0
176
     1
 40
1.0
176
     1
1001
ACAD
1000
AcDbSavedByObjectVersion
1070
     0
  0
VISUALSTYLE
  5
3C
102
{ACAD_REACTORS
330
29
102
}
330
29
100
AcDbVisualStyle
  2
X-Ray
 70
    25
177
     3
291
     0
 70
    58
 90
        2
176
     1
 90
        2
176
     1
 90
        1
176
     1
 90
        1
176
     1
 40
0.5
176
     1
 40
30.0
176
     1
 62
     7
420
 16777215
176
     1
 90
        1
176
     1
 90
        0
176
     1
 62
     7
176
     1
 62
   257
176
     1
 90
        1
176
     1
 90
        1
176
     1
 40
1.0
176
     1
 90
        8
176
     1
 62
     7
176
     1
 40
1.0
176
     1
 90
        1
176
     1
 90
        6
176
     1
 90
        2
176
     1
 62
     7
176
     1
 90
        3
176
     1
 90
        0
176
     1
 90
        0
176
     1
290
     0
176
     1
 90
       13
176
     1
 40
0.0
176
     1
 90
        0
176
     1
290
     0
176
     1
290
     1
176
     1
290
     1
176
     1
290
     0
176
     1
290
     0
176
     1
290
     0
176
     1
290
     0
176
     1
290
     0
176
     1
290
     0
176
     1
 90
       50
176
     1
 40
0.0
176
     1
 40
1.0
176
     1
 90
        0
176
     1
 62
    18
420
        0
176
     1
 90
       50
176
     1
 90
        3
176
     1
 62
     5
420
      255
176
     1
290
     0
176
     1
 90
       50
176
     1
 90
       50
176
     1
 90
       50
176
     1
290
     0
176
     1
 90
       50
176
     1
 62
   256
176
     0
 40
1.0
176
     0
 90
        2
176
     1
  1
strokes_ogs.tif
176
     1
290
     0
176
     1
 40
1.0
176
     1
 40
1.0
176
     1
1001
ACAD
1000
AcDbSavedByObjectVersion
1070
     0
  0
DICTIONARYVAR
  5
55D
102
{ACAD_REACTORS
330
558
102
}
330
558
100
DictionaryVariables
280
     0
  1
1:1
  0
DICTIONARYVAR
  5
55A
102
{ACAD_REACTORS
330
558
102
}
330
558
100
DictionaryVariables
280
     0
  1
STANDARD
  0
DICTIONARYVAR
  5
559
102
{ACAD_REACTORS
330
558
102
}
330
558
100
DictionaryVariables
280
     0
  1
STANDARD
  0
DICTIONARYVAR
  5
55B
102
{ACAD_REACTORS
330
558
102
}
330
558
100
DictionaryVariables
280
     0
  1
Imperial24
  0
DICTIONARYVAR
  5
55C
102
{ACAD_REACTORS
330
558
102
}
330
558
100
DictionaryVariables
280
     0
  1
Imperial24
  0
DICTIONARY
  5
1027
330
6B
100
AcDbDictionary
280
     1
281
     1
  3
ACAD_XREC_ROUNDTRIP
360
1028
  0
DICTIONARY
  5
1A
330
19
100
AcDbDictionary
280
     1
281
     1
  3
BUMPTILE
360
1C
  3
DIFFUSETILE
360
1B
  3
OPACITYTILE
360
1F
  3
REFLECTIONTILE
360
1E
  3
REFRACTIONTILE
360
20
  3
SPECULARTILE
360
1D
  0
DICTIONARY
  5
12
330
11
100
AcDbDictionary
280
     1
281
     1
  3
BUMPTILE
360
14
  3
DIFFUSETILE
360
13
  3
OPACITYTILE
360
17
  3
REFLECTIONTILE
360
16
  3
REFRACTIONTILE
360
18
  3
SPECULARTILE
360
15
  0
DICTIONARY
  5
22
330
21
100
AcDbDictionary
280
     1
281
     1
  3
BUMPTILE
360
24
  3
DIFFUSETILE
360
23
  3
OPACITYTILE
360
27
  3
REFLECTIONTILE
360
26
  3
REFRACTIONTILE
360
28
  3
SPECULARTILE
360
25
  0
DICTIONARY
  5
1025
330
69
100
AcDbDictionary
280
     1
281
     1
  3
ACAD_XREC_ROUNDTRIP
360
1026
  0
DICTIONARY
  5
55E
330
65
100
AcDbDictionary
280
     1
281
     1
  3
ACAD_ROUNDTRIP_2008_TABLESTYLE_CELLSTYLEMAP
360
1023
  0
XRECORD
  5
1028
102
{ACAD_REACTORS
330
1027
102
}
330
1027
100
AcDbXrecord
280
     1
102
DISPLAYNAME
  1
Imperial24
102
FLAGS
 90
        0
  0
XRECORD
  5
1C
102
{ACAD_REACTORS
330
1A
102
}
330
1A
100
AcDbXrecord
280
     1
270
     1
271
     1
  0
XRECORD
  5
1B
102
{ACAD_REACTORS
330
1A
102
}
330
1A
100
AcDbXrecord
280
     1
270
     1
271
     1
  0
XRECORD
  5
1F
102
{ACAD_REACTORS
330
1A
102
}
330
1A
100
AcDbXrecord
280
     1
270
     1
271
     1
  0
XRECORD
  5
1E
102
{ACAD_REACTORS
330
1A
102
}
330
1A
100
AcDbXrecord
280
     1
270
     1
271
     1
  0
XRECORD
  5
20
102
{ACAD_REACTORS
330
1A
102
}
330
1A
100
AcDbXrecord
280
     1
270
     1
271
     1
  0
XRECORD
  5
1D
102
{ACAD_REACTORS
330
1A
102
}
330
1A
100
AcDbXrecord
280
     1
270
     1
271
     1
  0
XRECORD
  5
14
102
{ACAD_REACTORS
330
12
102
}
330
12
100
AcDbXrecord
280
     1
270
     1
271
     1
  0
XRECORD
  5
13
102
{ACAD_REACTORS
330
12
102
}
330
12
100
AcDbXrecord
280
     1
270
     1
271
     1
  0
XRECORD
  5
17
102
{ACAD_REACTORS
330
12
102
}
330
12
100
AcDbXrecord
280
     1
270
     1
271
     1
  0
XRECORD
  5
16
102
{ACAD_REACTORS
330
12
102
}
330
12
100
AcDbXrecord
280
     1
270
     1
271
     1
  0
XRECORD
  5
18
102
{ACAD_REACTORS
330
12
102
}
330
12
100
AcDbXrecord
280
     1
270
     1
271
     1
  0
XRECORD
  5
15
102
{ACAD_REACTORS
330
12
102
}
330
12
100
AcDbXrecord
280
     1
270
     1
271
     1
  0
XRECORD
  5
24
102
{ACAD_REACTORS
330
22
102
}
330
22
100
AcDbXrecord
280
     1
270
     1
271
     1
  0
XRECORD
  5
23
102
{ACAD_REACTORS
330
22
102
}
330
22
100
AcDbXrecord
280
     1
270
     1
271
     1
  0
XRECORD
  5
27
102
{ACAD_REACTORS
330
22
102
}
330
22
100
AcDbXrecord
280
     1
270
     1
271
     1
  0
XRECORD
  5
26
102
{ACAD_REACTORS
330
22
102
}
330
22
100
AcDbXrecord
280
     1
270
     1
271
     1
  0
XRECORD
  5
28
102
{ACAD_REACTORS
330
22
102
}
330
22
100
AcDbXrecord
280
     1
270
     1
271
     1
  0
XRECORD
  5
25
102
{ACAD_REACTORS
330
22
102
}
330
22
100
AcDbXrecord
280
     1
270
     1
271
     1
  0
XRECORD
  5
1026
102
{ACAD_REACTORS
330
1025
102
}
330
1025
100
AcDbXrecord
280
     1
102
DISPLAYNAME
  1
Imperial24
102
FLAGS
 90
        0
  0
CELLSTYLEMAP
  5
1023
102
{ACAD_REACTORS
330
55E
102
}
330
55E
100
AcDbCellStyleMap
 90
        3
300
CELLSTYLE
  1
TABLEFORMAT_BEGIN
 90
        5
170
     1
 91
        0
 92
    32768
 62
   257
 93
        1
300
CONTENTFORMAT
  1
CONTENTFORMAT_BEGIN
 90
        0
 91
        0
 92
      512
 93
        0
300

 40
0.0
140
1.0
 94
        5
 62
     0
340
55
144
0.25
309
CONTENTFORMAT_END
171
     1
301
MARGIN
  1
CELLMARGIN_BEGIN
 40
0.06
 40
0.06
 40
0.06
 40
0.06
 40
0.18
 40
0.18
309
CELLMARGIN_END
 94
        6
 95
        1
302
GRIDFORMAT
  1
GRIDFORMAT_BEGIN
 90
        0
 91
        1
 62
     0
 92
       -2
340
0
 93
        0
 40
0.045
309
GRIDFORMAT_END
 95
        2
302
GRIDFORMAT
  1
GRIDFORMAT_BEGIN
 90
        0
 91
        1
 62
     0
 92
       -2
340
0
 93
        0
 40
0.045
309
GRIDFORMAT_END
 95
        4
302
GRIDFORMAT
  1
GRIDFORMAT_BEGIN
 90
        0
 91
        1
 62
     0
 92
       -2
340
0
 93
        0
 40
0.045
309
GRIDFORMAT_END
 95
        8
302
GRIDFORMAT
  1
GRIDFORMAT_BEGIN
 90
        0
 91
        1
 62
     0
 92
       -2
340
0
 93
        0
 40
0.045
309
GRIDFORMAT_END
 95
       16
302
GRIDFORMAT
  1
GRIDFORMAT_BEGIN
 90
        0
 91
        1
 62
     0
 92
       -2
340
0
 93
        0
 40
0.045
309
GRIDFORMAT_END
 95
       32
302
GRIDFORMAT
  1
GRIDFORMAT_BEGIN
 90
        0
 91
        1
 62
     0
 92
       -2
340
0
 93
        0
 40
0.045
309
GRIDFORMAT_END
309
TABLEFORMAT_END
  1
CELLSTYLE_BEGIN
 90
        1
 91
        1
300
_TITLE
309
CELLSTYLE_END
300
CELLSTYLE
  1
TABLEFORMAT_BEGIN
 90
        5
170
     1
 91
        0
 92
        0
 62
   257
 93
        1
300
CONTENTFORMAT
  1
CONTENTFORMAT_BEGIN
 90
        0
 91
        0
 92
      512
 93
        0
300

 40
0.0
140
1.0
 94
        5
 62
     0
340
55
144
0.18
309
CONTENTFORMAT_END
171
     1
301
MARGIN
  1
CELLMARGIN_BEGIN
 40
0.06
 40
0.06
 40
0.06
 40
0.06
 40
0.18
 40
0.18
309
CELLMARGIN_END
 94
        6
 95
        1
302
GRIDFORMAT
  1
GRIDFORMAT_BEGIN
 90
        0
 91
        1
 62
     0
 92
       -2
340
0
 93
        0
 40
0.045
309
GRIDFORMAT_END
 95
        2
302
GRIDFORMAT
  1
GRIDFORMAT_BEGIN
 90
        0
 91
        1
 62
     0
 92
       -2
340
0
 93
        0
 40
0.045
309
GRIDFORMAT_END
 95
        4
302
GRIDFORMAT
  1
GRIDFORMAT_BEGIN
 90
        0
 91
        1
 62
     0
 92
       -2
340
0
 93
        0
 40
0.045
309
GRIDFORMAT_END
 95
        8
302
GRIDFORMAT
  1
GRIDFORMAT_BEGIN
 90
        0
 91
        1
 62
     0
 92
       -2
340
0
 93
        0
 40
0.045
309
GRIDFORMAT_END
 95
       16
302
GRIDFORMAT
  1
GRIDFORMAT_BEGIN
 90
        0
 91
        1
 62
     0
 92
       -2
340
0
 93
        0
 40
0.045
309
GRIDFORMAT_END
 95
       32
302
GRIDFORMAT
  1
GRIDFORMAT_BEGIN
 90
        0
 91
        1
 62
     0
 92
       -2
340
0
 93
        0
 40
0.045
309
GRIDFORMAT_END
309
TABLEFORMAT_END
  1
CELLSTYLE_BEGIN
 90
        2
 91
        1
300
_HEADER
309
CELLSTYLE_END
300
CELLSTYLE
  1
TABLEFORMAT_BEGIN
 90
        5
170
     1
 91
        0
 92
        0
 62
   257
 93
        1
300
CONTENTFORMAT
  1
CONTENTFORMAT_BEGIN
 90
        0
 91
        0
 92
      512
 93
        0
300

 40
0.0
140
1.0
 94
        2
 62
     0
340
55
144
0.18
309
CONTENTFORMAT_END
171
     1
301
MARGIN
  1
CELLMARGIN_BEGIN
 40
0.06
 40
0.06
 40
0.06
 40
0.06
 40
0.18
 40
0.18
309
CELLMARGIN_END
 94
        6
 95
        1
302
GRIDFORMAT
  1
GRIDFORMAT_BEGIN
 90
        0
 91
        1
 62
     0
 92
       -2
340
0
 93
        0
 40
0.045
309
GRIDFORMAT_END
 95
        2
302
GRIDFORMAT
  1
GRIDFORMAT_BEGIN
 90
        0
 91
        1
 62
     0
 92
       -2
340
0
 93
        0
 40
0.045
309
GRIDFORMAT_END
 95
        4
302
GRIDFORMAT
  1
GRIDFORMAT_BEGIN
 90
        0
 91
        1
 62
     0
 92
       -2
340
0
 93
        0
 40
0.045
309
GRIDFORMAT_END
 95
        8
302
GRIDFORMAT
  1
GRIDFORMAT_BEGIN
 90
        0
 91
        1
 62
     0
 92
       -2
340
0
 93
        0
 40
0.045
309
GRIDFORMAT_END
 95
       16
302
GRIDFORMAT
  1
GRIDFORMAT_BEGIN
 90
        0
 91
        1
 62
     0
 92
       -2
340
0
 93
        0
 40
0.045
309
GRIDFORMAT_END
 95
       32
302
GRIDFORMAT
  1
GRIDFORMAT_BEGIN
 90
        0
 91
        1
 62
     0
 92
       -2
340
0
 93
        0
 40
0.045
309
GRIDFORMAT_END
309
TABLEFORMAT_END
  1
CELLSTYLE_BEGIN
 90
        3
 91
        2
300
_DATA
309
CELLSTYLE_END
  0
ENDSEC
  0
EOF
