  0
SECTION
  2
HEADER
  9
$ACADVER
  1
AC1027
  9
$ACADMAINTVER
 70
   125
  9
$DWGCODEPAGE
  3
ANSI_1252
  9
$LASTSAVEDBY
  1
ufficio.tecnico
  9
$REQUIREDVERSIONS
160
                 0
  9
$INSBASE
 10
0.0
 20
0.0
 30
0.0
  9
$EXTMIN
 10
1.531090754098817
 20
-18.60106960255459
 30
0.0
  9
$EXTMAX
 10
28.44773816563112
 20
-4.081551575368549
 30
0.0
  9
$LIMMIN
 10
0.0
 20
0.0
  9
$LIMMAX
 10
12.0
 20
9.0
  9
$ORTHOMODE
 70
     0
  9
$REGENMODE
 70
     1
  9
$FILLMODE
 70
     1
  9
$QTEXTMODE
 70
     0
  9
$MIRRTEXT
 70
     0
  9
$LTSCALE
 40
1.0
  9
$ATTMODE
 70
     1
  9
$TEXTSIZE
 40
0.2
  9
$TRACEWID
 40
0.05
  9
$TEXTSTYLE
  7
Standard
  9
$CLAYER
  8
0
  9
$CELTYPE
  6
ByLayer
  9
$CECOLOR
 62
   256
  9
$CELTSCALE
 40
1.0
  9
$DISPSILH
 70
     0
  9
$DIMSCALE
 40
1.0
  9
$DIMASZ
 40
0.18
  9
$DIMEXO
 40
0.0625
  9
$DIMDLI
 40
0.38
  9
$DIMRND
 40
0.0
  9
$DIMDLE
 40
0.0
  9
$DIMEXE
 40
0.18
  9
$DIMTP
 40
0.0
  9
$DIMTM
 40
0.0
  9
$DIMTXT
 40
0.18
  9
$DIMCEN
 40
0.09
  9
$DIMTSZ
 40
0.0
  9
$DIMTOL
 70
     0
  9
$DIMLIM
 70
     0
  9
$DIMTIH
 70
     1
  9
$DIMTOH
 70
     1
  9
$DIMSE1
 70
     0
  9
$DIMSE2
 70
     0
  9
$DIMTAD
 70
     0
  9
$DIMZIN
 70
     0
  9
$DIMBLK
  1

  9
$DIMASO
 70
     1
  9
$DIMSHO
 70
     1
  9
$DIMPOST
  1

  9
$DIMAPOST
  1

  9
$DIMALT
 70
     0
  9
$DIMALTD
 70
     2
  9
$DIMALTF
 40
25.4
  9
$DIMLFAC
 40
1.0
  9
$DIMTOFL
 70
     0
  9
$DIMTVP
 40
0.0
  9
$DIMTIX
 70
     0
  9
$DIMSOXD
 70
     0
  9
$DIMSAH
 70
     0
  9
$DIMBLK1
  1

  9
$DIMBLK2
  1

  9
$DIMSTYLE
  2
Standard
  9
$DIMCLRD
 70
     0
  9
$DIMCLRE
 70
     0
  9
$DIMCLRT
 70
     0
  9
$DIMTFAC
 40
1.0
  9
$DIMGAP
 40
0.09
  9
$DIMJUST
 70
     0
  9
$DIMSD1
 70
     0
  9
$DIMSD2
 70
     0
  9
$DIMTOLJ
 70
     1
  9
$DIMTZIN
 70
     0
  9
$DIMALTZ
 70
     0
  9
$DIMALTTZ
 70
     0
  9
$DIMUPT
 70
     0
  9
$DIMDEC
 70
     4
  9
$DIMTDEC
 70
     4
  9
$DIMALTU
 70
     2
  9
$DIMALTTD
 70
     2
  9
$DIMTXSTY
  7
Standard
  9
$DIMAUNIT
 70
     0
  9
$DIMADEC
 70
     0
  9
$DIMALTRND
 40
0.0
  9
$DIMAZIN
 70
     0
  9
$DIMDSEP
 70
    46
  9
$DIMATFIT
 70
     3
  9
$DIMFRAC
 70
     0
  9
$DIMLDRBLK
  1

  9
$DIMLUNIT
 70
     2
  9
$DIMLWD
 70
    -2
  9
$DIMLWE
 70
    -2
  9
$DIMTMOVE
 70
     0
  9
$DIMFXL
 40
1.0
  9
$DIMFXLON
 70
     0
  9
$DIMJOGANG
 40
0.7853981633974483
  9
$DIMTFILL
 70
     0
  9
$DIMTFILLCLR
 70
     0
  9
$DIMARCSYM
 70
     0
  9
$DIMLTYPE
  6

  9
$DIMLTEX1
  6

  9
$DIMLTEX2
  6

  9
$DIMTXTDIRECTION
 70
     0
  9
$LUNITS
 70
     2
  9
$LUPREC
 70
     4
  9
$SKETCHINC
 40
0.1
  9
$FILLETRAD
 40
0.0
  9
$AUNITS
 70
     0
  9
$AUPREC
 70
     0
  9
$MENU
  1
.
  9
$ELEVATION
 40
0.0
  9
$PELEVATION
 40
0.0
  9
$THICKNESS
 40
0.0
  9
$LIMCHECK
 70
     0
  9
$CHAMFERA
 40
0.0
  9
$CHAMFERB
 40
0.0
  9
$CHAMFERC
 40
0.0
  9
$CHAMFERD
 40
0.0
  9
$SKPOLY
 70
     0
  9
$TDCREATE
 40
2459328.438506945
  9
$TDUCREATE
 40
2459328.355173611
  9
$TDUPDATE
 40
2459341.401840278
  9
$TDUUPDATE
 40
2459341.318506945
  9
$TDINDWG
 40
0.0029629630
  9
$TDUSRTIMER
 40
0.0029629630
  9
$USRTIMER
 70
     1
  9
$ANGBASE
 50
0.0
  9
$ANGDIR
 70
     0
  9
$PDMODE
 70
     0
  9
$PDSIZE
 40
0.0
  9
$PLINEWID
 40
0.0
  9
$SPLFRAME
 70
     0
  9
$SPLINETYPE
 70
     6
  9
$SPLINESEGS
 70
     8
  9
$HANDSEED
  5
3B1
  9
$SURFTAB1
 70
     6
  9
$SURFTAB2
 70
     6
  9
$SURFTYPE
 70
     6
  9
$SURFU
 70
     6
  9
$SURFV
 70
     6
  9
$UCSBASE
  2

  9
$UCSNAME
  2

  9
$UCSORG
 10
0.0
 20
0.0
 30
0.0
  9
$UCSXDIR
 10
1.0
 20
0.0
 30
0.0
  9
$UCSYDIR
 10
0.0
 20
1.0
 30
0.0
  9
$UCSORTHOREF
  2

  9
$UCSORTHOVIEW
 70
     0
  9
$UCSORGTOP
 10
0.0
 20
0.0
 30
0.0
  9
$UCSORGBOTTOM
 10
0.0
 20
0.0
 30
0.0
  9
$UCSORGLEFT
 10
0.0
 20
0.0
 30
0.0
  9
$UCSORGRIGHT
 10
0.0
 20
0.0
 30
0.0
  9
$UCSORGFRONT
 10
0.0
 20
0.0
 30
0.0
  9
$UCSORGBACK
 10
0.0
 20
0.0
 30
0.0
  9
$PUCSBASE
  2

  9
$PUCSNAME
  2

  9
$PUCSORG
 10
0.0
 20
0.0
 30
0.0
  9
$PUCSXDIR
 10
1.0
 20
0.0
 30
0.0
  9
$PUCSYDIR
 10
0.0
 20
1.0
 30
0.0
  9
$PUCSORTHOREF
  2

  9
$PUCSORTHOVIEW
 70
     0
  9
$PUCSORGTOP
 10
0.0
 20
0.0
 30
0.0
  9
$PUCSORGBOTTOM
 10
0.0
 20
0.0
 30
0.0
  9
$PUCSORGLEFT
 10
0.0
 20
0.0
 30
0.0
  9
$PUCSORGRIGHT
 10
0.0
 20
0.0
 30
0.0
  9
$PUCSORGFRONT
 10
0.0
 20
0.0
 30
0.0
  9
$PUCSORGBACK
 10
0.0
 20
0.0
 30
0.0
  9
$USERI1
 70
     0
  9
$USERI2
 70
     0
  9
$USERI3
 70
     0
  9
$USERI4
 70
     0
  9
$USERI5
 70
     0
  9
$USERR1
 40
0.0
  9
$USERR2
 40
0.0
  9
$USERR3
 40
0.0
  9
$USERR4
 40
0.0
  9
$USERR5
 40
0.0
  9
$WORLDVIEW
 70
     1
  9
$SHADEDGE
 70
     3
  9
$SHADEDIF
 70
    70
  9
$TILEMODE
 70
     1
  9
$MAXACTVP
 70
    64
  9
$PINSBASE
 10
0.0
 20
0.0
 30
0.0
  9
$PLIMCHECK
 70
     0
  9
$PEXTMIN
 10
1.000000000000000E+20
 20
1.000000000000000E+20
 30
1.000000000000000E+20
  9
$PEXTMAX
 10
-1.000000000000000E+20
 20
-1.000000000000000E+20
 30
-1.000000000000000E+20
  9
$PLIMMIN
 10
0.0
 20
0.0
  9
$PLIMMAX
 10
12.0
 20
9.0
  9
$UNITMODE
 70
     0
  9
$VISRETAIN
 70
     1
  9
$PLINEGEN
 70
     0
  9
$PSLTSCALE
 70
     1
  9
$TREEDEPTH
 70
  3020
  9
$CMLSTYLE
  2
Standard
  9
$CMLJUST
 70
     0
  9
$CMLSCALE
 40
1.0
  9
$PROXYGRAPHICS
 70
     1
  9
$MEASUREMENT
 70
     0
  9
$CELWEIGHT
370
    -1
  9
$ENDCAPS
280
     0
  9
$JOINSTYLE
280
     0
  9
$LWDISPLAY
290
     1
  9
$INSUNITS
 70
     5
  9
$HYPERLINKBASE
  1

  9
$STYLESHEET
  1

  9
$XEDIT
290
     1
  9
$CEPSNTYPE
380
     0
  9
$PSTYLEMODE
290
     1
  9
$FINGERPRINTGUID
  2
{299A17EF-CF8B-EC44-BA5A-DC9BAE9A4579}
  9
$VERSIONGUID
  2
{18AC3135-3945-8E41-BBA1-9EF75A7760E1}
  9
$EXTNAMES
290
     1
  9
$PSVPSCALE
 40
0.0
  9
$OLESTARTUP
290
     0
  9
$SORTENTS
280
   127
  9
$INDEXCTL
280
     0
  9
$HIDETEXT
280
     1
  9
$XCLIPFRAME
280
     2
  9
$HALOGAP
280
     0
  9
$OBSCOLOR
 70
   257
  9
$OBSLTYPE
280
     0
  9
$INTERSECTIONDISPLAY
280
     0
  9
$INTERSECTIONCOLOR
 70
   257
  9
$DIMASSOC
280
     2
  9
$PROJECTNAME
  1

  9
$CAMERADISPLAY
290
     0
  9
$LENSLENGTH
 40
50.0
  9
$CAMERAHEIGHT
 40
0.0
  9
$STEPSPERSEC
 40
2.0
  9
$STEPSIZE
 40
6.0
  9
$3DDWFPREC
 40
2.0
  9
$PSOLWIDTH
 40
0.25
  9
$PSOLHEIGHT
 40
4.0
  9
$LOFTANG1
 40
1.570796326794896
  9
$LOFTANG2
 40
1.570796326794896
  9
$LOFTMAG1
 40
0.0
  9
$LOFTMAG2
 40
0.0
  9
$LOFTPARAM
 70
     7
  9
$LOFTNORMALS
280
     1
  9
$LATITUDE
 40
37.795
  9
$LONGITUDE
 40
-122.394
  9
$NORTHDIRECTION
 40
0.0
  9
$TIMEZONE
 70
 -8000
  9
$LIGHTGLYPHDISPLAY
280
     1
  9
$TILEMODELIGHTSYNCH
280
     1
  9
$CMATERIAL
347
11
  9
$SOLIDHIST
280
     0
  9
$SHOWHIST
280
     1
  9
$DWFFRAME
280
     2
  9
$DGNFRAME
280
     0
  9
$REALWORLDSCALE
290
     1
  9
$INTERFERECOLOR
 62
     1
  9
$INTERFEREOBJVS
345
33
  9
$INTERFEREVPVS
346
30
  9
$CSHADOW
280
     0
  9
$SHADOWPLANELOCATION
 40
0.0
  0
ENDSEC
  0
SECTION
  2
CLASSES
  0
CLASS
  1
ACDBDICTIONARYWDFLT
  2
AcDbDictionaryWithDefault
  3
ObjectDBX Classes
 90
        0
 91
        1
280
     0
281
     0
  0
CLASS
  1
MATERIAL
  2
AcDbMaterial
  3
ObjectDBX Classes
 90
     1153
 91
        3
280
     0
281
     0
  0
CLASS
  1
VISUALSTYLE
  2
AcDbVisualStyle
  3
ObjectDBX Classes
 90
     4095
 91
       24
280
     0
281
     0
  0
CLASS
  1
SCALE
  2
AcDbScale
  3
ObjectDBX Classes
 90
     1153
 91
       17
280
     0
281
     0
  0
CLASS
  1
TABLESTYLE
  2
AcDbTableStyle
  3
ObjectDBX Classes
 90
     4095
 91
        1
280
     0
281
     0
  0
CLASS
  1
MLEADERSTYLE
  2
AcDbMLeaderStyle
  3
ACDB_MLEADERSTYLE_CLASS
 90
     4095
 91
        1
280
     0
281
     0
  0
CLASS
  1
ACDBSECTIONVIEWSTYLE
  2
AcDbSectionViewStyle
  3
ObjectDBX Classes
 90
     1025
 91
        1
280
     0
281
     0
  0
CLASS
  1
ACDBDETAILVIEWSTYLE
  2
AcDbDetailViewStyle
  3
ObjectDBX Classes
 90
     1025
 91
        1
280
     0
281
     0
  0
CLASS
  1
DICTIONARYVAR
  2
AcDbDictionaryVar
  3
ObjectDBX Classes
 90
        0
 91
        5
280
     0
281
     0
  0
CLASS
  1
CELLSTYLEMAP
  2
AcDbCellStyleMap
  3
ObjectDBX Classes
 90
     1152
 91
        2
280
     0
281
     0
  0
CLASS
  1
SORTENTSTABLE
  2
AcDbSortentsTable
  3
ObjectDBX Classes
 90
        0
 91
        1
280
     0
281
     0
  0
ENDSEC
  0
SECTION
  2
TABLES
  0
TABLE
  2
VPORT
  5
8
330
0
100
AcDbSymbolTable
 70
     1
1001
ACAD
1000
DbSaveVer
1071
      105
  0
VPORT
  5
57
330
8
100
AcDbSymbolTableRecord
100
AcDbViewportTableRecord
  2
*Active
 70
     0
 10
0.0
 20
0.0
 11
1.0
 21
1.0
 12
-4.004257978446759
 22
-3.028043267780962
 13
0.0
 23
0.0
 14
1.0
 24
1.0
 15
0.0
 25
0.0
 16
0.0
 26
0.0
 36
1.0
 17
14.84999673225613
 27
-10.50008306681943
 37
0.0
 40
34.5241346599741
 41
1.931468531468531
 42
50.0
 43
0.0
 44
0.0
 50
0.0
 51
0.0
 71
     0
 72
   100
 73
     1
 74
     0
 75
     1
 76
     0
 77
     0
 78
     0
281
     0
 65
     1
110
0.0
120
0.0
130
0.0
111
1.0
121
0.0
131
0.0
112
0.0
122
1.0
132
0.0
 79
     0
146
0.0
348
2F
 60
     3
 61
     5
292
     1
282
     1
141
0.0
142
0.0
 63
   250
421
  3355443
1001
ACAD_NAV_VCDISPLAY
1070
     3
  0
ENDTAB
  0
TABLE
  2
LTYPE
  5
5
330
0
100
AcDbSymbolTable
 70
     1
  0
LTYPE
  5
5B
330
5
100
AcDbSymbolTableRecord
100
AcDbLinetypeTableRecord
  2
ByBlock
 70
     0
  3

 72
    65
 73
     0
 40
0.0
  0
LTYPE
  5
5C
330
5
100
AcDbSymbolTableRecord
100
AcDbLinetypeTableRecord
  2
ByLayer
 70
     0
  3

 72
    65
 73
     0
 40
0.0
  0
LTYPE
  5
5D
330
5
100
AcDbSymbolTableRecord
100
AcDbLinetypeTableRecord
  2
Continuous
 70
     0
  3
Solid line
 72
    65
 73
     0
 40
0.0
  0
ENDTAB
  0
TABLE
  2
LAYER
  5
2
330
0
100
AcDbSymbolTable
 70
     2
  0
LAYER
  5
54
330
2
100
AcDbSymbolTableRecord
100
AcDbLayerTableRecord
  2
0
 70
     0
 62
     7
  6
Continuous
370
    -3
390
F
347
21
348
0
  0
LAYER
  5
78
330
2
100
AcDbSymbolTableRecord
100
AcDbLayerTableRecord
  2
Livello 3
 70
     0
 62
     7
  6
Continuous
370
     0
390
F
347
21
348
0
  0
ENDTAB
  0
TABLE
  2
STYLE
  5
3
330
0
100
AcDbSymbolTable
 70
     2
  0
STYLE
  5
55
330
3
100
AcDbSymbolTableRecord
100
AcDbTextStyleTableRecord
  2
Standard
 70
     0
 40
0.0
 41
1.0
 50
0.0
 71
     0
 42
0.2
  3
txt
  4

  0
STYLE
  5
5A
330
3
100
AcDbSymbolTableRecord
100
AcDbTextStyleTableRecord
  2
Annotative
 70
     0
 40
0.0
 41
1.0
 50
0.0
 71
     0
 42
0.2
  3
txt
  4

1001
AcadAnnotative
1000
AnnotativeData
1002
{
1070
     1
1070
     1
1002
}
  0
ENDTAB
  0
TABLE
  2
VIEW
  5
6
330
0
100
AcDbSymbolTable
 70
     0
  0
ENDTAB
  0
TABLE
  2
UCS
  5
7
330
0
100
AcDbSymbolTable
 70
     0
  0
ENDTAB
  0
TABLE
  2
APPID
  5
9
330
0
100
AcDbSymbolTable
 70
     3
  0
APPID
  5
56
330
9
100
AcDbSymbolTableRecord
100
AcDbRegAppTableRecord
  2
ACAD
 70
     0
  0
APPID
  5
5E
330
9
100
AcDbSymbolTableRecord
100
AcDbRegAppTableRecord
  2
AcadAnnotative
 70
     0
  0
APPID
  5
340
330
9
100
AcDbSymbolTableRecord
100
AcDbRegAppTableRecord
  2
ACAD_NAV_VCDISPLAY
 70
     0
  0
ENDTAB
  0
TABLE
  2
DIMSTYLE
  5
A
330
0
100
AcDbSymbolTable
 70
     2
100
AcDbDimStyleTable
 71
     0
  0
DIMSTYLE
105
58
330
A
100
AcDbSymbolTableRecord
100
AcDbDimStyleTableRecord
  2
Standard
 70
     0
340
55
  0
DIMSTYLE
105
59
330
A
100
AcDbSymbolTableRecord
100
AcDbDimStyleTableRecord
  2
Annotative
 70
     0
340
55
1001
AcadAnnotative
1000
AnnotativeData
1002
{
1070
     1
1070
     1
1002
}
  0
ENDTAB
  0
TABLE
  2
BLOCK_RECORD
  5
1
330
0
100
AcDbSymbolTable
 70
    18
  0
BLOCK_RECORD
  5
70
102
{ACAD_XDICTIONARY
360
250
102
}
330
1
100
AcDbSymbolTableRecord
100
AcDbBlockTableRecord
  2
*Model_Space
340
73
 70
     0
280
     1
281
     0
  0
BLOCK_RECORD
  5
6C
330
1
100
AcDbSymbolTableRecord
100
AcDbBlockTableRecord
  2
*Paper_Space
340
6F
 70
     0
280
     1
281
     0
  0
BLOCK_RECORD
  5
74
330
1
100
AcDbSymbolTableRecord
100
AcDbBlockTableRecord
  2
*Paper_Space0
340
77
 70
     0
280
     1
281
     0
  0
BLOCK_RECORD
  5
79
330
1
100
AcDbSymbolTableRecord
100
AcDbBlockTableRecord
  2
Block_0
340
0
 70
     0
280
     1
281
     0
  0
BLOCK_RECORD
  5
147
330
1
100
AcDbSymbolTableRecord
100
AcDbBlockTableRecord
  2
Block_1
340
0
 70
     0
280
     1
281
     0
  0
BLOCK_RECORD
  5
14B
330
1
100
AcDbSymbolTableRecord
100
AcDbBlockTableRecord
  2
Block_2
340
0
102
{BLKREFS
331
14C
102
}
 70
     0
280
     1
281
     0
  0
BLOCK_RECORD
  5
1B2
330
1
100
AcDbSymbolTableRecord
100
AcDbBlockTableRecord
  2
Block_3
340
0
 70
     0
280
     1
281
     0
  0
BLOCK_RECORD
  5
1B6
330
1
100
AcDbSymbolTableRecord
100
AcDbBlockTableRecord
  2
Block_4
340
0
102
{BLKREFS
331
1B7
102
}
 70
     0
280
     1
281
     0
  0
BLOCK_RECORD
  5
1BF
330
1
100
AcDbSymbolTableRecord
100
AcDbBlockTableRecord
  2
Block_5
340
0
 70
     0
280
     1
281
     0
  0
BLOCK_RECORD
  5
1C3
330
1
100
AcDbSymbolTableRecord
100
AcDbBlockTableRecord
  2
Block_6
340
0
102
{BLKREFS
331
1C4
102
}
 70
     0
280
     1
281
     0
  0
BLOCK_RECORD
  5
1CB
330
1
100
AcDbSymbolTableRecord
100
AcDbBlockTableRecord
  2
Block_7
340
0
 70
     0
280
     1
281
     0
  0
BLOCK_RECORD
  5
1CF
330
1
100
AcDbSymbolTableRecord
100
AcDbBlockTableRecord
  2
Block_8
340
0
102
{BLKREFS
331
1D0
102
}
 70
     0
280
     1
281
     0
  0
BLOCK_RECORD
  5
1D8
330
1
100
AcDbSymbolTableRecord
100
AcDbBlockTableRecord
  2
Block_9
340
0
 70
     0
280
     1
281
     0
  0
BLOCK_RECORD
  5
1DC
330
1
100
AcDbSymbolTableRecord
100
AcDbBlockTableRecord
  2
Block_10
340
0
102
{BLKREFS
331
1DD
102
}
 70
     0
280
     1
281
     0
  0
BLOCK_RECORD
  5
1E4
330
1
100
AcDbSymbolTableRecord
100
AcDbBlockTableRecord
  2
Block_11
340
0
 70
     0
280
     1
281
     0
  0
BLOCK_RECORD
  5
1EB
330
1
100
AcDbSymbolTableRecord
100
AcDbBlockTableRecord
  2
Block_12
340
0
 70
     0
280
     1
281
     0
  0
BLOCK_RECORD
  5
1EF
330
1
100
AcDbSymbolTableRecord
100
AcDbBlockTableRecord
  2
Block_13
340
0
102
{BLKREFS
331
1F0
102
}
 70
     0
280
     1
281
     0
  0
BLOCK_RECORD
  5
1F7
330
1
100
AcDbSymbolTableRecord
100
AcDbBlockTableRecord
  2
Block_14
340
0
 70
     0
280
     1
281
     0
  0
BLOCK_RECORD
  5
1FE
330
1
100
AcDbSymbolTableRecord
100
AcDbBlockTableRecord
  2
Block_15
340
0
 70
     0
280
     1
281
     0
  0
BLOCK_RECORD
  5
205
330
1
100
AcDbSymbolTableRecord
100
AcDbBlockTableRecord
  2
Block_16
340
0
 70
     0
280
     1
281
     0
  0
ENDTAB
  0
ENDSEC
  0
SECTION
  2
BLOCKS
  0
BLOCK
  5
71
330
70
100
AcDbEntity
  8
0
100
AcDbBlockBegin
  2
*Model_Space
 70
     0
 10
0.0
 20
0.0
 30
0.0
  3
*Model_Space
  1

  0
ENDBLK
  5
72
330
70
100
AcDbEntity
  8
0
100
AcDbBlockEnd
  0
BLOCK
  5
6D
330
6C
100
AcDbEntity
 67
     1
  8
0
100
AcDbBlockBegin
  2
*Paper_Space
 70
     0
 10
0.0
 20
0.0
 30
0.0
  3
*Paper_Space
  1

  0
ENDBLK
  5
6E
330
6C
100
AcDbEntity
 67
     1
  8
0
100
AcDbBlockEnd
  0
BLOCK
  5
75
330
74
100
AcDbEntity
 67
     1
  8
0
100
AcDbBlockBegin
  2
*Paper_Space0
 70
     0
 10
0.0
 20
0.0
 30
0.0
  3
*Paper_Space0
  1

  0
ENDBLK
  5
76
330
74
100
AcDbEntity
 67
     1
  8
0
100
AcDbBlockEnd
  0
BLOCK
  5
7B
330
79
100
AcDbEntity
  8
0
100
AcDbBlockBegin
  2
Block_0
 70
     0
 10
0.0
 20
0.0
 30
0.0
  3
Block_0
  1

  0
LINE
  5
7D
330
79
100
AcDbEntity
  8
Livello 3
 62
    18
420
    65793
370
    70
100
AcDbLine
 10
1.758272621809394
 20
-11.65930643458521
 30
0.0
 11
1.531090794271951
 21
-11.7501255456736
 31
0.0
  0
LINE
  5
7E
330
79
100
AcDbEntity
  8
Livello 3
 62
    18
420
    65793
370
    70
100
AcDbLine
 10
1.531090794271951
 20
-11.84103285120643
 30
0.0
 11
1.531090794271951
 21
-11.7501255456736
 31
0.0
  0
LINE
  5
7F
330
79
100
AcDbEntity
  8
Livello 3
 62
    18
420
    65793
370
    70
100
AcDbLine
 10
2.417212104998446
 20
-11.88648474008394
 30
0.0
 11
2.417212104998446
 21
-11.84103285120643
 31
0.0
  0
LINE
  5
80
330
79
100
AcDbEntity
  8
Livello 3
 62
    18
420
    65793
370
    70
100
AcDbLine
 10
2.737400263496434
 20
-11.84103285120643
 30
0.0
 11
2.737400263496434
 21
-11.88648474008394
 31
0.0
  0
LINE
  5
81
330
79
100
AcDbEntity
  8
Livello 3
 62
    18
420
    65793
370
    70
100
AcDbLine
 10
3.055394144272622
 20
-11.84103285120643
 30
0.0
 11
3.055394144272622
 21
-11.88648474008394
 31
0.0
  0
LINE
  5
82
330
79
100
AcDbEntity
  8
Livello 3
 62
    18
420
    65793
370
    70
100
AcDbLine
 10
6.367793948655152
 20
-11.84103285120643
 30
0.0
 11
6.367793948655152
 21
-11.88648474008394
 31
0.0
  0
LINE
  5
83
330
79
100
AcDbEntity
  8
Livello 3
 62
    18
420
    65793
370
    70
100
AcDbLine
 10
6.685876023873535
 20
-11.84103285120643
 30
0.0
 11
6.685876023873535
 21
-11.88648474008394
 31
0.0
  0
LINE
  5
84
330
79
100
AcDbEntity
  8
Livello 3
 62
    18
420
    65793
370
    70
100
AcDbLine
 10
7.006237043478223
 20
-11.88648474008394
 30
0.0
 11
7.006237043478223
 21
-11.84103285120643
 31
0.0
  0
LINE
  5
85
330
79
100
AcDbEntity
  8
Livello 3
 62
    18
420
    65793
370
    70
100
AcDbLine
 10
7.892097298655822
 20
-11.84103285120643
 30
0.0
 11
7.892097298655822
 21
-11.7501255456736
 31
0.0
  0
LINE
  5
86
330
79
100
AcDbEntity
  8
Livello 3
 62
    18
420
    65793
370
    70
100
AcDbLine
 10
1.826845564504396
 20
-11.90951760118933
 30
0.0
 11
7.596342528423378
 21
-11.90951760118933
 31
0.0
  0
LINE
  5
87
330
79
100
AcDbEntity
  8
Livello 3
 62
    18
420
    65793
370
    70
100
AcDbLine
 10
1.849617369478995
 20
-11.88648474008394
 30
0.0
 11
7.573658917890973
 21
-11.88648474008394
 31
0.0
  0
LINE
  5
88
330
79
100
AcDbEntity
  8
Livello 3
 62
    18
420
    65793
370
    70
100
AcDbLine
 10
1.531090794271951
 20
-11.84103285120643
 30
0.0
 11
7.892097298655822
 21
-11.84103285120643
 31
0.0
  0
LINE
  5
89
330
79
100
AcDbEntity
  8
Livello 3
 62
    18
420
    65793
370
    70
100
AcDbLine
 10
7.892097298655822
 20
-11.7501255456736
 30
0.0
 11
1.531090794271951
 21
-11.7501255456736
 31
0.0
  0
LINE
  5
8A
330
79
100
AcDbEntity
  8
Livello 3
 62
    18
420
    65793
370
    70
100
AcDbLine
 10
7.664915781637154
 20
-11.65930643458521
 30
0.0
 11
1.758272621809394
 21
-11.65930643458521
 31
0.0
  0
LINE
  5
8B
330
79
100
AcDbEntity
  8
Livello 3
 62
    18
420
    65793
370
    70
100
AcDbLine
 10
7.664915781637154
 20
-11.65930643458521
 30
0.0
 11
7.892097298655822
 21
-11.7501255456736
 31
0.0
  0
SPLINE
  5
8C
330
79
100
AcDbEntity
  8
Livello 3
 62
    18
420
    65793
370
    70
100
AcDbSpline
210
0.0
220
0.0
230
1.0
 70
     8
 71
     3
 72
     8
 73
     4
 74
     0
 42
0.000000001
 43
0.0000000001
 40
0.0
 40
0.0
 40
0.0
 40
0.0
 40
1.0
 40
1.0
 40
1.0
 40
1.0
 10
1.849529175036801
 20
-11.88648474008394
 30
0.0
 10
1.837002036467506
 20
-11.88648474008394
 30
0.0
 10
1.826845564504396
 20
-11.89664826785923
 30
0.0
 10
1.826845564504396
 20
-11.90917187896719
 30
0.0
  0
LINE
  5
8D
330
79
100
AcDbEntity
  8
Livello 3
 62
    18
420
    65793
370
    70
100
AcDbLine
 10
1.826845564504396
 20
-11.90917187896719
 30
0.0
 11
1.826845564504396
 21
-11.9094329345227
 31
0.0
  0
SPLINE
  5
8E
330
79
100
AcDbEntity
  8
Livello 3
 62
    18
420
    65793
370
    70
100
AcDbSpline
210
0.0
220
0.0
230
1.0
 70
     8
 71
     3
 72
     8
 73
     4
 74
     0
 42
0.000000001
 43
0.0000000001
 40
0.0
 40
0.0
 40
0.0
 40
0.0
 40
1.0
 40
1.0
 40
1.0
 40
1.0
 10
7.596342528423378
 20
-11.90951760118933
 30
0.0
 10
7.59660711174996
 20
-11.89699399008136
 30
0.0
 10
7.586623500893551
 20
-11.88666112897282
 30
0.0
 10
7.574099890101946
 20
-11.88648474008394
 30
0.0
  0
SPLINE
  5
8F
330
79
100
AcDbEntity
  8
Livello 3
 62
    18
420
    65793
370
    70
100
AcDbSpline
210
0.0
220
0.0
230
1.0
 70
    24
 71
     3
 72
     8
 73
     4
 74
     0
 42
0.000000001
 43
0.0000000001
 40
0.0
 40
0.0
 40
0.0
 40
0.0
 40
1.0
 40
1.0
 40
1.0
 40
1.0
 10
7.574099890101946
 20
-11.88648474008394
 30
0.0
 10
7.573923501217556
 20
-11.88648474008394
 30
0.0
 10
7.573835306775362
 20
-11.88648474008394
 30
0.0
 10
7.573658917890973
 20
-11.88648474008394
 30
0.0
  0
ENDBLK
  5
7C
330
79
100
AcDbEntity
  8
0
100
AcDbBlockEnd
  0
BLOCK
  5
149
330
147
100
AcDbEntity
  8
0
100
AcDbBlockBegin
  2
Block_1
 70
     0
 10
0.0
 20
0.0
 30
0.0
  3
Block_1
  1

  0
INSERT
  5
14C
330
147
100
AcDbEntity
  8
Livello 3
100
AcDbBlockReference
  2
Block_2
 10
0.0
 20
0.0
 30
0.0
  0
LINE
  5
159
330
147
100
AcDbEntity
  8
Livello 3
 62
    18
420
    65793
370
    70
100
AcDbLine
 10
22.89461326766558
 20
-14.4787522949914
 30
0.0
 11
22.83969333046444
 21
-16.57638660002258
 31
0.0
  0
LINE
  5
15A
330
147
100
AcDbEntity
  8
Livello 3
 62
    18
420
    65793
370
    70
100
AcDbLine
 10
26.94252649772803
 20
-16.57638660002258
 30
0.0
 11
25.36974089896425
 21
-16.57638660002258
 31
0.0
  0
LINE
  5
15B
330
147
100
AcDbEntity
  8
Livello 3
 62
    18
420
    65793
370
    70
100
AcDbLine
 10
24.41239375672154
 20
-16.57638660002258
 30
0.0
 11
22.83969333046444
 21
-16.57638660002258
 31
0.0
  0
LINE
  5
15C
330
147
100
AcDbEntity
  8
Livello 3
 62
    18
420
    65793
370
    70
100
AcDbLine
 10
23.13634416372361
 20
-12.70148960099126
 30
0.0
 11
23.1226347062927
 21
-13.09470629533742
 31
0.0
  0
LINE
  5
15D
330
147
100
AcDbEntity
  8
Livello 3
 62
    18
420
    65793
370
    70
100
AcDbLine
 10
24.5492080310089
 20
-16.43957585005679
 30
0.0
 11
24.5492080310089
 21
-16.23448496121913
 31
0.0
  0
LINE
  5
15E
330
147
100
AcDbEntity
  8
Livello 3
 62
    18
420
    65793
370
    70
100
AcDbLine
 10
22.89461326766558
 20
-14.4787522949914
 30
0.0
 11
26.88760958246242
 21
-14.4787522949914
 31
0.0
  0
LINE
  5
15F
330
147
100
AcDbEntity
  8
Livello 3
 62
    18
420
    65793
370
    70
100
AcDbLine
 10
26.86476369415637
 20
-14.45652023944141
 30
0.0
 11
22.91737096152941
 21
-14.45652023944141
 31
0.0
  0
LINE
  5
160
330
147
100
AcDbEntity
  8
Livello 3
 62
    18
420
    65793
370
    70
100
AcDbLine
 10
25.23301481911909
 20
-16.23448496121913
 30
0.0
 11
25.23301481911909
 21
-16.43957585005679
 31
0.0
  0
LINE
  5
161
330
147
100
AcDbEntity
  8
Livello 3
 62
    18
420
    65793
370
    70
100
AcDbLine
 10
26.64579100529838
 20
-12.70148960099126
 30
0.0
 11
26.6594964216154
 21
-13.09470629533742
 31
0.0
  0
LINE
  5
162
330
147
100
AcDbEntity
  8
Livello 3
 62
    18
420
    65793
370
    70
100
AcDbLine
 10
26.637705338838
 20
-12.86097337872918
 30
0.0
 11
26.6198688948486
 21
-12.86097337872918
 31
0.0
  0
LINE
  5
163
330
147
100
AcDbEntity
  8
Livello 3
 62
    18
420
    65793
370
    70
100
AcDbLine
 10
26.48454687052318
 20
-12.86097337872918
 30
0.0
 11
26.43279084406581
 21
-12.86097337872918
 31
0.0
  0
LINE
  5
164
330
147
100
AcDbEntity
  8
Livello 3
 62
    18
420
    65793
370
    70
100
AcDbLine
 10
26.17542182285406
 20
-12.86097337872918
 30
0.0
 11
26.09484444076173
 21
-12.86097337872918
 31
0.0
  0
LINE
  5
165
330
147
100
AcDbEntity
  8
Livello 3
 62
    18
420
    65793
370
    70
100
AcDbLine
 10
25.74055266728183
 20
-12.86097337872918
 30
0.0
 11
25.63906203098218
 21
-12.86097337872918
 31
0.0
  0
LINE
  5
166
330
147
100
AcDbEntity
  8
Livello 3
 62
    18
420
    65793
370
    70
100
AcDbLine
 10
25.22255848605252
 20
-12.86097337872918
 30
0.0
 11
25.10999471878573
 21
-12.86097337872918
 31
0.0
  0
LINE
  5
167
330
147
100
AcDbEntity
  8
Livello 3
 62
    18
420
    65793
370
    70
100
AcDbLine
 10
24.67213697231716
 20
-12.86097337872918
 30
0.0
 11
24.55957616963327
 21
-12.86097337872918
 31
0.0
  0
LINE
  5
168
330
147
100
AcDbEntity
  8
Livello 3
 62
    18
420
    65793
370
    70
100
AcDbLine
 10
24.1431608191458
 20
-12.86097337872918
 30
0.0
 11
24.04158198840396
 21
-12.86097337872918
 31
0.0
  0
LINE
  5
169
330
147
100
AcDbEntity
  8
Livello 3
 62
    18
420
    65793
370
    70
100
AcDbLine
 10
23.68729080299823
 20
-12.86097337872918
 30
0.0
 11
23.60671283283173
 21
-12.86097337872918
 31
0.0
  0
LINE
  5
16A
330
147
100
AcDbEntity
  8
Livello 3
 62
    18
420
    65793
370
    70
100
AcDbLine
 10
23.3493402838423
 20
-12.86097337872918
 30
0.0
 11
23.29758425738492
 21
-12.86097337872918
 31
0.0
  0
LINE
  5
16B
330
147
100
AcDbEntity
  8
Livello 3
 62
    18
420
    65793
370
    70
100
AcDbLine
 10
23.16226576083718
 20
-12.86097337872918
 30
0.0
 11
23.14451751128999
 21
-12.86097337872918
 31
0.0
  0
LINE
  5
16C
330
147
100
AcDbEntity
  8
Livello 3
 62
    18
420
    65793
370
    70
100
AcDbLine
 10
26.88760958246242
 20
-14.4787522949914
 30
0.0
 11
26.94252649772803
 21
-16.57638660002258
 31
0.0
  0
LINE
  5
16D
330
147
100
AcDbEntity
  8
Livello 3
 62
    18
420
    65793
370
    70
100
AcDbLine
 10
23.13634416372361
 20
-12.70148960099126
 30
0.0
 11
26.64579100529838
 21
-12.70148960099126
 31
0.0
  0
SPLINE
  5
16E
330
147
100
AcDbEntity
  8
Livello 3
 62
    18
420
    65793
370
    70
100
AcDbSpline
210
0.0
220
0.0
230
1.0
 70
     8
 71
     3
 72
     8
 73
     4
 74
     0
 42
0.000000001
 43
0.0000000001
 40
0.0
 40
0.0
 40
0.0
 40
0.0
 40
1.0
 40
1.0
 40
1.0
 40
1.0
 10
25.23301481911909
 20
-16.23448496121913
 30
0.0
 10
25.23301481911909
 20
-16.04565360015524
 30
0.0
 10
25.07994454524645
 20
-15.89258332241573
 30
0.0
 10
24.89110966117515
 20
-15.89258332241573
 30
0.0
  0
SPLINE
  5
16F
330
147
100
AcDbEntity
  8
Livello 3
 62
    18
420
    65793
370
    70
100
AcDbSpline
210
0.0
220
0.0
230
1.0
 70
     8
 71
     3
 72
     8
 73
     4
 74
     0
 42
0.000000001
 43
0.0000000001
 40
0.0
 40
0.0
 40
0.0
 40
0.0
 40
1.0
 40
1.0
 40
1.0
 40
1.0
 10
24.89110966117515
 20
-15.89258332241573
 30
0.0
 10
24.70227830488152
 20
-15.89258332241573
 30
0.0
 10
24.5492080310089
 20
-16.04565360015524
 30
0.0
 10
24.5492080310089
 20
-16.23448496121913
 30
0.0
  0
SPLINE
  5
170
330
147
100
AcDbEntity
  8
Livello 3
 62
    18
420
    65793
370
    70
100
AcDbSpline
210
0.0
220
0.0
230
1.0
 70
     8
 71
     3
 72
     8
 73
     4
 74
     0
 42
0.000000001
 43
0.0000000001
 40
0.0
 40
0.0
 40
0.0
 40
0.0
 40
1.0
 40
1.0
 40
1.0
 40
1.0
 10
24.41239375672154
 20
-16.57638660002258
 30
0.0
 10
24.48796228257141
 20
-16.57638660002258
 30
0.0
 10
24.5492080310089
 20
-16.51514085003789
 30
0.0
 10
24.5492080310089
 20
-16.43957585005679
 30
0.0
  0
SPLINE
  5
171
330
147
100
AcDbEntity
  8
Livello 3
 62
    18
420
    65793
370
    70
100
AcDbSpline
210
0.0
220
0.0
230
1.0
 70
     8
 71
     3
 72
     8
 73
     4
 74
     0
 42
0.000000001
 43
0.0000000001
 40
0.0
 40
0.0
 40
0.0
 40
0.0
 40
1.0
 40
1.0
 40
1.0
 40
1.0
 10
25.23301481911909
 20
-16.43957585005679
 30
0.0
 10
25.23301481911909
 20
-16.51514085003789
 30
0.0
 10
25.29417237311438
 20
-16.57638660002258
 30
0.0
 10
25.36974089896425
 20
-16.57638660002258
 30
0.0
  0
SPLINE
  5
172
330
147
100
AcDbEntity
  8
Livello 3
 62
    18
420
    65793
370
    70
100
AcDbSpline
210
0.0
220
0.0
230
1.0
 70
     8
 71
     3
 72
     8
 73
     4
 74
     0
 42
0.000000001
 43
0.0000000001
 40
0.0
 40
0.0
 40
0.0
 40
0.0
 40
1.0
 40
1.0
 40
1.0
 40
1.0
 10
26.88760958246242
 20
-14.4787522949914
 30
0.0
 10
26.88725680469364
 20
-14.46636273943897
 30
0.0
 10
26.87715324939584
 20
-14.45652023944141
 30
0.0
 10
26.86476369415637
 20
-14.45652023944141
 30
0.0
  0
SPLINE
  5
173
330
147
100
AcDbEntity
  8
Livello 3
 62
    18
420
    65793
370
    70
100
AcDbSpline
210
0.0
220
0.0
230
1.0
 70
     8
 71
     3
 72
     8
 73
     4
 74
     0
 42
0.000000001
 43
0.0000000001
 40
0.0
 40
0.0
 40
0.0
 40
0.0
 40
1.0
 40
1.0
 40
1.0
 40
1.0
 10
22.91737096152941
 20
-14.45652023944141
 30
0.0
 10
22.90498140628995
 20
-14.45652023944141
 30
0.0
 10
22.89487785099215
 20
-14.46636273943897
 30
0.0
 10
22.89461326766558
 20
-14.4787522949914
 30
0.0
  0
LINE
  5
174
330
147
100
AcDbEntity
  8
Livello 3
 62
    18
420
    65793
370
    70
100
AcDbLine
 10
23.14451751128999
 20
-12.86097337872918
 30
0.0
 11
22.99540187620535
 21
-14.45652023944141
 31
0.0
  0
LINE
  5
175
330
147
100
AcDbEntity
  8
Livello 3
 62
    18
420
    65793
370
    70
100
AcDbLine
 10
23.29758425738492
 20
-12.86097337872918
 30
0.0
 11
23.16314417748144
 21
-14.45652023944141
 31
0.0
  0
LINE
  5
176
330
147
100
AcDbEntity
  8
Livello 3
 62
    18
420
    65793
370
    70
100
AcDbLine
 10
23.60671283283173
 20
-12.86097337872918
 30
0.0
 11
23.50003989110874
 21
-14.45652023944141
 31
0.0
  0
LINE
  5
177
330
147
100
AcDbEntity
  8
Livello 3
 62
    18
420
    65793
370
    70
100
AcDbLine
 10
24.04158198840396
 20
-12.86097337872918
 30
0.0
 11
23.97304432348583
 21
-14.45652023944141
 31
0.0
  0
LINE
  5
178
330
147
100
AcDbEntity
  8
Livello 3
 62
    18
420
    65793
370
    70
100
AcDbLine
 10
24.55957616963327
 20
-12.86097337872918
 30
0.0
 11
24.53594005912517
 21
-14.45652023944141
 31
0.0
  0
LINE
  5
179
330
147
100
AcDbEntity
  8
Livello 3
 62
    18
420
    65793
370
    70
100
AcDbLine
 10
25.24619459656062
 20
-14.45652023944141
 30
0.0
 11
25.22255848605252
 21
-12.86097337872918
 31
0.0
  0
LINE
  5
17A
330
147
100
AcDbEntity
  8
Livello 3
 62
    18
420
    65793
370
    70
100
AcDbLine
 10
25.80909033219996
 20
-14.45652023944141
 30
0.0
 11
25.74055266728183
 21
-12.86097337872918
 31
0.0
  0
LINE
  5
17B
330
147
100
AcDbEntity
  8
Livello 3
 62
    18
420
    65793
370
    70
100
AcDbLine
 10
26.28209476457705
 20
-14.45652023944141
 30
0.0
 11
26.17542182285406
 21
-12.86097337872918
 31
0.0
  0
LINE
  5
17C
330
147
100
AcDbEntity
  8
Livello 3
 62
    18
420
    65793
370
    70
100
AcDbLine
 10
26.61899047820435
 20
-14.45652023944141
 30
0.0
 11
26.48454687052318
 21
-12.86097337872918
 31
0.0
  0
LINE
  5
17D
330
147
100
AcDbEntity
  8
Livello 3
 62
    18
420
    65793
370
    70
100
AcDbLine
 10
26.78673277948044
 20
-14.45652023944141
 30
0.0
 11
26.637705338838
 21
-12.86097337872918
 31
0.0
  0
LINE
  5
17E
330
147
100
AcDbEntity
  8
Livello 3
 62
    18
420
    65793
370
    70
100
AcDbLine
 10
26.09484444076173
 20
-12.86097337872918
 30
0.0
 11
26.20151679441054
 21
-14.45652023944141
 31
0.0
  0
LINE
  5
17F
330
147
100
AcDbEntity
  8
Livello 3
 62
    18
420
    65793
370
    70
100
AcDbLine
 10
26.43279084406581
 20
-12.86097337872918
 30
0.0
 11
26.56723445174697
 21
-14.45652023944141
 31
0.0
  0
LINE
  5
180
330
147
100
AcDbEntity
  8
Livello 3
 62
    18
420
    65793
370
    70
100
AcDbLine
 10
26.6198688948486
 20
-12.86097337872918
 30
0.0
 11
26.76889694059321
 21
-14.45652023944141
 31
0.0
  0
LINE
  5
181
330
147
100
AcDbEntity
  8
Livello 3
 62
    18
420
    65793
370
    70
100
AcDbLine
 10
26.67487400455641
 20
-14.45652023944141
 30
0.0
 11
26.6198688948486
 21
-12.86097337872918
 31
0.0
  0
LINE
  5
182
330
147
100
AcDbEntity
  8
Livello 3
 62
    18
420
    65793
370
    70
100
AcDbLine
 10
23.01323832019475
 20
-14.45652023944141
 30
0.0
 11
23.16226576083718
 21
-12.86097337872918
 31
0.0
  0
LINE
  5
183
330
147
100
AcDbEntity
  8
Livello 3
 62
    18
420
    65793
370
    70
100
AcDbLine
 10
26.48244138510931
 20
-14.45652023944141
 30
0.0
 11
26.43279084406581
 21
-12.86097337872918
 31
0.0
  0
LINE
  5
184
330
147
100
AcDbEntity
  8
Livello 3
 62
    18
420
    65793
370
    70
100
AcDbLine
 10
23.21490020393881
 20
-14.45652023944141
 30
0.0
 11
23.3493402838423
 21
-12.86097337872918
 31
0.0
  0
LINE
  5
185
330
147
100
AcDbEntity
  8
Livello 3
 62
    18
420
    65793
370
    70
100
AcDbLine
 10
26.13421032390545
 20
-14.45652023944141
 30
0.0
 11
26.09484444076173
 21
-12.86097337872918
 31
0.0
  0
LINE
  5
186
330
147
100
AcDbEntity
  8
Livello 3
 62
    18
420
    65793
370
    70
100
AcDbLine
 10
25.66436678033661
 20
-14.45652023944141
 30
0.0
 11
25.63906203098218
 21
-12.86097337872918
 31
0.0
  0
LINE
  5
187
330
147
100
AcDbEntity
  8
Livello 3
 62
    18
420
    65793
370
    70
100
AcDbLine
 10
25.118693655369
 20
-14.45652023944141
 30
0.0
 11
25.10999471878573
 21
-12.86097337872918
 31
0.0
  0
LINE
  5
188
330
147
100
AcDbEntity
  8
Livello 3
 62
    18
420
    65793
370
    70
100
AcDbLine
 10
24.67213697231716
 20
-12.86097337872918
 30
0.0
 11
24.66344100031679
 21
-14.45652023944141
 31
0.0
  0
LINE
  5
189
330
147
100
AcDbEntity
  8
Livello 3
 62
    18
420
    65793
370
    70
100
AcDbLine
 10
23.58061433349756
 20
-14.45652023944141
 30
0.0
 11
23.68729080299823
 21
-12.86097337872918
 31
0.0
  0
LINE
  5
18A
330
147
100
AcDbEntity
  8
Livello 3
 62
    18
420
    65793
370
    70
100
AcDbLine
 10
24.1431608191458
 20
-12.86097337872918
 30
0.0
 11
24.11785254201369
 21
-14.45652023944141
 31
0.0
  0
LINE
  5
18B
330
147
100
AcDbEntity
  8
Livello 3
 62
    18
420
    65793
370
    70
100
AcDbLine
 10
24.07462315422768
 20
-14.45652023944141
 30
0.0
 11
24.1431608191458
 21
-12.86097337872918
 31
0.0
  0
LINE
  5
18C
330
147
100
AcDbEntity
  8
Livello 3
 62
    18
420
    65793
370
    70
100
AcDbLine
 10
23.68729080299823
 20
-12.86097337872918
 30
0.0
 11
23.64792433178033
 21
-14.45652023944141
 31
0.0
  0
LINE
  5
18D
330
147
100
AcDbEntity
  8
Livello 3
 62
    18
420
    65793
370
    70
100
AcDbLine
 10
23.3493402838423
 20
-12.86097337872918
 30
0.0
 11
23.29969386844221
 21
-14.45652023944141
 31
0.0
  0
LINE
  5
18E
330
147
100
AcDbEntity
  8
Livello 3
 62
    18
420
    65793
370
    70
100
AcDbLine
 10
24.64850086180906
 20
-14.45652023944141
 30
0.0
 11
24.67213697231716
 21
-12.86097337872918
 31
0.0
  0
LINE
  5
18F
330
147
100
AcDbEntity
  8
Livello 3
 62
    18
420
    65793
370
    70
100
AcDbLine
 10
23.16226576083718
 20
-12.86097337872918
 30
0.0
 11
23.10726065112937
 21
-14.45652023944141
 31
0.0
  0
LINE
  5
190
330
147
100
AcDbEntity
  8
Livello 3
 62
    18
420
    65793
370
    70
100
AcDbLine
 10
25.10999471878573
 20
-12.86097337872918
 30
0.0
 11
25.13363379387673
 21
-14.45652023944141
 31
0.0
  0
LINE
  5
191
330
147
100
AcDbEntity
  8
Livello 3
 62
    18
420
    65793
370
    70
100
AcDbLine
 10
25.63906203098218
 20
-12.86097337872918
 30
0.0
 11
25.70751150145811
 21
-14.45652023944141
 31
0.0
  0
ENDBLK
  5
14A
330
147
100
AcDbEntity
  8
0
100
AcDbBlockEnd
  0
BLOCK
  5
14D
330
14B
100
AcDbEntity
  8
0
100
AcDbBlockBegin
  2
Block_2
 70
     0
 10
0.0
 20
0.0
 30
0.0
  3
Block_2
  1

  0
LINE
  5
14F
330
14B
100
AcDbEntity
  8
Livello 3
 62
    18
420
    65793
370
    70
100
AcDbLine
 10
22.95954554378679
 20
-12.53049115658956
 30
0.0
 11
22.80006177007778
 21
-12.6216136565668
 31
0.0
  0
LINE
  5
150
330
14B
100
AcDbEntity
  8
Livello 3
 62
    18
420
    65793
370
    70
100
AcDbLine
 10
22.80006177007778
 20
-12.6899784621053
 30
0.0
 11
22.80006177007778
 21
-12.6216136565668
 31
0.0
  0
LINE
  5
151
330
14B
100
AcDbEntity
  8
Livello 3
 62
    18
420
    65793
370
    70
100
AcDbLine
 10
22.80006177007778
 20
-12.6899784621053
 30
0.0
 11
22.80006177007778
 21
-12.6216136565668
 31
0.0
  0
LINE
  5
152
330
14B
100
AcDbEntity
  8
Livello 3
 62
    18
420
    65793
370
    70
100
AcDbLine
 10
26.90289544318355
 20
-12.6899784621053
 30
0.0
 11
26.90289544318355
 21
-12.6216136565668
 31
0.0
  0
LINE
  5
153
330
14B
100
AcDbEntity
  8
Livello 3
 62
    18
420
    65793
370
    70
100
AcDbLine
 10
26.90289544318355
 20
-12.6899784621053
 30
0.0
 11
26.90289544318355
 21
-12.6216136565668
 31
0.0
  0
LINE
  5
154
330
14B
100
AcDbEntity
  8
Livello 3
 62
    18
420
    65793
370
    70
100
AcDbLine
 10
22.80006177007778
 20
-12.6899784621053
 30
0.0
 11
26.90289544318355
 21
-12.6899784621053
 31
0.0
  0
LINE
  5
155
330
14B
100
AcDbEntity
  8
Livello 3
 62
    18
420
    65793
370
    70
100
AcDbLine
 10
22.80006177007778
 20
-12.6216136565668
 30
0.0
 11
26.90289544318355
 21
-12.6216136565668
 31
0.0
  0
LINE
  5
156
330
14B
100
AcDbEntity
  8
Livello 3
 62
    18
420
    65793
370
    70
100
AcDbLine
 10
22.95954554378679
 20
-12.53049115658956
 30
0.0
 11
26.74332347503236
 21
-12.53049115658956
 31
0.0
  0
LINE
  5
157
330
14B
100
AcDbEntity
  8
Livello 3
 62
    18
420
    65793
370
    70
100
AcDbLine
 10
26.74332347503236
 20
-12.53049115658956
 30
0.0
 11
26.90289544318355
 21
-12.6216136565668
 31
0.0
  0
LINE
  5
158
330
14B
100
AcDbEntity
  8
Livello 3
 62
    18
420
    65793
370
    70
100
AcDbLine
 10
26.46978312089983
 20
-12.82679273984884
 30
0.0
 11
26.46951853757325
 21
-12.82679273984884
 31
0.0
  0
ENDBLK
  5
14E
330
14B
100
AcDbEntity
  8
0
100
AcDbBlockEnd
  0
BLOCK
  5
1B4
330
1B2
100
AcDbEntity
  8
0
100
AcDbBlockBegin
  2
Block_3
 70
     0
 10
0.0
 20
0.0
 30
0.0
  3
Block_3
  1

  0
INSERT
  5
1B7
330
1B2
100
AcDbEntity
  8
Livello 3
100
AcDbBlockReference
  2
Block_4
 10
0.0
 20
0.0
 30
0.0
  0
ENDBLK
  5
1B5
330
1B2
100
AcDbEntity
  8
0
100
AcDbBlockEnd
  0
BLOCK
  5
1B8
330
1B6
100
AcDbEntity
  8
0
100
AcDbBlockBegin
  2
Block_4
 70
     0
 10
0.0
 20
0.0
 30
0.0
  3
Block_4
  1

  0
SPLINE
  5
1BA
330
1B6
100
AcDbEntity
  8
Livello 3
100
AcDbSpline
210
0.0
220
0.0
230
1.0
 70
    11
 71
     3
 72
    29
 73
    25
 74
     0
 42
0.000000001
 43
0.0000000001
 40
0.0
 40
0.0
 40
0.0
 40
0.0
 40
1.0
 40
1.0
 40
1.0
 40
2.0
 40
2.0
 40
2.0
 40
3.0
 40
3.0
 40
3.0
 40
4.0
 40
4.0
 40
4.0
 40
5.0
 40
5.0
 40
5.0
 40
6.0
 40
6.0
 40
6.0
 40
7.0
 40
7.0
 40
7.0
 40
8.0
 40
8.0
 40
8.0
 40
8.0
 10
4.156404350089371
 20
-17.87019259535884
 30
0.0
 10
4.156404350089371
 20
-17.87019259535884
 30
0.0
 10
4.153854979430286
 20
-17.87019259535884
 30
0.0
 10
4.153854979430286
 20
-17.87019259535884
 30
0.0
 10
4.153854979430286
 20
-17.87019259535884
 30
0.0
 10
4.01036675246963
 20
-17.94763834186725
 30
0.0
 10
4.01036675246963
 20
-17.94763834186725
 30
0.0
 10
4.01036675246963
 20
-17.94763834186725
 30
0.0
 10
3.98878322925454
 20
-17.86254448338158
 30
0.0
 10
3.98878322925454
 20
-17.86254448338158
 30
0.0
 10
3.98878322925454
 20
-17.86254448338158
 30
0.0
 10
4.169099526952515
 20
-17.76604735883973
 30
0.0
 10
4.169099526952515
 20
-17.76604735883973
 30
0.0
 10
4.169099526952515
 20
-17.76604735883973
 30
0.0
 10
4.264339191642248
 20
-17.76604735883973
 30
0.0
 10
4.264339191642248
 20
-17.76604735883973
 30
0.0
 10
4.264339191642248
 20
-17.76604735883973
 30
0.0
 10
4.264339191642248
 20
-18.59145778615074
 30
0.0
 10
4.264339191642248
 20
-18.59145778615074
 30
0.0
 10
4.264339191642248
 20
-18.59145778615074
 30
0.0
 10
4.156404350089371
 20
-18.59145778615074
 30
0.0
 10
4.156404350089371
 20
-18.59145778615074
 30
0.0
 10
4.156404350089371
 20
-18.59145778615074
 30
0.0
 10
4.156404350089371
 20
-17.87019259535884
 30
0.0
 10
4.156404350089371
 20
-17.87019259535884
 30
0.0
  0
HATCH
  5
1BB
330
1B6
100
AcDbEntity
  8
Livello 3
 62
   250
420
  1907995
440
 33554687
100
AcDbHatch
 10
0.0
 20
0.0
 30
0.0
210
0.0
220
0.0
230
1.0
  2
SOLID
 70
     1
 71
     1
 91
        1
 92
        1
 93
        1
 72
     4
 94
        3
 73
     0
 74
     0
 95
       29
 96
       25
 40
0.0
 40
0.0
 40
0.0
 40
0.0
 40
1.0
 40
1.0
 40
1.0
 40
2.0
 40
2.0
 40
2.0
 40
3.0
 40
3.0
 40
3.0
 40
4.0
 40
4.0
 40
4.0
 40
5.0
 40
5.0
 40
5.0
 40
6.0
 40
6.0
 40
6.0
 40
7.0
 40
7.0
 40
7.0
 40
8.0
 40
8.0
 40
8.0
 40
8.0
 10
4.156404350089371
 20
-17.87019259535884
 10
4.156404350089371
 20
-17.87019259535884
 10
4.153854979430286
 20
-17.87019259535884
 10
4.153854979430286
 20
-17.87019259535884
 10
4.153854979430286
 20
-17.87019259535884
 10
4.01036675246963
 20
-17.94763834186725
 10
4.01036675246963
 20
-17.94763834186725
 10
4.01036675246963
 20
-17.94763834186725
 10
3.98878322925454
 20
-17.86254448338158
 10
3.98878322925454
 20
-17.86254448338158
 10
3.98878322925454
 20
-17.86254448338158
 10
4.169099526952515
 20
-17.76604735883973
 10
4.169099526952515
 20
-17.76604735883973
 10
4.169099526952515
 20
-17.76604735883973
 10
4.264339191642248
 20
-17.76604735883973
 10
4.264339191642248
 20
-17.76604735883973
 10
4.264339191642248
 20
-17.76604735883973
 10
4.264339191642248
 20
-18.59145778615074
 10
4.264339191642248
 20
-18.59145778615074
 10
4.264339191642248
 20
-18.59145778615074
 10
4.156404350089371
 20
-18.59145778615074
 10
4.156404350089371
 20
-18.59145778615074
 10
4.156404350089371
 20
-18.59145778615074
 10
4.156404350089371
 20
-17.87019259535884
 10
4.156404350089371
 20
-17.87019259535884
 97
        0
 97
        1
330
1BA
 75
     2
 76
     1
 98
        1
 10
0.0
 20
0.0
450
        0
451
        0
460
0.0
461
0.0
452
        0
462
0.0
453
        0
470

  0
SPLINE
  5
1BC
330
1B6
100
AcDbEntity
  8
Livello 3
100
AcDbSpline
210
0.0
220
0.0
230
1.0
 70
    11
 71
     3
 72
    26
 73
    22
 74
     0
 42
0.000000001
 43
0.0000000001
 40
0.0
 40
0.0
 40
0.0
 40
0.0
 40
1.0
 40
1.0
 40
1.0
 40
2.0
 40
2.0
 40
2.0
 40
3.0
 40
3.0
 40
3.0
 40
4.0
 40
4.0
 40
4.0
 40
5.0
 40
5.0
 40
5.0
 40
6.0
 40
6.0
 40
6.0
 40
7.0
 40
7.0
 40
7.0
 40
7.0
 10
4.910742457539674
 20
-18.27905652754829
 30
0.0
 10
4.910742457539674
 20
-18.27905652754829
 30
0.0
 10
4.910742457539674
 20
-18.00351779063801
 30
0.0
 10
4.910742457539674
 20
-18.00351779063801
 30
0.0
 10
4.910742457539674
 20
-17.96035074420782
 30
0.0
 10
4.912017142869216
 20
-17.91714924682279
 30
0.0
 10
4.914549288050876
 20
-17.87398220039261
 30
0.0
 10
4.914549288050876
 20
-17.87398220039261
 30
0.0
 10
4.910742457539674
 20
-17.87398220039261
 30
0.0
 10
4.910742457539674
 20
-17.87398220039261
 30
0.0
 10
4.885334878335958
 20
-17.92224798814096
 30
0.0
 10
4.865026040450408
 20
-17.95780137354874
 30
0.0
 10
4.842167831905777
 20
-17.99590412961561
 30
0.0
 10
4.842167831905777
 20
-17.99590412961561
 30
0.0
 10
4.640268010992709
 20
-18.27654160784406
 30
0.0
 10
4.640268010992709
 20
-18.27654160784406
 30
0.0
 10
4.640268010992709
 20
-18.27654160784406
 30
0.0
 10
4.640268010992709
 20
-18.27905652754829
 30
0.0
 10
4.640268010992709
 20
-18.27905652754829
 30
0.0
 10
4.640268010992709
 20
-18.27905652754829
 30
0.0
 10
4.910742457539674
 20
-18.27905652754829
 30
0.0
 10
4.910742457539674
 20
-18.27905652754829
 30
0.0
  0
SPLINE
  5
1BD
330
1B6
100
AcDbEntity
  8
Livello 3
100
AcDbSpline
210
0.0
220
0.0
230
1.0
 70
    11
 71
     3
 72
    38
 73
    34
 74
     0
 42
0.000000001
 43
0.0000000001
 40
0.0
 40
0.0
 40
0.0
 40
0.0
 40
1.0
 40
1.0
 40
1.0
 40
2.0
 40
2.0
 40
2.0
 40
3.0
 40
3.0
 40
3.0
 40
4.0
 40
4.0
 40
4.0
 40
5.0
 40
5.0
 40
5.0
 40
6.0
 40
6.0
 40
6.0
 40
7.0
 40
7.0
 40
7.0
 40
8.0
 40
8.0
 40
8.0
 40
9.0
 40
9.0
 40
9.0
 40
10.0
 40
10.0
 40
10.0
 40
11.0
 40
11.0
 40
11.0
 40
11.0
 10
4.910742457539674
 20
-18.59145778615074
 30
0.0
 10
4.910742457539674
 20
-18.59145778615074
 30
0.0
 10
4.910742457539674
 20
-18.36669975669304
 30
0.0
 10
4.910742457539674
 20
-18.36669975669304
 30
0.0
 10
4.910742457539674
 20
-18.36669975669304
 30
0.0
 10
4.527251653599089
 20
-18.36669975669304
 30
0.0
 10
4.527251653599089
 20
-18.36669975669304
 30
0.0
 10
4.527251653599089
 20
-18.36669975669304
 30
0.0
 10
4.527251653599089
 20
-18.2930436152184
 30
0.0
 10
4.527251653599089
 20
-18.2930436152184
 30
0.0
 10
4.527251653599089
 20
-18.2930436152184
 30
0.0
 10
4.895497910017443
 20
-17.76604735883973
 30
0.0
 10
4.895497910017443
 20
-17.76604735883973
 30
0.0
 10
4.895497910017443
 20
-17.76604735883973
 30
0.0
 10
5.016127928433466
 20
-17.76604735883973
 30
0.0
 10
5.016127928433466
 20
-17.76604735883973
 30
0.0
 10
5.016127928433466
 20
-17.76604735883973
 30
0.0
 10
5.016127928433466
 20
-18.27905652754829
 30
0.0
 10
5.016127928433466
 20
-18.27905652754829
 30
0.0
 10
5.016127928433466
 20
-18.27905652754829
 30
0.0
 10
5.131693656486172
 20
-18.27905652754829
 30
0.0
 10
5.131693656486172
 20
-18.27905652754829
 30
0.0
 10
5.131693656486172
 20
-18.27905652754829
 30
0.0
 10
5.131693656486172
 20
-18.36669975669304
 30
0.0
 10
5.131693656486172
 20
-18.36669975669304
 30
0.0
 10
5.131693656486172
 20
-18.36669975669304
 30
0.0
 10
5.016127928433466
 20
-18.36669975669304
 30
0.0
 10
5.016127928433466
 20
-18.36669975669304
 30
0.0
 10
5.016127928433466
 20
-18.36669975669304
 30
0.0
 10
5.016127928433466
 20
-18.59145778615074
 30
0.0
 10
5.016127928433466
 20
-18.59145778615074
 30
0.0
 10
5.016127928433466
 20
-18.59145778615074
 30
0.0
 10
4.910742457539674
 20
-18.59145778615074
 30
0.0
 10
4.910742457539674
 20
-18.59145778615074
 30
0.0
  0
HATCH
  5
1BE
330
1B6
100
AcDbEntity
  8
Livello 3
 62
   250
420
  1907995
440
 33554687
100
AcDbHatch
 10
0.0
 20
0.0
 30
0.0
210
0.0
220
0.0
230
1.0
  2
SOLID
 70
     1
 71
     1
 91
        2
 92
        1
 93
        1
 72
     4
 94
        3
 73
     0
 74
     0
 95
       26
 96
       22
 40
0.0
 40
0.0
 40
0.0
 40
0.0
 40
1.0
 40
1.0
 40
1.0
 40
2.0
 40
2.0
 40
2.0
 40
3.0
 40
3.0
 40
3.0
 40
4.0
 40
4.0
 40
4.0
 40
5.0
 40
5.0
 40
5.0
 40
6.0
 40
6.0
 40
6.0
 40
7.0
 40
7.0
 40
7.0
 40
7.0
 10
4.910742457539674
 20
-18.27905652754829
 10
4.910742457539674
 20
-18.27905652754829
 10
4.910742457539674
 20
-18.00351779063801
 10
4.910742457539674
 20
-18.00351779063801
 10
4.910742457539674
 20
-17.96035074420782
 10
4.912017142869216
 20
-17.91714924682279
 10
4.914549288050876
 20
-17.87398220039261
 10
4.914549288050876
 20
-17.87398220039261
 10
4.910742457539674
 20
-17.87398220039261
 10
4.910742457539674
 20
-17.87398220039261
 10
4.885334878335958
 20
-17.92224798814096
 10
4.865026040450408
 20
-17.95780137354874
 10
4.842167831905777
 20
-17.99590412961561
 10
4.842167831905777
 20
-17.99590412961561
 10
4.640268010992709
 20
-18.27654160784406
 10
4.640268010992709
 20
-18.27654160784406
 10
4.640268010992709
 20
-18.27654160784406
 10
4.640268010992709
 20
-18.27905652754829
 10
4.640268010992709
 20
-18.27905652754829
 10
4.640268010992709
 20
-18.27905652754829
 10
4.910742457539674
 20
-18.27905652754829
 10
4.910742457539674
 20
-18.27905652754829
 97
        0
 97
        1
330
1BC
 92
        1
 93
        1
 72
     4
 94
        3
 73
     0
 74
     0
 95
       38
 96
       34
 40
0.0
 40
0.0
 40
0.0
 40
0.0
 40
1.0
 40
1.0
 40
1.0
 40
2.0
 40
2.0
 40
2.0
 40
3.0
 40
3.0
 40
3.0
 40
4.0
 40
4.0
 40
4.0
 40
5.0
 40
5.0
 40
5.0
 40
6.0
 40
6.0
 40
6.0
 40
7.0
 40
7.0
 40
7.0
 40
8.0
 40
8.0
 40
8.0
 40
9.0
 40
9.0
 40
9.0
 40
10.0
 40
10.0
 40
10.0
 40
11.0
 40
11.0
 40
11.0
 40
11.0
 10
4.910742457539674
 20
-18.59145778615074
 10
4.910742457539674
 20
-18.59145778615074
 10
4.910742457539674
 20
-18.36669975669304
 10
4.910742457539674
 20
-18.36669975669304
 10
4.910742457539674
 20
-18.36669975669304
 10
4.527251653599089
 20
-18.36669975669304
 10
4.527251653599089
 20
-18.36669975669304
 10
4.527251653599089
 20
-18.36669975669304
 10
4.527251653599089
 20
-18.2930436152184
 10
4.527251653599089
 20
-18.2930436152184
 10
4.527251653599089
 20
-18.2930436152184
 10
4.895497910017443
 20
-17.76604735883973
 10
4.895497910017443
 20
-17.76604735883973
 10
4.895497910017443
 20
-17.76604735883973
 10
5.016127928433466
 20
-17.76604735883973
 10
5.016127928433466
 20
-17.76604735883973
 10
5.016127928433466
 20
-17.76604735883973
 10
5.016127928433466
 20
-18.27905652754829
 10
5.016127928433466
 20
-18.27905652754829
 10
5.016127928433466
 20
-18.27905652754829
 10
5.131693656486172
 20
-18.27905652754829
 10
5.131693656486172
 20
-18.27905652754829
 10
5.131693656486172
 20
-18.27905652754829
 10
5.131693656486172
 20
-18.36669975669304
 10
5.131693656486172
 20
-18.36669975669304
 10
5.131693656486172
 20
-18.36669975669304
 10
5.016127928433466
 20
-18.36669975669304
 10
5.016127928433466
 20
-18.36669975669304
 10
5.016127928433466
 20
-18.36669975669304
 10
5.016127928433466
 20
-18.59145778615074
 10
5.016127928433466
 20
-18.59145778615074
 10
5.016127928433466
 20
-18.59145778615074
 10
4.910742457539674
 20
-18.59145778615074
 10
4.910742457539674
 20
-18.59145778615074
 97
        0
 97
        1
330
1BD
 75
     2
 76
     1
 98
        1
 10
0.0
 20
0.0
450
        0
451
        0
460
0.0
461
0.0
452
        0
462
0.0
453
        0
470

  0
ENDBLK
  5
1B9
330
1B6
100
AcDbEntity
  8
0
100
AcDbBlockEnd
  0
BLOCK
  5
1C1
330
1BF
100
AcDbEntity
  8
0
100
AcDbBlockBegin
  2
Block_5
 70
     0
 10
0.0
 20
0.0
 30
0.0
  3
Block_5
  1

  0
INSERT
  5
1C4
330
1BF
100
AcDbEntity
  8
Livello 3
100
AcDbBlockReference
  2
Block_6
 10
0.0
 20
0.0
 30
0.0
  0
ENDBLK
  5
1C2
330
1BF
100
AcDbEntity
  8
0
100
AcDbBlockEnd
  0
BLOCK
  5
1C5
330
1C3
100
AcDbEntity
  8
0
100
AcDbBlockBegin
  2
Block_6
 70
     0
 10
0.0
 20
0.0
 30
0.0
  3
Block_6
  1

  0
SPLINE
  5
1C7
330
1C3
100
AcDbEntity
  8
Livello 3
100
AcDbSpline
210
0.0
220
0.0
230
1.0
 70
    11
 71
     3
 72
    29
 73
    25
 74
     0
 42
0.000000001
 43
0.0000000001
 40
0.0
 40
0.0
 40
0.0
 40
0.0
 40
1.0
 40
1.0
 40
1.0
 40
2.0
 40
2.0
 40
2.0
 40
3.0
 40
3.0
 40
3.0
 40
4.0
 40
4.0
 40
4.0
 40
5.0
 40
5.0
 40
5.0
 40
6.0
 40
6.0
 40
6.0
 40
7.0
 40
7.0
 40
7.0
 40
8.0
 40
8.0
 40
8.0
 40
8.0
 10
9.159061955175511
 20
-14.92901122673649
 30
0.0
 10
9.159061955175511
 20
-14.92901122673649
 30
0.0
 10
9.159061955175511
 20
-14.93156059739558
 30
0.0
 10
9.159061955175511
 20
-14.93156059739558
 30
0.0
 10
9.159061955175511
 20
-14.93156059739558
 30
0.0
 10
9.236542152638779
 20
-15.07504882435624
 30
0.0
 10
9.236542152638779
 20
-15.07504882435624
 30
0.0
 10
9.236542152638779
 20
-15.07504882435624
 30
0.0
 10
9.151448294153107
 20
-15.0966151220939
 30
0.0
 10
9.151448294153107
 20
-15.0966151220939
 30
0.0
 10
9.151448294153107
 20
-15.0966151220939
 30
0.0
 10
9.054951169611259
 20
-14.91629882439592
 30
0.0
 10
9.054951169611259
 20
-14.91629882439592
 30
0.0
 10
9.054951169611259
 20
-14.91629882439592
 30
0.0
 10
9.054951169611259
 20
-14.82107638518361
 30
0.0
 10
9.054951169611259
 20
-14.82107638518361
 30
0.0
 10
9.054951169611259
 20
-14.82107638518361
 30
0.0
 10
9.880327145967415
 20
-14.82107638518361
 30
0.0
 10
9.880327145967415
 20
-14.82107638518361
 30
0.0
 10
9.880327145967415
 20
-14.82107638518361
 30
0.0
 10
9.880327145967415
 20
-14.92901122673649
 30
0.0
 10
9.880327145967415
 20
-14.92901122673649
 30
0.0
 10
9.880327145967415
 20
-14.92901122673649
 30
0.0
 10
9.159061955175511
 20
-14.92901122673649
 30
0.0
 10
9.159061955175511
 20
-14.92901122673649
 30
0.0
  0
HATCH
  5
1C8
330
1C3
100
AcDbEntity
  8
Livello 3
 62
   250
420
  1907995
440
 33554687
100
AcDbHatch
 10
0.0
 20
0.0
 30
0.0
210
0.0
220
0.0
230
1.0
  2
SOLID
 70
     1
 71
     1
 91
        1
 92
        1
 93
        1
 72
     4
 94
        3
 73
     0
 74
     0
 95
       29
 96
       25
 40
0.0
 40
0.0
 40
0.0
 40
0.0
 40
1.0
 40
1.0
 40
1.0
 40
2.0
 40
2.0
 40
2.0
 40
3.0
 40
3.0
 40
3.0
 40
4.0
 40
4.0
 40
4.0
 40
5.0
 40
5.0
 40
5.0
 40
6.0
 40
6.0
 40
6.0
 40
7.0
 40
7.0
 40
7.0
 40
8.0
 40
8.0
 40
8.0
 40
8.0
 10
9.159061955175511
 20
-14.92901122673649
 10
9.159061955175511
 20
-14.92901122673649
 10
9.159061955175511
 20
-14.93156059739558
 10
9.159061955175511
 20
-14.93156059739558
 10
9.159061955175511
 20
-14.93156059739558
 10
9.236542152638779
 20
-15.07504882435624
 10
9.236542152638779
 20
-15.07504882435624
 10
9.236542152638779
 20
-15.07504882435624
 10
9.151448294153107
 20
-15.0966151220939
 10
9.151448294153107
 20
-15.0966151220939
 10
9.151448294153107
 20
-15.0966151220939
 10
9.054951169611259
 20
-14.91629882439592
 10
9.054951169611259
 20
-14.91629882439592
 10
9.054951169611259
 20
-14.91629882439592
 10
9.054951169611259
 20
-14.82107638518361
 10
9.054951169611259
 20
-14.82107638518361
 10
9.054951169611259
 20
-14.82107638518361
 10
9.880327145967415
 20
-14.82107638518361
 10
9.880327145967415
 20
-14.82107638518361
 10
9.880327145967415
 20
-14.82107638518361
 10
9.880327145967415
 20
-14.92901122673649
 10
9.880327145967415
 20
-14.92901122673649
 10
9.880327145967415
 20
-14.92901122673649
 10
9.159061955175511
 20
-14.92901122673649
 10
9.159061955175511
 20
-14.92901122673649
 97
        0
 97
        1
330
1C7
 75
     2
 76
     1
 98
        1
 10
0.0
 20
0.0
450
        0
451
        0
460
0.0
461
0.0
452
        0
462
0.0
453
        0
470

  0
SPLINE
  5
1C9
330
1C3
100
AcDbEntity
  8
Livello 3
100
AcDbSpline
210
0.0
220
0.0
230
1.0
 70
    11
 71
     3
 72
    29
 73
    25
 74
     0
 42
0.000000001
 43
0.0000000001
 40
0.0
 40
0.0
 40
0.0
 40
0.0
 40
1.0
 40
1.0
 40
1.0
 40
2.0
 40
2.0
 40
2.0
 40
3.0
 40
3.0
 40
3.0
 40
4.0
 40
4.0
 40
4.0
 40
5.0
 40
5.0
 40
5.0
 40
6.0
 40
6.0
 40
6.0
 40
7.0
 40
7.0
 40
7.0
 40
8.0
 40
8.0
 40
8.0
 40
8.0
 10
9.159061955175511
 20
-14.2775092195209
 30
0.0
 10
9.159061955175511
 20
-14.2775092195209
 30
0.0
 10
9.159061955175511
 20
-14.28005859017998
 30
0.0
 10
9.159061955175511
 20
-14.28005859017998
 30
0.0
 10
9.159061955175511
 20
-14.28005859017998
 30
0.0
 10
9.236542152638779
 20
-14.42358126809549
 30
0.0
 10
9.236542152638779
 20
-14.42358126809549
 30
0.0
 10
9.236542152638779
 20
-14.42358126809549
 30
0.0
 10
9.151448294153107
 20
-14.44514756583316
 30
0.0
 10
9.151448294153107
 20
-14.44514756583316
 30
0.0
 10
9.151448294153107
 20
-14.44514756583316
 30
0.0
 10
9.054951169611259
 20
-14.26483126813518
 30
0.0
 10
9.054951169611259
 20
-14.26483126813518
 30
0.0
 10
9.054951169611259
 20
-14.26483126813518
 30
0.0
 10
9.054951169611259
 20
-14.16960882892287
 30
0.0
 10
9.054951169611259
 20
-14.16960882892287
 30
0.0
 10
9.054951169611259
 20
-14.16960882892287
 30
0.0
 10
9.880327145967415
 20
-14.16960882892287
 30
0.0
 10
9.880327145967415
 20
-14.16960882892287
 30
0.0
 10
9.880327145967415
 20
-14.16960882892287
 30
0.0
 10
9.880327145967415
 20
-14.2775092195209
 30
0.0
 10
9.880327145967415
 20
-14.2775092195209
 30
0.0
 10
9.880327145967415
 20
-14.2775092195209
 30
0.0
 10
9.159061955175511
 20
-14.2775092195209
 30
0.0
 10
9.159061955175511
 20
-14.2775092195209
 30
0.0
  0
HATCH
  5
1CA
330
1C3
100
AcDbEntity
  8
Livello 3
 62
   250
420
  1907995
440
 33554687
100
AcDbHatch
 10
0.0
 20
0.0
 30
0.0
210
0.0
220
0.0
230
1.0
  2
SOLID
 70
     1
 71
     1
 91
        1
 92
        1
 93
        1
 72
     4
 94
        3
 73
     0
 74
     0
 95
       29
 96
       25
 40
0.0
 40
0.0
 40
0.0
 40
0.0
 40
1.0
 40
1.0
 40
1.0
 40
2.0
 40
2.0
 40
2.0
 40
3.0
 40
3.0
 40
3.0
 40
4.0
 40
4.0
 40
4.0
 40
5.0
 40
5.0
 40
5.0
 40
6.0
 40
6.0
 40
6.0
 40
7.0
 40
7.0
 40
7.0
 40
8.0
 40
8.0
 40
8.0
 40
8.0
 10
9.159061955175511
 20
-14.2775092195209
 10
9.159061955175511
 20
-14.2775092195209
 10
9.159061955175511
 20
-14.28005859017998
 10
9.159061955175511
 20
-14.28005859017998
 10
9.159061955175511
 20
-14.28005859017998
 10
9.236542152638779
 20
-14.42358126809549
 10
9.236542152638779
 20
-14.42358126809549
 10
9.236542152638779
 20
-14.42358126809549
 10
9.151448294153107
 20
-14.44514756583316
 10
9.151448294153107
 20
-14.44514756583316
 10
9.151448294153107
 20
-14.44514756583316
 10
9.054951169611259
 20
-14.26483126813518
 10
9.054951169611259
 20
-14.26483126813518
 10
9.054951169611259
 20
-14.26483126813518
 10
9.054951169611259
 20
-14.16960882892287
 10
9.054951169611259
 20
-14.16960882892287
 10
9.054951169611259
 20
-14.16960882892287
 10
9.880327145967415
 20
-14.16960882892287
 10
9.880327145967415
 20
-14.16960882892287
 10
9.880327145967415
 20
-14.16960882892287
 10
9.880327145967415
 20
-14.2775092195209
 10
9.880327145967415
 20
-14.2775092195209
 10
9.880327145967415
 20
-14.2775092195209
 10
9.159061955175511
 20
-14.2775092195209
 10
9.159061955175511
 20
-14.2775092195209
 97
        0
 97
        1
330
1C9
 75
     2
 76
     1
 98
        1
 10
0.0
 20
0.0
450
        0
451
        0
460
0.0
461
0.0
452
        0
462
0.0
453
        0
470

  0
ENDBLK
  5
1C6
330
1C3
100
AcDbEntity
  8
0
100
AcDbBlockEnd
  0
BLOCK
  5
1CD
330
1CB
100
AcDbEntity
  8
0
100
AcDbBlockBegin
  2
Block_7
 70
     0
 10
0.0
 20
0.0
 30
0.0
  3
Block_7
  1

  0
INSERT
  5
1D0
330
1CB
100
AcDbEntity
  8
Livello 3
100
AcDbBlockReference
  2
Block_8
 10
0.0
 20
0.0
 30
0.0
  0
ENDBLK
  5
1CE
330
1CB
100
AcDbEntity
  8
0
100
AcDbBlockEnd
  0
BLOCK
  5
1D1
330
1CF
100
AcDbEntity
  8
0
100
AcDbBlockBegin
  2
Block_8
 70
     0
 10
0.0
 20
0.0
 30
0.0
  3
Block_8
  1

  0
SPLINE
  5
1D3
330
1CF
100
AcDbEntity
  8
Livello 3
100
AcDbSpline
210
0.0
220
0.0
230
1.0
 70
    11
 71
     3
 72
    29
 73
    25
 74
     0
 42
0.000000001
 43
0.0000000001
 40
0.0
 40
0.0
 40
0.0
 40
0.0
 40
1.0
 40
1.0
 40
1.0
 40
2.0
 40
2.0
 40
2.0
 40
3.0
 40
3.0
 40
3.0
 40
4.0
 40
4.0
 40
4.0
 40
5.0
 40
5.0
 40
5.0
 40
6.0
 40
6.0
 40
6.0
 40
7.0
 40
7.0
 40
7.0
 40
8.0
 40
8.0
 40
8.0
 40
8.0
 10
9.128607311085902
 20
-8.096215547021085
 30
0.0
 10
9.128607311085902
 20
-8.096215547021085
 30
0.0
 10
9.128607311085902
 20
-8.098764917680169
 30
0.0
 10
9.128607311085902
 20
-8.098764917680169
 30
0.0
 10
9.128607311085902
 20
-8.098764917680169
 30
0.0
 10
9.206070283071746
 20
-8.242253144640825
 30
0.0
 10
9.206070283071746
 20
-8.242253144640825
 30
0.0
 10
9.206070283071746
 20
-8.242253144640825
 30
0.0
 10
9.120976424586077
 20
-8.263836667855914
 30
0.0
 10
9.120976424586077
 20
-8.263836667855914
 30
0.0
 10
9.120976424586077
 20
-8.263836667855914
 30
0.0
 10
9.024479300044227
 20
-8.083520370157938
 30
0.0
 10
9.024479300044227
 20
-8.083520370157938
 30
0.0
 10
9.024479300044227
 20
-8.083520370157938
 30
0.0
 10
9.024479300044227
 20
-7.988280705468207
 30
0.0
 10
9.024479300044227
 20
-7.988280705468207
 30
0.0
 10
9.024479300044227
 20
-7.988280705468207
 30
0.0
 10
9.849872501877806
 20
-7.988280705468207
 30
0.0
 10
9.849872501877806
 20
-7.988280705468207
 30
0.0
 10
9.849872501877806
 20
-7.988280705468207
 30
0.0
 10
9.849872501877806
 20
-8.096215547021085
 30
0.0
 10
9.849872501877806
 20
-8.096215547021085
 30
0.0
 10
9.849872501877806
 20
-8.096215547021085
 30
0.0
 10
9.128607311085902
 20
-8.096215547021085
 30
0.0
 10
9.128607311085902
 20
-8.096215547021085
 30
0.0
  0
HATCH
  5
1D4
330
1CF
100
AcDbEntity
  8
Livello 3
 62
   250
420
  1907995
440
 33554687
100
AcDbHatch
 10
0.0
 20
0.0
 30
0.0
210
0.0
220
0.0
230
1.0
  2
SOLID
 70
     1
 71
     1
 91
        1
 92
        1
 93
        1
 72
     4
 94
        3
 73
     0
 74
     0
 95
       29
 96
       25
 40
0.0
 40
0.0
 40
0.0
 40
0.0
 40
1.0
 40
1.0
 40
1.0
 40
2.0
 40
2.0
 40
2.0
 40
3.0
 40
3.0
 40
3.0
 40
4.0
 40
4.0
 40
4.0
 40
5.0
 40
5.0
 40
5.0
 40
6.0
 40
6.0
 40
6.0
 40
7.0
 40
7.0
 40
7.0
 40
8.0
 40
8.0
 40
8.0
 40
8.0
 10
9.128607311085902
 20
-8.096215547021085
 10
9.128607311085902
 20
-8.096215547021085
 10
9.128607311085902
 20
-8.098764917680169
 10
9.128607311085902
 20
-8.098764917680169
 10
9.128607311085902
 20
-8.098764917680169
 10
9.206070283071746
 20
-8.242253144640825
 10
9.206070283071746
 20
-8.242253144640825
 10
9.206070283071746
 20
-8.242253144640825
 10
9.120976424586077
 20
-8.263836667855914
 10
9.120976424586077
 20
-8.263836667855914
 10
9.120976424586077
 20
-8.263836667855914
 10
9.024479300044227
 20
-8.083520370157938
 10
9.024479300044227
 20
-8.083520370157938
 10
9.024479300044227
 20
-8.083520370157938
 10
9.024479300044227
 20
-7.988280705468207
 10
9.024479300044227
 20
-7.988280705468207
 10
9.024479300044227
 20
-7.988280705468207
 10
9.849872501877806
 20
-7.988280705468207
 10
9.849872501877806
 20
-7.988280705468207
 10
9.849872501877806
 20
-7.988280705468207
 10
9.849872501877806
 20
-8.096215547021085
 10
9.849872501877806
 20
-8.096215547021085
 10
9.849872501877806
 20
-8.096215547021085
 10
9.128607311085902
 20
-8.096215547021085
 10
9.128607311085902
 20
-8.096215547021085
 97
        0
 97
        1
330
1D3
 75
     2
 76
     1
 98
        1
 10
0.0
 20
0.0
450
        0
451
        0
460
0.0
461
0.0
452
        0
462
0.0
453
        0
470

  0
SPLINE
  5
1D5
330
1CF
100
AcDbEntity
  8
Livello 3
100
AcDbSpline
210
0.0
220
0.0
230
1.0
 70
    11
 71
     3
 72
    26
 73
    22
 74
     0
 42
0.000000001
 43
0.0000000001
 40
0.0
 40
0.0
 40
0.0
 40
0.0
 40
1.0
 40
1.0
 40
1.0
 40
2.0
 40
2.0
 40
2.0
 40
3.0
 40
3.0
 40
3.0
 40
4.0
 40
4.0
 40
4.0
 40
5.0
 40
5.0
 40
5.0
 40
6.0
 40
6.0
 40
6.0
 40
7.0
 40
7.0
 40
7.0
 40
7.0
 10
9.537488468752778
 20
-7.341877439570778
 30
0.0
 10
9.537488468752778
 20
-7.341877439570778
 30
0.0
 10
9.261932506365072
 20
-7.341877439570778
 30
0.0
 10
9.261932506365072
 20
-7.341877439570778
 30
0.0
 10
9.218765459934893
 20
-7.341877439570778
 30
0.0
 10
9.175581188027283
 20
-7.340602754241237
 30
0.0
 10
9.132414141597104
 20
-7.338070609059577
 30
0.0
 10
9.132414141597104
 20
-7.338070609059577
 30
0.0
 10
9.132414141597104
 20
-7.341877439570778
 30
0.0
 10
9.132414141597104
 20
-7.341877439570778
 30
0.0
 10
9.180662703868028
 20
-7.367285018774497
 30
0.0
 10
9.216216089275805
 20
-7.387593856660044
 30
0.0
 10
9.25431884534267
 20
-7.410452065204677
 30
0.0
 10
9.25431884534267
 20
-7.410452065204677
 30
0.0
 10
9.534956323571119
 20
-7.612351886117744
 30
0.0
 10
9.534956323571119
 20
-7.612351886117744
 30
0.0
 10
9.534956323571119
 20
-7.612351886117744
 30
0.0
 10
9.537488468752778
 20
-7.612351886117744
 30
0.0
 10
9.537488468752778
 20
-7.612351886117744
 30
0.0
 10
9.537488468752778
 20
-7.612351886117744
 30
0.0
 10
9.537488468752778
 20
-7.341877439570778
 30
0.0
 10
9.537488468752778
 20
-7.341877439570778
 30
0.0
  0
SPLINE
  5
1D6
330
1CF
100
AcDbEntity
  8
Livello 3
100
AcDbSpline
210
0.0
220
0.0
230
1.0
 70
    11
 71
     3
 72
    38
 73
    34
 74
     0
 42
0.000000001
 43
0.0000000001
 40
0.0
 40
0.0
 40
0.0
 40
0.0
 40
1.0
 40
1.0
 40
1.0
 40
2.0
 40
2.0
 40
2.0
 40
3.0
 40
3.0
 40
3.0
 40
4.0
 40
4.0
 40
4.0
 40
5.0
 40
5.0
 40
5.0
 40
6.0
 40
6.0
 40
6.0
 40
7.0
 40
7.0
 40
7.0
 40
8.0
 40
8.0
 40
8.0
 40
9.0
 40
9.0
 40
9.0
 40
10.0
 40
10.0
 40
10.0
 40
11.0
 40
11.0
 40
11.0
 40
11.0
 10
9.849872501877806
 20
-7.341877439570778
 30
0.0
 10
9.849872501877806
 20
-7.341877439570778
 30
0.0
 10
9.62511447242011
 20
-7.341877439570778
 30
0.0
 10
9.62511447242011
 20
-7.341877439570778
 30
0.0
 10
9.62511447242011
 20
-7.341877439570778
 30
0.0
 10
9.62511447242011
 20
-7.725368243511365
 30
0.0
 10
9.62511447242011
 20
-7.725368243511365
 30
0.0
 10
9.62511447242011
 20
-7.725368243511365
 30
0.0
 10
9.551458330945466
 20
-7.725368243511365
 30
0.0
 10
9.551458330945466
 20
-7.725368243511365
 30
0.0
 10
9.551458330945466
 20
-7.725368243511365
 30
0.0
 10
9.024479300044227
 20
-7.35712198709301
 30
0.0
 10
9.024479300044227
 20
-7.35712198709301
 30
0.0
 10
9.024479300044227
 20
-7.35712198709301
 30
0.0
 10
9.024479300044227
 20
-7.236491968676987
 30
0.0
 10
9.024479300044227
 20
-7.236491968676987
 30
0.0
 10
9.024479300044227
 20
-7.236491968676987
 30
0.0
 10
9.537488468752778
 20
-7.236491968676987
 30
0.0
 10
9.537488468752778
 20
-7.236491968676987
 30
0.0
 10
9.537488468752778
 20
-7.236491968676987
 30
0.0
 10
9.537488468752778
 20
-7.120926240624282
 30
0.0
 10
9.537488468752778
 20
-7.120926240624282
 30
0.0
 10
9.537488468752778
 20
-7.120926240624282
 30
0.0
 10
9.62511447242011
 20
-7.120926240624282
 30
0.0
 10
9.62511447242011
 20
-7.120926240624282
 30
0.0
 10
9.62511447242011
 20
-7.120926240624282
 30
0.0
 10
9.62511447242011
 20
-7.236491968676987
 30
0.0
 10
9.62511447242011
 20
-7.236491968676987
 30
0.0
 10
9.62511447242011
 20
-7.236491968676987
 30
0.0
 10
9.849872501877806
 20
-7.236491968676987
 30
0.0
 10
9.849872501877806
 20
-7.236491968676987
 30
0.0
 10
9.849872501877806
 20
-7.236491968676987
 30
0.0
 10
9.849872501877806
 20
-7.341877439570778
 30
0.0
 10
9.849872501877806
 20
-7.341877439570778
 30
0.0
  0
HATCH
  5
1D7
330
1CF
100
AcDbEntity
  8
Livello 3
 62
   250
420
  1907995
440
 33554687
100
AcDbHatch
 10
0.0
 20
0.0
 30
0.0
210
0.0
220
0.0
230
1.0
  2
SOLID
 70
     1
 71
     1
 91
        2
 92
        1
 93
        1
 72
     4
 94
        3
 73
     0
 74
     0
 95
       26
 96
       22
 40
0.0
 40
0.0
 40
0.0
 40
0.0
 40
1.0
 40
1.0
 40
1.0
 40
2.0
 40
2.0
 40
2.0
 40
3.0
 40
3.0
 40
3.0
 40
4.0
 40
4.0
 40
4.0
 40
5.0
 40
5.0
 40
5.0
 40
6.0
 40
6.0
 40
6.0
 40
7.0
 40
7.0
 40
7.0
 40
7.0
 10
9.537488468752778
 20
-7.341877439570778
 10
9.537488468752778
 20
-7.341877439570778
 10
9.261932506365072
 20
-7.341877439570778
 10
9.261932506365072
 20
-7.341877439570778
 10
9.218765459934893
 20
-7.341877439570778
 10
9.175581188027283
 20
-7.340602754241237
 10
9.132414141597104
 20
-7.338070609059577
 10
9.132414141597104
 20
-7.338070609059577
 10
9.132414141597104
 20
-7.341877439570778
 10
9.132414141597104
 20
-7.341877439570778
 10
9.180662703868028
 20
-7.367285018774497
 10
9.216216089275805
 20
-7.387593856660044
 10
9.25431884534267
 20
-7.410452065204677
 10
9.25431884534267
 20
-7.410452065204677
 10
9.534956323571119
 20
-7.612351886117744
 10
9.534956323571119
 20
-7.612351886117744
 10
9.534956323571119
 20
-7.612351886117744
 10
9.537488468752778
 20
-7.612351886117744
 10
9.537488468752778
 20
-7.612351886117744
 10
9.537488468752778
 20
-7.612351886117744
 10
9.537488468752778
 20
-7.341877439570778
 10
9.537488468752778
 20
-7.341877439570778
 97
        0
 97
        1
330
1D5
 92
        1
 93
        1
 72
     4
 94
        3
 73
     0
 74
     0
 95
       38
 96
       34
 40
0.0
 40
0.0
 40
0.0
 40
0.0
 40
1.0
 40
1.0
 40
1.0
 40
2.0
 40
2.0
 40
2.0
 40
3.0
 40
3.0
 40
3.0
 40
4.0
 40
4.0
 40
4.0
 40
5.0
 40
5.0
 40
5.0
 40
6.0
 40
6.0
 40
6.0
 40
7.0
 40
7.0
 40
7.0
 40
8.0
 40
8.0
 40
8.0
 40
9.0
 40
9.0
 40
9.0
 40
10.0
 40
10.0
 40
10.0
 40
11.0
 40
11.0
 40
11.0
 40
11.0
 10
9.849872501877806
 20
-7.341877439570778
 10
9.849872501877806
 20
-7.341877439570778
 10
9.62511447242011
 20
-7.341877439570778
 10
9.62511447242011
 20
-7.341877439570778
 10
9.62511447242011
 20
-7.341877439570778
 10
9.62511447242011
 20
-7.725368243511365
 10
9.62511447242011
 20
-7.725368243511365
 10
9.62511447242011
 20
-7.725368243511365
 10
9.551458330945466
 20
-7.725368243511365
 10
9.551458330945466
 20
-7.725368243511365
 10
9.551458330945466
 20
-7.725368243511365
 10
9.024479300044227
 20
-7.35712198709301
 10
9.024479300044227
 20
-7.35712198709301
 10
9.024479300044227
 20
-7.35712198709301
 10
9.024479300044227
 20
-7.236491968676987
 10
9.024479300044227
 20
-7.236491968676987
 10
9.024479300044227
 20
-7.236491968676987
 10
9.537488468752778
 20
-7.236491968676987
 10
9.537488468752778
 20
-7.236491968676987
 10
9.537488468752778
 20
-7.236491968676987
 10
9.537488468752778
 20
-7.120926240624282
 10
9.537488468752778
 20
-7.120926240624282
 10
9.537488468752778
 20
-7.120926240624282
 10
9.62511447242011
 20
-7.120926240624282
 10
9.62511447242011
 20
-7.120926240624282
 10
9.62511447242011
 20
-7.120926240624282
 10
9.62511447242011
 20
-7.236491968676987
 10
9.62511447242011
 20
-7.236491968676987
 10
9.62511447242011
 20
-7.236491968676987
 10
9.849872501877806
 20
-7.236491968676987
 10
9.849872501877806
 20
-7.236491968676987
 10
9.849872501877806
 20
-7.236491968676987
 10
9.849872501877806
 20
-7.341877439570778
 10
9.849872501877806
 20
-7.341877439570778
 97
        0
 97
        1
330
1D6
 75
     2
 76
     1
 98
        1
 10
0.0
 20
0.0
450
        0
451
        0
460
0.0
461
0.0
452
        0
462
0.0
453
        0
470

  0
ENDBLK
  5
1D2
330
1CF
100
AcDbEntity
  8
0
100
AcDbBlockEnd
  0
BLOCK
  5
1DA
330
1D8
100
AcDbEntity
  8
0
100
AcDbBlockBegin
  2
Block_9
 70
     0
 10
0.0
 20
0.0
 30
0.0
  3
Block_9
  1

  0
INSERT
  5
1DD
330
1D8
100
AcDbEntity
  8
Livello 3
100
AcDbBlockReference
  2
Block_10
 10
0.0
 20
0.0
 30
0.0
  0
ENDBLK
  5
1DB
330
1D8
100
AcDbEntity
  8
0
100
AcDbBlockEnd
  0
BLOCK
  5
1DE
330
1DC
100
AcDbEntity
  8
0
100
AcDbBlockBegin
  2
Block_10
 70
     0
 10
0.0
 20
0.0
 30
0.0
  3
Block_10
  1

  0
SPLINE
  5
1E0
330
1DC
100
AcDbEntity
  8
Livello 3
100
AcDbSpline
210
0.0
220
0.0
230
1.0
 70
    11
 71
     3
 72
    29
 73
    25
 74
     0
 42
0.000000001
 43
0.0000000001
 40
0.0
 40
0.0
 40
0.0
 40
0.0
 40
1.0
 40
1.0
 40
1.0
 40
2.0
 40
2.0
 40
2.0
 40
3.0
 40
3.0
 40
3.0
 40
4.0
 40
4.0
 40
4.0
 40
5.0
 40
5.0
 40
5.0
 40
6.0
 40
6.0
 40
6.0
 40
7.0
 40
7.0
 40
7.0
 40
8.0
 40
8.0
 40
8.0
 40
8.0
 10
14.97596787820045
 20
-17.86585177504742
 30
0.0
 10
14.97596787820045
 20
-17.86585177504742
 30
0.0
 10
14.97341850754136
 20
-17.86585177504742
 30
0.0
 10
14.97341850754136
 20
-17.86585177504742
 30
0.0
 10
14.97341850754136
 20
-17.86585177504742
 30
0.0
 10
14.82993028058071
 20
-17.94329752155584
 30
0.0
 10
14.82993028058071
 20
-17.94329752155584
 30
0.0
 10
14.82993028058071
 20
-17.94329752155584
 30
0.0
 10
14.80834675736562
 20
-17.85820366307017
 30
0.0
 10
14.80834675736562
 20
-17.85820366307017
 30
0.0
 10
14.80834675736562
 20
-17.85820366307017
 30
0.0
 10
14.98864582958617
 20
-17.76170653852832
 30
0.0
 10
14.98864582958617
 20
-17.76170653852832
 30
0.0
 10
14.98864582958617
 20
-17.76170653852832
 30
0.0
 10
15.08390271975333
 20
-17.76170653852832
 30
0.0
 10
15.08390271975333
 20
-17.76170653852832
 30
0.0
 10
15.08390271975333
 20
-17.76170653852832
 30
0.0
 10
15.08390271975333
 20
-18.58711696583933
 30
0.0
 10
15.08390271975333
 20
-18.58711696583933
 30
0.0
 10
15.08390271975333
 20
-18.58711696583933
 30
0.0
 10
14.97596787820045
 20
-18.58711696583933
 30
0.0
 10
14.97596787820045
 20
-18.58711696583933
 30
0.0
 10
14.97596787820045
 20
-18.58711696583933
 30
0.0
 10
14.97596787820045
 20
-17.86585177504742
 30
0.0
 10
14.97596787820045
 20
-17.86585177504742
 30
0.0
  0
HATCH
  5
1E1
330
1DC
100
AcDbEntity
  8
Livello 3
 62
   250
420
  1907995
440
 33554687
100
AcDbHatch
 10
0.0
 20
0.0
 30
0.0
210
0.0
220
0.0
230
1.0
  2
SOLID
 70
     1
 71
     1
 91
        1
 92
        1
 93
        1
 72
     4
 94
        3
 73
     0
 74
     0
 95
       29
 96
       25
 40
0.0
 40
0.0
 40
0.0
 40
0.0
 40
1.0
 40
1.0
 40
1.0
 40
2.0
 40
2.0
 40
2.0
 40
3.0
 40
3.0
 40
3.0
 40
4.0
 40
4.0
 40
4.0
 40
5.0
 40
5.0
 40
5.0
 40
6.0
 40
6.0
 40
6.0
 40
7.0
 40
7.0
 40
7.0
 40
8.0
 40
8.0
 40
8.0
 40
8.0
 10
14.97596787820045
 20
-17.86585177504742
 10
14.97596787820045
 20
-17.86585177504742
 10
14.97341850754136
 20
-17.86585177504742
 10
14.97341850754136
 20
-17.86585177504742
 10
14.97341850754136
 20
-17.86585177504742
 10
14.82993028058071
 20
-17.94329752155584
 10
14.82993028058071
 20
-17.94329752155584
 10
14.82993028058071
 20
-17.94329752155584
 10
14.80834675736562
 20
-17.85820366307017
 10
14.80834675736562
 20
-17.85820366307017
 10
14.80834675736562
 20
-17.85820366307017
 10
14.98864582958617
 20
-17.76170653852832
 10
14.98864582958617
 20
-17.76170653852832
 10
14.98864582958617
 20
-17.76170653852832
 10
15.08390271975333
 20
-17.76170653852832
 10
15.08390271975333
 20
-17.76170653852832
 10
15.08390271975333
 20
-17.76170653852832
 10
15.08390271975333
 20
-18.58711696583933
 10
15.08390271975333
 20
-18.58711696583933
 10
15.08390271975333
 20
-18.58711696583933
 10
14.97596787820045
 20
-18.58711696583933
 10
14.97596787820045
 20
-18.58711696583933
 10
14.97596787820045
 20
-18.58711696583933
 10
14.97596787820045
 20
-17.86585177504742
 10
14.97596787820045
 20
-17.86585177504742
 97
        0
 97
        1
330
1E0
 75
     2
 76
     1
 98
        1
 10
0.0
 20
0.0
450
        0
451
        0
460
0.0
461
0.0
452
        0
462
0.0
453
        0
470

  0
SPLINE
  5
1E2
330
1DC
100
AcDbEntity
  8
Livello 3
100
AcDbSpline
210
0.0
220
0.0
230
1.0
 70
    11
 71
     3
 72
    47
 73
    43
 74
     0
 42
0.000000001
 43
0.0000000001
 40
0.0
 40
0.0
 40
0.0
 40
0.0
 40
1.0
 40
1.0
 40
1.0
 40
2.0
 40
2.0
 40
2.0
 40
3.0
 40
3.0
 40
3.0
 40
4.0
 40
4.0
 40
4.0
 40
5.0
 40
5.0
 40
5.0
 40
6.0
 40
6.0
 40
6.0
 40
7.0
 40
7.0
 40
7.0
 40
8.0
 40
8.0
 40
8.0
 40
9.0
 40
9.0
 40
9.0
 40
10.0
 40
10.0
 40
10.0
 40
11.0
 40
11.0
 40
11.0
 40
12.0
 40
12.0
 40
12.0
 40
13.0
 40
13.0
 40
13.0
 40
14.0
 40
14.0
 40
14.0
 40
14.0
 10
15.38490071229961
 20
-18.58711696583933
 30
0.0
 10
15.38490071229961
 20
-18.58711696583933
 30
0.0
 10
15.38490071229961
 20
-18.51852511472801
 30
0.0
 10
15.38490071229961
 20
-18.51852511472801
 30
0.0
 10
15.38490071229961
 20
-18.51852511472801
 30
0.0
 10
15.47250949048951
 20
-18.43346570719718
 30
0.0
 10
15.47250949048951
 20
-18.43346570719718
 30
0.0
 10
15.68331488323195
 20
-18.23282334613623
 30
0.0
 10
15.77853732244425
 20
-18.1261631899129
 30
0.0
 10
15.77981200777379
 20
-18.00172634098568
 30
0.0
 10
15.77981200777379
 20
-17.91790716782955
 30
0.0
 10
15.7391943320027
 20
-17.84042697036628
 30
0.0
 10
15.61599771745016
 20
-17.84042697036628
 30
0.0
 10
15.54110134160083
 20
-17.84042697036628
 30
0.0
 10
15.47888291713722
 20
-17.87852972643314
 30
0.0
 10
15.44078016107036
 20
-17.91029350680714
 30
0.0
 10
15.44078016107036
 20
-17.91029350680714
 30
0.0
 10
15.40522677566258
 20
-17.83153862401433
 30
0.0
 10
15.40522677566258
 20
-17.83153862401433
 30
0.0
 10
15.46234645880802
 20
-17.78330728722084
 30
0.0
 10
15.54361626130506
 20
-17.74775390181306
 30
0.0
 10
15.63887315147222
 20
-17.74775390181306
 30
0.0
 10
15.81664007851111
 20
-17.74775390181306
 30
0.0
 10
15.8915709053153
 20
-17.86964138008119
 30
0.0
 10
15.8915709053153
 20
-17.98773925331556
 30
0.0
 10
15.8915709053153
 20
-18.14011582662816
 30
0.0
 10
15.78108669310334
 20
-18.2633124411807
 30
0.0
 10
15.60710937109822
 20
-18.4309163365381
 30
0.0
 10
15.60710937109822
 20
-18.4309163365381
 30
0.0
 10
15.54110134160083
 20
-18.49186007567217
 30
0.0
 10
15.54110134160083
 20
-18.49186007567217
 30
0.0
 10
15.54110134160083
 20
-18.49186007567217
 30
0.0
 10
15.54110134160083
 20
-18.49440944633126
 30
0.0
 10
15.54110134160083
 20
-18.49440944633126
 30
0.0
 10
15.54110134160083
 20
-18.49440944633126
 30
0.0
 10
15.91189696867827
 20
-18.49440944633126
 30
0.0
 10
15.91189696867827
 20
-18.49440944633126
 30
0.0
 10
15.91189696867827
 20
-18.49440944633126
 30
0.0
 10
15.91189696867827
 20
-18.58711696583933
 30
0.0
 10
15.91189696867827
 20
-18.58711696583933
 30
0.0
 10
15.91189696867827
 20
-18.58711696583933
 30
0.0
 10
15.38490071229961
 20
-18.58711696583933
 30
0.0
 10
15.38490071229961
 20
-18.58711696583933
 30
0.0
  0
HATCH
  5
1E3
330
1DC
100
AcDbEntity
  8
Livello 3
 62
   250
420
  1907995
440
 33554687
100
AcDbHatch
 10
0.0
 20
0.0
 30
0.0
210
0.0
220
0.0
230
1.0
  2
SOLID
 70
     1
 71
     1
 91
        1
 92
        1
 93
        1
 72
     4
 94
        3
 73
     0
 74
     0
 95
       47
 96
       43
 40
0.0
 40
0.0
 40
0.0
 40
0.0
 40
1.0
 40
1.0
 40
1.0
 40
2.0
 40
2.0
 40
2.0
 40
3.0
 40
3.0
 40
3.0
 40
4.0
 40
4.0
 40
4.0
 40
5.0
 40
5.0
 40
5.0
 40
6.0
 40
6.0
 40
6.0
 40
7.0
 40
7.0
 40
7.0
 40
8.0
 40
8.0
 40
8.0
 40
9.0
 40
9.0
 40
9.0
 40
10.0
 40
10.0
 40
10.0
 40
11.0
 40
11.0
 40
11.0
 40
12.0
 40
12.0
 40
12.0
 40
13.0
 40
13.0
 40
13.0
 40
14.0
 40
14.0
 40
14.0
 40
14.0
 10
15.38490071229961
 20
-18.58711696583933
 10
15.38490071229961
 20
-18.58711696583933
 10
15.38490071229961
 20
-18.51852511472801
 10
15.38490071229961
 20
-18.51852511472801
 10
15.38490071229961
 20
-18.51852511472801
 10
15.47250949048951
 20
-18.43346570719718
 10
15.47250949048951
 20
-18.43346570719718
 10
15.68331488323195
 20
-18.23282334613623
 10
15.77853732244425
 20
-18.1261631899129
 10
15.77981200777379
 20
-18.00172634098568
 10
15.77981200777379
 20
-17.91790716782955
 10
15.7391943320027
 20
-17.84042697036628
 10
15.61599771745016
 20
-17.84042697036628
 10
15.54110134160083
 20
-17.84042697036628
 10
15.47888291713722
 20
-17.87852972643314
 10
15.44078016107036
 20
-17.91029350680714
 10
15.44078016107036
 20
-17.91029350680714
 10
15.40522677566258
 20
-17.83153862401433
 10
15.40522677566258
 20
-17.83153862401433
 10
15.46234645880802
 20
-17.78330728722084
 10
15.54361626130506
 20
-17.74775390181306
 10
15.63887315147222
 20
-17.74775390181306
 10
15.81664007851111
 20
-17.74775390181306
 10
15.8915709053153
 20
-17.86964138008119
 10
15.8915709053153
 20
-17.98773925331556
 10
15.8915709053153
 20
-18.14011582662816
 10
15.78108669310334
 20
-18.2633124411807
 10
15.60710937109822
 20
-18.4309163365381
 10
15.60710937109822
 20
-18.4309163365381
 10
15.54110134160083
 20
-18.49186007567217
 10
15.54110134160083
 20
-18.49186007567217
 10
15.54110134160083
 20
-18.49186007567217
 10
15.54110134160083
 20
-18.49440944633126
 10
15.54110134160083
 20
-18.49440944633126
 10
15.54110134160083
 20
-18.49440944633126
 10
15.91189696867827
 20
-18.49440944633126
 10
15.91189696867827
 20
-18.49440944633126
 10
15.91189696867827
 20
-18.49440944633126
 10
15.91189696867827
 20
-18.58711696583933
 10
15.91189696867827
 20
-18.58711696583933
 10
15.91189696867827
 20
-18.58711696583933
 10
15.38490071229961
 20
-18.58711696583933
 10
15.38490071229961
 20
-18.58711696583933
 97
        0
 97
        1
330
1E2
 75
     2
 76
     1
 98
        1
 10
0.0
 20
0.0
450
        0
451
        0
460
0.0
461
0.0
452
        0
462
0.0
453
        0
470

  0
ENDBLK
  5
1DF
330
1DC
100
AcDbEntity
  8
0
100
AcDbBlockEnd
  0
BLOCK
  5
1E6
330
1E4
100
AcDbEntity
  8
0
100
AcDbBlockBegin
  2
Block_11
 70
     0
 10
0.0
 20
0.0
 30
0.0
  3
Block_11
  1

  0
SPLINE
  5
1E8
330
1E4
100
AcDbEntity
  8
Livello 3
100
AcDbSpline
210
0.0
220
0.0
230
1.0
 70
     9
 71
     3
 72
    20
 73
    16
 74
     0
 42
0.000000001
 43
0.0000000001
 40
0.0
 40
0.0
 40
0.0
 40
0.0
 40
1.0
 40
1.0
 40
1.0
 40
2.0
 40
2.0
 40
2.0
 40
3.0
 40
3.0
 40
3.0
 40
4.0
 40
4.0
 40
4.0
 40
5.0
 40
5.0
 40
5.0
 40
5.0
 10
19.63135985837341
 20
-14.89845322978233
 30
0.0
 10
19.73419595860811
 20
-14.89845322978233
 30
0.0
 10
19.80657741475321
 20
-14.83623480531871
 30
0.0
 10
19.80657741475321
 20
-14.73970322982202
 30
0.0
 10
19.80657741475321
 20
-14.66480685397268
 30
0.0
 10
19.76974934401589
 20
-14.60637803454285
 30
0.0
 10
19.72024332189285
 20
-14.57716362482793
 30
0.0
 10
19.71008029021136
 20
-14.57082464913507
 30
0.0
 10
19.6973678878708
 20
-14.56703504410129
 30
0.0
 10
19.67959119516691
 20
-14.56703504410129
 30
0.0
 10
19.53865233886533
 20
-14.56703504410129
 30
0.0
 10
19.43071749731245
 20
-14.61909043688342
 30
0.0
 10
19.43071749731245
 20
-14.73591362478824
 30
0.0
 10
19.43071749731245
 20
-14.83113606400055
 30
0.0
 10
19.51453667046859
 20
-14.89845322978233
 30
0.0
 10
19.63135985837341
 20
-14.89845322978233
 30
0.0
  0
SPLINE
  5
1E9
330
1E4
100
AcDbEntity
  8
Livello 3
100
AcDbSpline
210
0.0
220
0.0
230
1.0
 70
     9
 71
     3
 72
    41
 73
    37
 74
     0
 42
0.000000001
 43
0.0000000001
 40
0.0
 40
0.0
 40
0.0
 40
0.0
 40
1.0
 40
1.0
 40
1.0
 40
2.0
 40
2.0
 40
2.0
 40
3.0
 40
3.0
 40
3.0
 40
4.0
 40
4.0
 40
4.0
 40
5.0
 40
5.0
 40
5.0
 40
6.0
 40
6.0
 40
6.0
 40
7.0
 40
7.0
 40
7.0
 40
8.0
 40
8.0
 40
8.0
 40
9.0
 40
9.0
 40
9.0
 40
10.0
 40
10.0
 40
10.0
 40
11.0
 40
11.0
 40
11.0
 40
12.0
 40
12.0
 40
12.0
 40
12.0
 10
20.1062662710151
 20
-14.93910535650828
 30
0.0
 10
20.10881564167418
 20
-14.91495523715667
 30
0.0
 10
20.1062662710151
 20
-14.8870155127713
 30
0.0
 10
20.10244221502647
 20
-14.84891275670444
 30
0.0
 10
20.09355386867452
 20
-14.78414496158174
 30
0.0
 10
20.06688882961869
 20
-14.72323567340252
 30
0.0
 10
20.02244709785897
 20
-14.67624457098371
 30
0.0
 10
19.97294107573593
 20
-14.62160535658765
 30
0.0
 10
19.90055961959083
 20
-14.5822623661461
 30
0.0
 10
19.80278780971944
 20
-14.56703504410129
 30
0.0
 10
19.80278780971944
 20
-14.56703504410129
 30
0.0
 10
19.80278780971944
 20
-14.57082464913507
 30
0.0
 10
19.80278780971944
 20
-14.57082464913507
 30
0.0
 10
19.85863280753534
 20
-14.61654106622433
 30
0.0
 10
19.89167127323889
 20
-14.68258354667657
 30
0.0
 10
19.89167127323889
 20
-14.76512803450316
 30
0.0
 10
19.89167127323889
 20
-14.91368055182713
 30
0.0
 10
19.77991237569738
 20
-15.00893744199428
 30
0.0
 10
19.6389735193958
 20
-15.00893744199428
 30
0.0
 10
19.48277289009458
 20
-15.00893744199428
 30
0.0
 10
19.34562363882679
 20
-14.89590385912324
 30
0.0
 10
19.34562363882679
 20
-14.7270252784363
 30
0.0
 10
19.34562363882679
 20
-14.55814669774935
 30
0.0
 10
19.48277289009458
 20
-14.45400146123025
 30
0.0
 10
19.69357828283702
 20
-14.45400146123025
 30
0.0
 10
19.87516926586454
 20
-14.45400146123025
 30
0.0
 10
20.00215548545085
 20
-14.51494520036432
 30
0.0
 10
20.08087591728881
 20
-14.59624945381621
 30
0.0
 10
20.14309434175242
 20
-14.65970811265451
 30
0.0
 10
20.18119709781928
 20
-14.74735134179927
 30
0.0
 10
20.19136012950077
 20
-14.83623480531871
 30
0.0
 10
20.19769910519363
 20
-14.87688693204466
 30
0.0
 10
20.19897379052317
 20
-14.91244031745244
 30
0.0
 10
20.19769910519363
 20
-14.93910535650828
 30
0.0
 10
20.19769910519363
 20
-14.93910535650828
 30
0.0
 10
20.1062662710151
 20
-14.93910535650828
 30
0.0
 10
20.1062662710151
 20
-14.93910535650828
 30
0.0
  0
HATCH
  5
1EA
330
1E4
100
AcDbEntity
  8
Livello 3
 62
   250
420
  1907995
440
 33554687
100
AcDbHatch
 10
0.0
 20
0.0
 30
0.0
210
0.0
220
0.0
230
1.0
  2
SOLID
 70
     1
 71
     1
 91
        2
 92
        1
 93
        1
 72
     4
 94
        3
 73
     0
 74
     0
 95
       20
 96
       16
 40
0.0
 40
0.0
 40
0.0
 40
0.0
 40
1.0
 40
1.0
 40
1.0
 40
2.0
 40
2.0
 40
2.0
 40
3.0
 40
3.0
 40
3.0
 40
4.0
 40
4.0
 40
4.0
 40
5.0
 40
5.0
 40
5.0
 40
5.0
 10
19.63135985837341
 20
-14.89845322978233
 10
19.73419595860811
 20
-14.89845322978233
 10
19.80657741475321
 20
-14.83623480531871
 10
19.80657741475321
 20
-14.73970322982202
 10
19.80657741475321
 20
-14.66480685397268
 10
19.76974934401589
 20
-14.60637803454285
 10
19.72024332189285
 20
-14.57716362482793
 10
19.71008029021136
 20
-14.57082464913507
 10
19.6973678878708
 20
-14.56703504410129
 10
19.67959119516691
 20
-14.56703504410129
 10
19.53865233886533
 20
-14.56703504410129
 10
19.43071749731245
 20
-14.61909043688342
 10
19.43071749731245
 20
-14.73591362478824
 10
19.43071749731245
 20
-14.83113606400055
 10
19.51453667046859
 20
-14.89845322978233
 10
19.63135985837341
 20
-14.89845322978233
 97
        0
 97
        1
330
1E8
 92
        1
 93
        1
 72
     4
 94
        3
 73
     0
 74
     0
 95
       41
 96
       37
 40
0.0
 40
0.0
 40
0.0
 40
0.0
 40
1.0
 40
1.0
 40
1.0
 40
2.0
 40
2.0
 40
2.0
 40
3.0
 40
3.0
 40
3.0
 40
4.0
 40
4.0
 40
4.0
 40
5.0
 40
5.0
 40
5.0
 40
6.0
 40
6.0
 40
6.0
 40
7.0
 40
7.0
 40
7.0
 40
8.0
 40
8.0
 40
8.0
 40
9.0
 40
9.0
 40
9.0
 40
10.0
 40
10.0
 40
10.0
 40
11.0
 40
11.0
 40
11.0
 40
12.0
 40
12.0
 40
12.0
 40
12.0
 10
20.1062662710151
 20
-14.93910535650828
 10
20.10881564167418
 20
-14.91495523715667
 10
20.1062662710151
 20
-14.8870155127713
 10
20.10244221502647
 20
-14.84891275670444
 10
20.09355386867452
 20
-14.78414496158174
 10
20.06688882961869
 20
-14.72323567340252
 10
20.02244709785897
 20
-14.67624457098371
 10
19.97294107573593
 20
-14.62160535658765
 10
19.90055961959083
 20
-14.5822623661461
 10
19.80278780971944
 20
-14.56703504410129
 10
19.80278780971944
 20
-14.56703504410129
 10
19.80278780971944
 20
-14.57082464913507
 10
19.80278780971944
 20
-14.57082464913507
 10
19.85863280753534
 20
-14.61654106622433
 10
19.89167127323889
 20
-14.68258354667657
 10
19.89167127323889
 20
-14.76512803450316
 10
19.89167127323889
 20
-14.91368055182713
 10
19.77991237569738
 20
-15.00893744199428
 10
19.6389735193958
 20
-15.00893744199428
 10
19.48277289009458
 20
-15.00893744199428
 10
19.34562363882679
 20
-14.89590385912324
 10
19.34562363882679
 20
-14.7270252784363
 10
19.34562363882679
 20
-14.55814669774935
 10
19.48277289009458
 20
-14.45400146123025
 10
19.69357828283702
 20
-14.45400146123025
 10
19.87516926586454
 20
-14.45400146123025
 10
20.00215548545085
 20
-14.51494520036432
 10
20.08087591728881
 20
-14.59624945381621
 10
20.14309434175242
 20
-14.65970811265451
 10
20.18119709781928
 20
-14.74735134179927
 10
20.19136012950077
 20
-14.83623480531871
 10
20.19769910519363
 20
-14.87688693204466
 10
20.19897379052317
 20
-14.91244031745244
 10
20.19769910519363
 20
-14.93910535650828
 10
20.19769910519363
 20
-14.93910535650828
 10
20.1062662710151
 20
-14.93910535650828
 10
20.1062662710151
 20
-14.93910535650828
 97
        0
 97
        1
330
1E9
 75
     2
 76
     1
 98
        1
 10
0.0
 20
0.0
450
        0
451
        0
460
0.0
461
0.0
452
        0
462
0.0
453
        0
470

  0
ENDBLK
  5
1E7
330
1E4
100
AcDbEntity
  8
0
100
AcDbBlockEnd
  0
BLOCK
  5
1ED
330
1EB
100
AcDbEntity
  8
0
100
AcDbBlockBegin
  2
Block_12
 70
     0
 10
0.0
 20
0.0
 30
0.0
  3
Block_12
  1

  0
INSERT
  5
1F0
330
1EB
100
AcDbEntity
  8
Livello 3
100
AcDbBlockReference
  2
Block_13
 10
0.0
 20
0.0
 30
0.0
  0
ENDBLK
  5
1EE
330
1EB
100
AcDbEntity
  8
0
100
AcDbBlockEnd
  0
BLOCK
  5
1F1
330
1EF
100
AcDbEntity
  8
0
100
AcDbBlockBegin
  2
Block_13
 70
     0
 10
0.0
 20
0.0
 30
0.0
  3
Block_13
  1

  0
SPLINE
  5
1F3
330
1EF
100
AcDbEntity
  8
Livello 3
100
AcDbSpline
210
0.0
220
0.0
230
1.0
 70
    11
 71
     3
 72
    29
 73
    25
 74
     0
 42
0.000000001
 43
0.0000000001
 40
0.0
 40
0.0
 40
0.0
 40
0.0
 40
1.0
 40
1.0
 40
1.0
 40
2.0
 40
2.0
 40
2.0
 40
3.0
 40
3.0
 40
3.0
 40
4.0
 40
4.0
 40
4.0
 40
5.0
 40
5.0
 40
5.0
 40
6.0
 40
6.0
 40
6.0
 40
7.0
 40
7.0
 40
7.0
 40
8.0
 40
8.0
 40
8.0
 40
8.0
 10
19.46372151206115
 20
-7.631575518925437
 30
0.0
 10
19.46372151206115
 20
-7.631575518925437
 30
0.0
 10
19.46372151206115
 20
-7.634124889584523
 30
0.0
 10
19.46372151206115
 20
-7.634124889584523
 30
0.0
 10
19.46372151206115
 20
-7.634124889584523
 30
0.0
 10
19.54120170952442
 20
-7.777613116545178
 30
0.0
 10
19.54120170952442
 20
-7.777613116545178
 30
0.0
 10
19.54120170952442
 20
-7.777613116545178
 30
0.0
 10
19.45610785103875
 20
-7.799196639760269
 30
0.0
 10
19.45610785103875
 20
-7.799196639760269
 30
0.0
 10
19.45610785103875
 20
-7.799196639760269
 30
0.0
 10
19.3596107264969
 20
-7.618880342062293
 30
0.0
 10
19.3596107264969
 20
-7.618880342062293
 30
0.0
 10
19.3596107264969
 20
-7.618880342062293
 30
0.0
 10
19.3596107264969
 20
-7.523640677372561
 30
0.0
 10
19.3596107264969
 20
-7.523640677372561
 30
0.0
 10
19.3596107264969
 20
-7.523640677372561
 30
0.0
 10
20.18498670285306
 20
-7.523640677372561
 30
0.0
 10
20.18498670285306
 20
-7.523640677372561
 30
0.0
 10
20.18498670285306
 20
-7.523640677372561
 30
0.0
 10
20.18498670285306
 20
-7.631575518925437
 30
0.0
 10
20.18498670285306
 20
-7.631575518925437
 30
0.0
 10
20.18498670285306
 20
-7.631575518925437
 30
0.0
 10
19.46372151206115
 20
-7.631575518925437
 30
0.0
 10
19.46372151206115
 20
-7.631575518925437
 30
0.0
  0
HATCH
  5
1F4
330
1EF
100
AcDbEntity
  8
Livello 3
 62
   250
420
  1907995
440
 33554687
100
AcDbHatch
 10
0.0
 20
0.0
 30
0.0
210
0.0
220
0.0
230
1.0
  2
SOLID
 70
     1
 71
     1
 91
        1
 92
        1
 93
        1
 72
     4
 94
        3
 73
     0
 74
     0
 95
       29
 96
       25
 40
0.0
 40
0.0
 40
0.0
 40
0.0
 40
1.0
 40
1.0
 40
1.0
 40
2.0
 40
2.0
 40
2.0
 40
3.0
 40
3.0
 40
3.0
 40
4.0
 40
4.0
 40
4.0
 40
5.0
 40
5.0
 40
5.0
 40
6.0
 40
6.0
 40
6.0
 40
7.0
 40
7.0
 40
7.0
 40
8.0
 40
8.0
 40
8.0
 40
8.0
 10
19.46372151206115
 20
-7.631575518925437
 10
19.46372151206115
 20
-7.631575518925437
 10
19.46372151206115
 20
-7.634124889584523
 10
19.46372151206115
 20
-7.634124889584523
 10
19.46372151206115
 20
-7.634124889584523
 10
19.54120170952442
 20
-7.777613116545178
 10
19.54120170952442
 20
-7.777613116545178
 10
19.54120170952442
 20
-7.777613116545178
 10
19.45610785103875
 20
-7.799196639760269
 10
19.45610785103875
 20
-7.799196639760269
 10
19.45610785103875
 20
-7.799196639760269
 10
19.3596107264969
 20
-7.618880342062293
 10
19.3596107264969
 20
-7.618880342062293
 10
19.3596107264969
 20
-7.618880342062293
 10
19.3596107264969
 20
-7.523640677372561
 10
19.3596107264969
 20
-7.523640677372561
 10
19.3596107264969
 20
-7.523640677372561
 10
20.18498670285306
 20
-7.523640677372561
 10
20.18498670285306
 20
-7.523640677372561
 10
20.18498670285306
 20
-7.523640677372561
 10
20.18498670285306
 20
-7.631575518925437
 10
20.18498670285306
 20
-7.631575518925437
 10
20.18498670285306
 20
-7.631575518925437
 10
19.46372151206115
 20
-7.631575518925437
 10
19.46372151206115
 20
-7.631575518925437
 97
        0
 97
        1
330
1F3
 75
     2
 76
     1
 98
        1
 10
0.0
 20
0.0
450
        0
451
        0
460
0.0
461
0.0
452
        0
462
0.0
453
        0
470

  0
SPLINE
  5
1F5
330
1EF
100
AcDbEntity
  8
Livello 3
100
AcDbSpline
210
0.0
220
0.0
230
1.0
 70
    11
 71
     3
 72
    47
 73
    43
 74
     0
 42
0.000000001
 43
0.0000000001
 40
0.0
 40
0.0
 40
0.0
 40
0.0
 40
1.0
 40
1.0
 40
1.0
 40
2.0
 40
2.0
 40
2.0
 40
3.0
 40
3.0
 40
3.0
 40
4.0
 40
4.0
 40
4.0
 40
5.0
 40
5.0
 40
5.0
 40
6.0
 40
6.0
 40
6.0
 40
7.0
 40
7.0
 40
7.0
 40
8.0
 40
8.0
 40
8.0
 40
9.0
 40
9.0
 40
9.0
 40
10.0
 40
10.0
 40
10.0
 40
11.0
 40
11.0
 40
11.0
 40
12.0
 40
12.0
 40
12.0
 40
13.0
 40
13.0
 40
13.0
 40
14.0
 40
14.0
 40
14.0
 40
14.0
 10
20.18498670285306
 20
-7.222642684826282
 30
0.0
 10
20.18498670285306
 20
-7.222642684826282
 30
0.0
 10
20.11642930269658
 20
-7.222642684826282
 30
0.0
 10
20.11642930269658
 20
-7.222642684826282
 30
0.0
 10
20.11642930269658
 20
-7.222642684826282
 30
0.0
 10
20.03133544421091
 20
-7.135016681158952
 30
0.0
 10
20.03133544421091
 20
-7.135016681158952
 30
0.0
 10
19.83069308314996
 20
-6.924228513893942
 30
0.0
 10
19.72403292692663
 20
-6.828988849204209
 30
0.0
 10
19.59959607799939
 20
-6.827714163874667
 30
0.0
 10
19.51577690484328
 20
-6.827714163874667
 30
0.0
 10
19.43833115833486
 20
-6.868349065123188
 30
0.0
 10
19.43833115833486
 20
-6.991528454198297
 30
0.0
 10
19.43833115833486
 20
-7.066442055525055
 30
0.0
 10
19.47643391440172
 20
-7.128660479988668
 30
0.0
 10
19.50816324382087
 20
-7.166763236055531
 30
0.0
 10
19.50816324382087
 20
-7.166763236055531
 30
0.0
 10
19.42944281198291
 20
-7.202316621463307
 30
0.0
 10
19.42944281198291
 20
-7.202316621463307
 30
0.0
 10
19.38117702423456
 20
-7.14517971284044
 30
0.0
 10
19.34562363882679
 20
-7.063909910343396
 30
0.0
 10
19.34562363882679
 20
-6.968670245653663
 30
0.0
 10
19.34562363882679
 20
-6.790886093137348
 30
0.0
 10
19.46754556804978
 20
-6.715972491810588
 30
0.0
 10
19.58564344128414
 20
-6.715972491810588
 30
0.0
 10
19.73802001459674
 20
-6.715972491810588
 30
0.0
 10
19.86118217819442
 20
-6.826439478545124
 30
0.0
 10
20.02882052450668
 20
-7.000416800550242
 30
0.0
 10
20.02882052450668
 20
-7.000416800550242
 30
0.0
 10
20.08976426364075
 20
-7.066442055525055
 30
0.0
 10
20.08976426364075
 20
-7.066442055525055
 30
0.0
 10
20.08976426364075
 20
-7.066442055525055
 30
0.0
 10
20.09231363429984
 20
-7.066442055525055
 30
0.0
 10
20.09231363429984
 20
-7.066442055525055
 30
0.0
 10
20.09231363429984
 20
-7.066442055525055
 30
0.0
 10
20.09231363429984
 20
-6.695646428447616
 30
0.0
 10
20.09231363429984
 20
-6.695646428447616
 30
0.0
 10
20.09231363429984
 20
-6.695646428447616
 30
0.0
 10
20.18498670285306
 20
-6.695646428447616
 30
0.0
 10
20.18498670285306
 20
-6.695646428447616
 30
0.0
 10
20.18498670285306
 20
-6.695646428447616
 30
0.0
 10
20.18498670285306
 20
-7.222642684826282
 30
0.0
 10
20.18498670285306
 20
-7.222642684826282
 30
0.0
  0
HATCH
  5
1F6
330
1EF
100
AcDbEntity
  8
Livello 3
 62
   250
420
  1907995
440
 33554687
100
AcDbHatch
 10
0.0
 20
0.0
 30
0.0
210
0.0
220
0.0
230
1.0
  2
SOLID
 70
     1
 71
     1
 91
        1
 92
        1
 93
        1
 72
     4
 94
        3
 73
     0
 74
     0
 95
       47
 96
       43
 40
0.0
 40
0.0
 40
0.0
 40
0.0
 40
1.0
 40
1.0
 40
1.0
 40
2.0
 40
2.0
 40
2.0
 40
3.0
 40
3.0
 40
3.0
 40
4.0
 40
4.0
 40
4.0
 40
5.0
 40
5.0
 40
5.0
 40
6.0
 40
6.0
 40
6.0
 40
7.0
 40
7.0
 40
7.0
 40
8.0
 40
8.0
 40
8.0
 40
9.0
 40
9.0
 40
9.0
 40
10.0
 40
10.0
 40
10.0
 40
11.0
 40
11.0
 40
11.0
 40
12.0
 40
12.0
 40
12.0
 40
13.0
 40
13.0
 40
13.0
 40
14.0
 40
14.0
 40
14.0
 40
14.0
 10
20.18498670285306
 20
-7.222642684826282
 10
20.18498670285306
 20
-7.222642684826282
 10
20.11642930269658
 20
-7.222642684826282
 10
20.11642930269658
 20
-7.222642684826282
 10
20.11642930269658
 20
-7.222642684826282
 10
20.03133544421091
 20
-7.135016681158952
 10
20.03133544421091
 20
-7.135016681158952
 10
19.83069308314996
 20
-6.924228513893942
 10
19.72403292692663
 20
-6.828988849204209
 10
19.59959607799939
 20
-6.827714163874667
 10
19.51577690484328
 20
-6.827714163874667
 10
19.43833115833486
 20
-6.868349065123188
 10
19.43833115833486
 20
-6.991528454198297
 10
19.43833115833486
 20
-7.066442055525055
 10
19.47643391440172
 20
-7.128660479988668
 10
19.50816324382087
 20
-7.166763236055531
 10
19.50816324382087
 20
-7.166763236055531
 10
19.42944281198291
 20
-7.202316621463307
 10
19.42944281198291
 20
-7.202316621463307
 10
19.38117702423456
 20
-7.14517971284044
 10
19.34562363882679
 20
-7.063909910343396
 10
19.34562363882679
 20
-6.968670245653663
 10
19.34562363882679
 20
-6.790886093137348
 10
19.46754556804978
 20
-6.715972491810588
 10
19.58564344128414
 20
-6.715972491810588
 10
19.73802001459674
 20
-6.715972491810588
 10
19.86118217819442
 20
-6.826439478545124
 10
20.02882052450668
 20
-7.000416800550242
 10
20.02882052450668
 20
-7.000416800550242
 10
20.08976426364075
 20
-7.066442055525055
 10
20.08976426364075
 20
-7.066442055525055
 10
20.08976426364075
 20
-7.066442055525055
 10
20.09231363429984
 20
-7.066442055525055
 10
20.09231363429984
 20
-7.066442055525055
 10
20.09231363429984
 20
-7.066442055525055
 10
20.09231363429984
 20
-6.695646428447616
 10
20.09231363429984
 20
-6.695646428447616
 10
20.09231363429984
 20
-6.695646428447616
 10
20.18498670285306
 20
-6.695646428447616
 10
20.18498670285306
 20
-6.695646428447616
 10
20.18498670285306
 20
-6.695646428447616
 10
20.18498670285306
 20
-7.222642684826282
 10
20.18498670285306
 20
-7.222642684826282
 97
        0
 97
        1
330
1F5
 75
     2
 76
     1
 98
        1
 10
0.0
 20
0.0
450
        0
451
        0
460
0.0
461
0.0
452
        0
462
0.0
453
        0
470

  0
ENDBLK
  5
1F2
330
1EF
100
AcDbEntity
  8
0
100
AcDbBlockEnd
  0
BLOCK
  5
1F9
330
1F7
100
AcDbEntity
  8
0
100
AcDbBlockBegin
  2
Block_14
 70
     0
 10
0.0
 20
0.0
 30
0.0
  3
Block_14
  1

  0
SPLINE
  5
1FB
330
1F7
100
AcDbEntity
  8
Livello 3
100
AcDbSpline
210
0.0
220
0.0
230
1.0
 70
     9
 71
     3
 72
    20
 73
    16
 74
     0
 42
0.000000001
 43
0.0000000001
 40
0.0
 40
0.0
 40
0.0
 40
0.0
 40
1.0
 40
1.0
 40
1.0
 40
2.0
 40
2.0
 40
2.0
 40
3.0
 40
3.0
 40
3.0
 40
4.0
 40
4.0
 40
4.0
 40
5.0
 40
5.0
 40
5.0
 40
5.0
 10
24.67129339660996
 20
-18.03345567040483
 30
0.0
 10
24.67129339660996
 20
-18.13632622159438
 30
0.0
 10
24.73351182107356
 20
-18.20870767773949
 30
0.0
 10
24.83004339657027
 20
-18.20870767773949
 30
0.0
 10
24.9049397724196
 20
-18.20870767773949
 30
0.0
 10
24.96336859184943
 20
-18.17187960700216
 30
0.0
 10
24.99258300156435
 20
-18.12233913392427
 30
0.0
 10
24.99892197725721
 20
-18.11217610224279
 30
0.0
 10
25.00274603324584
 20
-18.09949815085707
 30
0.0
 10
25.00274603324584
 20
-18.08172145815318
 30
0.0
 10
25.00274603324584
 20
-17.94074815089675
 30
0.0
 10
24.95065618950886
 20
-17.83281330934388
 30
0.0
 10
24.83383300160404
 20
-17.83281330934388
 30
0.0
 10
24.73861056239174
 20
-17.83281330934388
 30
0.0
 10
24.67129339660996
 20
-17.9166324825
 30
0.0
 10
24.67129339660996
 20
-18.03345567040483
 30
0.0
  0
SPLINE
  5
1FC
330
1F7
100
AcDbEntity
  8
Livello 3
100
AcDbSpline
210
0.0
220
0.0
230
1.0
 70
     9
 71
     3
 72
    41
 73
    37
 74
     0
 42
0.000000001
 43
0.0000000001
 40
0.0
 40
0.0
 40
0.0
 40
0.0
 40
1.0
 40
1.0
 40
1.0
 40
2.0
 40
2.0
 40
2.0
 40
3.0
 40
3.0
 40
3.0
 40
4.0
 40
4.0
 40
4.0
 40
5.0
 40
5.0
 40
5.0
 40
6.0
 40
6.0
 40
6.0
 40
7.0
 40
7.0
 40
7.0
 40
8.0
 40
8.0
 40
8.0
 40
9.0
 40
9.0
 40
9.0
 40
10.0
 40
10.0
 40
10.0
 40
11.0
 40
11.0
 40
11.0
 40
12.0
 40
12.0
 40
12.0
 40
12.0
 10
24.63067572083887
 20
-18.50836208304652
 30
0.0
 10
24.65479138923561
 20
-18.5109114537056
 30
0.0
 10
24.68273111362098
 20
-18.50836208304652
 30
0.0
 10
24.72083386968785
 20
-18.50457247801274
 30
0.0
 10
24.78560166481055
 20
-18.4956841316608
 30
0.0
 10
24.84654540394461
 20
-18.46901909260497
 30
0.0
 10
24.89353650636342
 20
-18.42457736084524
 30
0.0
 10
24.94814126980463
 20
-18.37503688776735
 30
0.0
 10
24.98748426024619
 20
-18.30265543162225
 30
0.0
 10
25.00274603324584
 20
-18.20488362175086
 30
0.0
 10
25.00274603324584
 20
-18.20488362175086
 30
0.0
 10
24.99892197725721
 20
-18.20488362175086
 30
0.0
 10
24.99892197725721
 20
-18.20488362175086
 30
0.0
 10
24.95320556016795
 20
-18.26076307052161
 30
0.0
 10
24.88716307971571
 20
-18.2937670852703
 30
0.0
 10
24.80461859188912
 20
-18.2937670852703
 30
0.0
 10
24.65606607456515
 20
-18.2937670852703
 30
0.0
 10
24.56080918439799
 20
-18.18204263868365
 30
0.0
 10
24.56080918439799
 20
-18.04106933142723
 30
0.0
 10
24.56080918439799
 20
-17.88490315308085
 30
0.0
 10
24.67384276726904
 20
-17.74775390181306
 30
0.0
 10
24.84272134795598
 20
-17.74775390181306
 30
0.0
 10
25.01163437959779
 20
-17.74775390181306
 30
0.0
 10
25.11574516516204
 20
-17.88490315308085
 30
0.0
 10
25.11574516516204
 20
-18.09567409486844
 30
0.0
 10
25.11574516516204
 20
-18.27726507789596
 30
0.0
 10
25.05480142602797
 20
-18.40425129748227
 30
0.0
 10
24.97353162353092
 20
-18.48297172932023
 30
0.0
 10
24.91003851373777
 20
-18.54519015378384
 30
0.0
 10
24.82242973554786
 20
-18.5832929098507
 30
0.0
 10
24.73351182107356
 20
-18.59345594153219
 30
0.0
 10
24.69289414530247
 20
-18.59979491722505
 30
0.0
 10
24.65734075989469
 20
-18.60106960255459
 30
0.0
 10
24.63067572083887
 20
-18.59979491722505
 30
0.0
 10
24.63067572083887
 20
-18.59979491722505
 30
0.0
 10
24.63067572083887
 20
-18.50836208304652
 30
0.0
 10
24.63067572083887
 20
-18.50836208304652
 30
0.0
  0
HATCH
  5
1FD
330
1F7
100
AcDbEntity
  8
Livello 3
 62
   250
420
  1907995
440
 33554687
100
AcDbHatch
 10
0.0
 20
0.0
 30
0.0
210
0.0
220
0.0
230
1.0
  2
SOLID
 70
     1
 71
     1
 91
        2
 92
        1
 93
        1
 72
     4
 94
        3
 73
     0
 74
     0
 95
       20
 96
       16
 40
0.0
 40
0.0
 40
0.0
 40
0.0
 40
1.0
 40
1.0
 40
1.0
 40
2.0
 40
2.0
 40
2.0
 40
3.0
 40
3.0
 40
3.0
 40
4.0
 40
4.0
 40
4.0
 40
5.0
 40
5.0
 40
5.0
 40
5.0
 10
24.67129339660996
 20
-18.03345567040483
 10
24.67129339660996
 20
-18.13632622159438
 10
24.73351182107356
 20
-18.20870767773949
 10
24.83004339657027
 20
-18.20870767773949
 10
24.9049397724196
 20
-18.20870767773949
 10
24.96336859184943
 20
-18.17187960700216
 10
24.99258300156435
 20
-18.12233913392427
 10
24.99892197725721
 20
-18.11217610224279
 10
25.00274603324584
 20
-18.09949815085707
 10
25.00274603324584
 20
-18.08172145815318
 10
25.00274603324584
 20
-17.94074815089675
 10
24.95065618950886
 20
-17.83281330934388
 10
24.83383300160404
 20
-17.83281330934388
 10
24.73861056239174
 20
-17.83281330934388
 10
24.67129339660996
 20
-17.9166324825
 10
24.67129339660996
 20
-18.03345567040483
 97
        0
 97
        1
330
1FB
 92
        1
 93
        1
 72
     4
 94
        3
 73
     0
 74
     0
 95
       41
 96
       37
 40
0.0
 40
0.0
 40
0.0
 40
0.0
 40
1.0
 40
1.0
 40
1.0
 40
2.0
 40
2.0
 40
2.0
 40
3.0
 40
3.0
 40
3.0
 40
4.0
 40
4.0
 40
4.0
 40
5.0
 40
5.0
 40
5.0
 40
6.0
 40
6.0
 40
6.0
 40
7.0
 40
7.0
 40
7.0
 40
8.0
 40
8.0
 40
8.0
 40
9.0
 40
9.0
 40
9.0
 40
10.0
 40
10.0
 40
10.0
 40
11.0
 40
11.0
 40
11.0
 40
12.0
 40
12.0
 40
12.0
 40
12.0
 10
24.63067572083887
 20
-18.50836208304652
 10
24.65479138923561
 20
-18.5109114537056
 10
24.68273111362098
 20
-18.50836208304652
 10
24.72083386968785
 20
-18.50457247801274
 10
24.78560166481055
 20
-18.4956841316608
 10
24.84654540394461
 20
-18.46901909260497
 10
24.89353650636342
 20
-18.42457736084524
 10
24.94814126980463
 20
-18.37503688776735
 10
24.98748426024619
 20
-18.30265543162225
 10
25.00274603324584
 20
-18.20488362175086
 10
25.00274603324584
 20
-18.20488362175086
 10
24.99892197725721
 20
-18.20488362175086
 10
24.99892197725721
 20
-18.20488362175086
 10
24.95320556016795
 20
-18.26076307052161
 10
24.88716307971571
 20
-18.2937670852703
 10
24.80461859188912
 20
-18.2937670852703
 10
24.65606607456515
 20
-18.2937670852703
 10
24.56080918439799
 20
-18.18204263868365
 10
24.56080918439799
 20
-18.04106933142723
 10
24.56080918439799
 20
-17.88490315308085
 10
24.67384276726904
 20
-17.74775390181306
 10
24.84272134795598
 20
-17.74775390181306
 10
25.01163437959779
 20
-17.74775390181306
 10
25.11574516516204
 20
-17.88490315308085
 10
25.11574516516204
 20
-18.09567409486844
 10
25.11574516516204
 20
-18.27726507789596
 10
25.05480142602797
 20
-18.40425129748227
 10
24.97353162353092
 20
-18.48297172932023
 10
24.91003851373777
 20
-18.54519015378384
 10
24.82242973554786
 20
-18.5832929098507
 10
24.73351182107356
 20
-18.59345594153219
 10
24.69289414530247
 20
-18.59979491722505
 10
24.65734075989469
 20
-18.60106960255459
 10
24.63067572083887
 20
-18.59979491722505
 10
24.63067572083887
 20
-18.59979491722505
 10
24.63067572083887
 20
-18.50836208304652
 10
24.63067572083887
 20
-18.50836208304652
 97
        0
 97
        1
330
1FC
 75
     2
 76
     1
 98
        1
 10
0.0
 20
0.0
450
        0
451
        0
460
0.0
461
0.0
452
        0
462
0.0
453
        0
470

  0
ENDBLK
  5
1FA
330
1F7
100
AcDbEntity
  8
0
100
AcDbBlockEnd
  0
BLOCK
  5
200
330
1FE
100
AcDbEntity
  8
0
100
AcDbBlockBegin
  2
Block_15
 70
     0
 10
0.0
 20
0.0
 30
0.0
  3
Block_15
  1

  0
SPLINE
  5
202
330
1FE
100
AcDbEntity
  8
Livello 3
100
AcDbSpline
210
0.0
220
0.0
230
1.0
 70
     9
 71
     3
 72
    20
 73
    16
 74
     0
 42
0.000000001
 43
0.0000000001
 40
0.0
 40
0.0
 40
0.0
 40
0.0
 40
1.0
 40
1.0
 40
1.0
 40
2.0
 40
2.0
 40
2.0
 40
3.0
 40
3.0
 40
3.0
 40
4.0
 40
4.0
 40
4.0
 40
5.0
 40
5.0
 40
5.0
 40
5.0
 10
27.88012423348136
 20
-14.52652072119476
 30
0.0
 10
27.98299478467092
 20
-14.52652072119476
 30
0.0
 10
28.05534178986116
 20
-14.46430229673114
 30
0.0
 10
28.05534178986116
 20
-14.36777072123444
 30
0.0
 10
28.05534178986116
 20
-14.29287434538511
 30
0.0
 10
28.0185481700787
 20
-14.23444552595527
 30
0.0
 10
27.9690076970008
 20
-14.20523111624035
 30
0.0
 10
27.95884466531932
 20
-14.1988921405475
 30
0.0
 10
27.94613226297875
 20
-14.19510253551372
 30
0.0
 10
27.92835557027486
 20
-14.19510253551372
 30
0.0
 10
27.78741671397328
 20
-14.19510253551372
 30
0.0
 10
27.67948187242041
 20
-14.24715792829585
 30
0.0
 10
27.67948187242041
 20
-14.36398111620067
 30
0.0
 10
27.67948187242041
 20
-14.45920355541298
 30
0.0
 10
27.76330104557653
 20
-14.52652072119476
 30
0.0
 10
27.88012423348136
 20
-14.52652072119476
 30
0.0
  0
SPLINE
  5
203
330
1FE
100
AcDbEntity
  8
Livello 3
100
AcDbSpline
210
0.0
220
0.0
230
1.0
 70
     9
 71
     3
 72
    41
 73
    37
 74
     0
 42
0.000000001
 43
0.0000000001
 40
0.0
 40
0.0
 40
0.0
 40
0.0
 40
1.0
 40
1.0
 40
1.0
 40
2.0
 40
2.0
 40
2.0
 40
3.0
 40
3.0
 40
3.0
 40
4.0
 40
4.0
 40
4.0
 40
5.0
 40
5.0
 40
5.0
 40
6.0
 40
6.0
 40
6.0
 40
7.0
 40
7.0
 40
7.0
 40
8.0
 40
8.0
 40
8.0
 40
9.0
 40
9.0
 40
9.0
 40
10.0
 40
10.0
 40
10.0
 40
11.0
 40
11.0
 40
11.0
 40
12.0
 40
12.0
 40
12.0
 40
12.0
 10
28.35503064612304
 20
-14.5671728479207
 30
0.0
 10
28.35758001678213
 20
-14.5430227285691
 30
0.0
 10
28.35503064612304
 20
-14.51508300418373
 30
0.0
 10
28.35120659013442
 20
-14.47698024811686
 30
0.0
 10
28.34231824378248
 20
-14.41221245299417
 30
0.0
 10
28.31565320472664
 20
-14.35130316481495
 30
0.0
 10
28.27121147296693
 20
-14.30431206239614
 30
0.0
 10
28.22170545084388
 20
-14.24967284800008
 30
0.0
 10
28.14932399469878
 20
-14.21032985755853
 30
0.0
 10
28.05155218482738
 20
-14.19510253551372
 30
0.0
 10
28.05155218482738
 20
-14.19510253551372
 30
0.0
 10
28.05155218482738
 20
-14.1988921405475
 30
0.0
 10
28.05155218482738
 20
-14.1988921405475
 30
0.0
 10
28.10743163359815
 20
-14.24460855763676
 30
0.0
 10
28.14043564834684
 20
-14.310651038089
 30
0.0
 10
28.14043564834684
 20
-14.39319552591559
 30
0.0
 10
28.14043564834684
 20
-14.54174804323956
 30
0.0
 10
28.02867675080533
 20
-14.63700493340672
 30
0.0
 10
27.88773789450376
 20
-14.63700493340672
 30
0.0
 10
27.73157171615738
 20
-14.63700493340672
 30
0.0
 10
27.59438801393474
 20
-14.52397135053567
 30
0.0
 10
27.59438801393474
 20
-14.35509276984872
 30
0.0
 10
27.59438801393474
 20
-14.18621418916178
 30
0.0
 10
27.73157171615738
 20
-14.08206895264267
 30
0.0
 10
27.94234265794497
 20
-14.08206895264267
 30
0.0
 10
28.12393364097249
 20
-14.08206895264267
 30
0.0
 10
28.2509198605588
 20
-14.14301269177675
 30
0.0
 10
28.32964029239676
 20
-14.22431694522864
 30
0.0
 10
28.39185871686037
 20
-14.28777560406694
 30
0.0
 10
28.42996147292723
 20
-14.3754188332117
 30
0.0
 10
28.44012450460872
 20
-14.46430229673114
 30
0.0
 10
28.44646348030158
 20
-14.50495442345709
 30
0.0
 10
28.44773816563112
 20
-14.54050780886487
 30
0.0
 10
28.44646348030158
 20
-14.5671728479207
 30
0.0
 10
28.44646348030158
 20
-14.5671728479207
 30
0.0
 10
28.35503064612304
 20
-14.5671728479207
 30
0.0
 10
28.35503064612304
 20
-14.5671728479207
 30
0.0
  0
HATCH
  5
204
330
1FE
100
AcDbEntity
  8
Livello 3
 62
   250
420
  1907995
440
 33554687
100
AcDbHatch
 10
0.0
 20
0.0
 30
0.0
210
0.0
220
0.0
230
1.0
  2
SOLID
 70
     1
 71
     1
 91
        2
 92
        1
 93
        1
 72
     4
 94
        3
 73
     0
 74
     0
 95
       20
 96
       16
 40
0.0
 40
0.0
 40
0.0
 40
0.0
 40
1.0
 40
1.0
 40
1.0
 40
2.0
 40
2.0
 40
2.0
 40
3.0
 40
3.0
 40
3.0
 40
4.0
 40
4.0
 40
4.0
 40
5.0
 40
5.0
 40
5.0
 40
5.0
 10
27.88012423348136
 20
-14.52652072119476
 10
27.98299478467092
 20
-14.52652072119476
 10
28.05534178986116
 20
-14.46430229673114
 10
28.05534178986116
 20
-14.36777072123444
 10
28.05534178986116
 20
-14.29287434538511
 10
28.0185481700787
 20
-14.23444552595527
 10
27.9690076970008
 20
-14.20523111624035
 10
27.95884466531932
 20
-14.1988921405475
 10
27.94613226297875
 20
-14.19510253551372
 10
27.92835557027486
 20
-14.19510253551372
 10
27.78741671397328
 20
-14.19510253551372
 10
27.67948187242041
 20
-14.24715792829585
 10
27.67948187242041
 20
-14.36398111620067
 10
27.67948187242041
 20
-14.45920355541298
 10
27.76330104557653
 20
-14.52652072119476
 10
27.88012423348136
 20
-14.52652072119476
 97
        0
 97
        1
330
202
 92
        1
 93
        1
 72
     4
 94
        3
 73
     0
 74
     0
 95
       41
 96
       37
 40
0.0
 40
0.0
 40
0.0
 40
0.0
 40
1.0
 40
1.0
 40
1.0
 40
2.0
 40
2.0
 40
2.0
 40
3.0
 40
3.0
 40
3.0
 40
4.0
 40
4.0
 40
4.0
 40
5.0
 40
5.0
 40
5.0
 40
6.0
 40
6.0
 40
6.0
 40
7.0
 40
7.0
 40
7.0
 40
8.0
 40
8.0
 40
8.0
 40
9.0
 40
9.0
 40
9.0
 40
10.0
 40
10.0
 40
10.0
 40
11.0
 40
11.0
 40
11.0
 40
12.0
 40
12.0
 40
12.0
 40
12.0
 10
28.35503064612304
 20
-14.5671728479207
 10
28.35758001678213
 20
-14.5430227285691
 10
28.35503064612304
 20
-14.51508300418373
 10
28.35120659013442
 20
-14.47698024811686
 10
28.34231824378248
 20
-14.41221245299417
 10
28.31565320472664
 20
-14.35130316481495
 10
28.27121147296693
 20
-14.30431206239614
 10
28.22170545084388
 20
-14.24967284800008
 10
28.14932399469878
 20
-14.21032985755853
 10
28.05155218482738
 20
-14.19510253551372
 10
28.05155218482738
 20
-14.19510253551372
 10
28.05155218482738
 20
-14.1988921405475
 10
28.05155218482738
 20
-14.1988921405475
 10
28.10743163359815
 20
-14.24460855763676
 10
28.14043564834684
 20
-14.310651038089
 10
28.14043564834684
 20
-14.39319552591559
 10
28.14043564834684
 20
-14.54174804323956
 10
28.02867675080533
 20
-14.63700493340672
 10
27.88773789450376
 20
-14.63700493340672
 10
27.73157171615738
 20
-14.63700493340672
 10
27.59438801393474
 20
-14.52397135053567
 10
27.59438801393474
 20
-14.35509276984872
 10
27.59438801393474
 20
-14.18621418916178
 10
27.73157171615738
 20
-14.08206895264267
 10
27.94234265794497
 20
-14.08206895264267
 10
28.12393364097249
 20
-14.08206895264267
 10
28.2509198605588
 20
-14.14301269177675
 10
28.32964029239676
 20
-14.22431694522864
 10
28.39185871686037
 20
-14.28777560406694
 10
28.42996147292723
 20
-14.3754188332117
 10
28.44012450460872
 20
-14.46430229673114
 10
28.44646348030158
 20
-14.50495442345709
 10
28.44773816563112
 20
-14.54050780886487
 10
28.44646348030158
 20
-14.5671728479207
 10
28.44646348030158
 20
-14.5671728479207
 10
28.35503064612304
 20
-14.5671728479207
 10
28.35503064612304
 20
-14.5671728479207
 97
        0
 97
        1
330
203
 75
     2
 76
     1
 98
        1
 10
0.0
 20
0.0
450
        0
451
        0
460
0.0
461
0.0
452
        0
462
0.0
453
        0
470

  0
ENDBLK
  5
201
330
1FE
100
AcDbEntity
  8
0
100
AcDbBlockEnd
  0
BLOCK
  5
207
330
205
100
AcDbEntity
  8
0
100
AcDbBlockBegin
  2
Block_16
 70
     0
 10
0.0
 20
0.0
 30
0.0
  3
Block_16
  1

  0
SPLINE
  5
209
330
205
100
AcDbEntity
  8
Livello 3
100
AcDbSpline
210
0.0
220
0.0
230
1.0
 70
     9
 71
     3
 72
    20
 73
    16
 74
     0
 42
0.000000001
 43
0.0000000001
 40
0.0
 40
0.0
 40
0.0
 40
0.0
 40
1.0
 40
1.0
 40
1.0
 40
2.0
 40
2.0
 40
2.0
 40
3.0
 40
3.0
 40
3.0
 40
4.0
 40
4.0
 40
4.0
 40
5.0
 40
5.0
 40
5.0
 40
5.0
 10
27.88012423348136
 20
-7.768690319238382
 30
0.0
 10
27.98299478467092
 20
-7.768690319238382
 30
0.0
 10
28.05534178986116
 20
-7.706471894774769
 30
0.0
 10
28.05534178986116
 20
-7.609957544755495
 30
0.0
 10
28.05534178986116
 20
-7.535043943428736
 30
0.0
 10
28.0185481700787
 20
-7.476632349476326
 30
0.0
 10
27.9690076970008
 20
-7.447417939761407
 30
0.0
 10
27.95884466531932
 20
-7.441078964068548
 30
0.0
 10
27.94613226297875
 20
-7.43725490807992
 30
0.0
 10
27.92835557027486
 20
-7.43725490807992
 30
0.0
 10
27.78741671397328
 20
-7.43725490807992
 30
0.0
 10
27.67948187242041
 20
-7.489327526339472
 30
0.0
 10
27.67948187242041
 20
-7.606150714244295
 30
0.0
 10
27.67948187242041
 20
-7.701390378934027
 30
0.0
 10
27.76330104557653
 20
-7.768690319238382
 30
0.0
 10
27.88012423348136
 20
-7.768690319238382
 30
0.0
  0
SPLINE
  5
20A
330
205
100
AcDbEntity
  8
Livello 3
100
AcDbSpline
210
0.0
220
0.0
230
1.0
 70
     9
 71
     3
 72
    41
 73
    37
 74
     0
 42
0.000000001
 43
0.0000000001
 40
0.0
 40
0.0
 40
0.0
 40
0.0
 40
1.0
 40
1.0
 40
1.0
 40
2.0
 40
2.0
 40
2.0
 40
3.0
 40
3.0
 40
3.0
 40
4.0
 40
4.0
 40
4.0
 40
5.0
 40
5.0
 40
5.0
 40
6.0
 40
6.0
 40
6.0
 40
7.0
 40
7.0
 40
7.0
 40
8.0
 40
8.0
 40
8.0
 40
9.0
 40
9.0
 40
9.0
 40
10.0
 40
10.0
 40
10.0
 40
11.0
 40
11.0
 40
11.0
 40
12.0
 40
12.0
 40
12.0
 40
12.0
 10
28.35503064612304
 20
-7.809325220486902
 30
0.0
 10
28.35758001678213
 20
-7.785192326612729
 30
0.0
 10
28.35503064612304
 20
-7.757269827704779
 30
0.0
 10
28.35120659013442
 20
-7.719167071637915
 30
0.0
 10
28.34231824378248
 20
-7.654399276515219
 30
0.0
 10
28.31565320472664
 20
-7.593455537381148
 30
0.0
 10
28.27121147296693
 20
-7.54646443496234
 30
0.0
 10
28.22170545084388
 20
-7.49185967152113
 30
0.0
 10
28.14932399469878
 20
-7.452499455602151
 30
0.0
 10
28.05155218482738
 20
-7.43725490807992
 30
0.0
 10
28.05155218482738
 20
-7.43725490807992
 30
0.0
 10
28.05155218482738
 20
-7.441078964068548
 30
0.0
 10
28.05155218482738
 20
-7.441078964068548
 30
0.0
 10
28.10743163359815
 20
-7.486778155680387
 30
0.0
 10
28.14043564834684
 20
-7.552820636132627
 30
0.0
 10
28.14043564834684
 20
-7.635365123959211
 30
0.0
 10
28.14043564834684
 20
-7.783934866760612
 30
0.0
 10
28.02867675080533
 20
-7.879174531450344
 30
0.0
 10
27.88773789450376
 20
-7.879174531450344
 30
0.0
 10
27.73157171615738
 20
-7.879174531450344
 30
0.0
 10
27.59438801393474
 20
-7.766158174056722
 30
0.0
 10
27.59438801393474
 20
-7.59726236789235
 30
0.0
 10
27.59438801393474
 20
-7.428366561727978
 30
0.0
 10
27.73157171615738
 20
-7.324238550686301
 30
0.0
 10
27.94234265794497
 20
-7.324238550686301
 30
0.0
 10
28.12393364097249
 20
-7.324238550686301
 30
0.0
 10
28.2509198605588
 20
-7.385199515297795
 30
0.0
 10
28.32964029239676
 20
-7.46646931779484
 30
0.0
 10
28.39185871686037
 20
-7.529962427587994
 30
0.0
 10
28.42996147292723
 20
-7.617571205777897
 30
0.0
 10
28.44012450460872
 20
-7.706471894774769
 30
0.0
 10
28.44646348030158
 20
-7.747106796023292
 30
0.0
 10
28.44773816563112
 20
-7.78266018143107
 30
0.0
 10
28.44646348030158
 20
-7.809325220486902
 30
0.0
 10
28.44646348030158
 20
-7.809325220486902
 30
0.0
 10
28.35503064612304
 20
-7.809325220486902
 30
0.0
 10
28.35503064612304
 20
-7.809325220486902
 30
0.0
  0
HATCH
  5
20B
330
205
100
AcDbEntity
  8
Livello 3
 62
   250
420
  1907995
440
 33554687
100
AcDbHatch
 10
0.0
 20
0.0
 30
0.0
210
0.0
220
0.0
230
1.0
  2
SOLID
 70
     1
 71
     1
 91
        2
 92
        1
 93
        1
 72
     4
 94
        3
 73
     0
 74
     0
 95
       20
 96
       16
 40
0.0
 40
0.0
 40
0.0
 40
0.0
 40
1.0
 40
1.0
 40
1.0
 40
2.0
 40
2.0
 40
2.0
 40
3.0
 40
3.0
 40
3.0
 40
4.0
 40
4.0
 40
4.0
 40
5.0
 40
5.0
 40
5.0
 40
5.0
 10
27.88012423348136
 20
-7.768690319238382
 10
27.98299478467092
 20
-7.768690319238382
 10
28.05534178986116
 20
-7.706471894774769
 10
28.05534178986116
 20
-7.609957544755495
 10
28.05534178986116
 20
-7.535043943428736
 10
28.0185481700787
 20
-7.476632349476326
 10
27.9690076970008
 20
-7.447417939761407
 10
27.95884466531932
 20
-7.441078964068548
 10
27.94613226297875
 20
-7.43725490807992
 10
27.92835557027486
 20
-7.43725490807992
 10
27.78741671397328
 20
-7.43725490807992
 10
27.67948187242041
 20
-7.489327526339472
 10
27.67948187242041
 20
-7.606150714244295
 10
27.67948187242041
 20
-7.701390378934027
 10
27.76330104557653
 20
-7.768690319238382
 10
27.88012423348136
 20
-7.768690319238382
 97
        0
 97
        1
330
209
 92
        1
 93
        1
 72
     4
 94
        3
 73
     0
 74
     0
 95
       41
 96
       37
 40
0.0
 40
0.0
 40
0.0
 40
0.0
 40
1.0
 40
1.0
 40
1.0
 40
2.0
 40
2.0
 40
2.0
 40
3.0
 40
3.0
 40
3.0
 40
4.0
 40
4.0
 40
4.0
 40
5.0
 40
5.0
 40
5.0
 40
6.0
 40
6.0
 40
6.0
 40
7.0
 40
7.0
 40
7.0
 40
8.0
 40
8.0
 40
8.0
 40
9.0
 40
9.0
 40
9.0
 40
10.0
 40
10.0
 40
10.0
 40
11.0
 40
11.0
 40
11.0
 40
12.0
 40
12.0
 40
12.0
 40
12.0
 10
28.35503064612304
 20
-7.809325220486902
 10
28.35758001678213
 20
-7.785192326612729
 10
28.35503064612304
 20
-7.757269827704779
 10
28.35120659013442
 20
-7.719167071637915
 10
28.34231824378248
 20
-7.654399276515219
 10
28.31565320472664
 20
-7.593455537381148
 10
28.27121147296693
 20
-7.54646443496234
 10
28.22170545084388
 20
-7.49185967152113
 10
28.14932399469878
 20
-7.452499455602151
 10
28.05155218482738
 20
-7.43725490807992
 10
28.05155218482738
 20
-7.43725490807992
 10
28.05155218482738
 20
-7.441078964068548
 10
28.05155218482738
 20
-7.441078964068548
 10
28.10743163359815
 20
-7.486778155680387
 10
28.14043564834684
 20
-7.552820636132627
 10
28.14043564834684
 20
-7.635365123959211
 10
28.14043564834684
 20
-7.783934866760612
 10
28.02867675080533
 20
-7.879174531450344
 10
27.88773789450376
 20
-7.879174531450344
 10
27.73157171615738
 20
-7.879174531450344
 10
27.59438801393474
 20
-7.766158174056722
 10
27.59438801393474
 20
-7.59726236789235
 10
27.59438801393474
 20
-7.428366561727978
 10
27.73157171615738
 20
-7.324238550686301
 10
27.94234265794497
 20
-7.324238550686301
 10
28.12393364097249
 20
-7.324238550686301
 10
28.2509198605588
 20
-7.385199515297795
 10
28.32964029239676
 20
-7.46646931779484
 10
28.39185871686037
 20
-7.529962427587994
 10
28.42996147292723
 20
-7.617571205777897
 10
28.44012450460872
 20
-7.706471894774769
 10
28.44646348030158
 20
-7.747106796023292
 10
28.44773816563112
 20
-7.78266018143107
 10
28.44646348030158
 20
-7.809325220486902
 10
28.44646348030158
 20
-7.809325220486902
 10
28.35503064612304
 20
-7.809325220486902
 10
28.35503064612304
 20
-7.809325220486902
 97
        0
 97
        1
330
20A
 75
     2
 76
     1
 98
        1
 10
0.0
 20
0.0
450
        0
451
        0
460
0.0
461
0.0
452
        0
462
0.0
453
        0
470

  0
ENDBLK
  5
208
330
205
100
AcDbEntity
  8
0
100
AcDbBlockEnd
  0
ENDSEC
  0
SECTION
  2
ENTITIES
  0
ELLIPSE
  5
196
330
70
100
AcDbEntity
  8
Livello 3
100
AcDbEllipse
 10
24.88141709197798
 20
-7.499655150902859
 30
0.0
 11
-1.4574253860578
 21
1.4574253860578
 31
0.0
210
0.0
220
0.0
230
0.9999999999999998
 40
0.9999995248690447
 41
0.0
 42
6.283185307179585
  0
ELLIPSE
  5
197
330
70
100
AcDbEntity
  8
Livello 3
100
AcDbEllipse
 10
24.88141723488925
 20
-7.499655150902843
 30
0.0
 11
0.9813279964853006
 21
0.456727317108085
 31
0.0
210
0.0
220
0.0
230
1.0
 40
0.9999971718810691
 41
0.0
 42
6.283185307179585
  0
ELLIPSE
  5
199
330
70
100
AcDbEntity
  8
Livello 3
100
AcDbEllipse
 10
24.45364507812005
 20
-7.754059963339245
 30
0.0
 11
-0.1789157738656819
 21
0.2600603476343311
 31
0.0
210
0.0
220
0.0
230
0.9999999999999998
 40
0.999991864223841
 41
0.0
 42
6.283185307179585
  0
LINE
  5
1AF
330
70
100
AcDbEntity
  8
Livello 3
100
AcDbLine
 10
22.83969333046444
 20
-17.41546295860907
 30
0.0
 11
26.94252649772803
 21
-17.41546295860907
 31
0.0
  0
LINE
  5
1B0
330
70
100
AcDbEntity
  8
Livello 3
100
AcDbLine
 10
27.39907406722429
 20
-12.45406008716423
 30
0.0
 11
27.39907406722429
 21
-16.57638660002258
 31
0.0
  0
LINE
  5
1B1
330
70
100
AcDbEntity
  8
Livello 3
100
AcDbLine
 10
27.39907406722429
 20
-5.436697529504996
 30
0.0
 11
27.39907406722429
 21
-9.450524688995383
 31
0.0
  0
LINE
  5
28E
330
70
100
AcDbEntity
  8
Livello 3
100
AcDbLine
 10
22.89461326766558
 20
-14.4787522949914
 30
0.0
 11
22.83969333046444
 21
-16.57638660002258
 31
0.0
  0
LINE
  5
28F
330
70
100
AcDbEntity
  8
Livello 3
100
AcDbLine
 10
26.94252649772803
 20
-16.57638660002258
 30
0.0
 11
25.36974089896425
 21
-16.57638660002258
 31
0.0
  0
LINE
  5
290
330
70
100
AcDbEntity
  8
Livello 3
100
AcDbLine
 10
24.41239375672154
 20
-16.57638660002258
 30
0.0
 11
22.83969333046444
 21
-16.57638660002258
 31
0.0
  0
LINE
  5
291
330
70
100
AcDbEntity
  8
Livello 3
100
AcDbLine
 10
23.13634416372361
 20
-12.70148960099126
 30
0.0
 11
23.1226347062927
 21
-13.09470629533742
 31
0.0
  0
LINE
  5
292
330
70
100
AcDbEntity
  8
Livello 3
100
AcDbLine
 10
24.5492080310089
 20
-16.43957585005679
 30
0.0
 11
24.5492080310089
 21
-16.23448496121913
 31
0.0
  0
LINE
  5
293
330
70
100
AcDbEntity
  8
Livello 3
100
AcDbLine
 10
22.89461326766558
 20
-14.4787522949914
 30
0.0
 11
26.88760958246242
 21
-14.4787522949914
 31
0.0
  0
LINE
  5
294
330
70
100
AcDbEntity
  8
Livello 3
100
AcDbLine
 10
26.86476369415637
 20
-14.45652023944141
 30
0.0
 11
22.91737096152941
 21
-14.45652023944141
 31
0.0
  0
LINE
  5
295
330
70
100
AcDbEntity
  8
Livello 3
100
AcDbLine
 10
25.23301481911909
 20
-16.23448496121913
 30
0.0
 11
25.23301481911909
 21
-16.43957585005679
 31
0.0
  0
LINE
  5
296
330
70
100
AcDbEntity
  8
Livello 3
100
AcDbLine
 10
26.64579100529838
 20
-12.70148960099126
 30
0.0
 11
26.6594964216154
 21
-13.09470629533742
 31
0.0
  0
LINE
  5
297
330
70
100
AcDbEntity
  8
Livello 3
100
AcDbLine
 10
26.637705338838
 20
-12.86097337872918
 30
0.0
 11
26.6198688948486
 21
-12.86097337872918
 31
0.0
  0
LINE
  5
298
330
70
100
AcDbEntity
  8
Livello 3
100
AcDbLine
 10
26.48454687052318
 20
-12.86097337872918
 30
0.0
 11
26.43279084406581
 21
-12.86097337872918
 31
0.0
  0
LINE
  5
299
330
70
100
AcDbEntity
  8
Livello 3
100
AcDbLine
 10
26.17542182285406
 20
-12.86097337872918
 30
0.0
 11
26.09484444076173
 21
-12.86097337872918
 31
0.0
  0
LINE
  5
29A
330
70
100
AcDbEntity
  8
Livello 3
100
AcDbLine
 10
25.74055266728183
 20
-12.86097337872918
 30
0.0
 11
25.63906203098218
 21
-12.86097337872918
 31
0.0
  0
LINE
  5
29B
330
70
100
AcDbEntity
  8
Livello 3
100
AcDbLine
 10
25.22255848605252
 20
-12.86097337872918
 30
0.0
 11
25.10999471878573
 21
-12.86097337872918
 31
0.0
  0
LINE
  5
29C
330
70
100
AcDbEntity
  8
Livello 3
100
AcDbLine
 10
24.67213697231716
 20
-12.86097337872918
 30
0.0
 11
24.55957616963327
 21
-12.86097337872918
 31
0.0
  0
LINE
  5
29D
330
70
100
AcDbEntity
  8
Livello 3
100
AcDbLine
 10
24.1431608191458
 20
-12.86097337872918
 30
0.0
 11
24.04158198840396
 21
-12.86097337872918
 31
0.0
  0
LINE
  5
29E
330
70
100
AcDbEntity
  8
Livello 3
100
AcDbLine
 10
23.68729080299823
 20
-12.86097337872918
 30
0.0
 11
23.60671283283173
 21
-12.86097337872918
 31
0.0
  0
LINE
  5
29F
330
70
100
AcDbEntity
  8
Livello 3
100
AcDbLine
 10
23.3493402838423
 20
-12.86097337872918
 30
0.0
 11
23.29758425738492
 21
-12.86097337872918
 31
0.0
  0
LINE
  5
2A0
330
70
100
AcDbEntity
  8
Livello 3
100
AcDbLine
 10
23.16226576083718
 20
-12.86097337872918
 30
0.0
 11
23.14451751128999
 21
-12.86097337872918
 31
0.0
  0
LINE
  5
2A1
330
70
100
AcDbEntity
  8
Livello 3
100
AcDbLine
 10
26.88760958246242
 20
-14.4787522949914
 30
0.0
 11
26.94252649772803
 21
-16.57638660002258
 31
0.0
  0
LINE
  5
2A2
330
70
100
AcDbEntity
  8
Livello 3
100
AcDbLine
 10
23.13634416372361
 20
-12.70148960099126
 30
0.0
 11
26.64579100529838
 21
-12.70148960099126
 31
0.0
  0
SPLINE
  5
2A3
330
70
100
AcDbEntity
  8
Livello 3
100
AcDbSpline
210
0.0
220
0.0
230
1.0
 70
     8
 71
     3
 72
     8
 73
     4
 74
     0
 42
0.000000001
 43
0.0000000001
 40
0.0
 40
0.0
 40
0.0
 40
0.0
 40
1.0
 40
1.0
 40
1.0
 40
1.0
 10
25.23301481911909
 20
-16.23448496121913
 30
0.0
 10
25.23301481911909
 20
-16.04565360015524
 30
0.0
 10
25.07994454524645
 20
-15.89258332241573
 30
0.0
 10
24.89110966117515
 20
-15.89258332241573
 30
0.0
  0
SPLINE
  5
2A4
330
70
100
AcDbEntity
  8
Livello 3
100
AcDbSpline
210
0.0
220
0.0
230
1.0
 70
     8
 71
     3
 72
     8
 73
     4
 74
     0
 42
0.000000001
 43
0.0000000001
 40
0.0
 40
0.0
 40
0.0
 40
0.0
 40
1.0
 40
1.0
 40
1.0
 40
1.0
 10
24.89110966117515
 20
-15.89258332241573
 30
0.0
 10
24.70227830488152
 20
-15.89258332241573
 30
0.0
 10
24.5492080310089
 20
-16.04565360015524
 30
0.0
 10
24.5492080310089
 20
-16.23448496121913
 30
0.0
  0
SPLINE
  5
2A5
330
70
100
AcDbEntity
  8
Livello 3
100
AcDbSpline
210
0.0
220
0.0
230
1.0
 70
     8
 71
     3
 72
     8
 73
     4
 74
     0
 42
0.000000001
 43
0.0000000001
 40
0.0
 40
0.0
 40
0.0
 40
0.0
 40
1.0
 40
1.0
 40
1.0
 40
1.0
 10
24.41239375672154
 20
-16.57638660002258
 30
0.0
 10
24.48796228257141
 20
-16.57638660002258
 30
0.0
 10
24.5492080310089
 20
-16.51514085003789
 30
0.0
 10
24.5492080310089
 20
-16.43957585005679
 30
0.0
  0
SPLINE
  5
2A6
330
70
100
AcDbEntity
  8
Livello 3
100
AcDbSpline
210
0.0
220
0.0
230
1.0
 70
     8
 71
     3
 72
     8
 73
     4
 74
     0
 42
0.000000001
 43
0.0000000001
 40
0.0
 40
0.0
 40
0.0
 40
0.0
 40
1.0
 40
1.0
 40
1.0
 40
1.0
 10
25.23301481911909
 20
-16.43957585005679
 30
0.0
 10
25.23301481911909
 20
-16.51514085003789
 30
0.0
 10
25.29417237311438
 20
-16.57638660002258
 30
0.0
 10
25.36974089896425
 20
-16.57638660002258
 30
0.0
  0
SPLINE
  5
2A7
330
70
100
AcDbEntity
  8
Livello 3
100
AcDbSpline
210
0.0
220
0.0
230
1.0
 70
     8
 71
     3
 72
     8
 73
     4
 74
     0
 42
0.000000001
 43
0.0000000001
 40
0.0
 40
0.0
 40
0.0
 40
0.0
 40
1.0
 40
1.0
 40
1.0
 40
1.0
 10
26.88760958246242
 20
-14.4787522949914
 30
0.0
 10
26.88725680469364
 20
-14.46636273943897
 30
0.0
 10
26.87715324939584
 20
-14.45652023944141
 30
0.0
 10
26.86476369415637
 20
-14.45652023944141
 30
0.0
  0
SPLINE
  5
2A8
330
70
100
AcDbEntity
  8
Livello 3
100
AcDbSpline
210
0.0
220
0.0
230
1.0
 70
     8
 71
     3
 72
     8
 73
     4
 74
     0
 42
0.000000001
 43
0.0000000001
 40
0.0
 40
0.0
 40
0.0
 40
0.0
 40
1.0
 40
1.0
 40
1.0
 40
1.0
 10
22.91737096152941
 20
-14.45652023944141
 30
0.0
 10
22.90498140628995
 20
-14.45652023944141
 30
0.0
 10
22.89487785099215
 20
-14.46636273943897
 30
0.0
 10
22.89461326766558
 20
-14.4787522949914
 30
0.0
  0
LINE
  5
2A9
330
70
100
AcDbEntity
  8
Livello 3
100
AcDbLine
 10
23.14451751128999
 20
-12.86097337872918
 30
0.0
 11
22.99540187620535
 21
-14.45652023944141
 31
0.0
  0
LINE
  5
2AA
330
70
100
AcDbEntity
  8
Livello 3
100
AcDbLine
 10
23.29758425738492
 20
-12.86097337872918
 30
0.0
 11
23.16314417748144
 21
-14.45652023944141
 31
0.0
  0
LINE
  5
2AB
330
70
100
AcDbEntity
  8
Livello 3
100
AcDbLine
 10
23.60671283283173
 20
-12.86097337872918
 30
0.0
 11
23.50003989110874
 21
-14.45652023944141
 31
0.0
  0
LINE
  5
2AC
330
70
100
AcDbEntity
  8
Livello 3
100
AcDbLine
 10
24.04158198840396
 20
-12.86097337872918
 30
0.0
 11
23.97304432348583
 21
-14.45652023944141
 31
0.0
  0
LINE
  5
2AD
330
70
100
AcDbEntity
  8
Livello 3
100
AcDbLine
 10
24.55957616963327
 20
-12.86097337872918
 30
0.0
 11
24.53594005912517
 21
-14.45652023944141
 31
0.0
  0
LINE
  5
2AE
330
70
100
AcDbEntity
  8
Livello 3
100
AcDbLine
 10
25.24619459656062
 20
-14.45652023944141
 30
0.0
 11
25.22255848605252
 21
-12.86097337872918
 31
0.0
  0
LINE
  5
2AF
330
70
100
AcDbEntity
  8
Livello 3
100
AcDbLine
 10
25.80909033219996
 20
-14.45652023944141
 30
0.0
 11
25.74055266728183
 21
-12.86097337872918
 31
0.0
  0
LINE
  5
2B0
330
70
100
AcDbEntity
  8
Livello 3
100
AcDbLine
 10
26.28209476457705
 20
-14.45652023944141
 30
0.0
 11
26.17542182285406
 21
-12.86097337872918
 31
0.0
  0
LINE
  5
2B1
330
70
100
AcDbEntity
  8
Livello 3
100
AcDbLine
 10
26.61899047820435
 20
-14.45652023944141
 30
0.0
 11
26.48454687052318
 21
-12.86097337872918
 31
0.0
  0
LINE
  5
2B2
330
70
100
AcDbEntity
  8
Livello 3
100
AcDbLine
 10
26.78673277948044
 20
-14.45652023944141
 30
0.0
 11
26.637705338838
 21
-12.86097337872918
 31
0.0
  0
LINE
  5
2B3
330
70
100
AcDbEntity
  8
Livello 3
100
AcDbLine
 10
26.09484444076173
 20
-12.86097337872918
 30
0.0
 11
26.20151679441054
 21
-14.45652023944141
 31
0.0
  0
LINE
  5
2B4
330
70
100
AcDbEntity
  8
Livello 3
100
AcDbLine
 10
26.43279084406581
 20
-12.86097337872918
 30
0.0
 11
26.56723445174697
 21
-14.45652023944141
 31
0.0
  0
LINE
  5
2B5
330
70
100
AcDbEntity
  8
Livello 3
100
AcDbLine
 10
26.6198688948486
 20
-12.86097337872918
 30
0.0
 11
26.76889694059321
 21
-14.45652023944141
 31
0.0
  0
LINE
  5
2B6
330
70
100
AcDbEntity
  8
Livello 3
100
AcDbLine
 10
26.67487400455641
 20
-14.45652023944141
 30
0.0
 11
26.6198688948486
 21
-12.86097337872918
 31
0.0
  0
LINE
  5
2B7
330
70
100
AcDbEntity
  8
Livello 3
100
AcDbLine
 10
23.01323832019475
 20
-14.45652023944141
 30
0.0
 11
23.16226576083718
 21
-12.86097337872918
 31
0.0
  0
LINE
  5
2B8
330
70
100
AcDbEntity
  8
Livello 3
100
AcDbLine
 10
26.48244138510931
 20
-14.45652023944141
 30
0.0
 11
26.43279084406581
 21
-12.86097337872918
 31
0.0
  0
LINE
  5
2B9
330
70
100
AcDbEntity
  8
Livello 3
100
AcDbLine
 10
23.21490020393881
 20
-14.45652023944141
 30
0.0
 11
23.3493402838423
 21
-12.86097337872918
 31
0.0
  0
LINE
  5
2BA
330
70
100
AcDbEntity
  8
Livello 3
100
AcDbLine
 10
26.13421032390545
 20
-14.45652023944141
 30
0.0
 11
26.09484444076173
 21
-12.86097337872918
 31
0.0
  0
LINE
  5
2BB
330
70
100
AcDbEntity
  8
Livello 3
100
AcDbLine
 10
25.66436678033661
 20
-14.45652023944141
 30
0.0
 11
25.63906203098218
 21
-12.86097337872918
 31
0.0
  0
LINE
  5
2BC
330
70
100
AcDbEntity
  8
Livello 3
100
AcDbLine
 10
25.118693655369
 20
-14.45652023944141
 30
0.0
 11
25.10999471878573
 21
-12.86097337872918
 31
0.0
  0
LINE
  5
2BD
330
70
100
AcDbEntity
  8
Livello 3
100
AcDbLine
 10
24.67213697231716
 20
-12.86097337872918
 30
0.0
 11
24.66344100031679
 21
-14.45652023944141
 31
0.0
  0
LINE
  5
2BE
330
70
100
AcDbEntity
  8
Livello 3
100
AcDbLine
 10
23.58061433349756
 20
-14.45652023944141
 30
0.0
 11
23.68729080299823
 21
-12.86097337872918
 31
0.0
  0
LINE
  5
2BF
330
70
100
AcDbEntity
  8
Livello 3
100
AcDbLine
 10
24.1431608191458
 20
-12.86097337872918
 30
0.0
 11
24.11785254201369
 21
-14.45652023944141
 31
0.0
  0
LINE
  5
2C0
330
70
100
AcDbEntity
  8
Livello 3
100
AcDbLine
 10
24.07462315422768
 20
-14.45652023944141
 30
0.0
 11
24.1431608191458
 21
-12.86097337872918
 31
0.0
  0
LINE
  5
2C1
330
70
100
AcDbEntity
  8
Livello 3
100
AcDbLine
 10
23.68729080299823
 20
-12.86097337872918
 30
0.0
 11
23.64792433178033
 21
-14.45652023944141
 31
0.0
  0
LINE
  5
2C2
330
70
100
AcDbEntity
  8
Livello 3
100
AcDbLine
 10
23.3493402838423
 20
-12.86097337872918
 30
0.0
 11
23.29969386844221
 21
-14.45652023944141
 31
0.0
  0
LINE
  5
2C3
330
70
100
AcDbEntity
  8
Livello 3
100
AcDbLine
 10
24.64850086180906
 20
-14.45652023944141
 30
0.0
 11
24.67213697231716
 21
-12.86097337872918
 31
0.0
  0
LINE
  5
2C4
330
70
100
AcDbEntity
  8
Livello 3
100
AcDbLine
 10
23.16226576083718
 20
-12.86097337872918
 30
0.0
 11
23.10726065112937
 21
-14.45652023944141
 31
0.0
  0
LINE
  5
2C5
330
70
100
AcDbEntity
  8
Livello 3
100
AcDbLine
 10
25.10999471878573
 20
-12.86097337872918
 30
0.0
 11
25.13363379387673
 21
-14.45652023944141
 31
0.0
  0
LINE
  5
2C6
330
70
100
AcDbEntity
  8
Livello 3
100
AcDbLine
 10
25.63906203098218
 20
-12.86097337872918
 30
0.0
 11
25.70751150145811
 21
-14.45652023944141
 31
0.0
  0
SPLINE
  5
2C7
330
70
100
AcDbEntity
  8
Livello 3
100
AcDbSpline
210
0.0
220
0.0
230
1.0
 70
     8
 71
     3
 72
     8
 73
     4
 74
     0
 42
0.000000001
 43
0.0000000001
 40
0.0
 40
0.0
 40
0.0
 40
0.0
 40
1.0
 40
1.0
 40
1.0
 40
1.0
 10
25.14410832988827
 20
-7.227313352359847
 30
0.0
 10
25.05341565703437
 20
-7.376199685655932
 30
0.0
 10
24.8592009119892
 20
-7.423380185644148
 30
0.0
 10
24.71031105467659
 20
-7.332688074555695
 30
0.0
  0
SPLINE
  5
2C8
330
70
100
AcDbEntity
  8
Livello 3
100
AcDbSpline
210
0.0
220
0.0
230
1.0
 70
     8
 71
     3
 72
     8
 73
     4
 74
     0
 42
0.000000001
 43
0.0000000001
 40
1.0
 40
1.0
 40
1.0
 40
1.0
 40
2.0
 40
2.0
 40
2.0
 40
2.0
 10
24.71031105467659
 20
-7.332688074555695
 30
0.0
 10
24.5614252744784
 20
-7.241995963467275
 30
0.0
 10
24.51424775412303
 20
-7.047781213515835
 30
0.0
 10
24.6049363351427
 20
-6.898891352441934
 30
0.0
  0
SPLINE
  5
2C9
330
70
100
AcDbEntity
  8
Livello 3
100
AcDbSpline
210
0.0
220
0.0
230
1.0
 70
     8
 71
     3
 72
     8
 73
     4
 74
     0
 42
0.000000001
 43
0.0000000001
 40
2.0
 40
2.0
 40
2.0
 40
2.0
 40
3.0
 40
3.0
 40
3.0
 40
3.0
 10
24.6049363351427
 20
-6.898891352441934
 30
0.0
 10
24.69562844394007
 20
-6.750005019145818
 30
0.0
 10
24.88984318898524
 20
-6.702824519157632
 30
0.0
 10
25.03873360769242
 20
-6.793516630246053
 30
0.0
  0
SPLINE
  5
2CA
330
70
100
AcDbEntity
  8
Livello 3
100
AcDbSpline
210
0.0
220
0.0
230
1.0
 70
     8
 71
     3
 72
     8
 73
     4
 74
     0
 42
0.000000001
 43
0.0000000001
 40
3.0
 40
3.0
 40
3.0
 40
3.0
 40
4.0
 40
4.0
 40
4.0
 40
4.0
 10
25.03873360769242
 20
-6.793516630246053
 30
0.0
 10
25.18761937583278
 20
-6.884208741334505
 30
0.0
 10
25.2347998746291
 20
-7.078423491285946
 30
0.0
 10
25.14410832988827
 20
-7.227313352359847
 30
0.0
  0
SPLINE
  5
2DB
330
70
100
AcDbEntity
  8
Livello 3
100
AcDbSpline
210
0.0
220
0.0
230
1.0
 70
     8
 71
     3
 72
     8
 73
     4
 74
     0
 42
0.000000001
 43
0.0000000001
 40
0.0
 40
0.0
 40
0.0
 40
0.0
 40
1.0
 40
1.0
 40
1.0
 40
1.0
 10
25.526843422734
 20
-7.904999463301504
 30
0.0
 10
25.43615131393664
 20
-8.05388932437544
 30
0.0
 10
25.24193656889147
 20
-8.101066296585837
 30
0.0
 10
25.09304671157886
 20
-8.010374185497417
 30
0.0
  0
SPLINE
  5
2DC
330
70
100
AcDbEntity
  8
Livello 3
100
AcDbSpline
210
0.0
220
0.0
230
1.0
 70
     8
 71
     3
 72
     8
 73
     4
 74
     0
 42
0.000000001
 43
0.0000000001
 40
1.0
 40
1.0
 40
1.0
 40
1.0
 40
2.0
 40
2.0
 40
2.0
 40
2.0
 10
25.09304671157886
 20
-8.010374185497417
 30
0.0
 10
24.94416038204394
 20
-7.91968560218675
 30
0.0
 10
24.8969834110253
 20
-7.725467324457525
 30
0.0
 10
24.98767199204497
 20
-7.576580991161409
 30
0.0
  0
SPLINE
  5
2DD
330
70
100
AcDbEntity
  8
Livello 3
100
AcDbSpline
210
0.0
220
0.0
230
1.0
 70
     8
 71
     3
 72
     8
 73
     4
 74
     0
 42
0.000000001
 43
0.0000000001
 40
2.0
 40
2.0
 40
2.0
 40
2.0
 40
3.0
 40
3.0
 40
3.0
 40
3.0
 10
24.98767199204497
 20
-7.576580991161409
 30
0.0
 10
25.07836410084233
 20
-7.427691130087509
 30
0.0
 10
25.2725788458875
 20
-7.380514157877075
 30
0.0
 10
25.42146870320012
 20
-7.471206268965526
 30
0.0
  0
SPLINE
  5
2DE
330
70
100
AcDbEntity
  8
Livello 3
100
AcDbSpline
210
0.0
220
0.0
230
1.0
 70
     8
 71
     3
 72
     8
 73
     4
 74
     0
 42
0.000000001
 43
0.0000000001
 40
3.0
 40
3.0
 40
3.0
 40
3.0
 40
4.0
 40
4.0
 40
4.0
 40
4.0
 10
25.42146870320012
 20
-7.471206268965526
 30
0.0
 10
25.57035503273504
 20
-7.561894852276163
 30
0.0
 10
25.61753610754776
 20
-7.756113130005387
 30
0.0
 10
25.526843422734
 20
-7.904999463301504
 30
0.0
  0
HATCH
  5
2F1
330
70
100
AcDbEntity
  8
Livello 3
440
 33554687
100
AcDbHatch
 10
0.0
 20
0.0
 30
0.0
210
0.0
220
0.0
230
1.0
  2
SOLID
 70
     1
 71
     0
 91
        2
 92
        1
 93
        1
 72
     4
 94
        3
 73
     0
 74
     0
 95
       20
 96
       16
 40
0.0
 40
0.0
 40
0.0
 40
0.0
 40
1.0
 40
1.0
 40
1.0
 40
2.0
 40
2.0
 40
2.0
 40
3.0
 40
3.0
 40
3.0
 40
4.0
 40
4.0
 40
4.0
 40
5.0
 40
5.0
 40
5.0
 40
5.0
 10
24.67129339660996
 20
-18.03345567040483
 10
24.67129339660996
 20
-18.13632622159438
 10
24.73351182107356
 20
-18.20870767773949
 10
24.83004339657027
 20
-18.20870767773949
 10
24.9049397724196
 20
-18.20870767773949
 10
24.96336859184943
 20
-18.17187960700216
 10
24.99258300156435
 20
-18.12233913392427
 10
24.99892197725721
 20
-18.11217610224279
 10
25.00274603324584
 20
-18.09949815085707
 10
25.00274603324584
 20
-18.08172145815318
 10
25.00274603324584
 20
-17.94074815089675
 10
24.95065618950886
 20
-17.83281330934388
 10
24.83383300160404
 20
-17.83281330934388
 10
24.73861056239174
 20
-17.83281330934388
 10
24.67129339660996
 20
-17.9166324825
 10
24.67129339660996
 20
-18.03345567040483
 97
        0
 97
        0
 92
        1
 93
        1
 72
     4
 94
        3
 73
     0
 74
     0
 95
       41
 96
       37
 40
0.0
 40
0.0
 40
0.0
 40
0.0
 40
1.0
 40
1.0
 40
1.0
 40
2.0
 40
2.0
 40
2.0
 40
3.0
 40
3.0
 40
3.0
 40
4.0
 40
4.0
 40
4.0
 40
5.0
 40
5.0
 40
5.0
 40
6.0
 40
6.0
 40
6.0
 40
7.0
 40
7.0
 40
7.0
 40
8.0
 40
8.0
 40
8.0
 40
9.0
 40
9.0
 40
9.0
 40
10.0
 40
10.0
 40
10.0
 40
11.0
 40
11.0
 40
11.0
 40
12.0
 40
12.0
 40
12.0
 40
12.0
 10
24.63067572083887
 20
-18.50836208304652
 10
24.65479138923561
 20
-18.5109114537056
 10
24.68273111362098
 20
-18.50836208304652
 10
24.72083386968785
 20
-18.50457247801274
 10
24.78560166481055
 20
-18.4956841316608
 10
24.84654540394461
 20
-18.46901909260497
 10
24.89353650636342
 20
-18.42457736084524
 10
24.94814126980463
 20
-18.37503688776735
 10
24.98748426024619
 20
-18.30265543162225
 10
25.00274603324584
 20
-18.20488362175086
 10
25.00274603324584
 20
-18.20488362175086
 10
24.99892197725721
 20
-18.20488362175086
 10
24.99892197725721
 20
-18.20488362175086
 10
24.95320556016795
 20
-18.26076307052161
 10
24.88716307971571
 20
-18.2937670852703
 10
24.80461859188912
 20
-18.2937670852703
 10
24.65606607456515
 20
-18.2937670852703
 10
24.56080918439799
 20
-18.18204263868365
 10
24.56080918439799
 20
-18.04106933142723
 10
24.56080918439799
 20
-17.88490315308085
 10
24.67384276726904
 20
-17.74775390181306
 10
24.84272134795598
 20
-17.74775390181306
 10
25.01163437959779
 20
-17.74775390181306
 10
25.11574516516204
 20
-17.88490315308085
 10
25.11574516516204
 20
-18.09567409486844
 10
25.11574516516204
 20
-18.27726507789596
 10
25.05480142602797
 20
-18.40425129748227
 10
24.97353162353092
 20
-18.48297172932023
 10
24.91003851373777
 20
-18.54519015378384
 10
24.82242973554786
 20
-18.5832929098507
 10
24.73351182107356
 20
-18.59345594153219
 10
24.69289414530247
 20
-18.59979491722505
 10
24.65734075989469
 20
-18.60106960255459
 10
24.63067572083887
 20
-18.59979491722505
 10
24.63067572083887
 20
-18.59979491722505
 10
24.63067572083887
 20
-18.50836208304652
 10
24.63067572083887
 20
-18.50836208304652
 97
        0
 97
        0
 75
     2
 76
     1
 98
        1
 10
0.0
 20
0.0
450
        0
451
        0
460
0.0
461
0.0
452
        0
462
0.0
453
        0
470

  0
HATCH
  5
2F4
330
70
100
AcDbEntity
  8
Livello 3
440
 33554687
100
AcDbHatch
 10
0.0
 20
0.0
 30
0.0
210
0.0
220
0.0
230
1.0
  2
SOLID
 70
     1
 71
     0
 91
        2
 92
        1
 93
        1
 72
     4
 94
        3
 73
     0
 74
     0
 95
       20
 96
       16
 40
0.0
 40
0.0
 40
0.0
 40
0.0
 40
1.0
 40
1.0
 40
1.0
 40
2.0
 40
2.0
 40
2.0
 40
3.0
 40
3.0
 40
3.0
 40
4.0
 40
4.0
 40
4.0
 40
5.0
 40
5.0
 40
5.0
 40
5.0
 10
27.88012423348136
 20
-14.52652072119476
 10
27.98299478467092
 20
-14.52652072119476
 10
28.05534178986116
 20
-14.46430229673114
 10
28.05534178986116
 20
-14.36777072123444
 10
28.05534178986116
 20
-14.29287434538511
 10
28.0185481700787
 20
-14.23444552595527
 10
27.9690076970008
 20
-14.20523111624035
 10
27.95884466531932
 20
-14.1988921405475
 10
27.94613226297875
 20
-14.19510253551372
 10
27.92835557027486
 20
-14.19510253551372
 10
27.78741671397328
 20
-14.19510253551372
 10
27.67948187242041
 20
-14.24715792829585
 10
27.67948187242041
 20
-14.36398111620067
 10
27.67948187242041
 20
-14.45920355541298
 10
27.76330104557653
 20
-14.52652072119476
 10
27.88012423348136
 20
-14.52652072119476
 97
        0
 97
        0
 92
        1
 93
        1
 72
     4
 94
        3
 73
     0
 74
     0
 95
       41
 96
       37
 40
0.0
 40
0.0
 40
0.0
 40
0.0
 40
1.0
 40
1.0
 40
1.0
 40
2.0
 40
2.0
 40
2.0
 40
3.0
 40
3.0
 40
3.0
 40
4.0
 40
4.0
 40
4.0
 40
5.0
 40
5.0
 40
5.0
 40
6.0
 40
6.0
 40
6.0
 40
7.0
 40
7.0
 40
7.0
 40
8.0
 40
8.0
 40
8.0
 40
9.0
 40
9.0
 40
9.0
 40
10.0
 40
10.0
 40
10.0
 40
11.0
 40
11.0
 40
11.0
 40
12.0
 40
12.0
 40
12.0
 40
12.0
 10
28.35503064612304
 20
-14.5671728479207
 10
28.35758001678213
 20
-14.5430227285691
 10
28.35503064612304
 20
-14.51508300418373
 10
28.35120659013442
 20
-14.47698024811686
 10
28.34231824378248
 20
-14.41221245299417
 10
28.31565320472664
 20
-14.35130316481495
 10
28.27121147296693
 20
-14.30431206239614
 10
28.22170545084388
 20
-14.24967284800008
 10
28.14932399469878
 20
-14.21032985755853
 10
28.05155218482738
 20
-14.19510253551372
 10
28.05155218482738
 20
-14.19510253551372
 10
28.05155218482738
 20
-14.1988921405475
 10
28.05155218482738
 20
-14.1988921405475
 10
28.10743163359815
 20
-14.24460855763676
 10
28.14043564834684
 20
-14.310651038089
 10
28.14043564834684
 20
-14.39319552591559
 10
28.14043564834684
 20
-14.54174804323956
 10
28.02867675080533
 20
-14.63700493340672
 10
27.88773789450376
 20
-14.63700493340672
 10
27.73157171615738
 20
-14.63700493340672
 10
27.59438801393474
 20
-14.52397135053567
 10
27.59438801393474
 20
-14.35509276984872
 10
27.59438801393474
 20
-14.18621418916178
 10
27.73157171615738
 20
-14.08206895264267
 10
27.94234265794497
 20
-14.08206895264267
 10
28.12393364097249
 20
-14.08206895264267
 10
28.2509198605588
 20
-14.14301269177675
 10
28.32964029239676
 20
-14.22431694522864
 10
28.39185871686037
 20
-14.28777560406694
 10
28.42996147292723
 20
-14.3754188332117
 10
28.44012450460872
 20
-14.46430229673114
 10
28.44646348030158
 20
-14.50495442345709
 10
28.44773816563112
 20
-14.54050780886487
 10
28.44646348030158
 20
-14.5671728479207
 10
28.44646348030158
 20
-14.5671728479207
 10
28.35503064612304
 20
-14.5671728479207
 10
28.35503064612304
 20
-14.5671728479207
 97
        0
 97
        0
 75
     2
 76
     1
 98
        1
 10
0.0
 20
0.0
450
        0
451
        0
460
0.0
461
0.0
452
        0
462
0.0
453
        0
470

  0
HATCH
  5
2F7
330
70
100
AcDbEntity
  8
Livello 3
440
 33554687
100
AcDbHatch
 10
0.0
 20
0.0
 30
0.0
210
0.0
220
0.0
230
1.0
  2
SOLID
 70
     1
 71
     0
 91
        2
 92
        1
 93
        1
 72
     4
 94
        3
 73
     0
 74
     0
 95
       20
 96
       16
 40
0.0
 40
0.0
 40
0.0
 40
0.0
 40
1.0
 40
1.0
 40
1.0
 40
2.0
 40
2.0
 40
2.0
 40
3.0
 40
3.0
 40
3.0
 40
4.0
 40
4.0
 40
4.0
 40
5.0
 40
5.0
 40
5.0
 40
5.0
 10
27.88012423348136
 20
-7.768690319238382
 10
27.98299478467092
 20
-7.768690319238382
 10
28.05534178986116
 20
-7.706471894774769
 10
28.05534178986116
 20
-7.609957544755495
 10
28.05534178986116
 20
-7.535043943428736
 10
28.0185481700787
 20
-7.476632349476326
 10
27.9690076970008
 20
-7.447417939761407
 10
27.95884466531932
 20
-7.441078964068548
 10
27.94613226297875
 20
-7.43725490807992
 10
27.92835557027486
 20
-7.43725490807992
 10
27.78741671397328
 20
-7.43725490807992
 10
27.67948187242041
 20
-7.489327526339472
 10
27.67948187242041
 20
-7.606150714244295
 10
27.67948187242041
 20
-7.701390378934027
 10
27.76330104557653
 20
-7.768690319238382
 10
27.88012423348136
 20
-7.768690319238382
 97
        0
 97
        0
 92
        1
 93
        1
 72
     4
 94
        3
 73
     0
 74
     0
 95
       41
 96
       37
 40
0.0
 40
0.0
 40
0.0
 40
0.0
 40
1.0
 40
1.0
 40
1.0
 40
2.0
 40
2.0
 40
2.0
 40
3.0
 40
3.0
 40
3.0
 40
4.0
 40
4.0
 40
4.0
 40
5.0
 40
5.0
 40
5.0
 40
6.0
 40
6.0
 40
6.0
 40
7.0
 40
7.0
 40
7.0
 40
8.0
 40
8.0
 40
8.0
 40
9.0
 40
9.0
 40
9.0
 40
10.0
 40
10.0
 40
10.0
 40
11.0
 40
11.0
 40
11.0
 40
12.0
 40
12.0
 40
12.0
 40
12.0
 10
28.35503064612304
 20
-7.809325220486902
 10
28.35758001678213
 20
-7.785192326612729
 10
28.35503064612304
 20
-7.757269827704779
 10
28.35120659013442
 20
-7.719167071637915
 10
28.34231824378248
 20
-7.654399276515219
 10
28.31565320472664
 20
-7.593455537381148
 10
28.27121147296693
 20
-7.54646443496234
 10
28.22170545084388
 20
-7.49185967152113
 10
28.14932399469878
 20
-7.452499455602151
 10
28.05155218482738
 20
-7.43725490807992
 10
28.05155218482738
 20
-7.43725490807992
 10
28.05155218482738
 20
-7.441078964068548
 10
28.05155218482738
 20
-7.441078964068548
 10
28.10743163359815
 20
-7.486778155680387
 10
28.14043564834684
 20
-7.552820636132627
 10
28.14043564834684
 20
-7.635365123959211
 10
28.14043564834684
 20
-7.783934866760612
 10
28.02867675080533
 20
-7.879174531450344
 10
27.88773789450376
 20
-7.879174531450344
 10
27.73157171615738
 20
-7.879174531450344
 10
27.59438801393474
 20
-7.766158174056722
 10
27.59438801393474
 20
-7.59726236789235
 10
27.59438801393474
 20
-7.428366561727978
 10
27.73157171615738
 20
-7.324238550686301
 10
27.94234265794497
 20
-7.324238550686301
 10
28.12393364097249
 20
-7.324238550686301
 10
28.2509198605588
 20
-7.385199515297795
 10
28.32964029239676
 20
-7.46646931779484
 10
28.39185871686037
 20
-7.529962427587994
 10
28.42996147292723
 20
-7.617571205777897
 10
28.44012450460872
 20
-7.706471894774769
 10
28.44646348030158
 20
-7.747106796023292
 10
28.44773816563112
 20
-7.78266018143107
 10
28.44646348030158
 20
-7.809325220486902
 10
28.44646348030158
 20
-7.809325220486902
 10
28.35503064612304
 20
-7.809325220486902
 10
28.35503064612304
 20
-7.809325220486902
 97
        0
 97
        0
 75
     2
 76
     1
 98
        1
 10
0.0
 20
0.0
450
        0
451
        0
460
0.0
461
0.0
452
        0
462
0.0
453
        0
470

  0
LINE
  5
2F8
330
70
100
AcDbEntity
  8
Livello 3
100
AcDbLine
 10
22.95954554378679
 20
-12.53049115658956
 30
0.0
 11
22.80006177007778
 21
-12.6216136565668
 31
0.0
  0
LINE
  5
2F9
330
70
100
AcDbEntity
  8
Livello 3
100
AcDbLine
 10
22.80006177007778
 20
-12.6899784621053
 30
0.0
 11
22.80006177007778
 21
-12.6216136565668
 31
0.0
  0
LINE
  5
2FA
330
70
100
AcDbEntity
  8
Livello 3
100
AcDbLine
 10
22.80006177007778
 20
-12.6899784621053
 30
0.0
 11
22.80006177007778
 21
-12.6216136565668
 31
0.0
  0
LINE
  5
2FB
330
70
100
AcDbEntity
  8
Livello 3
100
AcDbLine
 10
26.90289544318355
 20
-12.6899784621053
 30
0.0
 11
26.90289544318355
 21
-12.6216136565668
 31
0.0
  0
LINE
  5
2FC
330
70
100
AcDbEntity
  8
Livello 3
100
AcDbLine
 10
26.90289544318355
 20
-12.6899784621053
 30
0.0
 11
26.90289544318355
 21
-12.6216136565668
 31
0.0
  0
LINE
  5
2FD
330
70
100
AcDbEntity
  8
Livello 3
100
AcDbLine
 10
22.80006177007778
 20
-12.6899784621053
 30
0.0
 11
26.90289544318355
 21
-12.6899784621053
 31
0.0
  0
LINE
  5
2FE
330
70
100
AcDbEntity
  8
Livello 3
100
AcDbLine
 10
22.80006177007778
 20
-12.6216136565668
 30
0.0
 11
26.90289544318355
 21
-12.6216136565668
 31
0.0
  0
LINE
  5
2FF
330
70
100
AcDbEntity
  8
Livello 3
100
AcDbLine
 10
22.95954554378679
 20
-12.53049115658956
 30
0.0
 11
26.74332347503236
 21
-12.53049115658956
 31
0.0
  0
LINE
  5
300
330
70
100
AcDbEntity
  8
Livello 3
100
AcDbLine
 10
26.74332347503236
 20
-12.53049115658956
 30
0.0
 11
26.90289544318355
 21
-12.6216136565668
 31
0.0
  0
LINE
  5
301
330
70
100
AcDbEntity
  8
Livello 3
100
AcDbLine
 10
26.46978312089983
 20
-12.82679273984884
 30
0.0
 11
26.46951853757325
 21
-12.82679273984884
 31
0.0
  0
SPLINE
  5
322
330
70
100
AcDbEntity
  8
Livello 3
100
AcDbSpline
210
0.0
220
0.0
230
1.0
 70
     8
 71
     3
 72
    11
 73
     7
 74
     0
 42
0.000000001
 43
0.0000000001
 40
0.0
 40
0.0
 40
0.0
 40
0.0
 40
1.0
 40
1.0
 40
1.0
 40
2.0
 40
2.0
 40
2.0
 40
2.0
 10
24.67129339660996
 20
-18.03345567040483
 30
0.0
 10
24.67129339660996
 20
-18.13632622159438
 30
0.0
 10
24.73351182107356
 20
-18.20870767773949
 30
0.0
 10
24.83004339657027
 20
-18.20870767773949
 30
0.0
 10
24.9049397724196
 20
-18.20870767773949
 30
0.0
 10
24.96336859184943
 20
-18.17187960700216
 30
0.0
 10
24.99258300156435
 20
-18.12233913392427
 30
0.0
  0
SPLINE
  5
323
330
70
100
AcDbEntity
  8
Livello 3
100
AcDbSpline
210
0.0
220
0.0
230
1.0
 70
     8
 71
     3
 72
    14
 73
    10
 74
     0
 42
0.000000001
 43
0.0000000001
 40
2.0
 40
2.0
 40
2.0
 40
2.0
 40
3.0
 40
3.0
 40
3.0
 40
4.0
 40
4.0
 40
4.0
 40
5.0
 40
5.0
 40
5.0
 40
5.0
 10
24.99258300156435
 20
-18.12233913392427
 30
0.0
 10
24.99892197725721
 20
-18.11217610224279
 30
0.0
 10
25.00274603324584
 20
-18.09949815085707
 30
0.0
 10
25.00274603324584
 20
-18.08172145815318
 30
0.0
 10
25.00274603324584
 20
-17.94074815089675
 30
0.0
 10
24.95065618950886
 20
-17.83281330934388
 30
0.0
 10
24.83383300160404
 20
-17.83281330934388
 30
0.0
 10
24.73861056239174
 20
-17.83281330934388
 30
0.0
 10
24.67129339660996
 20
-17.9166324825
 30
0.0
 10
24.67129339660996
 20
-18.03345567040483
 30
0.0
  0
SPLINE
  5
324
330
70
100
AcDbEntity
  8
Livello 3
100
AcDbSpline
210
0.0
220
0.0
230
1.0
 70
     8
 71
     3
 72
     8
 73
     4
 74
     0
 42
0.000000001
 43
0.0000000001
 40
0.0
 40
0.0
 40
0.0
 40
0.0
 40
1.0
 40
1.0
 40
1.0
 40
1.0
 10
24.63067572083887
 20
-18.50836208304652
 30
0.0
 10
24.65479138923561
 20
-18.5109114537056
 30
0.0
 10
24.68273111362098
 20
-18.50836208304652
 30
0.0
 10
24.72083386968785
 20
-18.50457247801274
 30
0.0
  0
SPLINE
  5
325
330
70
100
AcDbEntity
  8
Livello 3
100
AcDbSpline
210
0.0
220
0.0
230
1.0
 70
     8
 71
     3
 72
     8
 73
     4
 74
     0
 42
0.000000001
 43
0.0000000001
 40
1.0
 40
1.0
 40
1.0
 40
1.0
 40
2.0
 40
2.0
 40
2.0
 40
2.0
 10
24.72083386968785
 20
-18.50457247801274
 30
0.0
 10
24.78560166481055
 20
-18.4956841316608
 30
0.0
 10
24.84654540394461
 20
-18.46901909260497
 30
0.0
 10
24.89353650636342
 20
-18.42457736084524
 30
0.0
  0
SPLINE
  5
326
330
70
100
AcDbEntity
  8
Livello 3
100
AcDbSpline
210
0.0
220
0.0
230
1.0
 70
     8
 71
     3
 72
     8
 73
     4
 74
     0
 42
0.000000001
 43
0.0000000001
 40
2.0
 40
2.0
 40
2.0
 40
2.0
 40
3.0
 40
3.0
 40
3.0
 40
3.0
 10
24.89353650636342
 20
-18.42457736084524
 30
0.0
 10
24.94814126980463
 20
-18.37503688776735
 30
0.0
 10
24.98748426024619
 20
-18.30265543162225
 30
0.0
 10
25.00274603324584
 20
-18.20488362175086
 30
0.0
  0
SPLINE
  5
327
330
70
100
AcDbEntity
  8
Livello 3
100
AcDbSpline
210
0.0
220
0.0
230
1.0
 70
    24
 71
     3
 72
     8
 73
     4
 74
     0
 42
0.000000001
 43
0.0000000001
 40
3.0
 40
3.0
 40
3.0
 40
3.0
 40
4.0
 40
4.0
 40
4.0
 40
4.0
 10
25.00274603324584
 20
-18.20488362175086
 30
0.0
 10
25.00274603324584
 20
-18.20488362175086
 30
0.0
 10
24.99892197725721
 20
-18.20488362175086
 30
0.0
 10
24.99892197725721
 20
-18.20488362175086
 30
0.0
  0
SPLINE
  5
328
330
70
100
AcDbEntity
  8
Livello 3
100
AcDbSpline
210
0.0
220
0.0
230
1.0
 70
     8
 71
     3
 72
    20
 73
    16
 74
     0
 42
0.000000001
 43
0.0000000001
 40
4.0
 40
4.0
 40
4.0
 40
4.0
 40
5.0
 40
5.0
 40
5.0
 40
6.0
 40
6.0
 40
6.0
 40
7.0
 40
7.0
 40
7.0
 40
8.0
 40
8.0
 40
8.0
 40
9.0
 40
9.0
 40
9.0
 40
9.0
 10
24.99892197725721
 20
-18.20488362175086
 30
0.0
 10
24.95320556016795
 20
-18.26076307052161
 30
0.0
 10
24.88716307971571
 20
-18.2937670852703
 30
0.0
 10
24.80461859188912
 20
-18.2937670852703
 30
0.0
 10
24.65606607456515
 20
-18.2937670852703
 30
0.0
 10
24.56080918439799
 20
-18.18204263868365
 30
0.0
 10
24.56080918439799
 20
-18.04106933142723
 30
0.0
 10
24.56080918439799
 20
-17.88490315308085
 30
0.0
 10
24.67384276726904
 20
-17.74775390181306
 30
0.0
 10
24.84272134795598
 20
-17.74775390181306
 30
0.0
 10
25.01163437959779
 20
-17.74775390181306
 30
0.0
 10
25.11574516516204
 20
-17.88490315308085
 30
0.0
 10
25.11574516516204
 20
-18.09567409486844
 30
0.0
 10
25.11574516516204
 20
-18.27726507789596
 30
0.0
 10
25.05480142602797
 20
-18.40425129748227
 30
0.0
 10
24.97353162353092
 20
-18.48297172932023
 30
0.0
  0
SPLINE
  5
329
330
70
100
AcDbEntity
  8
Livello 3
100
AcDbSpline
210
0.0
220
0.0
230
1.0
 70
     8
 71
     3
 72
     8
 73
     4
 74
     0
 42
0.000000001
 43
0.0000000001
 40
9.0
 40
9.0
 40
9.0
 40
9.0
 40
10.0
 40
10.0
 40
10.0
 40
10.0
 10
24.97353162353092
 20
-18.48297172932023
 30
0.0
 10
24.91003851373777
 20
-18.54519015378384
 30
0.0
 10
24.82242973554786
 20
-18.5832929098507
 30
0.0
 10
24.73351182107356
 20
-18.59345594153219
 30
0.0
  0
SPLINE
  5
32A
330
70
100
AcDbEntity
  8
Livello 3
100
AcDbSpline
210
0.0
220
0.0
230
1.0
 70
     8
 71
     3
 72
     8
 73
     4
 74
     0
 42
0.000000001
 43
0.0000000001
 40
10.0
 40
10.0
 40
10.0
 40
10.0
 40
11.0
 40
11.0
 40
11.0
 40
11.0
 10
24.73351182107356
 20
-18.59345594153219
 30
0.0
 10
24.69289414530247
 20
-18.59979491722505
 30
0.0
 10
24.65734075989469
 20
-18.60106960255459
 30
0.0
 10
24.63067572083887
 20
-18.59979491722505
 30
0.0
  0
SPLINE
  5
32B
330
70
100
AcDbEntity
  8
Livello 3
100
AcDbSpline
210
0.0
220
0.0
230
1.0
 70
    24
 71
     3
 72
     8
 73
     4
 74
     0
 42
0.000000001
 43
0.0000000001
 40
11.0
 40
11.0
 40
11.0
 40
11.0
 40
12.0
 40
12.0
 40
12.0
 40
12.0
 10
24.63067572083887
 20
-18.59979491722505
 30
0.0
 10
24.63067572083887
 20
-18.59979491722505
 30
0.0
 10
24.63067572083887
 20
-18.50836208304652
 30
0.0
 10
24.63067572083887
 20
-18.50836208304652
 30
0.0
  0
SPLINE
  5
32C
330
70
100
AcDbEntity
  8
Livello 3
100
AcDbSpline
210
0.0
220
0.0
230
1.0
 70
     8
 71
     3
 72
    11
 73
     7
 74
     0
 42
0.000000001
 43
0.0000000001
 40
0.0
 40
0.0
 40
0.0
 40
0.0
 40
1.0
 40
1.0
 40
1.0
 40
2.0
 40
2.0
 40
2.0
 40
2.0
 10
27.88012423348136
 20
-14.52652072119476
 30
0.0
 10
27.98299478467092
 20
-14.52652072119476
 30
0.0
 10
28.05534178986116
 20
-14.46430229673114
 30
0.0
 10
28.05534178986116
 20
-14.36777072123444
 30
0.0
 10
28.05534178986116
 20
-14.29287434538511
 30
0.0
 10
28.0185481700787
 20
-14.23444552595527
 30
0.0
 10
27.9690076970008
 20
-14.20523111624035
 30
0.0
  0
SPLINE
  5
32D
330
70
100
AcDbEntity
  8
Livello 3
100
AcDbSpline
210
0.0
220
0.0
230
1.0
 70
     8
 71
     3
 72
    14
 73
    10
 74
     0
 42
0.000000001
 43
0.0000000001
 40
2.0
 40
2.0
 40
2.0
 40
2.0
 40
3.0
 40
3.0
 40
3.0
 40
4.0
 40
4.0
 40
4.0
 40
5.0
 40
5.0
 40
5.0
 40
5.0
 10
27.9690076970008
 20
-14.20523111624035
 30
0.0
 10
27.95884466531932
 20
-14.1988921405475
 30
0.0
 10
27.94613226297875
 20
-14.19510253551372
 30
0.0
 10
27.92835557027486
 20
-14.19510253551372
 30
0.0
 10
27.78741671397328
 20
-14.19510253551372
 30
0.0
 10
27.67948187242041
 20
-14.24715792829585
 30
0.0
 10
27.67948187242041
 20
-14.36398111620067
 30
0.0
 10
27.67948187242041
 20
-14.45920355541298
 30
0.0
 10
27.76330104557653
 20
-14.52652072119476
 30
0.0
 10
27.88012423348136
 20
-14.52652072119476
 30
0.0
  0
SPLINE
  5
32E
330
70
100
AcDbEntity
  8
Livello 3
100
AcDbSpline
210
0.0
220
0.0
230
1.0
 70
     8
 71
     3
 72
     8
 73
     4
 74
     0
 42
0.000000001
 43
0.0000000001
 40
0.0
 40
0.0
 40
0.0
 40
0.0
 40
1.0
 40
1.0
 40
1.0
 40
1.0
 10
28.35503064612304
 20
-14.5671728479207
 30
0.0
 10
28.35758001678213
 20
-14.5430227285691
 30
0.0
 10
28.35503064612304
 20
-14.51508300418373
 30
0.0
 10
28.35120659013442
 20
-14.47698024811686
 30
0.0
  0
SPLINE
  5
32F
330
70
100
AcDbEntity
  8
Livello 3
100
AcDbSpline
210
0.0
220
0.0
230
1.0
 70
     8
 71
     3
 72
     8
 73
     4
 74
     0
 42
0.000000001
 43
0.0000000001
 40
1.0
 40
1.0
 40
1.0
 40
1.0
 40
2.0
 40
2.0
 40
2.0
 40
2.0
 10
28.35120659013442
 20
-14.47698024811686
 30
0.0
 10
28.34231824378248
 20
-14.41221245299417
 30
0.0
 10
28.31565320472664
 20
-14.35130316481495
 30
0.0
 10
28.27121147296693
 20
-14.30431206239614
 30
0.0
  0
SPLINE
  5
330
330
70
100
AcDbEntity
  8
Livello 3
100
AcDbSpline
210
0.0
220
0.0
230
1.0
 70
     8
 71
     3
 72
     8
 73
     4
 74
     0
 42
0.000000001
 43
0.0000000001
 40
2.0
 40
2.0
 40
2.0
 40
2.0
 40
3.0
 40
3.0
 40
3.0
 40
3.0
 10
28.27121147296693
 20
-14.30431206239614
 30
0.0
 10
28.22170545084388
 20
-14.24967284800008
 30
0.0
 10
28.14932399469878
 20
-14.21032985755853
 30
0.0
 10
28.05155218482738
 20
-14.19510253551372
 30
0.0
  0
SPLINE
  5
331
330
70
100
AcDbEntity
  8
Livello 3
100
AcDbSpline
210
0.0
220
0.0
230
1.0
 70
    24
 71
     3
 72
     8
 73
     4
 74
     0
 42
0.000000001
 43
0.0000000001
 40
3.0
 40
3.0
 40
3.0
 40
3.0
 40
4.0
 40
4.0
 40
4.0
 40
4.0
 10
28.05155218482738
 20
-14.19510253551372
 30
0.0
 10
28.05155218482738
 20
-14.19510253551372
 30
0.0
 10
28.05155218482738
 20
-14.1988921405475
 30
0.0
 10
28.05155218482738
 20
-14.1988921405475
 30
0.0
  0
SPLINE
  5
332
330
70
100
AcDbEntity
  8
Livello 3
100
AcDbSpline
210
0.0
220
0.0
230
1.0
 70
     8
 71
     3
 72
    20
 73
    16
 74
     0
 42
0.000000001
 43
0.0000000001
 40
4.0
 40
4.0
 40
4.0
 40
4.0
 40
5.0
 40
5.0
 40
5.0
 40
6.0
 40
6.0
 40
6.0
 40
7.0
 40
7.0
 40
7.0
 40
8.0
 40
8.0
 40
8.0
 40
9.0
 40
9.0
 40
9.0
 40
9.0
 10
28.05155218482738
 20
-14.1988921405475
 30
0.0
 10
28.10743163359815
 20
-14.24460855763676
 30
0.0
 10
28.14043564834684
 20
-14.310651038089
 30
0.0
 10
28.14043564834684
 20
-14.39319552591559
 30
0.0
 10
28.14043564834684
 20
-14.54174804323956
 30
0.0
 10
28.02867675080533
 20
-14.63700493340672
 30
0.0
 10
27.88773789450376
 20
-14.63700493340672
 30
0.0
 10
27.73157171615738
 20
-14.63700493340672
 30
0.0
 10
27.59438801393474
 20
-14.52397135053567
 30
0.0
 10
27.59438801393474
 20
-14.35509276984872
 30
0.0
 10
27.59438801393474
 20
-14.18621418916178
 30
0.0
 10
27.73157171615738
 20
-14.08206895264267
 30
0.0
 10
27.94234265794497
 20
-14.08206895264267
 30
0.0
 10
28.12393364097249
 20
-14.08206895264267
 30
0.0
 10
28.2509198605588
 20
-14.14301269177675
 30
0.0
 10
28.32964029239676
 20
-14.22431694522864
 30
0.0
  0
SPLINE
  5
333
330
70
100
AcDbEntity
  8
Livello 3
100
AcDbSpline
210
0.0
220
0.0
230
1.0
 70
     8
 71
     3
 72
     8
 73
     4
 74
     0
 42
0.000000001
 43
0.0000000001
 40
9.0
 40
9.0
 40
9.0
 40
9.0
 40
10.0
 40
10.0
 40
10.0
 40
10.0
 10
28.32964029239676
 20
-14.22431694522864
 30
0.0
 10
28.39185871686037
 20
-14.28777560406694
 30
0.0
 10
28.42996147292723
 20
-14.3754188332117
 30
0.0
 10
28.44012450460872
 20
-14.46430229673114
 30
0.0
  0
SPLINE
  5
334
330
70
100
AcDbEntity
  8
Livello 3
100
AcDbSpline
210
0.0
220
0.0
230
1.0
 70
     8
 71
     3
 72
     8
 73
     4
 74
     0
 42
0.000000001
 43
0.0000000001
 40
10.0
 40
10.0
 40
10.0
 40
10.0
 40
11.0
 40
11.0
 40
11.0
 40
11.0
 10
28.44012450460872
 20
-14.46430229673114
 30
0.0
 10
28.44646348030158
 20
-14.50495442345709
 30
0.0
 10
28.44773816563112
 20
-14.54050780886487
 30
0.0
 10
28.44646348030158
 20
-14.5671728479207
 30
0.0
  0
SPLINE
  5
335
330
70
100
AcDbEntity
  8
Livello 3
100
AcDbSpline
210
0.0
220
0.0
230
1.0
 70
    24
 71
     3
 72
     8
 73
     4
 74
     0
 42
0.000000001
 43
0.0000000001
 40
11.0
 40
11.0
 40
11.0
 40
11.0
 40
12.0
 40
12.0
 40
12.0
 40
12.0
 10
28.44646348030158
 20
-14.5671728479207
 30
0.0
 10
28.44646348030158
 20
-14.5671728479207
 30
0.0
 10
28.35503064612304
 20
-14.5671728479207
 30
0.0
 10
28.35503064612304
 20
-14.5671728479207
 30
0.0
  0
SPLINE
  5
336
330
70
100
AcDbEntity
  8
Livello 3
100
AcDbSpline
210
0.0
220
0.0
230
1.0
 70
     8
 71
     3
 72
    11
 73
     7
 74
     0
 42
0.000000001
 43
0.0000000001
 40
0.0
 40
0.0
 40
0.0
 40
0.0
 40
1.0
 40
1.0
 40
1.0
 40
2.0
 40
2.0
 40
2.0
 40
2.0
 10
27.88012423348136
 20
-7.768690319238382
 30
0.0
 10
27.98299478467092
 20
-7.768690319238382
 30
0.0
 10
28.05534178986116
 20
-7.706471894774769
 30
0.0
 10
28.05534178986116
 20
-7.609957544755495
 30
0.0
 10
28.05534178986116
 20
-7.535043943428736
 30
0.0
 10
28.0185481700787
 20
-7.476632349476326
 30
0.0
 10
27.9690076970008
 20
-7.447417939761407
 30
0.0
  0
SPLINE
  5
337
330
70
100
AcDbEntity
  8
Livello 3
100
AcDbSpline
210
0.0
220
0.0
230
1.0
 70
     8
 71
     3
 72
    14
 73
    10
 74
     0
 42
0.000000001
 43
0.0000000001
 40
2.0
 40
2.0
 40
2.0
 40
2.0
 40
3.0
 40
3.0
 40
3.0
 40
4.0
 40
4.0
 40
4.0
 40
5.0
 40
5.0
 40
5.0
 40
5.0
 10
27.9690076970008
 20
-7.447417939761407
 30
0.0
 10
27.95884466531932
 20
-7.441078964068548
 30
0.0
 10
27.94613226297875
 20
-7.43725490807992
 30
0.0
 10
27.92835557027486
 20
-7.43725490807992
 30
0.0
 10
27.78741671397328
 20
-7.43725490807992
 30
0.0
 10
27.67948187242041
 20
-7.489327526339472
 30
0.0
 10
27.67948187242041
 20
-7.606150714244295
 30
0.0
 10
27.67948187242041
 20
-7.701390378934027
 30
0.0
 10
27.76330104557653
 20
-7.768690319238382
 30
0.0
 10
27.88012423348136
 20
-7.768690319238382
 30
0.0
  0
SPLINE
  5
338
330
70
100
AcDbEntity
  8
Livello 3
100
AcDbSpline
210
0.0
220
0.0
230
1.0
 70
     8
 71
     3
 72
     8
 73
     4
 74
     0
 42
0.000000001
 43
0.0000000001
 40
0.0
 40
0.0
 40
0.0
 40
0.0
 40
1.0
 40
1.0
 40
1.0
 40
1.0
 10
28.35503064612304
 20
-7.809325220486902
 30
0.0
 10
28.35758001678213
 20
-7.785192326612729
 30
0.0
 10
28.35503064612304
 20
-7.757269827704779
 30
0.0
 10
28.35120659013442
 20
-7.719167071637915
 30
0.0
  0
SPLINE
  5
339
330
70
100
AcDbEntity
  8
Livello 3
100
AcDbSpline
210
0.0
220
0.0
230
1.0
 70
     8
 71
     3
 72
     8
 73
     4
 74
     0
 42
0.000000001
 43
0.0000000001
 40
1.0
 40
1.0
 40
1.0
 40
1.0
 40
2.0
 40
2.0
 40
2.0
 40
2.0
 10
28.35120659013442
 20
-7.719167071637915
 30
0.0
 10
28.34231824378248
 20
-7.654399276515219
 30
0.0
 10
28.31565320472664
 20
-7.593455537381148
 30
0.0
 10
28.27121147296693
 20
-7.54646443496234
 30
0.0
  0
SPLINE
  5
33A
330
70
100
AcDbEntity
  8
Livello 3
100
AcDbSpline
210
0.0
220
0.0
230
1.0
 70
     8
 71
     3
 72
     8
 73
     4
 74
     0
 42
0.000000001
 43
0.0000000001
 40
2.0
 40
2.0
 40
2.0
 40
2.0
 40
3.0
 40
3.0
 40
3.0
 40
3.0
 10
28.27121147296693
 20
-7.54646443496234
 30
0.0
 10
28.22170545084388
 20
-7.49185967152113
 30
0.0
 10
28.14932399469878
 20
-7.452499455602151
 30
0.0
 10
28.05155218482738
 20
-7.43725490807992
 30
0.0
  0
SPLINE
  5
33B
330
70
100
AcDbEntity
  8
Livello 3
100
AcDbSpline
210
0.0
220
0.0
230
1.0
 70
    24
 71
     3
 72
     8
 73
     4
 74
     0
 42
0.000000001
 43
0.0000000001
 40
3.0
 40
3.0
 40
3.0
 40
3.0
 40
4.0
 40
4.0
 40
4.0
 40
4.0
 10
28.05155218482738
 20
-7.43725490807992
 30
0.0
 10
28.05155218482738
 20
-7.43725490807992
 30
0.0
 10
28.05155218482738
 20
-7.441078964068548
 30
0.0
 10
28.05155218482738
 20
-7.441078964068548
 30
0.0
  0
SPLINE
  5
33C
330
70
100
AcDbEntity
  8
Livello 3
100
AcDbSpline
210
0.0
220
0.0
230
1.0
 70
     8
 71
     3
 72
    20
 73
    16
 74
     0
 42
0.000000001
 43
0.0000000001
 40
4.0
 40
4.0
 40
4.0
 40
4.0
 40
5.0
 40
5.0
 40
5.0
 40
6.0
 40
6.0
 40
6.0
 40
7.0
 40
7.0
 40
7.0
 40
8.0
 40
8.0
 40
8.0
 40
9.0
 40
9.0
 40
9.0
 40
9.0
 10
28.05155218482738
 20
-7.441078964068548
 30
0.0
 10
28.10743163359815
 20
-7.486778155680387
 30
0.0
 10
28.14043564834684
 20
-7.552820636132627
 30
0.0
 10
28.14043564834684
 20
-7.635365123959211
 30
0.0
 10
28.14043564834684
 20
-7.783934866760612
 30
0.0
 10
28.02867675080533
 20
-7.879174531450344
 30
0.0
 10
27.88773789450376
 20
-7.879174531450344
 30
0.0
 10
27.73157171615738
 20
-7.879174531450344
 30
0.0
 10
27.59438801393474
 20
-7.766158174056722
 30
0.0
 10
27.59438801393474
 20
-7.59726236789235
 30
0.0
 10
27.59438801393474
 20
-7.428366561727978
 30
0.0
 10
27.73157171615738
 20
-7.324238550686301
 30
0.0
 10
27.94234265794497
 20
-7.324238550686301
 30
0.0
 10
28.12393364097249
 20
-7.324238550686301
 30
0.0
 10
28.2509198605588
 20
-7.385199515297795
 30
0.0
 10
28.32964029239676
 20
-7.46646931779484
 30
0.0
  0
SPLINE
  5
33D
330
70
100
AcDbEntity
  8
Livello 3
100
AcDbSpline
210
0.0
220
0.0
230
1.0
 70
     8
 71
     3
 72
     8
 73
     4
 74
     0
 42
0.000000001
 43
0.0000000001
 40
9.0
 40
9.0
 40
9.0
 40
9.0
 40
10.0
 40
10.0
 40
10.0
 40
10.0
 10
28.32964029239676
 20
-7.46646931779484
 30
0.0
 10
28.39185871686037
 20
-7.529962427587994
 30
0.0
 10
28.42996147292723
 20
-7.617571205777897
 30
0.0
 10
28.44012450460872
 20
-7.706471894774769
 30
0.0
  0
SPLINE
  5
33E
330
70
100
AcDbEntity
  8
Livello 3
100
AcDbSpline
210
0.0
220
0.0
230
1.0
 70
     8
 71
     3
 72
     8
 73
     4
 74
     0
 42
0.000000001
 43
0.0000000001
 40
10.0
 40
10.0
 40
10.0
 40
10.0
 40
11.0
 40
11.0
 40
11.0
 40
11.0
 10
28.44012450460872
 20
-7.706471894774769
 30
0.0
 10
28.44646348030158
 20
-7.747106796023292
 30
0.0
 10
28.44773816563112
 20
-7.78266018143107
 30
0.0
 10
28.44646348030158
 20
-7.809325220486902
 30
0.0
  0
SPLINE
  5
33F
330
70
100
AcDbEntity
  8
Livello 3
100
AcDbSpline
210
0.0
220
0.0
230
1.0
 70
    24
 71
     3
 72
     8
 73
     4
 74
     0
 42
0.000000001
 43
0.0000000001
 40
11.0
 40
11.0
 40
11.0
 40
11.0
 40
12.0
 40
12.0
 40
12.0
 40
12.0
 10
28.44646348030158
 20
-7.809325220486902
 30
0.0
 10
28.44646348030158
 20
-7.809325220486902
 30
0.0
 10
28.35503064612304
 20
-7.809325220486902
 30
0.0
 10
28.35503064612304
 20
-7.809325220486902
 30
0.0
  0
ENDSEC
  0
SECTION
  2
OBJECTS
  0
DICTIONARY
  5
C
330
0
100
AcDbDictionary
281
     1
  3
ACAD_CIP_PREVIOUS_PRODUCT_INFO
350
24F
  3
ACAD_COLOR
350
63
  3
ACAD_DETAILVIEWSTYLE
350
6A
  3
ACAD_GROUP
350
D
  3
ACAD_LAYOUT
350
62
  3
ACAD_MATERIAL
350
10
  3
ACAD_MLEADERSTYLE
350
66
  3
ACAD_MLINESTYLE
350
5F
  3
ACAD_PLOTSETTINGS
350
61
  3
ACAD_PLOTSTYLENAME
350
E
  3
ACAD_SCALELIST
350
42
  3
ACAD_SECTIONVIEWSTYLE
350
68
  3
ACAD_TABLESTYLE
350
64
  3
ACAD_VISUALSTYLE
350
29
  3
ACDB_RECOMPOSE_DATA
350
3AC
  3
AcDbVariableDictionary
350
20C
  0
DICTIONARY
  5
250
330
70
100
AcDbDictionary
280
     1
281
     1
  3
ACAD_SORTENTS
360
251
  0
XRECORD
  5
24F
102
{ACAD_REACTORS
330
C
102
}
330
C
100
AcDbXrecord
280
     1
300
ACD
300
2019
300
ACD_F_S
  0
DICTIONARY
  5
63
102
{ACAD_REACTORS
330
C
102
}
330
C
100
AcDbDictionary
281
     1
  0
DICTIONARY
  5
6A
102
{ACAD_REACTORS
330
C
102
}
330
C
100
AcDbDictionary
281
     1
  3
Imperial24
350
6B
  0
DICTIONARY
  5
D
102
{ACAD_REACTORS
330
C
102
}
330
C
100
AcDbDictionary
281
     1
  0
DICTIONARY
  5
62
102
{ACAD_REACTORS
330
C
102
}
330
C
100
AcDbDictionary
281
     1
  3
Layout1
350
6F
  3
Layout2
350
77
  3
Model
350
73
  0
DICTIONARY
  5
10
102
{ACAD_REACTORS
330
C
102
}
330
C
100
AcDbDictionary
281
     1
  3
ByBlock
350
19
  3
ByLayer
350
11
  3
Global
350
21
  0
DICTIONARY
  5
66
102
{ACAD_REACTORS
330
C
102
}
330
C
100
AcDbDictionary
281
     1
  3
Standard
350
67
  0
DICTIONARY
  5
5F
102
{ACAD_REACTORS
330
C
102
}
330
C
100
AcDbDictionary
281
     1
  3
Standard
350
60
  0
DICTIONARY
  5
61
102
{ACAD_REACTORS
330
C
102
}
330
C
100
AcDbDictionary
281
     1
  0
ACDBDICTIONARYWDFLT
  5
E
102
{ACAD_REACTORS
330
C
102
}
330
C
100
AcDbDictionary
281
     1
  3
Normal
350
F
100
AcDbDictionaryWithDefault
340
F
  0
DICTIONARY
  5
42
102
{ACAD_REACTORS
330
C
102
}
330
C
100
AcDbDictionary
281
     1
  3
A0
350
43
  3
A1
350
44
  3
A2
350
45
  3
A3
350
46
  3
A4
350
47
  3
A5
350
48
  3
A6
350
49
  3
A7
350
4A
  3
A8
350
4B
  3
A9
350
4C
  3
B0
350
4D
  3
B1
350
4E
  3
B2
350
4F
  3
B3
350
50
  3
B4
350
51
  3
B5
350
52
  3
B6
350
53
  0
DICTIONARY
  5
68
102
{ACAD_REACTORS
330
C
102
}
330
C
100
AcDbDictionary
281
     1
  3
Imperial24
350
69
  0
DICTIONARY
  5
64
102
{ACAD_REACTORS
330
C
102
}
330
C
100
AcDbDictionary
281
     1
  3
Standard
350
65
  0
DICTIONARY
  5
29
102
{ACAD_REACTORS
330
C
102
}
330
C
100
AcDbDictionary
281
     1
  3
2dWireframe
350
2F
  3
Basic
350
2E
  3
Brighten
350
35
  3
ColorChange
350
39
  3
Conceptual
350
32
  3
Dim
350
34
  3
EdgeColorOff
350
41
  3
Facepattern
350
38
  3
Flat
350
2A
  3
FlatWithEdges
350
2B
  3
Gouraud
350
2C
  3
GouraudWithEdges
350
2D
  3
Hidden
350
31
  3
JitterOff
350
3F
  3
Linepattern
350
37
  3
OverhangOff
350
40
  3
Realistic
350
33
  3
Shaded
350
3E
  3
Shaded with edges
350
3D
  3
Shades of Gray
350
3A
  3
Sketchy
350
3B
  3
Thicken
350
36
  3
Wireframe
350
30
  3
X-Ray
350
3C
  0
XRECORD
  5
3AC
102
{ACAD_REACTORS
330
C
102
}
330
C
100
AcDbXrecord
280
     1
 90
        1
330
65
  0
DICTIONARY
  5
20C
102
{ACAD_REACTORS
330
C
102
}
330
C
100
AcDbDictionary
281
     1
  3
CANNOSCALE
350
211
  3
CMLEADERSTYLE
350
20E
  3
CTABLESTYLE
350
20D
  3
CVIEWDETAILSTYLE
350
20F
  3
CVIEWSECTIONSTYLE
350
210
  0
SORTENTSTABLE
  5
251
102
{ACAD_REACTORS
330
250
102
}
330
250
100
AcDbSortentsTable
330
70
331
1AF
  5
2FF
331
1B0
  5
300
331
1B1
  5
301
331
299
  5
29F
331
29A
  5
2A0
331
29B
  5
2A1
331
29C
  5
2A2
331
29D
  5
2A3
331
29E
  5
2A4
331
29F
  5
2A5
331
2A0
  5
2A6
331
2A1
  5
2A7
331
2A2
  5
2A8
331
2A3
  5
299
331
2A4
  5
29A
331
2A5
  5
29B
331
2A6
  5
29C
331
2A7
  5
29D
331
2A8
  5
29E
331
2BE
  5
2DE
331
2BF
  5
2DF
331
2C0
  5
2E0
331
2C1
  5
2E1
331
2C2
  5
2E2
331
2C3
  5
2E3
331
2C4
  5
2E4
331
2C5
  5
2E5
331
2C6
  5
2E6
331
2C7
  5
2BE
331
2C8
  5
2BF
331
2C9
  5
2C0
331
2CA
  5
2C1
331
2DB
  5
2D2
331
2DC
  5
2D3
331
2DD
  5
2D4
331
2DE
  5
2D5
331
2F8
  5
284
331
2F9
  5
285
331
2FA
  5
286
331
2FB
  5
287
331
2FC
  5
288
331
2FD
  5
289
331
2FE
  5
28A
331
2FF
  5
28B
331
300
  5
28C
331
301
  5
28D
  0
ACDBDETAILVIEWSTYLE
  5
6B
102
{ACAD_XDICTIONARY
360
3AF
102
}
102
{ACAD_REACTORS
330
6A
102
}
330
6A
100
AcDbModelDocViewStyle
 70
     0
  3
Imperial24
290
     0
100
AcDbDetailViewStyle
 70
     0
 71
     0
 90
        3
 71
     1
340
55
 62
   256
 40
0.24
340
0
 62
   256
 40
0.24
300

 40
0.36
280
     3
 71
     2
340
5D
 90
       25
 62
   256
 71
     3
340
55
 62
   256
 40
0.24
 90
        1
 40
0.75
 90
        1
300
%<\AcVar ViewType \f "%tc1">% %<\AcVar ViewDetailId>%\PSCALE %<\AcVar ViewScale \f "%sn">%
 71
     4
340
5D
 90
       25
 62
   256
340
5D
 90
       25
 62
   256
280
     0
  0
LAYOUT
  5
6F
102
{ACAD_REACTORS
330
62
102
}
330
62
100
AcDbPlotSettings
  1

  2

  4

  6

 40
0.0
 41
0.0
 42
0.0
 43
0.0
 44
0.0
 45
0.0
 46
0.0
 47
0.0
 48
0.0
 49
0.0
140
0.0
141
0.0
142
1.0
143
1.0
 70
   688
 72
     0
 73
     0
 74
     5
  7

 75
    16
147
1.0
 76
     0
 77
     2
 78
   300
148
0.0
149
0.0
100
AcDbLayout
  1
Layout1
 70
     1
 71
     1
 10
0.0
 20
0.0
 11
12.0
 21
9.0
 12
0.0
 22
0.0
 32
0.0
 14
1.000000000000000E+20
 24
1.000000000000000E+20
 34
1.000000000000000E+20
 15
-1.000000000000000E+20
 25
-1.000000000000000E+20
 35
-1.000000000000000E+20
146
0.0
 13
0.0
 23
0.0
 33
0.0
 16
1.0
 26
0.0
 36
0.0
 17
0.0
 27
1.0
 37
0.0
 76
     0
330
6C
  0
LAYOUT
  5
77
102
{ACAD_REACTORS
330
62
102
}
330
62
100
AcDbPlotSettings
  1

  2

  4

  6

 40
0.0
 41
0.0
 42
0.0
 43
0.0
 44
0.0
 45
0.0
 46
0.0
 47
0.0
 48
0.0
 49
0.0
140
0.0
141
0.0
142
1.0
143
1.0
 70
   688
 72
     0
 73
     0
 74
     5
  7

 75
    16
147
1.0
 76
     0
 77
     2
 78
   300
148
0.0
149
0.0
100
AcDbLayout
  1
Layout2
 70
     1
 71
     2
 10
0.0
 20
0.0
 11
12.0
 21
9.0
 12
0.0
 22
0.0
 32
0.0
 14
0.0
 24
0.0
 34
0.0
 15
0.0
 25
0.0
 35
0.0
146
0.0
 13
0.0
 23
0.0
 33
0.0
 16
1.0
 26
0.0
 36
0.0
 17
0.0
 27
1.0
 37
0.0
 76
     0
330
74
  0
LAYOUT
  5
73
102
{ACAD_REACTORS
330
62
102
}
330
62
100
AcDbPlotSettings
  1

  2

  4

  6

 40
0.0
 41
0.0
 42
0.0
 43
0.0
 44
0.0
 45
0.0
 46
0.0
 47
0.0
 48
0.0
 49
0.0
140
0.0
141
0.0
142
1.0
143
1.0
 70
  1712
 72
     0
 73
     0
 74
     0
  7

 75
     0
147
1.0
 76
     0
 77
     2
 78
   300
148
0.0
149
0.0
100
AcDbLayout
  1
Model
 70
     1
 71
     0
 10
0.0
 20
0.0
 11
12.0
 21
9.0
 12
0.0
 22
0.0
 32
0.0
 14
0.0
 24
0.0
 34
0.0
 15
0.0
 25
0.0
 35
0.0
146
0.0
 13
0.0
 23
0.0
 33
0.0
 16
1.0
 26
0.0
 36
0.0
 17
0.0
 27
1.0
 37
0.0
 76
     0
330
70
331
57
  0
MATERIAL
  5
19
102
{ACAD_XDICTIONARY
360
1A
102
}
102
{ACAD_REACTORS
330
10
102
}
330
10
100
AcDbMaterial
  1
ByBlock
 72
     0
 43
0.0208333333333333
 43
0.0
 43
0.0
 43
0.0
 43
0.0
 43
0.0208333333333333
 43
0.0
 43
0.0
 43
0.0
 43
0.0
 43
1.0
 43
0.0
 43
0.0
 43
0.0
 43
0.0
 43
1.0
 77
     0
 47
0.0208333333333333
 47
0.0
 47
0.0
 47
0.0
 47
0.0
 47
0.0208333333333333
 47
0.0
 47
0.0
 47
0.0
 47
0.0
 47
1.0
 47
0.0
 47
0.0
 47
0.0
 47
0.0
 47
1.0
171
     0
 49
0.0208333333333333
 49
0.0
 49
0.0
 49
0.0
 49
0.0
 49
0.0208333333333333
 49
0.0
 49
0.0
 49
0.0
 49
0.0
 49
1.0
 49
0.0
 49
0.0
 49
0.0
 49
0.0
 49
1.0
175
     0
142
0.0208333333333333
142
0.0
142
0.0
142
0.0
142
0.0
142
0.0208333333333333
142
0.0
142
0.0
142
0.0
142
0.0
142
1.0
142
0.0
142
0.0
142
0.0
142
0.0
142
1.0
179
     0
144
0.0208333333333333
144
0.0
144
0.0
144
0.0
144
0.0
144
0.0208333333333333
144
0.0
144
0.0
144
0.0
144
0.0
144
1.0
144
0.0
144
0.0
144
0.0
144
0.0
144
1.0
147
0.0208333333333333
147
0.0
147
0.0
147
0.0
147
0.0
147
0.0208333333333333
147
0.0
147
0.0
147
0.0
147
0.0
147
1.0
147
0.0
147
0.0
147
0.0
147
0.0
147
1.0
  0
MATERIAL
  5
11
102
{ACAD_XDICTIONARY
360
12
102
}
102
{ACAD_REACTORS
330
10
102
}
330
10
100
AcDbMaterial
  1
ByLayer
 72
     0
 43
0.0208333333333333
 43
0.0
 43
0.0
 43
0.0
 43
0.0
 43
0.0208333333333333
 43
0.0
 43
0.0
 43
0.0
 43
0.0
 43
1.0
 43
0.0
 43
0.0
 43
0.0
 43
0.0
 43
1.0
 77
     0
 47
0.0208333333333333
 47
0.0
 47
0.0
 47
0.0
 47
0.0
 47
0.0208333333333333
 47
0.0
 47
0.0
 47
0.0
 47
0.0
 47
1.0
 47
0.0
 47
0.0
 47
0.0
 47
0.0
 47
1.0
171
     0
 49
0.0208333333333333
 49
0.0
 49
0.0
 49
0.0
 49
0.0
 49
0.0208333333333333
 49
0.0
 49
0.0
 49
0.0
 49
0.0
 49
1.0
 49
0.0
 49
0.0
 49
0.0
 49
0.0
 49
1.0
175
     0
142
0.0208333333333333
142
0.0
142
0.0
142
0.0
142
0.0
142
0.0208333333333333
142
0.0
142
0.0
142
0.0
142
0.0
142
1.0
142
0.0
142
0.0
142
0.0
142
0.0
142
1.0
179
     0
144
0.0208333333333333
144
0.0
144
0.0
144
0.0
144
0.0
144
0.0208333333333333
144
0.0
144
0.0
144
0.0
144
0.0
144
1.0
144
0.0
144
0.0
144
0.0
144
0.0
144
1.0
147
0.0208333333333333
147
0.0
147
0.0
147
0.0
147
0.0
147
0.0208333333333333
147
0.0
147
0.0
147
0.0
147
0.0
147
1.0
147
0.0
147
0.0
147
0.0
147
0.0
147
1.0
  0
MATERIAL
  5
21
102
{ACAD_XDICTIONARY
360
22
102
}
102
{ACAD_REACTORS
330
10
102
}
330
10
100
AcDbMaterial
  1
Global
 72
     0
 43
0.0208333333333333
 43
0.0
 43
0.0
 43
0.0
 43
0.0
 43
0.0208333333333333
 43
0.0
 43
0.0
 43
0.0
 43
0.0
 43
1.0
 43
0.0
 43
0.0
 43
0.0
 43
0.0
 43
1.0
 77
     0
 47
0.0208333333333333
 47
0.0
 47
0.0
 47
0.0
 47
0.0
 47
0.0208333333333333
 47
0.0
 47
0.0
 47
0.0
 47
0.0
 47
1.0
 47
0.0
 47
0.0
 47
0.0
 47
0.0
 47
1.0
171
     0
 49
0.0208333333333333
 49
0.0
 49
0.0
 49
0.0
 49
0.0
 49
0.0208333333333333
 49
0.0
 49
0.0
 49
0.0
 49
0.0
 49
1.0
 49
0.0
 49
0.0
 49
0.0
 49
0.0
 49
1.0
175
     0
142
0.0208333333333333
142
0.0
142
0.0
142
0.0
142
0.0
142
0.0208333333333333
142
0.0
142
0.0
142
0.0
142
0.0
142
1.0
142
0.0
142
0.0
142
0.0
142
0.0
142
1.0
179
     0
144
0.0208333333333333
144
0.0
144
0.0
144
0.0
144
0.0
144
0.0208333333333333
144
0.0
144
0.0
144
0.0
144
0.0
144
1.0
144
0.0
144
0.0
144
0.0
144
0.0
144
1.0
147
0.0208333333333333
147
0.0
147
0.0
147
0.0
147
0.0
147
0.0208333333333333
147
0.0
147
0.0
147
0.0
147
0.0
147
1.0
147
0.0
147
0.0
147
0.0
147
0.0
147
1.0
  0
MLEADERSTYLE
  5
67
102
{ACAD_REACTORS
330
66
102
}
330
66
100
AcDbMLeaderStyle
179
     2
170
     2
171
     1
172
     0
 90
        2
 40
0.0
 41
0.0
173
     1
 91
-1056964608
340
5B
 92
       -2
290
     1
 42
0.09
291
     1
 43
0.36
  3
Standard
 44
0.18
300

342
55
174
     1
178
     6
175
     1
176
     0
 93
-1056964608
 45
0.18
292
     0
297
     0
 46
0.18
 94
-1056964608
 47
1.0
 49
1.0
140
1.0
293
     1
141
0.0
294
     1
177
     0
142
1.0
295
     0
296
     0
143
0.125
271
     0
272
     9
273
     9
298
     1
  0
MLINESTYLE
  5
60
102
{ACAD_REACTORS
330
5F
102
}
330
5F
100
AcDbMlineStyle
  2
STANDARD
 70
     0
  3

 62
   256
 51
90.0
 52
90.0
 71
     2
 49
0.5
 62
   256
  6
BYLAYER
 49
-0.5
 62
   256
  6
BYLAYER
  0
ACDBPLACEHOLDER
  5
F
102
{ACAD_REACTORS
330
E
102
}
330
E
  0
SCALE
  5
43
102
{ACAD_REACTORS
330
42
102
}
330
42
100
AcDbScale
 70
     0
300
1:1
140
1.0
141
1.0
290
     1
  0
SCALE
  5
44
102
{ACAD_REACTORS
330
42
102
}
330
42
100
AcDbScale
 70
     0
300
1/128" = 1'-0"
140
0.0078125
141
12.0
290
     0
  0
SCALE
  5
45
102
{ACAD_REACTORS
330
42
102
}
330
42
100
AcDbScale
 70
     0
300
1/64" = 1'-0"
140
0.015625
141
12.0
290
     0
  0
SCALE
  5
46
102
{ACAD_REACTORS
330
42
102
}
330
42
100
AcDbScale
 70
     0
300
1/32" = 1'-0"
140
0.03125
141
12.0
290
     0
  0
SCALE
  5
47
102
{ACAD_REACTORS
330
42
102
}
330
42
100
AcDbScale
 70
     0
300
1/16" = 1'-0"
140
0.0625
141
12.0
290
     0
  0
SCALE
  5
48
102
{ACAD_REACTORS
330
42
102
}
330
42
100
AcDbScale
 70
     0
300
3/32" = 1'-0"
140
0.09375
141
12.0
290
     0
  0
SCALE
  5
49
102
{ACAD_REACTORS
330
42
102
}
330
42
100
AcDbScale
 70
     0
300
1/8" = 1'-0"
140
0.125
141
12.0
290
     0
  0
SCALE
  5
4A
102
{ACAD_REACTORS
330
42
102
}
330
42
100
AcDbScale
 70
     0
300
3/16" = 1'-0"
140
0.1875
141
12.0
290
     0
  0
SCALE
  5
4B
102
{ACAD_REACTORS
330
42
102
}
330
42
100
AcDbScale
 70
     0
300
1/4" = 1'-0"
140
0.25
141
12.0
290
     0
  0
SCALE
  5
4C
102
{ACAD_REACTORS
330
42
102
}
330
42
100
AcDbScale
 70
     0
300
3/8" = 1'-0"
140
0.375
141
12.0
290
     0
  0
SCALE
  5
4D
102
{ACAD_REACTORS
330
42
102
}
330
42
100
AcDbScale
 70
     0
300
1/2" = 1'-0"
140
0.5
141
12.0
290
     0
  0
SCALE
  5
4E
102
{ACAD_REACTORS
330
42
102
}
330
42
100
AcDbScale
 70
     0
300
3/4" = 1'-0"
140
0.75
141
12.0
290
     0
  0
SCALE
  5
4F
102
{ACAD_REACTORS
330
42
102
}
330
42
100
AcDbScale
 70
     0
300
1" = 1'-0"
140
1.0
141
12.0
290
     0
  0
SCALE
  5
50
102
{ACAD_REACTORS
330
42
102
}
330
42
100
AcDbScale
 70
     0
300
1-1/2" = 1'-0"
140
1.5
141
12.0
290
     0
  0
SCALE
  5
51
102
{ACAD_REACTORS
330
42
102
}
330
42
100
AcDbScale
 70
     0
300
3" = 1'-0"
140
3.0
141
12.0
290
     0
  0
SCALE
  5
52
102
{ACAD_REACTORS
330
42
102
}
330
42
100
AcDbScale
 70
     0
300
6" = 1'-0"
140
6.0
141
12.0
290
     0
  0
SCALE
  5
53
102
{ACAD_REACTORS
330
42
102
}
330
42
100
AcDbScale
 70
     0
300
1'-0" = 1'-0"
140
12.0
141
12.0
290
     0
  0
ACDBSECTIONVIEWSTYLE
  5
69
102
{ACAD_XDICTIONARY
360
3AD
102
}
102
{ACAD_REACTORS
330
68
102
}
330
68
100
AcDbModelDocViewStyle
 70
     0
  3
Imperial24
290
     0
100
AcDbSectionViewStyle
 70
     0
 71
     0
 90
       78
 71
     1
340
55
 62
   256
 40
0.24
340
0
340
0
 62
   256
 40
0.24
300
I, O, Q, S, X, Z
 40
0.48
 90
        3
 40
0.18
 90
        1
 71
     2
340
5D
 90
       25
 62
   256
340
5D
 90
       50
 62
   256
 40
0.24
 40
0.0
 40
0.24
 71
     3
340
55
 62
   256
 40
0.24
 90
        1
 40
0.75
 90
        1
300
%<\AcVar ViewType \f "%tc1">% %<\AcVar ViewSectionStartId>%-%<\AcVar ViewSectionEndId>%\PSCALE %<\AcVar ViewScale \f "%sn">%
 71
     4
 62
   256
 62
   257
300
ANSI31
 40
1.0
 90
        0
290
     0
290
     0
 90
        6
 40
0.0
 40
1.570796326794896
 40
0.2617993877991494
 40
1.308996938995747
 40
-0.2617993877991494
 40
1.832595714594045
  0
TABLESTYLE
  5
65
102
{ACAD_XDICTIONARY
360
212
102
}
102
{ACAD_REACTORS
330
64
102
}
330
64
100
AcDbTableStyle
280
     0
  3
Standard
 70
     0
 71
     0
 40
0.06
 41
0.06
280
     0
281
     0
  7
Standard
140
0.18
170
     2
 62
     0
 63
     7
283
     0
 90
      512
 91
        0
  1

274
    -2
284
     1
 64
     0
275
    -2
285
     1
 65
     0
276
    -2
286
     1
 66
     0
277
    -2
287
     1
 67
     0
278
    -2
288
     1
 68
     0
279
    -2
289
     1
 69
     0
  7
Standard
140
0.25
170
     5
 62
     0
 63
     7
283
     0
 90
      512
 91
        0
  1

274
    -2
284
     1
 64
     0
275
    -2
285
     1
 65
     0
276
    -2
286
     1
 66
     0
277
    -2
287
     1
 67
     0
278
    -2
288
     1
 68
     0
279
    -2
289
     1
 69
     0
  7
Standard
140
0.18
170
     5
 62
     0
 63
     7
283
     0
 90
      512
 91
        0
  1

274
    -2
284
     1
 64
     0
275
    -2
285
     1
 65
     0
276
    -2
286
     1
 66
     0
277
    -2
287
     1
 67
     0
278
    -2
288
     1
 68
     0
279
    -2
289
     1
 69
     0
  0
VISUALSTYLE
  5
2F
102
{ACAD_REACTORS
330
29
102
}
330
29
100
AcDbVisualStyle
  2
2dWireframe
 70
     4
177
     3
291
     0
 70
    58
 90
        0
176
     1
 90
        2
176
     1
 90
        0
176
     1
 90
        0
176
     1
 40
0.6
176
     1
 40
30.0
176
     1
 62
     7
420
 16777215
176
     1
 90
        1
176
     1
 90
        4
176
     1
 62
     7
176
     1
 62
   257
176
     1
 90
        1
176
     1
 90
        1
176
     1
 40
1.0
176
     1
 90
        0
176
     1
 62
   257
176
     1
 40
1.0
176
     1
 90
        1
176
     1
 90
        6
176
     1
 90
        2
176
     1
 62
     7
176
     1
 90
        5
176
     1
 90
        0
176
     1
 90
        0
176
     1
290
     0
176
     1
 90
        1
176
     1
 40
0.0
176
     1
 90
        0
176
     1
290
     1
176
     1
290
     1
176
     1
290
     0
176
     1
290
     0
176
     1
290
     0
176
     1
290
     0
176
     1
290
     0
176
     1
290
     0
176
     1
290
     0
176
     1
 90
       50
176
     1
 40
0.0
176
     1
 40
1.0
176
     1
 90
        0
176
     1
 62
    18
420
        0
176
     1
 90
       50
176
     1
 90
        3
176
     1
 62
     5
420
      255
176
     1
290
     0
176
     1
 90
       50
176
     1
 90
       50
176
     1
 90
       50
176
     1
290
     0
176
     1
 90
       50
176
     1
 62
   256
176
     0
 40
1.0
176
     0
 90
        2
176
     1
  1
strokes_ogs.tif
176
     1
290
     0
176
     1
 40
1.0
176
     1
 40
1.0
176
     1
1001
ACAD
1000
AcDbSavedByObjectVersion
1070
     0
  0
VISUALSTYLE
  5
2E
102
{ACAD_REACTORS
330
29
102
}
330
29
100
AcDbVisualStyle
  2
Basic
 70
     7
177
     3
291
     1
 70
    58
 90
        1
176
     1
 90
        0
176
     1
 90
        1
176
     1
 90
        0
176
     1
 40
0.6
176
     1
 40
30.0
176
     1
 62
     7
420
 16777215
176
     1
 90
        0
176
     1
 90
        4
176
     1
 62
     7
176
     1
 62
   257
176
     1
 90
        1
176
     1
 90
        1
176
     1
 40
1.0
176
     1
 90
        8
176
     1
 62
     7
176
     1
 40
1.0
176
     1
 90
        1
176
     1
 90
        6
176
     1
 90
        2
176
     1
 62
     7
176
     1
 90
        5
176
     1
 90
        0
176
     1
 90
        0
176
     1
290
     0
176
     1
 90
        1
176
     1
 40
0.0
176
     1
 90
        0
176
     1
290
     0
176
     1
290
     1
176
     1
290
     1
176
     1
290
     0
176
     1
290
     0
176
     1
290
     0
176
     1
290
     0
176
     1
290
     0
176
     1
290
     0
176
     1
 90
       50
176
     1
 40
0.0
176
     1
 40
1.0
176
     1
 90
        0
176
     1
 62
    18
420
        0
176
     1
 90
       50
176
     1
 90
        3
176
     1
 62
     5
420
      255
176
     1
290
     0
176
     1
 90
       50
176
     1
 90
       50
176
     1
 90
       50
176
     1
290
     0
176
     1
 90
       50
176
     1
 62
   256
176
     0
 40
1.0
176
     0
 90
        2
176
     1
  1
strokes_ogs.tif
176
     1
290
     0
176
     1
 40
1.0
176
     1
 40
1.0
176
     1
1001
ACAD
1000
AcDbSavedByObjectVersion
1070
     0
  0
VISUALSTYLE
  5
35
102
{ACAD_REACTORS
330
29
102
}
330
29
100
AcDbVisualStyle
  2
Brighten
 70
    12
177
     3
291
     1
 70
    58
 90
        2
176
     1
 90
        2
176
     1
 90
        0
176
     1
 90
        0
176
     1
 40
0.6
176
     1
 40
30.0
176
     1
 62
     7
420
 16777215
176
     1
 90
        1
176
     1
 90
        4
176
     1
 62
     7
176
     1
 62
   257
176
     1
 90
        1
176
     1
 90
        1
176
     1
 40
1.0
176
     1
 90
        8
176
     1
 62
     7
176
     1
 40
1.0
176
     1
 90
        1
176
     1
 90
        6
176
     1
 90
        2
176
     1
 62
     7
176
     1
 90
        5
176
     1
 90
        0
176
     1
 90
        0
176
     1
290
     0
176
     1
 90
        1
176
     1
 40
50.0
176
     1
 90
        0
176
     1
290
     0
176
     1
290
     1
176
     1
290
     1
176
     1
290
     0
176
     1
290
     0
176
     1
290
     0
176
     1
290
     0
176
     1
290
     0
176
     1
290
     0
176
     1
 90
       50
176
     1
 40
0.0
176
     1
 40
1.0
176
     1
 90
        0
176
     1
 62
    18
420
        0
176
     1
 90
       50
176
     1
 90
        3
176
     1
 62
     5
420
      255
176
     1
290
     0
176
     1
 90
       50
176
     1
 90
       50
176
     1
 90
       50
176
     1
290
     0
176
     1
 90
       50
176
     1
 62
   256
176
     0
 40
1.0
176
     0
 90
        2
176
     1
  1
strokes_ogs.tif
176
     1
290
     0
176
     1
 40
1.0
176
     1
 40
1.0
176
     1
1001
ACAD
1000
AcDbSavedByObjectVersion
1070
     0
  0
VISUALSTYLE
  5
39
102
{ACAD_REACTORS
330
29
102
}
330
29
100
AcDbVisualStyle
  2
ColorChange
 70
    16
177
     3
291
     1
 70
    58
 90
        2
176
     1
 90
        2
176
     1
 90
        3
176
     1
 90
        0
176
     1
 40
0.6
176
     1
 40
30.0
176
     1
 62
     8
420
  8421504
176
     1
 90
        1
176
     1
 90
        4
176
     1
 62
     7
176
     1
 62
   257
176
     1
 90
        1
176
     1
 90
        1
176
     1
 40
1.0
176
     1
 90
        8
176
     1
 62
     8
420
  8421504
176
     1
 40
1.0
176
     1
 90
        1
176
     1
 90
        6
176
     1
 90
        2
176
     1
 62
     7
176
     1
 90
        5
176
     1
 90
        0
176
     1
 90
        0
176
     1
290
     0
176
     1
 90
        1
176
     1
 40
0.0
176
     1
 90
        0
176
     1
290
     0
176
     1
290
     1
176
     1
290
     1
176
     1
290
     0
176
     1
290
     0
176
     1
290
     0
176
     1
290
     0
176
     1
290
     0
176
     1
290
     0
176
     1
 90
       50
176
     1
 40
0.0
176
     1
 40
1.0
176
     1
 90
        0
176
     1
 62
    18
420
        0
176
     1
 90
       50
176
     1
 90
        3
176
     1
 62
     5
420
      255
176
     1
290
     0
176
     1
 90
       50
176
     1
 90
       50
176
     1
 90
       50
176
     1
290
     0
176
     1
 90
       50
176
     1
 62
   256
176
     0
 40
1.0
176
     0
 90
        2
176
     1
  1
strokes_ogs.tif
176
     1
290
     0
176
     1
 40
1.0
176
     1
 40
1.0
176
     1
1001
ACAD
1000
AcDbSavedByObjectVersion
1070
     0
  0
VISUALSTYLE
  5
32
102
{ACAD_REACTORS
330
29
102
}
330
29
100
AcDbVisualStyle
  2
Conceptual
 70
     9
177
     3
291
     0
 70
    58
 90
        3
176
     1
 90
        2
176
     1
 90
        0
176
     1
 90
        0
176
     1
 40
0.6
176
     1
 40
30.0
176
     1
 62
     7
420
 16777215
176
     1
 90
        2
176
     1
 90
        2
176
     1
 62
     7
176
     1
 62
   257
176
     1
 90
        1
176
     1
 90
        1
176
     1
 40
179.0
176
     1
 90
        8
176
     1
 62
     7
176
     1
 40
1.0
176
     1
 90
        1
176
     1
 90
        6
176
     1
 90
        2
176
     1
 62
     7
176
     1
 90
        3
176
     1
 90
        0
176
     1
 90
        0
176
     1
290
     0
176
     1
 90
        1
176
     1
 40
0.0
176
     1
 90
        0
176
     1
290
     0
176
     1
290
     1
176
     1
290
     1
176
     1
290
     0
176
     1
290
     0
176
     1
290
     0
176
     1
290
     0
176
     1
290
     0
176
     1
290
     0
176
     1
 90
       50
176
     1
 40
0.0
176
     1
 40
1.0
176
     1
 90
        0
176
     1
 62
    18
420
        0
176
     1
 90
       50
176
     1
 90
        3
176
     1
 62
     5
420
      255
176
     1
290
     0
176
     1
 90
       50
176
     1
 90
       50
176
     1
 90
       50
176
     1
290
     0
176
     1
 90
       50
176
     1
 62
   256
176
     0
 40
1.0
176
     0
 90
        2
176
     1
  1
strokes_ogs.tif
176
     1
290
     0
176
     1
 40
1.0
176
     1
 40
1.0
176
     1
1001
ACAD
1000
AcDbSavedByObjectVersion
1070
     0
  0
VISUALSTYLE
  5
34
102
{ACAD_REACTORS
330
29
102
}
330
29
100
AcDbVisualStyle
  2
Dim
 70
    11
177
     3
291
     1
 70
    58
 90
        2
176
     1
 90
        2
176
     1
 90
        0
176
     1
 90
        0
176
     1
 40
0.6
176
     1
 40
30.0
176
     1
 62
     7
420
 16777215
176
     1
 90
        1
176
     1
 90
        4
176
     1
 62
     7
176
     1
 62
   257
176
     1
 90
        1
176
     1
 90
        1
176
     1
 40
1.0
176
     1
 90
        8
176
     1
 62
     7
176
     1
 40
1.0
176
     1
 90
        1
176
     1
 90
        6
176
     1
 90
        2
176
     1
 62
     7
176
     1
 90
        5
176
     1
 90
        0
176
     1
 90
        0
176
     1
290
     0
176
     1
 90
        1
176
     1
 40
-50.0
176
     1
 90
        0
176
     1
290
     0
176
     1
290
     1
176
     1
290
     1
176
     1
290
     0
176
     1
290
     0
176
     1
290
     0
176
     1
290
     0
176
     1
290
     0
176
     1
290
     0
176
     1
 90
       50
176
     1
 40
0.0
176
     1
 40
1.0
176
     1
 90
        0
176
     1
 62
    18
420
        0
176
     1
 90
       50
176
     1
 90
        3
176
     1
 62
     5
420
      255
176
     1
290
     0
176
     1
 90
       50
176
     1
 90
       50
176
     1
 90
       50
176
     1
290
     0
176
     1
 90
       50
176
     1
 62
   256
176
     0
 40
1.0
176
     0
 90
        2
176
     1
  1
strokes_ogs.tif
176
     1
290
     0
176
     1
 40
1.0
176
     1
 40
1.0
176
     1
1001
ACAD
1000
AcDbSavedByObjectVersion
1070
     0
  0
VISUALSTYLE
  5
41
102
{ACAD_REACTORS
330
29
102
}
330
29
100
AcDbVisualStyle
  2
EdgeColorOff
 70
    22
177
     3
291
     1
 70
    58
 90
        2
176
     0
 90
        2
176
     0
 90
        0
176
     0
 90
        0
176
     0
 40
0.6
176
     0
 40
30.0
176
     0
 62
     7
420
 16777215
176
     0
 90
        1
176
     0
 90
        4
176
     0
 62
     7
176
     0
 62
   257
176
     0
 90
        1
176
     0
 90
        1
176
     0
 40
1.0
176
     0
 90
        8
176
     2
 62
     7
176
     0
 40
1.0
176
     0
 90
        1
176
     0
 90
        6
176
     0
 90
        2
176
     0
 62
     7
176
     0
 90
        5
176
     0
 90
        0
176
     0
 90
        0
176
     0
290
     0
176
     0
 90
        1
176
     0
 40
0.0
176
     0
 90
        0
176
     0
290
     0
176
     0
290
     1
176
     0
290
     1
176
     0
290
     0
176
     0
290
     0
176
     0
290
     0
176
     0
290
     0
176
     0
290
     0
176
     0
290
     0
176
     0
 90
       50
176
     0
 40
0.0
176
     0
 40
1.0
176
     0
 90
        0
176
     0
 62
    18
420
        0
176
     0
 90
       50
176
     0
 90
        3
176
     0
 62
     5
420
      255
176
     0
290
     0
176
     0
 90
       50
176
     0
 90
       50
176
     0
 90
       50
176
     0
290
     0
176
     0
 90
       50
176
     0
 62
   256
176
     0
 40
1.0
176
     0
 90
        2
176
     0
  1
strokes_ogs.tif
176
     0
290
     0
176
     0
 40
1.0
176
     0
 40
1.0
176
     0
1001
ACAD
1000
AcDbSavedByObjectVersion
1070
     0
  0
VISUALSTYLE
  5
38
102
{ACAD_REACTORS
330
29
102
}
330
29
100
AcDbVisualStyle
  2
Facepattern
 70
    15
177
     3
291
     1
 70
    58
 90
        2
176
     1
 90
        2
176
     1
 90
        0
176
     1
 90
        0
176
     1
 40
0.6
176
     1
 40
30.0
176
     1
 62
     7
420
 16777215
176
     1
 90
        1
176
     1
 90
        4
176
     1
 62
     7
176
     1
 62
   257
176
     1
 90
        1
176
     1
 90
        1
176
     1
 40
1.0
176
     1
 90
        8
176
     1
 62
     7
176
     1
 40
1.0
176
     1
 90
        1
176
     1
 90
        6
176
     1
 90
        2
176
     1
 62
     7
176
     1
 90
        5
176
     1
 90
        0
176
     1
 90
        0
176
     1
290
     0
176
     1
 90
        1
176
     1
 40
0.0
176
     1
 90
        0
176
     1
290
     0
176
     1
290
     1
176
     1
290
     1
176
     1
290
     0
176
     1
290
     0
176
     1
290
     0
176
     1
290
     0
176
     1
290
     0
176
     1
290
     0
176
     1
 90
       50
176
     1
 40
0.0
176
     1
 40
1.0
176
     1
 90
        0
176
     1
 62
    18
420
        0
176
     1
 90
       50
176
     1
 90
        3
176
     1
 62
     5
420
      255
176
     1
290
     0
176
     1
 90
       50
176
     1
 90
       50
176
     1
 90
       50
176
     1
290
     0
176
     1
 90
       50
176
     1
 62
   256
176
     0
 40
1.0
176
     0
 90
        2
176
     1
  1
strokes_ogs.tif
176
     1
290
     0
176
     1
 40
1.0
176
     1
 40
1.0
176
     1
1001
ACAD
1000
AcDbSavedByObjectVersion
1070
     0
  0
VISUALSTYLE
  5
2A
102
{ACAD_REACTORS
330
29
102
}
330
29
100
AcDbVisualStyle
  2
Flat
 70
     0
177
     3
291
     1
 70
    58
 90
        2
176
     1
 90
        1
176
     1
 90
        1
176
     1
 90
        2
176
     1
 40
0.6
176
     1
 40
30.0
176
     1
 62
     7
420
 16777215
176
     1
 90
        0
176
     1
 90
        0
176
     1
 62
     7
176
     1
 62
   257
176
     1
 90
        1
176
     1
 90
        1
176
     1
 40
1.0
176
     1
 90
        8
176
     1
 62
     7
176
     1
 40
1.0
176
     1
 90
        1
176
     1
 90
        6
176
     1
 90
        2
176
     1
 62
     7
176
     1
 90
        5
176
     1
 90
        0
176
     1
 90
        0
176
     1
290
     0
176
     1
 90
       13
176
     1
 40
0.0
176
     1
 90
        0
176
     1
290
     0
176
     1
290
     1
176
     1
290
     1
176
     1
290
     0
176
     1
290
     0
176
     1
290
     0
176
     1
290
     0
176
     1
290
     0
176
     1
290
     0
176
     1
 90
       50
176
     1
 40
0.0
176
     1
 40
1.0
176
     1
 90
        0
176
     1
 62
    18
420
        0
176
     1
 90
       50
176
     1
 90
        3
176
     1
 62
     5
420
      255
176
     1
290
     0
176
     1
 90
       50
176
     1
 90
       50
176
     1
 90
       50
176
     1
290
     0
176
     1
 90
       50
176
     1
 62
   256
176
     0
 40
1.0
176
     0
 90
        2
176
     1
  1
strokes_ogs.tif
176
     1
290
     0
176
     1
 40
1.0
176
     1
 40
1.0
176
     1
1001
ACAD
1000
AcDbSavedByObjectVersion
1070
     0
  0
VISUALSTYLE
  5
2B
102
{ACAD_REACTORS
330
29
102
}
330
29
100
AcDbVisualStyle
  2
FlatWithEdges
 70
     1
177
     3
291
     1
 70
    58
 90
        2
176
     1
 90
        1
176
     1
 90
        1
176
     1
 90
        2
176
     1
 40
0.6
176
     1
 40
30.0
176
     1
 62
     7
420
 16777215
176
     1
 90
        1
176
     1
 90
        0
176
     1
 62
     7
176
     1
 62
   257
176
     1
 90
        1
176
     1
 90
        1
176
     1
 40
1.0
176
     1
 90
        0
176
     1
 62
   257
176
     1
 40
1.0
176
     1
 90
        1
176
     1
 90
        6
176
     1
 90
        2
176
     1
 62
     7
176
     1
 90
        5
176
     1
 90
        0
176
     1
 90
        0
176
     1
290
     0
176
     1
 90
       13
176
     1
 40
0.0
176
     1
 90
        0
176
     1
290
     0
176
     1
290
     1
176
     1
290
     1
176
     1
290
     0
176
     1
290
     0
176
     1
290
     0
176
     1
290
     0
176
     1
290
     0
176
     1
290
     0
176
     1
 90
       50
176
     1
 40
0.0
176
     1
 40
1.0
176
     1
 90
        0
176
     1
 62
    18
420
        0
176
     1
 90
       50
176
     1
 90
        3
176
     1
 62
     5
420
      255
176
     1
290
     0
176
     1
 90
       50
176
     1
 90
       50
176
     1
 90
       50
176
     1
290
     0
176
     1
 90
       50
176
     1
 62
   256
176
     0
 40
1.0
176
     0
 90
        2
176
     1
  1
strokes_ogs.tif
176
     1
290
     0
176
     1
 40
1.0
176
     1
 40
1.0
176
     1
1001
ACAD
1000
AcDbSavedByObjectVersion
1070
     0
  0
VISUALSTYLE
  5
2C
102
{ACAD_REACTORS
330
29
102
}
330
29
100
AcDbVisualStyle
  2
Gouraud
 70
     2
177
     3
291
     1
 70
    58
 90
        2
176
     1
 90
        2
176
     1
 90
        1
176
     1
 90
        2
176
     1
 40
0.6
176
     1
 40
30.0
176
     1
 62
     7
420
 16777215
176
     1
 90
        0
176
     1
 90
        0
176
     1
 62
     7
176
     1
 62
   257
176
     1
 90
        1
176
     1
 90
        1
176
     1
 40
1.0
176
     1
 90
        0
176
     1
 62
     7
176
     1
 40
1.0
176
     1
 90
        1
176
     1
 90
        6
176
     1
 90
        2
176
     1
 62
     7
176
     1
 90
        5
176
     1
 90
        0
176
     1
 90
        0
176
     1
290
     0
176
     1
 90
       13
176
     1
 40
0.0
176
     1
 90
        0
176
     1
290
     0
176
     1
290
     1
176
     1
290
     1
176
     1
290
     0
176
     1
290
     0
176
     1
290
     0
176
     1
290
     0
176
     1
290
     0
176
     1
290
     0
176
     1
 90
       50
176
     1
 40
0.0
176
     1
 40
1.0
176
     1
 90
        0
176
     1
 62
    18
420
        0
176
     1
 90
       50
176
     1
 90
        3
176
     1
 62
     5
420
      255
176
     1
290
     0
176
     1
 90
       50
176
     1
 90
       50
176
     1
 90
       50
176
     1
290
     0
176
     1
 90
       50
176
     1
 62
   256
176
     0
 40
1.0
176
     0
 90
        2
176
     1
  1
strokes_ogs.tif
176
     1
290
     0
176
     1
 40
1.0
176
     1
 40
1.0
176
     1
1001
ACAD
1000
AcDbSavedByObjectVersion
1070
     0
  0
VISUALSTYLE
  5
2D
102
{ACAD_REACTORS
330
29
102
}
330
29
100
AcDbVisualStyle
  2
GouraudWithEdges
 70
     3
177
     3
291
     1
 70
    58
 90
        2
176
     1
 90
        2
176
     1
 90
        1
176
     1
 90
        2
176
     1
 40
0.6
176
     1
 40
30.0
176
     1
 62
     7
420
 16777215
176
     1
 90
        1
176
     1
 90
        0
176
     1
 62
     7
176
     1
 62
   257
176
     1
 90
        1
176
     1
 90
        1
176
     1
 40
1.0
176
     1
 90
        0
176
     1
 62
   257
176
     1
 40
1.0
176
     1
 90
        1
176
     1
 90
        6
176
     1
 90
        2
176
     1
 62
     7
176
     1
 90
        5
176
     1
 90
        0
176
     1
 90
        0
176
     1
290
     0
176
     1
 90
       13
176
     1
 40
0.0
176
     1
 90
        0
176
     1
290
     0
176
     1
290
     1
176
     1
290
     1
176
     1
290
     0
176
     1
290
     0
176
     1
290
     0
176
     1
290
     0
176
     1
290
     0
176
     1
290
     0
176
     1
 90
       50
176
     1
 40
0.0
176
     1
 40
1.0
176
     1
 90
        0
176
     1
 62
    18
420
        0
176
     1
 90
       50
176
     1
 90
        3
176
     1
 62
     5
420
      255
176
     1
290
     0
176
     1
 90
       50
176
     1
 90
       50
176
     1
 90
       50
176
     1
290
     0
176
     1
 90
       50
176
     1
 62
   256
176
     0
 40
1.0
176
     0
 90
        2
176
     1
  1
strokes_ogs.tif
176
     1
290
     0
176
     1
 40
1.0
176
     1
 40
1.0
176
     1
1001
ACAD
1000
AcDbSavedByObjectVersion
1070
     0
  0
VISUALSTYLE
  5
31
102
{ACAD_REACTORS
330
29
102
}
330
29
100
AcDbVisualStyle
  2
Hidden
 70
     6
177
     3
291
     0
 70
    58
 90
        1
176
     1
 90
        2
176
     1
 90
        2
176
     1
 90
        0
176
     1
 40
0.6
176
     1
 40
30.0
176
     1
 62
     7
420
 16777215
176
     1
 90
        2
176
     1
 90
        2
176
     1
 62
     7
176
     1
 62
   257
176
     1
 90
        2
176
     1
 90
        1
176
     1
 40
40.0
176
     1
 90
        0
176
     1
 62
   257
176
     1
 40
1.0
176
     1
 90
        1
176
     1
 90
        6
176
     1
 90
        2
176
     1
 62
     7
176
     1
 90
        3
176
     1
 90
        0
176
     1
 90
        0
176
     1
290
     0
176
     1
 90
        1
176
     1
 40
0.0
176
     1
 90
        0
176
     1
290
     0
176
     1
290
     1
176
     1
290
     1
176
     1
290
     0
176
     1
290
     0
176
     1
290
     0
176
     1
290
     0
176
     1
290
     0
176
     1
290
     0
176
     1
 90
       50
176
     1
 40
0.0
176
     1
 40
1.0
176
     1
 90
        0
176
     1
 62
    18
420
        0
176
     1
 90
       50
176
     1
 90
        3
176
     1
 62
     5
420
      255
176
     1
290
     0
176
     1
 90
       50
176
     1
 90
       50
176
     1
 90
       50
176
     1
290
     0
176
     1
 90
       50
176
     1
 62
   256
176
     0
 40
1.0
176
     0
 90
        2
176
     1
  1
strokes_ogs.tif
176
     1
290
     0
176
     1
 40
1.0
176
     1
 40
1.0
176
     1
1001
ACAD
1000
AcDbSavedByObjectVersion
1070
     0
  0
VISUALSTYLE
  5
3F
102
{ACAD_REACTORS
330
29
102
}
330
29
100
AcDbVisualStyle
  2
JitterOff
 70
    20
177
     3
291
     1
 70
    58
 90
        2
176
     0
 90
        2
176
     0
 90
        0
176
     0
 90
        0
176
     0
 40
0.6
176
     0
 40
30.0
176
     0
 62
     7
420
 16777215
176
     0
 90
        1
176
     0
 90
        4
176
     0
 62
     7
176
     0
 62
   257
176
     0
 90
        1
176
     0
 90
        1
176
     0
 40
1.0
176
     0
 90
       10
176
     2
 62
     7
176
     0
 40
1.0
176
     0
 90
        1
176
     0
 90
        6
176
     0
 90
        2
176
     0
 62
     7
176
     0
 90
        5
176
     0
 90
        0
176
     0
 90
        0
176
     0
290
     0
176
     0
 90
        1
176
     0
 40
0.0
176
     0
 90
        0
176
     0
290
     0
176
     0
290
     1
176
     0
290
     1
176
     0
290
     0
176
     0
290
     0
176
     0
290
     0
176
     0
290
     0
176
     0
290
     0
176
     0
290
     0
176
     0
 90
       50
176
     0
 40
0.0
176
     0
 40
1.0
176
     0
 90
        0
176
     0
 62
    18
420
        0
176
     0
 90
       50
176
     0
 90
        3
176
     0
 62
     5
420
      255
176
     0
290
     0
176
     0
 90
       50
176
     0
 90
       50
176
     0
 90
       50
176
     0
290
     0
176
     0
 90
       50
176
     0
 62
   256
176
     0
 40
1.0
176
     0
 90
        2
176
     0
  1
strokes_ogs.tif
176
     0
290
     0
176
     0
 40
1.0
176
     0
 40
1.0
176
     0
1001
ACAD
1000
AcDbSavedByObjectVersion
1070
     0
  0
VISUALSTYLE
  5
37
102
{ACAD_REACTORS
330
29
102
}
330
29
100
AcDbVisualStyle
  2
Linepattern
 70
    14
177
     3
291
     1
 70
    58
 90
        2
176
     1
 90
        2
176
     1
 90
        0
176
     1
 90
        0
176
     1
 40
0.6
176
     1
 40
30.0
176
     1
 62
     7
420
 16777215
176
     1
 90
        1
176
     1
 90
        4
176
     1
 62
     7
176
     1
 62
   257
176
     1
 90
        7
176
     1
 90
        7
176
     1
 40
1.0
176
     1
 90
        8
176
     1
 62
     7
176
     1
 40
1.0
176
     1
 90
        1
176
     1
 90
        6
176
     1
 90
        2
176
     1
 62
     7
176
     1
 90
        5
176
     1
 90
        0
176
     1
 90
        0
176
     1
290
     0
176
     1
 90
        1
176
     1
 40
0.0
176
     1
 90
        0
176
     1
290
     0
176
     1
290
     1
176
     1
290
     1
176
     1
290
     0
176
     1
290
     0
176
     1
290
     0
176
     1
290
     0
176
     1
290
     0
176
     1
290
     0
176
     1
 90
       50
176
     1
 40
0.0
176
     1
 40
1.0
176
     1
 90
        0
176
     1
 62
    18
420
        0
176
     1
 90
       50
176
     1
 90
        3
176
     1
 62
     5
420
      255
176
     1
290
     0
176
     1
 90
       50
176
     1
 90
       50
176
     1
 90
       50
176
     1
290
     0
176
     1
 90
       50
176
     1
 62
   256
176
     0
 40
1.0
176
     0
 90
        2
176
     1
  1
strokes_ogs.tif
176
     1
290
     0
176
     1
 40
1.0
176
     1
 40
1.0
176
     1
1001
ACAD
1000
AcDbSavedByObjectVersion
1070
     0
  0
VISUALSTYLE
  5
40
102
{ACAD_REACTORS
330
29
102
}
330
29
100
AcDbVisualStyle
  2
OverhangOff
 70
    21
177
     3
291
     1
 70
    58
 90
        2
176
     0
 90
        2
176
     0
 90
        0
176
     0
 90
        0
176
     0
 40
0.6
176
     0
 40
30.0
176
     0
 62
     7
420
 16777215
176
     0
 90
        1
176
     0
 90
        4
176
     0
 62
     7
176
     0
 62
   257
176
     0
 90
        1
176
     0
 90
        1
176
     0
 40
1.0
176
     0
 90
        9
176
     2
 62
     7
176
     0
 40
1.0
176
     0
 90
        1
176
     0
 90
        6
176
     0
 90
        2
176
     0
 62
     7
176
     0
 90
        5
176
     0
 90
        0
176
     0
 90
        0
176
     0
290
     0
176
     0
 90
        1
176
     0
 40
0.0
176
     0
 90
        0
176
     0
290
     0
176
     0
290
     1
176
     0
290
     1
176
     0
290
     0
176
     0
290
     0
176
     0
290
     0
176
     0
290
     0
176
     0
290
     0
176
     0
290
     0
176
     0
 90
       50
176
     0
 40
0.0
176
     0
 40
1.0
176
     0
 90
        0
176
     0
 62
    18
420
        0
176
     0
 90
       50
176
     0
 90
        3
176
     0
 62
     5
420
      255
176
     0
290
     0
176
     0
 90
       50
176
     0
 90
       50
176
     0
 90
       50
176
     0
290
     0
176
     0
 90
       50
176
     0
 62
   256
176
     0
 40
1.0
176
     0
 90
        2
176
     0
  1
strokes_ogs.tif
176
     0
290
     0
176
     0
 40
1.0
176
     0
 40
1.0
176
     0
1001
ACAD
1000
AcDbSavedByObjectVersion
1070
     0
  0
VISUALSTYLE
  5
33
102
{ACAD_REACTORS
330
29
102
}
330
29
100
AcDbVisualStyle
  2
Realistic
 70
     8
177
     3
291
     0
 70
    58
 90
        2
176
     1
 90
        3
176
     1
 90
        0
176
     1
 90
        2
176
     1
 40
0.6
176
     1
 40
30.0
176
     1
 62
     7
420
 16777215
176
     1
 90
        0
176
     1
 90
        0
176
     1
 62
     7
176
     1
 62
   257
176
     1
 90
        1
176
     1
 90
        1
176
     1
 40
1.0
176
     1
 90
        8
176
     1
 62
   257
176
     1
 40
1.0
176
     1
 90
        1
176
     1
 90
        6
176
     1
 90
        2
176
     1
 62
     7
176
     1
 90
        3
176
     1
 90
        0
176
     1
 90
        0
176
     1
290
     0
176
     1
 90
       13
176
     1
 40
0.0
176
     1
 90
        0
176
     1
290
     0
176
     1
290
     1
176
     1
290
     1
176
     1
290
     0
176
     1
290
     0
176
     1
290
     0
176
     1
290
     0
176
     1
290
     0
176
     1
290
     0
176
     1
 90
       50
176
     1
 40
0.0
176
     1
 40
1.0
176
     1
 90
        0
176
     1
 62
    18
420
        0
176
     1
 90
       50
176
     1
 90
        3
176
     1
 62
     5
420
      255
176
     1
290
     0
176
     1
 90
       50
176
     1
 90
       50
176
     1
 90
       50
176
     1
290
     0
176
     1
 90
       50
176
     1
 62
   256
176
     0
 40
1.0
176
     0
 90
        2
176
     1
  1
strokes_ogs.tif
176
     1
290
     0
176
     1
 40
1.0
176
     1
 40
1.0
176
     1
1001
ACAD
1000
AcDbSavedByObjectVersion
1070
     0
  0
VISUALSTYLE
  5
3E
102
{ACAD_REACTORS
330
29
102
}
330
29
100
AcDbVisualStyle
  2
Shaded
 70
    27
177
     3
291
     0
 70
    58
 90
        2
176
     1
 90
        2
176
     1
 90
        1
176
     1
 90
        2
176
     1
 40
0.6
176
     1
 40
30.0
176
     1
 62
     7
420
 16777215
176
     1
 90
        0
176
     1
 90
        4
176
     1
 62
     7
176
     1
 62
   257
176
     1
 90
        1
176
     1
 90
        1
176
     1
 40
1.0
176
     1
 90
        8
176
     1
 62
   257
176
     1
 40
1.0
176
     1
 90
        1
176
     1
 90
        6
176
     1
 90
        2
176
     1
 62
     8
420
  7895160
176
     1
 90
        3
176
     1
 90
        0
176
     1
 90
        0
176
     1
290
     0
176
     1
 90
        5
176
     1
 40
0.0
176
     1
 90
        0
176
     1
290
     0
176
     1
290
     1
176
     1
290
     1
176
     1
290
     0
176
     1
290
     0
176
     1
290
     0
176
     1
290
     0
176
     1
290
     0
176
     1
290
     0
176
     1
 90
       50
176
     1
 40
0.0
176
     1
 40
1.0
176
     1
 90
        0
176
     1
 62
    18
420
        0
176
     1
 90
       50
176
     1
 90
        3
176
     1
 62
     5
420
      255
176
     1
290
     0
176
     1
 90
       50
176
     1
 90
       50
176
     1
 90
       50
176
     1
290
     0
176
     1
 90
       50
176
     1
 62
   256
176
     0
 40
1.0
176
     0
 90
        2
176
     1
  1
strokes_ogs.tif
176
     1
290
     0
176
     1
 40
1.0
176
     1
 40
1.0
176
     1
1001
ACAD
1000
AcDbSavedByObjectVersion
1070
     0
  0
VISUALSTYLE
  5
3D
102
{ACAD_REACTORS
330
29
102
}
330
29
100
AcDbVisualStyle
  2
Shaded with edges
 70
    26
177
     3
291
     0
 70
    58
 90
        2
176
     1
 90
        2
176
     1
 90
        1
176
     1
 90
        2
176
     1
 40
0.6
176
     1
 40
30.0
176
     1
 62
     7
420
 16777215
176
     1
 90
        1
176
     1
 90
        2
176
     1
 62
     7
176
     1
 62
   257
176
     1
 90
        2
176
     1
 90
        1
176
     1
 40
1.0
176
     1
 90
        8
176
     1
 62
   257
176
     1
 40
1.0
176
     1
 90
        1
176
     1
 90
        6
176
     1
 90
        2
176
     1
 62
     7
176
     1
 90
        3
176
     1
 90
        0
176
     1
 90
        0
176
     1
290
     0
176
     1
 90
        5
176
     1
 40
0.0
176
     1
 90
        0
176
     1
290
     0
176
     1
290
     1
176
     1
290
     1
176
     1
290
     0
176
     1
290
     0
176
     1
290
     0
176
     1
290
     0
176
     1
290
     0
176
     1
290
     0
176
     1
 90
       50
176
     1
 40
0.0
176
     1
 40
1.0
176
     1
 90
        0
176
     1
 62
    18
420
        0
176
     1
 90
       50
176
     1
 90
        3
176
     1
 62
     5
420
      255
176
     1
290
     0
176
     1
 90
       50
176
     1
 90
       50
176
     1
 90
       50
176
     1
290
     0
176
     1
 90
       50
176
     1
 62
   256
176
     0
 40
1.0
176
     0
 90
        2
176
     1
  1
strokes_ogs.tif
176
     1
290
     0
176
     1
 40
1.0
176
     1
 40
1.0
176
     1
1001
ACAD
1000
AcDbSavedByObjectVersion
1070
     0
  0
VISUALSTYLE
  5
3A
102
{ACAD_REACTORS
330
29
102
}
330
29
100
AcDbVisualStyle
  2
Shades of Gray
 70
    23
177
     3
291
     0
 70
    58
 90
        2
176
     1
 90
        2
176
     1
 90
        3
176
     1
 90
        0
176
     1
 40
0.6
176
     1
 40
30.0
176
     1
 62
     7
420
 16777215
176
     1
 90
        2
176
     1
 90
        2
176
     1
 62
     7
176
     1
 62
     7
176
     1
 90
        1
176
     1
 90
        1
176
     1
 40
40.0
176
     1
 90
        8
176
     1
 62
     7
176
     1
 40
1.0
176
     1
 90
        1
176
     1
 90
        6
176
     1
 90
        2
176
     1
 62
     7
176
     1
 90
        3
176
     1
 90
        0
176
     1
 90
        0
176
     1
290
     0
176
     1
 90
        1
176
     1
 40
0.0
176
     1
 90
        0
176
     1
290
     0
176
     1
290
     1
176
     1
290
     1
176
     1
290
     0
176
     1
290
     0
176
     1
290
     0
176
     1
290
     0
176
     1
290
     0
176
     1
290
     0
176
     1
 90
       50
176
     1
 40
0.0
176
     1
 40
1.0
176
     1
 90
        0
176
     1
 62
    18
420
        0
176
     1
 90
       50
176
     1
 90
        3
176
     1
 62
     5
420
      255
176
     1
290
     0
176
     1
 90
       50
176
     1
 90
       50
176
     1
 90
       50
176
     1
290
     0
176
     1
 90
       50
176
     1
 62
   256
176
     0
 40
1.0
176
     0
 90
        2
176
     1
  1
strokes_ogs.tif
176
     1
290
     0
176
     1
 40
1.0
176
     1
 40
1.0
176
     1
1001
ACAD
1000
AcDbSavedByObjectVersion
1070
     0
  0
VISUALSTYLE
  5
3B
102
{ACAD_REACTORS
330
29
102
}
330
29
100
AcDbVisualStyle
  2
Sketchy
 70
    24
177
     3
291
     0
 70
    58
 90
        1
176
     1
 90
        2
176
     1
 90
        2
176
     1
 90
        0
176
     1
 40
0.6
176
     1
 40
30.0
176
     1
 62
     7
420
 16777215
176
     1
 90
        2
176
     1
 90
        2
176
     1
 62
     7
176
     1
 62
     7
176
     1
 90
        1
176
     1
 90
        1
176
     1
 40
40.0
176
     1
 90
       11
176
     1
 62
     7
176
     1
 40
1.0
176
     1
 90
        1
176
     1
 90
        6
176
     1
 90
        2
176
     1
 62
     7
176
     1
 90
        6
176
     1
 90
        0
176
     1
 90
        0
176
     1
290
     0
176
     1
 90
        1
176
     1
 40
0.0
176
     1
 90
        0
176
     1
290
     0
176
     1
290
     1
176
     1
290
     1
176
     1
290
     0
176
     1
290
     0
176
     1
290
     0
176
     1
290
     0
176
     1
290
     0
176
     1
290
     0
176
     1
 90
       50
176
     1
 40
0.0
176
     1
 40
1.0
176
     1
 90
        0
176
     1
 62
    18
420
        0
176
     1
 90
       50
176
     1
 90
        3
176
     1
 62
     5
420
      255
176
     1
290
     0
176
     1
 90
       50
176
     1
 90
       50
176
     1
 90
       50
176
     1
290
     0
176
     1
 90
       50
176
     1
 62
   256
176
     0
 40
1.0
176
     0
 90
        2
176
     1
  1
strokes_ogs.tif
176
     1
290
     0
176
     1
 40
1.0
176
     1
 40
1.0
176
     1
1001
ACAD
1000
AcDbSavedByObjectVersion
1070
     0
  0
VISUALSTYLE
  5
36
102
{ACAD_REACTORS
330
29
102
}
330
29
100
AcDbVisualStyle
  2
Thicken
 70
    13
177
     3
291
     1
 70
    58
 90
        2
176
     1
 90
        2
176
     1
 90
        0
176
     1
 90
        0
176
     1
 40
0.6
176
     1
 40
30.0
176
     1
 62
     7
420
 16777215
176
     1
 90
        1
176
     1
 90
        4
176
     1
 62
     7
176
     1
 62
   257
176
     1
 90
        1
176
     1
 90
        1
176
     1
 40
1.0
176
     1
 90
       12
176
     1
 62
     7
176
     1
 40
1.0
176
     1
 90
        1
176
     1
 90
        6
176
     1
 90
        2
176
     1
 62
     7
176
     1
 90
        5
176
     1
 90
        0
176
     1
 90
        0
176
     1
290
     0
176
     1
 90
        1
176
     1
 40
0.0
176
     1
 90
        0
176
     1
290
     0
176
     1
290
     1
176
     1
290
     1
176
     1
290
     0
176
     1
290
     0
176
     1
290
     0
176
     1
290
     0
176
     1
290
     0
176
     1
290
     0
176
     1
 90
       50
176
     1
 40
0.0
176
     1
 40
1.0
176
     1
 90
        0
176
     1
 62
    18
420
        0
176
     1
 90
       50
176
     1
 90
        3
176
     1
 62
     5
420
      255
176
     1
290
     0
176
     1
 90
       50
176
     1
 90
       50
176
     1
 90
       50
176
     1
290
     0
176
     1
 90
       50
176
     1
 62
   256
176
     0
 40
1.0
176
     0
 90
        2
176
     1
  1
strokes_ogs.tif
176
     1
290
     0
176
     1
 40
1.0
176
     1
 40
1.0
176
     1
1001
ACAD
1000
AcDbSavedByObjectVersion
1070
     0
  0
VISUALSTYLE
  5
30
102
{ACAD_REACTORS
330
29
102
}
330
29
100
AcDbVisualStyle
  2
Wireframe
 70
     5
177
     3
291
     0
 70
    58
 90
        0
176
     1
 90
        2
176
     1
 90
        0
176
     1
 90
        0
176
     1
 40
0.6
176
     1
 40
30.0
176
     1
 62
     7
420
 16777215
176
     1
 90
        1
176
     1
 90
        4
176
     1
 62
     7
176
     1
 62
   257
176
     1
 90
        1
176
     1
 90
        1
176
     1
 40
1.0
176
     1
 90
        0
176
     1
 62
   257
176
     1
 40
1.0
176
     1
 90
        1
176
     1
 90
        6
176
     1
 90
        2
176
     1
 62
     7
176
     1
 90
        3
176
     1
 90
        0
176
     1
 90
        0
176
     1
290
     0
176
     1
 90
        1
176
     1
 40
0.0
176
     1
 90
        0
176
     1
290
     0
176
     1
290
     1
176
     1
290
     1
176
     1
290
     0
176
     1
290
     0
176
     1
290
     0
176
     1
290
     0
176
     1
290
     0
176
     1
290
     0
176
     1
 90
       50
176
     1
 40
0.0
176
     1
 40
1.0
176
     1
 90
        0
176
     1
 62
    18
420
        0
176
     1
 90
       50
176
     1
 90
        3
176
     1
 62
     5
420
      255
176
     1
290
     0
176
     1
 90
       50
176
     1
 90
       50
176
     1
 90
       50
176
     1
290
     0
176
     1
 90
       50
176
     1
 62
   256
176
     0
 40
1.0
176
     0
 90
        2
176
     1
  1
strokes_ogs.tif
176
     1
290
     0
176
     1
 40
1.0
176
     1
 40
1.0
176
     1
1001
ACAD
1000
AcDbSavedByObjectVersion
1070
     0
  0
VISUALSTYLE
  5
3C
102
{ACAD_REACTORS
330
29
102
}
330
29
100
AcDbVisualStyle
  2
X-Ray
 70
    25
177
     3
291
     0
 70
    58
 90
        2
176
     1
 90
        2
176
     1
 90
        1
176
     1
 90
        1
176
     1
 40
0.5
176
     1
 40
30.0
176
     1
 62
     7
420
 16777215
176
     1
 90
        1
176
     1
 90
        0
176
     1
 62
     7
176
     1
 62
   257
176
     1
 90
        1
176
     1
 90
        1
176
     1
 40
1.0
176
     1
 90
        8
176
     1
 62
     7
176
     1
 40
1.0
176
     1
 90
        1
176
     1
 90
        6
176
     1
 90
        2
176
     1
 62
     7
176
     1
 90
        3
176
     1
 90
        0
176
     1
 90
        0
176
     1
290
     0
176
     1
 90
       13
176
     1
 40
0.0
176
     1
 90
        0
176
     1
290
     0
176
     1
290
     1
176
     1
290
     1
176
     1
290
     0
176
     1
290
     0
176
     1
290
     0
176
     1
290
     0
176
     1
290
     0
176
     1
290
     0
176
     1
 90
       50
176
     1
 40
0.0
176
     1
 40
1.0
176
     1
 90
        0
176
     1
 62
    18
420
        0
176
     1
 90
       50
176
     1
 90
        3
176
     1
 62
     5
420
      255
176
     1
290
     0
176
     1
 90
       50
176
     1
 90
       50
176
     1
 90
       50
176
     1
290
     0
176
     1
 90
       50
176
     1
 62
   256
176
     0
 40
1.0
176
     0
 90
        2
176
     1
  1
strokes_ogs.tif
176
     1
290
     0
176
     1
 40
1.0
176
     1
 40
1.0
176
     1
1001
ACAD
1000
AcDbSavedByObjectVersion
1070
     0
  0
DICTIONARYVAR
  5
211
102
{ACAD_REACTORS
330
20C
102
}
330
20C
100
DictionaryVariables
280
     0
  1
1:1
  0
DICTIONARYVAR
  5
20E
102
{ACAD_REACTORS
330
20C
102
}
330
20C
100
DictionaryVariables
280
     0
  1
STANDARD
  0
DICTIONARYVAR
  5
20D
102
{ACAD_REACTORS
330
20C
102
}
330
20C
100
DictionaryVariables
280
     0
  1
STANDARD
  0
DICTIONARYVAR
  5
20F
102
{ACAD_REACTORS
330
20C
102
}
330
20C
100
DictionaryVariables
280
     0
  1
Imperial24
  0
DICTIONARYVAR
  5
210
102
{ACAD_REACTORS
330
20C
102
}
330
20C
100
DictionaryVariables
280
     0
  1
Imperial24
  0
DICTIONARY
  5
3AF
330
6B
100
AcDbDictionary
280
     1
281
     1
  3
ACAD_XREC_ROUNDTRIP
360
3B0
  0
DICTIONARY
  5
1A
330
19
100
AcDbDictionary
280
     1
281
     1
  3
BUMPTILE
360
1C
  3
DIFFUSETILE
360
1B
  3
OPACITYTILE
360
1F
  3
REFLECTIONTILE
360
1E
  3
REFRACTIONTILE
360
20
  3
SPECULARTILE
360
1D
  0
DICTIONARY
  5
12
330
11
100
AcDbDictionary
280
     1
281
     1
  3
BUMPTILE
360
14
  3
DIFFUSETILE
360
13
  3
OPACITYTILE
360
17
  3
REFLECTIONTILE
360
16
  3
REFRACTIONTILE
360
18
  3
SPECULARTILE
360
15
  0
DICTIONARY
  5
22
330
21
100
AcDbDictionary
280
     1
281
     1
  3
BUMPTILE
360
24
  3
DIFFUSETILE
360
23
  3
OPACITYTILE
360
27
  3
REFLECTIONTILE
360
26
  3
REFRACTIONTILE
360
28
  3
SPECULARTILE
360
25
  0
DICTIONARY
  5
3AD
330
69
100
AcDbDictionary
280
     1
281
     1
  3
ACAD_XREC_ROUNDTRIP
360
3AE
  0
DICTIONARY
  5
212
330
65
100
AcDbDictionary
280
     1
281
     1
  3
ACAD_ROUNDTRIP_2008_TABLESTYLE_CELLSTYLEMAP
360
3AB
  0
XRECORD
  5
3B0
102
{ACAD_REACTORS
330
3AF
102
}
330
3AF
100
AcDbXrecord
280
     1
102
DISPLAYNAME
  1
Imperial24
102
FLAGS
 90
        0
  0
XRECORD
  5
1C
102
{ACAD_REACTORS
330
1A
102
}
330
1A
100
AcDbXrecord
280
     1
270
     1
271
     1
  0
XRECORD
  5
1B
102
{ACAD_REACTORS
330
1A
102
}
330
1A
100
AcDbXrecord
280
     1
270
     1
271
     1
  0
XRECORD
  5
1F
102
{ACAD_REACTORS
330
1A
102
}
330
1A
100
AcDbXrecord
280
     1
270
     1
271
     1
  0
XRECORD
  5
1E
102
{ACAD_REACTORS
330
1A
102
}
330
1A
100
AcDbXrecord
280
     1
270
     1
271
     1
  0
XRECORD
  5
20
102
{ACAD_REACTORS
330
1A
102
}
330
1A
100
AcDbXrecord
280
     1
270
     1
271
     1
  0
XRECORD
  5
1D
102
{ACAD_REACTORS
330
1A
102
}
330
1A
100
AcDbXrecord
280
     1
270
     1
271
     1
  0
XRECORD
  5
14
102
{ACAD_REACTORS
330
12
102
}
330
12
100
AcDbXrecord
280
     1
270
     1
271
     1
  0
XRECORD
  5
13
102
{ACAD_REACTORS
330
12
102
}
330
12
100
AcDbXrecord
280
     1
270
     1
271
     1
  0
XRECORD
  5
17
102
{ACAD_REACTORS
330
12
102
}
330
12
100
AcDbXrecord
280
     1
270
     1
271
     1
  0
XRECORD
  5
16
102
{ACAD_REACTORS
330
12
102
}
330
12
100
AcDbXrecord
280
     1
270
     1
271
     1
  0
XRECORD
  5
18
102
{ACAD_REACTORS
330
12
102
}
330
12
100
AcDbXrecord
280
     1
270
     1
271
     1
  0
XRECORD
  5
15
102
{ACAD_REACTORS
330
12
102
}
330
12
100
AcDbXrecord
280
     1
270
     1
271
     1
  0
XRECORD
  5
24
102
{ACAD_REACTORS
330
22
102
}
330
22
100
AcDbXrecord
280
     1
270
     1
271
     1
  0
XRECORD
  5
23
102
{ACAD_REACTORS
330
22
102
}
330
22
100
AcDbXrecord
280
     1
270
     1
271
     1
  0
XRECORD
  5
27
102
{ACAD_REACTORS
330
22
102
}
330
22
100
AcDbXrecord
280
     1
270
     1
271
     1
  0
XRECORD
  5
26
102
{ACAD_REACTORS
330
22
102
}
330
22
100
AcDbXrecord
280
     1
270
     1
271
     1
  0
XRECORD
  5
28
102
{ACAD_REACTORS
330
22
102
}
330
22
100
AcDbXrecord
280
     1
270
     1
271
     1
  0
XRECORD
  5
25
102
{ACAD_REACTORS
330
22
102
}
330
22
100
AcDbXrecord
280
     1
270
     1
271
     1
  0
XRECORD
  5
3AE
102
{ACAD_REACTORS
330
3AD
102
}
330
3AD
100
AcDbXrecord
280
     1
102
DISPLAYNAME
  1
Imperial24
102
FLAGS
 90
        0
  0
CELLSTYLEMAP
  5
3AB
102
{ACAD_REACTORS
330
212
102
}
330
212
100
AcDbCellStyleMap
 90
        3
300
CELLSTYLE
  1
TABLEFORMAT_BEGIN
 90
        5
170
     1
 91
        0
 92
    32768
 62
   257
 93
        1
300
CONTENTFORMAT
  1
CONTENTFORMAT_BEGIN
 90
        0
 91
        0
 92
      512
 93
        0
300

 40
0.0
140
1.0
 94
        5
 62
     0
340
55
144
0.25
309
CONTENTFORMAT_END
171
     1
301
MARGIN
  1
CELLMARGIN_BEGIN
 40
0.06
 40
0.06
 40
0.06
 40
0.06
 40
0.18
 40
0.18
309
CELLMARGIN_END
 94
        6
 95
        1
302
GRIDFORMAT
  1
GRIDFORMAT_BEGIN
 90
        0
 91
        1
 62
     0
 92
       -2
340
0
 93
        0
 40
0.045
309
GRIDFORMAT_END
 95
        2
302
GRIDFORMAT
  1
GRIDFORMAT_BEGIN
 90
        0
 91
        1
 62
     0
 92
       -2
340
0
 93
        0
 40
0.045
309
GRIDFORMAT_END
 95
        4
302
GRIDFORMAT
  1
GRIDFORMAT_BEGIN
 90
        0
 91
        1
 62
     0
 92
       -2
340
0
 93
        0
 40
0.045
309
GRIDFORMAT_END
 95
        8
302
GRIDFORMAT
  1
GRIDFORMAT_BEGIN
 90
        0
 91
        1
 62
     0
 92
       -2
340
0
 93
        0
 40
0.045
309
GRIDFORMAT_END
 95
       16
302
GRIDFORMAT
  1
GRIDFORMAT_BEGIN
 90
        0
 91
        1
 62
     0
 92
       -2
340
0
 93
        0
 40
0.045
309
GRIDFORMAT_END
 95
       32
302
GRIDFORMAT
  1
GRIDFORMAT_BEGIN
 90
        0
 91
        1
 62
     0
 92
       -2
340
0
 93
        0
 40
0.045
309
GRIDFORMAT_END
309
TABLEFORMAT_END
  1
CELLSTYLE_BEGIN
 90
        1
 91
        1
300
_TITLE
309
CELLSTYLE_END
300
CELLSTYLE
  1
TABLEFORMAT_BEGIN
 90
        5
170
     1
 91
        0
 92
        0
 62
   257
 93
        1
300
CONTENTFORMAT
  1
CONTENTFORMAT_BEGIN
 90
        0
 91
        0
 92
      512
 93
        0
300

 40
0.0
140
1.0
 94
        5
 62
     0
340
55
144
0.18
309
CONTENTFORMAT_END
171
     1
301
MARGIN
  1
CELLMARGIN_BEGIN
 40
0.06
 40
0.06
 40
0.06
 40
0.06
 40
0.18
 40
0.18
309
CELLMARGIN_END
 94
        6
 95
        1
302
GRIDFORMAT
  1
GRIDFORMAT_BEGIN
 90
        0
 91
        1
 62
     0
 92
       -2
340
0
 93
        0
 40
0.045
309
GRIDFORMAT_END
 95
        2
302
GRIDFORMAT
  1
GRIDFORMAT_BEGIN
 90
        0
 91
        1
 62
     0
 92
       -2
340
0
 93
        0
 40
0.045
309
GRIDFORMAT_END
 95
        4
302
GRIDFORMAT
  1
GRIDFORMAT_BEGIN
 90
        0
 91
        1
 62
     0
 92
       -2
340
0
 93
        0
 40
0.045
309
GRIDFORMAT_END
 95
        8
302
GRIDFORMAT
  1
GRIDFORMAT_BEGIN
 90
        0
 91
        1
 62
     0
 92
       -2
340
0
 93
        0
 40
0.045
309
GRIDFORMAT_END
 95
       16
302
GRIDFORMAT
  1
GRIDFORMAT_BEGIN
 90
        0
 91
        1
 62
     0
 92
       -2
340
0
 93
        0
 40
0.045
309
GRIDFORMAT_END
 95
       32
302
GRIDFORMAT
  1
GRIDFORMAT_BEGIN
 90
        0
 91
        1
 62
     0
 92
       -2
340
0
 93
        0
 40
0.045
309
GRIDFORMAT_END
309
TABLEFORMAT_END
  1
CELLSTYLE_BEGIN
 90
        2
 91
        1
300
_HEADER
309
CELLSTYLE_END
300
CELLSTYLE
  1
TABLEFORMAT_BEGIN
 90
        5
170
     1
 91
        0
 92
        0
 62
   257
 93
        1
300
CONTENTFORMAT
  1
CONTENTFORMAT_BEGIN
 90
        0
 91
        0
 92
      512
 93
        0
300

 40
0.0
140
1.0
 94
        2
 62
     0
340
55
144
0.18
309
CONTENTFORMAT_END
171
     1
301
MARGIN
  1
CELLMARGIN_BEGIN
 40
0.06
 40
0.06
 40
0.06
 40
0.06
 40
0.18
 40
0.18
309
CELLMARGIN_END
 94
        6
 95
        1
302
GRIDFORMAT
  1
GRIDFORMAT_BEGIN
 90
        0
 91
        1
 62
     0
 92
       -2
340
0
 93
        0
 40
0.045
309
GRIDFORMAT_END
 95
        2
302
GRIDFORMAT
  1
GRIDFORMAT_BEGIN
 90
        0
 91
        1
 62
     0
 92
       -2
340
0
 93
        0
 40
0.045
309
GRIDFORMAT_END
 95
        4
302
GRIDFORMAT
  1
GRIDFORMAT_BEGIN
 90
        0
 91
        1
 62
     0
 92
       -2
340
0
 93
        0
 40
0.045
309
GRIDFORMAT_END
 95
        8
302
GRIDFORMAT
  1
GRIDFORMAT_BEGIN
 90
        0
 91
        1
 62
     0
 92
       -2
340
0
 93
        0
 40
0.045
309
GRIDFORMAT_END
 95
       16
302
GRIDFORMAT
  1
GRIDFORMAT_BEGIN
 90
        0
 91
        1
 62
     0
 92
       -2
340
0
 93
        0
 40
0.045
309
GRIDFORMAT_END
 95
       32
302
GRIDFORMAT
  1
GRIDFORMAT_BEGIN
 90
        0
 91
        1
 62
     0
 92
       -2
340
0
 93
        0
 40
0.045
309
GRIDFORMAT_END
309
TABLEFORMAT_END
  1
CELLSTYLE_BEGIN
 90
        3
 91
        2
300
_DATA
309
CELLSTYLE_END
  0
ENDSEC
  0
EOF
