  0
SECTION
  2
HEADER
  9
$ACADVER
  1
AC1027
  9
$ACADMAINTVER
 70
   125
  9
$DWGCODEPAGE
  3
ANSI_1252
  9
$LASTSAVEDBY
  1
andrea.ragusa
  9
$REQUIREDVERSIONS
160
                 0
  9
$INSBASE
 10
0.0
 20
0.0
 30
0.0
  9
$EXTMIN
 10
0.0192270521298497
 20
0.0589148761458773
 30
-0.0015258207003583
  9
$EXTMAX
 10
14.31060841576038
 20
9.575821279752744
 30
0.0000000349246037
  9
$LIMMIN
 10
0.0
 20
0.0
  9
$LIMMAX
 10
420.0
 20
297.0
  9
$ORTHOMODE
 70
     0
  9
$REGENMODE
 70
     1
  9
$FILLMODE
 70
     1
  9
$QTEXTMODE
 70
     0
  9
$MIRRTEXT
 70
     0
  9
$LTSCALE
 40
1.0
  9
$ATTMODE
 70
     1
  9
$TEXTSIZE
 40
2.5
  9
$TRACEWID
 40
1.0
  9
$TEXTSTYLE
  7
Standard
  9
$CLAYER
  8
0
  9
$CELTYPE
  6
ByLayer
  9
$CECOLOR
 62
   256
  9
$CELTSCALE
 40
1.0
  9
$DISPSILH
 70
     0
  9
$DIMSCALE
 40
1.0
  9
$DIMASZ
 40
2.5
  9
$DIMEXO
 40
0.625
  9
$DIMDLI
 40
3.75
  9
$DIMRND
 40
0.0
  9
$DIMDLE
 40
0.0
  9
$DIMEXE
 40
1.25
  9
$DIMTP
 40
0.0
  9
$DIMTM
 40
0.0
  9
$DIMTXT
 40
2.5
  9
$DIMCEN
 40
2.5
  9
$DIMTSZ
 40
0.0
  9
$DIMTOL
 70
     0
  9
$DIMLIM
 70
     0
  9
$DIMTIH
 70
     0
  9
$DIMTOH
 70
     0
  9
$DIMSE1
 70
     0
  9
$DIMSE2
 70
     0
  9
$DIMTAD
 70
     1
  9
$DIMZIN
 70
     8
  9
$DIMBLK
  1

  9
$DIMASO
 70
     1
  9
$DIMSHO
 70
     1
  9
$DIMPOST
  1

  9
$DIMAPOST
  1

  9
$DIMALT
 70
     0
  9
$DIMALTD
 70
     3
  9
$DIMALTF
 40
0.03937007874016
  9
$DIMLFAC
 40
1.0
  9
$DIMTOFL
 70
     1
  9
$DIMTVP
 40
0.0
  9
$DIMTIX
 70
     0
  9
$DIMSOXD
 70
     0
  9
$DIMSAH
 70
     0
  9
$DIMBLK1
  1

  9
$DIMBLK2
  1

  9
$DIMSTYLE
  2
ISO-25
  9
$DIMCLRD
 70
     0
  9
$DIMCLRE
 70
     0
  9
$DIMCLRT
 70
     0
  9
$DIMTFAC
 40
1.0
  9
$DIMGAP
 40
0.625
  9
$DIMJUST
 70
     0
  9
$DIMSD1
 70
     0
  9
$DIMSD2
 70
     0
  9
$DIMTOLJ
 70
     0
  9
$DIMTZIN
 70
     8
  9
$DIMALTZ
 70
     0
  9
$DIMALTTZ
 70
     0
  9
$DIMUPT
 70
     0
  9
$DIMDEC
 70
     2
  9
$DIMTDEC
 70
     2
  9
$DIMALTU
 70
     2
  9
$DIMALTTD
 70
     3
  9
$DIMTXSTY
  7
Standard
  9
$DIMAUNIT
 70
     0
  9
$DIMADEC
 70
     0
  9
$DIMALTRND
 40
0.0
  9
$DIMAZIN
 70
     0
  9
$DIMDSEP
 70
    44
  9
$DIMATFIT
 70
     3
  9
$DIMFRAC
 70
     0
  9
$DIMLDRBLK
  1

  9
$DIMLUNIT
 70
     2
  9
$DIMLWD
 70
    -2
  9
$DIMLWE
 70
    -2
  9
$DIMTMOVE
 70
     0
  9
$DIMFXL
 40
1.0
  9
$DIMFXLON
 70
     0
  9
$DIMJOGANG
 40
0.7853981633974483
  9
$DIMTFILL
 70
     0
  9
$DIMTFILLCLR
 70
     0
  9
$DIMARCSYM
 70
     0
  9
$DIMLTYPE
  6

  9
$DIMLTEX1
  6

  9
$DIMLTEX2
  6

  9
$DIMTXTDIRECTION
 70
     0
  9
$LUNITS
 70
     2
  9
$LUPREC
 70
     4
  9
$SKETCHINC
 40
1.0
  9
$FILLETRAD
 40
0.0
  9
$AUNITS
 70
     0
  9
$AUPREC
 70
     0
  9
$MENU
  1
.
  9
$ELEVATION
 40
0.0
  9
$PELEVATION
 40
0.0
  9
$THICKNESS
 40
0.0
  9
$LIMCHECK
 70
     0
  9
$CHAMFERA
 40
0.0
  9
$CHAMFERB
 40
0.0
  9
$CHAMFERC
 40
0.0
  9
$CHAMFERD
 40
0.0
  9
$SKPOLY
 70
     0
  9
$TDCREATE
 40
2459045.724652778
  9
$TDUCREATE
 40
2459045.641319445
  9
$TDUPDATE
 40
2459045.725011574
  9
$TDUUPDATE
 40
2459045.641678241
  9
$TDINDWG
 40
0.0003587963
  9
$TDUSRTIMER
 40
0.0003587963
  9
$USRTIMER
 70
     1
  9
$ANGBASE
 50
0.0
  9
$ANGDIR
 70
     0
  9
$PDMODE
 70
     0
  9
$PDSIZE
 40
0.0
  9
$PLINEWID
 40
0.0
  9
$SPLFRAME
 70
     0
  9
$SPLINETYPE
 70
     6
  9
$SPLINESEGS
 70
     8
  9
$HANDSEED
  5
6AE
  9
$SURFTAB1
 70
     6
  9
$SURFTAB2
 70
     6
  9
$SURFTYPE
 70
     6
  9
$SURFU
 70
     6
  9
$SURFV
 70
     6
  9
$UCSBASE
  2

  9
$UCSNAME
  2

  9
$UCSORG
 10
0.0
 20
0.0
 30
0.0
  9
$UCSXDIR
 10
1.0
 20
0.0
 30
0.0
  9
$UCSYDIR
 10
0.0
 20
1.0
 30
0.0
  9
$UCSORTHOREF
  2

  9
$UCSORTHOVIEW
 70
     0
  9
$UCSORGTOP
 10
0.0
 20
0.0
 30
0.0
  9
$UCSORGBOTTOM
 10
0.0
 20
0.0
 30
0.0
  9
$UCSORGLEFT
 10
0.0
 20
0.0
 30
0.0
  9
$UCSORGRIGHT
 10
0.0
 20
0.0
 30
0.0
  9
$UCSORGFRONT
 10
0.0
 20
0.0
 30
0.0
  9
$UCSORGBACK
 10
0.0
 20
0.0
 30
0.0
  9
$PUCSBASE
  2

  9
$PUCSNAME
  2

  9
$PUCSORG
 10
0.0
 20
0.0
 30
0.0
  9
$PUCSXDIR
 10
1.0
 20
0.0
 30
0.0
  9
$PUCSYDIR
 10
0.0
 20
1.0
 30
0.0
  9
$PUCSORTHOREF
  2

  9
$PUCSORTHOVIEW
 70
     0
  9
$PUCSORGTOP
 10
0.0
 20
0.0
 30
0.0
  9
$PUCSORGBOTTOM
 10
0.0
 20
0.0
 30
0.0
  9
$PUCSORGLEFT
 10
0.0
 20
0.0
 30
0.0
  9
$PUCSORGRIGHT
 10
0.0
 20
0.0
 30
0.0
  9
$PUCSORGFRONT
 10
0.0
 20
0.0
 30
0.0
  9
$PUCSORGBACK
 10
0.0
 20
0.0
 30
0.0
  9
$USERI1
 70
     0
  9
$USERI2
 70
     0
  9
$USERI3
 70
     0
  9
$USERI4
 70
     0
  9
$USERI5
 70
     0
  9
$USERR1
 40
0.0
  9
$USERR2
 40
0.0
  9
$USERR3
 40
0.0
  9
$USERR4
 40
0.0
  9
$USERR5
 40
0.0
  9
$WORLDVIEW
 70
     1
  9
$SHADEDGE
 70
     3
  9
$SHADEDIF
 70
    70
  9
$TILEMODE
 70
     1
  9
$MAXACTVP
 70
    64
  9
$PINSBASE
 10
0.0
 20
0.0
 30
0.0
  9
$PLIMCHECK
 70
     0
  9
$PEXTMIN
 10
0.0
 20
0.0
 30
0.0
  9
$PEXTMAX
 10
0.0
 20
0.0
 30
0.0
  9
$PLIMMIN
 10
0.0
 20
0.0
  9
$PLIMMAX
 10
12.0
 20
9.0
  9
$UNITMODE
 70
     0
  9
$VISRETAIN
 70
     1
  9
$PLINEGEN
 70
     0
  9
$PSLTSCALE
 70
     1
  9
$TREEDEPTH
 70
  3020
  9
$CMLSTYLE
  2
Standard
  9
$CMLJUST
 70
     0
  9
$CMLSCALE
 40
20.0
  9
$PROXYGRAPHICS
 70
     1
  9
$MEASUREMENT
 70
     1
  9
$CELWEIGHT
370
    -1
  9
$ENDCAPS
280
     0
  9
$JOINSTYLE
280
     0
  9
$LWDISPLAY
290
     0
  9
$INSUNITS
 70
     4
  9
$HYPERLINKBASE
  1

  9
$STYLESHEET
  1

  9
$XEDIT
290
     1
  9
$CEPSNTYPE
380
     0
  9
$PSTYLEMODE
290
     1
  9
$FINGERPRINTGUID
  2
{8AC72B71-872C-4C4B-BBFA-6925AE96EF4A}
  9
$VERSIONGUID
  2
{402F4D43-5DE4-5B44-B682-B0B2A1F2848C}
  9
$EXTNAMES
290
     1
  9
$PSVPSCALE
 40
0.0
  9
$OLESTARTUP
290
     0
  9
$SORTENTS
280
   127
  9
$INDEXCTL
280
     0
  9
$HIDETEXT
280
     1
  9
$XCLIPFRAME
280
     2
  9
$HALOGAP
280
     0
  9
$OBSCOLOR
 70
   257
  9
$OBSLTYPE
280
     0
  9
$INTERSECTIONDISPLAY
280
     0
  9
$INTERSECTIONCOLOR
 70
   257
  9
$DIMASSOC
280
     2
  9
$PROJECTNAME
  1

  9
$CAMERADISPLAY
290
     0
  9
$LENSLENGTH
 40
50.0
  9
$CAMERAHEIGHT
 40
0.0
  9
$STEPSPERSEC
 40
2.0
  9
$STEPSIZE
 40
6.0
  9
$3DDWFPREC
 40
2.0
  9
$PSOLWIDTH
 40
5.0
  9
$PSOLHEIGHT
 40
80.0
  9
$LOFTANG1
 40
1.570796326794896
  9
$LOFTANG2
 40
1.570796326794896
  9
$LOFTMAG1
 40
0.0
  9
$LOFTMAG2
 40
0.0
  9
$LOFTPARAM
 70
     7
  9
$LOFTNORMALS
280
     1
  9
$LATITUDE
 40
37.795
  9
$LONGITUDE
 40
-122.394
  9
$NORTHDIRECTION
 40
0.0
  9
$TIMEZONE
 70
 -8000
  9
$LIGHTGLYPHDISPLAY
280
     1
  9
$TILEMODELIGHTSYNCH
280
     1
  9
$CMATERIAL
347
EC
  9
$SOLIDHIST
280
     0
  9
$SHOWHIST
280
     1
  9
$DWFFRAME
280
     2
  9
$DGNFRAME
280
     0
  9
$REALWORLDSCALE
290
     1
  9
$INTERFERECOLOR
 62
     1
  9
$INTERFEREOBJVS
345
F9
  9
$INTERFEREVPVS
346
F6
  9
$CSHADOW
280
     0
  9
$SHADOWPLANELOCATION
 40
0.0
  0
ENDSEC
  0
SECTION
  2
CLASSES
  0
CLASS
  1
ACDBDICTIONARYWDFLT
  2
AcDbDictionaryWithDefault
  3
ObjectDBX Classes
 90
        0
 91
        1
280
     0
281
     0
  0
CLASS
  1
DICTIONARYVAR
  2
AcDbDictionaryVar
  3
ObjectDBX Classes
 90
        0
 91
       11
280
     0
281
     0
  0
CLASS
  1
TABLESTYLE
  2
AcDbTableStyle
  3
ObjectDBX Classes
 90
     4095
 91
        1
280
     0
281
     0
  0
CLASS
  1
MATERIAL
  2
AcDbMaterial
  3
ObjectDBX Classes
 90
     1153
 91
        3
280
     0
281
     0
  0
CLASS
  1
VISUALSTYLE
  2
AcDbVisualStyle
  3
ObjectDBX Classes
 90
     4095
 91
       24
280
     0
281
     0
  0
CLASS
  1
SCALE
  2
AcDbScale
  3
ObjectDBX Classes
 90
     1153
 91
       17
280
     0
281
     0
  0
CLASS
  1
MLEADERSTYLE
  2
AcDbMLeaderStyle
  3
ACDB_MLEADERSTYLE_CLASS
 90
     4095
 91
        2
280
     0
281
     0
  0
CLASS
  1
CELLSTYLEMAP
  2
AcDbCellStyleMap
  3
ObjectDBX Classes
 90
     1152
 91
        1
280
     0
281
     0
  0
CLASS
  1
EXACXREFPANELOBJECT
  2
ExAcXREFPanelObject
  3
EXAC_ESW
 90
     1025
 91
        0
280
     0
281
     0
  0
CLASS
  1
NPOCOLLECTION
  2
AcDbImpNonPersistentObjectsCollection
  3
ObjectDBX Classes
 90
     1153
 91
        0
280
     0
281
     0
  0
CLASS
  1
LAYER_INDEX
  2
AcDbLayerIndex
  3
ObjectDBX Classes
 90
        0
 91
        0
280
     0
281
     0
  0
CLASS
  1
SPATIAL_INDEX
  2
AcDbSpatialIndex
  3
ObjectDBX Classes
 90
        0
 91
        0
280
     0
281
     0
  0
CLASS
  1
IDBUFFER
  2
AcDbIdBuffer
  3
ObjectDBX Classes
 90
        0
 91
        0
280
     0
281
     0
  0
CLASS
  1
ACDBSECTIONVIEWSTYLE
  2
AcDbSectionViewStyle
  3
ObjectDBX Classes
 90
     1025
 91
        2
280
     0
281
     0
  0
CLASS
  1
ACDBDETAILVIEWSTYLE
  2
AcDbDetailViewStyle
  3
ObjectDBX Classes
 90
     1025
 91
        2
280
     0
281
     0
  0
CLASS
  1
SORTENTSTABLE
  2
AcDbSortentsTable
  3
ObjectDBX Classes
 90
        0
 91
        1
280
     0
281
     0
  0
ENDSEC
  0
SECTION
  2
TABLES
  0
TABLE
  2
VPORT
  5
8
330
0
100
AcDbSymbolTable
 70
     1
1001
ACAD
1000
DbSaveVer
1071
      208
  0
VPORT
  5
EA
330
8
100
AcDbSymbolTableRecord
100
AcDbViewportTableRecord
  2
*Active
 70
     0
 10
0.0
 20
0.0
 11
1.0
 21
1.0
 12
7.164917733945117
 22
4.817368077949311
 13
0.0
 23
0.0
 14
10.0
 24
10.0
 15
10.0
 25
10.0
 16
0.0
 26
0.0
 36
1.0
 17
0.0
 27
0.0
 37
0.0
 40
9.585046544921475
 41
2.283154121863799
 42
50.0
 43
0.0
 44
0.0
 50
0.0
 51
0.0
 71
     0
 72
  1000
 73
     1
 74
     3
 75
     0
 76
     1
 77
     0
 78
     0
281
     0
 65
     1
110
0.0
120
0.0
130
0.0
111
1.0
121
0.0
131
0.0
112
0.0
122
1.0
132
0.0
 79
     0
146
0.0
348
F5
 60
     3
 61
     5
292
     1
282
     1
141
0.0
142
0.0
 63
   250
421
  3355443
1001
ACAD_NAV_VCDISPLAY
1070
     3
  0
ENDTAB
  0
TABLE
  2
LTYPE
  5
5
330
0
100
AcDbSymbolTable
 70
     1
  0
LTYPE
  5
14
330
5
100
AcDbSymbolTableRecord
100
AcDbLinetypeTableRecord
  2
ByBlock
 70
     0
  3

 72
    65
 73
     0
 40
0.0
  0
LTYPE
  5
15
330
5
100
AcDbSymbolTableRecord
100
AcDbLinetypeTableRecord
  2
ByLayer
 70
     0
  3

 72
    65
 73
     0
 40
0.0
  0
LTYPE
  5
16
330
5
100
AcDbSymbolTableRecord
100
AcDbLinetypeTableRecord
  2
Continuous
 70
     0
  3
Solid line
 72
    65
 73
     0
 40
0.0
  0
ENDTAB
  0
TABLE
  2
LAYER
  5
2
102
{ACAD_XDICTIONARY
360
1FF
102
}
330
0
100
AcDbSymbolTable
 70
     2
  0
LAYER
  5
10
102
{ACAD_XDICTIONARY
360
13C
102
}
330
2
100
AcDbSymbolTableRecord
100
AcDbLayerTableRecord
  2
0
 70
     0
 62
     7
  6
Continuous
370
    -3
390
F
347
EE
348
0
  0
LAYER
  5
28C
330
2
100
AcDbSymbolTableRecord
100
AcDbLayerTableRecord
  2
Livello 1
 70
     0
 62
     7
  6
Continuous
370
    -3
390
F
347
EE
348
0
  0
ENDTAB
  0
TABLE
  2
STYLE
  5
3
330
0
100
AcDbSymbolTable
 70
     2
  0
STYLE
  5
11
330
3
100
AcDbSymbolTableRecord
100
AcDbTextStyleTableRecord
  2
Standard
 70
     0
 40
0.0
 41
1.0
 50
0.0
 71
     0
 42
2.5
  3
arial.ttf
  4

1001
ACAD
1000
Arial
1071
       34
  0
STYLE
  5
132
330
3
100
AcDbSymbolTableRecord
100
AcDbTextStyleTableRecord
  2
Annotativa
 70
     0
 40
0.0
 41
1.0
 50
0.0
 71
     0
 42
2.5
  3
arial.ttf
  4

1001
AcadAnnotative
1000
AnnotativeData
1002
{
1070
     1
1070
     1
1002
}
1001
ACAD
1000
Arial
1071
       34
  0
ENDTAB
  0
TABLE
  2
VIEW
  5
6
330
0
100
AcDbSymbolTable
 70
     0
  0
ENDTAB
  0
TABLE
  2
UCS
  5
7
330
0
100
AcDbSymbolTable
 70
     0
  0
ENDTAB
  0
TABLE
  2
APPID
  5
9
330
0
100
AcDbSymbolTable
 70
     8
  0
APPID
  5
12
330
9
100
AcDbSymbolTableRecord
100
AcDbRegAppTableRecord
  2
ACAD
 70
     0
  0
APPID
  5
9E
330
9
100
AcDbSymbolTableRecord
100
AcDbRegAppTableRecord
  2
ACAD_PSEXT
 70
     0
  0
APPID
  5
133
330
9
100
AcDbSymbolTableRecord
100
AcDbRegAppTableRecord
  2
AcadAnnoPO
 70
     0
  0
APPID
  5
134
330
9
100
AcDbSymbolTableRecord
100
AcDbRegAppTableRecord
  2
AcadAnnotative
 70
     0
  0
APPID
  5
135
330
9
100
AcDbSymbolTableRecord
100
AcDbRegAppTableRecord
  2
ACAD_DSTYLE_DIMJAG
 70
     0
  0
APPID
  5
136
330
9
100
AcDbSymbolTableRecord
100
AcDbRegAppTableRecord
  2
ACAD_DSTYLE_DIMTALN
 70
     0
  0
APPID
  5
165
330
9
100
AcDbSymbolTableRecord
100
AcDbRegAppTableRecord
  2
ACAD_MLEADERVER
 70
     0
  0
APPID
  5
217
330
9
100
AcDbSymbolTableRecord
100
AcDbRegAppTableRecord
  2
ACAD_NAV_VCDISPLAY
 70
     0
  0
ENDTAB
  0
TABLE
  2
DIMSTYLE
  5
A
330
0
100
AcDbSymbolTable
 70
     3
100
AcDbDimStyleTable
 71
     2
340
27
340
137
  0
DIMSTYLE
105
1B0
330
A
100
AcDbSymbolTableRecord
100
AcDbDimStyleTableRecord
  2
Standard
 70
     0
340
11
  0
DIMSTYLE
105
137
330
A
100
AcDbSymbolTableRecord
100
AcDbDimStyleTableRecord
  2
Annotativa
 70
     0
 40
0.0
 41
2.5
 42
0.625
 43
3.75
 44
1.25
 73
     0
 74
     0
 77
     1
 78
     8
140
2.5
141
2.5
143
0.03937007874016
147
0.625
171
     3
172
     1
271
     2
272
     2
274
     3
278
    44
283
     0
284
     8
340
11
1001
AcadAnnotative
1000
AnnotativeData
1002
{
1070
     1
1070
     1
1002
}
1001
ACAD_DSTYLE_DIMJAG
1070
   388
1040
1.5
1001
ACAD_DSTYLE_DIMTALN
1070
   392
1070
     0
  0
DIMSTYLE
105
27
330
A
100
AcDbSymbolTableRecord
100
AcDbDimStyleTableRecord
  2
ISO-25
 70
     0
 41
2.5
 42
0.625
 43
3.75
 44
1.25
 73
     0
 74
     0
 77
     1
 78
     8
140
2.5
141
2.5
143
0.03937007874016
147
0.625
171
     3
172
     1
271
     2
272
     2
274
     3
278
    44
283
     0
284
     8
340
11
  0
ENDTAB
  0
TABLE
  2
BLOCK_RECORD
  5
1
330
0
100
AcDbSymbolTable
 70
     2
  0
BLOCK_RECORD
  5
1F
102
{ACAD_XDICTIONARY
360
1CE
102
}
330
1
100
AcDbSymbolTableRecord
100
AcDbBlockTableRecord
  2
*Model_Space
340
22
 70
     0
280
     1
281
     0
  0
BLOCK_RECORD
  5
D2
330
1
100
AcDbSymbolTableRecord
100
AcDbBlockTableRecord
  2
*Paper_Space
340
D3
 70
     0
280
     1
281
     0
  0
BLOCK_RECORD
  5
D6
330
1
100
AcDbSymbolTableRecord
100
AcDbBlockTableRecord
  2
*Paper_Space0
340
D7
 70
     0
280
     1
281
     0
  0
ENDTAB
  0
ENDSEC
  0
SECTION
  2
BLOCKS
  0
BLOCK
  5
20
330
1F
100
AcDbEntity
  8
0
100
AcDbBlockBegin
  2
*Model_Space
 70
     0
 10
0.0
 20
0.0
 30
0.0
  3
*Model_Space
  1

  0
ENDBLK
  5
21
330
1F
100
AcDbEntity
  8
0
100
AcDbBlockEnd
  0
BLOCK
  5
D4
330
D2
100
AcDbEntity
 67
     1
  8
0
100
AcDbBlockBegin
  2
*Paper_Space
 70
     0
 10
0.0
 20
0.0
 30
0.0
  3
*Paper_Space
  1

  0
ENDBLK
  5
D5
330
D2
100
AcDbEntity
 67
     1
  8
0
100
AcDbBlockEnd
  0
BLOCK
  5
D8
330
D6
100
AcDbEntity
 67
     1
  8
0
100
AcDbBlockBegin
  2
*Paper_Space0
 70
     0
 10
0.0
 20
0.0
 30
0.0
  3
*Paper_Space0
  1

  0
ENDBLK
  5
D9
330
D6
100
AcDbEntity
 67
     1
  8
0
100
AcDbBlockEnd
  0
ENDSEC
  0
SECTION
  2
ENTITIES
  0
MTEXT
  5
49A
330
1F
100
AcDbEntity
  8
Livello 1
100
AcDbMText
 10
0.3020265001616877
 20
6.267466247981744
 30
0.0
 40
2.123016666135912
 41
0.0
 46
0.0
 71
     7
 72
     1
  1
\fSource Sans Pro SemiBold|b0|i0|c0|p34;\W1;L
 73
     1
 44
1.0
  0
SPLINE
  5
49B
330
1F
100
AcDbEntity
  8
Livello 1
370
     5
100
AcDbSpline
210
0.0
220
0.0
230
1.0
 70
    24
 71
     3
 72
     8
 73
     4
 74
     0
 42
0.000000001
 43
0.0000000001
 40
0.0
 40
0.0
 40
0.0
 40
0.0
 40
1.0
 40
1.0
 40
1.0
 40
1.0
 10
6.880527839595075
 20
7.877886898485172
 30
0.0
 10
6.880527839595075
 20
7.877886898485172
 30
0.0
 10
6.87276560882988
 20
7.875416119066827
 30
0.0
 10
6.87276560882988
 20
7.875416119066827
 30
0.0
  0
SPLINE
  5
49C
330
1F
100
AcDbEntity
  8
Livello 1
370
     5
100
AcDbSpline
210
0.0
220
0.0
230
1.0
 70
     8
 71
     3
 72
     8
 73
     4
 74
     0
 42
0.000000001
 43
0.0000000001
 40
1.0
 40
1.0
 40
1.0
 40
1.0
 40
2.0
 40
2.0
 40
2.0
 40
2.0
 10
6.87276560882988
 20
7.875416119066827
 30
0.0
 10
6.367235527101314
 20
7.648933388681825
 30
0.0
 10
6.371469226474999
 20
6.939496717920079
 30
0.0
 10
6.878057060176743
 20
6.717247686908734
 30
0.0
  0
SPLINE
  5
49D
330
1F
100
AcDbEntity
  8
Livello 1
370
     5
100
AcDbSpline
210
0.0
220
0.0
230
1.0
 70
    24
 71
     3
 72
     8
 73
     4
 74
     0
 42
0.000000001
 43
0.0000000001
 40
2.0
 40
2.0
 40
2.0
 40
2.0
 40
3.0
 40
3.0
 40
3.0
 40
3.0
 10
6.878057060176743
 20
6.717247686908734
 30
0.0
 10
6.878057060176743
 20
6.717247686908734
 30
0.0
 10
6.880527839595075
 20
6.714778253230832
 30
0.0
 10
6.880527839595075
 20
6.714778253230832
 30
0.0
  0
LINE
  5
49E
330
1F
100
AcDbEntity
  8
Livello 1
370
     5
100
AcDbLine
 10
6.880527839595075
 20
6.712132527557386
 30
0.0
 11
6.993416620796509
 21
6.712132527557386
 31
0.0
  0
LINE
  5
49F
330
1F
100
AcDbEntity
  8
Livello 1
370
     5
100
AcDbLine
 10
6.993275318051999
 20
7.877886898485172
 30
0.0
 11
6.880385191110136
 21
7.877886898485172
 31
0.0
  0
LINE
  5
4A0
330
1F
100
AcDbEntity
  8
Livello 1
370
     5
100
AcDbLine
 10
4.899997620482324
 20
8.108462025499335
 30
0.0
 11
4.899997620482324
 21
8.11869234420201
 31
0.0
  0
LINE
  5
4A1
330
1F
100
AcDbEntity
  8
Livello 1
370
     5
100
AcDbLine
 10
4.899997620482324
 20
8.11869234420201
 30
0.0
 11
4.899997620482324
 21
8.157144185334857
 31
0.0
  0
LINE
  5
4A2
330
1F
100
AcDbEntity
  8
Livello 1
370
     5
100
AcDbLine
 10
4.899997620482324
 20
8.157144185334857
 30
0.0
 11
4.899997620482324
 21
8.162436982422143
 31
0.0
  0
LINE
  5
4A3
330
1F
100
AcDbEntity
  8
Livello 1
370
     5
100
AcDbLine
 10
4.899997620482324
 20
8.162436982422143
 30
0.0
 11
6.993380285805059
 21
8.162436982422143
 31
0.0
  0
LINE
  5
4A4
330
1F
100
AcDbEntity
  8
Livello 1
370
     5
100
AcDbLine
 10
4.900032609733329
 20
6.481557400543238
 30
0.0
 11
4.900032609733329
 21
6.48402683422114
 31
0.0
  0
LINE
  5
4A5
330
1F
100
AcDbEntity
  8
Livello 1
370
     5
100
AcDbLine
 10
4.900032609733329
 20
6.427758735615967
 30
0.0
 11
4.900032609733329
 21
6.430228169293869
 31
0.0
  0
LINE
  5
4A6
330
1F
100
AcDbEntity
  8
Livello 1
370
     5
100
AcDbLine
 10
4.900032609733329
 20
6.430228169293869
 30
0.0
 11
4.900032609733329
 21
6.471149444104597
 31
0.0
  0
LINE
  5
4A7
330
1F
100
AcDbEntity
  8
Livello 1
370
     5
100
AcDbLine
 10
4.900032609733329
 20
6.471149444104597
 30
0.0
 11
4.900032609733329
 21
6.481733692538767
 31
0.0
  0
LINE
  5
4A8
330
1F
100
AcDbEntity
  8
Livello 1
370
     5
100
AcDbLine
 10
6.993275318051999
 20
6.427758735615967
 30
0.0
 11
4.899891979859035
 21
6.427758735615967
 31
0.0
  0
LINE
  5
4A9
330
1F
100
AcDbEntity
  8
Livello 1
370
     5
100
AcDbLine
 10
4.900103261105613
 20
7.985484228339728
 30
0.0
 11
4.900103261105613
 21
8.108603328243844
 31
0.0
  0
LINE
  5
4AA
330
1F
100
AcDbEntity
  8
Livello 1
370
     5
100
AcDbLine
 10
4.900103261105613
 20
7.877886898485172
 30
0.0
 11
4.900103261105613
 21
7.985482882599306
 31
0.0
  0
LINE
  5
4AB
330
1F
100
AcDbEntity
  8
Livello 1
370
     5
100
AcDbLine
 10
4.900103261105613
 20
6.604500208451824
 30
0.0
 11
4.900103261105613
 21
7.896724572939291
 31
0.0
  0
LINE
  5
4AC
330
1F
100
AcDbEntity
  8
Livello 1
370
     5
100
AcDbLine
 10
4.900103261105613
 20
6.604500208451824
 30
0.0
 11
4.900103261105613
 21
6.484201780476254
 31
0.0
  0
SPLINE
  5
4AD
330
1F
100
AcDbEntity
  8
Livello 1
370
     5
100
AcDbSpline
210
0.0
220
0.0
230
1.0
 70
    24
 71
     3
 72
     8
 73
     4
 74
     0
 42
0.000000001
 43
0.0000000001
 40
0.0
 40
0.0
 40
0.0
 40
0.0
 40
1.0
 40
1.0
 40
1.0
 40
1.0
 10
5.486808405205351
 20
8.16229567967764
 30
0.0
 10
5.486808405205351
 20
8.16229567967764
 30
0.0
 10
5.540783362128152
 20
8.21874007027835
 30
0.0
 10
5.540783362128152
 20
8.21874007027835
 30
0.0
  0
SPLINE
  5
4AE
330
1F
100
AcDbEntity
  8
Livello 1
370
     5
100
AcDbSpline
210
0.0
220
0.0
230
1.0
 70
    24
 71
     3
 72
     8
 73
     4
 74
     0
 42
0.000000001
 43
0.0000000001
 40
1.0
 40
1.0
 40
1.0
 40
1.0
 40
2.0
 40
2.0
 40
2.0
 40
2.0
 10
5.540783362128152
 20
8.21874007027835
 30
0.0
 10
5.540783362128152
 20
8.21874007027835
 30
0.0
 10
5.543252795806054
 20
8.223678937634154
 30
0.0
 10
5.543252795806054
 20
8.223678937634154
 30
0.0
  0
SPLINE
  5
4AF
330
1F
100
AcDbEntity
  8
Livello 1
370
     5
100
AcDbSpline
210
0.0
220
0.0
230
1.0
 70
    24
 71
     3
 72
     8
 73
     4
 74
     0
 42
0.000000001
 43
0.0000000001
 40
2.0
 40
2.0
 40
2.0
 40
2.0
 40
3.0
 40
3.0
 40
3.0
 40
3.0
 10
5.543252795806054
 20
8.223678937634154
 30
0.0
 10
5.543252795806054
 20
8.223678937634154
 30
0.0
 10
5.545722229483956
 20
8.226500955303123
 30
0.0
 10
5.545722229483956
 20
8.226500955303123
 30
0.0
  0
SPLINE
  5
4B0
330
1F
100
AcDbEntity
  8
Livello 1
370
     5
100
AcDbSpline
210
0.0
220
0.0
230
1.0
 70
    24
 71
     3
 72
     8
 73
     4
 74
     0
 42
0.000000001
 43
0.0000000001
 40
3.0
 40
3.0
 40
3.0
 40
3.0
 40
4.0
 40
4.0
 40
4.0
 40
4.0
 10
5.545722229483956
 20
8.226500955303123
 30
0.0
 10
5.545722229483956
 20
8.226500955303123
 30
0.0
 10
5.55348311450875
 20
8.233909256336829
 30
0.0
 10
5.55348311450875
 20
8.233909256336829
 30
0.0
  0
SPLINE
  5
4B1
330
1F
100
AcDbEntity
  8
Livello 1
370
     5
100
AcDbSpline
210
0.0
220
0.0
230
1.0
 70
    24
 71
     3
 72
     8
 73
     4
 74
     0
 42
0.000000001
 43
0.0000000001
 40
4.0
 40
4.0
 40
4.0
 40
4.0
 40
5.0
 40
5.0
 40
5.0
 40
5.0
 10
5.55348311450875
 20
8.233909256336829
 30
0.0
 10
5.55348311450875
 20
8.233909256336829
 30
0.0
 10
5.558421981864555
 20
8.236731274005826
 30
0.0
 10
5.558421981864555
 20
8.236731274005826
 30
0.0
  0
SPLINE
  5
4B2
330
1F
100
AcDbEntity
  8
Livello 1
370
     5
100
AcDbSpline
210
0.0
220
0.0
230
1.0
 70
    24
 71
     3
 72
     8
 73
     4
 74
     0
 42
0.000000001
 43
0.0000000001
 40
5.0
 40
5.0
 40
5.0
 40
5.0
 40
6.0
 40
6.0
 40
6.0
 40
6.0
 10
5.558421981864555
 20
8.236731274005826
 30
0.0
 10
5.558421981864555
 20
8.236731274005826
 30
0.0
 10
5.561243999533516
 20
8.241670141361616
 30
0.0
 10
5.561243999533516
 20
8.241670141361616
 30
0.0
  0
SPLINE
  5
4B3
330
1F
100
AcDbEntity
  8
Livello 1
370
     5
100
AcDbSpline
210
0.0
220
0.0
230
1.0
 70
    24
 71
     3
 72
     8
 73
     4
 74
     0
 42
0.000000001
 43
0.0000000001
 40
6.0
 40
6.0
 40
6.0
 40
6.0
 40
7.0
 40
7.0
 40
7.0
 40
7.0
 10
5.561243999533516
 20
8.241670141361616
 30
0.0
 10
5.561243999533516
 20
8.241670141361616
 30
0.0
 10
5.566182866889334
 20
8.244139575039532
 30
0.0
 10
5.566182866889334
 20
8.244139575039532
 30
0.0
  0
SPLINE
  5
4B4
330
1F
100
AcDbEntity
  8
Livello 1
370
     5
100
AcDbSpline
210
0.0
220
0.0
230
1.0
 70
    24
 71
     3
 72
     8
 73
     4
 74
     0
 42
0.000000001
 43
0.0000000001
 40
7.0
 40
7.0
 40
7.0
 40
7.0
 40
8.0
 40
8.0
 40
8.0
 40
8.0
 10
5.566182866889334
 20
8.244139575039532
 30
0.0
 10
5.566182866889334
 20
8.244139575039532
 30
0.0
 10
5.568652300567251
 20
8.246961592708501
 30
0.0
 10
5.568652300567251
 20
8.246961592708501
 30
0.0
  0
SPLINE
  5
4B5
330
1F
100
AcDbEntity
  8
Livello 1
370
     5
100
AcDbSpline
210
0.0
220
0.0
230
1.0
 70
    24
 71
     3
 72
     8
 73
     4
 74
     0
 42
0.000000001
 43
0.0000000001
 40
8.0
 40
8.0
 40
8.0
 40
8.0
 40
9.0
 40
9.0
 40
9.0
 40
9.0
 10
5.568652300567251
 20
8.246961592708501
 30
0.0
 10
5.568652300567251
 20
8.246961592708501
 30
0.0
 10
5.573944424784315
 20
8.249431026386396
 30
0.0
 10
5.573944424784315
 20
8.249431026386396
 30
0.0
  0
SPLINE
  5
4B6
330
1F
100
AcDbEntity
  8
Livello 1
370
     5
100
AcDbSpline
210
0.0
220
0.0
230
1.0
 70
    24
 71
     3
 72
     8
 73
     4
 74
     0
 42
0.000000001
 43
0.0000000001
 40
9.0
 40
9.0
 40
9.0
 40
9.0
 40
10.0
 40
10.0
 40
10.0
 40
10.0
 10
5.573944424784315
 20
8.249431026386396
 30
0.0
 10
5.573944424784315
 20
8.249431026386396
 30
0.0
 10
5.576413858462231
 20
8.254369893742207
 30
0.0
 10
5.576413858462231
 20
8.254369893742207
 30
0.0
  0
SPLINE
  5
4B7
330
1F
100
AcDbEntity
  8
Livello 1
370
     5
100
AcDbSpline
210
0.0
220
0.0
230
1.0
 70
    24
 71
     3
 72
     8
 73
     4
 74
     0
 42
0.000000001
 43
0.0000000001
 40
10.0
 40
10.0
 40
10.0
 40
10.0
 40
11.0
 40
11.0
 40
11.0
 40
11.0
 10
5.576413858462231
 20
8.254369893742207
 30
0.0
 10
5.576413858462231
 20
8.254369893742207
 30
0.0
 10
5.586644177164899
 20
8.259661345089085
 30
0.0
 10
5.586644177164899
 20
8.259661345089085
 30
0.0
  0
SPLINE
  5
4B8
330
1F
100
AcDbEntity
  8
Livello 1
370
     5
100
AcDbSpline
210
0.0
220
0.0
230
1.0
 70
    24
 71
     3
 72
     8
 73
     4
 74
     0
 42
0.000000001
 43
0.0000000001
 40
11.0
 40
11.0
 40
11.0
 40
11.0
 40
12.0
 40
12.0
 40
12.0
 40
12.0
 10
5.586644177164899
 20
8.259661345089085
 30
0.0
 10
5.586644177164899
 20
8.259661345089085
 30
0.0
 10
5.589466194833889
 20
8.262130778766987
 30
0.0
 10
5.589466194833889
 20
8.262130778766987
 30
0.0
  0
SPLINE
  5
4B9
330
1F
100
AcDbEntity
  8
Livello 1
370
     5
100
AcDbSpline
210
0.0
220
0.0
230
1.0
 70
    24
 71
     3
 72
     8
 73
     4
 74
     0
 42
0.000000001
 43
0.0000000001
 40
12.0
 40
12.0
 40
12.0
 40
12.0
 40
13.0
 40
13.0
 40
13.0
 40
13.0
 10
5.589466194833889
 20
8.262130778766987
 30
0.0
 10
5.589466194833889
 20
8.262130778766987
 30
0.0
 10
5.594405062189693
 20
8.264600212444889
 30
0.0
 10
5.594405062189693
 20
8.264600212444889
 30
0.0
  0
SPLINE
  5
4BA
330
1F
100
AcDbEntity
  8
Livello 1
370
     5
100
AcDbSpline
210
0.0
220
0.0
230
1.0
 70
    24
 71
     3
 72
     8
 73
     4
 74
     0
 42
0.000000001
 43
0.0000000001
 40
13.0
 40
13.0
 40
13.0
 40
13.0
 40
14.0
 40
14.0
 40
14.0
 40
14.0
 10
5.594405062189693
 20
8.264600212444889
 30
0.0
 10
5.594405062189693
 20
8.264600212444889
 30
0.0
 10
5.596874495867609
 20
8.26989166379176
 30
0.0
 10
5.596874495867609
 20
8.26989166379176
 30
0.0
  0
SPLINE
  5
4BB
330
1F
100
AcDbEntity
  8
Livello 1
370
     5
100
AcDbSpline
210
0.0
220
0.0
230
1.0
 70
    24
 71
     3
 72
     8
 73
     4
 74
     0
 42
0.000000001
 43
0.0000000001
 40
14.0
 40
14.0
 40
14.0
 40
14.0
 40
15.0
 40
15.0
 40
15.0
 40
15.0
 10
5.596874495867609
 20
8.26989166379176
 30
0.0
 10
5.596874495867609
 20
8.26989166379176
 30
0.0
 10
5.602165947214459
 20
8.272361097469669
 30
0.0
 10
5.602165947214459
 20
8.272361097469669
 30
0.0
  0
SPLINE
  5
4BC
330
1F
100
AcDbEntity
  8
Livello 1
370
     5
100
AcDbSpline
210
0.0
220
0.0
230
1.0
 70
    24
 71
     3
 72
     8
 73
     4
 74
     0
 42
0.000000001
 43
0.0000000001
 40
15.0
 40
15.0
 40
15.0
 40
15.0
 40
16.0
 40
16.0
 40
16.0
 40
16.0
 10
5.602165947214459
 20
8.272361097469669
 30
0.0
 10
5.602165947214459
 20
8.272361097469669
 30
0.0
 10
5.607104814570277
 20
8.275184460879067
 30
0.0
 10
5.607104814570277
 20
8.275184460879067
 30
0.0
  0
SPLINE
  5
4BD
330
1F
100
AcDbEntity
  8
Livello 1
370
     5
100
AcDbSpline
210
0.0
220
0.0
230
1.0
 70
    24
 71
     3
 72
     8
 73
     4
 74
     0
 42
0.000000001
 43
0.0000000001
 40
16.0
 40
16.0
 40
16.0
 40
16.0
 40
17.0
 40
17.0
 40
17.0
 40
17.0
 10
5.607104814570277
 20
8.275184460879067
 30
0.0
 10
5.607104814570277
 20
8.275184460879067
 30
0.0
 10
5.609574248248179
 20
8.277653894556969
 30
0.0
 10
5.609574248248179
 20
8.277653894556969
 30
0.0
  0
SPLINE
  5
4BE
330
1F
100
AcDbEntity
  8
Livello 1
370
     5
100
AcDbSpline
210
0.0
220
0.0
230
1.0
 70
    24
 71
     3
 72
     8
 73
     4
 74
     0
 42
0.000000001
 43
0.0000000001
 40
17.0
 40
17.0
 40
17.0
 40
17.0
 40
18.0
 40
18.0
 40
18.0
 40
18.0
 10
5.609574248248179
 20
8.277653894556969
 30
0.0
 10
5.609574248248179
 20
8.277653894556969
 30
0.0
 10
5.614865699595057
 20
8.280123328234871
 30
0.0
 10
5.614865699595057
 20
8.280123328234871
 30
0.0
  0
SPLINE
  5
4BF
330
1F
100
AcDbEntity
  8
Livello 1
370
     5
100
AcDbSpline
210
0.0
220
0.0
230
1.0
 70
    24
 71
     3
 72
     8
 73
     4
 74
     0
 42
0.000000001
 43
0.0000000001
 40
18.0
 40
18.0
 40
18.0
 40
18.0
 40
19.0
 40
19.0
 40
19.0
 40
19.0
 10
5.614865699595057
 20
8.280123328234871
 30
0.0
 10
5.614865699595057
 20
8.280123328234871
 30
0.0
 10
5.625096018297739
 20
8.285414779581749
 30
0.0
 10
5.625096018297739
 20
8.285414779581749
 30
0.0
  0
SPLINE
  5
4C0
330
1F
100
AcDbEntity
  8
Livello 1
370
     5
100
AcDbSpline
210
0.0
220
0.0
230
1.0
 70
    24
 71
     3
 72
     8
 73
     4
 74
     0
 42
0.000000001
 43
0.0000000001
 40
19.0
 40
19.0
 40
19.0
 40
19.0
 40
20.0
 40
20.0
 40
20.0
 40
20.0
 10
5.625096018297739
 20
8.285414779581749
 30
0.0
 10
5.625096018297739
 20
8.285414779581749
 30
0.0
 10
5.62791938170713
 20
8.287884213259658
 30
0.0
 10
5.62791938170713
 20
8.287884213259658
 30
0.0
  0
SPLINE
  5
4C1
330
1F
100
AcDbEntity
  8
Livello 1
370
     5
100
AcDbSpline
210
0.0
220
0.0
230
1.0
 70
    24
 71
     3
 72
     8
 73
     4
 74
     0
 42
0.000000001
 43
0.0000000001
 40
20.0
 40
20.0
 40
20.0
 40
20.0
 40
21.0
 40
21.0
 40
21.0
 40
21.0
 10
5.62791938170713
 20
8.287884213259658
 30
0.0
 10
5.62791938170713
 20
8.287884213259658
 30
0.0
 10
5.632858249062948
 20
8.290353646937553
 30
0.0
 10
5.632858249062948
 20
8.290353646937553
 30
0.0
  0
SPLINE
  5
4C2
330
1F
100
AcDbEntity
  8
Livello 1
370
     5
100
AcDbSpline
210
0.0
220
0.0
230
1.0
 70
    24
 71
     3
 72
     8
 73
     4
 74
     0
 42
0.000000001
 43
0.0000000001
 40
21.0
 40
21.0
 40
21.0
 40
21.0
 40
22.0
 40
22.0
 40
22.0
 40
22.0
 10
5.632858249062948
 20
8.290353646937553
 30
0.0
 10
5.632858249062948
 20
8.290353646937553
 30
0.0
 10
5.637797116418752
 20
8.292823080615463
 30
0.0
 10
5.637797116418752
 20
8.292823080615463
 30
0.0
  0
SPLINE
  5
4C3
330
1F
100
AcDbEntity
  8
Livello 1
370
     5
100
AcDbSpline
210
0.0
220
0.0
230
1.0
 70
     8
 71
     3
 72
     8
 73
     4
 74
     0
 42
0.000000001
 43
0.0000000001
 40
22.0
 40
22.0
 40
22.0
 40
22.0
 40
23.0
 40
23.0
 40
23.0
 40
23.0
 10
5.637797116418752
 20
8.292823080615463
 30
0.0
 10
5.645558001443546
 20
8.295997682275498
 30
0.0
 10
5.651907204763617
 20
8.304817665013906
 30
0.0
 10
5.661079771493078
 20
8.303053399318145
 30
0.0
  0
SPLINE
  5
4C4
330
1F
100
AcDbEntity
  8
Livello 1
370
     5
100
AcDbSpline
210
0.0
220
0.0
230
1.0
 70
    24
 71
     3
 72
     8
 73
     4
 74
     0
 42
0.000000001
 43
0.0000000001
 40
23.0
 40
23.0
 40
23.0
 40
23.0
 40
24.0
 40
24.0
 40
24.0
 40
24.0
 10
5.661079771493078
 20
8.303053399318145
 30
0.0
 10
5.661079771493078
 20
8.303053399318145
 30
0.0
 10
5.666018638848896
 20
8.305875416987113
 30
0.0
 10
5.666018638848896
 20
8.305875416987113
 30
0.0
  0
SPLINE
  5
4C5
330
1F
100
AcDbEntity
  8
Livello 1
370
     5
100
AcDbSpline
210
0.0
220
0.0
230
1.0
 70
    24
 71
     3
 72
     8
 73
     4
 74
     0
 42
0.000000001
 43
0.0000000001
 40
24.0
 40
24.0
 40
24.0
 40
24.0
 40
25.0
 40
25.0
 40
25.0
 40
25.0
 10
5.666018638848896
 20
8.305875416987113
 30
0.0
 10
5.666018638848896
 20
8.305875416987113
 30
0.0
 10
5.668840656517872
 20
8.308344850665022
 30
0.0
 10
5.668840656517872
 20
8.308344850665022
 30
0.0
  0
SPLINE
  5
4C6
330
1F
100
AcDbEntity
  8
Livello 1
370
     5
100
AcDbSpline
210
0.0
220
0.0
230
1.0
 70
    24
 71
     3
 72
     8
 73
     4
 74
     0
 42
0.000000001
 43
0.0000000001
 40
25.0
 40
25.0
 40
25.0
 40
25.0
 40
26.0
 40
26.0
 40
26.0
 40
26.0
 10
5.668840656517872
 20
8.308344850665022
 30
0.0
 10
5.668840656517872
 20
8.308344850665022
 30
0.0
 10
5.67377952387369
 20
8.310814284342924
 30
0.0
 10
5.67377952387369
 20
8.310814284342924
 30
0.0
  0
SPLINE
  5
4C7
330
1F
100
AcDbEntity
  8
Livello 1
370
     5
100
AcDbSpline
210
0.0
220
0.0
230
1.0
 70
    24
 71
     3
 72
     8
 73
     4
 74
     0
 42
0.000000001
 43
0.0000000001
 40
26.0
 40
26.0
 40
26.0
 40
26.0
 40
27.0
 40
27.0
 40
27.0
 40
27.0
 10
5.67377952387369
 20
8.310814284342924
 30
0.0
 10
5.67377952387369
 20
8.310814284342924
 30
0.0
 10
5.679070975220554
 20
8.313283718020826
 30
0.0
 10
5.679070975220554
 20
8.313283718020826
 30
0.0
  0
SPLINE
  5
4C8
330
1F
100
AcDbEntity
  8
Livello 1
370
     5
100
AcDbSpline
210
0.0
220
0.0
230
1.0
 70
    24
 71
     3
 72
     8
 73
     4
 74
     0
 42
0.000000001
 43
0.0000000001
 40
27.0
 40
27.0
 40
27.0
 40
27.0
 40
28.0
 40
28.0
 40
28.0
 40
28.0
 10
5.679070975220554
 20
8.313283718020826
 30
0.0
 10
5.679070975220554
 20
8.313283718020826
 30
0.0
 10
5.684011188316802
 20
8.313283718020826
 30
0.0
 10
5.684011188316802
 20
8.313283718020826
 30
0.0
  0
SPLINE
  5
4C9
330
1F
100
AcDbEntity
  8
Livello 1
370
     5
100
AcDbSpline
210
0.0
220
0.0
230
1.0
 70
    24
 71
     3
 72
     8
 73
     4
 74
     0
 42
0.000000001
 43
0.0000000001
 40
28.0
 40
28.0
 40
28.0
 40
28.0
 40
29.0
 40
29.0
 40
29.0
 40
29.0
 10
5.684011188316802
 20
8.313283718020826
 30
0.0
 10
5.684011188316802
 20
8.313283718020826
 30
0.0
 10
5.694241507019469
 20
8.318575169367704
 30
0.0
 10
5.694241507019469
 20
8.318575169367704
 30
0.0
  0
SPLINE
  5
4CA
330
1F
100
AcDbEntity
  8
Livello 1
370
     5
100
AcDbSpline
210
0.0
220
0.0
230
1.0
 70
    24
 71
     3
 72
     8
 73
     4
 74
     0
 42
0.000000001
 43
0.0000000001
 40
29.0
 40
29.0
 40
29.0
 40
29.0
 40
30.0
 40
30.0
 40
30.0
 40
30.0
 10
5.694241507019469
 20
8.318575169367704
 30
0.0
 10
5.694241507019469
 20
8.318575169367704
 30
0.0
 10
5.699532958366361
 20
8.318575169367704
 30
0.0
 10
5.699532958366361
 20
8.318575169367704
 30
0.0
  0
SPLINE
  5
4CB
330
1F
100
AcDbEntity
  8
Livello 1
370
     5
100
AcDbSpline
210
0.0
220
0.0
230
1.0
 70
    24
 71
     3
 72
     8
 73
     4
 74
     0
 42
0.000000001
 43
0.0000000001
 40
30.0
 40
30.0
 40
30.0
 40
30.0
 40
31.0
 40
31.0
 40
31.0
 40
31.0
 10
5.699532958366361
 20
8.318575169367704
 30
0.0
 10
5.699532958366361
 20
8.318575169367704
 30
0.0
 10
5.702002392044235
 20
8.321044603045606
 30
0.0
 10
5.702002392044235
 20
8.321044603045606
 30
0.0
  0
SPLINE
  5
4CC
330
1F
100
AcDbEntity
  8
Livello 1
370
     5
100
AcDbSpline
210
0.0
220
0.0
230
1.0
 70
    24
 71
     3
 72
     8
 73
     4
 74
     0
 42
0.000000001
 43
0.0000000001
 40
31.0
 40
31.0
 40
31.0
 40
31.0
 40
32.0
 40
32.0
 40
32.0
 40
32.0
 10
5.702002392044235
 20
8.321044603045606
 30
0.0
 10
5.702002392044235
 20
8.321044603045606
 30
0.0
 10
5.707293843391141
 20
8.323866620714575
 30
0.0
 10
5.707293843391141
 20
8.323866620714575
 30
0.0
  0
SPLINE
  5
4CD
330
1F
100
AcDbEntity
  8
Livello 1
370
     5
100
AcDbSpline
210
0.0
220
0.0
230
1.0
 70
    24
 71
     3
 72
     8
 73
     4
 74
     0
 42
0.000000001
 43
0.0000000001
 40
32.0
 40
32.0
 40
32.0
 40
32.0
 40
33.0
 40
33.0
 40
33.0
 40
33.0
 10
5.707293843391141
 20
8.323866620714575
 30
0.0
 10
5.707293843391141
 20
8.323866620714575
 30
0.0
 10
5.712232710746931
 20
8.323866620714575
 30
0.0
 10
5.712232710746931
 20
8.323866620714575
 30
0.0
  0
SPLINE
  5
4CE
330
1F
100
AcDbEntity
  8
Livello 1
370
     5
100
AcDbSpline
210
0.0
220
0.0
230
1.0
 70
    24
 71
     3
 72
     8
 73
     4
 74
     0
 42
0.000000001
 43
0.0000000001
 40
33.0
 40
33.0
 40
33.0
 40
33.0
 40
34.0
 40
34.0
 40
34.0
 40
34.0
 10
5.712232710746931
 20
8.323866620714575
 30
0.0
 10
5.712232710746931
 20
8.323866620714575
 30
0.0
 10
5.717524162093809
 20
8.326336054392477
 30
0.0
 10
5.717524162093809
 20
8.326336054392477
 30
0.0
  0
SPLINE
  5
4CF
330
1F
100
AcDbEntity
  8
Livello 1
370
     5
100
AcDbSpline
210
0.0
220
0.0
230
1.0
 70
    24
 71
     3
 72
     8
 73
     4
 74
     0
 42
0.000000001
 43
0.0000000001
 40
34.0
 40
34.0
 40
34.0
 40
34.0
 40
35.0
 40
35.0
 40
35.0
 40
35.0
 10
5.717524162093809
 20
8.326336054392477
 30
0.0
 10
5.717524162093809
 20
8.326336054392477
 30
0.0
 10
5.722463029449613
 20
8.326336054392477
 30
0.0
 10
5.722463029449613
 20
8.326336054392477
 30
0.0
  0
SPLINE
  5
4D0
330
1F
100
AcDbEntity
  8
Livello 1
370
     5
100
AcDbSpline
210
0.0
220
0.0
230
1.0
 70
    24
 71
     3
 72
     8
 73
     4
 74
     0
 42
0.000000001
 43
0.0000000001
 40
35.0
 40
35.0
 40
35.0
 40
35.0
 40
36.0
 40
36.0
 40
36.0
 40
36.0
 10
5.722463029449613
 20
8.326336054392477
 30
0.0
 10
5.722463029449613
 20
8.326336054392477
 30
0.0
 10
5.727754480796491
 20
8.328805488070393
 30
0.0
 10
5.727754480796491
 20
8.328805488070393
 30
0.0
  0
SPLINE
  5
4D1
330
1F
100
AcDbEntity
  8
Livello 1
370
     5
100
AcDbSpline
210
0.0
220
0.0
230
1.0
 70
    24
 71
     3
 72
     8
 73
     4
 74
     0
 42
0.000000001
 43
0.0000000001
 40
36.0
 40
36.0
 40
36.0
 40
36.0
 40
37.0
 40
37.0
 40
37.0
 40
37.0
 10
5.727754480796491
 20
8.328805488070393
 30
0.0
 10
5.727754480796491
 20
8.328805488070393
 30
0.0
 10
5.732693348152281
 20
8.328805488070393
 30
0.0
 10
5.732693348152281
 20
8.328805488070393
 30
0.0
  0
SPLINE
  5
4D2
330
1F
100
AcDbEntity
  8
Livello 1
370
     5
100
AcDbSpline
210
0.0
220
0.0
230
1.0
 70
    24
 71
     3
 72
     8
 73
     4
 74
     0
 42
0.000000001
 43
0.0000000001
 40
37.0
 40
37.0
 40
37.0
 40
37.0
 40
38.0
 40
38.0
 40
38.0
 40
38.0
 10
5.732693348152281
 20
8.328805488070393
 30
0.0
 10
5.732693348152281
 20
8.328805488070393
 30
0.0
 10
5.737986145239602
 20
8.331274921748288
 30
0.0
 10
5.737986145239602
 20
8.331274921748288
 30
0.0
  0
SPLINE
  5
4D3
330
1F
100
AcDbEntity
  8
Livello 1
370
     5
100
AcDbSpline
210
0.0
220
0.0
230
1.0
 70
    24
 71
     3
 72
     8
 73
     4
 74
     0
 42
0.000000001
 43
0.0000000001
 40
38.0
 40
38.0
 40
38.0
 40
38.0
 40
39.0
 40
39.0
 40
39.0
 40
39.0
 10
5.737986145239602
 20
8.331274921748288
 30
0.0
 10
5.737986145239602
 20
8.331274921748288
 30
0.0
 10
5.742925012595392
 20
8.331274921748288
 30
0.0
 10
5.742925012595392
 20
8.331274921748288
 30
0.0
  0
SPLINE
  5
4D4
330
1F
100
AcDbEntity
  8
Livello 1
370
     5
100
AcDbSpline
210
0.0
220
0.0
230
1.0
 70
    24
 71
     3
 72
     8
 73
     4
 74
     0
 42
0.000000001
 43
0.0000000001
 40
39.0
 40
39.0
 40
39.0
 40
39.0
 40
40.0
 40
40.0
 40
40.0
 40
40.0
 10
5.742925012595392
 20
8.331274921748288
 30
0.0
 10
5.742925012595392
 20
8.331274921748288
 30
0.0
 10
5.748216463942299
 20
8.334098285157686
 30
0.0
 10
5.748216463942299
 20
8.334098285157686
 30
0.0
  0
SPLINE
  5
4D5
330
1F
100
AcDbEntity
  8
Livello 1
370
     5
100
AcDbSpline
210
0.0
220
0.0
230
1.0
 70
    24
 71
     3
 72
     8
 73
     4
 74
     0
 42
0.000000001
 43
0.0000000001
 40
40.0
 40
40.0
 40
40.0
 40
40.0
 40
41.0
 40
41.0
 40
41.0
 40
41.0
 10
5.748216463942299
 20
8.334098285157686
 30
0.0
 10
5.748216463942299
 20
8.334098285157686
 30
0.0
 10
5.753155331298088
 20
8.334098285157686
 30
0.0
 10
5.753155331298088
 20
8.334098285157686
 30
0.0
  0
SPLINE
  5
4D6
330
1F
100
AcDbEntity
  8
Livello 1
370
     5
100
AcDbSpline
210
0.0
220
0.0
230
1.0
 70
     8
 71
     3
 72
     8
 73
     4
 74
     0
 42
0.000000001
 43
0.0000000001
 40
41.0
 40
41.0
 40
41.0
 40
41.0
 40
42.0
 40
42.0
 40
42.0
 40
42.0
 10
5.753155331298088
 20
8.334098285157686
 30
0.0
 10
5.772910800721319
 20
8.336920302826655
 30
0.0
 10
5.799721987187183
 20
8.342564338164599
 30
0.0
 10
5.819830040601488
 20
8.3415065861914
 30
0.0
  0
SPLINE
  5
4D7
330
1F
100
AcDbEntity
  8
Livello 1
370
     5
100
AcDbSpline
210
0.0
220
0.0
230
1.0
 70
    24
 71
     3
 72
     8
 73
     4
 74
     0
 42
0.000000001
 43
0.0000000001
 40
42.0
 40
42.0
 40
42.0
 40
42.0
 40
43.0
 40
43.0
 40
43.0
 40
43.0
 10
5.819830040601488
 20
8.3415065861914
 30
0.0
 10
5.819830040601488
 20
8.3415065861914
 30
0.0
 10
5.835351810651033
 20
8.3415065861914
 30
0.0
 10
5.835351810651033
 20
8.3415065861914
 30
0.0
  0
LINE
  5
4D8
330
1F
100
AcDbEntity
  8
Livello 1
370
     5
100
AcDbLine
 10
5.835246842897959
 20
8.33903849825392
 30
0.0
 11
6.08113245871516
 21
8.33903849825392
 31
0.0
  0
LINE
  5
4D9
330
1F
100
AcDbEntity
  8
Livello 1
370
     5
100
AcDbLine
 10
6.08113245871516
 20
8.33903849825392
 30
0.0
 11
6.08113245871516
 21
8.16229567967764
 31
0.0
  0
SPLINE
  5
4DA
330
1F
100
AcDbEntity
  8
Livello 1
370
     5
100
AcDbSpline
210
0.0
220
0.0
230
1.0
 70
    24
 71
     3
 72
     8
 73
     4
 74
     0
 42
0.000000001
 43
0.0000000001
 40
0.0
 40
0.0
 40
0.0
 40
0.0
 40
1.0
 40
1.0
 40
1.0
 40
1.0
 10
6.081203782957629
 20
6.276593059536793
 30
0.0
 10
6.081203782957629
 20
6.276593059536793
 30
0.0
 10
5.835316821400027
 20
6.276593059536793
 30
0.0
 10
5.835316821400027
 20
6.276593059536793
 30
0.0
  0
SPLINE
  5
4DB
330
1F
100
AcDbEntity
  8
Livello 1
370
     5
100
AcDbSpline
210
0.0
220
0.0
230
1.0
 70
    24
 71
     3
 72
     8
 73
     4
 74
     0
 42
0.000000001
 43
0.0000000001
 40
1.0
 40
1.0
 40
1.0
 40
1.0
 40
2.0
 40
2.0
 40
2.0
 40
2.0
 10
5.835316821400027
 20
6.276593059536793
 30
0.0
 10
5.835316821400027
 20
6.276593059536793
 30
0.0
 10
5.830025370053149
 20
6.279062493214709
 30
0.0
 10
5.830025370053149
 20
6.279062493214709
 30
0.0
  0
SPLINE
  5
4DC
330
1F
100
AcDbEntity
  8
Livello 1
370
     5
100
AcDbSpline
210
0.0
220
0.0
230
1.0
 70
    24
 71
     3
 72
     8
 73
     4
 74
     0
 42
0.000000001
 43
0.0000000001
 40
2.0
 40
2.0
 40
2.0
 40
2.0
 40
3.0
 40
3.0
 40
3.0
 40
3.0
 10
5.830025370053149
 20
6.279062493214709
 30
0.0
 10
5.830025370053149
 20
6.279062493214709
 30
0.0
 10
5.819795051350467
 20
6.279062493214709
 30
0.0
 10
5.819795051350467
 20
6.279062493214709
 30
0.0
  0
SPLINE
  5
4DD
330
1F
100
AcDbEntity
  8
Livello 1
370
     5
100
AcDbSpline
210
0.0
220
0.0
230
1.0
 70
     8
 71
     3
 72
     8
 73
     4
 74
     0
 42
0.000000001
 43
0.0000000001
 40
3.0
 40
3.0
 40
3.0
 40
3.0
 40
4.0
 40
4.0
 40
4.0
 40
4.0
 10
5.819795051350467
 20
6.279062493214709
 30
0.0
 10
5.791219599188821
 20
6.27729822751894
 30
0.0
 10
5.783106130172981
 20
6.282589678865818
 30
0.0
 10
5.758411793393946
 20
6.284353944561587
 30
0.0
  0
SPLINE
  5
4DE
330
1F
100
AcDbEntity
  8
Livello 1
370
     5
100
AcDbSpline
210
0.0
220
0.0
230
1.0
 70
    24
 71
     3
 72
     8
 73
     4
 74
     0
 42
0.000000001
 43
0.0000000001
 40
4.0
 40
4.0
 40
4.0
 40
4.0
 40
5.0
 40
5.0
 40
5.0
 40
5.0
 10
5.758411793393946
 20
6.284353944561587
 30
0.0
 10
5.758411793393946
 20
6.284353944561587
 30
0.0
 10
5.753120342047068
 20
6.286823378239475
 30
0.0
 10
5.753120342047068
 20
6.286823378239475
 30
0.0
  0
SPLINE
  5
4DF
330
1F
100
AcDbEntity
  8
Livello 1
370
     5
100
AcDbSpline
210
0.0
220
0.0
230
1.0
 70
    24
 71
     3
 72
     8
 73
     4
 74
     0
 42
0.000000001
 43
0.0000000001
 40
5.0
 40
5.0
 40
5.0
 40
5.0
 40
6.0
 40
6.0
 40
6.0
 40
6.0
 10
5.753120342047068
 20
6.286823378239475
 30
0.0
 10
5.753120342047068
 20
6.286823378239475
 30
0.0
 10
5.742888677603957
 20
6.286823378239475
 30
0.0
 10
5.742888677603957
 20
6.286823378239475
 30
0.0
  0
SPLINE
  5
4E0
330
1F
100
AcDbEntity
  8
Livello 1
370
     5
100
AcDbSpline
210
0.0
220
0.0
230
1.0
 70
    24
 71
     3
 72
     8
 73
     4
 74
     0
 42
0.000000001
 43
0.0000000001
 40
6.0
 40
6.0
 40
6.0
 40
6.0
 40
7.0
 40
7.0
 40
7.0
 40
7.0
 10
5.742888677603957
 20
6.286823378239475
 30
0.0
 10
5.742888677603957
 20
6.286823378239475
 30
0.0
 10
5.737949810248153
 20
6.289292811917405
 30
0.0
 10
5.737949810248153
 20
6.289292811917405
 30
0.0
  0
SPLINE
  5
4E1
330
1F
100
AcDbEntity
  8
Livello 1
370
     5
100
AcDbSpline
210
0.0
220
0.0
230
1.0
 70
    24
 71
     3
 72
     8
 73
     4
 74
     0
 42
0.000000001
 43
0.0000000001
 40
7.0
 40
7.0
 40
7.0
 40
7.0
 40
8.0
 40
8.0
 40
8.0
 40
8.0
 10
5.737949810248153
 20
6.289292811917405
 30
0.0
 10
5.737949810248153
 20
6.289292811917405
 30
0.0
 10
5.732658358901275
 20
6.289292811917405
 30
0.0
 10
5.732658358901275
 20
6.289292811917405
 30
0.0
  0
SPLINE
  5
4E2
330
1F
100
AcDbEntity
  8
Livello 1
370
     5
100
AcDbSpline
210
0.0
220
0.0
230
1.0
 70
    24
 71
     3
 72
     8
 73
     4
 74
     0
 42
0.000000001
 43
0.0000000001
 40
8.0
 40
8.0
 40
8.0
 40
8.0
 40
9.0
 40
9.0
 40
9.0
 40
9.0
 10
5.732658358901275
 20
6.289292811917405
 30
0.0
 10
5.732658358901275
 20
6.289292811917405
 30
0.0
 10
5.727719491545457
 20
6.292114829586367
 30
0.0
 10
5.727719491545457
 20
6.292114829586367
 30
0.0
  0
SPLINE
  5
4E3
330
1F
100
AcDbEntity
  8
Livello 1
370
     5
100
AcDbSpline
210
0.0
220
0.0
230
1.0
 70
    24
 71
     3
 72
     8
 73
     4
 74
     0
 42
0.000000001
 43
0.0000000001
 40
9.0
 40
9.0
 40
9.0
 40
9.0
 40
10.0
 40
10.0
 40
10.0
 40
10.0
 10
5.727719491545457
 20
6.292114829586367
 30
0.0
 10
5.727719491545457
 20
6.292114829586367
 30
0.0
 10
5.722428040198579
 20
6.292114829586367
 30
0.0
 10
5.722428040198579
 20
6.292114829586367
 30
0.0
  0
SPLINE
  5
4E4
330
1F
100
AcDbEntity
  8
Livello 1
370
     5
100
AcDbSpline
210
0.0
220
0.0
230
1.0
 70
    24
 71
     3
 72
     8
 73
     4
 74
     0
 42
0.000000001
 43
0.0000000001
 40
10.0
 40
10.0
 40
10.0
 40
10.0
 40
11.0
 40
11.0
 40
11.0
 40
11.0
 10
5.722428040198579
 20
6.292114829586367
 30
0.0
 10
5.722428040198579
 20
6.292114829586367
 30
0.0
 10
5.717489172842789
 20
6.294584263264269
 30
0.0
 10
5.717489172842789
 20
6.294584263264269
 30
0.0
  0
SPLINE
  5
4E5
330
1F
100
AcDbEntity
  8
Livello 1
370
     5
100
AcDbSpline
210
0.0
220
0.0
230
1.0
 70
    24
 71
     3
 72
     8
 73
     4
 74
     0
 42
0.000000001
 43
0.0000000001
 40
11.0
 40
11.0
 40
11.0
 40
11.0
 40
12.0
 40
12.0
 40
12.0
 40
12.0
 10
5.717489172842789
 20
6.294584263264269
 30
0.0
 10
5.717489172842789
 20
6.294584263264269
 30
0.0
 10
5.712197721495897
 20
6.294584263264269
 30
0.0
 10
5.712197721495897
 20
6.294584263264269
 30
0.0
  0
SPLINE
  5
4E6
330
1F
100
AcDbEntity
  8
Livello 1
370
     5
100
AcDbSpline
210
0.0
220
0.0
230
1.0
 70
    24
 71
     3
 72
     8
 73
     4
 74
     0
 42
0.000000001
 43
0.0000000001
 40
12.0
 40
12.0
 40
12.0
 40
12.0
 40
13.0
 40
13.0
 40
13.0
 40
13.0
 10
5.712197721495897
 20
6.294584263264269
 30
0.0
 10
5.712197721495897
 20
6.294584263264269
 30
0.0
 10
5.709728287818009
 20
6.297053696942171
 30
0.0
 10
5.709728287818009
 20
6.297053696942171
 30
0.0
  0
SPLINE
  5
4E7
330
1F
100
AcDbEntity
  8
Livello 1
370
     5
100
AcDbSpline
210
0.0
220
0.0
230
1.0
 70
    24
 71
     3
 72
     8
 73
     4
 74
     0
 42
0.000000001
 43
0.0000000001
 40
13.0
 40
13.0
 40
13.0
 40
13.0
 40
14.0
 40
14.0
 40
14.0
 40
14.0
 10
5.709728287818009
 20
6.297053696942171
 30
0.0
 10
5.709728287818009
 20
6.297053696942171
 30
0.0
 10
5.704436836471131
 20
6.299523130620073
 30
0.0
 10
5.704436836471131
 20
6.299523130620073
 30
0.0
  0
SPLINE
  5
4E8
330
1F
100
AcDbEntity
  8
Livello 1
370
     5
100
AcDbSpline
210
0.0
220
0.0
230
1.0
 70
    24
 71
     3
 72
     8
 73
     4
 74
     0
 42
0.000000001
 43
0.0000000001
 40
14.0
 40
14.0
 40
14.0
 40
14.0
 40
15.0
 40
15.0
 40
15.0
 40
15.0
 10
5.704436836471131
 20
6.299523130620073
 30
0.0
 10
5.704436836471131
 20
6.299523130620073
 30
0.0
 10
5.699497969115327
 20
6.299523130620073
 30
0.0
 10
5.699497969115327
 20
6.299523130620073
 30
0.0
  0
SPLINE
  5
4E9
330
1F
100
AcDbEntity
  8
Livello 1
370
     5
100
AcDbSpline
210
0.0
220
0.0
230
1.0
 70
    24
 71
     3
 72
     8
 73
     4
 74
     0
 42
0.000000001
 43
0.0000000001
 40
15.0
 40
15.0
 40
15.0
 40
15.0
 40
16.0
 40
16.0
 40
16.0
 40
16.0
 10
5.699497969115327
 20
6.299523130620073
 30
0.0
 10
5.699497969115327
 20
6.299523130620073
 30
0.0
 10
5.694206517768449
 20
6.302345148289035
 30
0.0
 10
5.694206517768449
 20
6.302345148289035
 30
0.0
  0
SPLINE
  5
4EA
330
1F
100
AcDbEntity
  8
Livello 1
370
     5
100
AcDbSpline
210
0.0
220
0.0
230
1.0
 70
    24
 71
     3
 72
     8
 73
     4
 74
     0
 42
0.000000001
 43
0.0000000001
 40
16.0
 40
16.0
 40
16.0
 40
16.0
 40
17.0
 40
17.0
 40
17.0
 40
17.0
 10
5.694206517768449
 20
6.302345148289035
 30
0.0
 10
5.694206517768449
 20
6.302345148289035
 30
0.0
 10
5.689267650412645
 20
6.304814581966965
 30
0.0
 10
5.689267650412645
 20
6.304814581966965
 30
0.0
  0
SPLINE
  5
4EB
330
1F
100
AcDbEntity
  8
Livello 1
370
     5
100
AcDbSpline
210
0.0
220
0.0
230
1.0
 70
    24
 71
     3
 72
     8
 73
     4
 74
     0
 42
0.000000001
 43
0.0000000001
 40
17.0
 40
17.0
 40
17.0
 40
17.0
 40
18.0
 40
18.0
 40
18.0
 40
18.0
 10
5.689267650412645
 20
6.304814581966965
 30
0.0
 10
5.689267650412645
 20
6.304814581966965
 30
0.0
 10
5.683974853325338
 20
6.304814581966965
 30
0.0
 10
5.683974853325338
 20
6.304814581966965
 30
0.0
  0
SPLINE
  5
4EC
330
1F
100
AcDbEntity
  8
Livello 1
370
     5
100
AcDbSpline
210
0.0
220
0.0
230
1.0
 70
    24
 71
     3
 72
     8
 73
     4
 74
     0
 42
0.000000001
 43
0.0000000001
 40
18.0
 40
18.0
 40
18.0
 40
18.0
 40
19.0
 40
19.0
 40
19.0
 40
19.0
 10
5.683974853325338
 20
6.304814581966965
 30
0.0
 10
5.683974853325338
 20
6.304814581966965
 30
0.0
 10
5.679035985969548
 20
6.307284015644853
 30
0.0
 10
5.679035985969548
 20
6.307284015644853
 30
0.0
  0
SPLINE
  5
4ED
330
1F
100
AcDbEntity
  8
Livello 1
370
     5
100
AcDbSpline
210
0.0
220
0.0
230
1.0
 70
    24
 71
     3
 72
     8
 73
     4
 74
     0
 42
0.000000001
 43
0.0000000001
 40
19.0
 40
19.0
 40
19.0
 40
19.0
 40
20.0
 40
20.0
 40
20.0
 40
20.0
 10
5.679035985969548
 20
6.307284015644853
 30
0.0
 10
5.679035985969548
 20
6.307284015644853
 30
0.0
 10
5.676566552291632
 20
6.309753449322755
 30
0.0
 10
5.676566552291632
 20
6.309753449322755
 30
0.0
  0
SPLINE
  5
4EE
330
1F
100
AcDbEntity
  8
Livello 1
370
     5
100
AcDbSpline
210
0.0
220
0.0
230
1.0
 70
    24
 71
     3
 72
     8
 73
     4
 74
     0
 42
0.000000001
 43
0.0000000001
 40
20.0
 40
20.0
 40
20.0
 40
20.0
 40
21.0
 40
21.0
 40
21.0
 40
21.0
 10
5.676566552291632
 20
6.309753449322755
 30
0.0
 10
5.676566552291632
 20
6.309753449322755
 30
0.0
 10
5.671275100944754
 20
6.312575466991731
 30
0.0
 10
5.671275100944754
 20
6.312575466991731
 30
0.0
  0
SPLINE
  5
4EF
330
1F
100
AcDbEntity
  8
Livello 1
370
     5
100
AcDbSpline
210
0.0
220
0.0
230
1.0
 70
    24
 71
     3
 72
     8
 73
     4
 74
     0
 42
0.000000001
 43
0.0000000001
 40
21.0
 40
21.0
 40
21.0
 40
21.0
 40
22.0
 40
22.0
 40
22.0
 40
22.0
 10
5.671275100944754
 20
6.312575466991731
 30
0.0
 10
5.671275100944754
 20
6.312575466991731
 30
0.0
 10
5.66598364959789
 20
6.312575466991731
 30
0.0
 10
5.66598364959789
 20
6.312575466991731
 30
0.0
  0
SPLINE
  5
4F0
330
1F
100
AcDbEntity
  8
Livello 1
370
     5
100
AcDbSpline
210
0.0
220
0.0
230
1.0
 70
     8
 71
     3
 72
     8
 73
     4
 74
     0
 42
0.000000001
 43
0.0000000001
 40
22.0
 40
22.0
 40
22.0
 40
22.0
 40
23.0
 40
23.0
 40
23.0
 40
23.0
 10
5.66598364959789
 20
6.312575466991731
 30
0.0
 10
5.647639861879341
 20
6.321748033721206
 30
0.0
 10
5.629999896402523
 20
6.332683520406035
 30
0.0
 10
5.612361276666135
 20
6.343267768840206
 30
0.0
  0
SPLINE
  5
4F1
330
1F
100
AcDbEntity
  8
Livello 1
370
     5
100
AcDbSpline
210
0.0
220
0.0
230
1.0
 70
    24
 71
     3
 72
     8
 73
     4
 74
     0
 42
0.000000001
 43
0.0000000001
 40
23.0
 40
23.0
 40
23.0
 40
23.0
 40
24.0
 40
24.0
 40
24.0
 40
24.0
 10
5.612361276666135
 20
6.343267768840206
 30
0.0
 10
5.612361276666135
 20
6.343267768840206
 30
0.0
 10
5.602130957963453
 20
6.348206636195996
 30
0.0
 10
5.602130957963453
 20
6.348206636195996
 30
0.0
  0
SPLINE
  5
4F2
330
1F
100
AcDbEntity
  8
Livello 1
370
     5
100
AcDbSpline
210
0.0
220
0.0
230
1.0
 70
    24
 71
     3
 72
     8
 73
     4
 74
     0
 42
0.000000001
 43
0.0000000001
 40
24.0
 40
24.0
 40
24.0
 40
24.0
 40
25.0
 40
25.0
 40
25.0
 40
25.0
 10
5.602130957963453
 20
6.348206636195996
 30
0.0
 10
5.602130957963453
 20
6.348206636195996
 30
0.0
 10
5.599661524285536
 20
6.351028653864986
 30
0.0
 10
5.599661524285536
 20
6.351028653864986
 30
0.0
  0
SPLINE
  5
4F3
330
1F
100
AcDbEntity
  8
Livello 1
370
     5
100
AcDbSpline
210
0.0
220
0.0
230
1.0
 70
    24
 71
     3
 72
     8
 73
     4
 74
     0
 42
0.000000001
 43
0.0000000001
 40
25.0
 40
25.0
 40
25.0
 40
25.0
 40
26.0
 40
26.0
 40
26.0
 40
26.0
 10
5.599661524285536
 20
6.351028653864986
 30
0.0
 10
5.599661524285536
 20
6.351028653864986
 30
0.0
 10
5.594370072938659
 20
6.353498087542888
 30
0.0
 10
5.594370072938659
 20
6.353498087542888
 30
0.0
  0
SPLINE
  5
4F4
330
1F
100
AcDbEntity
  8
Livello 1
370
     5
100
AcDbSpline
210
0.0
220
0.0
230
1.0
 70
    24
 71
     3
 72
     8
 73
     4
 74
     0
 42
0.000000001
 43
0.0000000001
 40
26.0
 40
26.0
 40
26.0
 40
26.0
 40
27.0
 40
27.0
 40
27.0
 40
27.0
 10
5.594370072938659
 20
6.353498087542888
 30
0.0
 10
5.594370072938659
 20
6.353498087542888
 30
0.0
 10
5.591900639260771
 20
6.35596752122079
 30
0.0
 10
5.591900639260771
 20
6.35596752122079
 30
0.0
  0
SPLINE
  5
4F5
330
1F
100
AcDbEntity
  8
Livello 1
370
     5
100
AcDbSpline
210
0.0
220
0.0
230
1.0
 70
    24
 71
     3
 72
     8
 73
     4
 74
     0
 42
0.000000001
 43
0.0000000001
 40
27.0
 40
27.0
 40
27.0
 40
27.0
 40
28.0
 40
28.0
 40
28.0
 40
28.0
 10
5.591900639260771
 20
6.35596752122079
 30
0.0
 10
5.591900639260771
 20
6.35596752122079
 30
0.0
 10
5.586609187913893
 20
6.358436954898692
 30
0.0
 10
5.586609187913893
 20
6.358436954898692
 30
0.0
  0
SPLINE
  5
4F6
330
1F
100
AcDbEntity
  8
Livello 1
370
     5
100
AcDbSpline
210
0.0
220
0.0
230
1.0
 70
    24
 71
     3
 72
     8
 73
     4
 74
     0
 42
0.000000001
 43
0.0000000001
 40
28.0
 40
28.0
 40
28.0
 40
28.0
 40
29.0
 40
29.0
 40
29.0
 40
29.0
 10
5.586609187913893
 20
6.358436954898692
 30
0.0
 10
5.586609187913893
 20
6.358436954898692
 30
0.0
 10
5.581670320558075
 20
6.36372840624557
 30
0.0
 10
5.581670320558075
 20
6.36372840624557
 30
0.0
  0
SPLINE
  5
4F7
330
1F
100
AcDbEntity
  8
Livello 1
370
     5
100
AcDbSpline
210
0.0
220
0.0
230
1.0
 70
    24
 71
     3
 72
     8
 73
     4
 74
     0
 42
0.000000001
 43
0.0000000001
 40
29.0
 40
29.0
 40
29.0
 40
29.0
 40
30.0
 40
30.0
 40
30.0
 40
30.0
 10
5.581670320558075
 20
6.36372840624557
 30
0.0
 10
5.581670320558075
 20
6.36372840624557
 30
0.0
 10
5.578846957148684
 20
6.366197839923472
 30
0.0
 10
5.578846957148684
 20
6.366197839923472
 30
0.0
  0
SPLINE
  5
4F8
330
1F
100
AcDbEntity
  8
Livello 1
370
     5
100
AcDbSpline
210
0.0
220
0.0
230
1.0
 70
    24
 71
     3
 72
     8
 73
     4
 74
     0
 42
0.000000001
 43
0.0000000001
 40
30.0
 40
30.0
 40
30.0
 40
30.0
 40
31.0
 40
31.0
 40
31.0
 40
31.0
 10
5.578846957148684
 20
6.366197839923472
 30
0.0
 10
5.578846957148684
 20
6.366197839923472
 30
0.0
 10
5.573908762663094
 20
6.368667273601374
 30
0.0
 10
5.573908762663094
 20
6.368667273601374
 30
0.0
  0
SPLINE
  5
4F9
330
1F
100
AcDbEntity
  8
Livello 1
370
     5
100
AcDbSpline
210
0.0
220
0.0
230
1.0
 70
     8
 71
     3
 72
     8
 73
     4
 74
     0
 42
0.000000001
 43
0.0000000001
 40
31.0
 40
31.0
 40
31.0
 40
31.0
 40
32.0
 40
32.0
 40
32.0
 40
32.0
 10
5.573908762663094
 20
6.368667273601374
 30
0.0
 10
5.563325859969339
 20
6.380661857999825
 30
0.0
 10
5.565089452794893
 20
6.376780742617228
 30
0.0
 10
5.555917558935632
 20
6.384189043650934
 30
0.0
  0
SPLINE
  5
4FA
330
1F
100
AcDbEntity
  8
Livello 1
370
     5
100
AcDbSpline
210
0.0
220
0.0
230
1.0
 70
    24
 71
     3
 72
     8
 73
     4
 74
     0
 42
0.000000001
 43
0.0000000001
 40
32.0
 40
32.0
 40
32.0
 40
32.0
 40
33.0
 40
33.0
 40
33.0
 40
33.0
 10
5.555917558935632
 20
6.384189043650934
 30
0.0
 10
5.555917558935632
 20
6.384189043650934
 30
0.0
 10
5.540747700006917
 20
6.399712159440923
 30
0.0
 10
5.540747700006917
 20
6.399712159440923
 30
0.0
  0
LINE
  5
4FB
330
1F
100
AcDbEntity
  8
Livello 1
370
     5
100
AcDbLine
 10
5.540606397262408
 20
6.396996455265437
 30
0.0
 11
5.509914095413932
 21
6.427687411373497
 31
0.0
  0
LINE
  5
4FC
330
1F
100
AcDbEntity
  8
Livello 1
370
     5
100
AcDbLine
 10
6.081203782957629
 20
6.427758735615967
 30
0.0
 11
6.081203782957629
 21
6.276769351532337
 31
0.0
  0
LINE
  5
4FD
330
1F
100
AcDbEntity
  8
Livello 1
370
     5
100
AcDbLine
 10
7.001001213825759
 20
7.921560212462836
 30
0.0
 11
7.001001213825759
 21
7.926851663809706
 31
0.0
  0
LINE
  5
4FE
330
1F
100
AcDbEntity
  8
Livello 1
370
     5
100
AcDbLine
 10
7.001001213825759
 20
7.926851663809706
 30
0.0
 11
7.001001213825759
 21
7.960012053595669
 31
0.0
  0
LINE
  5
4FF
330
1F
100
AcDbEntity
  8
Livello 1
370
     5
100
AcDbLine
 10
7.001001213825759
 20
7.960012053595669
 30
0.0
 11
7.001001213825759
 21
7.964950920951473
 31
0.0
  0
LINE
  5
500
330
1F
100
AcDbEntity
  8
Livello 1
370
     5
100
AcDbLine
 10
7.001001213825759
 20
6.678935802780003
 30
0.0
 11
7.001001213825759
 21
6.686696687804769
 31
0.0
  0
LINE
  5
501
330
1F
100
AcDbEntity
  8
Livello 1
370
     5
100
AcDbLine
 10
7.001001213825759
 20
6.686696687804769
 30
0.0
 11
7.001001213825759
 21
6.719857077590731
 31
0.0
  0
LINE
  5
502
330
1F
100
AcDbEntity
  8
Livello 1
370
     5
100
AcDbLine
 10
7.001001213825759
 20
6.719857077590731
 30
0.0
 11
7.001001213825759
 21
6.722326511268633
 31
0.0
  0
LINE
  5
503
330
1F
100
AcDbEntity
  8
Livello 1
370
     5
100
AcDbLine
 10
7.001001213825759
 20
6.722504149004606
 30
0.0
 11
7.001001213825759
 21
7.921595201713856
 31
0.0
  0
SPLINE
  5
504
330
1F
100
AcDbEntity
  8
Livello 1
370
     5
100
AcDbSpline
210
0.0
220
0.0
230
1.0
 70
     9
 71
     3
 72
    17
 73
    13
 74
     0
 42
0.000000001
 43
0.0000000001
 40
0.0
 40
0.0
 40
0.0
 40
0.0
 40
1.0
 40
1.0
 40
1.0
 40
2.0
 40
2.0
 40
2.0
 40
3.0
 40
3.0
 40
3.0
 40
4.0
 40
4.0
 40
4.0
 40
4.0
 10
7.670220432018496
 20
7.117086007223008
 30
0.0
 10
7.551333685747636
 20
7.117086007223008
 30
0.0
 10
7.455025772309383
 20
7.213393920661246
 30
0.0
 10
7.455025772309383
 20
7.332279321191691
 30
0.0
 10
7.455025772309383
 20
7.451166067462565
 30
0.0
 10
7.551333685747636
 20
7.547473980900804
 30
0.0
 10
7.670220432018496
 20
7.547473980900804
 30
0.0
 10
7.789105832548941
 20
7.547473980900804
 30
0.0
 10
7.885413745987179
 20
7.451166067462565
 30
0.0
 10
7.885413745987179
 20
7.332279321191691
 30
0.0
 10
7.885413745987179
 20
7.213393920661246
 30
0.0
 10
7.789105832548941
 20
7.117086007223008
 30
0.0
 10
7.670220432018496
 20
7.117086007223008
 30
0.0
  0
LINE
  5
505
330
1F
100
AcDbEntity
  8
Livello 1
370
     5
100
AcDbLine
 10
9.232532208107002
 20
7.311748705284287
 30
0.0
 11
9.250523411834464
 21
7.222142579157193
 31
0.0
  0
LINE
  5
506
330
1F
100
AcDbEntity
  8
Livello 1
370
     5
100
AcDbLine
 10
9.250523411834464
 20
7.222142579157193
 30
0.0
 11
9.301676351088332
 21
7.145237551151112
 31
0.0
  0
LINE
  5
507
330
1F
100
AcDbEntity
  8
Livello 1
370
     5
100
AcDbLine
 10
9.301676351088332
 20
7.145237551151112
 30
0.0
 11
9.378581379094399
 21
7.096554045575174
 31
0.0
  0
LINE
  5
508
330
1F
100
AcDbEntity
  8
Livello 1
370
     5
100
AcDbLine
 10
9.378581379094399
 20
7.096554045575174
 30
0.0
 11
9.465718071543591
 21
7.078561496107283
 31
0.0
  0
LINE
  5
509
330
1F
100
AcDbEntity
  8
Livello 1
370
     5
100
AcDbLine
 10
9.465718071543591
 20
7.078561496107283
 30
0.0
 11
9.555322851930256
 21
7.096554045575174
 31
0.0
  0
LINE
  5
50A
330
1F
100
AcDbEntity
  8
Livello 1
370
     5
100
AcDbLine
 10
9.555322851930256
 20
7.096554045575174
 30
0.0
 11
9.63222922567678
 21
7.145237551151112
 31
0.0
  0
LINE
  5
50B
330
1F
100
AcDbEntity
  8
Livello 1
370
     5
100
AcDbLine
 10
9.63222922567678
 20
7.145237551151112
 30
0.0
 11
9.680912731252718
 21
7.222142579157193
 31
0.0
  0
LINE
  5
50C
330
1F
100
AcDbEntity
  8
Livello 1
370
     5
100
AcDbLine
 10
9.680912731252718
 20
7.222142579157193
 30
0.0
 11
9.698903934980165
 21
7.311748705284287
 31
0.0
  0
LINE
  5
50D
330
1F
100
AcDbEntity
  8
Livello 1
370
     5
100
AcDbLine
 10
9.209460834279227
 20
7.311748705284287
 30
0.0
 11
9.227452038006674
 21
7.211912260454496
 31
0.0
  0
LINE
  5
50E
330
1F
100
AcDbEntity
  8
Livello 1
370
     5
100
AcDbLine
 10
9.227452038006674
 20
7.211912260454496
 30
0.0
 11
9.283896428607405
 21
7.12724500168322
 31
0.0
  0
LINE
  5
50F
330
1F
100
AcDbEntity
  8
Livello 1
370
     5
100
AcDbLine
 10
9.283896428607405
 20
7.12724500168322
 30
0.0
 11
9.368209757647179
 21
7.073622628751479
 31
0.0
  0
LINE
  5
510
330
1F
100
AcDbEntity
  8
Livello 1
370
     5
100
AcDbLine
 10
9.368209757647179
 20
7.073622628751479
 30
0.0
 11
9.465576768799067
 21
7.052809407355042
 31
0.0
  0
LINE
  5
511
330
1F
100
AcDbEntity
  8
Livello 1
370
     5
100
AcDbLine
 10
9.465576768799067
 20
7.052809407355042
 30
0.0
 11
9.565765797619917
 21
7.073622628751479
 31
0.0
  0
LINE
  5
512
330
1F
100
AcDbEntity
  8
Livello 1
370
     5
100
AcDbLine
 10
9.565765797619917
 20
7.073622628751479
 30
0.0
 11
9.650079126659704
 21
7.12724500168322
 31
0.0
  0
LINE
  5
513
330
1F
100
AcDbEntity
  8
Livello 1
370
     5
100
AcDbLine
 10
9.650079126659704
 20
7.12724500168322
 30
0.0
 11
9.704054083582533
 21
7.211912260454496
 31
0.0
  0
LINE
  5
514
330
1F
100
AcDbEntity
  8
Livello 1
370
     5
100
AcDbLine
 10
9.704054083582533
 20
7.211912260454496
 30
0.0
 11
9.724516066728313
 21
7.311748705284287
 31
0.0
  0
LINE
  5
515
330
1F
100
AcDbEntity
  8
Livello 1
370
     5
100
AcDbLine
 10
9.698798967227091
 20
7.311748705284287
 30
0.0
 11
9.680806417759214
 21
7.39888405199305
 31
0.0
  0
LINE
  5
516
330
1F
100
AcDbEntity
  8
Livello 1
370
     5
100
AcDbLine
 10
9.680806417759214
 20
7.39888405199305
 30
0.0
 11
9.632122912183277
 21
7.475789079999145
 31
0.0
  0
LINE
  5
517
330
1F
100
AcDbEntity
  8
Livello 1
370
     5
100
AcDbLine
 10
9.632122912183277
 20
7.475789079999145
 30
0.0
 11
9.555217884177181
 21
7.52694201925297
 31
0.0
  0
LINE
  5
518
330
1F
100
AcDbEntity
  8
Livello 1
370
     5
100
AcDbLine
 10
9.555217884177181
 20
7.52694201925297
 30
0.0
 11
9.465611758050101
 21
7.544934568720861
 31
0.0
  0
LINE
  5
519
330
1F
100
AcDbEntity
  8
Livello 1
370
     5
100
AcDbLine
 10
9.465611758050101
 20
7.544934568720861
 30
0.0
 11
9.378476411341324
 21
7.52694201925297
 31
0.0
  0
LINE
  5
51A
330
1F
100
AcDbEntity
  8
Livello 1
370
     5
100
AcDbLine
 10
9.378476411341324
 20
7.52694201925297
 30
0.0
 11
9.301570037594828
 21
7.475789079999145
 31
0.0
  0
LINE
  5
51B
330
1F
100
AcDbEntity
  8
Livello 1
370
     5
100
AcDbLine
 10
9.301570037594828
 20
7.475789079999145
 30
0.0
 11
9.250417098340975
 21
7.39888405199305
 31
0.0
  0
LINE
  5
51C
330
1F
100
AcDbEntity
  8
Livello 1
370
     5
100
AcDbLine
 10
9.250417098340975
 20
7.39888405199305
 30
0.0
 11
9.232425894613513
 21
7.311748705284287
 31
0.0
  0
LINE
  5
51D
330
1F
100
AcDbEntity
  8
Livello 1
370
     5
100
AcDbLine
 10
9.724409753234823
 20
7.311748705284287
 30
0.0
 11
9.70394777008903
 21
7.409114370695732
 31
0.0
  0
LINE
  5
51E
330
1F
100
AcDbEntity
  8
Livello 1
370
     5
100
AcDbLine
 10
9.70394777008903
 20
7.409114370695732
 30
0.0
 11
9.649972813166229
 21
7.493781629467022
 31
0.0
  0
LINE
  5
51F
330
1F
100
AcDbEntity
  8
Livello 1
370
     5
100
AcDbLine
 10
9.649972813166229
 20
7.493781629467022
 30
0.0
 11
9.565659484126442
 21
7.549873436076666
 31
0.0
  0
LINE
  5
520
330
1F
100
AcDbEntity
  8
Livello 1
370
     5
100
AcDbLine
 10
9.565659484126442
 20
7.549873436076666
 30
0.0
 11
9.465470455305563
 21
7.567864639804128
 31
0.0
  0
LINE
  5
521
330
1F
100
AcDbEntity
  8
Livello 1
370
     5
100
AcDbLine
 10
9.465470455305563
 20
7.567864639804128
 30
0.0
 11
9.368103444153703
 21
7.549873436076666
 31
0.0
  0
LINE
  5
522
330
1F
100
AcDbEntity
  8
Livello 1
370
     5
100
AcDbLine
 10
9.368103444153703
 20
7.549873436076666
 30
0.0
 11
9.283790115113916
 21
7.493781629467022
 31
0.0
  0
LINE
  5
523
330
1F
100
AcDbEntity
  8
Livello 1
370
     5
100
AcDbLine
 10
9.283790115113916
 20
7.493781629467022
 30
0.0
 11
9.227345724513199
 21
7.409114370695732
 31
0.0
  0
LINE
  5
524
330
1F
100
AcDbEntity
  8
Livello 1
370
     5
100
AcDbLine
 10
9.227345724513199
 20
7.409114370695732
 30
0.0
 11
9.209353175045308
 21
7.311748705284287
 31
0.0
  0
LINE
  5
525
330
1F
100
AcDbEntity
  8
Livello 1
370
     5
100
AcDbLine
 10
9.611697264028933
 20
7.232302919357834
 30
0.0
 11
9.611697264028933
 21
7.391051842725786
 31
0.0
  0
LINE
  5
526
330
1F
100
AcDbEntity
  8
Livello 1
370
     5
100
AcDbLine
 10
9.591236626623555
 20
7.232302919357834
 30
0.0
 11
9.611697264028933
 21
7.232302919357834
 31
0.0
  0
LINE
  5
527
330
1F
100
AcDbEntity
  8
Livello 1
370
     5
100
AcDbLine
 10
9.591236626623555
 20
7.39115950195972
 30
0.0
 11
9.591236626623555
 21
7.232409232851324
 31
0.0
  0
LINE
  5
528
330
1F
100
AcDbEntity
  8
Livello 1
370
     5
100
AcDbLine
 10
9.611697264028933
 20
7.39115950195972
 30
0.0
 11
9.59123528088314
 21
7.39115950195972
 31
0.0
  0
LINE
  5
529
330
1F
100
AcDbEntity
  8
Livello 1
370
     5
100
AcDbLine
 10
9.529712065922524
 20
7.427001952410549
 30
0.0
 11
9.529712065922524
 21
7.193814743233559
 31
0.0
  0
LINE
  5
52A
330
1F
100
AcDbEntity
  8
Livello 1
370
     5
100
AcDbLine
 10
9.550209038319337
 20
7.427001952410549
 30
0.0
 11
9.529747055173544
 21
7.427001952410549
 31
0.0
  0
LINE
  5
52B
330
1F
100
AcDbEntity
  8
Livello 1
370
     5
100
AcDbLine
 10
9.550209038319337
 20
7.193886067476029
 30
0.0
 11
9.550209038319337
 21
7.427071930912603
 31
0.0
  0
LINE
  5
52C
330
1F
100
AcDbEntity
  8
Livello 1
370
     5
100
AcDbLine
 10
9.529712065922524
 20
7.193886067476029
 30
0.0
 11
9.550172703327888
 21
7.193886067476029
 31
0.0
  0
LINE
  5
52D
330
1F
100
AcDbEntity
  8
Livello 1
370
     5
100
AcDbLine
 10
9.465648093041551
 20
7.301483397330585
 30
0.0
 11
9.465648093041551
 21
7.142733128222175
 31
0.0
  0
LINE
  5
52E
330
1F
100
AcDbEntity
  8
Livello 1
370
     5
100
AcDbLine
 10
9.283755125862896
 20
7.301483397330585
 30
0.0
 11
9.465788050045631
 21
7.301483397330585
 31
0.0
  0
LINE
  5
52F
330
1F
100
AcDbEntity
  8
Livello 1
370
     5
100
AcDbLine
 10
9.283755125862896
 20
7.321979023986983
 30
0.0
 11
9.283755125862896
 21
7.301517040841176
 31
0.0
  0
LINE
  5
530
330
1F
100
AcDbEntity
  8
Livello 1
370
     5
100
AcDbLine
 10
9.465648093041551
 20
7.321979023986983
 30
0.0
 11
9.283613823118386
 21
7.321979023986983
 31
0.0
  0
LINE
  5
531
330
1F
100
AcDbEntity
  8
Livello 1
370
     5
100
AcDbLine
 10
9.465648093041551
 20
7.475720447237506
 30
0.0
 11
9.465648093041551
 21
7.321909045484929
 31
0.0
  0
LINE
  5
532
330
1F
100
AcDbEntity
  8
Livello 1
370
     5
100
AcDbLine
 10
9.486143719697935
 20
7.475720447237506
 30
0.0
 11
9.465681736552141
 21
7.475720447237506
 31
0.0
  0
LINE
  5
533
330
1F
100
AcDbEntity
  8
Livello 1
370
     5
100
AcDbLine
 10
9.486143719697935
 20
7.142663149720135
 30
0.0
 11
9.486143719697935
 21
7.475684112246071
 31
0.0
  0
LINE
  5
534
330
1F
100
AcDbEntity
  8
Livello 1
370
     5
100
AcDbLine
 10
9.465648093041551
 20
7.142663149720135
 30
0.0
 11
9.4861087304469
 21
7.142663149720135
 31
0.0
  0
SPLINE
  5
535
330
1F
100
AcDbEntity
  8
Livello 1
370
     5
100
AcDbSpline
210
0.0
220
0.0
230
1.0
 70
    24
 71
     3
 72
     8
 73
     4
 74
     0
 42
0.000000001
 43
0.0000000001
 40
0.0
 40
0.0
 40
0.0
 40
0.0
 40
1.0
 40
1.0
 40
1.0
 40
1.0
 10
3.228748157077035
 20
6.734357430658533
 30
0.0
 10
3.228748157077035
 20
6.734357430658533
 30
0.0
 10
3.269670104757977
 20
6.736826864336435
 30
0.0
 10
3.269670104757977
 20
6.736826864336435
 30
0.0
  0
SPLINE
  5
536
330
1F
100
AcDbEntity
  8
Livello 1
370
     5
100
AcDbSpline
210
0.0
220
0.0
230
1.0
 70
    24
 71
     3
 72
     8
 73
     4
 74
     0
 42
0.000000001
 43
0.0000000001
 40
1.0
 40
1.0
 40
1.0
 40
1.0
 40
2.0
 40
2.0
 40
2.0
 40
2.0
 10
3.269670104757977
 20
6.736826864336435
 30
0.0
 10
3.269670104757977
 20
6.736826864336435
 30
0.0
 10
3.308122618761032
 20
6.747057183039117
 30
0.0
 10
3.308122618761032
 20
6.747057183039117
 30
0.0
  0
SPLINE
  5
537
330
1F
100
AcDbEntity
  8
Livello 1
370
     5
100
AcDbSpline
210
0.0
220
0.0
230
1.0
 70
     8
 71
     3
 72
     8
 73
     4
 74
     0
 42
0.000000001
 43
0.0000000001
 40
2.0
 40
2.0
 40
2.0
 40
2.0
 40
3.0
 40
3.0
 40
3.0
 40
3.0
 10
3.308122618761032
 20
6.747057183039117
 30
0.0
 10
3.537428712555396
 20
6.83101792808786
 30
0.0
 10
3.528256145825935
 20
7.156279351329416
 30
0.0
 10
3.287661981355654
 20
7.218720361259144
 30
0.0
  0
SPLINE
  5
538
330
1F
100
AcDbEntity
  8
Livello 1
370
     5
100
AcDbSpline
210
0.0
220
0.0
230
1.0
 70
    24
 71
     3
 72
     8
 73
     4
 74
     0
 42
0.000000001
 43
0.0000000001
 40
3.0
 40
3.0
 40
3.0
 40
3.0
 40
4.0
 40
4.0
 40
4.0
 40
4.0
 10
3.287661981355654
 20
7.218720361259144
 30
0.0
 10
3.287661981355654
 20
7.218720361259144
 30
0.0
 10
3.249208794482399
 20
7.226128662292865
 30
0.0
 10
3.249208794482399
 20
7.226128662292865
 30
0.0
  0
SPLINE
  5
539
330
1F
100
AcDbEntity
  8
Livello 1
370
     5
100
AcDbSpline
210
0.0
220
0.0
230
1.0
 70
    24
 71
     3
 72
     8
 73
     4
 74
     0
 42
0.000000001
 43
0.0000000001
 40
4.0
 40
4.0
 40
4.0
 40
4.0
 40
5.0
 40
5.0
 40
5.0
 40
5.0
 10
3.249208794482399
 20
7.226128662292865
 30
0.0
 10
3.249208794482399
 20
7.226128662292865
 30
0.0
 10
3.210756280479358
 20
7.226128662292865
 30
0.0
 10
3.210756280479358
 20
7.226128662292865
 30
0.0
  0
SPLINE
  5
53A
330
1F
100
AcDbEntity
  8
Livello 1
370
     5
100
AcDbSpline
210
0.0
220
0.0
230
1.0
 70
     8
 71
     3
 72
     8
 73
     4
 74
     0
 42
0.000000001
 43
0.0000000001
 40
5.0
 40
5.0
 40
5.0
 40
5.0
 40
6.0
 40
6.0
 40
6.0
 40
6.0
 10
3.210756280479358
 20
7.226128662292865
 30
0.0
 10
2.939469814160588
 20
7.192615688515857
 30
0.0
 10
2.9003114593052
 20
6.840895662799468
 30
0.0
 10
3.151842456200739
 20
6.747057183039117
 30
0.0
  0
SPLINE
  5
53B
330
1F
100
AcDbEntity
  8
Livello 1
370
     5
100
AcDbSpline
210
0.0
220
0.0
230
1.0
 70
    24
 71
     3
 72
     8
 73
     4
 74
     0
 42
0.000000001
 43
0.0000000001
 40
6.0
 40
6.0
 40
6.0
 40
6.0
 40
7.0
 40
7.0
 40
7.0
 40
7.0
 10
3.151842456200739
 20
6.747057183039117
 30
0.0
 10
3.151842456200739
 20
6.747057183039117
 30
0.0
 10
3.19029497020378
 20
6.736826864336435
 30
0.0
 10
3.19029497020378
 20
6.736826864336435
 30
0.0
  0
SPLINE
  5
53C
330
1F
100
AcDbEntity
  8
Livello 1
370
     5
100
AcDbSpline
210
0.0
220
0.0
230
1.0
 70
    24
 71
     3
 72
     8
 73
     4
 74
     0
 42
0.000000001
 43
0.0000000001
 40
7.0
 40
7.0
 40
7.0
 40
7.0
 40
8.0
 40
8.0
 40
8.0
 40
8.0
 10
3.19029497020378
 20
6.736826864336435
 30
0.0
 10
3.19029497020378
 20
6.736826864336435
 30
0.0
 10
3.228748157077035
 20
6.734357430658533
 30
0.0
 10
3.228748157077035
 20
6.734357430658533
 30
0.0
  0
LINE
  5
53D
330
1F
100
AcDbEntity
  8
Livello 1
370
     5
100
AcDbLine
 10
2.829086128758291
 20
7.44658112983825
 30
0.0
 11
2.831555562436207
 21
7.223624239363928
 31
0.0
  0
LINE
  5
53E
330
1F
100
AcDbEntity
  8
Livello 1
370
     5
100
AcDbLine
 10
2.831696865180717
 20
6.706170897479395
 30
0.0
 11
2.831696865180717
 21
6.731922986231651
 31
0.0
  0
LINE
  5
53F
330
1F
100
AcDbEntity
  8
Livello 1
370
     5
100
AcDbLine
 10
2.831696865180717
 20
6.731922986231651
 30
0.0
 11
2.831696865180717
 21
6.767554155435931
 31
0.0
  0
LINE
  5
540
330
1F
100
AcDbEntity
  8
Livello 1
370
     5
100
AcDbLine
 10
2.831696865180717
 20
7.223695563606398
 30
0.0
 11
2.831696865180717
 21
7.180303509377338
 31
0.0
  0
LINE
  5
541
330
1F
100
AcDbEntity
  8
Livello 1
370
     5
100
AcDbLine
 10
2.829086128758291
 20
7.180163552373258
 30
0.0
 11
2.829086128758291
 21
7.236607942973975
 31
0.0
  0
LINE
  5
542
330
1F
100
AcDbEntity
  8
Livello 1
370
     5
100
AcDbLine
 10
2.829086128758291
 20
7.236607942973975
 30
0.0
 11
2.831555562436207
 21
7.236607942973975
 31
0.0
  0
LINE
  5
543
330
1F
100
AcDbEntity
  8
Livello 1
370
     5
100
AcDbLine
 10
2.829086128758291
 20
7.236501629480486
 30
0.0
 11
2.829086128758291
 21
7.415712535994245
 31
0.0
  0
LINE
  5
544
330
1F
100
AcDbEntity
  8
Livello 1
370
     5
100
AcDbLine
 10
2.829086128758291
 20
7.415712535994245
 30
0.0
 11
2.829086128758291
 21
7.492617564000326
 31
0.0
  0
LINE
  5
545
330
1F
100
AcDbEntity
  8
Livello 1
370
     5
100
AcDbLine
 10
2.829086128758291
 20
7.492617564000326
 30
0.0
 11
2.829086128758291
 21
7.446756076093365
 31
0.0
  0
LINE
  5
546
330
1F
100
AcDbEntity
  8
Livello 1
370
     5
100
AcDbLine
 10
2.831696865180717
 20
7.180163552373258
 30
0.0
 11
2.8292267586326
 21
7.180163552373258
 31
0.0
  0
LINE
  5
547
330
1F
100
AcDbEntity
  8
Livello 1
370
     5
100
AcDbLine
 10
3.080228879541522
 20
7.492723877493816
 30
0.0
 11
2.998384311309422
 21
7.492723877493816
 31
0.0
  0
LINE
  5
548
330
1F
100
AcDbEntity
  8
Livello 1
370
     5
100
AcDbLine
 10
3.080228879541522
 20
7.759176444209856
 30
0.0
 11
3.080228879541522
 21
7.492828845246876
 31
0.0
  0
LINE
  5
549
330
1F
100
AcDbEntity
  8
Livello 1
370
     5
100
AcDbLine
 10
2.998243008564898
 20
7.759176444209856
 30
0.0
 11
3.080086903926797
 21
7.759176444209856
 31
0.0
  0
LINE
  5
54A
330
1F
100
AcDbEntity
  8
Livello 1
370
     5
100
AcDbLine
 10
2.926523118412205
 20
8.038436422540357
 30
0.0
 11
2.926523118412205
 21
8.035965643122032
 31
0.0
  0
LINE
  5
54B
330
1F
100
AcDbEntity
  8
Livello 1
370
     5
100
AcDbLine
 10
2.926523118412205
 20
8.035895664619978
 30
0.0
 11
2.885600497861048
 21
8.010142230127321
 31
0.0
  0
LINE
  5
54C
330
1F
100
AcDbEntity
  8
Livello 1
370
     5
100
AcDbLine
 10
2.885600497861048
 20
8.010142230127321
 30
0.0
 11
2.857378302560718
 21
7.974511060923035
 31
0.0
  0
LINE
  5
54D
330
1F
100
AcDbEntity
  8
Livello 1
370
     5
100
AcDbLine
 10
2.857378302560718
 20
7.974511060923035
 30
0.0
 11
2.836916992285139
 21
7.9335897861123
 31
0.0
  0
LINE
  5
54E
330
1F
100
AcDbEntity
  8
Livello 1
370
     5
100
AcDbLine
 10
2.836916992285139
 20
7.9335897861123
 30
0.0
 11
2.831625540938247
 21
7.887375714214279
 31
0.0
  0
LINE
  5
54F
330
1F
100
AcDbEntity
  8
Livello 1
370
     5
100
AcDbLine
 10
2.829086128758291
 20
7.759176444209856
 30
0.0
 11
2.998066043699168
 21
7.759176444209856
 31
0.0
  0
LINE
  5
550
330
1F
100
AcDbEntity
  8
Livello 1
370
     5
100
AcDbLine
 10
2.829086128758291
 20
7.887270746461211
 30
0.0
 11
2.829086128758291
 21
7.759211433460862
 31
0.0
  0
LINE
  5
551
330
1F
100
AcDbEntity
  8
Livello 1
370
     5
100
AcDbLine
 10
2.831696865180717
 20
7.887270746461211
 30
0.0
 11
2.8292267586326
 21
7.887270746461211
 31
0.0
  0
LINE
  5
552
330
1F
100
AcDbEntity
  8
Livello 1
370
     5
100
AcDbLine
 10
2.829086128758291
 20
7.492723877493816
 30
0.0
 11
2.998066043699168
 21
7.492723877493816
 31
0.0
  0
LINE
  5
553
330
1F
100
AcDbEntity
  8
Livello 1
370
     5
100
AcDbLine
 10
2.831696865180717
 20
6.706170897479395
 30
0.0
 11
2.841927183883399
 21
6.665248276928252
 31
0.0
  0
LINE
  5
554
330
1F
100
AcDbEntity
  8
Livello 1
370
     5
100
AcDbLine
 10
2.841927183883399
 20
6.665248276928252
 30
0.0
 11
2.862388494158977
 21
6.626795090054997
 31
0.0
  0
LINE
  5
555
330
1F
100
AcDbEntity
  8
Livello 1
370
     5
100
AcDbLine
 10
2.862388494158977
 20
6.626795090054997
 30
0.0
 11
2.890610689459336
 21
6.596104133946965
 31
0.0
  0
LINE
  5
556
330
1F
100
AcDbEntity
  8
Livello 1
370
     5
100
AcDbLine
 10
2.890610689459336
 20
6.596104133946965
 30
0.0
 11
2.926593769784474
 21
6.572820133132182
 31
0.0
  0
LINE
  5
557
330
1F
100
AcDbEntity
  8
Livello 1
370
     5
100
AcDbLine
 10
2.829086128758291
 20
6.795847002108544
 30
0.0
 11
2.829086128758291
 21
6.770093567615873
 31
0.0
  0
LINE
  5
558
330
1F
100
AcDbEntity
  8
Livello 1
370
     5
100
AcDbLine
 10
2.829086128758291
 20
6.724092122704831
 30
0.0
 11
2.831555562436207
 21
6.724092122704831
 31
0.0
  0
LINE
  5
559
330
1F
100
AcDbEntity
  8
Livello 1
370
     5
100
AcDbLine
 10
2.829086128758291
 20
6.795847002108544
 30
0.0
 11
2.831555562436207
 21
6.795847002108544
 31
0.0
  0
LINE
  5
55A
330
1F
100
AcDbEntity
  8
Livello 1
370
     5
100
AcDbLine
 10
2.829086128758291
 20
7.180163552373258
 30
0.0
 11
2.829086128758291
 21
6.795988304853054
 31
0.0
  0
LINE
  5
55B
330
1F
100
AcDbEntity
  8
Livello 1
370
     5
100
AcDbLine
 10
2.829086128758291
 20
7.759176444209856
 30
0.0
 11
2.829086128758291
 21
7.887234411469762
 31
0.0
  0
LINE
  5
55C
330
1F
100
AcDbEntity
  8
Livello 1
370
     5
100
AcDbLine
 10
2.829086128758291
 20
7.887234411469762
 30
0.0
 11
2.831555562436207
 21
7.887234411469762
 31
0.0
  0
LINE
  5
55D
330
1F
100
AcDbEntity
  8
Livello 1
370
     5
100
AcDbLine
 10
2.829086128758291
 20
7.759176444209856
 30
0.0
 11
2.831555562436207
 21
7.759176444209856
 31
0.0
  0
LINE
  5
55E
330
1F
100
AcDbEntity
  8
Livello 1
370
     5
100
AcDbLine
 10
2.946949439436778
 20
8.046125983322667
 30
0.0
 11
2.926488129161199
 21
8.038363752557465
 31
0.0
  0
LINE
  5
55F
330
1F
100
AcDbEntity
  8
Livello 1
370
     5
100
AcDbLine
 10
2.946949439436778
 20
6.565271875094381
 30
0.0
 11
2.926488129161199
 21
6.573032760119176
 31
0.0
  0
LINE
  5
560
330
1F
100
AcDbEntity
  8
Livello 1
370
     5
100
AcDbLine
 10
2.970056475385788
 20
8.051242488414438
 30
0.0
 11
3.051900370747688
 21
8.063942240795029
 31
0.0
  0
LINE
  5
561
330
1F
100
AcDbEntity
  8
Livello 1
370
     5
100
AcDbLine
 10
3.051900370747688
 20
8.063942240795029
 30
0.0
 11
3.118575752921287
 21
8.076994577166679
 31
0.0
  0
LINE
  5
562
330
1F
100
AcDbEntity
  8
Livello 1
370
     5
100
AcDbLine
 10
3.118575752921287
 20
8.076994577166679
 30
0.0
 11
3.144328514543744
 21
8.081933444522483
 31
0.0
  0
LINE
  5
563
330
1F
100
AcDbEntity
  8
Livello 1
370
     5
100
AcDbLine
 10
3.144328514543744
 20
8.081933444522483
 30
0.0
 11
3.164789151949108
 21
8.084402878200386
 31
0.0
  0
LINE
  5
564
330
1F
100
AcDbEntity
  8
Livello 1
370
     5
100
AcDbLine
 10
3.164789151949108
 20
8.084402878200386
 30
0.0
 11
3.169728692175127
 21
8.084402878200386
 31
0.0
  0
LINE
  5
565
330
1F
100
AcDbEntity
  8
Livello 1
370
     5
100
AcDbLine
 10
3.169728692175127
 20
8.084402878200386
 30
0.0
 11
3.175020143522004
 21
8.087224895869368
 31
0.0
  0
LINE
  5
566
330
1F
100
AcDbEntity
  8
Livello 1
370
     5
100
AcDbLine
 10
3.175020143522004
 20
8.087224895869368
 30
0.0
 11
3.177489577199906
 21
8.087224895869368
 31
0.0
  0
LINE
  5
567
330
1F
100
AcDbEntity
  8
Livello 1
370
     5
100
AcDbLine
 10
3.177489577199906
 20
8.087224895869368
 30
0.0
 11
3.526033655515831
 21
8.087224895869368
 31
0.0
  0
LINE
  5
568
330
1F
100
AcDbEntity
  8
Livello 1
370
     5
100
AcDbLine
 10
3.526033655515831
 20
8.087224895869368
 30
0.0
 11
3.75639817415363
 21
8.087224895869368
 31
0.0
  0
LINE
  5
569
330
1F
100
AcDbEntity
  8
Livello 1
370
     5
100
AcDbLine
 10
2.946949439436778
 20
8.046125983322667
 30
0.0
 11
2.969879510520044
 21
8.051417434669545
 31
0.0
  0
LINE
  5
56A
330
1F
100
AcDbEntity
  8
Livello 1
370
     5
100
AcDbLine
 10
3.177560228572147
 20
6.521703528869792
 30
0.0
 11
3.526104306888086
 21
6.521703528869792
 31
0.0
  0
LINE
  5
56B
330
1F
100
AcDbEntity
  8
Livello 1
370
     5
100
AcDbLine
 10
3.526104306888086
 20
6.521703528869792
 30
0.0
 11
3.709196328784429
 21
6.521703528869792
 31
0.0
  0
SPLINE
  5
56C
330
1F
100
AcDbEntity
  8
Livello 1
370
     5
100
AcDbSpline
210
0.0
220
0.0
230
1.0
 70
    24
 71
     3
 72
     8
 73
     4
 74
     0
 42
0.000000001
 43
0.0000000001
 40
0.0
 40
0.0
 40
0.0
 40
0.0
 40
1.0
 40
1.0
 40
1.0
 40
1.0
 10
2.970056475385788
 20
6.560120380751598
 30
0.0
 10
2.970056475385788
 20
6.560120380751598
 30
0.0
 10
3.016269874413609
 20
6.549888716308473
 30
0.0
 10
3.016269874413609
 20
6.549888716308473
 30
0.0
  0
SPLINE
  5
56D
330
1F
100
AcDbEntity
  8
Livello 1
370
     5
100
AcDbSpline
210
0.0
220
0.0
230
1.0
 70
     8
 71
     3
 72
     8
 73
     4
 74
     0
 42
0.000000001
 43
0.0000000001
 40
1.0
 40
1.0
 40
1.0
 40
1.0
 40
2.0
 40
2.0
 40
2.0
 40
2.0
 10
3.016269874413609
 20
6.549888716308473
 30
0.0
 10
3.069186406493003
 20
6.542480415274781
 30
0.0
 10
3.122103611442611
 20
6.529428078903123
 30
0.0
 10
3.175020143522004
 20
6.524136627556245
 30
0.0
  0
SPLINE
  5
56E
330
1F
100
AcDbEntity
  8
Livello 1
370
     5
100
AcDbSpline
210
0.0
220
0.0
230
1.0
 70
    24
 71
     3
 72
     8
 73
     4
 74
     0
 42
0.000000001
 43
0.0000000001
 40
2.0
 40
2.0
 40
2.0
 40
2.0
 40
3.0
 40
3.0
 40
3.0
 40
3.0
 10
3.175020143522004
 20
6.524136627556245
 30
0.0
 10
3.175020143522004
 20
6.524136627556245
 30
0.0
 10
3.177489577199906
 20
6.521667193878343
 30
0.0
 10
3.177489577199906
 20
6.521667193878343
 30
0.0
  0
LINE
  5
56F
330
1F
100
AcDbEntity
  8
Livello 1
370
     5
100
AcDbLine
 10
2.970056475385788
 20
6.560120380751598
 30
0.0
 11
2.947125731432308
 21
6.565411832098476
 31
0.0
  0
LINE
  5
570
330
1F
100
AcDbEntity
  8
Livello 1
370
     5
100
AcDbLine
 10
4.899997620482324
 20
7.87608764353839
 30
0.0
 11
3.63458376959052
 21
7.87608764353839
 31
0.0
  0
LINE
  5
571
330
1F
100
AcDbEntity
  8
Livello 1
370
     5
100
AcDbLine
 10
3.512875005650684
 20
7.754378879598547
 30
0.0
 11
3.512875005650684
 21
7.759317746954351
 31
0.0
  0
LINE
  5
572
330
1F
100
AcDbEntity
  8
Livello 1
370
     5
100
AcDbLine
 10
3.512875005650684
 20
7.759317746954351
 30
0.0
 11
3.512875005650684
 21
7.774134349021764
 31
0.0
  0
LINE
  5
573
330
1F
100
AcDbEntity
  8
Livello 1
370
     5
100
AcDbLine
 10
3.512875005650684
 20
7.774134349021764
 30
0.0
 11
3.512875005650684
 21
7.77660378269968
 31
0.0
  0
LINE
  5
574
330
1F
100
AcDbEntity
  8
Livello 1
370
     5
100
AcDbLine
 10
3.512875005650684
 20
7.77660378269968
 30
0.0
 11
3.515344439328586
 21
7.779073216377568
 31
0.0
  0
LINE
  5
575
330
1F
100
AcDbEntity
  8
Livello 1
370
     5
100
AcDbLine
 10
3.515344439328586
 20
7.779073216377568
 30
0.0
 11
3.515344439328586
 21
7.786834101402362
 31
0.0
  0
LINE
  5
576
330
1F
100
AcDbEntity
  8
Livello 1
370
     5
100
AcDbLine
 10
3.515344439328586
 20
7.786834101402362
 30
0.0
 11
3.517813873006502
 21
7.789303535080264
 31
0.0
  0
LINE
  5
577
330
1F
100
AcDbEntity
  8
Livello 1
370
     5
100
AcDbLine
 10
3.517813873006502
 20
7.789303535080264
 30
0.0
 11
3.517813873006502
 21
7.794242402436069
 31
0.0
  0
LINE
  5
578
330
1F
100
AcDbEntity
  8
Livello 1
370
     5
100
AcDbLine
 10
3.517813873006502
 20
7.794242402436069
 30
0.0
 11
3.520283306684376
 21
7.796711836113971
 31
0.0
  0
LINE
  5
579
330
1F
100
AcDbEntity
  8
Livello 1
370
     5
100
AcDbLine
 10
3.520283306684376
 20
7.796711836113971
 30
0.0
 11
3.520283306684376
 21
7.801650703469775
 31
0.0
  0
LINE
  5
57A
330
1F
100
AcDbEntity
  8
Livello 1
370
     5
100
AcDbLine
 10
3.520283306684376
 20
7.801650703469775
 30
0.0
 11
3.522752740362292
 21
7.801650703469775
 31
0.0
  0
LINE
  5
57B
330
1F
100
AcDbEntity
  8
Livello 1
370
     5
100
AcDbLine
 10
3.522752740362292
 20
7.801650703469775
 30
0.0
 11
3.522752740362292
 21
7.806589570825593
 31
0.0
  0
LINE
  5
57C
330
1F
100
AcDbEntity
  8
Livello 1
370
     5
100
AcDbLine
 10
3.522752740362292
 20
7.806589570825593
 30
0.0
 11
3.525222174040195
 21
7.809059004503495
 31
0.0
  0
LINE
  5
57D
330
1F
100
AcDbEntity
  8
Livello 1
370
     5
100
AcDbLine
 10
3.525222174040195
 20
7.809059004503495
 30
0.0
 11
3.525222174040195
 21
7.811528438181397
 31
0.0
  0
LINE
  5
57E
330
1F
100
AcDbEntity
  8
Livello 1
370
     5
100
AcDbLine
 10
3.525222174040195
 20
7.811528438181397
 30
0.0
 11
3.527691607718111
 21
7.811528438181397
 31
0.0
  0
LINE
  5
57F
330
1F
100
AcDbEntity
  8
Livello 1
370
     5
100
AcDbLine
 10
3.527691607718111
 20
7.811528438181397
 30
0.0
 11
3.527691607718111
 21
7.816467305537202
 31
0.0
  0
LINE
  5
580
330
1F
100
AcDbEntity
  8
Livello 1
370
     5
100
AcDbLine
 10
3.527691607718111
 20
7.816467305537202
 30
0.0
 11
3.530161041395984
 21
7.816467305537202
 31
0.0
  0
LINE
  5
581
330
1F
100
AcDbEntity
  8
Livello 1
370
     5
100
AcDbLine
 10
3.530161041395984
 20
7.816467305537202
 30
0.0
 11
3.530161041395984
 21
7.818936739215104
 31
0.0
  0
LINE
  5
582
330
1F
100
AcDbEntity
  8
Livello 1
370
     5
100
AcDbLine
 10
3.530161041395984
 20
7.818936739215104
 30
0.0
 11
3.532630475073901
 21
7.821406172893006
 31
0.0
  0
LINE
  5
583
330
1F
100
AcDbEntity
  8
Livello 1
370
     5
100
AcDbLine
 10
3.532630475073901
 20
7.821406172893006
 30
0.0
 11
3.532630475073901
 21
7.823875606570908
 31
0.0
  0
LINE
  5
584
330
1F
100
AcDbEntity
  8
Livello 1
370
     5
100
AcDbLine
 10
3.532630475073901
 20
7.823875606570908
 30
0.0
 11
3.535099908751817
 21
7.823875606570908
 31
0.0
  0
LINE
  5
585
330
1F
100
AcDbEntity
  8
Livello 1
370
     5
100
AcDbLine
 10
3.535099908751817
 20
7.823875606570908
 30
0.0
 11
3.535099908751817
 21
7.82634504024881
 31
0.0
  0
LINE
  5
586
330
1F
100
AcDbEntity
  8
Livello 1
370
     5
100
AcDbLine
 10
3.535099908751817
 20
7.82634504024881
 30
0.0
 11
3.537569342429719
 21
7.82634504024881
 31
0.0
  0
LINE
  5
587
330
1F
100
AcDbEntity
  8
Livello 1
370
     5
100
AcDbLine
 10
3.537569342429719
 20
7.82634504024881
 30
0.0
 11
3.537569342429719
 21
7.828814473926726
 31
0.0
  0
LINE
  5
588
330
1F
100
AcDbEntity
  8
Livello 1
370
     5
100
AcDbLine
 10
3.537569342429719
 20
7.828814473926726
 30
0.0
 11
3.540038776107621
 21
7.831283907604628
 31
0.0
  0
LINE
  5
589
330
1F
100
AcDbEntity
  8
Livello 1
370
     5
100
AcDbLine
 10
3.540038776107621
 20
7.831283907604628
 30
0.0
 11
3.540038776107621
 21
7.83375334128253
 31
0.0
  0
LINE
  5
58A
330
1F
100
AcDbEntity
  8
Livello 1
370
     5
100
AcDbLine
 10
3.540038776107621
 20
7.83375334128253
 30
0.0
 11
3.542508209785538
 21
7.83375334128253
 31
0.0
  0
LINE
  5
58B
330
1F
100
AcDbEntity
  8
Livello 1
370
     5
100
AcDbLine
 10
3.542508209785538
 20
7.83375334128253
 30
0.0
 11
3.545330227454499
 21
7.836222774960432
 31
0.0
  0
LINE
  5
58C
330
1F
100
AcDbEntity
  8
Livello 1
370
     5
100
AcDbLine
 10
3.545330227454499
 20
7.836222774960432
 30
0.0
 11
3.545330227454499
 21
7.838692208638335
 31
0.0
  0
LINE
  5
58D
330
1F
100
AcDbEntity
  8
Livello 1
370
     5
100
AcDbLine
 10
3.545330227454499
 20
7.838692208638335
 30
0.0
 11
3.547799661132401
 21
7.838692208638335
 31
0.0
  0
LINE
  5
58E
330
1F
100
AcDbEntity
  8
Livello 1
370
     5
100
AcDbLine
 10
3.547799661132401
 20
7.838692208638335
 30
0.0
 11
3.547799661132401
 21
7.841161642316237
 31
0.0
  0
LINE
  5
58F
330
1F
100
AcDbEntity
  8
Livello 1
370
     5
100
AcDbLine
 10
3.547799661132401
 20
7.841161642316237
 30
0.0
 11
3.550269094810289
 21
7.841161642316237
 31
0.0
  0
LINE
  5
590
330
1F
100
AcDbEntity
  8
Livello 1
370
     5
100
AcDbLine
 10
3.550269094810289
 20
7.841161642316237
 30
0.0
 11
3.552738528488205
 21
7.843631075994139
 31
0.0
  0
LINE
  5
591
330
1F
100
AcDbEntity
  8
Livello 1
370
     5
100
AcDbLine
 10
3.552738528488205
 20
7.843631075994139
 30
0.0
 11
3.552738528488205
 21
7.846100509672041
 31
0.0
  0
LINE
  5
592
330
1F
100
AcDbEntity
  8
Livello 1
370
     5
100
AcDbLine
 10
3.552738528488205
 20
7.846100509672041
 30
0.0
 11
3.555207962166107
 21
7.846100509672041
 31
0.0
  0
LINE
  5
593
330
1F
100
AcDbEntity
  8
Livello 1
370
     5
100
AcDbLine
 10
3.555207962166107
 20
7.846100509672041
 30
0.0
 11
3.557677395844009
 21
7.848922527341017
 31
0.0
  0
LINE
  5
594
330
1F
100
AcDbEntity
  8
Livello 1
370
     5
100
AcDbLine
 10
3.557677395844009
 20
7.848922527341017
 30
0.0
 11
3.560146829521897
 21
7.848922527341017
 31
0.0
  0
LINE
  5
595
330
1F
100
AcDbEntity
  8
Livello 1
370
     5
100
AcDbLine
 10
3.560146829521897
 20
7.848922527341017
 30
0.0
 11
3.560146829521897
 21
7.851391961018919
 31
0.0
  0
LINE
  5
596
330
1F
100
AcDbEntity
  8
Livello 1
370
     5
100
AcDbLine
 10
3.560146829521897
 20
7.851391961018919
 30
0.0
 11
3.562616263199814
 21
7.851391961018919
 31
0.0
  0
LINE
  5
597
330
1F
100
AcDbEntity
  8
Livello 1
370
     5
100
AcDbLine
 10
3.562616263199814
 20
7.851391961018919
 30
0.0
 11
3.562616263199814
 21
7.853861394696821
 31
0.0
  0
LINE
  5
598
330
1F
100
AcDbEntity
  8
Livello 1
370
     5
100
AcDbLine
 10
3.562616263199814
 20
7.853861394696821
 30
0.0
 11
3.56508569687773
 21
7.853861394696821
 31
0.0
  0
LINE
  5
599
330
1F
100
AcDbEntity
  8
Livello 1
370
     5
100
AcDbLine
 10
3.56508569687773
 20
7.853861394696821
 30
0.0
 11
3.567555130555632
 21
7.856330828374723
 31
0.0
  0
LINE
  5
59A
330
1F
100
AcDbEntity
  8
Livello 1
370
     5
100
AcDbLine
 10
3.567555130555632
 20
7.856330828374723
 30
0.0
 11
3.570024564233548
 21
7.856330828374723
 31
0.0
  0
LINE
  5
59B
330
1F
100
AcDbEntity
  8
Livello 1
370
     5
100
AcDbLine
 10
3.570024564233548
 20
7.856330828374723
 30
0.0
 11
3.570024564233548
 21
7.858800262052639
 31
0.0
  0
LINE
  5
59C
330
1F
100
AcDbEntity
  8
Livello 1
370
     5
100
AcDbLine
 10
3.570024564233548
 20
7.858800262052639
 30
0.0
 11
3.574963431589338
 21
7.858800262052639
 31
0.0
  0
LINE
  5
59D
330
1F
100
AcDbEntity
  8
Livello 1
370
     5
100
AcDbLine
 10
3.574963431589338
 20
7.858800262052639
 30
0.0
 11
3.574963431589338
 21
7.861269695730534
 31
0.0
  0
LINE
  5
59E
330
1F
100
AcDbEntity
  8
Livello 1
370
     5
100
AcDbLine
 10
3.574963431589338
 20
7.861269695730534
 30
0.0
 11
3.57743286526724
 21
7.861269695730534
 31
0.0
  0
LINE
  5
59F
330
1F
100
AcDbEntity
  8
Livello 1
370
     5
100
AcDbLine
 10
3.57743286526724
 20
7.861269695730534
 30
0.0
 11
3.579902298945128
 21
7.863739129408443
 31
0.0
  0
LINE
  5
5A0
330
1F
100
AcDbEntity
  8
Livello 1
370
     5
100
AcDbLine
 10
3.579902298945128
 20
7.863739129408443
 30
0.0
 11
3.584841166300947
 21
7.863739129408443
 31
0.0
  0
LINE
  5
5A1
330
1F
100
AcDbEntity
  8
Livello 1
370
     5
100
AcDbLine
 10
3.584841166300947
 20
7.863739129408443
 30
0.0
 11
3.584841166300947
 21
7.866208563086345
 31
0.0
  0
LINE
  5
5A2
330
1F
100
AcDbEntity
  8
Livello 1
370
     5
100
AcDbLine
 10
3.584841166300947
 20
7.866208563086345
 30
0.0
 11
3.589780033656779
 21
7.866208563086345
 31
0.0
  0
LINE
  5
5A3
330
1F
100
AcDbEntity
  8
Livello 1
370
     5
100
AcDbLine
 10
3.589780033656779
 20
7.866208563086345
 30
0.0
 11
3.592249467334667
 21
7.868677996764247
 31
0.0
  0
LINE
  5
5A4
330
1F
100
AcDbEntity
  8
Livello 1
370
     5
100
AcDbLine
 10
3.592249467334667
 20
7.868677996764247
 30
0.0
 11
3.597188334690457
 21
7.868677996764247
 31
0.0
  0
LINE
  5
5A5
330
1F
100
AcDbEntity
  8
Livello 1
370
     5
100
AcDbLine
 10
3.597188334690457
 20
7.868677996764247
 30
0.0
 11
3.599657768368388
 21
7.871147430442142
 31
0.0
  0
LINE
  5
5A6
330
1F
100
AcDbEntity
  8
Livello 1
370
     5
100
AcDbLine
 10
3.599657768368388
 20
7.871147430442142
 30
0.0
 11
3.607419326263368
 21
7.871147430442142
 31
0.0
  0
LINE
  5
5A7
330
1F
100
AcDbEntity
  8
Livello 1
370
     5
100
AcDbLine
 10
3.607419326263368
 20
7.871147430442142
 30
0.0
 11
3.60988875994127
 21
7.873616864120052
 31
0.0
  0
LINE
  5
5A8
330
1F
100
AcDbEntity
  8
Livello 1
370
     5
100
AcDbLine
 10
3.60988875994127
 20
7.873616864120052
 30
0.0
 11
3.612358193619172
 21
7.873616864120052
 31
0.0
  0
LINE
  5
5A9
330
1F
100
AcDbEntity
  8
Livello 1
370
     5
100
AcDbLine
 10
3.612358193619172
 20
7.873616864120052
 30
0.0
 11
3.629644229364487
 21
7.873616864120052
 31
0.0
  0
LINE
  5
5AA
330
1F
100
AcDbEntity
  8
Livello 1
370
     5
100
AcDbLine
 10
3.629644229364487
 20
7.873616864120052
 30
0.0
 11
3.634583096720305
 21
7.873616864120052
 31
0.0
  0
LINE
  5
5AB
330
1F
100
AcDbEntity
  8
Livello 1
370
     5
100
AcDbLine
 10
3.512875005650684
 20
7.754378879598547
 30
0.0
 11
3.512875005650684
 21
6.825513849753974
 31
0.0
  0
LINE
  5
5AC
330
1F
100
AcDbEntity
  8
Livello 1
370
     5
100
AcDbLine
 10
3.634548107469299
 20
6.703736453052528
 30
0.0
 11
3.629608567243266
 21
6.703736453052528
 31
0.0
  0
LINE
  5
5AD
330
1F
100
AcDbEntity
  8
Livello 1
370
     5
100
AcDbLine
 10
3.629608567243266
 20
6.703736453052528
 30
0.0
 11
3.612322531497923
 21
6.703736453052528
 31
0.0
  0
LINE
  5
5AE
330
1F
100
AcDbEntity
  8
Livello 1
370
     5
100
AcDbLine
 10
3.612322531497923
 20
6.703736453052528
 30
0.0
 11
3.60985309782005
 21
6.703736453052528
 31
0.0
  0
LINE
  5
5AF
330
1F
100
AcDbEntity
  8
Livello 1
370
     5
100
AcDbLine
 10
3.60985309782005
 20
6.703736453052528
 30
0.0
 11
3.607383664142133
 21
6.70620588673043
 31
0.0
  0
LINE
  5
5B0
330
1F
100
AcDbEntity
  8
Livello 1
370
     5
100
AcDbLine
 10
3.607383664142133
 20
6.70620588673043
 30
0.0
 11
3.599622779117353
 21
6.70620588673043
 31
0.0
  0
LINE
  5
5B1
330
1F
100
AcDbEntity
  8
Livello 1
370
     5
100
AcDbLine
 10
3.599622779117353
 20
6.70620588673043
 30
0.0
 11
3.597153345439451
 21
6.708675320408332
 31
0.0
  0
LINE
  5
5B2
330
1F
100
AcDbEntity
  8
Livello 1
370
     5
100
AcDbLine
 10
3.597153345439451
 20
6.708675320408332
 30
0.0
 11
3.592214478083647
 21
6.708675320408332
 31
0.0
  0
LINE
  5
5B3
330
1F
100
AcDbEntity
  8
Livello 1
370
     5
100
AcDbLine
 10
3.592214478083647
 20
6.708675320408332
 30
0.0
 11
3.589745044405745
 21
6.711144754086234
 31
0.0
  0
LINE
  5
5B4
330
1F
100
AcDbEntity
  8
Livello 1
370
     5
100
AcDbLine
 10
3.589745044405745
 20
6.711144754086234
 30
0.0
 11
3.584806177049941
 21
6.711144754086234
 31
0.0
  0
LINE
  5
5B5
330
1F
100
AcDbEntity
  8
Livello 1
370
     5
100
AcDbLine
 10
3.584806177049941
 20
6.711144754086234
 30
0.0
 11
3.584806177049941
 21
6.713614187764136
 31
0.0
  0
LINE
  5
5B6
330
1F
100
AcDbEntity
  8
Livello 1
370
     5
100
AcDbLine
 10
3.584806177049941
 20
6.713614187764136
 30
0.0
 11
3.579867309694122
 21
6.713614187764136
 31
0.0
  0
LINE
  5
5B7
330
1F
100
AcDbEntity
  8
Livello 1
370
     5
100
AcDbLine
 10
3.579867309694122
 20
6.713614187764136
 30
0.0
 11
3.577397876016206
 21
6.716083621442038
 31
0.0
  0
LINE
  5
5B8
330
1F
100
AcDbEntity
  8
Livello 1
370
     5
100
AcDbLine
 10
3.577397876016206
 20
6.716083621442038
 30
0.0
 11
3.574928442338332
 21
6.716083621442038
 31
0.0
  0
LINE
  5
5B9
330
1F
100
AcDbEntity
  8
Livello 1
370
     5
100
AcDbLine
 10
3.574928442338332
 20
6.716083621442038
 30
0.0
 11
3.574928442338332
 21
6.718553055119969
 31
0.0
  0
LINE
  5
5BA
330
1F
100
AcDbEntity
  8
Livello 1
370
     5
100
AcDbLine
 10
3.574928442338332
 20
6.718553055119969
 30
0.0
 11
3.569989574982528
 21
6.718553055119969
 31
0.0
  0
LINE
  5
5BB
330
1F
100
AcDbEntity
  8
Livello 1
370
     5
100
AcDbLine
 10
3.569989574982528
 20
6.718553055119969
 30
0.0
 11
3.569989574982528
 21
6.721022488797856
 31
0.0
  0
LINE
  5
5BC
330
1F
100
AcDbEntity
  8
Livello 1
370
     5
100
AcDbLine
 10
3.569989574982528
 20
6.721022488797856
 30
0.0
 11
3.567520141304598
 21
6.721022488797856
 31
0.0
  0
LINE
  5
5BD
330
1F
100
AcDbEntity
  8
Livello 1
370
     5
100
AcDbLine
 10
3.567520141304598
 20
6.721022488797856
 30
0.0
 11
3.565050707626696
 21
6.723491922475758
 31
0.0
  0
LINE
  5
5BE
330
1F
100
AcDbEntity
  8
Livello 1
370
     5
100
AcDbLine
 10
3.565050707626696
 20
6.723491922475758
 30
0.0
 11
3.562581273948794
 21
6.723491922475758
 31
0.0
  0
LINE
  5
5BF
330
1F
100
AcDbEntity
  8
Livello 1
370
     5
100
AcDbLine
 10
3.562581273948794
 20
6.723491922475758
 30
0.0
 11
3.562581273948794
 21
6.725961356153646
 31
0.0
  0
LINE
  5
5C0
330
1F
100
AcDbEntity
  8
Livello 1
370
     5
100
AcDbLine
 10
3.562581273948794
 20
6.725961356153646
 30
0.0
 11
3.560111840270877
 21
6.725961356153646
 31
0.0
  0
LINE
  5
5C1
330
1F
100
AcDbEntity
  8
Livello 1
370
     5
100
AcDbLine
 10
3.560111840270877
 20
6.725961356153646
 30
0.0
 11
3.560111840270877
 21
6.728430789831577
 31
0.0
  0
LINE
  5
5C2
330
1F
100
AcDbEntity
  8
Livello 1
370
     5
100
AcDbLine
 10
3.560111840270877
 20
6.728430789831577
 30
0.0
 11
3.557642406592989
 21
6.728430789831577
 31
0.0
  0
LINE
  5
5C3
330
1F
100
AcDbEntity
  8
Livello 1
370
     5
100
AcDbLine
 10
3.557642406592989
 20
6.728430789831577
 30
0.0
 11
3.555172972915087
 21
6.730900223509465
 31
0.0
  0
LINE
  5
5C4
330
1F
100
AcDbEntity
  8
Livello 1
370
     5
100
AcDbLine
 10
3.555172972915087
 20
6.730900223509465
 30
0.0
 11
3.552703539237185
 21
6.730900223509465
 31
0.0
  0
LINE
  5
5C5
330
1F
100
AcDbEntity
  8
Livello 1
370
     5
100
AcDbLine
 10
3.552703539237185
 20
6.730900223509465
 30
0.0
 11
3.552703539237185
 21
6.733369657187367
 31
0.0
  0
LINE
  5
5C6
330
1F
100
AcDbEntity
  8
Livello 1
370
     5
100
AcDbLine
 10
3.552703539237185
 20
6.733369657187367
 30
0.0
 11
3.550234105559269
 21
6.736191674856343
 31
0.0
  0
LINE
  5
5C7
330
1F
100
AcDbEntity
  8
Livello 1
370
     5
100
AcDbLine
 10
3.550234105559269
 20
6.736191674856343
 30
0.0
 11
3.547764671881381
 21
6.736191674856343
 31
0.0
  0
LINE
  5
5C8
330
1F
100
AcDbEntity
  8
Livello 1
370
     5
100
AcDbLine
 10
3.547764671881381
 20
6.736191674856343
 30
0.0
 11
3.547764671881381
 21
6.738661108534245
 31
0.0
  0
LINE
  5
5C9
330
1F
100
AcDbEntity
  8
Livello 1
370
     5
100
AcDbLine
 10
3.547764671881381
 20
6.738661108534245
 30
0.0
 11
3.545295238203479
 21
6.738661108534245
 31
0.0
  0
LINE
  5
5CA
330
1F
100
AcDbEntity
  8
Livello 1
370
     5
100
AcDbLine
 10
3.545295238203479
 20
6.738661108534245
 30
0.0
 11
3.545295238203479
 21
6.741130542212147
 31
0.0
  0
LINE
  5
5CB
330
1F
100
AcDbEntity
  8
Livello 1
370
     5
100
AcDbLine
 10
3.545295238203479
 20
6.741130542212147
 30
0.0
 11
3.542825804525563
 21
6.743599975890049
 31
0.0
  0
LINE
  5
5CC
330
1F
100
AcDbEntity
  8
Livello 1
370
     5
100
AcDbLine
 10
3.542825804525563
 20
6.743599975890049
 30
0.0
 11
3.540003113986387
 21
6.743599975890049
 31
0.0
  0
LINE
  5
5CD
330
1F
100
AcDbEntity
  8
Livello 1
370
     5
100
AcDbLine
 10
3.540003113986387
 20
6.743599975890049
 30
0.0
 11
3.540003113986387
 21
6.746069409567951
 31
0.0
  0
LINE
  5
5CE
330
1F
100
AcDbEntity
  8
Livello 1
370
     5
100
AcDbLine
 10
3.540003113986387
 20
6.746069409567951
 30
0.0
 11
3.537533680308499
 21
6.748538843245867
 31
0.0
  0
LINE
  5
5CF
330
1F
100
AcDbEntity
  8
Livello 1
370
     5
100
AcDbLine
 10
3.537533680308499
 20
6.748538843245867
 30
0.0
 11
3.537533680308499
 21
6.751008276923784
 31
0.0
  0
LINE
  5
5D0
330
1F
100
AcDbEntity
  8
Livello 1
370
     5
100
AcDbLine
 10
3.537533680308499
 20
6.751008276923784
 30
0.0
 11
3.535064246630582
 21
6.751008276923784
 31
0.0
  0
LINE
  5
5D1
330
1F
100
AcDbEntity
  8
Livello 1
370
     5
100
AcDbLine
 10
3.535064246630582
 20
6.751008276923784
 30
0.0
 11
3.535064246630582
 21
6.753477710601671
 31
0.0
  0
LINE
  5
5D2
330
1F
100
AcDbEntity
  8
Livello 1
370
     5
100
AcDbLine
 10
3.535064246630582
 20
6.753477710601671
 30
0.0
 11
3.53259481295268
 21
6.753477710601671
 31
0.0
  0
LINE
  5
5D3
330
1F
100
AcDbEntity
  8
Livello 1
370
     5
100
AcDbLine
 10
3.53259481295268
 20
6.753477710601671
 30
0.0
 11
3.53259481295268
 21
6.755947144279573
 31
0.0
  0
LINE
  5
5D4
330
1F
100
AcDbEntity
  8
Livello 1
370
     5
100
AcDbLine
 10
3.53259481295268
 20
6.755947144279573
 30
0.0
 11
3.530125379274778
 21
6.758416577957476
 31
0.0
  0
LINE
  5
5D5
330
1F
100
AcDbEntity
  8
Livello 1
370
     5
100
AcDbLine
 10
3.530125379274778
 20
6.758416577957476
 30
0.0
 11
3.530125379274778
 21
6.760886011635363
 31
0.0
  0
LINE
  5
5D6
330
1F
100
AcDbEntity
  8
Livello 1
370
     5
100
AcDbLine
 10
3.530125379274778
 20
6.760886011635363
 30
0.0
 11
3.527655945596848
 21
6.760886011635363
 31
0.0
  0
LINE
  5
5D7
330
1F
100
AcDbEntity
  8
Livello 1
370
     5
100
AcDbLine
 10
3.527655945596848
 20
6.760886011635363
 30
0.0
 11
3.527655945596848
 21
6.765824878991168
 31
0.0
  0
LINE
  5
5D8
330
1F
100
AcDbEntity
  8
Livello 1
370
     5
100
AcDbLine
 10
3.527655945596848
 20
6.765824878991168
 30
0.0
 11
3.52518651191896
 21
6.765824878991168
 31
0.0
  0
LINE
  5
5D9
330
1F
100
AcDbEntity
  8
Livello 1
370
     5
100
AcDbLine
 10
3.52518651191896
 20
6.765824878991168
 30
0.0
 11
3.52518651191896
 21
6.768294312669084
 31
0.0
  0
LINE
  5
5DA
330
1F
100
AcDbEntity
  8
Livello 1
370
     5
100
AcDbLine
 10
3.52518651191896
 20
6.768294312669084
 30
0.0
 11
3.522717078241058
 21
6.770763746347
 31
0.0
  0
LINE
  5
5DB
330
1F
100
AcDbEntity
  8
Livello 1
370
     5
100
AcDbLine
 10
3.522717078241058
 20
6.770763746347
 30
0.0
 11
3.522717078241058
 21
6.775702613702804
 31
0.0
  0
LINE
  5
5DC
330
1F
100
AcDbEntity
  8
Livello 1
370
     5
100
AcDbLine
 10
3.522717078241058
 20
6.775702613702804
 30
0.0
 11
3.520247644563156
 21
6.775702613702804
 31
0.0
  0
LINE
  5
5DD
330
1F
100
AcDbEntity
  8
Livello 1
370
     5
100
AcDbLine
 10
3.520247644563156
 20
6.775702613702804
 30
0.0
 11
3.520247644563156
 21
6.780641481058609
 31
0.0
  0
LINE
  5
5DE
330
1F
100
AcDbEntity
  8
Livello 1
370
     5
100
AcDbLine
 10
3.520247644563156
 20
6.780641481058609
 30
0.0
 11
3.517778210885253
 21
6.783110914736511
 31
0.0
  0
LINE
  5
5DF
330
1F
100
AcDbEntity
  8
Livello 1
370
     5
100
AcDbLine
 10
3.517778210885253
 20
6.783110914736511
 30
0.0
 11
3.517778210885253
 21
6.788049782092315
 31
0.0
  0
LINE
  5
5E0
330
1F
100
AcDbEntity
  8
Livello 1
370
     5
100
AcDbLine
 10
3.517778210885253
 20
6.788049782092315
 30
0.0
 11
3.515308777207351
 21
6.790519215770217
 31
0.0
  0
LINE
  5
5E1
330
1F
100
AcDbEntity
  8
Livello 1
370
     5
100
AcDbLine
 10
3.515308777207351
 20
6.790519215770217
 30
0.0
 11
3.515308777207351
 21
6.798280100794997
 31
0.0
  0
LINE
  5
5E2
330
1F
100
AcDbEntity
  8
Livello 1
370
     5
100
AcDbLine
 10
3.515308777207351
 20
6.798280100794997
 30
0.0
 11
3.512839343529449
 21
6.800749534472927
 31
0.0
  0
LINE
  5
5E3
330
1F
100
AcDbEntity
  8
Livello 1
370
     5
100
AcDbLine
 10
3.512839343529449
 20
6.800749534472927
 30
0.0
 11
3.512839343529449
 21
6.803218968150815
 31
0.0
  0
LINE
  5
5E4
330
1F
100
AcDbEntity
  8
Livello 1
370
     5
100
AcDbLine
 10
3.512839343529449
 20
6.803218968150815
 30
0.0
 11
3.512839343529449
 21
6.820505003896116
 31
0.0
  0
LINE
  5
5E5
330
1F
100
AcDbEntity
  8
Livello 1
370
     5
100
AcDbLine
 10
3.512839343529449
 20
6.820505003896116
 30
0.0
 11
3.512839343529449
 21
6.825443871251948
 31
0.0
  0
LINE
  5
5E6
330
1F
100
AcDbEntity
  8
Livello 1
370
     5
100
AcDbLine
 10
3.634548107469299
 20
6.703736453052528
 30
0.0
 11
4.899961958361089
 21
6.703736453052528
 31
0.0
  0
SPLINE
  5
5E7
330
1F
100
AcDbEntity
  8
Livello 1
370
     5
100
AcDbSpline
210
0.0
220
0.0
230
1.0
 70
    24
 71
     3
 72
     8
 73
     4
 74
     0
 42
0.000000001
 43
0.0000000001
 40
0.0
 40
0.0
 40
0.0
 40
0.0
 40
1.0
 40
1.0
 40
1.0
 40
1.0
 10
4.280343367843187
 20
6.301393709809332
 30
0.0
 10
4.280343367843187
 20
6.301393709809332
 30
0.0
 10
4.079259469349139
 20
6.301393709809332
 30
0.0
 10
4.079259469349139
 20
6.301393709809332
 30
0.0
  0
SPLINE
  5
5E8
330
1F
100
AcDbEntity
  8
Livello 1
370
     5
100
AcDbSpline
210
0.0
220
0.0
230
1.0
 70
    24
 71
     3
 72
     8
 73
     4
 74
     0
 42
0.000000001
 43
0.0000000001
 40
1.0
 40
1.0
 40
1.0
 40
1.0
 40
2.0
 40
2.0
 40
2.0
 40
2.0
 10
4.079259469349139
 20
6.301393709809332
 30
0.0
 10
4.079259469349139
 20
6.301393709809332
 30
0.0
 10
4.034457079155814
 20
6.301393709809332
 30
0.0
 10
4.034457079155814
 20
6.301393709809332
 30
0.0
  0
SPLINE
  5
5E9
330
1F
100
AcDbEntity
  8
Livello 1
370
     5
100
AcDbSpline
210
0.0
220
0.0
230
1.0
 70
    24
 71
     3
 72
     8
 73
     4
 74
     0
 42
0.000000001
 43
0.0000000001
 40
2.0
 40
2.0
 40
2.0
 40
2.0
 40
3.0
 40
3.0
 40
3.0
 40
3.0
 10
4.034457079155814
 20
6.301393709809332
 30
0.0
 10
4.034457079155814
 20
6.301393709809332
 30
0.0
 10
4.029518211799995
 20
6.303863143487234
 30
0.0
 10
4.029518211799995
 20
6.303863143487234
 30
0.0
  0
SPLINE
  5
5EA
330
1F
100
AcDbEntity
  8
Livello 1
370
     5
100
AcDbSpline
210
0.0
220
0.0
230
1.0
 70
    24
 71
     3
 72
     8
 73
     4
 74
     0
 42
0.000000001
 43
0.0000000001
 40
3.0
 40
3.0
 40
3.0
 40
3.0
 40
4.0
 40
4.0
 40
4.0
 40
4.0
 10
4.029518211799995
 20
6.303863143487234
 30
0.0
 10
4.029518211799995
 20
6.303863143487234
 30
0.0
 10
4.019640477088387
 20
6.303863143487234
 30
0.0
 10
4.019640477088387
 20
6.303863143487234
 30
0.0
  0
SPLINE
  5
5EB
330
1F
100
AcDbEntity
  8
Livello 1
370
     5
100
AcDbSpline
210
0.0
220
0.0
230
1.0
 70
    24
 71
     3
 72
     8
 73
     4
 74
     0
 42
0.000000001
 43
0.0000000001
 40
4.0
 40
4.0
 40
4.0
 40
4.0
 40
5.0
 40
5.0
 40
5.0
 40
5.0
 10
4.019640477088387
 20
6.303863143487234
 30
0.0
 10
4.019640477088387
 20
6.303863143487234
 30
0.0
 10
4.014701609732568
 20
6.306332577165136
 30
0.0
 10
4.014701609732568
 20
6.306332577165136
 30
0.0
  0
SPLINE
  5
5EC
330
1F
100
AcDbEntity
  8
Livello 1
370
     5
100
AcDbSpline
210
0.0
220
0.0
230
1.0
 70
    24
 71
     3
 72
     8
 73
     4
 74
     0
 42
0.000000001
 43
0.0000000001
 40
5.0
 40
5.0
 40
5.0
 40
5.0
 40
6.0
 40
6.0
 40
6.0
 40
6.0
 10
4.014701609732568
 20
6.306332577165136
 30
0.0
 10
4.014701609732568
 20
6.306332577165136
 30
0.0
 10
4.004470618159672
 20
6.306332577165136
 30
0.0
 10
4.004470618159672
 20
6.306332577165136
 30
0.0
  0
SPLINE
  5
5ED
330
1F
100
AcDbEntity
  8
Livello 1
370
     5
100
AcDbSpline
210
0.0
220
0.0
230
1.0
 70
    24
 71
     3
 72
     8
 73
     4
 74
     0
 42
0.000000001
 43
0.0000000001
 40
6.0
 40
6.0
 40
6.0
 40
6.0
 40
7.0
 40
7.0
 40
7.0
 40
7.0
 10
4.004470618159672
 20
6.306332577165136
 30
0.0
 10
4.004470618159672
 20
6.306332577165136
 30
0.0
 10
3.999531750803882
 20
6.308802010843052
 30
0.0
 10
3.999531750803882
 20
6.308802010843052
 30
0.0
  0
SPLINE
  5
5EE
330
1F
100
AcDbEntity
  8
Livello 1
370
     5
100
AcDbSpline
210
0.0
220
0.0
230
1.0
 70
    24
 71
     3
 72
     8
 73
     4
 74
     0
 42
0.000000001
 43
0.0000000001
 40
7.0
 40
7.0
 40
7.0
 40
7.0
 40
8.0
 40
8.0
 40
8.0
 40
8.0
 10
3.999531750803882
 20
6.308802010843052
 30
0.0
 10
3.999531750803882
 20
6.308802010843052
 30
0.0
 10
3.989654016092259
 20
6.308802010843052
 30
0.0
 10
3.989654016092259
 20
6.308802010843052
 30
0.0
  0
SPLINE
  5
5EF
330
1F
100
AcDbEntity
  8
Livello 1
370
     5
100
AcDbSpline
210
0.0
220
0.0
230
1.0
 70
    24
 71
     3
 72
     8
 73
     4
 74
     0
 42
0.000000001
 43
0.0000000001
 40
8.0
 40
8.0
 40
8.0
 40
8.0
 40
9.0
 40
9.0
 40
9.0
 40
9.0
 10
3.989654016092259
 20
6.308802010843052
 30
0.0
 10
3.989654016092259
 20
6.308802010843052
 30
0.0
 10
3.984715148736455
 20
6.311271444520954
 30
0.0
 10
3.984715148736455
 20
6.311271444520954
 30
0.0
  0
SPLINE
  5
5F0
330
1F
100
AcDbEntity
  8
Livello 1
370
     5
100
AcDbSpline
210
0.0
220
0.0
230
1.0
 70
    24
 71
     3
 72
     8
 73
     4
 74
     0
 42
0.000000001
 43
0.0000000001
 40
9.0
 40
9.0
 40
9.0
 40
9.0
 40
10.0
 40
10.0
 40
10.0
 40
10.0
 10
3.984715148736455
 20
6.311271444520954
 30
0.0
 10
3.984715148736455
 20
6.311271444520954
 30
0.0
 10
3.979776281380651
 20
6.311271444520954
 30
0.0
 10
3.979776281380651
 20
6.311271444520954
 30
0.0
  0
SPLINE
  5
5F1
330
1F
100
AcDbEntity
  8
Livello 1
370
     5
100
AcDbSpline
210
0.0
220
0.0
230
1.0
 70
    24
 71
     3
 72
     8
 73
     4
 74
     0
 42
0.000000001
 43
0.0000000001
 40
10.0
 40
10.0
 40
10.0
 40
10.0
 40
11.0
 40
11.0
 40
11.0
 40
11.0
 10
3.979776281380651
 20
6.311271444520954
 30
0.0
 10
3.979776281380651
 20
6.311271444520954
 30
0.0
 10
3.974837414024847
 20
6.313740878198856
 30
0.0
 10
3.974837414024847
 20
6.313740878198856
 30
0.0
  0
SPLINE
  5
5F2
330
1F
100
AcDbEntity
  8
Livello 1
370
     5
100
AcDbSpline
210
0.0
220
0.0
230
1.0
 70
    24
 71
     3
 72
     8
 73
     4
 74
     0
 42
0.000000001
 43
0.0000000001
 40
11.0
 40
11.0
 40
11.0
 40
11.0
 40
12.0
 40
12.0
 40
12.0
 40
12.0
 10
3.974837414024847
 20
6.313740878198856
 30
0.0
 10
3.974837414024847
 20
6.313740878198856
 30
0.0
 10
3.969898546669028
 20
6.313740878198856
 30
0.0
 10
3.969898546669028
 20
6.313740878198856
 30
0.0
  0
SPLINE
  5
5F3
330
1F
100
AcDbEntity
  8
Livello 1
370
     5
100
AcDbSpline
210
0.0
220
0.0
230
1.0
 70
    24
 71
     3
 72
     8
 73
     4
 74
     0
 42
0.000000001
 43
0.0000000001
 40
12.0
 40
12.0
 40
12.0
 40
12.0
 40
13.0
 40
13.0
 40
13.0
 40
13.0
 10
3.969898546669028
 20
6.313740878198856
 30
0.0
 10
3.969898546669028
 20
6.313740878198856
 30
0.0
 10
3.964959679313238
 20
6.316210311876758
 30
0.0
 10
3.964959679313238
 20
6.316210311876758
 30
0.0
  0
SPLINE
  5
5F4
330
1F
100
AcDbEntity
  8
Livello 1
370
     5
100
AcDbSpline
210
0.0
220
0.0
230
1.0
 70
    24
 71
     3
 72
     8
 73
     4
 74
     0
 42
0.000000001
 43
0.0000000001
 40
13.0
 40
13.0
 40
13.0
 40
13.0
 40
14.0
 40
14.0
 40
14.0
 40
14.0
 10
3.964959679313238
 20
6.316210311876758
 30
0.0
 10
3.964959679313238
 20
6.316210311876758
 30
0.0
 10
3.96002081195742
 20
6.316210311876758
 30
0.0
 10
3.96002081195742
 20
6.316210311876758
 30
0.0
  0
SPLINE
  5
5F5
330
1F
100
AcDbEntity
  8
Livello 1
370
     5
100
AcDbSpline
210
0.0
220
0.0
230
1.0
 70
    24
 71
     3
 72
     8
 73
     4
 74
     0
 42
0.000000001
 43
0.0000000001
 40
14.0
 40
14.0
 40
14.0
 40
14.0
 40
15.0
 40
15.0
 40
15.0
 40
15.0
 10
3.96002081195742
 20
6.316210311876758
 30
0.0
 10
3.96002081195742
 20
6.316210311876758
 30
0.0
 10
3.957551378279532
 20
6.318679745554661
 30
0.0
 10
3.957551378279532
 20
6.318679745554661
 30
0.0
  0
SPLINE
  5
5F6
330
1F
100
AcDbEntity
  8
Livello 1
370
     5
100
AcDbSpline
210
0.0
220
0.0
230
1.0
 70
    24
 71
     3
 72
     8
 73
     4
 74
     0
 42
0.000000001
 43
0.0000000001
 40
15.0
 40
15.0
 40
15.0
 40
15.0
 40
16.0
 40
16.0
 40
16.0
 40
16.0
 10
3.957551378279532
 20
6.318679745554661
 30
0.0
 10
3.957551378279532
 20
6.318679745554661
 30
0.0
 10
3.9526125109237
 20
6.321149179232563
 30
0.0
 10
3.9526125109237
 20
6.321149179232563
 30
0.0
  0
SPLINE
  5
5F7
330
1F
100
AcDbEntity
  8
Livello 1
370
     5
100
AcDbSpline
210
0.0
220
0.0
230
1.0
 70
    24
 71
     3
 72
     8
 73
     4
 74
     0
 42
0.000000001
 43
0.0000000001
 40
16.0
 40
16.0
 40
16.0
 40
16.0
 40
17.0
 40
17.0
 40
17.0
 40
17.0
 10
3.9526125109237
 20
6.321149179232563
 30
0.0
 10
3.9526125109237
 20
6.321149179232563
 30
0.0
 10
3.947673643567895
 20
6.321149179232563
 30
0.0
 10
3.947673643567895
 20
6.321149179232563
 30
0.0
  0
SPLINE
  5
5F8
330
1F
100
AcDbEntity
  8
Livello 1
370
     5
100
AcDbSpline
210
0.0
220
0.0
230
1.0
 70
    24
 71
     3
 72
     8
 73
     4
 74
     0
 42
0.000000001
 43
0.0000000001
 40
17.0
 40
17.0
 40
17.0
 40
17.0
 40
18.0
 40
18.0
 40
18.0
 40
18.0
 10
3.947673643567895
 20
6.321149179232563
 30
0.0
 10
3.947673643567895
 20
6.321149179232563
 30
0.0
 10
3.942382192221018
 20
6.323618612910465
 30
0.0
 10
3.942382192221018
 20
6.323618612910465
 30
0.0
  0
SPLINE
  5
5F9
330
1F
100
AcDbEntity
  8
Livello 1
370
     5
100
AcDbSpline
210
0.0
220
0.0
230
1.0
 70
    24
 71
     3
 72
     8
 73
     4
 74
     0
 42
0.000000001
 43
0.0000000001
 40
18.0
 40
18.0
 40
18.0
 40
18.0
 40
19.0
 40
19.0
 40
19.0
 40
19.0
 10
3.942382192221018
 20
6.323618612910465
 30
0.0
 10
3.942382192221018
 20
6.323618612910465
 30
0.0
 10
3.937443324865213
 20
6.326088046588367
 30
0.0
 10
3.937443324865213
 20
6.326088046588367
 30
0.0
  0
SPLINE
  5
5FA
330
1F
100
AcDbEntity
  8
Livello 1
370
     5
100
AcDbSpline
210
0.0
220
0.0
230
1.0
 70
    24
 71
     3
 72
     8
 73
     4
 74
     0
 42
0.000000001
 43
0.0000000001
 40
19.0
 40
19.0
 40
19.0
 40
19.0
 40
20.0
 40
20.0
 40
20.0
 40
20.0
 10
3.937443324865213
 20
6.326088046588367
 30
0.0
 10
3.937443324865213
 20
6.326088046588367
 30
0.0
 10
3.932504457509409
 20
6.326088046588367
 30
0.0
 10
3.932504457509409
 20
6.326088046588367
 30
0.0
  0
SPLINE
  5
5FB
330
1F
100
AcDbEntity
  8
Livello 1
370
     5
100
AcDbSpline
210
0.0
220
0.0
230
1.0
 70
    24
 71
     3
 72
     8
 73
     4
 74
     0
 42
0.000000001
 43
0.0000000001
 40
20.0
 40
20.0
 40
20.0
 40
20.0
 40
21.0
 40
21.0
 40
21.0
 40
21.0
 10
3.932504457509409
 20
6.326088046588367
 30
0.0
 10
3.932504457509409
 20
6.326088046588367
 30
0.0
 10
3.927565590153605
 20
6.328557480266269
 30
0.0
 10
3.927565590153605
 20
6.328557480266269
 30
0.0
  0
SPLINE
  5
5FC
330
1F
100
AcDbEntity
  8
Livello 1
370
     5
100
AcDbSpline
210
0.0
220
0.0
230
1.0
 70
    24
 71
     3
 72
     8
 73
     4
 74
     0
 42
0.000000001
 43
0.0000000001
 40
21.0
 40
21.0
 40
21.0
 40
21.0
 40
22.0
 40
22.0
 40
22.0
 40
22.0
 10
3.927565590153605
 20
6.328557480266269
 30
0.0
 10
3.927565590153605
 20
6.328557480266269
 30
0.0
 10
3.925096156475703
 20
6.331026913944185
 30
0.0
 10
3.925096156475703
 20
6.331026913944185
 30
0.0
  0
SPLINE
  5
5FD
330
1F
100
AcDbEntity
  8
Livello 1
370
     5
100
AcDbSpline
210
0.0
220
0.0
230
1.0
 70
    24
 71
     3
 72
     8
 73
     4
 74
     0
 42
0.000000001
 43
0.0000000001
 40
22.0
 40
22.0
 40
22.0
 40
22.0
 40
23.0
 40
23.0
 40
23.0
 40
23.0
 10
3.925096156475703
 20
6.331026913944185
 30
0.0
 10
3.925096156475703
 20
6.331026913944185
 30
0.0
 10
3.92015661624967
 20
6.333848931613147
 30
0.0
 10
3.92015661624967
 20
6.333848931613147
 30
0.0
  0
SPLINE
  5
5FE
330
1F
100
AcDbEntity
  8
Livello 1
370
     5
100
AcDbSpline
210
0.0
220
0.0
230
1.0
 70
    24
 71
     3
 72
     8
 73
     4
 74
     0
 42
0.000000001
 43
0.0000000001
 40
23.0
 40
23.0
 40
23.0
 40
23.0
 40
24.0
 40
24.0
 40
24.0
 40
24.0
 10
3.92015661624967
 20
6.333848931613147
 30
0.0
 10
3.92015661624967
 20
6.333848931613147
 30
0.0
 10
3.91521774889388
 20
6.333848931613147
 30
0.0
 10
3.91521774889388
 20
6.333848931613147
 30
0.0
  0
SPLINE
  5
5FF
330
1F
100
AcDbEntity
  8
Livello 1
370
     5
100
AcDbSpline
210
0.0
220
0.0
230
1.0
 70
     8
 71
     3
 72
     8
 73
     4
 74
     0
 42
0.000000001
 43
0.0000000001
 40
24.0
 40
24.0
 40
24.0
 40
24.0
 40
25.0
 40
25.0
 40
25.0
 40
25.0
 10
3.91521774889388
 20
6.333848931613147
 30
0.0
 10
3.897226545166404
 20
6.342667568611133
 30
0.0
 10
3.880293093412149
 20
6.353251817045318
 30
0.0
 10
3.86300705766682
 20
6.363482135748
 30
0.0
  0
SPLINE
  5
600
330
1F
100
AcDbEntity
  8
Livello 1
370
     5
100
AcDbSpline
210
0.0
220
0.0
230
1.0
 70
    24
 71
     3
 72
     8
 73
     4
 74
     0
 42
0.000000001
 43
0.0000000001
 40
25.0
 40
25.0
 40
25.0
 40
25.0
 40
26.0
 40
26.0
 40
26.0
 40
26.0
 10
3.86300705766682
 20
6.363482135748
 30
0.0
 10
3.86300705766682
 20
6.363482135748
 30
0.0
 10
3.853129322955211
 20
6.368421003103804
 30
0.0
 10
3.853129322955211
 20
6.368421003103804
 30
0.0
  0
SPLINE
  5
601
330
1F
100
AcDbEntity
  8
Livello 1
370
     5
100
AcDbSpline
210
0.0
220
0.0
230
1.0
 70
    24
 71
     3
 72
     8
 73
     4
 74
     0
 42
0.000000001
 43
0.0000000001
 40
26.0
 40
26.0
 40
26.0
 40
26.0
 40
27.0
 40
27.0
 40
27.0
 40
27.0
 10
3.853129322955211
 20
6.368421003103804
 30
0.0
 10
3.853129322955211
 20
6.368421003103804
 30
0.0
 10
3.850659889277309
 20
6.370890436781706
 30
0.0
 10
3.850659889277309
 20
6.370890436781706
 30
0.0
  0
SPLINE
  5
602
330
1F
100
AcDbEntity
  8
Livello 1
370
     5
100
AcDbSpline
210
0.0
220
0.0
230
1.0
 70
    24
 71
     3
 72
     8
 73
     4
 74
     0
 42
0.000000001
 43
0.0000000001
 40
27.0
 40
27.0
 40
27.0
 40
27.0
 40
28.0
 40
28.0
 40
28.0
 40
28.0
 10
3.850659889277309
 20
6.370890436781706
 30
0.0
 10
3.850659889277309
 20
6.370890436781706
 30
0.0
 10
3.845721021921491
 20
6.373359870459609
 30
0.0
 10
3.845721021921491
 20
6.373359870459609
 30
0.0
  0
SPLINE
  5
603
330
1F
100
AcDbEntity
  8
Livello 1
370
     5
100
AcDbSpline
210
0.0
220
0.0
230
1.0
 70
    24
 71
     3
 72
     8
 73
     4
 74
     0
 42
0.000000001
 43
0.0000000001
 40
28.0
 40
28.0
 40
28.0
 40
28.0
 40
29.0
 40
29.0
 40
29.0
 40
29.0
 10
3.845721021921491
 20
6.373359870459609
 30
0.0
 10
3.845721021921491
 20
6.373359870459609
 30
0.0
 10
3.843251588243589
 20
6.375829304137511
 30
0.0
 10
3.843251588243589
 20
6.375829304137511
 30
0.0
  0
SPLINE
  5
604
330
1F
100
AcDbEntity
  8
Livello 1
370
     5
100
AcDbSpline
210
0.0
220
0.0
230
1.0
 70
    24
 71
     3
 72
     8
 73
     4
 74
     0
 42
0.000000001
 43
0.0000000001
 40
29.0
 40
29.0
 40
29.0
 40
29.0
 40
30.0
 40
30.0
 40
30.0
 40
30.0
 10
3.843251588243589
 20
6.375829304137511
 30
0.0
 10
3.843251588243589
 20
6.375829304137511
 30
0.0
 10
3.838312720887785
 20
6.378298737815413
 30
0.0
 10
3.838312720887785
 20
6.378298737815413
 30
0.0
  0
SPLINE
  5
605
330
1F
100
AcDbEntity
  8
Livello 1
370
     5
100
AcDbSpline
210
0.0
220
0.0
230
1.0
 70
    24
 71
     3
 72
     8
 73
     4
 74
     0
 42
0.000000001
 43
0.0000000001
 40
30.0
 40
30.0
 40
30.0
 40
30.0
 40
31.0
 40
31.0
 40
31.0
 40
31.0
 10
3.838312720887785
 20
6.378298737815413
 30
0.0
 10
3.838312720887785
 20
6.378298737815413
 30
0.0
 10
3.830904419854064
 20
6.385707038849133
 30
0.0
 10
3.830904419854064
 20
6.385707038849133
 30
0.0
  0
SPLINE
  5
606
330
1F
100
AcDbEntity
  8
Livello 1
370
     5
100
AcDbSpline
210
0.0
220
0.0
230
1.0
 70
    24
 71
     3
 72
     8
 73
     4
 74
     0
 42
0.000000001
 43
0.0000000001
 40
31.0
 40
31.0
 40
31.0
 40
31.0
 40
32.0
 40
32.0
 40
32.0
 40
32.0
 10
3.830904419854064
 20
6.385707038849133
 30
0.0
 10
3.830904419854064
 20
6.385707038849133
 30
0.0
 10
3.825965552498274
 20
6.388176472527035
 30
0.0
 10
3.825965552498274
 20
6.388176472527035
 30
0.0
  0
SPLINE
  5
607
330
1F
100
AcDbEntity
  8
Livello 1
370
     5
100
AcDbSpline
210
0.0
220
0.0
230
1.0
 70
     8
 71
     3
 72
     8
 73
     4
 74
     0
 42
0.000000001
 43
0.0000000001
 40
32.0
 40
32.0
 40
32.0
 40
32.0
 40
33.0
 40
33.0
 40
33.0
 40
33.0
 10
3.825965552498274
 20
6.388176472527035
 30
0.0
 10
3.815381976934318
 20
6.399818472934413
 30
0.0
 10
3.817498826621132
 20
6.395937357551815
 30
0.0
 10
3.808326259891657
 20
6.403345658585536
 30
0.0
  0
SPLINE
  5
608
330
1F
100
AcDbEntity
  8
Livello 1
370
     5
100
AcDbSpline
210
0.0
220
0.0
230
1.0
 70
    24
 71
     3
 72
     8
 73
     4
 74
     0
 42
0.000000001
 43
0.0000000001
 40
33.0
 40
33.0
 40
33.0
 40
33.0
 40
34.0
 40
34.0
 40
34.0
 40
34.0
 10
3.808326259891657
 20
6.403345658585536
 30
0.0
 10
3.808326259891657
 20
6.403345658585536
 30
0.0
 10
3.786101356790524
 20
6.425570561686654
 30
0.0
 10
3.786101356790524
 20
6.425570561686654
 30
0.0
  0
SPLINE
  5
609
330
1F
100
AcDbEntity
  8
Livello 1
370
     5
100
AcDbSpline
210
0.0
220
0.0
230
1.0
 70
     8
 71
     3
 72
     8
 73
     4
 74
     0
 42
0.000000001
 43
0.0000000001
 40
34.0
 40
34.0
 40
34.0
 40
34.0
 40
35.0
 40
35.0
 40
35.0
 40
35.0
 10
3.786101356790524
 20
6.425570561686654
 30
0.0
 10
3.751176701308807
 20
6.461201730890934
 30
0.0
 10
3.732832240720071
 20
6.496478970363725
 30
0.0
 10
3.709195655914228
 20
6.539871024592784
 30
0.0
  0
SPLINE
  5
60A
330
1F
100
AcDbEntity
  8
Livello 1
370
     5
100
AcDbSpline
210
0.0
220
0.0
230
1.0
 70
    24
 71
     3
 72
     8
 73
     4
 74
     0
 42
0.000000001
 43
0.0000000001
 40
35.0
 40
35.0
 40
35.0
 40
35.0
 40
36.0
 40
36.0
 40
36.0
 40
36.0
 10
3.709195655914228
 20
6.539871024592784
 30
0.0
 10
3.709195655914228
 20
6.539871024592784
 30
0.0
 10
3.709195655914228
 20
6.544809891948588
 30
0.0
 10
3.709195655914228
 20
6.544809891948588
 30
0.0
  0
SPLINE
  5
60B
330
1F
100
AcDbEntity
  8
Livello 1
370
     5
100
AcDbSpline
210
0.0
220
0.0
230
1.0
 70
    24
 71
     3
 72
     8
 73
     4
 74
     0
 42
0.000000001
 43
0.0000000001
 40
36.0
 40
36.0
 40
36.0
 40
36.0
 40
37.0
 40
37.0
 40
37.0
 40
37.0
 10
3.709195655914228
 20
6.544809891948588
 30
0.0
 10
3.709195655914228
 20
6.544809891948588
 30
0.0
 10
3.706726222236326
 20
6.549748759304407
 30
0.0
 10
3.706726222236326
 20
6.549748759304407
 30
0.0
  0
SPLINE
  5
60C
330
1F
100
AcDbEntity
  8
Livello 1
370
     5
100
AcDbSpline
210
0.0
220
0.0
230
1.0
 70
    24
 71
     3
 72
     8
 73
     4
 74
     0
 42
0.000000001
 43
0.0000000001
 40
37.0
 40
37.0
 40
37.0
 40
37.0
 40
38.0
 40
38.0
 40
38.0
 40
38.0
 10
3.706726222236326
 20
6.549748759304407
 30
0.0
 10
3.706726222236326
 20
6.549748759304407
 30
0.0
 10
3.704256788558424
 20
6.552218192982294
 30
0.0
 10
3.704256788558424
 20
6.552218192982294
 30
0.0
  0
SPLINE
  5
60D
330
1F
100
AcDbEntity
  8
Livello 1
370
     5
100
AcDbSpline
210
0.0
220
0.0
230
1.0
 70
    24
 71
     3
 72
     8
 73
     4
 74
     0
 42
0.000000001
 43
0.0000000001
 40
38.0
 40
38.0
 40
38.0
 40
38.0
 40
39.0
 40
39.0
 40
39.0
 40
39.0
 10
3.704256788558424
 20
6.552218192982294
 30
0.0
 10
3.704256788558424
 20
6.552218192982294
 30
0.0
 10
3.701787354880522
 20
6.557157060338113
 30
0.0
 10
3.701787354880522
 20
6.557157060338113
 30
0.0
  0
SPLINE
  5
60E
330
1F
100
AcDbEntity
  8
Livello 1
370
     5
100
AcDbSpline
210
0.0
220
0.0
230
1.0
 70
    24
 71
     3
 72
     8
 73
     4
 74
     0
 42
0.000000001
 43
0.0000000001
 40
39.0
 40
39.0
 40
39.0
 40
39.0
 40
40.0
 40
40.0
 40
40.0
 40
40.0
 10
3.701787354880522
 20
6.557157060338113
 30
0.0
 10
3.701787354880522
 20
6.557157060338113
 30
0.0
 10
3.701787354880522
 20
6.562095927693917
 30
0.0
 10
3.701787354880522
 20
6.562095927693917
 30
0.0
  0
SPLINE
  5
60F
330
1F
100
AcDbEntity
  8
Livello 1
370
     5
100
AcDbSpline
210
0.0
220
0.0
230
1.0
 70
    24
 71
     3
 72
     8
 73
     4
 74
     0
 42
0.000000001
 43
0.0000000001
 40
40.0
 40
40.0
 40
40.0
 40
40.0
 40
41.0
 40
41.0
 40
41.0
 40
41.0
 10
3.701787354880522
 20
6.562095927693917
 30
0.0
 10
3.701787354880522
 20
6.562095927693917
 30
0.0
 10
3.69649590353363
 20
6.57197366240554
 30
0.0
 10
3.69649590353363
 20
6.57197366240554
 30
0.0
  0
SPLINE
  5
610
330
1F
100
AcDbEntity
  8
Livello 1
370
     5
100
AcDbSpline
210
0.0
220
0.0
230
1.0
 70
    24
 71
     3
 72
     8
 73
     4
 74
     0
 42
0.000000001
 43
0.0000000001
 40
41.0
 40
41.0
 40
41.0
 40
41.0
 40
42.0
 40
42.0
 40
42.0
 40
42.0
 10
3.69649590353363
 20
6.57197366240554
 30
0.0
 10
3.69649590353363
 20
6.57197366240554
 30
0.0
 10
3.69649590353363
 20
6.577265113752417
 30
0.0
 10
3.69649590353363
 20
6.577265113752417
 30
0.0
  0
SPLINE
  5
611
330
1F
100
AcDbEntity
  8
Livello 1
370
     5
100
AcDbSpline
210
0.0
220
0.0
230
1.0
 70
    24
 71
     3
 72
     8
 73
     4
 74
     0
 42
0.000000001
 43
0.0000000001
 40
42.0
 40
42.0
 40
42.0
 40
42.0
 40
43.0
 40
43.0
 40
43.0
 40
43.0
 10
3.69649590353363
 20
6.577265113752417
 30
0.0
 10
3.69649590353363
 20
6.577265113752417
 30
0.0
 10
3.694026469855742
 20
6.582203981108222
 30
0.0
 10
3.694026469855742
 20
6.582203981108222
 30
0.0
  0
SPLINE
  5
612
330
1F
100
AcDbEntity
  8
Livello 1
370
     5
100
AcDbSpline
210
0.0
220
0.0
230
1.0
 70
    24
 71
     3
 72
     8
 73
     4
 74
     0
 42
0.000000001
 43
0.0000000001
 40
43.0
 40
43.0
 40
43.0
 40
43.0
 40
44.0
 40
44.0
 40
44.0
 40
44.0
 10
3.694026469855742
 20
6.582203981108222
 30
0.0
 10
3.694026469855742
 20
6.582203981108222
 30
0.0
 10
3.69155703617784
 20
6.584673414786124
 30
0.0
 10
3.69155703617784
 20
6.584673414786124
 30
0.0
  0
SPLINE
  5
613
330
1F
100
AcDbEntity
  8
Livello 1
370
     5
100
AcDbSpline
210
0.0
220
0.0
230
1.0
 70
    24
 71
     3
 72
     8
 73
     4
 74
     0
 42
0.000000001
 43
0.0000000001
 40
44.0
 40
44.0
 40
44.0
 40
44.0
 40
45.0
 40
45.0
 40
45.0
 40
45.0
 10
3.69155703617784
 20
6.584673414786124
 30
0.0
 10
3.69155703617784
 20
6.584673414786124
 30
0.0
 10
3.69155703617784
 20
6.589612282141928
 30
0.0
 10
3.69155703617784
 20
6.589612282141928
 30
0.0
  0
SPLINE
  5
614
330
1F
100
AcDbEntity
  8
Livello 1
370
     5
100
AcDbSpline
210
0.0
220
0.0
230
1.0
 70
    24
 71
     3
 72
     8
 73
     4
 74
     0
 42
0.000000001
 43
0.0000000001
 40
45.0
 40
45.0
 40
45.0
 40
45.0
 40
46.0
 40
46.0
 40
46.0
 40
46.0
 10
3.69155703617784
 20
6.589612282141928
 30
0.0
 10
3.69155703617784
 20
6.589612282141928
 30
0.0
 10
3.689087602499938
 20
6.594551149497732
 30
0.0
 10
3.689087602499938
 20
6.594551149497732
 30
0.0
  0
SPLINE
  5
615
330
1F
100
AcDbEntity
  8
Livello 1
370
     5
100
AcDbSpline
210
0.0
220
0.0
230
1.0
 70
    24
 71
     3
 72
     8
 73
     4
 74
     0
 42
0.000000001
 43
0.0000000001
 40
46.0
 40
46.0
 40
46.0
 40
46.0
 40
47.0
 40
47.0
 40
47.0
 40
47.0
 10
3.689087602499938
 20
6.594551149497732
 30
0.0
 10
3.689087602499938
 20
6.594551149497732
 30
0.0
 10
3.689087602499938
 20
6.599490016853536
 30
0.0
 10
3.689087602499938
 20
6.599490016853536
 30
0.0
  0
SPLINE
  5
616
330
1F
100
AcDbEntity
  8
Livello 1
370
     5
100
AcDbSpline
210
0.0
220
0.0
230
1.0
 70
    24
 71
     3
 72
     8
 73
     4
 74
     0
 42
0.000000001
 43
0.0000000001
 40
47.0
 40
47.0
 40
47.0
 40
47.0
 40
48.0
 40
48.0
 40
48.0
 40
48.0
 10
3.689087602499938
 20
6.599490016853536
 30
0.0
 10
3.689087602499938
 20
6.599490016853536
 30
0.0
 10
3.686618168822036
 20
6.604428884209355
 30
0.0
 10
3.686618168822036
 20
6.604428884209355
 30
0.0
  0
SPLINE
  5
617
330
1F
100
AcDbEntity
  8
Livello 1
370
     5
100
AcDbSpline
210
0.0
220
0.0
230
1.0
 70
    24
 71
     3
 72
     8
 73
     4
 74
     0
 42
0.000000001
 43
0.0000000001
 40
48.0
 40
48.0
 40
48.0
 40
48.0
 40
49.0
 40
49.0
 40
49.0
 40
49.0
 10
3.686618168822036
 20
6.604428884209355
 30
0.0
 10
3.686618168822036
 20
6.604428884209355
 30
0.0
 10
3.686618168822036
 20
6.609367751565144
 30
0.0
 10
3.686618168822036
 20
6.609367751565144
 30
0.0
  0
SPLINE
  5
618
330
1F
100
AcDbEntity
  8
Livello 1
370
     5
100
AcDbSpline
210
0.0
220
0.0
230
1.0
 70
    24
 71
     3
 72
     8
 73
     4
 74
     0
 42
0.000000001
 43
0.0000000001
 40
49.0
 40
49.0
 40
49.0
 40
49.0
 40
50.0
 40
50.0
 40
50.0
 40
50.0
 10
3.686618168822036
 20
6.609367751565144
 30
0.0
 10
3.686618168822036
 20
6.609367751565144
 30
0.0
 10
3.684148735144134
 20
6.614306618920963
 30
0.0
 10
3.684148735144134
 20
6.614306618920963
 30
0.0
  0
SPLINE
  5
619
330
1F
100
AcDbEntity
  8
Livello 1
370
     5
100
AcDbSpline
210
0.0
220
0.0
230
1.0
 70
    24
 71
     3
 72
     8
 73
     4
 74
     0
 42
0.000000001
 43
0.0000000001
 40
50.0
 40
50.0
 40
50.0
 40
50.0
 40
51.0
 40
51.0
 40
51.0
 40
51.0
 10
3.684148735144134
 20
6.614306618920963
 30
0.0
 10
3.684148735144134
 20
6.614306618920963
 30
0.0
 10
3.684148735144134
 20
6.624184353632585
 30
0.0
 10
3.684148735144134
 20
6.624184353632585
 30
0.0
  0
SPLINE
  5
61A
330
1F
100
AcDbEntity
  8
Livello 1
370
     5
100
AcDbSpline
210
0.0
220
0.0
230
1.0
 70
    24
 71
     3
 72
     8
 73
     4
 74
     0
 42
0.000000001
 43
0.0000000001
 40
51.0
 40
51.0
 40
51.0
 40
51.0
 40
52.0
 40
52.0
 40
52.0
 40
52.0
 10
3.684148735144134
 20
6.624184353632585
 30
0.0
 10
3.684148735144134
 20
6.624184353632585
 30
0.0
 10
3.681679301466203
 20
6.62912322098839
 30
0.0
 10
3.681679301466203
 20
6.62912322098839
 30
0.0
  0
SPLINE
  5
61B
330
1F
100
AcDbEntity
  8
Livello 1
370
     5
100
AcDbSpline
210
0.0
220
0.0
230
1.0
 70
    24
 71
     3
 72
     8
 73
     4
 74
     0
 42
0.000000001
 43
0.0000000001
 40
52.0
 40
52.0
 40
52.0
 40
52.0
 40
53.0
 40
53.0
 40
53.0
 40
53.0
 10
3.681679301466203
 20
6.62912322098839
 30
0.0
 10
3.681679301466203
 20
6.62912322098839
 30
0.0
 10
3.681679301466203
 20
6.639353539691072
 30
0.0
 10
3.681679301466203
 20
6.639353539691072
 30
0.0
  0
SPLINE
  5
61C
330
1F
100
AcDbEntity
  8
Livello 1
370
     5
100
AcDbSpline
210
0.0
220
0.0
230
1.0
 70
    24
 71
     3
 72
     8
 73
     4
 74
     0
 42
0.000000001
 43
0.0000000001
 40
53.0
 40
53.0
 40
53.0
 40
53.0
 40
54.0
 40
54.0
 40
54.0
 40
54.0
 10
3.681679301466203
 20
6.639353539691072
 30
0.0
 10
3.681679301466203
 20
6.639353539691072
 30
0.0
 10
3.67920986778833
 20
6.644292407046876
 30
0.0
 10
3.67920986778833
 20
6.644292407046876
 30
0.0
  0
SPLINE
  5
61D
330
1F
100
AcDbEntity
  8
Livello 1
370
     5
100
AcDbSpline
210
0.0
220
0.0
230
1.0
 70
    24
 71
     3
 72
     8
 73
     4
 74
     0
 42
0.000000001
 43
0.0000000001
 40
54.0
 40
54.0
 40
54.0
 40
54.0
 40
55.0
 40
55.0
 40
55.0
 40
55.0
 10
3.67920986778833
 20
6.644292407046876
 30
0.0
 10
3.67920986778833
 20
6.644292407046876
 30
0.0
 10
3.67920986778833
 20
6.654171487498928
 30
0.0
 10
3.67920986778833
 20
6.654171487498928
 30
0.0
  0
SPLINE
  5
61E
330
1F
100
AcDbEntity
  8
Livello 1
370
     5
100
AcDbSpline
210
0.0
220
0.0
230
1.0
 70
    24
 71
     3
 72
     8
 73
     4
 74
     0
 42
0.000000001
 43
0.0000000001
 40
55.0
 40
55.0
 40
55.0
 40
55.0
 40
56.0
 40
56.0
 40
56.0
 40
56.0
 10
3.67920986778833
 20
6.654171487498928
 30
0.0
 10
3.67920986778833
 20
6.654171487498928
 30
0.0
 10
3.676740434110413
 20
6.659110354854732
 30
0.0
 10
3.676740434110413
 20
6.659110354854732
 30
0.0
  0
SPLINE
  5
61F
330
1F
100
AcDbEntity
  8
Livello 1
370
     5
100
AcDbSpline
210
0.0
220
0.0
230
1.0
 70
    24
 71
     3
 72
     8
 73
     4
 74
     0
 42
0.000000001
 43
0.0000000001
 40
56.0
 40
56.0
 40
56.0
 40
56.0
 40
57.0
 40
57.0
 40
57.0
 40
57.0
 10
3.676740434110413
 20
6.659110354854732
 30
0.0
 10
3.676740434110413
 20
6.659110354854732
 30
0.0
 10
3.676740434110413
 20
6.703912745048057
 30
0.0
 10
3.676740434110413
 20
6.703912745048057
 30
0.0
  0
LINE
  5
620
330
1F
100
AcDbEntity
  8
Livello 1
370
     5
100
AcDbLine
 10
4.320066260806399
 20
6.341115929902358
 30
0.0
 11
4.317596154258296
 21
6.338645150484026
 31
0.0
  0
LINE
  5
621
330
1F
100
AcDbEntity
  8
Livello 1
370
     5
100
AcDbLine
 10
4.317596154258296
 20
6.338645150484026
 30
0.0
 11
4.317596154258296
 21
6.326297982094502
 31
0.0
  0
LINE
  5
622
330
1F
100
AcDbEntity
  8
Livello 1
370
     5
100
AcDbLine
 10
4.317596154258296
 20
6.326297982094502
 30
0.0
 11
4.315126720580394
 21
6.326297982094502
 31
0.0
  0
LINE
  5
623
330
1F
100
AcDbEntity
  8
Livello 1
370
     5
100
AcDbLine
 10
4.315126720580394
 20
6.326297982094502
 30
0.0
 11
4.315126720580394
 21
6.321359114738697
 31
0.0
  0
LINE
  5
624
330
1F
100
AcDbEntity
  8
Livello 1
370
     5
100
AcDbLine
 10
4.315126720580394
 20
6.321359114738697
 30
0.0
 11
4.312657286902492
 21
6.321359114738697
 31
0.0
  0
LINE
  5
625
330
1F
100
AcDbEntity
  8
Livello 1
370
     5
100
AcDbLine
 10
4.312657286902492
 20
6.321359114738697
 30
0.0
 11
4.312657286902492
 21
6.316420247382893
 31
0.0
  0
LINE
  5
626
330
1F
100
AcDbEntity
  8
Livello 1
370
     5
100
AcDbLine
 10
4.312657286902492
 20
6.316420247382893
 30
0.0
 11
4.31018785322459
 21
6.316420247382893
 31
0.0
  0
LINE
  5
627
330
1F
100
AcDbEntity
  8
Livello 1
370
     5
100
AcDbLine
 10
4.31018785322459
 20
6.316420247382893
 30
0.0
 11
4.31018785322459
 21
6.313950813704991
 31
0.0
  0
LINE
  5
628
330
1F
100
AcDbEntity
  8
Livello 1
370
     5
100
AcDbLine
 10
4.31018785322459
 20
6.313950813704991
 30
0.0
 11
4.307718419546688
 21
6.313950813704991
 31
0.0
  0
LINE
  5
629
330
1F
100
AcDbEntity
  8
Livello 1
370
     5
100
AcDbLine
 10
4.307718419546688
 20
6.313950813704991
 30
0.0
 11
4.307718419546688
 21
6.311481380027075
 31
0.0
  0
LINE
  5
62A
330
1F
100
AcDbEntity
  8
Livello 1
370
     5
100
AcDbLine
 10
4.307718419546688
 20
6.311481380027075
 30
0.0
 11
4.305248985868786
 21
6.311481380027075
 31
0.0
  0
LINE
  5
62B
330
1F
100
AcDbEntity
  8
Livello 1
370
     5
100
AcDbLine
 10
4.305248985868786
 20
6.311481380027075
 30
0.0
 11
4.305248985868786
 21
6.308659362358113
 31
0.0
  0
LINE
  5
62C
330
1F
100
AcDbEntity
  8
Livello 1
370
     5
100
AcDbLine
 10
4.305248985868786
 20
6.308659362358113
 30
0.0
 11
4.30277955219087
 21
6.308659362358113
 31
0.0
  0
LINE
  5
62D
330
1F
100
AcDbEntity
  8
Livello 1
370
     5
100
AcDbLine
 10
4.30277955219087
 20
6.308659362358113
 30
0.0
 11
4.30277955219087
 21
6.306189928680225
 31
0.0
  0
LINE
  5
62E
330
1F
100
AcDbEntity
  8
Livello 1
370
     5
100
AcDbLine
 10
4.30277955219087
 20
6.306189928680225
 30
0.0
 11
4.29784068483508
 21
6.306189928680225
 31
0.0
  0
LINE
  5
62F
330
1F
100
AcDbEntity
  8
Livello 1
370
     5
100
AcDbLine
 10
4.29784068483508
 20
6.306189928680225
 30
0.0
 11
4.29784068483508
 21
6.303720495002295
 31
0.0
  0
LINE
  5
630
330
1F
100
AcDbEntity
  8
Livello 1
370
     5
100
AcDbLine
 10
4.29784068483508
 20
6.303720495002295
 30
0.0
 11
4.292901817479261
 21
6.303720495002295
 31
0.0
  0
LINE
  5
631
330
1F
100
AcDbEntity
  8
Livello 1
370
     5
100
AcDbLine
 10
4.292901817479261
 20
6.303720495002295
 30
0.0
 11
4.292901817479261
 21
6.301251061324393
 31
0.0
  0
LINE
  5
632
330
1F
100
AcDbEntity
  8
Livello 1
370
     5
100
AcDbLine
 10
4.292901817479261
 20
6.301251061324393
 30
0.0
 11
4.280202065098677
 21
6.301251061324393
 31
0.0
  0
LINE
  5
633
330
1F
100
AcDbEntity
  8
Livello 1
370
     5
100
AcDbLine
 10
4.320066260806399
 20
6.703736453052528
 30
0.0
 11
4.320066260806399
 21
6.341079594910908
 31
0.0
  0
LINE
  5
634
330
1F
100
AcDbEntity
  8
Livello 1
370
     5
100
AcDbLine
 10
4.280343367843187
 20
8.251125313580111
 30
0.0
 11
4.280343367843187
 21
8.248654534161794
 31
0.0
  0
LINE
  5
635
330
1F
100
AcDbEntity
  8
Livello 1
370
     5
100
AcDbLine
 10
4.280343367843187
 20
8.248654534161794
 30
0.0
 11
4.292690536232697
 21
8.248654534161794
 31
0.0
  0
LINE
  5
636
330
1F
100
AcDbEntity
  8
Livello 1
370
     5
100
AcDbLine
 10
4.292690536232697
 20
8.248654534161794
 30
0.0
 11
4.292690536232697
 21
8.246185100483891
 31
0.0
  0
LINE
  5
637
330
1F
100
AcDbEntity
  8
Livello 1
370
     5
100
AcDbLine
 10
4.292690536232697
 20
8.246185100483891
 30
0.0
 11
4.29762940358853
 21
8.246185100483891
 31
0.0
  0
LINE
  5
638
330
1F
100
AcDbEntity
  8
Livello 1
370
     5
100
AcDbLine
 10
4.29762940358853
 20
8.246185100483891
 30
0.0
 11
4.300098837266418
 21
8.243715666805982
 31
0.0
  0
LINE
  5
639
330
1F
100
AcDbEntity
  8
Livello 1
370
     5
100
AcDbLine
 10
4.300098837266418
 20
8.243715666805982
 30
0.0
 11
4.30256827094432
 21
8.243715666805982
 31
0.0
  0
LINE
  5
63A
330
1F
100
AcDbEntity
  8
Livello 1
370
     5
100
AcDbLine
 10
4.30256827094432
 20
8.243715666805982
 30
0.0
 11
4.30256827094432
 21
8.24124623312808
 31
0.0
  0
LINE
  5
63B
330
1F
100
AcDbEntity
  8
Livello 1
370
     5
100
AcDbLine
 10
4.30256827094432
 20
8.24124623312808
 30
0.0
 11
4.305037704622208
 21
8.24124623312808
 31
0.0
  0
LINE
  5
63C
330
1F
100
AcDbEntity
  8
Livello 1
370
     5
100
AcDbLine
 10
4.305037704622208
 20
8.24124623312808
 30
0.0
 11
4.307507138300138
 21
8.238776799450178
 31
0.0
  0
LINE
  5
63D
330
1F
100
AcDbEntity
  8
Livello 1
370
     5
100
AcDbLine
 10
4.307507138300138
 20
8.238776799450178
 30
0.0
 11
4.309976571978026
 21
8.238776799450178
 31
0.0
  0
LINE
  5
63E
330
1F
100
AcDbEntity
  8
Livello 1
370
     5
100
AcDbLine
 10
4.309976571978026
 20
8.238776799450178
 30
0.0
 11
4.309976571978026
 21
8.236307365772276
 31
0.0
  0
LINE
  5
63F
330
1F
100
AcDbEntity
  8
Livello 1
370
     5
100
AcDbLine
 10
4.309976571978026
 20
8.236307365772276
 30
0.0
 11
4.312798589646988
 21
8.233837932094374
 31
0.0
  0
LINE
  5
640
330
1F
100
AcDbEntity
  8
Livello 1
370
     5
100
AcDbLine
 10
4.312798589646988
 20
8.233837932094374
 30
0.0
 11
4.312798589646988
 21
8.231368498416472
 31
0.0
  0
LINE
  5
641
330
1F
100
AcDbEntity
  8
Livello 1
370
     5
100
AcDbLine
 10
4.312798589646988
 20
8.231368498416472
 30
0.0
 11
4.315268023324904
 21
8.231368498416472
 31
0.0
  0
LINE
  5
642
330
1F
100
AcDbEntity
  8
Livello 1
370
     5
100
AcDbLine
 10
4.315268023324904
 20
8.231368498416472
 30
0.0
 11
4.315268023324904
 21
8.22889906473857
 31
0.0
  0
LINE
  5
643
330
1F
100
AcDbEntity
  8
Livello 1
370
     5
100
AcDbLine
 10
4.315268023324904
 20
8.22889906473857
 30
0.0
 11
4.317737457002806
 21
8.226429631060661
 31
0.0
  0
LINE
  5
644
330
1F
100
AcDbEntity
  8
Livello 1
370
     5
100
AcDbLine
 10
4.317737457002806
 20
8.226429631060661
 30
0.0
 11
4.317737457002806
 21
8.221490763704849
 31
0.0
  0
LINE
  5
645
330
1F
100
AcDbEntity
  8
Livello 1
370
     5
100
AcDbLine
 10
4.317737457002806
 20
8.221490763704849
 30
0.0
 11
4.320206890680722
 21
8.221490763704849
 31
0.0
  0
LINE
  5
646
330
1F
100
AcDbEntity
  8
Livello 1
370
     5
100
AcDbLine
 10
4.320206890680722
 20
8.221490763704849
 30
0.0
 11
4.320206890680722
 21
8.208791011324265
 31
0.0
  0
LINE
  5
647
330
1F
100
AcDbEntity
  8
Livello 1
370
     5
100
AcDbLine
 10
4.320206890680722
 20
8.208791011324265
 30
0.0
 11
4.32267632435861
 21
8.208791011324265
 31
0.0
  0
LINE
  5
648
330
1F
100
AcDbEntity
  8
Livello 1
370
     5
100
AcDbLine
 10
4.079154501596065
 20
8.251125313580111
 30
0.0
 11
4.280237727219898
 21
8.251125313580111
 31
0.0
  0
SPLINE
  5
649
330
1F
100
AcDbEntity
  8
Livello 1
370
     5
100
AcDbSpline
210
0.0
220
0.0
230
1.0
 70
    24
 71
     3
 72
     8
 73
     4
 74
     0
 42
0.000000001
 43
0.0000000001
 40
0.0
 40
0.0
 40
0.0
 40
0.0
 40
1.0
 40
1.0
 40
1.0
 40
1.0
 10
3.676776096231648
 20
7.87608764353839
 30
0.0
 10
3.676776096231648
 20
7.87608764353839
 30
0.0
 10
3.676776096231648
 20
7.893373679283712
 30
0.0
 10
3.676776096231648
 20
7.893373679283712
 30
0.0
  0
SPLINE
  5
64A
330
1F
100
AcDbEntity
  8
Livello 1
370
     5
100
AcDbSpline
210
0.0
220
0.0
230
1.0
 70
    24
 71
     3
 72
     8
 73
     4
 74
     0
 42
0.000000001
 43
0.0000000001
 40
1.0
 40
1.0
 40
1.0
 40
1.0
 40
2.0
 40
2.0
 40
2.0
 40
2.0
 10
3.676776096231648
 20
7.893373679283712
 30
0.0
 10
3.676776096231648
 20
7.893373679283712
 30
0.0
 10
3.679245529909536
 20
7.898312546639509
 30
0.0
 10
3.679245529909536
 20
7.898312546639509
 30
0.0
  0
SPLINE
  5
64B
330
1F
100
AcDbEntity
  8
Livello 1
370
     5
100
AcDbSpline
210
0.0
220
0.0
230
1.0
 70
    24
 71
     3
 72
     8
 73
     4
 74
     0
 42
0.000000001
 43
0.0000000001
 40
2.0
 40
2.0
 40
2.0
 40
2.0
 40
3.0
 40
3.0
 40
3.0
 40
3.0
 10
3.679245529909536
 20
7.898312546639509
 30
0.0
 10
3.679245529909536
 20
7.898312546639509
 30
0.0
 10
3.679245529909536
 20
7.913481732698002
 30
0.0
 10
3.679245529909536
 20
7.913481732698002
 30
0.0
  0
SPLINE
  5
64C
330
1F
100
AcDbEntity
  8
Livello 1
370
     5
100
AcDbSpline
210
0.0
220
0.0
230
1.0
 70
    24
 71
     3
 72
     8
 73
     4
 74
     0
 42
0.000000001
 43
0.0000000001
 40
3.0
 40
3.0
 40
3.0
 40
3.0
 40
4.0
 40
4.0
 40
4.0
 40
4.0
 10
3.679245529909536
 20
7.913481732698002
 30
0.0
 10
3.679245529909536
 20
7.913481732698002
 30
0.0
 10
3.681714963587452
 20
7.918420600053813
 30
0.0
 10
3.681714963587452
 20
7.918420600053813
 30
0.0
  0
SPLINE
  5
64D
330
1F
100
AcDbEntity
  8
Livello 1
370
     5
100
AcDbSpline
210
0.0
220
0.0
230
1.0
 70
    24
 71
     3
 72
     8
 73
     4
 74
     0
 42
0.000000001
 43
0.0000000001
 40
4.0
 40
4.0
 40
4.0
 40
4.0
 40
5.0
 40
5.0
 40
5.0
 40
5.0
 10
3.681714963587452
 20
7.918420600053813
 30
0.0
 10
3.681714963587452
 20
7.918420600053813
 30
0.0
 10
3.681714963587452
 20
7.923359467409618
 30
0.0
 10
3.681714963587452
 20
7.923359467409618
 30
0.0
  0
SPLINE
  5
64E
330
1F
100
AcDbEntity
  8
Livello 1
370
     5
100
AcDbSpline
210
0.0
220
0.0
230
1.0
 70
    24
 71
     3
 72
     8
 73
     4
 74
     0
 42
0.000000001
 43
0.0000000001
 40
5.0
 40
5.0
 40
5.0
 40
5.0
 40
6.0
 40
6.0
 40
6.0
 40
6.0
 10
3.681714963587452
 20
7.923359467409618
 30
0.0
 10
3.681714963587452
 20
7.923359467409618
 30
0.0
 10
3.684184397265369
 20
7.928298334765422
 30
0.0
 10
3.684184397265369
 20
7.928298334765422
 30
0.0
  0
SPLINE
  5
64F
330
1F
100
AcDbEntity
  8
Livello 1
370
     5
100
AcDbSpline
210
0.0
220
0.0
230
1.0
 70
    24
 71
     3
 72
     8
 73
     4
 74
     0
 42
0.000000001
 43
0.0000000001
 40
6.0
 40
6.0
 40
6.0
 40
6.0
 40
7.0
 40
7.0
 40
7.0
 40
7.0
 10
3.684184397265369
 20
7.928298334765422
 30
0.0
 10
3.684184397265369
 20
7.928298334765422
 30
0.0
 10
3.684184397265369
 20
7.938176069477044
 30
0.0
 10
3.684184397265369
 20
7.938176069477044
 30
0.0
  0
SPLINE
  5
650
330
1F
100
AcDbEntity
  8
Livello 1
370
     5
100
AcDbSpline
210
0.0
220
0.0
230
1.0
 70
    24
 71
     3
 72
     8
 73
     4
 74
     0
 42
0.000000001
 43
0.0000000001
 40
7.0
 40
7.0
 40
7.0
 40
7.0
 40
8.0
 40
8.0
 40
8.0
 40
8.0
 10
3.684184397265369
 20
7.938176069477044
 30
0.0
 10
3.684184397265369
 20
7.938176069477044
 30
0.0
 10
3.686653830943271
 20
7.943114936832849
 30
0.0
 10
3.686653830943271
 20
7.943114936832849
 30
0.0
  0
SPLINE
  5
651
330
1F
100
AcDbEntity
  8
Livello 1
370
     5
100
AcDbSpline
210
0.0
220
0.0
230
1.0
 70
    24
 71
     3
 72
     8
 73
     4
 74
     0
 42
0.000000001
 43
0.0000000001
 40
8.0
 40
8.0
 40
8.0
 40
8.0
 40
9.0
 40
9.0
 40
9.0
 40
9.0
 10
3.686653830943271
 20
7.943114936832849
 30
0.0
 10
3.686653830943271
 20
7.943114936832849
 30
0.0
 10
3.686653830943271
 20
7.948053804188653
 30
0.0
 10
3.686653830943271
 20
7.948053804188653
 30
0.0
  0
SPLINE
  5
652
330
1F
100
AcDbEntity
  8
Livello 1
370
     5
100
AcDbSpline
210
0.0
220
0.0
230
1.0
 70
    24
 71
     3
 72
     8
 73
     4
 74
     0
 42
0.000000001
 43
0.0000000001
 40
9.0
 40
9.0
 40
9.0
 40
9.0
 40
10.0
 40
10.0
 40
10.0
 40
10.0
 10
3.686653830943271
 20
7.948053804188653
 30
0.0
 10
3.686653830943271
 20
7.948053804188653
 30
0.0
 10
3.689123264621159
 20
7.952992671544464
 30
0.0
 10
3.689123264621159
 20
7.952992671544464
 30
0.0
  0
SPLINE
  5
653
330
1F
100
AcDbEntity
  8
Livello 1
370
     5
100
AcDbSpline
210
0.0
220
0.0
230
1.0
 70
    24
 71
     3
 72
     8
 73
     4
 74
     0
 42
0.000000001
 43
0.0000000001
 40
10.0
 40
10.0
 40
10.0
 40
10.0
 40
11.0
 40
11.0
 40
11.0
 40
11.0
 10
3.689123264621159
 20
7.952992671544464
 30
0.0
 10
3.689123264621159
 20
7.952992671544464
 30
0.0
 10
3.689123264621159
 20
7.957931538900282
 30
0.0
 10
3.689123264621159
 20
7.957931538900282
 30
0.0
  0
SPLINE
  5
654
330
1F
100
AcDbEntity
  8
Livello 1
370
     5
100
AcDbSpline
210
0.0
220
0.0
230
1.0
 70
    24
 71
     3
 72
     8
 73
     4
 74
     0
 42
0.000000001
 43
0.0000000001
 40
11.0
 40
11.0
 40
11.0
 40
11.0
 40
12.0
 40
12.0
 40
12.0
 40
12.0
 10
3.689123264621159
 20
7.957931538900282
 30
0.0
 10
3.689123264621159
 20
7.957931538900282
 30
0.0
 10
3.694062131976977
 20
7.967809273611891
 30
0.0
 10
3.694062131976977
 20
7.967809273611891
 30
0.0
  0
SPLINE
  5
655
330
1F
100
AcDbEntity
  8
Livello 1
370
     5
100
AcDbSpline
210
0.0
220
0.0
230
1.0
 70
    24
 71
     3
 72
     8
 73
     4
 74
     0
 42
0.000000001
 43
0.0000000001
 40
12.0
 40
12.0
 40
12.0
 40
12.0
 40
13.0
 40
13.0
 40
13.0
 40
13.0
 10
3.694062131976977
 20
7.967809273611891
 30
0.0
 10
3.694062131976977
 20
7.967809273611891
 30
0.0
 10
3.694062131976977
 20
7.973100724958761
 30
0.0
 10
3.694062131976977
 20
7.973100724958761
 30
0.0
  0
SPLINE
  5
656
330
1F
100
AcDbEntity
  8
Livello 1
370
     5
100
AcDbSpline
210
0.0
220
0.0
230
1.0
 70
    24
 71
     3
 72
     8
 73
     4
 74
     0
 42
0.000000001
 43
0.0000000001
 40
13.0
 40
13.0
 40
13.0
 40
13.0
 40
14.0
 40
14.0
 40
14.0
 40
14.0
 10
3.694062131976977
 20
7.973100724958761
 30
0.0
 10
3.694062131976977
 20
7.973100724958761
 30
0.0
 10
3.696531565654879
 20
7.975570158636664
 30
0.0
 10
3.696531565654879
 20
7.975570158636664
 30
0.0
  0
SPLINE
  5
657
330
1F
100
AcDbEntity
  8
Livello 1
370
     5
100
AcDbSpline
210
0.0
220
0.0
230
1.0
 70
    24
 71
     3
 72
     8
 73
     4
 74
     0
 42
0.000000001
 43
0.0000000001
 40
14.0
 40
14.0
 40
14.0
 40
14.0
 40
15.0
 40
15.0
 40
15.0
 40
15.0
 10
3.696531565654879
 20
7.975570158636664
 30
0.0
 10
3.696531565654879
 20
7.975570158636664
 30
0.0
 10
3.699000999332767
 20
7.980509025992482
 30
0.0
 10
3.699000999332767
 20
7.980509025992482
 30
0.0
  0
SPLINE
  5
658
330
1F
100
AcDbEntity
  8
Livello 1
370
     5
100
AcDbSpline
210
0.0
220
0.0
230
1.0
 70
    24
 71
     3
 72
     8
 73
     4
 74
     0
 42
0.000000001
 43
0.0000000001
 40
15.0
 40
15.0
 40
15.0
 40
15.0
 40
16.0
 40
16.0
 40
16.0
 40
16.0
 10
3.699000999332767
 20
7.980509025992482
 30
0.0
 10
3.699000999332767
 20
7.980509025992482
 30
0.0
 10
3.699000999332767
 20
7.985447893348286
 30
0.0
 10
3.699000999332767
 20
7.985447893348286
 30
0.0
  0
SPLINE
  5
659
330
1F
100
AcDbEntity
  8
Livello 1
370
     5
100
AcDbSpline
210
0.0
220
0.0
230
1.0
 70
    24
 71
     3
 72
     8
 73
     4
 74
     0
 42
0.000000001
 43
0.0000000001
 40
16.0
 40
16.0
 40
16.0
 40
16.0
 40
17.0
 40
17.0
 40
17.0
 40
17.0
 10
3.699000999332767
 20
7.985447893348286
 30
0.0
 10
3.699000999332767
 20
7.985447893348286
 30
0.0
 10
3.703939866688585
 20
7.995325628059894
 30
0.0
 10
3.703939866688585
 20
7.995325628059894
 30
0.0
  0
SPLINE
  5
65A
330
1F
100
AcDbEntity
  8
Livello 1
370
     5
100
AcDbSpline
210
0.0
220
0.0
230
1.0
 70
    24
 71
     3
 72
     8
 73
     4
 74
     0
 42
0.000000001
 43
0.0000000001
 40
17.0
 40
17.0
 40
17.0
 40
17.0
 40
18.0
 40
18.0
 40
18.0
 40
18.0
 10
3.703939866688585
 20
7.995325628059894
 30
0.0
 10
3.703939866688585
 20
7.995325628059894
 30
0.0
 10
3.703939866688585
 20
8.000264495415706
 30
0.0
 10
3.703939866688585
 20
8.000264495415706
 30
0.0
  0
SPLINE
  5
65B
330
1F
100
AcDbEntity
  8
Livello 1
370
     5
100
AcDbSpline
210
0.0
220
0.0
230
1.0
 70
    24
 71
     3
 72
     8
 73
     4
 74
     0
 42
0.000000001
 43
0.0000000001
 40
18.0
 40
18.0
 40
18.0
 40
18.0
 40
19.0
 40
19.0
 40
19.0
 40
19.0
 10
3.703939866688585
 20
8.000264495415706
 30
0.0
 10
3.703939866688585
 20
8.000264495415706
 30
0.0
 10
3.706409300366502
 20
8.005203362771503
 30
0.0
 10
3.706409300366502
 20
8.005203362771503
 30
0.0
  0
SPLINE
  5
65C
330
1F
100
AcDbEntity
  8
Livello 1
370
     5
100
AcDbSpline
210
0.0
220
0.0
230
1.0
 70
    24
 71
     3
 72
     8
 73
     4
 74
     0
 42
0.000000001
 43
0.0000000001
 40
19.0
 40
19.0
 40
19.0
 40
19.0
 40
20.0
 40
20.0
 40
20.0
 40
20.0
 10
3.706409300366502
 20
8.005203362771503
 30
0.0
 10
3.706409300366502
 20
8.005203362771503
 30
0.0
 10
3.709231318035463
 20
8.007672796449419
 30
0.0
 10
3.709231318035463
 20
8.007672796449419
 30
0.0
  0
SPLINE
  5
65D
330
1F
100
AcDbEntity
  8
Livello 1
370
     5
100
AcDbSpline
210
0.0
220
0.0
230
1.0
 70
    24
 71
     3
 72
     8
 73
     4
 74
     0
 42
0.000000001
 43
0.0000000001
 40
20.0
 40
20.0
 40
20.0
 40
20.0
 40
21.0
 40
21.0
 40
21.0
 40
21.0
 10
3.709231318035463
 20
8.007672796449419
 30
0.0
 10
3.709231318035463
 20
8.007672796449419
 30
0.0
 10
3.716639619069184
 20
8.022489398516839
 30
0.0
 10
3.716639619069184
 20
8.022489398516839
 30
0.0
  0
SPLINE
  5
65E
330
1F
100
AcDbEntity
  8
Livello 1
370
     5
100
AcDbSpline
210
0.0
220
0.0
230
1.0
 70
    24
 71
     3
 72
     8
 73
     4
 74
     0
 42
0.000000001
 43
0.0000000001
 40
21.0
 40
21.0
 40
21.0
 40
21.0
 40
22.0
 40
22.0
 40
22.0
 40
22.0
 10
3.716639619069184
 20
8.022489398516839
 30
0.0
 10
3.716639619069184
 20
8.022489398516839
 30
0.0
 10
3.716639619069184
 20
8.02742826587265
 30
0.0
 10
3.716639619069184
 20
8.02742826587265
 30
0.0
  0
SPLINE
  5
65F
330
1F
100
AcDbEntity
  8
Livello 1
370
     5
100
AcDbSpline
210
0.0
220
0.0
230
1.0
 70
    24
 71
     3
 72
     8
 73
     4
 74
     0
 42
0.000000001
 43
0.0000000001
 40
22.0
 40
22.0
 40
22.0
 40
22.0
 40
23.0
 40
23.0
 40
23.0
 40
23.0
 10
3.716639619069184
 20
8.02742826587265
 30
0.0
 10
3.716639619069184
 20
8.02742826587265
 30
0.0
 10
3.719109052747086
 20
8.029897699550545
 30
0.0
 10
3.719109052747086
 20
8.029897699550545
 30
0.0
  0
SPLINE
  5
660
330
1F
100
AcDbEntity
  8
Livello 1
370
     5
100
AcDbSpline
210
0.0
220
0.0
230
1.0
 70
    24
 71
     3
 72
     8
 73
     4
 74
     0
 42
0.000000001
 43
0.0000000001
 40
23.0
 40
23.0
 40
23.0
 40
23.0
 40
24.0
 40
24.0
 40
24.0
 40
24.0
 10
3.719109052747086
 20
8.029897699550545
 30
0.0
 10
3.719109052747086
 20
8.029897699550545
 30
0.0
 10
3.726517353780792
 20
8.045066885609038
 30
0.0
 10
3.726517353780792
 20
8.045066885609038
 30
0.0
  0
SPLINE
  5
661
330
1F
100
AcDbEntity
  8
Livello 1
370
     5
100
AcDbSpline
210
0.0
220
0.0
230
1.0
 70
    24
 71
     3
 72
     8
 73
     4
 74
     0
 42
0.000000001
 43
0.0000000001
 40
24.0
 40
24.0
 40
24.0
 40
24.0
 40
25.0
 40
25.0
 40
25.0
 40
25.0
 10
3.726517353780792
 20
8.045066885609038
 30
0.0
 10
3.726517353780792
 20
8.045066885609038
 30
0.0
 10
3.728986787458694
 20
8.04753631928694
 30
0.0
 10
3.728986787458694
 20
8.04753631928694
 30
0.0
  0
SPLINE
  5
662
330
1F
100
AcDbEntity
  8
Livello 1
370
     5
100
AcDbSpline
210
0.0
220
0.0
230
1.0
 70
    24
 71
     3
 72
     8
 73
     4
 74
     0
 42
0.000000001
 43
0.0000000001
 40
25.0
 40
25.0
 40
25.0
 40
25.0
 40
26.0
 40
26.0
 40
26.0
 40
26.0
 10
3.728986787458694
 20
8.04753631928694
 30
0.0
 10
3.728986787458694
 20
8.04753631928694
 30
0.0
 10
3.733925654814498
 20
8.057415399738978
 30
0.0
 10
3.733925654814498
 20
8.057415399738978
 30
0.0
  0
SPLINE
  5
663
330
1F
100
AcDbEntity
  8
Livello 1
370
     5
100
AcDbSpline
210
0.0
220
0.0
230
1.0
 70
    24
 71
     3
 72
     8
 73
     4
 74
     0
 42
0.000000001
 43
0.0000000001
 40
26.0
 40
26.0
 40
26.0
 40
26.0
 40
27.0
 40
27.0
 40
27.0
 40
27.0
 10
3.733925654814498
 20
8.057415399738978
 30
0.0
 10
3.733925654814498
 20
8.057415399738978
 30
0.0
 10
3.736395088492415
 20
8.059884833416887
 30
0.0
 10
3.736395088492415
 20
8.059884833416887
 30
0.0
  0
SPLINE
  5
664
330
1F
100
AcDbEntity
  8
Livello 1
370
     5
100
AcDbSpline
210
0.0
220
0.0
230
1.0
 70
    24
 71
     3
 72
     8
 73
     4
 74
     0
 42
0.000000001
 43
0.0000000001
 40
27.0
 40
27.0
 40
27.0
 40
27.0
 40
28.0
 40
28.0
 40
28.0
 40
28.0
 10
3.736395088492415
 20
8.059884833416887
 30
0.0
 10
3.736395088492415
 20
8.059884833416887
 30
0.0
 10
3.741333955848205
 20
8.06976256812851
 30
0.0
 10
3.741333955848205
 20
8.06976256812851
 30
0.0
  0
SPLINE
  5
665
330
1F
100
AcDbEntity
  8
Livello 1
370
     5
100
AcDbSpline
210
0.0
220
0.0
230
1.0
 70
    24
 71
     3
 72
     8
 73
     4
 74
     0
 42
0.000000001
 43
0.0000000001
 40
28.0
 40
28.0
 40
28.0
 40
28.0
 40
29.0
 40
29.0
 40
29.0
 40
29.0
 10
3.741333955848205
 20
8.06976256812851
 30
0.0
 10
3.741333955848205
 20
8.06976256812851
 30
0.0
 10
3.746272823204023
 20
8.072232001806405
 30
0.0
 10
3.746272823204023
 20
8.072232001806405
 30
0.0
  0
SPLINE
  5
666
330
1F
100
AcDbEntity
  8
Livello 1
370
     5
100
AcDbSpline
210
0.0
220
0.0
230
1.0
 70
    24
 71
     3
 72
     8
 73
     4
 74
     0
 42
0.000000001
 43
0.0000000001
 40
29.0
 40
29.0
 40
29.0
 40
29.0
 40
30.0
 40
30.0
 40
30.0
 40
30.0
 10
3.746272823204023
 20
8.072232001806405
 30
0.0
 10
3.746272823204023
 20
8.072232001806405
 30
0.0
 10
3.751211690559813
 20
8.082109736518013
 30
0.0
 10
3.751211690559813
 20
8.082109736518013
 30
0.0
  0
SPLINE
  5
667
330
1F
100
AcDbEntity
  8
Livello 1
370
     5
100
AcDbSpline
210
0.0
220
0.0
230
1.0
 70
    24
 71
     3
 72
     8
 73
     4
 74
     0
 42
0.000000001
 43
0.0000000001
 40
30.0
 40
30.0
 40
30.0
 40
30.0
 40
31.0
 40
31.0
 40
31.0
 40
31.0
 10
3.751211690559813
 20
8.082109736518013
 30
0.0
 10
3.751211690559813
 20
8.082109736518013
 30
0.0
 10
3.753681124237729
 20
8.084579170195929
 30
0.0
 10
3.753681124237729
 20
8.084579170195929
 30
0.0
  0
SPLINE
  5
668
330
1F
100
AcDbEntity
  8
Livello 1
370
     5
100
AcDbSpline
210
0.0
220
0.0
230
1.0
 70
    24
 71
     3
 72
     8
 73
     4
 74
     0
 42
0.000000001
 43
0.0000000001
 40
31.0
 40
31.0
 40
31.0
 40
31.0
 40
32.0
 40
32.0
 40
32.0
 40
32.0
 10
3.753681124237729
 20
8.084579170195929
 30
0.0
 10
3.753681124237729
 20
8.084579170195929
 30
0.0
 10
3.756150557915631
 20
8.089518037551727
 30
0.0
 10
3.756150557915631
 20
8.089518037551727
 30
0.0
  0
SPLINE
  5
669
330
1F
100
AcDbEntity
  8
Livello 1
370
     5
100
AcDbSpline
210
0.0
220
0.0
230
1.0
 70
    24
 71
     3
 72
     8
 73
     4
 74
     0
 42
0.000000001
 43
0.0000000001
 40
32.0
 40
32.0
 40
32.0
 40
32.0
 40
33.0
 40
33.0
 40
33.0
 40
33.0
 10
3.756150557915631
 20
8.089518037551727
 30
0.0
 10
3.756150557915631
 20
8.089518037551727
 30
0.0
 10
3.763558858949352
 20
8.097278922576506
 30
0.0
 10
3.763558858949352
 20
8.097278922576506
 30
0.0
  0
SPLINE
  5
66A
330
1F
100
AcDbEntity
  8
Livello 1
370
     5
100
AcDbSpline
210
0.0
220
0.0
230
1.0
 70
    24
 71
     3
 72
     8
 73
     4
 74
     0
 42
0.000000001
 43
0.0000000001
 40
33.0
 40
33.0
 40
33.0
 40
33.0
 40
34.0
 40
34.0
 40
34.0
 40
34.0
 10
3.763558858949352
 20
8.097278922576506
 30
0.0
 10
3.763558858949352
 20
8.097278922576506
 30
0.0
 10
3.766028292627254
 20
8.102217789932318
 30
0.0
 10
3.766028292627254
 20
8.102217789932318
 30
0.0
  0
SPLINE
  5
66B
330
1F
100
AcDbEntity
  8
Livello 1
370
     5
100
AcDbSpline
210
0.0
220
0.0
230
1.0
 70
    24
 71
     3
 72
     8
 73
     4
 74
     0
 42
0.000000001
 43
0.0000000001
 40
34.0
 40
34.0
 40
34.0
 40
34.0
 40
35.0
 40
35.0
 40
35.0
 40
35.0
 10
3.766028292627254
 20
8.102217789932318
 30
0.0
 10
3.766028292627254
 20
8.102217789932318
 30
0.0
 10
3.776259284200151
 20
8.112095524643933
 30
0.0
 10
3.776259284200151
 20
8.112095524643933
 30
0.0
  0
SPLINE
  5
66C
330
1F
100
AcDbEntity
  8
Livello 1
370
     5
100
AcDbSpline
210
0.0
220
0.0
230
1.0
 70
    24
 71
     3
 72
     8
 73
     4
 74
     0
 42
0.000000001
 43
0.0000000001
 40
35.0
 40
35.0
 40
35.0
 40
35.0
 40
36.0
 40
36.0
 40
36.0
 40
36.0
 10
3.776259284200151
 20
8.112095524643933
 30
0.0
 10
3.776259284200151
 20
8.112095524643933
 30
0.0
 10
3.778728717878038
 20
8.11703439199973
 30
0.0
 10
3.778728717878038
 20
8.11703439199973
 30
0.0
  0
SPLINE
  5
66D
330
1F
100
AcDbEntity
  8
Livello 1
370
     5
100
AcDbSpline
210
0.0
220
0.0
230
1.0
 70
    24
 71
     3
 72
     8
 73
     4
 74
     0
 42
0.000000001
 43
0.0000000001
 40
36.0
 40
36.0
 40
36.0
 40
36.0
 40
37.0
 40
37.0
 40
37.0
 40
37.0
 10
3.778728717878038
 20
8.11703439199973
 30
0.0
 10
3.778728717878038
 20
8.11703439199973
 30
0.0
 10
3.783667585233857
 20
8.119503825677639
 30
0.0
 10
3.783667585233857
 20
8.119503825677639
 30
0.0
  0
SPLINE
  5
66E
330
1F
100
AcDbEntity
  8
Livello 1
370
     5
100
AcDbSpline
210
0.0
220
0.0
230
1.0
 70
    24
 71
     3
 72
     8
 73
     4
 74
     0
 42
0.000000001
 43
0.0000000001
 40
37.0
 40
37.0
 40
37.0
 40
37.0
 40
38.0
 40
38.0
 40
38.0
 40
38.0
 10
3.783667585233857
 20
8.119503825677639
 30
0.0
 10
3.783667585233857
 20
8.119503825677639
 30
0.0
 10
3.786137018911759
 20
8.124442693033444
 30
0.0
 10
3.786137018911759
 20
8.124442693033444
 30
0.0
  0
SPLINE
  5
66F
330
1F
100
AcDbEntity
  8
Livello 1
370
     5
100
AcDbSpline
210
0.0
220
0.0
230
1.0
 70
    24
 71
     3
 72
     8
 73
     4
 74
     0
 42
0.000000001
 43
0.0000000001
 40
38.0
 40
38.0
 40
38.0
 40
38.0
 40
39.0
 40
39.0
 40
39.0
 40
39.0
 10
3.786137018911759
 20
8.124442693033444
 30
0.0
 10
3.786137018911759
 20
8.124442693033444
 30
0.0
 10
3.788606452589647
 20
8.12691212671136
 30
0.0
 10
3.788606452589647
 20
8.12691212671136
 30
0.0
  0
SPLINE
  5
670
330
1F
100
AcDbEntity
  8
Livello 1
370
     5
100
AcDbSpline
210
0.0
220
0.0
230
1.0
 70
    24
 71
     3
 72
     8
 73
     4
 74
     0
 42
0.000000001
 43
0.0000000001
 40
39.0
 40
39.0
 40
39.0
 40
39.0
 40
40.0
 40
40.0
 40
40.0
 40
40.0
 10
3.788606452589647
 20
8.12691212671136
 30
0.0
 10
3.788606452589647
 20
8.12691212671136
 30
0.0
 10
3.793545319945479
 20
8.129381560389248
 30
0.0
 10
3.793545319945479
 20
8.129381560389248
 30
0.0
  0
SPLINE
  5
671
330
1F
100
AcDbEntity
  8
Livello 1
370
     5
100
AcDbSpline
210
0.0
220
0.0
230
1.0
 70
    24
 71
     3
 72
     8
 73
     4
 74
     0
 42
0.000000001
 43
0.0000000001
 40
40.0
 40
40.0
 40
40.0
 40
40.0
 40
41.0
 40
41.0
 40
41.0
 40
41.0
 10
3.793545319945479
 20
8.129381560389248
 30
0.0
 10
3.793545319945479
 20
8.129381560389248
 30
0.0
 10
3.796014753623381
 20
8.134320427745066
 30
0.0
 10
3.796014753623381
 20
8.134320427745066
 30
0.0
  0
SPLINE
  5
672
330
1F
100
AcDbEntity
  8
Livello 1
370
     5
100
AcDbSpline
210
0.0
220
0.0
230
1.0
 70
    24
 71
     3
 72
     8
 73
     4
 74
     0
 42
0.000000001
 43
0.0000000001
 40
41.0
 40
41.0
 40
41.0
 40
41.0
 40
42.0
 40
42.0
 40
42.0
 40
42.0
 10
3.796014753623381
 20
8.134320427745066
 30
0.0
 10
3.796014753623381
 20
8.134320427745066
 30
0.0
 10
3.800953620979171
 20
8.136789861422968
 30
0.0
 10
3.800953620979171
 20
8.136789861422968
 30
0.0
  0
SPLINE
  5
673
330
1F
100
AcDbEntity
  8
Livello 1
370
     5
100
AcDbSpline
210
0.0
220
0.0
230
1.0
 70
    24
 71
     3
 72
     8
 73
     4
 74
     0
 42
0.000000001
 43
0.0000000001
 40
42.0
 40
42.0
 40
42.0
 40
42.0
 40
43.0
 40
43.0
 40
43.0
 40
43.0
 10
3.800953620979171
 20
8.136789861422968
 30
0.0
 10
3.800953620979171
 20
8.136789861422968
 30
0.0
 10
3.803423054657088
 20
8.14172872877878
 30
0.0
 10
3.803423054657088
 20
8.14172872877878
 30
0.0
  0
SPLINE
  5
674
330
1F
100
AcDbEntity
  8
Livello 1
370
     5
100
AcDbSpline
210
0.0
220
0.0
230
1.0
 70
    24
 71
     3
 72
     8
 73
     4
 74
     0
 42
0.000000001
 43
0.0000000001
 40
43.0
 40
43.0
 40
43.0
 40
43.0
 40
44.0
 40
44.0
 40
44.0
 40
44.0
 10
3.803423054657088
 20
8.14172872877878
 30
0.0
 10
3.803423054657088
 20
8.14172872877878
 30
0.0
 10
3.80589248833499
 20
8.144198162456682
 30
0.0
 10
3.80589248833499
 20
8.144198162456682
 30
0.0
  0
SPLINE
  5
675
330
1F
100
AcDbEntity
  8
Livello 1
370
     5
100
AcDbSpline
210
0.0
220
0.0
230
1.0
 70
    24
 71
     3
 72
     8
 73
     4
 74
     0
 42
0.000000001
 43
0.0000000001
 40
44.0
 40
44.0
 40
44.0
 40
44.0
 40
45.0
 40
45.0
 40
45.0
 40
45.0
 10
3.80589248833499
 20
8.144198162456682
 30
0.0
 10
3.80589248833499
 20
8.144198162456682
 30
0.0
 10
3.81083135569078
 20
8.146667596134584
 30
0.0
 10
3.81083135569078
 20
8.146667596134584
 30
0.0
  0
SPLINE
  5
676
330
1F
100
AcDbEntity
  8
Livello 1
370
     5
100
AcDbSpline
210
0.0
220
0.0
230
1.0
 70
    24
 71
     3
 72
     8
 73
     4
 74
     0
 42
0.000000001
 43
0.0000000001
 40
45.0
 40
45.0
 40
45.0
 40
45.0
 40
46.0
 40
46.0
 40
46.0
 40
46.0
 10
3.81083135569078
 20
8.146667596134584
 30
0.0
 10
3.81083135569078
 20
8.146667596134584
 30
0.0
 10
3.813300789368696
 20
8.151959047481469
 30
0.0
 10
3.813300789368696
 20
8.151959047481469
 30
0.0
  0
SPLINE
  5
677
330
1F
100
AcDbEntity
  8
Livello 1
370
     5
100
AcDbSpline
210
0.0
220
0.0
230
1.0
 70
    24
 71
     3
 72
     8
 73
     4
 74
     0
 42
0.000000001
 43
0.0000000001
 40
46.0
 40
46.0
 40
46.0
 40
46.0
 40
47.0
 40
47.0
 40
47.0
 40
47.0
 10
3.813300789368696
 20
8.151959047481469
 30
0.0
 10
3.813300789368696
 20
8.151959047481469
 30
0.0
 10
3.818239656724529
 20
8.154428481159364
 30
0.0
 10
3.818239656724529
 20
8.154428481159364
 30
0.0
  0
SPLINE
  5
678
330
1F
100
AcDbEntity
  8
Livello 1
370
     5
100
AcDbSpline
210
0.0
220
0.0
230
1.0
 70
    24
 71
     3
 72
     8
 73
     4
 74
     0
 42
0.000000001
 43
0.0000000001
 40
47.0
 40
47.0
 40
47.0
 40
47.0
 40
48.0
 40
48.0
 40
48.0
 40
48.0
 10
3.818239656724529
 20
8.154428481159364
 30
0.0
 10
3.818239656724529
 20
8.154428481159364
 30
0.0
 10
3.820709090402417
 20
8.156897914837266
 30
0.0
 10
3.820709090402417
 20
8.156897914837266
 30
0.0
  0
SPLINE
  5
679
330
1F
100
AcDbEntity
  8
Livello 1
370
     5
100
AcDbSpline
210
0.0
220
0.0
230
1.0
 70
    24
 71
     3
 72
     8
 73
     4
 74
     0
 42
0.000000001
 43
0.0000000001
 40
48.0
 40
48.0
 40
48.0
 40
48.0
 40
49.0
 40
49.0
 40
49.0
 40
49.0
 10
3.820709090402417
 20
8.156897914837266
 30
0.0
 10
3.820709090402417
 20
8.156897914837266
 30
0.0
 10
3.825647957758206
 20
8.159367348515168
 30
0.0
 10
3.825647957758206
 20
8.159367348515168
 30
0.0
  0
SPLINE
  5
67A
330
1F
100
AcDbEntity
  8
Livello 1
370
     5
100
AcDbSpline
210
0.0
220
0.0
230
1.0
 70
    24
 71
     3
 72
     8
 73
     4
 74
     0
 42
0.000000001
 43
0.0000000001
 40
49.0
 40
49.0
 40
49.0
 40
49.0
 40
50.0
 40
50.0
 40
50.0
 40
50.0
 10
3.825647957758206
 20
8.159367348515168
 30
0.0
 10
3.825647957758206
 20
8.159367348515168
 30
0.0
 10
3.833408842783001
 20
8.166775649548895
 30
0.0
 10
3.833408842783001
 20
8.166775649548895
 30
0.0
  0
SPLINE
  5
67B
330
1F
100
AcDbEntity
  8
Livello 1
370
     5
100
AcDbSpline
210
0.0
220
0.0
230
1.0
 70
    24
 71
     3
 72
     8
 73
     4
 74
     0
 42
0.000000001
 43
0.0000000001
 40
50.0
 40
50.0
 40
50.0
 40
50.0
 40
51.0
 40
51.0
 40
51.0
 40
51.0
 10
3.833408842783001
 20
8.166775649548895
 30
0.0
 10
3.833408842783001
 20
8.166775649548895
 30
0.0
 10
3.838347710138805
 20
8.169245083226783
 30
0.0
 10
3.838347710138805
 20
8.169245083226783
 30
0.0
  0
SPLINE
  5
67C
330
1F
100
AcDbEntity
  8
Livello 1
370
     5
100
AcDbSpline
210
0.0
220
0.0
230
1.0
 70
    24
 71
     3
 72
     8
 73
     4
 74
     0
 42
0.000000001
 43
0.0000000001
 40
51.0
 40
51.0
 40
51.0
 40
51.0
 40
52.0
 40
52.0
 40
52.0
 40
52.0
 10
3.838347710138805
 20
8.169245083226783
 30
0.0
 10
3.838347710138805
 20
8.169245083226783
 30
0.0
 10
3.840817143816707
 20
8.171714516904685
 30
0.0
 10
3.840817143816707
 20
8.171714516904685
 30
0.0
  0
SPLINE
  5
67D
330
1F
100
AcDbEntity
  8
Livello 1
370
     5
100
AcDbSpline
210
0.0
220
0.0
230
1.0
 70
    24
 71
     3
 72
     8
 73
     4
 74
     0
 42
0.000000001
 43
0.0000000001
 40
52.0
 40
52.0
 40
52.0
 40
52.0
 40
53.0
 40
53.0
 40
53.0
 40
53.0
 10
3.840817143816707
 20
8.171714516904685
 30
0.0
 10
3.840817143816707
 20
8.171714516904685
 30
0.0
 10
3.845756011172525
 20
8.174183950582602
 30
0.0
 10
3.845756011172525
 20
8.174183950582602
 30
0.0
  0
SPLINE
  5
67E
330
1F
100
AcDbEntity
  8
Livello 1
370
     5
100
AcDbSpline
210
0.0
220
0.0
230
1.0
 70
    24
 71
     3
 72
     8
 73
     4
 74
     0
 42
0.000000001
 43
0.0000000001
 40
53.0
 40
53.0
 40
53.0
 40
53.0
 40
54.0
 40
54.0
 40
54.0
 40
54.0
 10
3.845756011172525
 20
8.174183950582602
 30
0.0
 10
3.845756011172525
 20
8.174183950582602
 30
0.0
 10
3.850694878528315
 20
8.176653384260504
 30
0.0
 10
3.850694878528315
 20
8.176653384260504
 30
0.0
  0
SPLINE
  5
67F
330
1F
100
AcDbEntity
  8
Livello 1
370
     5
100
AcDbSpline
210
0.0
220
0.0
230
1.0
 70
    24
 71
     3
 72
     8
 73
     4
 74
     0
 42
0.000000001
 43
0.0000000001
 40
54.0
 40
54.0
 40
54.0
 40
54.0
 40
55.0
 40
55.0
 40
55.0
 40
55.0
 10
3.850694878528315
 20
8.176653384260504
 30
0.0
 10
3.850694878528315
 20
8.176653384260504
 30
0.0
 10
3.853164985076446
 20
8.181592251616308
 30
0.0
 10
3.853164985076446
 20
8.181592251616308
 30
0.0
  0
SPLINE
  5
680
330
1F
100
AcDbEntity
  8
Livello 1
370
     5
100
AcDbSpline
210
0.0
220
0.0
230
1.0
 70
    24
 71
     3
 72
     8
 73
     4
 74
     0
 42
0.000000001
 43
0.0000000001
 40
55.0
 40
55.0
 40
55.0
 40
55.0
 40
56.0
 40
56.0
 40
56.0
 40
56.0
 10
3.853164985076446
 20
8.181592251616308
 30
0.0
 10
3.853164985076446
 20
8.181592251616308
 30
0.0
 10
3.85810385243225
 20
8.18406168529421
 30
0.0
 10
3.85810385243225
 20
8.18406168529421
 30
0.0
  0
SPLINE
  5
681
330
1F
100
AcDbEntity
  8
Livello 1
370
     5
100
AcDbSpline
210
0.0
220
0.0
230
1.0
 70
    24
 71
     3
 72
     8
 73
     4
 74
     0
 42
0.000000001
 43
0.0000000001
 40
56.0
 40
56.0
 40
56.0
 40
56.0
 40
57.0
 40
57.0
 40
57.0
 40
57.0
 10
3.85810385243225
 20
8.18406168529421
 30
0.0
 10
3.85810385243225
 20
8.18406168529421
 30
0.0
 10
3.863042719788055
 20
8.186531118972112
 30
0.0
 10
3.863042719788055
 20
8.186531118972112
 30
0.0
  0
SPLINE
  5
682
330
1F
100
AcDbEntity
  8
Livello 1
370
     5
100
AcDbSpline
210
0.0
220
0.0
230
1.0
 70
    24
 71
     3
 72
     8
 73
     4
 74
     0
 42
0.000000001
 43
0.0000000001
 40
57.0
 40
57.0
 40
57.0
 40
57.0
 40
58.0
 40
58.0
 40
58.0
 40
58.0
 10
3.863042719788055
 20
8.186531118972112
 30
0.0
 10
3.863042719788055
 20
8.186531118972112
 30
0.0
 10
3.865512153465957
 20
8.189000552650014
 30
0.0
 10
3.865512153465957
 20
8.189000552650014
 30
0.0
  0
SPLINE
  5
683
330
1F
100
AcDbEntity
  8
Livello 1
370
     5
100
AcDbSpline
210
0.0
220
0.0
230
1.0
 70
    24
 71
     3
 72
     8
 73
     4
 74
     0
 42
0.000000001
 43
0.0000000001
 40
58.0
 40
58.0
 40
58.0
 40
58.0
 40
59.0
 40
59.0
 40
59.0
 40
59.0
 10
3.865512153465957
 20
8.189000552650014
 30
0.0
 10
3.865512153465957
 20
8.189000552650014
 30
0.0
 10
3.875389888177565
 20
8.193939420005818
 30
0.0
 10
3.875389888177565
 20
8.193939420005818
 30
0.0
  0
SPLINE
  5
684
330
1F
100
AcDbEntity
  8
Livello 1
370
     5
100
AcDbSpline
210
0.0
220
0.0
230
1.0
 70
    24
 71
     3
 72
     8
 73
     4
 74
     0
 42
0.000000001
 43
0.0000000001
 40
59.0
 40
59.0
 40
59.0
 40
59.0
 40
60.0
 40
60.0
 40
60.0
 40
60.0
 10
3.875389888177565
 20
8.193939420005818
 30
0.0
 10
3.875389888177565
 20
8.193939420005818
 30
0.0
 10
3.877859321855481
 20
8.196408853683728
 30
0.0
 10
3.877859321855481
 20
8.196408853683728
 30
0.0
  0
SPLINE
  5
685
330
1F
100
AcDbEntity
  8
Livello 1
370
     5
100
AcDbSpline
210
0.0
220
0.0
230
1.0
 70
    24
 71
     3
 72
     8
 73
     4
 74
     0
 42
0.000000001
 43
0.0000000001
 40
60.0
 40
60.0
 40
60.0
 40
60.0
 40
61.0
 40
61.0
 40
61.0
 40
61.0
 10
3.877859321855481
 20
8.196408853683728
 30
0.0
 10
3.877859321855481
 20
8.196408853683728
 30
0.0
 10
3.897967375269772
 20
8.20628658839535
 30
0.0
 10
3.897967375269772
 20
8.20628658839535
 30
0.0
  0
SPLINE
  5
686
330
1F
100
AcDbEntity
  8
Livello 1
370
     5
100
AcDbSpline
210
0.0
220
0.0
230
1.0
 70
    24
 71
     3
 72
     8
 73
     4
 74
     0
 42
0.000000001
 43
0.0000000001
 40
61.0
 40
61.0
 40
61.0
 40
61.0
 40
62.0
 40
62.0
 40
62.0
 40
62.0
 10
3.897967375269772
 20
8.20628658839535
 30
0.0
 10
3.897967375269772
 20
8.20628658839535
 30
0.0
 10
3.900436808947674
 20
8.208756022073252
 30
0.0
 10
3.900436808947674
 20
8.208756022073252
 30
0.0
  0
SPLINE
  5
687
330
1F
100
AcDbEntity
  8
Livello 1
370
     5
100
AcDbSpline
210
0.0
220
0.0
230
1.0
 70
    24
 71
     3
 72
     8
 73
     4
 74
     0
 42
0.000000001
 43
0.0000000001
 40
62.0
 40
62.0
 40
62.0
 40
62.0
 40
63.0
 40
63.0
 40
63.0
 40
63.0
 10
3.900436808947674
 20
8.208756022073252
 30
0.0
 10
3.900436808947674
 20
8.208756022073252
 30
0.0
 10
3.905375676303492
 20
8.208756022073252
 30
0.0
 10
3.905375676303492
 20
8.208756022073252
 30
0.0
  0
SPLINE
  5
688
330
1F
100
AcDbEntity
  8
Livello 1
370
     5
100
AcDbSpline
210
0.0
220
0.0
230
1.0
 70
    24
 71
     3
 72
     8
 73
     4
 74
     0
 42
0.000000001
 43
0.0000000001
 40
63.0
 40
63.0
 40
63.0
 40
63.0
 40
64.0
 40
64.0
 40
64.0
 40
64.0
 10
3.905375676303492
 20
8.208756022073252
 30
0.0
 10
3.905375676303492
 20
8.208756022073252
 30
0.0
 10
3.910314543659282
 20
8.211578039742214
 30
0.0
 10
3.910314543659282
 20
8.211578039742214
 30
0.0
  0
SPLINE
  5
689
330
1F
100
AcDbEntity
  8
Livello 1
370
     5
100
AcDbSpline
210
0.0
220
0.0
230
1.0
 70
    24
 71
     3
 72
     8
 73
     4
 74
     0
 42
0.000000001
 43
0.0000000001
 40
64.0
 40
64.0
 40
64.0
 40
64.0
 40
65.0
 40
65.0
 40
65.0
 40
65.0
 10
3.910314543659282
 20
8.211578039742214
 30
0.0
 10
3.910314543659282
 20
8.211578039742214
 30
0.0
 10
3.9152534110151
 20
8.214047473420123
 30
0.0
 10
3.9152534110151
 20
8.214047473420123
 30
0.0
  0
SPLINE
  5
68A
330
1F
100
AcDbEntity
  8
Livello 1
370
     5
100
AcDbSpline
210
0.0
220
0.0
230
1.0
 70
    24
 71
     3
 72
     8
 73
     4
 74
     0
 42
0.000000001
 43
0.0000000001
 40
65.0
 40
65.0
 40
65.0
 40
65.0
 40
66.0
 40
66.0
 40
66.0
 40
66.0
 10
3.9152534110151
 20
8.214047473420123
 30
0.0
 10
3.9152534110151
 20
8.214047473420123
 30
0.0
 10
3.920192278370905
 20
8.216516907098025
 30
0.0
 10
3.920192278370905
 20
8.216516907098025
 30
0.0
  0
SPLINE
  5
68B
330
1F
100
AcDbEntity
  8
Livello 1
370
     5
100
AcDbSpline
210
0.0
220
0.0
230
1.0
 70
    24
 71
     3
 72
     8
 73
     4
 74
     0
 42
0.000000001
 43
0.0000000001
 40
66.0
 40
66.0
 40
66.0
 40
66.0
 40
67.0
 40
67.0
 40
67.0
 40
67.0
 10
3.920192278370905
 20
8.216516907098025
 30
0.0
 10
3.920192278370905
 20
8.216516907098025
 30
0.0
 10
3.922661712048821
 20
8.218986340775927
 30
0.0
 10
3.922661712048821
 20
8.218986340775927
 30
0.0
  0
SPLINE
  5
68C
330
1F
100
AcDbEntity
  8
Livello 1
370
     5
100
AcDbSpline
210
0.0
220
0.0
230
1.0
 70
    24
 71
     3
 72
     8
 73
     4
 74
     0
 42
0.000000001
 43
0.0000000001
 40
67.0
 40
67.0
 40
67.0
 40
67.0
 40
68.0
 40
68.0
 40
68.0
 40
68.0
 10
3.922661712048821
 20
8.218986340775927
 30
0.0
 10
3.922661712048821
 20
8.218986340775927
 30
0.0
 10
3.927600579404639
 20
8.218986340775927
 30
0.0
 10
3.927600579404639
 20
8.218986340775927
 30
0.0
  0
SPLINE
  5
68D
330
1F
100
AcDbEntity
  8
Livello 1
370
     5
100
AcDbSpline
210
0.0
220
0.0
230
1.0
 70
    24
 71
     3
 72
     8
 73
     4
 74
     0
 42
0.000000001
 43
0.0000000001
 40
68.0
 40
68.0
 40
68.0
 40
68.0
 40
69.0
 40
69.0
 40
69.0
 40
69.0
 10
3.927600579404639
 20
8.218986340775927
 30
0.0
 10
3.927600579404639
 20
8.218986340775927
 30
0.0
 10
3.937478314116248
 20
8.223925208131731
 30
0.0
 10
3.937478314116248
 20
8.223925208131731
 30
0.0
  0
SPLINE
  5
68E
330
1F
100
AcDbEntity
  8
Livello 1
370
     5
100
AcDbSpline
210
0.0
220
0.0
230
1.0
 70
     8
 71
     3
 72
     8
 73
     4
 74
     0
 42
0.000000001
 43
0.0000000001
 40
69.0
 40
69.0
 40
69.0
 40
69.0
 40
70.0
 40
70.0
 40
70.0
 40
70.0
 10
3.937478314116248
 20
8.223925208131731
 30
0.0
 10
3.95229491618366
 20
8.226394641809633
 30
0.0
 10
3.970992633633684
 20
8.237684058225958
 30
0.0
 10
3.989689678213494
 20
8.23874315593958
 30
0.0
  0
SPLINE
  5
68F
330
1F
100
AcDbEntity
  8
Livello 1
370
     5
100
AcDbSpline
210
0.0
220
0.0
230
1.0
 70
    24
 71
     3
 72
     8
 73
     4
 74
     0
 42
0.000000001
 43
0.0000000001
 40
70.0
 40
70.0
 40
70.0
 40
70.0
 40
71.0
 40
71.0
 40
71.0
 40
71.0
 10
3.989689678213494
 20
8.23874315593958
 30
0.0
 10
3.989689678213494
 20
8.23874315593958
 30
0.0
 10
3.994628545569284
 20
8.23874315593958
 30
0.0
 10
3.994628545569284
 20
8.23874315593958
 30
0.0
  0
SPLINE
  5
690
330
1F
100
AcDbEntity
  8
Livello 1
370
     5
100
AcDbSpline
210
0.0
220
0.0
230
1.0
 70
    24
 71
     3
 72
     8
 73
     4
 74
     0
 42
0.000000001
 43
0.0000000001
 40
71.0
 40
71.0
 40
71.0
 40
71.0
 40
72.0
 40
72.0
 40
72.0
 40
72.0
 10
3.994628545569284
 20
8.23874315593958
 30
0.0
 10
3.994628545569284
 20
8.23874315593958
 30
0.0
 10
3.999567412925117
 20
8.241212589617482
 30
0.0
 10
3.999567412925117
 20
8.241212589617482
 30
0.0
  0
SPLINE
  5
691
330
1F
100
AcDbEntity
  8
Livello 1
370
     5
100
AcDbSpline
210
0.0
220
0.0
230
1.0
 70
     8
 71
     3
 72
     8
 73
     4
 74
     0
 42
0.000000001
 43
0.0000000001
 40
72.0
 40
72.0
 40
72.0
 40
72.0
 40
73.0
 40
73.0
 40
73.0
 40
73.0
 10
3.999567412925117
 20
8.241212589617482
 30
0.0
 10
4.018264457504926
 20
8.244034607286465
 30
0.0
 10
4.040489360606059
 20
8.246856624955427
 30
0.0
 10
4.059187078056083
 20
8.248620890651196
 30
0.0
  0
SPLINE
  5
692
330
1F
100
AcDbEntity
  8
Livello 1
370
     5
100
AcDbSpline
210
0.0
220
0.0
230
1.0
 70
    24
 71
     3
 72
     8
 73
     4
 74
     0
 42
0.000000001
 43
0.0000000001
 40
73.0
 40
73.0
 40
73.0
 40
73.0
 40
74.0
 40
74.0
 40
74.0
 40
74.0
 10
4.059187078056083
 20
8.248620890651196
 30
0.0
 10
4.059187078056083
 20
8.248620890651196
 30
0.0
 10
4.079295131470388
 20
8.248620890651196
 30
0.0
 10
4.079295131470388
 20
8.248620890651196
 30
0.0
  0
LINE
  5
693
330
1F
100
AcDbEntity
  8
Livello 1
370
     5
100
AcDbLine
 10
4.320066260806399
 20
8.208898670558177
 30
0.0
 11
4.320066260806399
 21
7.876228946282893
 31
0.0
  0
LINE
  5
694
330
1F
100
AcDbEntity
  8
Livello 1
370
     5
100
AcDbLine
 10
4.320066260806399
 20
8.087119928116294
 30
0.0
 11
4.900032609733329
 21
8.087119928116294
 31
0.0
  0
LINE
  5
695
330
1F
100
AcDbEntity
  8
Livello 1
370
     5
100
AcDbLine
 10
4.320066260806399
 20
6.522972562089549
 30
0.0
 11
4.900032609733329
 21
6.522972562089549
 31
0.0
  0
LINE
  5
696
330
1F
100
AcDbEntity
  8
Livello 1
370
     5
100
AcDbLine
 10
7.001001213825759
 20
7.965058580185385
 30
0.0
 11
13.14215710158966
 21
7.95412174776014
 31
0.0
  0
LINE
  5
697
330
1F
100
AcDbEntity
  8
Livello 1
370
     5
100
AcDbLine
 10
7.001001213825759
 20
6.722434170502552
 30
0.0
 11
13.09100416233581
 21
6.722434170502552
 31
0.0
  0
LINE
  5
698
330
1F
100
AcDbEntity
  8
Livello 1
 62
     1
370
    50
100
AcDbLine
 10
2.829086128758291
 20
7.751628186172041
 30
0.0
 11
13.16335789622818
 21
7.751628186172041
 31
0.0
  0
LWPOLYLINE
  5
699
330
1F
100
AcDbEntity
  8
0
100
AcDbPolyline
 90
        4
 70
     1
 43
0.0
 10
7.001001213825759
 20
9.573996955784366
 10
13.20130135766995
 20
9.573996955784366
 10
13.20130135766995
 20
4.892988941216032
 10
7.001001213825759
 20
4.892988941216032
  0
LINE
  5
69A
330
1F
100
AcDbEntity
  8
Livello 1
370
     9
100
AcDbLine
 10
12.86827446589444
 20
3.838853645399723
 30
0.0
 11
6.973004193947716
 21
3.838853645399723
 31
0.0
  0
MTEXT
  5
69B
330
1F
100
AcDbEntity
  8
Livello 1
100
AcDbMText
 10
5.995034441774564
 20
0.8678207935457606
 30
0.0
 40
1.998133332833799
 41
0.0
 46
0.0
 71
     7
 72
     1
  1
\fSource Sans Pro Light|b0|i0|c0|p34;\W1;89 mm
 73
     1
 44
1.0
  0
ENDSEC
  0
SECTION
  2
OBJECTS
  0
DICTIONARY
  5
C
330
0
100
AcDbDictionary
281
     1
  3
ACAD_CIP_PREVIOUS_PRODUCT_INFO
350
216
  3
ACAD_COLOR
350
6B
  3
ACAD_DETAILVIEWSTYLE
350
21B
  3
ACAD_GROUP
350
D
  3
ACAD_LAYOUT
350
1A
  3
ACAD_MATERIAL
350
6A
  3
ACAD_MLEADERSTYLE
350
12D
  3
ACAD_MLINESTYLE
350
17
  3
ACAD_PLOTSETTINGS
350
19
  3
ACAD_PLOTSTYLENAME
350
E
  3
ACAD_SCALELIST
350
10C
  3
ACAD_SECTIONVIEWSTYLE
350
219
  3
ACAD_TABLESTYLE
350
7E
  3
ACAD_VISUALSTYLE
350
EF
  3
ACDB_RECOMPOSE_DATA
350
69D
  3
AcDbVariableDictionary
350
5E
  3
AcDsDecomposeData
350
6A3
  0
DICTIONARY
  5
1FF
330
2
100
AcDbDictionary
280
     1
281
     1
  3
ACAD_LAYERSTATES
360
200
  0
DICTIONARY
  5
13C
330
10
100
AcDbDictionary
280
     1
281
     1
  0
DICTIONARY
  5
1CE
330
1F
100
AcDbDictionary
280
     1
281
     1
  0
XRECORD
  5
216
102
{ACAD_REACTORS
330
C
102
}
330
C
100
AcDbXrecord
280
     1
300
ACD
300
2020
300

  0
DICTIONARY
  5
6B
102
{ACAD_REACTORS
330
C
102
}
330
C
100
AcDbDictionary
281
     1
  0
DICTIONARY
  5
21B
102
{ACAD_REACTORS
330
C
102
}
330
C
100
AcDbDictionary
281
     1
  3
Imperial24
350
28E
  3
Metric50
350
21C
  0
DICTIONARY
  5
D
102
{ACAD_REACTORS
330
C
102
}
330
C
100
AcDbDictionary
281
     1
  0
DICTIONARY
  5
1A
102
{ACAD_REACTORS
330
C
102
}
330
C
100
AcDbDictionary
281
     1
  3
Layout1
350
D3
  3
Layout2
350
D7
  3
Model
350
22
  0
DICTIONARY
  5
6A
102
{ACAD_REACTORS
330
C
102
}
330
C
100
AcDbDictionary
281
     1
  3
ByBlock
350
ED
  3
ByLayer
350
EC
  3
Global
350
EE
  0
DICTIONARY
  5
12D
102
{ACAD_REACTORS
330
C
102
}
330
C
100
AcDbDictionary
281
     1
  3
Annotativa
350
13B
  3
Standard
350
12E
  0
DICTIONARY
  5
17
102
{ACAD_REACTORS
330
C
102
}
330
C
100
AcDbDictionary
281
     1
  3
Standard
350
18
  0
DICTIONARY
  5
19
102
{ACAD_REACTORS
330
C
102
}
330
C
100
AcDbDictionary
281
     1
  0
ACDBDICTIONARYWDFLT
  5
E
102
{ACAD_REACTORS
330
C
102
}
330
C
100
AcDbDictionary
281
     1
  3
Normal
350
F
100
AcDbDictionaryWithDefault
340
F
  0
DICTIONARY
  5
10C
102
{ACAD_REACTORS
330
C
102
}
330
C
100
AcDbDictionary
281
     1
  3
A0
350
10D
  3
A1
350
1BE
  3
A2
350
1BF
  3
A3
350
1C0
  3
A4
350
1C1
  3
A5
350
1C2
  3
A6
350
1C3
  3
A7
350
1C4
  3
A8
350
1C5
  3
A9
350
1C6
  3
B0
350
1C7
  3
B1
350
1C8
  3
B2
350
1C9
  3
B3
350
1CA
  3
B4
350
1CB
  3
B5
350
1CC
  3
B6
350
1CD
  0
DICTIONARY
  5
219
102
{ACAD_REACTORS
330
C
102
}
330
C
100
AcDbDictionary
281
     1
  3
Imperial24
350
28D
  3
Metric50
350
21A
  0
DICTIONARY
  5
7E
102
{ACAD_REACTORS
330
C
102
}
330
C
100
AcDbDictionary
281
     1
  3
Standard
350
7F
  0
DICTIONARY
  5
EF
102
{ACAD_REACTORS
330
C
102
}
330
C
100
AcDbDictionary
281
     1
  3
2dWireframe
350
F5
  3
Basic
350
F4
  3
Brighten
350
FB
  3
ColorChange
350
FF
  3
Conceptual
350
F8
  3
Dim
350
FA
  3
EdgeColorOff
350
1E6
  3
Facepattern
350
FE
  3
Flat
350
F0
  3
FlatWithEdges
350
F1
  3
Gouraud
350
F2
  3
GouraudWithEdges
350
F3
  3
Hidden
350
F7
  3
JitterOff
350
1E4
  3
Linepattern
350
FD
  3
OverhangOff
350
1E5
  3
Realistic
350
F9
  3
Shaded
350
1F3
  3
Shaded with edges
350
1F2
  3
Shades of Gray
350
1EF
  3
Sketchy
350
1F0
  3
Thicken
350
FC
  3
Wireframe
350
F6
  3
X-Ray
350
1F1
  0
XRECORD
  5
69D
102
{ACAD_REACTORS
330
C
102
}
330
C
100
AcDbXrecord
280
     1
 90
        1
330
7F
  0
DICTIONARY
  5
5E
102
{ACAD_REACTORS
330
C
102
}
330
C
100
AcDbDictionary
281
     1
  3
CANNOSCALE
350
146
  3
CENTEREXE
350
259
  3
CENTERLTYPEFILE
350
25A
  3
CMLEADERSTYLE
350
145
  3
CTABLESTYLE
350
84
  3
CVIEWDETAILSTYLE
350
227
  3
CVIEWSECTIONSTYLE
350
228
  3
DIMASSOC
350
5F
  3
HIDETEXT
350
63
  3
LAYEREVAL
350
1AE
  3
LAYERNOTIFY
350
1AF
  0
DICTIONARY
  5
6A3
102
{ACAD_REACTORS
330
C
102
}
330
C
100
AcDbDictionary
281
     1
  3
AcDsRecords
350
6A5
  3
AcDsSchemas
350
6A4
1001
ACAD
1070
     2
  0
DICTIONARY
  5
200
102
{ACAD_REACTORS
330
1FF
102
}
330
1FF
100
AcDbDictionary
281
     1
  0
ACDBDETAILVIEWSTYLE
  5
28E
102
{ACAD_XDICTIONARY
360
6AC
102
}
102
{ACAD_REACTORS
330
21B
102
}
330
21B
100
AcDbModelDocViewStyle
 70
     0
  3
Imperial24
290
     0
100
AcDbDetailViewStyle
 70
     0
 71
     0
 90
        3
 71
     1
340
11
 62
   256
 40
0.24
340
0
 62
   256
 40
0.24
300

 40
0.36
280
     3
 71
     2
340
16
 90
       25
 62
   256
 71
     3
340
11
 62
   256
 40
0.24
 90
        1
 40
0.75
 90
        1
300
%<\AcVar ViewType \f "%tc1">% %<\AcVar ViewDetailId>%\PSCALA %<\AcVar ViewScale \f "%sn">%
 71
     4
340
16
 90
       25
 62
   256
340
16
 90
       25
 62
   256
280
     0
  0
ACDBDETAILVIEWSTYLE
  5
21C
102
{ACAD_XDICTIONARY
360
6A8
102
}
102
{ACAD_REACTORS
330
21B
102
}
330
21B
100
AcDbModelDocViewStyle
 70
     0
  3
Metric50
290
     0
100
AcDbDetailViewStyle
 70
     0
 71
     0
 90
        3
 71
     1
340
11
 62
   256
 40
5.0
340
0
 62
   256
 40
5.0
300

 40
0.0
280
     1
 71
     2
340
16
 90
       25
 62
   256
 71
     3
340
11
 62
   256
 40
5.0
 90
        0
 40
15.0
 90
        1
300
%<\AcVar ViewDetailId>% (%<\AcVar ViewScale \f "%sn">%)
 71
     4
340
16
 90
       25
 62
   256
340
16
 90
       25
 62
   256
280
     0
  0
LAYOUT
  5
D3
102
{ACAD_REACTORS
330
1A
102
}
330
1A
100
AcDbPlotSettings
  1

  2
C:\Documents and Settings\basas\Application Data\Autodesk\AutoCAD 2005\R16.1\enu\plotters\Default Windows System Printer.pc3
  4

  6

 40
0.0
 41
0.0
 42
0.0
 43
0.0
 44
0.0
 45
0.0
 46
0.0
 47
0.0
 48
0.0
 49
0.0
140
0.0
141
0.0
142
1.0
143
1.0
 70
   688
 72
     0
 73
     0
 74
     5
  7

 75
    16
147
1.0
 76
     0
 77
     2
 78
   300
148
0.0
149
0.0
100
AcDbLayout
  1
Layout1
 70
     1
 71
     1
 10
0.0
 20
0.0
 11
12.0
 21
9.0
 12
0.0
 22
0.0
 32
0.0
 14
0.0
 24
0.0
 34
0.0
 15
0.0
 25
0.0
 35
0.0
146
0.0
 13
0.0
 23
0.0
 33
0.0
 16
1.0
 26
0.0
 36
0.0
 17
0.0
 27
1.0
 37
0.0
 76
     0
330
D2
  0
LAYOUT
  5
D7
102
{ACAD_REACTORS
330
1A
102
}
330
1A
100
AcDbPlotSettings
  1

  2
C:\Documents and Settings\basas\Application Data\Autodesk\AutoCAD 2005\R16.1\enu\plotters\Default Windows System Printer.pc3
  4

  6

 40
0.0
 41
0.0
 42
0.0
 43
0.0
 44
0.0
 45
0.0
 46
0.0
 47
0.0
 48
0.0
 49
0.0
140
0.0
141
0.0
142
1.0
143
1.0
 70
   688
 72
     0
 73
     0
 74
     5
  7

 75
    16
147
1.0
 76
     0
 77
     2
 78
   300
148
0.0
149
0.0
100
AcDbLayout
  1
Layout2
 70
     1
 71
     2
 10
0.0
 20
0.0
 11
12.0
 21
9.0
 12
0.0
 22
0.0
 32
0.0
 14
0.0
 24
0.0
 34
0.0
 15
0.0
 25
0.0
 35
0.0
146
0.0
 13
0.0
 23
0.0
 33
0.0
 16
1.0
 26
0.0
 36
0.0
 17
0.0
 27
1.0
 37
0.0
 76
     0
330
D6
  0
LAYOUT
  5
22
102
{ACAD_XDICTIONARY
360
205
102
}
102
{ACAD_REACTORS
330
1A
102
}
330
1A
100
AcDbPlotSettings
  1

  2
none_device
  4
ISO_A4_(210.00_x_297.00_MM)
  6

 40
7.5
 41
20.0
 42
7.5
 43
20.0
 44
210.0
 45
297.0
 46
11.54999923706054
 47
-13.65000009536743
 48
0.0
 49
0.0
140
0.0
141
0.0
142
1.0
143
8.704084754739808
 70
 11952
 72
     1
 73
     0
 74
     0
  7

 75
     0
147
0.1148885871608098
 76
     0
 77
     2
 78
   300
148
0.0
149
0.0
100
AcDbLayout
  1
Model
 70
     1
 71
     0
 10
0.0
 20
0.0
 11
12.0
 21
9.0
 12
0.0
 22
0.0
 32
0.0
 14
0.0
 24
0.0
 34
0.0
 15
0.0
 25
0.0
 35
0.0
146
0.0
 13
0.0
 23
0.0
 33
0.0
 16
1.0
 26
0.0
 36
0.0
 17
0.0
 27
1.0
 37
0.0
 76
     0
330
1F
331
EA
1001
ACAD_PSEXT
1000
None
1000
None
1000
Not applicable
1000
The layout will not be plotted unless a new plotter configuration name is selected.
1070
     0
  0
MATERIAL
  5
ED
102
{ACAD_XDICTIONARY
360
1F9
102
}
102
{ACAD_REACTORS
330
6A
102
}
330
6A
100
AcDbMaterial
  1
ByBlock
 94
       63
  0
MATERIAL
  5
EC
102
{ACAD_XDICTIONARY
360
1F7
102
}
102
{ACAD_REACTORS
330
6A
102
}
330
6A
100
AcDbMaterial
  1
ByLayer
 94
       63
  0
MATERIAL
  5
EE
102
{ACAD_XDICTIONARY
360
173
102
}
102
{ACAD_REACTORS
330
6A
102
}
330
6A
100
AcDbMaterial
  1
Global
 43
0.0007999999797903
 43
0.0
 43
0.0
 43
0.0
 43
0.0
 43
0.0007999999797903
 43
0.0
 43
0.0
 43
0.0
 43
0.0
 43
1.0
 43
0.0
 43
0.0
 43
0.0
 43
0.0
 43
1.0
 49
0.0007999999797903
 49
0.0
 49
0.0
 49
0.0
 49
0.0
 49
0.0007999999797903
 49
0.0
 49
0.0
 49
0.0
 49
0.0
 49
1.0
 49
0.0
 49
0.0
 49
0.0
 49
0.0
 49
1.0
142
0.0007999999797903
142
0.0
142
0.0
142
0.0
142
0.0
142
0.0007999999797903
142
0.0
142
0.0
142
0.0
142
0.0
142
1.0
142
0.0
142
0.0
142
0.0
142
0.0
142
1.0
144
0.0007999999797903
144
0.0
144
0.0
144
0.0
144
0.0
144
0.0007999999797903
144
0.0
144
0.0
144
0.0
144
0.0
144
1.0
144
0.0
144
0.0
144
0.0
144
0.0
144
1.0
 94
       63
1001
ACAD
1070
    -1
1070
     3
1070
     0
1000

1071
        0
1070
     0
  0
MLEADERSTYLE
  5
13B
102
{ACAD_REACTORS
330
12D
102
}
330
12D
100
AcDbMLeaderStyle
179
     2
170
     2
171
     1
172
     0
 90
        2
 40
0.0
 41
0.0
173
     1
 91
-1056964608
340
14
 92
       -2
290
     1
 42
2.0
291
     1
 43
8.0
  3
Standard
 44
4.0
300

342
11
174
     1
178
     1
175
     1
176
     0
 93
-1056964608
 45
4.0
292
     0
297
     0
 46
4.0
 94
-1056964608
 47
1.0
 49
1.0
140
1.0
293
     1
141
0.0
294
     1
177
     0
142
1.0
295
     0
296
     1
143
3.75
271
     0
272
     9
273
     9
298
     0
  0
MLEADERSTYLE
  5
12E
102
{ACAD_REACTORS
330
12D
102
}
330
12D
100
AcDbMLeaderStyle
179
     2
170
     2
171
     1
172
     0
 90
        2
 40
0.0
 41
0.0
173
     1
 91
-1056964608
340
14
 92
       -2
290
     1
 42
2.0
291
     1
 43
8.0
  3
Standard
 44
4.0
300

342
11
174
     1
178
     1
175
     1
176
     0
 93
-1056964608
 45
4.0
292
     0
297
     0
 46
4.0
 94
-1056964608
 47
1.0
 49
1.0
140
1.0
293
     1
141
0.0
294
     1
177
     0
142
1.0
295
     0
296
     0
143
3.75
271
     0
272
     9
273
     9
298
     0
  0
MLINESTYLE
  5
18
102
{ACAD_REACTORS
330
17
102
}
330
17
100
AcDbMlineStyle
  2
STANDARD
 70
     0
  3

 62
   256
 51
90.0
 52
90.0
 71
     2
 49
0.5
 62
   256
  6
BYLAYER
 49
-0.5
 62
   256
  6
BYLAYER
  0
ACDBPLACEHOLDER
  5
F
102
{ACAD_REACTORS
330
E
102
}
330
E
  0
SCALE
  5
10D
102
{ACAD_REACTORS
330
10C
102
}
330
10C
100
AcDbScale
 70
     0
300
1:1
140
1.0
141
1.0
290
     1
  0
SCALE
  5
1BE
102
{ACAD_REACTORS
330
10C
102
}
330
10C
100
AcDbScale
 70
     0
300
1:2
140
1.0
141
2.0
290
     0
  0
SCALE
  5
1BF
102
{ACAD_REACTORS
330
10C
102
}
330
10C
100
AcDbScale
 70
     0
300
1:4
140
1.0
141
4.0
290
     0
  0
SCALE
  5
1C0
102
{ACAD_REACTORS
330
10C
102
}
330
10C
100
AcDbScale
 70
     0
300
1:5
140
1.0
141
5.0
290
     0
  0
SCALE
  5
1C1
102
{ACAD_REACTORS
330
10C
102
}
330
10C
100
AcDbScale
 70
     0
300
1:8
140
1.0
141
8.0
290
     0
  0
SCALE
  5
1C2
102
{ACAD_REACTORS
330
10C
102
}
330
10C
100
AcDbScale
 70
     0
300
1:10
140
1.0
141
10.0
290
     0
  0
SCALE
  5
1C3
102
{ACAD_REACTORS
330
10C
102
}
330
10C
100
AcDbScale
 70
     0
300
1:16
140
1.0
141
16.0
290
     0
  0
SCALE
  5
1C4
102
{ACAD_REACTORS
330
10C
102
}
330
10C
100
AcDbScale
 70
     0
300
1:20
140
1.0
141
20.0
290
     0
  0
SCALE
  5
1C5
102
{ACAD_REACTORS
330
10C
102
}
330
10C
100
AcDbScale
 70
     0
300
1:30
140
1.0
141
30.0
290
     0
  0
SCALE
  5
1C6
102
{ACAD_REACTORS
330
10C
102
}
330
10C
100
AcDbScale
 70
     0
300
1:40
140
1.0
141
40.0
290
     0
  0
SCALE
  5
1C7
102
{ACAD_REACTORS
330
10C
102
}
330
10C
100
AcDbScale
 70
     0
300
1:50
140
1.0
141
50.0
290
     0
  0
SCALE
  5
1C8
102
{ACAD_REACTORS
330
10C
102
}
330
10C
100
AcDbScale
 70
     0
300
1:100
140
1.0
141
100.0
290
     0
  0
SCALE
  5
1C9
102
{ACAD_REACTORS
330
10C
102
}
330
10C
100
AcDbScale
 70
     0
300
2:1
140
2.0
141
1.0
290
     0
  0
SCALE
  5
1CA
102
{ACAD_REACTORS
330
10C
102
}
330
10C
100
AcDbScale
 70
     0
300
4:1
140
4.0
141
1.0
290
     0
  0
SCALE
  5
1CB
102
{ACAD_REACTORS
330
10C
102
}
330
10C
100
AcDbScale
 70
     0
300
8:1
140
8.0
141
1.0
290
     0
  0
SCALE
  5
1CC
102
{ACAD_REACTORS
330
10C
102
}
330
10C
100
AcDbScale
 70
     0
300
10:1
140
10.0
141
1.0
290
     0
  0
SCALE
  5
1CD
102
{ACAD_REACTORS
330
10C
102
}
330
10C
100
AcDbScale
 70
     0
300
100:1
140
100.0
141
1.0
290
     0
  0
ACDBSECTIONVIEWSTYLE
  5
28D
102
{ACAD_XDICTIONARY
360
6AA
102
}
102
{ACAD_REACTORS
330
219
102
}
330
219
100
AcDbModelDocViewStyle
 70
     0
  3
Imperial24
290
     0
100
AcDbSectionViewStyle
 70
     0
 71
     0
 90
       78
 71
     1
340
11
 62
   256
 40
0.24
340
0
340
0
 62
   256
 40
0.24
300
I, O, Q, S, X, Z
 40
0.48
 90
        3
 40
0.18
 90
        1
 71
     2
340
16
 90
       25
 62
   256
340
16
 90
       50
 62
   256
 40
0.24
 40
0.0
 40
0.24
 71
     3
340
11
 62
   256
 40
0.24
 90
        1
 40
0.75
 90
        1
300
%<\AcVar ViewType \f "%tc1">% %<\AcVar ViewSectionStartId>%-%<\AcVar ViewSectionEndId>%\PSCALA %<\AcVar ViewScale \f "%sn">%
 71
     4
 62
   256
 62
   257
300
ANSI31
 40
1.0
 90
        0
290
     0
290
     0
 90
        6
 40
0.0
 40
1.570796326794896
 40
0.2617993877991494
 40
1.308996938995747
 40
-0.2617993877991494
 40
1.832595714594046
  0
ACDBSECTIONVIEWSTYLE
  5
21A
102
{ACAD_XDICTIONARY
360
6A6
102
}
102
{ACAD_REACTORS
330
219
102
}
330
219
100
AcDbModelDocViewStyle
 70
     0
  3
Metric50
290
     0
100
AcDbSectionViewStyle
 70
     0
 71
     0
 90
      102
 71
     1
340
11
 62
   256
 40
5.0
340
0
340
0
 62
   256
 40
5.0
300
I, O, Q, S, X, Z
 40
10.0
 90
        0
 40
2.5
 90
        0
 71
     2
340
16
 90
       25
 62
   256
340
16
 90
       50
 62
   256
 40
5.0
 40
2.5
 40
5.0
 71
     3
340
11
 62
   256
 40
5.0
 90
        0
 40
15.0
 90
        1
300
%<\AcVar ViewSectionStartId>%-%<\AcVar ViewSectionEndId>% (%<\AcVar ViewScale \f "%sn">%)
 71
     4
 62
   256
 62
   257
300
ANSI31
 40
1.0
 90
        0
290
     0
290
     0
 90
        6
 40
0.0
 40
1.570796326794896
 40
0.2617993877991494
 40
1.308996938995747
 40
-0.2617993877991494
 40
1.832595714594046
  0
TABLESTYLE
  5
7F
102
{ACAD_XDICTIONARY
360
162
102
}
102
{ACAD_REACTORS
330
7E
102
}
330
7E
100
AcDbTableStyle
280
     0
  3
Standard
 70
     0
 71
     0
 40
1.5
 41
1.5
280
     0
281
     0
  7
Standard
140
4.5
170
     2
 62
     0
 63
     7
283
     0
 90
      512
 91
        0
  1

274
    -2
284
     1
 64
     0
275
    -2
285
     1
 65
     0
276
    -2
286
     1
 66
     0
277
    -2
287
     1
 67
     0
278
    -2
288
     1
 68
     0
279
    -2
289
     1
 69
     0
  7
Standard
140
6.0
170
     5
 62
     0
 63
     7
283
     0
 90
      512
 91
        0
  1

274
    -2
284
     1
 64
     0
275
    -2
285
     1
 65
     0
276
    -2
286
     1
 66
     0
277
    -2
287
     1
 67
     0
278
    -2
288
     1
 68
     0
279
    -2
289
     1
 69
     0
  7
Standard
140
4.5
170
     5
 62
     0
 63
     7
283
     0
 90
      512
 91
        0
  1

274
    -2
284
     1
 64
     0
275
    -2
285
     1
 65
     0
276
    -2
286
     1
 66
     0
277
    -2
287
     1
 67
     0
278
    -2
288
     1
 68
     0
279
    -2
289
     1
 69
     0
  0
VISUALSTYLE
  5
F5
102
{ACAD_REACTORS
330
EF
102
}
330
EF
100
AcDbVisualStyle
  2
2dWireframe
 70
     4
177
     3
291
     0
 70
    58
 90
        0
176
     1
 90
        2
176
     1
 90
        1
176
     1
 90
        0
176
     1
 40
0.6
176
     1
 40
30.0
176
     1
 62
     7
420
 16777215
176
     1
 90
        1
176
     1
 90
        4
176
     1
 62
     7
176
     1
 62
   257
176
     1
 90
        1
176
     1
 90
        1
176
     1
 40
1.0
176
     1
 90
        0
176
     1
 62
   257
176
     1
 40
1.0
176
     1
 90
        1
176
     1
 90
        6
176
     1
 90
        2
176
     1
 62
     7
176
     1
 90
        5
176
     1
 90
        0
176
     1
 90
        0
176
     1
290
     0
176
     1
 90
        1
176
     1
 40
0.0
176
     1
 90
        0
176
     1
290
     1
176
     1
290
     1
176
     1
290
     0
176
     1
290
     0
176
     1
290
     0
176
     1
290
     0
176
     1
290
     0
176
     1
290
     0
176
     1
290
     0
176
     1
 90
       50
176
     1
 40
0.0
176
     1
 40
1.0
176
     1
 90
        0
176
     1
 62
    18
420
        0
176
     1
 90
       50
176
     1
 90
        3
176
     1
 62
     5
420
      255
176
     1
290
     0
176
     1
 90
       50
176
     1
 90
       50
176
     1
 90
       50
176
     1
290
     0
176
     1
 90
       50
176
     1
 62
   256
176
     0
 40
1.0
176
     0
 90
        2
176
     1
  1
strokes_ogs.tif
176
     1
290
     0
176
     1
 40
1.0
176
     1
 40
1.0
176
     1
1001
ACAD
1000
AcDbSavedByObjectVersion
1070
     0
  0
VISUALSTYLE
  5
F4
102
{ACAD_REACTORS
330
EF
102
}
330
EF
100
AcDbVisualStyle
  2
Basic
 70
     7
177
     3
291
     1
 70
    58
 90
        1
176
     1
 90
        0
176
     1
 90
        1
176
     1
 90
        0
176
     1
 40
0.6
176
     1
 40
30.0
176
     1
 62
     7
420
 16777215
176
     1
 90
        0
176
     1
 90
        4
176
     1
 62
     7
176
     1
 62
   257
176
     1
 90
        1
176
     1
 90
        1
176
     1
 40
1.0
176
     1
 90
        8
176
     1
 62
     7
176
     1
 40
1.0
176
     1
 90
        1
176
     1
 90
        6
176
     1
 90
        2
176
     1
 62
     7
176
     1
 90
        5
176
     1
 90
        0
176
     1
 90
        0
176
     1
290
     0
176
     1
 90
        1
176
     1
 40
0.0
176
     1
 90
        0
176
     1
290
     0
176
     1
290
     1
176
     1
290
     1
176
     1
290
     0
176
     1
290
     0
176
     1
290
     0
176
     1
290
     0
176
     1
290
     0
176
     1
290
     0
176
     1
 90
       50
176
     1
 40
0.0
176
     1
 40
1.0
176
     1
 90
        0
176
     1
 62
    18
420
        0
176
     1
 90
       50
176
     1
 90
        3
176
     1
 62
     5
420
      255
176
     1
290
     0
176
     1
 90
       50
176
     1
 90
       50
176
     1
 90
       50
176
     1
290
     0
176
     1
 90
       50
176
     1
 62
   256
176
     0
 40
1.0
176
     0
 90
        2
176
     1
  1
strokes_ogs.tif
176
     1
290
     0
176
     1
 40
1.0
176
     1
 40
1.0
176
     1
1001
ACAD
1000
AcDbSavedByObjectVersion
1070
     0
  0
VISUALSTYLE
  5
FB
102
{ACAD_REACTORS
330
EF
102
}
330
EF
100
AcDbVisualStyle
  2
Brighten
 70
    12
177
     3
291
     1
 70
    58
 90
        2
176
     1
 90
        2
176
     1
 90
        1
176
     1
 90
        0
176
     1
 40
0.6
176
     1
 40
30.0
176
     1
 62
     7
420
 16777215
176
     1
 90
        1
176
     1
 90
        4
176
     1
 62
     7
176
     1
 62
   257
176
     1
 90
        1
176
     1
 90
        1
176
     1
 40
1.0
176
     1
 90
        8
176
     1
 62
     7
176
     1
 40
1.0
176
     1
 90
        1
176
     1
 90
        6
176
     1
 90
        2
176
     1
 62
     7
176
     1
 90
        5
176
     1
 90
        0
176
     1
 90
        0
176
     1
290
     0
176
     1
 90
        1
176
     1
 40
50.0
176
     1
 90
        0
176
     1
290
     0
176
     1
290
     1
176
     1
290
     1
176
     1
290
     0
176
     1
290
     0
176
     1
290
     0
176
     1
290
     0
176
     1
290
     0
176
     1
290
     0
176
     1
 90
       50
176
     1
 40
0.0
176
     1
 40
1.0
176
     1
 90
        0
176
     1
 62
    18
420
        0
176
     1
 90
       50
176
     1
 90
        3
176
     1
 62
     5
420
      255
176
     1
290
     0
176
     1
 90
       50
176
     1
 90
       50
176
     1
 90
       50
176
     1
290
     0
176
     1
 90
       50
176
     1
 62
   256
176
     0
 40
1.0
176
     0
 90
        2
176
     1
  1
strokes_ogs.tif
176
     1
290
     0
176
     1
 40
1.0
176
     1
 40
1.0
176
     1
1001
ACAD
1000
AcDbSavedByObjectVersion
1070
     0
  0
VISUALSTYLE
  5
FF
102
{ACAD_REACTORS
330
EF
102
}
330
EF
100
AcDbVisualStyle
  2
ColorChange
 70
    16
177
     3
291
     1
 70
    58
 90
        2
176
     1
 90
        2
176
     1
 90
        3
176
     1
 90
        0
176
     1
 40
0.6
176
     1
 40
30.0
176
     1
 62
     8
420
  8421504
176
     1
 90
        1
176
     1
 90
        4
176
     1
 62
     7
176
     1
 62
   257
176
     1
 90
        1
176
     1
 90
        1
176
     1
 40
1.0
176
     1
 90
        8
176
     1
 62
     8
420
  8421504
176
     1
 40
1.0
176
     1
 90
        1
176
     1
 90
        6
176
     1
 90
        2
176
     1
 62
     7
176
     1
 90
        5
176
     1
 90
        0
176
     1
 90
        0
176
     1
290
     0
176
     1
 90
        1
176
     1
 40
0.0
176
     1
 90
        0
176
     1
290
     0
176
     1
290
     1
176
     1
290
     1
176
     1
290
     0
176
     1
290
     0
176
     1
290
     0
176
     1
290
     0
176
     1
290
     0
176
     1
290
     0
176
     1
 90
       50
176
     1
 40
0.0
176
     1
 40
1.0
176
     1
 90
        0
176
     1
 62
    18
420
        0
176
     1
 90
       50
176
     1
 90
        3
176
     1
 62
     5
420
      255
176
     1
290
     0
176
     1
 90
       50
176
     1
 90
       50
176
     1
 90
       50
176
     1
290
     0
176
     1
 90
       50
176
     1
 62
   256
176
     0
 40
1.0
176
     0
 90
        2
176
     1
  1
strokes_ogs.tif
176
     1
290
     0
176
     1
 40
1.0
176
     1
 40
1.0
176
     1
1001
ACAD
1000
AcDbSavedByObjectVersion
1070
     0
  0
VISUALSTYLE
  5
F8
102
{ACAD_REACTORS
330
EF
102
}
330
EF
100
AcDbVisualStyle
  2
Conceptual
 70
     9
177
     3
291
     0
 70
    58
 90
        3
176
     1
 90
        2
176
     1
 90
        1
176
     1
 90
        0
176
     1
 40
0.6
176
     1
 40
30.0
176
     1
 62
     7
420
 16777215
176
     1
 90
        2
176
     1
 90
        2
176
     1
 62
     7
176
     1
 62
   257
176
     1
 90
        1
176
     1
 90
        1
176
     1
 40
40.0
176
     1
 90
        8
176
     1
 62
     7
176
     1
 40
1.0
176
     1
 90
        1
176
     1
 90
        6
176
     1
 90
        2
176
     1
 62
     7
176
     1
 90
        3
176
     1
 90
        0
176
     1
 90
        0
176
     1
290
     0
176
     1
 90
        1
176
     1
 40
0.0
176
     1
 90
        0
176
     1
290
     0
176
     1
290
     1
176
     1
290
     1
176
     1
290
     0
176
     1
290
     0
176
     1
290
     0
176
     1
290
     0
176
     1
290
     0
176
     1
290
     0
176
     1
 90
       50
176
     1
 40
0.0
176
     1
 40
1.0
176
     1
 90
        0
176
     1
 62
    18
420
        0
176
     1
 90
       50
176
     1
 90
        3
176
     1
 62
     5
420
      255
176
     1
290
     0
176
     1
 90
       50
176
     1
 90
       50
176
     1
 90
       50
176
     1
290
     0
176
     1
 90
       50
176
     1
 62
   256
176
     0
 40
1.0
176
     0
 90
        2
176
     1
  1
strokes_ogs.tif
176
     1
290
     0
176
     1
 40
1.0
176
     1
 40
1.0
176
     1
1001
ACAD
1000
AcDbSavedByObjectVersion
1070
     0
  0
VISUALSTYLE
  5
FA
102
{ACAD_REACTORS
330
EF
102
}
330
EF
100
AcDbVisualStyle
  2
Dim
 70
    11
177
     3
291
     1
 70
    58
 90
        2
176
     1
 90
        2
176
     1
 90
        1
176
     1
 90
        0
176
     1
 40
0.6
176
     1
 40
30.0
176
     1
 62
     7
420
 16777215
176
     1
 90
        1
176
     1
 90
        4
176
     1
 62
     7
176
     1
 62
   257
176
     1
 90
        1
176
     1
 90
        1
176
     1
 40
1.0
176
     1
 90
        8
176
     1
 62
     7
176
     1
 40
1.0
176
     1
 90
        1
176
     1
 90
        6
176
     1
 90
        2
176
     1
 62
     7
176
     1
 90
        5
176
     1
 90
        0
176
     1
 90
        0
176
     1
290
     0
176
     1
 90
        1
176
     1
 40
-50.0
176
     1
 90
        0
176
     1
290
     0
176
     1
290
     1
176
     1
290
     1
176
     1
290
     0
176
     1
290
     0
176
     1
290
     0
176
     1
290
     0
176
     1
290
     0
176
     1
290
     0
176
     1
 90
       50
176
     1
 40
0.0
176
     1
 40
1.0
176
     1
 90
        0
176
     1
 62
    18
420
        0
176
     1
 90
       50
176
     1
 90
        3
176
     1
 62
     5
420
      255
176
     1
290
     0
176
     1
 90
       50
176
     1
 90
       50
176
     1
 90
       50
176
     1
290
     0
176
     1
 90
       50
176
     1
 62
   256
176
     0
 40
1.0
176
     0
 90
        2
176
     1
  1
strokes_ogs.tif
176
     1
290
     0
176
     1
 40
1.0
176
     1
 40
1.0
176
     1
1001
ACAD
1000
AcDbSavedByObjectVersion
1070
     0
  0
VISUALSTYLE
  5
1E6
102
{ACAD_REACTORS
330
EF
102
}
330
EF
100
AcDbVisualStyle
  2
EdgeColorOff
 70
    22
177
     3
291
     1
 70
    58
 90
        2
176
     0
 90
        2
176
     0
 90
        0
176
     0
 90
        0
176
     0
 40
0.6
176
     0
 40
30.0
176
     0
 62
     7
420
 16777215
176
     0
 90
        1
176
     0
 90
        4
176
     0
 62
     7
176
     0
 62
   257
176
     0
 90
        1
176
     0
 90
        1
176
     0
 40
1.0
176
     0
 90
        8
176
     2
 62
     7
176
     0
 40
1.0
176
     0
 90
        1
176
     0
 90
        6
176
     0
 90
        2
176
     0
 62
     7
176
     0
 90
        5
176
     0
 90
        0
176
     0
 90
        0
176
     0
290
     0
176
     0
 90
        1
176
     0
 40
0.0
176
     0
 90
        0
176
     0
290
     0
176
     1
290
     1
176
     1
290
     1
176
     1
290
     0
176
     1
290
     0
176
     1
290
     0
176
     1
290
     0
176
     1
290
     0
176
     1
290
     0
176
     1
 90
       50
176
     1
 40
0.0
176
     1
 40
1.0
176
     1
 90
        0
176
     1
 62
    18
420
        0
176
     1
 90
       50
176
     1
 90
        3
176
     1
 62
     5
420
      255
176
     1
290
     0
176
     1
 90
       50
176
     1
 90
       50
176
     1
 90
       50
176
     1
290
     0
176
     1
 90
       50
176
     1
 62
   256
176
     0
 40
1.0
176
     0
 90
        2
176
     1
  1
strokes_ogs.tif
176
     1
290
     0
176
     1
 40
1.0
176
     1
 40
1.0
176
     1
1001
ACAD
1000
AcDbSavedByObjectVersion
1070
     0
  0
VISUALSTYLE
  5
FE
102
{ACAD_REACTORS
330
EF
102
}
330
EF
100
AcDbVisualStyle
  2
Facepattern
 70
    15
177
     3
291
     1
 70
    58
 90
        2
176
     1
 90
        2
176
     1
 90
        1
176
     1
 90
        0
176
     1
 40
0.6
176
     1
 40
30.0
176
     1
 62
     7
420
 16777215
176
     1
 90
        1
176
     1
 90
        4
176
     1
 62
     7
176
     1
 62
   257
176
     1
 90
        1
176
     1
 90
        1
176
     1
 40
1.0
176
     1
 90
        8
176
     1
 62
     7
176
     1
 40
1.0
176
     1
 90
        1
176
     1
 90
        6
176
     1
 90
        2
176
     1
 62
     7
176
     1
 90
        5
176
     1
 90
        0
176
     1
 90
        0
176
     1
290
     0
176
     1
 90
        1
176
     1
 40
0.0
176
     1
 90
        0
176
     1
290
     0
176
     1
290
     1
176
     1
290
     1
176
     1
290
     0
176
     1
290
     0
176
     1
290
     0
176
     1
290
     0
176
     1
290
     0
176
     1
290
     0
176
     1
 90
       50
176
     1
 40
0.0
176
     1
 40
1.0
176
     1
 90
        0
176
     1
 62
    18
420
        0
176
     1
 90
       50
176
     1
 90
        3
176
     1
 62
     5
420
      255
176
     1
290
     0
176
     1
 90
       50
176
     1
 90
       50
176
     1
 90
       50
176
     1
290
     0
176
     1
 90
       50
176
     1
 62
   256
176
     0
 40
1.0
176
     0
 90
        2
176
     1
  1
strokes_ogs.tif
176
     1
290
     0
176
     1
 40
1.0
176
     1
 40
1.0
176
     1
1001
ACAD
1000
AcDbSavedByObjectVersion
1070
     0
  0
VISUALSTYLE
  5
F0
102
{ACAD_REACTORS
330
EF
102
}
330
EF
100
AcDbVisualStyle
  2
Flat
 70
     0
177
     3
291
     1
 70
    58
 90
        2
176
     1
 90
        1
176
     1
 90
        1
176
     1
 90
        2
176
     1
 40
0.6
176
     1
 40
30.0
176
     1
 62
     7
420
 16777215
176
     1
 90
        0
176
     1
 90
        0
176
     1
 62
     7
176
     1
 62
   257
176
     1
 90
        1
176
     1
 90
        1
176
     1
 40
1.0
176
     1
 90
        8
176
     1
 62
     7
176
     1
 40
1.0
176
     1
 90
        1
176
     1
 90
        6
176
     1
 90
        2
176
     1
 62
     7
176
     1
 90
        5
176
     1
 90
        0
176
     1
 90
        0
176
     1
290
     0
176
     1
 90
       13
176
     1
 40
0.0
176
     1
 90
        0
176
     1
290
     0
176
     1
290
     1
176
     1
290
     1
176
     1
290
     0
176
     1
290
     0
176
     1
290
     0
176
     1
290
     0
176
     1
290
     0
176
     1
290
     0
176
     1
 90
       50
176
     1
 40
0.0
176
     1
 40
1.0
176
     1
 90
        0
176
     1
 62
    18
420
        0
176
     1
 90
       50
176
     1
 90
        3
176
     1
 62
     5
420
      255
176
     1
290
     0
176
     1
 90
       50
176
     1
 90
       50
176
     1
 90
       50
176
     1
290
     0
176
     1
 90
       50
176
     1
 62
   256
176
     0
 40
1.0
176
     0
 90
        2
176
     1
  1
strokes_ogs.tif
176
     1
290
     0
176
     1
 40
1.0
176
     1
 40
1.0
176
     1
1001
ACAD
1000
AcDbSavedByObjectVersion
1070
     0
  0
VISUALSTYLE
  5
F1
102
{ACAD_REACTORS
330
EF
102
}
330
EF
100
AcDbVisualStyle
  2
FlatWithEdges
 70
     1
177
     3
291
     1
 70
    58
 90
        2
176
     1
 90
        1
176
     1
 90
        1
176
     1
 90
        2
176
     1
 40
0.6
176
     1
 40
30.0
176
     1
 62
     7
420
 16777215
176
     1
 90
        1
176
     1
 90
        0
176
     1
 62
     7
176
     1
 62
   257
176
     1
 90
        1
176
     1
 90
        1
176
     1
 40
1.0
176
     1
 90
        0
176
     1
 62
   257
176
     1
 40
1.0
176
     1
 90
        1
176
     1
 90
        6
176
     1
 90
        2
176
     1
 62
     7
176
     1
 90
        5
176
     1
 90
        0
176
     1
 90
        0
176
     1
290
     0
176
     1
 90
       13
176
     1
 40
0.0
176
     1
 90
        0
176
     1
290
     0
176
     1
290
     1
176
     1
290
     1
176
     1
290
     0
176
     1
290
     0
176
     1
290
     0
176
     1
290
     0
176
     1
290
     0
176
     1
290
     0
176
     1
 90
       50
176
     1
 40
0.0
176
     1
 40
1.0
176
     1
 90
        0
176
     1
 62
    18
420
        0
176
     1
 90
       50
176
     1
 90
        3
176
     1
 62
     5
420
      255
176
     1
290
     0
176
     1
 90
       50
176
     1
 90
       50
176
     1
 90
       50
176
     1
290
     0
176
     1
 90
       50
176
     1
 62
   256
176
     0
 40
1.0
176
     0
 90
        2
176
     1
  1
strokes_ogs.tif
176
     1
290
     0
176
     1
 40
1.0
176
     1
 40
1.0
176
     1
1001
ACAD
1000
AcDbSavedByObjectVersion
1070
     0
  0
VISUALSTYLE
  5
F2
102
{ACAD_REACTORS
330
EF
102
}
330
EF
100
AcDbVisualStyle
  2
Gouraud
 70
     2
177
     3
291
     1
 70
    58
 90
        2
176
     1
 90
        2
176
     1
 90
        1
176
     1
 90
        2
176
     1
 40
0.6
176
     1
 40
30.0
176
     1
 62
     7
420
 16777215
176
     1
 90
        0
176
     1
 90
        0
176
     1
 62
     7
176
     1
 62
   257
176
     1
 90
        1
176
     1
 90
        1
176
     1
 40
1.0
176
     1
 90
        0
176
     1
 62
     7
176
     1
 40
1.0
176
     1
 90
        1
176
     1
 90
        6
176
     1
 90
        2
176
     1
 62
     7
176
     1
 90
        5
176
     1
 90
        0
176
     1
 90
        0
176
     1
290
     0
176
     1
 90
       13
176
     1
 40
0.0
176
     1
 90
        0
176
     1
290
     0
176
     1
290
     1
176
     1
290
     1
176
     1
290
     0
176
     1
290
     0
176
     1
290
     0
176
     1
290
     0
176
     1
290
     0
176
     1
290
     0
176
     1
 90
       50
176
     1
 40
0.0
176
     1
 40
1.0
176
     1
 90
        0
176
     1
 62
    18
420
        0
176
     1
 90
       50
176
     1
 90
        3
176
     1
 62
     5
420
      255
176
     1
290
     0
176
     1
 90
       50
176
     1
 90
       50
176
     1
 90
       50
176
     1
290
     0
176
     1
 90
       50
176
     1
 62
   256
176
     0
 40
1.0
176
     0
 90
        2
176
     1
  1
strokes_ogs.tif
176
     1
290
     0
176
     1
 40
1.0
176
     1
 40
1.0
176
     1
1001
ACAD
1000
AcDbSavedByObjectVersion
1070
     0
  0
VISUALSTYLE
  5
F3
102
{ACAD_REACTORS
330
EF
102
}
330
EF
100
AcDbVisualStyle
  2
GouraudWithEdges
 70
     3
177
     3
291
     1
 70
    58
 90
        2
176
     1
 90
        2
176
     1
 90
        1
176
     1
 90
        2
176
     1
 40
0.6
176
     1
 40
30.0
176
     1
 62
     7
420
 16777215
176
     1
 90
        1
176
     1
 90
        0
176
     1
 62
     7
176
     1
 62
   257
176
     1
 90
        1
176
     1
 90
        1
176
     1
 40
1.0
176
     1
 90
        0
176
     1
 62
   257
176
     1
 40
1.0
176
     1
 90
        1
176
     1
 90
        6
176
     1
 90
        2
176
     1
 62
     7
176
     1
 90
        5
176
     1
 90
        0
176
     1
 90
        0
176
     1
290
     0
176
     1
 90
       13
176
     1
 40
0.0
176
     1
 90
        0
176
     1
290
     0
176
     1
290
     1
176
     1
290
     1
176
     1
290
     0
176
     1
290
     0
176
     1
290
     0
176
     1
290
     0
176
     1
290
     0
176
     1
290
     0
176
     1
 90
       50
176
     1
 40
0.0
176
     1
 40
1.0
176
     1
 90
        0
176
     1
 62
    18
420
        0
176
     1
 90
       50
176
     1
 90
        3
176
     1
 62
     5
420
      255
176
     1
290
     0
176
     1
 90
       50
176
     1
 90
       50
176
     1
 90
       50
176
     1
290
     0
176
     1
 90
       50
176
     1
 62
   256
176
     0
 40
1.0
176
     0
 90
        2
176
     1
  1
strokes_ogs.tif
176
     1
290
     0
176
     1
 40
1.0
176
     1
 40
1.0
176
     1
1001
ACAD
1000
AcDbSavedByObjectVersion
1070
     0
  0
VISUALSTYLE
  5
F7
102
{ACAD_REACTORS
330
EF
102
}
330
EF
100
AcDbVisualStyle
  2
Hidden
 70
     6
177
     3
291
     0
 70
    58
 90
        1
176
     1
 90
        2
176
     1
 90
        2
176
     1
 90
        0
176
     1
 40
0.6
176
     1
 40
30.0
176
     1
 62
     7
420
 16777215
176
     1
 90
        2
176
     1
 90
        2
176
     1
 62
     7
176
     1
 62
   257
176
     1
 90
        2
176
     1
 90
        1
176
     1
 40
40.0
176
     1
 90
        0
176
     1
 62
   257
176
     1
 40
1.0
176
     1
 90
        1
176
     1
 90
        6
176
     1
 90
        2
176
     1
 62
     7
176
     1
 90
        3
176
     1
 90
        0
176
     1
 90
        0
176
     1
290
     0
176
     1
 90
        1
176
     1
 40
0.0
176
     1
 90
        0
176
     1
290
     0
176
     1
290
     1
176
     1
290
     1
176
     1
290
     0
176
     1
290
     0
176
     1
290
     0
176
     1
290
     0
176
     1
290
     0
176
     1
290
     0
176
     1
 90
       50
176
     1
 40
0.0
176
     1
 40
1.0
176
     1
 90
        0
176
     1
 62
    18
420
        0
176
     1
 90
       50
176
     1
 90
        3
176
     1
 62
     5
420
      255
176
     1
290
     0
176
     1
 90
       50
176
     1
 90
       50
176
     1
 90
       50
176
     1
290
     0
176
     1
 90
       50
176
     1
 62
   256
176
     0
 40
1.0
176
     0
 90
        2
176
     1
  1
strokes_ogs.tif
176
     1
290
     0
176
     1
 40
1.0
176
     1
 40
1.0
176
     1
1001
ACAD
1000
AcDbSavedByObjectVersion
1070
     0
  0
VISUALSTYLE
  5
1E4
102
{ACAD_REACTORS
330
EF
102
}
330
EF
100
AcDbVisualStyle
  2
JitterOff
 70
    20
177
     3
291
     1
 70
    58
 90
        2
176
     0
 90
        2
176
     0
 90
        0
176
     0
 90
        0
176
     0
 40
0.6
176
     0
 40
30.0
176
     0
 62
     7
420
 16777215
176
     0
 90
        1
176
     0
 90
        4
176
     0
 62
     7
176
     0
 62
   257
176
     0
 90
        1
176
     0
 90
        1
176
     0
 40
1.0
176
     0
 90
       10
176
     2
 62
     7
176
     0
 40
1.0
176
     0
 90
        1
176
     0
 90
        6
176
     0
 90
        2
176
     0
 62
     7
176
     0
 90
        5
176
     0
 90
        0
176
     0
 90
        0
176
     0
290
     0
176
     0
 90
        1
176
     0
 40
0.0
176
     0
 90
        0
176
     0
290
     0
176
     1
290
     1
176
     1
290
     1
176
     1
290
     0
176
     1
290
     0
176
     1
290
     0
176
     1
290
     0
176
     1
290
     0
176
     1
290
     0
176
     1
 90
       50
176
     1
 40
0.0
176
     1
 40
1.0
176
     1
 90
        0
176
     1
 62
    18
420
        0
176
     1
 90
       50
176
     1
 90
        3
176
     1
 62
     5
420
      255
176
     1
290
     0
176
     1
 90
       50
176
     1
 90
       50
176
     1
 90
       50
176
     1
290
     0
176
     1
 90
       50
176
     1
 62
   256
176
     0
 40
1.0
176
     0
 90
        2
176
     1
  1
strokes_ogs.tif
176
     1
290
     0
176
     1
 40
1.0
176
     1
 40
1.0
176
     1
1001
ACAD
1000
AcDbSavedByObjectVersion
1070
     0
  0
VISUALSTYLE
  5
FD
102
{ACAD_REACTORS
330
EF
102
}
330
EF
100
AcDbVisualStyle
  2
Linepattern
 70
    14
177
     3
291
     1
 70
    58
 90
        2
176
     1
 90
        2
176
     1
 90
        1
176
     1
 90
        0
176
     1
 40
0.6
176
     1
 40
30.0
176
     1
 62
     7
420
 16777215
176
     1
 90
        1
176
     1
 90
        4
176
     1
 62
     7
176
     1
 62
   257
176
     1
 90
        7
176
     1
 90
        7
176
     1
 40
1.0
176
     1
 90
        8
176
     1
 62
     7
176
     1
 40
1.0
176
     1
 90
        1
176
     1
 90
        6
176
     1
 90
        2
176
     1
 62
     7
176
     1
 90
        5
176
     1
 90
        0
176
     1
 90
        0
176
     1
290
     0
176
     1
 90
        1
176
     1
 40
0.0
176
     1
 90
        0
176
     1
290
     0
176
     1
290
     1
176
     1
290
     1
176
     1
290
     0
176
     1
290
     0
176
     1
290
     0
176
     1
290
     0
176
     1
290
     0
176
     1
290
     0
176
     1
 90
       50
176
     1
 40
0.0
176
     1
 40
1.0
176
     1
 90
        0
176
     1
 62
    18
420
        0
176
     1
 90
       50
176
     1
 90
        3
176
     1
 62
     5
420
      255
176
     1
290
     0
176
     1
 90
       50
176
     1
 90
       50
176
     1
 90
       50
176
     1
290
     0
176
     1
 90
       50
176
     1
 62
   256
176
     0
 40
1.0
176
     0
 90
        2
176
     1
  1
strokes_ogs.tif
176
     1
290
     0
176
     1
 40
1.0
176
     1
 40
1.0
176
     1
1001
ACAD
1000
AcDbSavedByObjectVersion
1070
     0
  0
VISUALSTYLE
  5
1E5
102
{ACAD_REACTORS
330
EF
102
}
330
EF
100
AcDbVisualStyle
  2
OverhangOff
 70
    21
177
     3
291
     1
 70
    58
 90
        2
176
     0
 90
        2
176
     0
 90
        0
176
     0
 90
        0
176
     0
 40
0.6
176
     0
 40
30.0
176
     0
 62
     7
420
 16777215
176
     0
 90
        1
176
     0
 90
        4
176
     0
 62
     7
176
     0
 62
   257
176
     0
 90
        1
176
     0
 90
        1
176
     0
 40
1.0
176
     0
 90
        9
176
     2
 62
     7
176
     0
 40
1.0
176
     0
 90
        1
176
     0
 90
        6
176
     0
 90
        2
176
     0
 62
     7
176
     0
 90
        5
176
     0
 90
        0
176
     0
 90
        0
176
     0
290
     0
176
     0
 90
        1
176
     0
 40
0.0
176
     0
 90
        0
176
     0
290
     0
176
     1
290
     1
176
     1
290
     1
176
     1
290
     0
176
     1
290
     0
176
     1
290
     0
176
     1
290
     0
176
     1
290
     0
176
     1
290
     0
176
     1
 90
       50
176
     1
 40
0.0
176
     1
 40
1.0
176
     1
 90
        0
176
     1
 62
    18
420
        0
176
     1
 90
       50
176
     1
 90
        3
176
     1
 62
     5
420
      255
176
     1
290
     0
176
     1
 90
       50
176
     1
 90
       50
176
     1
 90
       50
176
     1
290
     0
176
     1
 90
       50
176
     1
 62
   256
176
     0
 40
1.0
176
     0
 90
        2
176
     1
  1
strokes_ogs.tif
176
     1
290
     0
176
     1
 40
1.0
176
     1
 40
1.0
176
     1
1001
ACAD
1000
AcDbSavedByObjectVersion
1070
     0
  0
VISUALSTYLE
  5
F9
102
{ACAD_REACTORS
330
EF
102
}
330
EF
100
AcDbVisualStyle
  2
Realistic
 70
     8
177
     3
291
     0
 70
    58
 90
        2
176
     1
 90
        3
176
     1
 90
        0
176
     1
 90
        2
176
     1
 40
0.6
176
     1
 40
30.0
176
     1
 62
     7
420
 16777215
176
     1
 90
        0
176
     1
 90
        0
176
     1
 62
     7
176
     1
 62
   257
176
     1
 90
        1
176
     1
 90
        1
176
     1
 40
1.0
176
     1
 90
        8
176
     1
 62
   257
176
     1
 40
1.0
176
     1
 90
        1
176
     1
 90
        6
176
     1
 90
        2
176
     1
 62
     7
176
     1
 90
        3
176
     1
 90
        0
176
     1
 90
        0
176
     1
290
     0
176
     1
 90
       13
176
     1
 40
0.0
176
     1
 90
        0
176
     1
290
     0
176
     1
290
     1
176
     1
290
     1
176
     1
290
     0
176
     1
290
     0
176
     1
290
     0
176
     1
290
     0
176
     1
290
     0
176
     1
290
     0
176
     1
 90
       50
176
     1
 40
0.0
176
     1
 40
1.0
176
     1
 90
        0
176
     1
 62
    18
420
        0
176
     1
 90
       50
176
     1
 90
        3
176
     1
 62
     5
420
      255
176
     1
290
     0
176
     1
 90
       50
176
     1
 90
       50
176
     1
 90
       50
176
     1
290
     0
176
     1
 90
       50
176
     1
 62
   256
176
     0
 40
1.0
176
     0
 90
        2
176
     1
  1
strokes_ogs.tif
176
     1
290
     0
176
     1
 40
1.0
176
     1
 40
1.0
176
     1
1001
ACAD
1000
AcDbSavedByObjectVersion
1070
     0
  0
VISUALSTYLE
  5
1F3
102
{ACAD_REACTORS
330
EF
102
}
330
EF
100
AcDbVisualStyle
  2
Shaded
 70
    27
177
     3
291
     0
 70
    58
 90
        2
176
     1
 90
        2
176
     1
 90
        1
176
     1
 90
        2
176
     1
 40
0.6
176
     1
 40
30.0
176
     1
 62
     7
420
 16777215
176
     1
 90
        0
176
     1
 90
        4
176
     1
 62
     7
176
     1
 62
   257
176
     1
 90
        1
176
     1
 90
        1
176
     1
 40
1.0
176
     1
 90
        8
176
     1
 62
   257
176
     1
 40
1.0
176
     1
 90
        1
176
     1
 90
        6
176
     1
 90
        2
176
     1
 62
     8
420
  7895160
176
     1
 90
        3
176
     1
 90
        0
176
     1
 90
        0
176
     1
290
     0
176
     1
 90
        5
176
     1
 40
0.0
176
     1
 90
        0
176
     1
290
     0
176
     1
290
     1
176
     1
290
     1
176
     1
290
     0
176
     1
290
     0
176
     1
290
     0
176
     1
290
     0
176
     1
290
     0
176
     1
290
     0
176
     1
 90
       50
176
     1
 40
0.0
176
     1
 40
1.0
176
     1
 90
        0
176
     1
 62
    18
420
        0
176
     1
 90
       50
176
     1
 90
        3
176
     1
 62
     5
420
      255
176
     1
290
     0
176
     1
 90
       50
176
     1
 90
       50
176
     1
 90
       50
176
     1
290
     0
176
     1
 90
       50
176
     1
 62
   256
176
     0
 40
1.0
176
     0
 90
        2
176
     1
  1
strokes_ogs.tif
176
     1
290
     0
176
     1
 40
1.0
176
     1
 40
1.0
176
     1
1001
ACAD
1000
AcDbSavedByObjectVersion
1070
     0
  0
VISUALSTYLE
  5
1F2
102
{ACAD_REACTORS
330
EF
102
}
330
EF
100
AcDbVisualStyle
  2
Shaded with edges
 70
    26
177
     3
291
     0
 70
    58
 90
        2
176
     1
 90
        2
176
     1
 90
        1
176
     1
 90
        2
176
     1
 40
0.6
176
     1
 40
30.0
176
     1
 62
     7
420
 16777215
176
     1
 90
        1
176
     1
 90
        2
176
     1
 62
     7
176
     1
 62
   257
176
     1
 90
        2
176
     1
 90
        1
176
     1
 40
1.0
176
     1
 90
        8
176
     1
 62
   257
176
     1
 40
1.0
176
     1
 90
        1
176
     1
 90
        6
176
     1
 90
        2
176
     1
 62
     7
176
     1
 90
        3
176
     1
 90
        0
176
     1
 90
        0
176
     1
290
     0
176
     1
 90
        5
176
     1
 40
0.0
176
     1
 90
        0
176
     1
290
     0
176
     1
290
     1
176
     1
290
     1
176
     1
290
     0
176
     1
290
     0
176
     1
290
     0
176
     1
290
     0
176
     1
290
     0
176
     1
290
     0
176
     1
 90
       50
176
     1
 40
0.0
176
     1
 40
1.0
176
     1
 90
        0
176
     1
 62
    18
420
        0
176
     1
 90
       50
176
     1
 90
        3
176
     1
 62
     5
420
      255
176
     1
290
     0
176
     1
 90
       50
176
     1
 90
       50
176
     1
 90
       50
176
     1
290
     0
176
     1
 90
       50
176
     1
 62
   256
176
     0
 40
1.0
176
     0
 90
        2
176
     1
  1
strokes_ogs.tif
176
     1
290
     0
176
     1
 40
1.0
176
     1
 40
1.0
176
     1
1001
ACAD
1000
AcDbSavedByObjectVersion
1070
     0
  0
VISUALSTYLE
  5
1EF
102
{ACAD_REACTORS
330
EF
102
}
330
EF
100
AcDbVisualStyle
  2
Shades of Gray
 70
    23
177
     3
291
     0
 70
    58
 90
        2
176
     1
 90
        2
176
     1
 90
        3
176
     1
 90
        0
176
     1
 40
0.6
176
     1
 40
30.0
176
     1
 62
     7
420
 16777215
176
     1
 90
        2
176
     1
 90
        2
176
     1
 62
     7
176
     1
 62
     7
176
     1
 90
        1
176
     1
 90
        1
176
     1
 40
40.0
176
     1
 90
        8
176
     1
 62
     7
176
     1
 40
1.0
176
     1
 90
        1
176
     1
 90
        6
176
     1
 90
        2
176
     1
 62
     7
176
     1
 90
        3
176
     1
 90
        0
176
     1
 90
        0
176
     1
290
     0
176
     1
 90
        1
176
     1
 40
0.0
176
     1
 90
        0
176
     1
290
     0
176
     1
290
     1
176
     1
290
     1
176
     1
290
     0
176
     1
290
     0
176
     1
290
     0
176
     1
290
     0
176
     1
290
     0
176
     1
290
     0
176
     1
 90
       50
176
     1
 40
0.0
176
     1
 40
1.0
176
     1
 90
        0
176
     1
 62
    18
420
        0
176
     1
 90
       50
176
     1
 90
        3
176
     1
 62
     5
420
      255
176
     1
290
     0
176
     1
 90
       50
176
     1
 90
       50
176
     1
 90
       50
176
     1
290
     0
176
     1
 90
       50
176
     1
 62
   256
176
     0
 40
1.0
176
     0
 90
        2
176
     1
  1
strokes_ogs.tif
176
     1
290
     0
176
     1
 40
1.0
176
     1
 40
1.0
176
     1
1001
ACAD
1000
AcDbSavedByObjectVersion
1070
     0
  0
VISUALSTYLE
  5
1F0
102
{ACAD_REACTORS
330
EF
102
}
330
EF
100
AcDbVisualStyle
  2
Sketchy
 70
    24
177
     3
291
     0
 70
    58
 90
        1
176
     1
 90
        2
176
     1
 90
        2
176
     1
 90
        0
176
     1
 40
0.6
176
     1
 40
30.0
176
     1
 62
     7
420
 16777215
176
     1
 90
        2
176
     1
 90
        2
176
     1
 62
     7
176
     1
 62
     7
176
     1
 90
        1
176
     1
 90
        1
176
     1
 40
40.0
176
     1
 90
       11
176
     1
 62
     7
176
     1
 40
1.0
176
     1
 90
        1
176
     1
 90
        6
176
     1
 90
        2
176
     1
 62
     7
176
     1
 90
        6
176
     1
 90
        0
176
     1
 90
        0
176
     1
290
     0
176
     1
 90
        1
176
     1
 40
0.0
176
     1
 90
        0
176
     1
290
     0
176
     1
290
     1
176
     1
290
     1
176
     1
290
     0
176
     1
290
     0
176
     1
290
     0
176
     1
290
     0
176
     1
290
     0
176
     1
290
     0
176
     1
 90
       50
176
     1
 40
0.0
176
     1
 40
1.0
176
     1
 90
        0
176
     1
 62
    18
420
        0
176
     1
 90
       50
176
     1
 90
        3
176
     1
 62
     5
420
      255
176
     1
290
     0
176
     1
 90
       50
176
     1
 90
       50
176
     1
 90
       50
176
     1
290
     0
176
     1
 90
       50
176
     1
 62
   256
176
     0
 40
1.0
176
     0
 90
        2
176
     1
  1
strokes_ogs.tif
176
     1
290
     0
176
     1
 40
1.0
176
     1
 40
1.0
176
     1
1001
ACAD
1000
AcDbSavedByObjectVersion
1070
     0
  0
VISUALSTYLE
  5
FC
102
{ACAD_REACTORS
330
EF
102
}
330
EF
100
AcDbVisualStyle
  2
Thicken
 70
    13
177
     3
291
     1
 70
    58
 90
        2
176
     1
 90
        2
176
     1
 90
        1
176
     1
 90
        0
176
     1
 40
0.6
176
     1
 40
30.0
176
     1
 62
     7
420
 16777215
176
     1
 90
        1
176
     1
 90
        4
176
     1
 62
     7
176
     1
 62
   257
176
     1
 90
        1
176
     1
 90
        1
176
     1
 40
1.0
176
     1
 90
       12
176
     1
 62
     7
176
     1
 40
1.0
176
     1
 90
        1
176
     1
 90
        6
176
     1
 90
        2
176
     1
 62
     7
176
     1
 90
        5
176
     1
 90
        0
176
     1
 90
        0
176
     1
290
     0
176
     1
 90
        1
176
     1
 40
0.0
176
     1
 90
        0
176
     1
290
     0
176
     1
290
     1
176
     1
290
     1
176
     1
290
     0
176
     1
290
     0
176
     1
290
     0
176
     1
290
     0
176
     1
290
     0
176
     1
290
     0
176
     1
 90
       50
176
     1
 40
0.0
176
     1
 40
1.0
176
     1
 90
        0
176
     1
 62
    18
420
        0
176
     1
 90
       50
176
     1
 90
        3
176
     1
 62
     5
420
      255
176
     1
290
     0
176
     1
 90
       50
176
     1
 90
       50
176
     1
 90
       50
176
     1
290
     0
176
     1
 90
       50
176
     1
 62
   256
176
     0
 40
1.0
176
     0
 90
        2
176
     1
  1
strokes_ogs.tif
176
     1
290
     0
176
     1
 40
1.0
176
     1
 40
1.0
176
     1
1001
ACAD
1000
AcDbSavedByObjectVersion
1070
     0
  0
VISUALSTYLE
  5
F6
102
{ACAD_REACTORS
330
EF
102
}
330
EF
100
AcDbVisualStyle
  2
Wireframe
 70
     5
177
     3
291
     0
 70
    58
 90
        0
176
     1
 90
        2
176
     1
 90
        0
176
     1
 90
        0
176
     1
 40
0.6
176
     1
 40
30.0
176
     1
 62
     7
420
 16777215
176
     1
 90
        1
176
     1
 90
        4
176
     1
 62
     7
176
     1
 62
   257
176
     1
 90
        1
176
     1
 90
        1
176
     1
 40
1.0
176
     1
 90
        0
176
     1
 62
   257
176
     1
 40
1.0
176
     1
 90
        1
176
     1
 90
        6
176
     1
 90
        2
176
     1
 62
     7
176
     1
 90
        3
176
     1
 90
        0
176
     1
 90
        0
176
     1
290
     0
176
     1
 90
        1
176
     1
 40
0.0
176
     1
 90
        0
176
     1
290
     0
176
     1
290
     1
176
     1
290
     1
176
     1
290
     0
176
     1
290
     0
176
     1
290
     0
176
     1
290
     0
176
     1
290
     0
176
     1
290
     0
176
     1
 90
       50
176
     1
 40
0.0
176
     1
 40
1.0
176
     1
 90
        0
176
     1
 62
    18
420
        0
176
     1
 90
       50
176
     1
 90
        3
176
     1
 62
     5
420
      255
176
     1
290
     0
176
     1
 90
       50
176
     1
 90
       50
176
     1
 90
       50
176
     1
290
     0
176
     1
 90
       50
176
     1
 62
   256
176
     0
 40
1.0
176
     0
 90
        2
176
     1
  1
strokes_ogs.tif
176
     1
290
     0
176
     1
 40
1.0
176
     1
 40
1.0
176
     1
1001
ACAD
1000
AcDbSavedByObjectVersion
1070
     0
  0
VISUALSTYLE
  5
1F1
102
{ACAD_REACTORS
330
EF
102
}
330
EF
100
AcDbVisualStyle
  2
X-Ray
 70
    25
177
     3
291
     0
 70
    58
 90
        2
176
     1
 90
        2
176
     1
 90
        1
176
     1
 90
        1
176
     1
 40
0.5
176
     1
 40
30.0
176
     1
 62
     7
420
 16777215
176
     1
 90
        1
176
     1
 90
        0
176
     1
 62
     7
176
     1
 62
   257
176
     1
 90
        1
176
     1
 90
        1
176
     1
 40
1.0
176
     1
 90
        8
176
     1
 62
     7
176
     1
 40
1.0
176
     1
 90
        1
176
     1
 90
        6
176
     1
 90
        2
176
     1
 62
     7
176
     1
 90
        3
176
     1
 90
        0
176
     1
 90
        0
176
     1
290
     0
176
     1
 90
       13
176
     1
 40
0.0
176
     1
 90
        0
176
     1
290
     0
176
     1
290
     1
176
     1
290
     1
176
     1
290
     0
176
     1
290
     0
176
     1
290
     0
176
     1
290
     0
176
     1
290
     0
176
     1
290
     0
176
     1
 90
       50
176
     1
 40
0.0
176
     1
 40
1.0
176
     1
 90
        0
176
     1
 62
    18
420
        0
176
     1
 90
       50
176
     1
 90
        3
176
     1
 62
     5
420
      255
176
     1
290
     0
176
     1
 90
       50
176
     1
 90
       50
176
     1
 90
       50
176
     1
290
     0
176
     1
 90
       50
176
     1
 62
   256
176
     0
 40
1.0
176
     0
 90
        2
176
     1
  1
strokes_ogs.tif
176
     1
290
     0
176
     1
 40
1.0
176
     1
 40
1.0
176
     1
1001
ACAD
1000
AcDbSavedByObjectVersion
1070
     0
  0
DICTIONARYVAR
  5
146
102
{ACAD_REACTORS
330
5E
102
}
330
5E
100
DictionaryVariables
280
     0
  1
1:1
  0
DICTIONARYVAR
  5
259
102
{ACAD_REACTORS
330
5E
102
}
330
5E
100
DictionaryVariables
280
     0
  1
3.500000
  0
DICTIONARYVAR
  5
25A
102
{ACAD_REACTORS
330
5E
102
}
330
5E
100
DictionaryVariables
280
     0
  1
acadiso.lin
  0
DICTIONARYVAR
  5
145
102
{ACAD_REACTORS
330
5E
102
}
330
5E
100
DictionaryVariables
280
     0
  1
STANDARD
  0
DICTIONARYVAR
  5
84
102
{ACAD_REACTORS
330
5E
102
}
330
5E
100
DictionaryVariables
280
     0
  1
STANDARD
  0
DICTIONARYVAR
  5
227
102
{ACAD_REACTORS
330
5E
102
}
330
5E
100
DictionaryVariables
280
     0
  1
Metric50
  0
DICTIONARYVAR
  5
228
102
{ACAD_REACTORS
330
5E
102
}
330
5E
100
DictionaryVariables
280
     0
  1
Metric50
  0
DICTIONARYVAR
  5
5F
102
{ACAD_REACTORS
330
5E
102
}
330
5E
100
DictionaryVariables
280
     0
  1
2
  0
DICTIONARYVAR
  5
63
102
{ACAD_REACTORS
330
5E
102
}
330
5E
100
DictionaryVariables
280
     0
  1
1
  0
DICTIONARYVAR
  5
1AE
102
{ACAD_REACTORS
330
5E
102
}
330
5E
100
DictionaryVariables
280
     0
  1
0
  0
DICTIONARYVAR
  5
1AF
102
{ACAD_REACTORS
330
5E
102
}
330
5E
100
DictionaryVariables
280
     0
  1
0
  0
DICTIONARY
  5
6A5
102
{ACAD_REACTORS
330
6A3
102
}
330
6A3
100
AcDbDictionary
281
     1
  0
DICTIONARY
  5
6A4
102
{ACAD_REACTORS
330
6A3
102
}
330
6A3
100
AcDbDictionary
281
     1
  3
3101839153632
350
69E
  3
3101839153648
350
69F
  3
3101839153664
350
6A0
  3
3101839153680
350
6A1
  3
3101839153696
350
6A2
  0
DICTIONARY
  5
6AC
330
28E
100
AcDbDictionary
280
     1
281
     1
  3
ACAD_XREC_ROUNDTRIP
360
6AD
  0
DICTIONARY
  5
6A8
330
21C
100
AcDbDictionary
280
     1
281
     1
  3
ACAD_XREC_ROUNDTRIP
360
6A9
  0
DICTIONARY
  5
205
330
22
100
AcDbDictionary
280
     1
281
     1
  0
DICTIONARY
  5
1F9
330
ED
100
AcDbDictionary
280
     1
281
     1
  3
FBXASSET
360
1FA
  0
DICTIONARY
  5
1F7
330
EC
100
AcDbDictionary
280
     1
281
     1
  3
FBXASSET
360
1F8
  0
DICTIONARY
  5
173
330
EE
100
AcDbDictionary
280
     1
281
     1
  3
BUMPTILE
360
175
  3
DIFFUSETILE
360
174
  3
FBXASSET
360
1FB
  3
OPACITYTILE
360
176
  3
REFLECTIONTILE
360
177
  0
DICTIONARY
  5
6AA
330
28D
100
AcDbDictionary
280
     1
281
     1
  3
ACAD_XREC_ROUNDTRIP
360
6AB
  0
DICTIONARY
  5
6A6
330
21A
100
AcDbDictionary
280
     1
281
     1
  3
ACAD_XREC_ROUNDTRIP
360
6A7
  0
DICTIONARY
  5
162
330
7F
100
AcDbDictionary
280
     1
281
     1
  3
ACAD_ROUNDTRIP_2008_TABLESTYLE_CELLSTYLEMAP
360
69C
  0
XRECORD
  5
69E
102
{ACAD_REACTORS
330
6A4
102
}
330
6A4
100
AcDbXrecord
280
     1
  1
AcDb_Thumbnail_Schema
102
{ATTRRECORD
341
69F
  2
AcDbDs::TreatedAsObjectData
280
     1
291
     1
102
ATTRRECORD}
102
{ATTRRECORD
341
6A0
  2
AcDbDs::Legacy
280
     1
291
     1
102
ATTRRECORD}
  2
AcDbDs::ID
280
    10
 91
        8
102
{ATTRRECORD
341
6A1
  2
AcDs:Indexable
280
     1
291
     1
102
ATTRRECORD}
102
{ATTRRECORD
341
6A2
  2
AcDbDs::HandleAttribute
280
     7
282
     1
102
ATTRRECORD}
  2
Thumbnail_Data
280
    15
 91
        0
  0
XRECORD
  5
69F
102
{ACAD_REACTORS
330
6A4
102
}
330
6A4
100
AcDbXrecord
280
     1
  1
AcDbDs::TreatedAsObjectDataSchema
  2
AcDbDs::TreatedAsObjectData
280
     1
 91
        0
  0
XRECORD
  5
6A0
102
{ACAD_REACTORS
330
6A4
102
}
330
6A4
100
AcDbXrecord
280
     1
  1
AcDbDs::LegacySchema
  2
AcDbDs::Legacy
280
     1
 91
        0
  0
XRECORD
  5
6A1
102
{ACAD_REACTORS
330
6A4
102
}
330
6A4
100
AcDbXrecord
280
     1
  1
AcDbDs::IndexedPropertySchema
  2
AcDs:Indexable
280
     1
 91
        0
  0
XRECORD
  5
6A2
102
{ACAD_REACTORS
330
6A4
102
}
330
6A4
100
AcDbXrecord
280
     1
  1
AcDbDs::HandleAttributeSchema
  2
AcDbDs::HandleAttribute
280
     7
 91
        1
284
     1
  0
XRECORD
  5
6AD
102
{ACAD_REACTORS
330
6AC
102
}
330
6AC
100
AcDbXrecord
280
     1
102
DISPLAYNAME
  1
Imperial24
102
FLAGS
 90
        0
  0
XRECORD
  5
6A9
102
{ACAD_REACTORS
330
6A8
102
}
330
6A8
100
AcDbXrecord
280
     1
102
DISPLAYNAME
  1
Metric50
102
FLAGS
 90
        0
  0
XRECORD
  5
1FA
102
{ACAD_REACTORS
330
1F9
102
}
330
1F9
100
AcDbXrecord
280
     1
 70
     1
 90
429727718
  1
D62C5603-E3A1-4AEA-B7FB-FE5D8D0755AF
310
504B03040A0000080000CC70623B3DEE336E79000000790000001B0000006175746F6465736B2D64657369676E2D7061636B6167652E786D6C3C3F786D6C2076657273696F6E3D22312E302220656E636F64696E673D227574662D3822203F3E3C666F726D6174733E3C666F726D61743E687474703A2F2F736368656D612E
310
6175746F6465736B2E636F6D2F64657369676E2D7061636B6167652F323030393C2F666F726D61743E3C2F666F726D6174733E504B0304140006080800CC70623BD486FD9CA0000000F4000000130000005B436F6E74656E745F54797065735D2E786D6C7D8EC10E82300C865F65E91D8A1E8C310C0EEA1BF002731658846E
310
D98AC1B77784ABF1D8FE5FBFBF75BBCE937A534CCEB38643598122B6FEE978D0B0485F9C41B54DDD7D022595594E1A469170414C76A4D9A4D207E29CF43ECE46F218070CC6BECC4078ACAA135ACF422C856C0E68EA1BF5669944DDD7BCDE7B1F8E415D77AECB980613C2E4AC91FC167A2B244592486606FC29C8FD7F045B9A
310
EF7053A7E60B504B0304140006080800CC70623B853B8169EB0000007C01000008000000636F72652E786D6C8D90416EC3201045AF62CDB6C206821CC7C244919D9CA01740401C94182C03558F5F9C3852BBEB6A467FFE9B197D7EFC9E1EC5975982F5AE035262288C535E5B377690E21535501C055FBC8FBF6C503839990E
310
5619041F179FE64D52DE45E362569DD7661365082642A11EB9E920A89B99642953CC8E702F67A9EE7234257977194EC9EAE275C4EABCCF5EAD5940D4AC6F0E35A568B8F43562CD7046CD199FD07E60174276A7BE677B5EADB0E0D14EEFFB6A31321A0D82627C4084204C3F096B71DD52F6819B16635EADF63F509AF53FA164
310
5DDCD1EDDD17164090FCC8732078B56691CB33A85CD7DCC40F504B0304140006080800CC70623B55019EA25F0000007C00000007000000636E782E786D6C4DCB3B0E80201045D1AD90E915ED2CF8AC45050C11660C8261F98AB1B07AC9C97D42D718D865D3E909258CFD00CCE24AC6E326A164D74DC0B4128928FF32603847
310
2BA13128B1252AC747C6BAB984FC68F0B87FE8960A5C09FE86CFB69FBA01504B0304140006080800CC70623BDBABAAF470010000D40300000C0000006662782F636F72652E786D6CC553D16E823014FD95A6AF4B694182CC941A83FA05FB810A9511A125A5257EFE2E82712ECEB8A7F100CD39F7F69E734AF9FADC366850B6
310
AF8DCE7018308C942E4C59EB2AC3DE1D498AD15A706B8CFB56869196ADCAF00863C12B6B7C374385D14E6907A836A59A41D9F7CA615434B0C8705F7CAA5606D23BA8E84F41278B93AC54100640439DE0BDB320004D43C63716C7C399D30917DCFBBA9CD9BA8469F5B156168B24CED3F7248AC8769F27244EB73B92EED8862C
310
B7F13E0C179B3C8F979C8ECD82BBBABDAA2BAC924E9558448CBD9330242CFA08E3154B5651FCC6D215639C8EE5774DBE2B5F6CF2B5768B68963BB5F5588420E442FC700B1139D4CB01F450C1E918227C2E09DF070D8140C84E1E9AAB8F1340832A9CB13130A5F1376A908D57309505ECF2A0DF179C4E9D30F5B239B87E3823
310
7A79C6F31DE1A8A5AEC08474B03C7837EAE4938639B44E5932B833D2C6B6B279CDC613877FA26EE21F4A2A4C63EC7F29A2F301D1F9F7A0E37D145F504B0304140006080800CC70623B9C113CC27E0000009D0000000B0000006662782F636E782E786D6C4DCCDF0A83201C86E15B91DFB94BFB330DD428C8FB886521330DA7
310
6397BF1A1DECE883878F57749FCDA1B7892F1BBC047A23808C7F84D9FA55424E0BE6803A256208E9EF06C84F9B91703228B1C690F78B66B34CD9A5439DF5CF0BFBF65E35BCA1B8D6A5C6F540381E886698B5741C695F9503EBA150A2F8958E3DC3EA0B504B0304140006080800CC70623B7DF2F77C2A010000120200003100
310
00006662782F41393633353835312D344632462D344230382D423046372D3739314545314133324237412F636F72652E786D6C8D51DB8EC22014FC15C2939B0D2DB4B45643319AE817EC0F6041255A68B86CFCFC856D4D76DF7CE190393373060EDB3DC707F856CE6B6B7A480A0C81328395DA5C7B18C3057510EC3873D686
310
3F34088C18550F330C39BB3A1BA7051AAC09CA84841A2BD5020AEF55806078A44B0FFD7053A328440C89E1EFC52486BBB8AA8214A99D789CF9E05200300FC927E4FB4D5B375D43103D5527440FB843077C5AA3F5861C8F645F5787F59E95B390B318B55CE45AA638FAA2957BD7248B390B7A7CC51F9C124149C82B8C378810
310
84AB2F42B7B8DD56F413775B8C5999E9FF4471926F8AA236A1AE96B8B3CC434E5839373893369E1FAF30EA395917409EB7F26AF8801C171837A4A6AC9C89E9F9C9B1A58BA30FD6A5EF5DDDCF894B9AD9B6A59C957943A9FCAE2FD5BC4DFE03504B0304140006080800CC70623BAD7543B64E01000033030000300000006662
310
782F41393633353835312D344632462D344230382D423046372D3739314545314133324237412F636E782E786D6CD593CD6EC32010845F0571AD6CE3D48AD20813A9873E410FBD12D82434182C7EAAE6EDBB2424CD25871E7B41D6EC30B3FA84F9E67BB2E40B4234DE8DB46F1925E094D7C6ED479AD3AE5951B2113C789FEE
310
6C943839C1488B4C05DF079FE72A69D8C96C13AAD6B8631503449F83828872B949AC57D26200B826A308D316B4064D6E46FCDA41C05550DC9E483A00797BFD207EFB092A45DE9514C1BBD22178396BD39D891265658C238DEA00936C654E5E433CB65A26D9F6EDB5EBC14EBF49A45CB856E66048291F6939A9A81BB5C89177
310
38143CA680F4AA299D66A042CEB3354A2684DC9D8D178FE0D9B8B41CAAD720F880EE7EF93C0C18769E099ECC04D5A102C8049A8A05632F4DDF376CF1DE0F6BB65C2F8627B65A33C6BB62177CEBBDAD973006829F89F22E814B54F4BC2BE347F8AA8F681390B50FA73F804400B5F542E796F19FF974E7F78DB802FE05E20750
310
4B0304140006080800CC70623BE75B7789680500003C100000340000006662782F41393633353835312D344632462D344230382D423046372D3739314545314133324237412F6F626A656374732E786D6CAD575B8F9B3818FD2B887D06C22499CB8AA1CA655245D5B455A356FB305264C061D8018C6C3393D95FBFC7600890
310
A4CD5EF210B0B1BFEBF98E3F7B1FF6596ABC522E1296DF9BAE3D320D9A872C4AF2F8DE2CE5CEBA358D0FBEC719939D65A691938CDE9B6ADAF4BD98B3B2D05311DD91329583D9D5FC0F438434A7A611A644887B5384CF34233629258BA878B12322891DEFF6B66BD70BFB62634E8AE781D082709A4B588AF91C528CDA28B73F
310
1C998EEF39EABBEFA97FBD6A7C7E9553F9D3D79FE442923C3C523610337627CB87ABE99D359D4CC6D6E4FACAB5E6ABF9D2726FC6A3C5F56271377BB88362213924694B38DD99FE47C48627A1E7D49F5A8BB5E1A74C0A599ED3B0F21F1E56366B89112D681E218F0915D0D6F17AD41FBA2A369DCF6335D62ABBD39779D5DDD1
310
11D4D8DE3CBB96B2E04FB8202E41051754A1AA8E8F76B4C6DFE810B580B1547F4B84911149794252234D024EF8BBE963A95AE27B3D310A9D5C215C7960FAEE415ED75694C6AFB17BCACA5D99A60A9AA65F217B0BFC53292ACB92BF283FAD0D3621576592CB5BED907C2FA8E9DF794E35E97BEA31BED21FEB401ABB94C44839
310
DCACBF0E1C5DA8DA5B2F4DFFD32AD86F543D9E565E7056502E157C00AD2671CD534549AB752FCA9CDA00677A313F04E51B22FF19E57B300579E3C97EB29F682D92935CEC18CF901B7B54FD8C51F362B56FC72FE0B3C1EAE335EDCCBF5AEC39ADB17DC238973F804BA5E6F6BFE7AF1FB32E523BE9F3BD571418E3631DCA4D48
310
5250CF639223210A9446CA30052EDF057BD35F8329C1ECD84552BF0DC8D18BE7BCE23BFE6BD960AB4A7DE79923A103BEBD80F911CBAA2C60DB19B01CF164A5583B772EE6D3FFA56666CBCDA74DC97724A48F9A58967497E489C4D979006FD7A05E227A1EBDD0F737C623387A9C844D3709995625106D157315F8B8392CD4E0
310
A0B9A720C4BE9829CEF37EA1E13111214D53925356365ADA634861B52519DD27A00AEB808EAF0628E6F435519D446F45CF2C9CF5214F0A15B2F6D06B79DA3EE3CBF7F56780D2F4E7EF73A0F5E5B02A38D07DC852C6B7C1FBB6664213E0C39E3EBA7FF4E1AD23EA2829407C85E586727488B751B2DB9502BC7B228A3FD68B6E
310
A65A22397E690AA8D158D7E404EC8CDA235CC3B7D1898680131CEC2CDF2638C65196279577750F15884AEE19F94199155B92B13297978469D4F8D358DF0AEF7631E28DC8F0D9F437D5D39A83B2231A1D52D543813A824EF8D44BCFF2FA6A31BD1E8DAD87F1CCB526B3879935BF59CDADD5C37479BB1CDD4CA7B3556B516589
310
EF352754B706114D9C885EC9131DE6EFEB43D99AFE2391C2F958179413D7CFEF6B1B6DB1E7600F00DE6E5C67454A339A4BA2E0FBA85ED26F045D454F463DBFCE484C2F90F2E5E3666003662ED8F755951A7D1BECD5B30B550B2785C8E7320B7292A4838DDA71BBC863ED7613CAF659337A3354231D4FF4A182A54904C2898C
310
98B28C4AD0CE056CCF332A80986E571EE9DBC305BB5FEB7E509220A58D25CF042D712A806AC0AD0C657FDEF80D2D9CEAA2EE4D1C76F60BFE74219A06527D6F82DF6412526107381E55E353090704D085B52408A8913C4ED159D79BDA71BB4BC506F4831350EB6F975CD22D69BF7AC49B91A2C0A9DDA3D5CA36AD20FC478E37
310
E61844E2352865EBCB61A275A65283CAAA9DD27703B4102F5AF51EF5F573B75CBB5AD38BC845F7A49F82A0966A49C2E3EA5EA0ECD326CD965F1DB402C6FA8B51A4658C5C5E2EC9E214602E55810345408596591009A82E7E7FFACA19EEA299B14A0081A705CB3296EBC14CDF658DCD336EA6D1136881AAEB87B81AB9EE53D5
310
F5EB8BC8362082DA24122F98680A4E7930C01A0079749CEA14382A0783E5EBA5A10F8C098456A03D6A4AEB6BB881E2513747552A5DB22C7EDAF83BD5528081A365F7FF06504B0304140006080000CC70623B000000000000000000000000350000006662782F41393633353835312D344632462D344230382D423046372D37
310
39314545314133324237412F76657274696365732E62696E504B0304140006080800CC70623BF270F1330600000004000000360000006662782F41393633353835312D344632462D344230382D423046372D3739314545314133324237412F747269616E676C65732E62696E636660600000504B0304140006080000CC7062
310
3B000000000000000000000000370000006662782F41393633353835312D344632462D344230382D423046372D3739314545314133324237412F617474726962757465732E62696E504B0304140006080800CC70623B08DA0BD19000000041010000360000006662782F41393633353835312D344632462D344230382D4230
310
46372D3739314545314133324237412F6469726563746F72792E786D6C858F410AC3201045AF22B36F53E9A60B35CBEEBAE80D244E44489C6234F4F835464A48035D0DF398FF9F8AF63D0E6CC63039F212F8F9020C7D47C6792B21C5FE7403D62A1188E2E60C98D7234A5830286103A55745067B9D86B8A3CF9C7F90C11DE6
310
07FB144396D7B6A82D282E9A152AD114D5EF2CB866EEE831B8EEA07A7BB5A8D7D61A2BAAEB7FD5F70921FF497D00504B0304140006080800CC70623BEDD1DC58FD000000A00100003B0000006662782F41393633353835312D344632462D344230382D423046372D3739314545314133324237412F7265736F75726365732F
310
636F72652E786D6C8D504B6E833010BD0A9A6D65B00922041947112427E8052C33A156828DFCA97AFC9A40A576D7CDCCE87D344F8F9FBFE667F689CE6B6B3A6039850C8DB2A336530731DC4903D95970676DF82583CCC8193B5861107C72362E3BA4AC096842428D1D7107A5F7182053CF7474E0D507CE32973124857FE48B
310
540F3961CEF244279DE03EB81420DB9EAC1384436FA353E879B1B182C7A8C75DA3C7F453DF353A1075D537A7BA6464B8F535A99AE14A9A2BBD90E350DD183B5CFABE3AF262350B1EF4FC9351399401471025A527C218A1E53BAB5A5AB765F5469B96525EACF23FA6B88CFF34456DC2A1DCE36E360F82A5202F42F062ED2BAD
310
579969AFDD8A6F504B010214000A0000080000CC70623B3DEE336E79000000790000001B00000000000000000000000000000000006175746F6465736B2D64657369676E2D7061636B6167652E786D6C504B01021400140006080800CC70623BD486FD9CA0000000F40000001300000000000000000000000000B20000005B
310
436F6E74656E745F54797065735D2E786D6C504B01021400140006080800CC70623B853B8169EB0000007C010000080000000000000000000000000083010000636F72652E786D6C504B01021400140006080800CC70623B55019EA25F0000007C000000070000000000000000000000000094020000636E782E786D6C504B
310
01021400140006080800CC70623BDBABAAF470010000D40300000C00000000000000000000000000180300006662782F636F72652E786D6C504B01021400140006080800CC70623B9C113CC27E0000009D0000000B00000000000000000000000000B20400006662782F636E782E786D6C504B01021400140006080800CC70
310
623B7DF2F77C2A010000120200003100000000000000000000000000590500006662782F41393633353835312D344632462D344230382D423046372D3739314545314133324237412F636F72652E786D6C504B01021400140006080800CC70623BAD7543B64E010000330300003000000000000000000000000000D2060000
310
6662782F41393633353835312D344632462D344230382D423046372D3739314545314133324237412F636E782E786D6C504B01021400140006080800CC70623BE75B7789680500003C10000034000000000000000000000000006E0800006662782F41393633353835312D344632462D344230382D423046372D3739314545
310
314133324237412F6F626A656374732E786D6C504B01021400140006080000CC70623B0000000000000000000000003500000000000000000000000000280E00006662782F41393633353835312D344632462D344230382D423046372D3739314545314133324237412F76657274696365732E62696E504B01021400140006
310
080800CC70623BF270F133060000000400000036000000000000000000000000007B0E00006662782F41393633353835312D344632462D344230382D423046372D3739314545314133324237412F747269616E676C65732E62696E504B01021400140006080000CC70623B0000000000000000000000003700000000000000
310
000000000000D50E00006662782F41393633353835312D344632462D344230382D423046372D3739314545314133324237412F617474726962757465732E62696E504B01021400140006080800CC70623B08DA0BD1900000004101000036000000000000000000000000002A0F00006662782F41393633353835312D344632
310
462D344230382D423046372D3739314545314133324237412F6469726563746F72792E786D6C504B01021400140006080800CC70623BEDD1DC58FD000000A00100003B000000000000000000000000000E1000006662782F41393633353835312D344632462D344230382D423046372D3739314545314133324237412F7265
310
736F75726365732F636F72652E786D6C504B0506000000000E000E0080040000641100000000
  0
XRECORD
  5
1F8
102
{ACAD_REACTORS
330
1F7
102
}
330
1F7
100
AcDbXrecord
280
     1
 70
     1
 90
429727718
  1
30362254-06B7-45E0-A893-8CFA70E3D6BC
310
504B03040A0000080000CC70623B3DEE336E79000000790000001B0000006175746F6465736B2D64657369676E2D7061636B6167652E786D6C3C3F786D6C2076657273696F6E3D22312E302220656E636F64696E673D227574662D3822203F3E3C666F726D6174733E3C666F726D61743E687474703A2F2F736368656D612E
310
6175746F6465736B2E636F6D2F64657369676E2D7061636B6167652F323030393C2F666F726D61743E3C2F666F726D6174733E504B0304140006080800CC70623BD486FD9CA0000000F4000000130000005B436F6E74656E745F54797065735D2E786D6C7D8EC10E82300C865F65E91D8A1E8C310C0EEA1BF002731658846E
310
D98AC1B77784ABF1D8FE5FBFBF75BBCE937A534CCEB38643598122B6FEE978D0B0485F9C41B54DDD7D022595594E1A469170414C76A4D9A4D207E29CF43ECE46F218070CC6BECC4078ACAA135ACF422C856C0E68EA1BF5669944DDD7BCDE7B1F8E415D77AECB980613C2E4AC91FC167A2B244592486606FC29C8FD7F045B9A
310
EF7053A7E60B504B0304140006080800CC70623B1EC5D7A3EB0000007C01000008000000636F72652E786D6C8D90416EC3201045AF82665B6103C6756C6122AB4D4ED00B204C5C94182C03558F5F9C3852BBEB6A467FFE9B197D71FC9E6FE8CBACC17AD7032D0820E3B41FAD9B7A48F1820F808E52ACDEC75F36404ECDA687
310
4D0629A6D5A76597B477D1B89855E747B38B2A041301E95B6E7A08FAD3CCAA50296647B8168BD2573599823EBB0CA76447F43862C7BCCF5EAC59410E4DDD9C7973C2755553CCCFA4C603E3040F1565ED3B1FDE4E432BCA0D9622DAF9795FAF464533826484B498524CD807E51D79ED187F21878E10516EF63F505AC67F42C9
310
BA58B1FDDD071640D2FCC87D2045B96591CB3DA85CB7DCE40F504B0304140006080800CC70623B55019EA25F0000007C00000007000000636E782E786D6C4DCB3B0E80201045D1AD90E915ED2CF8AC45050C11660C8261F98AB1B07AC9C97D42D718D865D3E909258CFD00CCE24AC6E326A164D74DC0B4128928FF32603847
310
2BA13128B1252AC747C6BAB984FC68F0B87FE8960A5C09FE86CFB69FBA01504B0304140006080800CC70623B8C9102E971010000D40300000C0000006662782F636F72652E786D6CC5535B6E833010BC8AE5DF0A6C08340F1947A84D4ED00B38C6A128602363A31CBFCB234A53A551FA553EC09AD9F5CE8C31DB9E9B1AF5CA
310
7695D1198E428A91D2D214952E33ECDD315861B4E5CC1AE3BE9561A445A3323CC098B3D21ADFCE9034DA29ED00D5A6503328BA4E398C640D8B0C77F253352214DE4145770A5B214FA2546114020D759C75CE8200340D19DE981F0F6746269C33EFAB6266AB02A655C74A59CCF365BADC27CB5D902ED22848F6340DF238A141
310
BE88E2F57B92BFEDF23523433367AE6A2EEAA455C2A902F398D2751045018D3FA264435F3771F242571B4A1919CA6F9A7C5B3CD9E42BED16F12C776AEB308F40C848FC700B1139D4891EF410CEC810227CC6846F8386402064270EF5C5C709A05E49676C024C61FC95EA45ED154CA5211D1FF4FB8291A913A68E9B83EBBB33
310
E2A7673CDE118E5AE8124C0807CB8377834E366998436B950D7A7746DAD846D4CFD978E0F04FD455FC5D49D2D4C6FE9722321F10997F0F32DC47FE05504B0304140006080800CC70623BFFEA85907E0000009D0000000B0000006662782F636E782E786D6C4DCCD10A83201886E15B91FFDC95D95A811AB6F23E625948A6C3
310
E9D8E5AF46073BFAE0E1E365ED67B3E8ADC3CB78C7815C7240DA3DFC64DCC221C519D7805AC182F7F1EF06C88D9BE6703008B6049F9E274D7A1E938DBB5AE3D6131B2589BA0D3D965551E0B2EA732C9B9A624AAEB41E3A557677029960D9AFB4EF11165F504B0304140006080800CC70623B4FEEA4082C0100001202000031
310
0000006662782F39464131463745442D413632322D343644302D413938332D3331353338454246344243312F636F72652E786D6C8D515B6EC32010BC0AE2AB55850DD871ED0813254D72825EC00192A2C460F1A872FC42ED48ED5F7E00CDCECCCEB26C731F6FE05B39AFADE921293004CA082BB5B9F43086336A21D870E6AC
310
0D7F68109861543DCC30E4ECE26C9C164858139409093556AA051CBC570102714B8F1E7AF1A5C6A11862480C7F2DA6415C878B2A4891CA89C7990F2E050073937C42DE1DB7E4F87ED8A36D4329AA9B3D46DBAEAD504556557BD81DEBDD0761E52CE42C462D17B996298E3E6BE59E35C962CE821E1FF18553435012728A7187
310
0841987E927A8D9B35ADDF70BBC6989599FE4F1427F9A4286A132ABAC49D651EF234CD5CE04CDA78BA3DC2A8FB645D00B9DF8B57E215725C60BCA2A463E54C4CE327C7A65E1C7DB02E7DEFCBF594B864C5CA6CDBD49C957943E9FA5D5FBAF336F90F504B0304140006080800CC70623BAD7543B64E01000033030000300000
310
006662782F39464131463745442D413632322D343644302D413938332D3331353338454246344243312F636E782E786D6CD593CD6EC32010845F0571AD6CE3D48AD20813A9873E410FBD12D82434182C7EAAE6EDBB2424CD25871E7B41D6EC30B3FA84F9E67BB2E40B4234DE8DB46F1925E094D7C6ED479AD3AE5951B2113C
310
789FEE6C943839C1488B4C05DF079FE72A69D8C96C13AAD6B8631503449F83828872B949AC57D26200B826A308D316B4064D6E46FCDA41C05550DC9E483A00797BFD207EFB092A45DE9514C1BBD22178396BD39D891265658C238DEA00936C654E5E433CB65A26D9F6EDB5EBC14EBF49A45CB856E66048291F6939A9A81BB5
310
C8917738143CA680F4AA299D66A042CEB3354A2684DC9D8D178FE0D9B8B41CAAD720F880EE7EF93C0C18769E099ECC04D5A102C8049A8A05632F4DDF376CF1DE0F6BB65C2F8627B65A33C6BB62177CEBBDAD973006829F89F22E814B54F4BC2BE347F8AA8F681390B50FA73F804400B5F542E796F19FF974E7F78DB802FE05
310
E207504B0304140006080800CC70623B16AB87BA640500003C100000340000006662782F39464131463745442D413632322D343644302D413938332D3331353338454246344243312F6F626A656374732E786D6CAD575B6FA33818FD2B887DE6924B3BED8A326A92B68A663B534DD4D13E548A0C38942D60649B369D5FBFC7
310
600890A493BDE42160637FD7F31D7FF63E6FB3D478A55C242CBF3247B66B1A340F5994E4F19559CA8D75611A9F7D8F33263BCB4C232719BD32D5B4E97B316765A1A722BA21652A07B3B7B33F0D11D29C9A46981221AE4C113ED38CD8A4942CA2E2C58E882476BCD9DA23BB5ED8171B73523C0F841684D35CC252CCE79062D4
310
468DFA43D7747CCF51DF7D4FFDEB5593E3AB9CCA9FBEFE241792E4E19EB28198C968BAB8199F5D5A67D3E9C49A9E8F47D6EC76B6B0469F26EEFC7C3EBFBCBEB98462213924694B38DD98FE1D62C393D073EA4FADC5DAF04326852CCF6958F90F0F2B9BB5C48816348F90C7840A68EB78EDF68723159BCEE7891A6B95DDE9D3
310
BCEAEEE8086A6C6F9E5D4B59F0175C10A7A0820BAA5055C7473B5AE3CFDD452D602CD5DF12616444529E90D448938013FE6EFA58AA96F85E4F8C42275708571E98FE6827AF6B2B4AE3D7D83D64E5A64C53054DD3AF90BD06FEA9149565C94FCA0F6B834DC85599E4F2423B24DF0B6AFA979E534DFA9E7A4CC6FA631D486393
310
921829879BF5D781A373557BCB85E97FB90DB62B558F8795179C15944B051F40AB495CF35451D26A4727654E6D8033BD98EF82F21D91FF8AF2DD9982BCF1643BDD4EB516C9492E368C67C88DED563FC36D5EACF66DFF057C3658BDBFA69DF9578B3DA735B64F18C7F20770A9D45CFCF7FCF563D6456A277DBEF78A02637CA2
310
43B90A490AEAB94F72244481D24819A6C0E59B606BFA4B3025981DBB48EAB701D97BF19C577CC77F2D1B6C55A9EF3C732474C0B727303F625995056C3B02963D9EAC146BE78EC5FCEC7FA999EBC5EACBAAE41B12D27B4D2C0BBA49F244E2ECDC81B76B502F113D8F5EE8FB1BE3111CDD4FC2AA9B844CAB1288B68AB90A7CDC
310
1C166AB0D3DC5310625FCC14E779BFD0709F8890A629C9292B1B2DED31A4B0DA928CEE135085754027E3018A397D4D5427D15BD1330B677DC8934285AC3DF45A9EB68FF8F2B8FC0A509AFEECFD0FF2DE25CC6047F7214B195F07EFEB9A094D800F7BFAE8FED187B78EA8A3A400F115961BCAD1215E47C966530AF0EE8128FE
310
58CEBB996A8964FFA529A046635D9353B0336A8F700DDF46271A024E70B0B37C9DE01847591E54DED53D54202AB947E4076556AC49C6CA5C9E1226B7F1A7B1BE15DEED62C41B91E1B3E9AFAAA735036547343A925075041DF0A9979E893B391F8FCFA6967B3EFB644DCF6E5CEBFAE272625DCC6FAF3FB93793C5F90CE1EF57
310
407342756B10D1C489E8953CD1617E5CEECAD6F4EF8914CE5D5D504E5C3F1F9736DA62CFC11E00BCDDB8CC8A9466349744C1F75EBDA4DF09BA8A9E8C7A7E9991989E20E5DBDD6A6003664ED8F7A04A8DBE0DF6EAD9B9AA858342E47399053949D2C146EDB85DE4B176BB0965FBAC19BD19AA918E27FA50C1D22402E144464C
310
59462568E704B6E71915404CB72B8FF4EDE184DDAF753F284990D2C6926782963815403548A70C657FDEF80D2D9CEAA2AE4C1C76F60BFE74219A06527D6582DF6412526107381E55E353090704D085B52408D0933C4ED159D79BDA71BB4BC506F4831350EB6F979CD22D69BF7AC49B91A2C0A9DDA3D5CA36AD20FC478E37E6
310
1844E2352865EBCB6EA275A652E3836BE04EFB400BF1A2556F515F1FBB35B2AB35BD889C744FFA1004B5544B121E57F70215746DD2F5E2C1412B602CBF19455AC6C8E5E9922C4E01E65215385004546899059180EAFCF7A707CE7017CD8CDB0410789AB32C63B91E5CEBBBACB17AC6CD347A022D5075FD106377347AAABA7E
310
7D11590744509B44E205134DC1290F06580320F78E537D3D73540E06CB970B431F185308AD40BBD794D6D77003C5A36E8EAA54BA64597CD8F83BD552A080A365F7FF06504B0304140006080000CC70623B000000000000000000000000350000006662782F39464131463745442D413632322D343644302D413938332D3331
310
353338454246344243312F76657274696365732E62696E504B0304140006080800CC70623BF270F1330600000004000000360000006662782F39464131463745442D413632322D343644302D413938332D3331353338454246344243312F747269616E676C65732E62696E636660600000504B0304140006080000CC70623B
310
000000000000000000000000370000006662782F39464131463745442D413632322D343644302D413938332D3331353338454246344243312F617474726962757465732E62696E504B0304140006080800CC70623B08DA0BD19000000041010000360000006662782F39464131463745442D413632322D343644302D413938
310
332D3331353338454246344243312F6469726563746F72792E786D6C858F410AC3201045AF22B36F53E9A60B35CBEEBAE80D244E44489C6234F4F835464A48035D0DF398FF9F8AF63D0E6CC63039F212F8F9020C7D47C6792B21C5FE7403D62A1188E2E60C98D7234A5830286103A55745067B9D86B8A3CF9C7F90C11DE607
310
FB144396D7B6A82D282E9A152AD114D5EF2CB866EEE831B8EEA07A7BB5A8D7D61A2BAAEB7FD5F70921FF497D00504B0304140006080800CC70623B0D6EF93BFE000000A00100003B0000006662782F39464131463745442D413632322D343644302D413938332D3331353338454246344243312F7265736F75726365732F63
310
6F72652E786D6C8D50596E833010BD0A9ADFCA60B334011947A8694ED00B586642AC041B79A97AFC9A40A5F6AF3F33A3B7689E1E3F7DCD8FEC139DD7D6F4C0720A191A65476DA61E62B892236427C19DB5E1970C322367EC618541F0C9D9B8EC90B226A009093576C41D94DE63804C3DD2D18357379C652E63480A7FCF17A9
310
EE72C29CE5894E3AC17D702940B63D59270887DE46A7D0F36263058F518FBB468FE9A7BE6A7420864373B8D4873369AA8691FA421B3294352543C5CAF65C0F6FEF43CB8BD52C78D0F34F46E550061C419494B6843142CB0F5677F4B52BEB177AEC28E5C52AFF638ACBF84F53D42654E51E77B379102C05791282176B5F693D
310
CB4C7BED567C03504B010214000A0000080000CC70623B3DEE336E79000000790000001B00000000000000000000000000000000006175746F6465736B2D64657369676E2D7061636B6167652E786D6C504B01021400140006080800CC70623BD486FD9CA0000000F40000001300000000000000000000000000B20000005B
310
436F6E74656E745F54797065735D2E786D6C504B01021400140006080800CC70623B1EC5D7A3EB0000007C010000080000000000000000000000000083010000636F72652E786D6C504B01021400140006080800CC70623B55019EA25F0000007C000000070000000000000000000000000094020000636E782E786D6C504B
310
01021400140006080800CC70623B8C9102E971010000D40300000C00000000000000000000000000180300006662782F636F72652E786D6C504B01021400140006080800CC70623BFFEA85907E0000009D0000000B00000000000000000000000000B30400006662782F636E782E786D6C504B01021400140006080800CC70
310
623B4FEEA4082C0100001202000031000000000000000000000000005A0500006662782F39464131463745442D413632322D343644302D413938332D3331353338454246344243312F636F72652E786D6C504B01021400140006080800CC70623BAD7543B64E010000330300003000000000000000000000000000D5060000
310
6662782F39464131463745442D413632322D343644302D413938332D3331353338454246344243312F636E782E786D6C504B01021400140006080800CC70623B16AB87BA640500003C1000003400000000000000000000000000710800006662782F39464131463745442D413632322D343644302D413938332D3331353338
310
454246344243312F6F626A656374732E786D6C504B01021400140006080000CC70623B0000000000000000000000003500000000000000000000000000270E00006662782F39464131463745442D413632322D343644302D413938332D3331353338454246344243312F76657274696365732E62696E504B01021400140006
310
080800CC70623BF270F133060000000400000036000000000000000000000000007A0E00006662782F39464131463745442D413632322D343644302D413938332D3331353338454246344243312F747269616E676C65732E62696E504B01021400140006080000CC70623B0000000000000000000000003700000000000000
310
000000000000D40E00006662782F39464131463745442D413632322D343644302D413938332D3331353338454246344243312F617474726962757465732E62696E504B01021400140006080800CC70623B08DA0BD190000000410100003600000000000000000000000000290F00006662782F39464131463745442D413632
310
322D343644302D413938332D3331353338454246344243312F6469726563746F72792E786D6C504B01021400140006080800CC70623B0D6EF93BFE000000A00100003B000000000000000000000000000D1000006662782F39464131463745442D413632322D343644302D413938332D3331353338454246344243312F7265
310
736F75726365732F636F72652E786D6C504B0506000000000E000E0080040000641100000000
  0
XRECORD
  5
175
102
{ACAD_REACTORS
330
173
102
}
330
173
100
AcDbXrecord
280
     1
270
     1
271
     1
  0
XRECORD
  5
174
102
{ACAD_REACTORS
330
173
102
}
330
173
100
AcDbXrecord
280
     1
270
     1
271
     1
  0
XRECORD
  5
1FB
102
{ACAD_REACTORS
330
173
102
}
330
173
100
AcDbXrecord
280
     1
 70
     0
 90
1673772943
  1
ECE7A1D2-D628-4531-984C-D00F80459256
310
504B03040A0000080000CC70623B3DEE336E79000000790000001B0000006175746F6465736B2D64657369676E2D7061636B6167652E786D6C3C3F786D6C2076657273696F6E3D22312E302220656E636F64696E673D227574662D3822203F3E3C666F726D6174733E3C666F726D61743E687474703A2F2F736368656D612E
310
6175746F6465736B2E636F6D2F64657369676E2D7061636B6167652F323030393C2F666F726D61743E3C2F666F726D6174733E504B0304140006080800CC70623BD486FD9CA0000000F4000000130000005B436F6E74656E745F54797065735D2E786D6C7D8EC10E82300C865F65E91D8A1E8C310C0EEA1BF002731658846E
310
D98AC1B77784ABF1D8FE5FBFBF75BBCE937A534CCEB38643598122B6FEE978D0B0485F9C41B54DDD7D022595594E1A469170414C76A4D9A4D207E29CF43ECE46F218070CC6BECC4078ACAA135ACF422C856C0E68EA1BF5669944DDD7BCDE7B1F8E415D77AECB980613C2E4AC91FC167A2B244592486606FC29C8FD7F045B9A
310
EF7053A7E60B504B0304140006080800CC70623BD9DDAED0EC0000007C01000008000000636F72652E786D6C8D90416EC3201045AF82665B61836D9CD8C2444DD39CA01740405C94182C03558F5F9C3852BBEB6A467FFE9B197D7EF89E6EE8CB2CC17A37002D0820E394D7D68D03A478C17B4007C117EFE32F1B20272733C0
310
2A83E0E3E2D3BC49CABB685CCCAAF3DA6CA20CC14440EA969B0182FA34932C648AD911AEC52CD5558EA6A0CF2EC329598D1E47ACCEFBECC59A050463A7EA5833865FEBDD0E37353BE3EE8DBDE3F6786A48D375FBF6CC78B9C282473B3DEFABC5C86834888A900E538A49F5419B9EB47DD5BC907D4F082F57FB1F28CDFA9F50
310
B22ED6D5F6EE030B20687EE43E10BC5CB3C8E51E54AE6B6EE207504B0304140006080800CC70623B55019EA25F0000007C00000007000000636E782E786D6C4DCB3B0E80201045D1AD90E915ED2CF8AC45050C11660C8261F98AB1B07AC9C97D42D718D865D3E909258CFD00CCE24AC6E326A164D74DC0B4128928FF326038
310
472BA13128B1252AC747C6BAB984FC68F0B87FE8960A5C09FE86CFB69FBA01504B0304140006080800CC70623BA24EB22D72010000D40300000C0000006662782F636F72652E786D6CC5535B6E833010BC8AE5DF0A6C5E49888CA3A6694ED00B38E05014B091B1518EDFE511A5A9D228FD2A1F60CDEC7A67C6986DCE4D8D7A
310
69BA4AAB0C073EC548AA5C17952A33ECECD15B61B4E1CC686DBF9561A44423333CC098B3D268D7CE50AE9595CA02AA74216750749DB418E5352C32DCE59FB211BE70162ABA93DF8AFC244AE9073ED050C759670D0840D390E18DF9F1706664C23973AE2A66B62A605A75ACA4C13C4976E1364A12EF355A2EBD384AF65EFA96
310
BC7B8BED2EA6719AAE16FB8491A199335B351775B991C2CA02F390D2D40B028F861F41BCA68B7518BFD0D59A524686F29B26D7164F36B94AD9289CE54E6D1DE6010819891F6E21228B3AD1831EC219194284CF98F06DD01008846CC5A1BEF83801D4CBDC6A1303536877A57A513B0953A94FC707FDBE6064EA84A9E3E6E0FA
310
EE8CF0E9198F7784A316AA0413C2C2F2E0ECA0934D1AE6D05A69BCDE9E91D2A611F573361E38FC1375157F5752AE6B6DFE4B11990F88CCBF0719EE23FF02504B0304140006080800CC70623B408A7D3B7C0000009D0000000B0000006662782F636E782E786D6C4DCCD10A83201886E15B91FFDC552A92A0064DBC8F581632
310
D3703A76F9ABD1C18E3E78F878E5F0D9027ABBFCF2292AE86E2D20171F69F6715550CB827B40839639A5F2770314A7CD293819B45C73AAFB45B35BA61ACAA1C1C7E7855C58C15BC331339661262CC762340413D68D77DA5B42298546CBE6573AF60CEB2F504B0304140006080800CC70623B449FB9BD290100001202000031
310
0000006662782F36394639363044362D344446342D343946362D394244322D3234314243333846323333332F636F72652E786D6C8D515B6EC32010BC0AE22B55850D98B871848994463E412FE002495162B07854397EA176A4F62F3F2C9A9D991D587EB84F37F0AD7D30CEF6905418026DA553C65E7A98E219ED203808EE9D
310
8B7F6810D871D23D2C3014FCE25D9A57483A1BB58D19B54EE9151C43D0110279CB971E06F9A5A7B11A53CC8C70ADE6515EC78BAE4895DB992778883E0700CB907242D17643D7E2538BD869608875438BBAE38922CAC8F1BDD90DB4691A5E2F42C153326A951B95E398B3D1FE599322163C9AE9115F7A3D46ADA0A018778810
310
84E907617BDCEE297BC5BB3DC6BC2EF47FA234AB2745C9D8D8D035EE220B50105E2F0DC1954B9FB747187D9F9D8FA0CCDB042D5FA0C015C65B42DF78BD10F3F3B363CB56C7109DCFDFBBB97E662ED92EB62D13BC2E1BCAE5777DB9966D8A1F504B0304140006080800CC70623BAD7543B64E01000033030000300000006662
310
782F36394639363044362D344446342D343946362D394244322D3234314243333846323333332F636E782E786D6CD593CD6EC32010845F0571AD6CE3D48AD20813A9873E410FBD12D82434182C7EAAE6EDBB2424CD25871E7B41D6EC30B3FA84F9E67BB2E40B4234DE8DB46F1925E094D7C6ED479AD3AE5951B2113C789FEE
310
6C943839C1488B4C05DF079FE72A69D8C96C13AAD6B8631503449F83828872B949AC57D26200B826A308D316B4064D6E46FCDA41C05550DC9E483A00797BFD207EFB092A45DE9514C1BBD22178396BD39D891265658C238DEA00936C654E5E433CB65A26D9F6EDB5EBC14EBF49A45CB856E66048291F6939A9A81BB5C89177
310
38143CA680F4AA299D66A042CEB3354A2684DC9D8D178FE0D9B8B41CAAD720F880EE7EF93C0C18769E099ECC04D5A102C8049A8A05632F4DDF376CF1DE0F6BB65C2F8627B65A33C6BB62177CEBBDAD973006829F89F22E814B54F4BC2BE347F8AA8F681390B50FA73F804400B5F542E796F19FF974E7F78DB802FE05E20750
310
4B0304140006080800CC70623B8D05915C650500003B100000340000006662782F36394639363044362D344446342D343946362D394244322D3234314243333846323333332F6F626A656374732E786D6CAD575B6FA33814FE2B887D06429276DA1565D4266D158D3A339A6846FB502932E050B66023DB74D2FDF5FB190C01
310
9276B2973C046C8ECFF53B17071F77456EBD502133CEAE6CDF9DD81665314F32965ED995DA3A17B6F5310C04E7AA47665B8C14F4CAD6DB7618A48257A5D94AE89654B91AEDDEDDFC61C998326A5B714EA4BCB265FC440BE2924AF184CA6737218AB8E976E7FA6E4338649B0A523E8D98964450A6A029F619B8588D52FE7039
310
B1BD30F0F4F730D0FF866AF6369557DB33949F31A9088B0F848DD8CCFCF9F2767A76E99CCDE733677E3EF59D9BBB9BA5E37F984D16E78BC5E5F5ED25044B25C0C96822E8D60EEFE11B91C581D77CEA34368A1F5329E68CD1B8B61F16D63A1B8E092D294B10C78C4A48EB593D192E7DED9BDEE7995E1B91FDEDD3ACEA9FE831
310
6A756F9F7D4D79F4274C90A7A04248AA51D5F8C718DAE06FB2F75AC4796EBE65D22A88A22223B995679120E2D50E41AA49C260C046A35368846B0BECD0DFF3EBEB8AD4F835768F69B9ADF25C43D30E6B646F807FAA64AD59F61715C7A54127C4AACA98BA3006A9D792DAE165E0D59B61A01FB3A9F9D838D2DAE62445C86166
310
F37564E842E7DE6A69879FEEA2DD5AE7E371E1A5E025154AC307D06A03D73EB5978C58FFA4C8E9033066E0F3BD53BEC1F39F91BE7B55103791EDE6BBB991A2046172CB4581D8B893FA674DDA17A77B3B7C413D1B511FD2743BFF8A38F03A658705E3ADF8015C3A3417FF3D7E439FF591DA0B5F18BC20C1B8981957AE6392A3
310
F43C640C01D1A0B4728E2DD4F26DB4B3C3152A252A3B4E913CEC1C72F012782FF88EFF8637AA552DBEF76408E8A8DE9E50F9E1CB3A2DA0DB1B6039A893B56063DC5B3E3FFB5F72E67AB9FEB4AEC496C4F4C1149625DD662C53E89D7BF0F6151A046260D1337DFDC94502430F83B0EE07A130A224BCAD7DAE1D9FB6CD422FF6
310
920702629C4BB9AE79C12F243C6432A6794E18E5552BA56B431AAB5D91317302B2B071E86C3A42B1A02F999E24061403B5D0EB639195DA655DD3EBEAB4FB862DDF579F014AD0E73C22F99E28DA57FB98E75C6CA2D74D53086D600F4786E0FE3144B771A8A7B900F03594DB8A633CBC49B2EDB69228BB479CF863B5E807AAAB
310
23872F6DFEB4129B949CA33823F58830E86D65621E10047D9DB34D862E8EAC3C2ABC2F7B2C40D67CDFE01F5545B92105AF983AC54D93D69E56FB8E797F88913F898A9FEC705D3F9D1B54EC8426FB500D40A03BD0119B06E1B95DDC7EB8F6975367793EBD70E66733DFB9BC982F9CE564727731999F5D4ECFCE3B8D6A4DC2A0
310
6D50FD148437D110834A64C6CDDF57FBACB5C307A2A477DFE4939736CFEF2B175371E0E10CF0DD1D5C15654E0BCA14D1E87DD02FF93782A162C0A3D95F1524A52770F972BF1EE9809D13CE7DD599467F8ECE9ADD85CE85A34CD45355448C64F9E8A031DC2D596ACC6E5DD93D9B82DE2EF5CAF81363A8E47996A0DE24564A79
310
4115AACE09C55E14540231FDA13C319787134EBF34E3A022514E5B4D9E0826E25C02D5805B15ABE1BEF51B26383D445DD9E875EE33FE4C22DA16427D65A3BCA92CA6D28DD01DF5DC53330704308475351050232CCD31583787BA75774AFB06E5070DD0C8EF484E19968C5D83BA5B90B244D31E54D55A372320FE4786B7EA58
310
44E135AA5467CB7EA333A61683CC6A8C3257034C10CF46F40EF9F5BE59BE5BD30C3C72D235E95D10345C1D45445A5F0BB47E46A5EBE5570F9380B5FA629579952296A773720405982B9DE04011506178964401AA8BDF1FBF0A8EAB6861DD6580C0E38217056766716DAEB2D6FA0917D3E4116581EADB879C4E7CFFB11EFACD
310
3D641311495D92C8676CB409A72D18610D803CE8A626049E8EC1887CB5B44CC39883690DDA8399B4B9855B481E7D71D4A9D22F96E5BB73BF5793020C02137BF837504B0304140006080000CC70623B000000000000000000000000350000006662782F36394639363044362D344446342D343946362D394244322D32343142
310
43333846323333332F76657274696365732E62696E504B0304140006080800CC70623BF270F1330600000004000000360000006662782F36394639363044362D344446342D343946362D394244322D3234314243333846323333332F747269616E676C65732E62696E636660600000504B0304140006080000CC70623B0000
310
00000000000000000000370000006662782F36394639363044362D344446342D343946362D394244322D3234314243333846323333332F617474726962757465732E62696E504B0304140006080800CC70623B08DA0BD19000000041010000360000006662782F36394639363044362D344446342D343946362D394244322D
310
3234314243333846323333332F6469726563746F72792E786D6C858F410AC3201045AF22B36F53E9A60B35CBEEBAE80D244E44489C6234F4F835464A48035D0DF398FF9F8AF63D0E6CC63039F212F8F9020C7D47C6792B21C5FE7403D62A1188E2E60C98D7234A5830286103A55745067B9D86B8A3CF9C7F90C11DE607FB14
310
4396D7B6A82D282E9A152AD114D5EF2CB866EEE831B8EEA07A7BB5A8D7D61A2BAAEB7FD5F70921FF497D00504B0304140006080800CC70623BCA768048FE000000A00100003B0000006662782F36394639363044362D344446342D343946362D394244322D3234314243333846323333332F7265736F75726365732F636F72
310
652E786D6C8D50596E833010BD0A9ADFCA60D600328E9AA639412F609909B1126CE4A5EAF16B0295DABFFECC8CDEA2797AECF8353F924FB44E193D409E5248504B332A3D0D10FC95B4901C39B3C6F85F3248B49871801506CE266BC2B243D2688FDA47549B11775038871E12F988C7004EDE7016A9083E2ADC3D5D84BC8B09
310
D33C8D74D471E6BC8D0192EDC93A815B742658898E651BCB59086ADC356A8C3FD555A1055ED7E7E254D615792D0F075295F585746FF53B694EE78A565DD736979A65AB9933AFE69F8CD2A2F038022F28ED489E135A7CE4554F9BBEA85E68DB53CAB255FEC71496F19FA6A0B42F8B3DEE6673C0F318E4497096AD7DC5F52C33
310
EEB55BFE0D504B010214000A0000080000CC70623B3DEE336E79000000790000001B00000000000000000000000000000000006175746F6465736B2D64657369676E2D7061636B6167652E786D6C504B01021400140006080800CC70623BD486FD9CA0000000F40000001300000000000000000000000000B20000005B436F
310
6E74656E745F54797065735D2E786D6C504B01021400140006080800CC70623BD9DDAED0EC0000007C010000080000000000000000000000000083010000636F72652E786D6C504B01021400140006080800CC70623B55019EA25F0000007C000000070000000000000000000000000095020000636E782E786D6C504B0102
310
1400140006080800CC70623BA24EB22D72010000D40300000C00000000000000000000000000190300006662782F636F72652E786D6C504B01021400140006080800CC70623B408A7D3B7C0000009D0000000B00000000000000000000000000B50400006662782F636E782E786D6C504B01021400140006080800CC70623B
310
449FB9BD290100001202000031000000000000000000000000005A0500006662782F36394639363044362D344446342D343946362D394244322D3234314243333846323333332F636F72652E786D6C504B01021400140006080800CC70623BAD7543B64E010000330300003000000000000000000000000000D20600006662
310
782F36394639363044362D344446342D343946362D394244322D3234314243333846323333332F636E782E786D6C504B01021400140006080800CC70623B8D05915C650500003B10000034000000000000000000000000006E0800006662782F36394639363044362D344446342D343946362D394244322D32343142433338
310
46323333332F6F626A656374732E786D6C504B01021400140006080000CC70623B0000000000000000000000003500000000000000000000000000250E00006662782F36394639363044362D344446342D343946362D394244322D3234314243333846323333332F76657274696365732E62696E504B010214001400060808
310
00CC70623BF270F13306000000040000003600000000000000000000000000780E00006662782F36394639363044362D344446342D343946362D394244322D3234314243333846323333332F747269616E676C65732E62696E504B01021400140006080000CC70623B00000000000000000000000037000000000000000000
310
00000000D20E00006662782F36394639363044362D344446342D343946362D394244322D3234314243333846323333332F617474726962757465732E62696E504B01021400140006080800CC70623B08DA0BD190000000410100003600000000000000000000000000270F00006662782F36394639363044362D344446342D
310
343946362D394244322D3234314243333846323333332F6469726563746F72792E786D6C504B01021400140006080800CC70623BCA768048FE000000A00100003B000000000000000000000000000B1000006662782F36394639363044362D344446342D343946362D394244322D3234314243333846323333332F7265736F
310
75726365732F636F72652E786D6C504B0506000000000E000E0080040000621100000000
  0
XRECORD
  5
176
102
{ACAD_REACTORS
330
173
102
}
330
173
100
AcDbXrecord
280
     1
270
     1
271
     1
  0
XRECORD
  5
177
102
{ACAD_REACTORS
330
173
102
}
330
173
100
AcDbXrecord
280
     1
270
     1
271
     1
  0
XRECORD
  5
6AB
102
{ACAD_REACTORS
330
6AA
102
}
330
6AA
100
AcDbXrecord
280
     1
102
DISPLAYNAME
  1
Imperial24
102
FLAGS
 90
        0
  0
XRECORD
  5
6A7
102
{ACAD_REACTORS
330
6A6
102
}
330
6A6
100
AcDbXrecord
280
     1
102
DISPLAYNAME
  1
Metric50
102
FLAGS
 90
        0
  0
CELLSTYLEMAP
  5
69C
102
{ACAD_REACTORS
330
162
102
}
330
162
100
AcDbCellStyleMap
 90
        3
300
CELLSTYLE
  1
TABLEFORMAT_BEGIN
 90
        5
170
     1
 91
        0
 92
    32768
 62
   257
 93
        1
300
CONTENTFORMAT
  1
CONTENTFORMAT_BEGIN
 90
        0
 91
        0
 92
      512
 93
        0
300

 40
0.0
140
1.0
 94
        5
 62
     0
340
11
144
6.0
309
CONTENTFORMAT_END
171
     1
301
MARGIN
  1
CELLMARGIN_BEGIN
 40
1.5
 40
1.5
 40
1.5
 40
1.5
 40
4.5
 40
4.5
309
CELLMARGIN_END
 94
        6
 95
        1
302
GRIDFORMAT
  1
GRIDFORMAT_BEGIN
 90
        0
 91
        1
 62
     0
 92
       -2
340
14
 93
        0
 40
1.125
309
GRIDFORMAT_END
 95
        2
302
GRIDFORMAT
  1
GRIDFORMAT_BEGIN
 90
        0
 91
        1
 62
     0
 92
       -2
340
14
 93
        0
 40
1.125
309
GRIDFORMAT_END
 95
        4
302
GRIDFORMAT
  1
GRIDFORMAT_BEGIN
 90
        0
 91
        1
 62
     0
 92
       -2
340
14
 93
        0
 40
1.125
309
GRIDFORMAT_END
 95
        8
302
GRIDFORMAT
  1
GRIDFORMAT_BEGIN
 90
        0
 91
        1
 62
     0
 92
       -2
340
14
 93
        0
 40
1.125
309
GRIDFORMAT_END
 95
       16
302
GRIDFORMAT
  1
GRIDFORMAT_BEGIN
 90
        0
 91
        1
 62
     0
 92
       -2
340
14
 93
        0
 40
1.125
309
GRIDFORMAT_END
 95
       32
302
GRIDFORMAT
  1
GRIDFORMAT_BEGIN
 90
        0
 91
        1
 62
     0
 92
       -2
340
14
 93
        0
 40
1.125
309
GRIDFORMAT_END
309
TABLEFORMAT_END
  1
CELLSTYLE_BEGIN
 90
        1
 91
        1
300
_TITLE
309
CELLSTYLE_END
300
CELLSTYLE
  1
TABLEFORMAT_BEGIN
 90
        5
170
     1
 91
        0
 92
        0
 62
   257
 93
        1
300
CONTENTFORMAT
  1
CONTENTFORMAT_BEGIN
 90
        0
 91
        0
 92
      512
 93
        0
300

 40
0.0
140
1.0
 94
        5
 62
     0
340
11
144
4.5
309
CONTENTFORMAT_END
171
     1
301
MARGIN
  1
CELLMARGIN_BEGIN
 40
1.5
 40
1.5
 40
1.5
 40
1.5
 40
4.5
 40
4.5
309
CELLMARGIN_END
 94
        6
 95
        1
302
GRIDFORMAT
  1
GRIDFORMAT_BEGIN
 90
        0
 91
        1
 62
     0
 92
       -2
340
14
 93
        0
 40
1.125
309
GRIDFORMAT_END
 95
        2
302
GRIDFORMAT
  1
GRIDFORMAT_BEGIN
 90
        0
 91
        1
 62
     0
 92
       -2
340
14
 93
        0
 40
1.125
309
GRIDFORMAT_END
 95
        4
302
GRIDFORMAT
  1
GRIDFORMAT_BEGIN
 90
        0
 91
        1
 62
     0
 92
       -2
340
14
 93
        0
 40
1.125
309
GRIDFORMAT_END
 95
        8
302
GRIDFORMAT
  1
GRIDFORMAT_BEGIN
 90
        0
 91
        1
 62
     0
 92
       -2
340
14
 93
        0
 40
1.125
309
GRIDFORMAT_END
 95
       16
302
GRIDFORMAT
  1
GRIDFORMAT_BEGIN
 90
        0
 91
        1
 62
     0
 92
       -2
340
14
 93
        0
 40
1.125
309
GRIDFORMAT_END
 95
       32
302
GRIDFORMAT
  1
GRIDFORMAT_BEGIN
 90
        0
 91
        1
 62
     0
 92
       -2
340
14
 93
        0
 40
1.125
309
GRIDFORMAT_END
309
TABLEFORMAT_END
  1
CELLSTYLE_BEGIN
 90
        2
 91
        1
300
_HEADER
309
CELLSTYLE_END
300
CELLSTYLE
  1
TABLEFORMAT_BEGIN
 90
        5
170
     1
 91
        0
 92
        0
 62
   257
 93
        1
300
CONTENTFORMAT
  1
CONTENTFORMAT_BEGIN
 90
        0
 91
        0
 92
      512
 93
        0
300

 40
0.0
140
1.0
 94
        2
 62
     0
340
11
144
4.5
309
CONTENTFORMAT_END
171
     1
301
MARGIN
  1
CELLMARGIN_BEGIN
 40
1.5
 40
1.5
 40
1.5
 40
1.5
 40
4.5
 40
4.5
309
CELLMARGIN_END
 94
        6
 95
        1
302
GRIDFORMAT
  1
GRIDFORMAT_BEGIN
 90
        0
 91
        1
 62
     0
 92
       -2
340
14
 93
        0
 40
1.125
309
GRIDFORMAT_END
 95
        2
302
GRIDFORMAT
  1
GRIDFORMAT_BEGIN
 90
        0
 91
        1
 62
     0
 92
       -2
340
14
 93
        0
 40
1.125
309
GRIDFORMAT_END
 95
        4
302
GRIDFORMAT
  1
GRIDFORMAT_BEGIN
 90
        0
 91
        1
 62
     0
 92
       -2
340
14
 93
        0
 40
1.125
309
GRIDFORMAT_END
 95
        8
302
GRIDFORMAT
  1
GRIDFORMAT_BEGIN
 90
        0
 91
        1
 62
     0
 92
       -2
340
14
 93
        0
 40
1.125
309
GRIDFORMAT_END
 95
       16
302
GRIDFORMAT
  1
GRIDFORMAT_BEGIN
 90
        0
 91
        1
 62
     0
 92
       -2
340
14
 93
        0
 40
1.125
309
GRIDFORMAT_END
 95
       32
302
GRIDFORMAT
  1
GRIDFORMAT_BEGIN
 90
        0
 91
        1
 62
     0
 92
       -2
340
14
 93
        0
 40
1.125
309
GRIDFORMAT_END
309
TABLEFORMAT_END
  1
CELLSTYLE_BEGIN
 90
        3
 91
        2
300
_DATA
309
CELLSTYLE_END
  0
ENDSEC
  0
SECTION
  2
ACDSDATA
 70
     2
 71
     8
  0
ACDSSCHEMA
 90
        0
  1
AcDb_Thumbnail_Schema
  2
AcDbDs::ID
280
    10
 91
        8
  2
Thumbnail_Data
280
    15
 91
        0
101
ACDSRECORD
 95
        0
 90
        1
  2
AcDbDs::TreatedAsObjectData
280
     1
291
     1
101
ACDSRECORD
 95
        0
 90
        2
  2
AcDbDs::Legacy
280
     1
291
     1
101
ACDSRECORD
  1
AcDbDs::ID
 90
        3
  2
AcDs:Indexable
280
     1
291
     1
101
ACDSRECORD
  1
AcDbDs::ID
 90
        4
  2
AcDbDs::HandleAttribute
280
     7
282
     1
  0
ACDSSCHEMA
 90
        1
  1
AcDbDs::TreatedAsObjectDataSchema
  2
AcDbDs::TreatedAsObjectData
280
     1
 91
        0
  0
ACDSSCHEMA
 90
        2
  1
AcDbDs::LegacySchema
  2
AcDbDs::Legacy
280
     1
 91
        0
  0
ACDSSCHEMA
 90
        3
  1
AcDbDs::IndexedPropertySchema
  2
AcDs:Indexable
280
     1
 91
        0
  0
ACDSSCHEMA
 90
        4
  1
AcDbDs::HandleAttributeSchema
  2
AcDbDs::HandleAttribute
280
     7
 91
        1
284
     1
  0
ACDSRECORD
 90
        0
  2
AcDbDs::ID
280
    10
320
22
  2
Thumbnail_Data
280
    15
 94
      896
310
89504E470D0A1A0A0000000D49484452000001000000009108030000001BE1960600000300504C5445212830FFFFFF2128300000000000000000000000000000000000000000000000000000330000660000990000CC0000FF0033000033330033660033990033CC0033FF0066000066330066660066990066CC0066FF0099
310
000099330099660099990099CC0099FF00CC0000CC3300CC6600CC9900CCCC00CCFF00FF0000FF3300FF6600FF9900FFCC00FFFF3300003300333300663300993300CC3300FF3333003333333333663333993333CC3333FF3366003366333366663366993366CC3366FF3399003399333399663399993399CC3399FF33CC00
310
33CC3333CC6633CC9933CCCC33CCFF33FF0033FF3333FF6633FF9933FFCC33FFFF6600006600336600666600996600CC6600FF6633006633336633666633996633CC6633FF6666006666336666666666996666CC6666FF6699006699336699666699996699CC6699FF66CC0066CC3366CC6666CC9966CCCC66CCFF66FF0066
310
FF3366FF6666FF9966FFCC66FFFF9900009900339900669900999900CC9900FF9933009933339933669933999933CC9933FF9966009966339966669966999966CC9966FF9999009999339999669999999999CC9999FF99CC0099CC3399CC6699CC9999CCCC99CCFF99FF0099FF3399FF6699FF9999FFCC99FFFFCC0000CC00
310
33CC0066CC0099CC00CCCC00FFCC3300CC3333CC3366CC3399CC33CCCC33FFCC6600CC6633CC6666CC6699CC66CCCC66FFCC9900CC9933CC9966CC9999CC99CCCC99FFCCCC00CCCC33CCCC66CCCC99CCCCCCCCCCFFCCFF00CCFF33CCFF66CCFF99CCFFCCCCFFFFFF0000FF0033FF0066FF0099FF00CCFF00FFFF3300FF3333
310
FF3366FF3399FF33CCFF33FFFF6600FF6633FF6666FF6699FF66CCFF66FFFF9900FF9933FF9966FF9999FF99CCFF99FFFFCC00FFCC33FFCC66FFCC99FFCCCCFFCCFFFFFF00FFFF33FFFF66FFFF99FFFFCCFFFFFF0000000D0D0D1A1A1A2828283535354343435050505D5D5D6B6B6B787878868686939393A1A1A1AEAEAEBB
310
BBBBC9C9C9D6D6D6E4E4E4F1F1F1FFFFFF0000000000000000000000000000000000000000000000000000000000002E4550F10000003B4944415478DAEDC13101000000C2A0F54F6D0B2FA0000000000000000000000000000000000000000000000000000000000000000000000000CE06919100016C9A5B1B0000000049
310
454E44AE426082
  0
ENDSEC
  0
EOF
