  0
SECTION
  2
HEADER
  9
$ACADVER
  1
AC1027
  9
$ACADMAINTVER
 70
   125
  9
$DWGCODEPAGE
  3
ANSI_1252
  9
$LASTSAVEDBY
  1
ufficio.tecnico
  9
$REQUIREDVERSIONS
160
                 0
  9
$INSBASE
 10
0.0
 20
0.0
 30
0.0
  9
$EXTMIN
 10
49.58103853875218
 20
332.064453125
 30
0.0
  9
$EXTMAX
 10
534.673828125
 20
489.8507721557534
 30
0.0
  9
$LIMMIN
 10
0.0
 20
0.0
  9
$LIMMAX
 10
12.0
 20
9.0
  9
$ORTHOMODE
 70
     0
  9
$REGENMODE
 70
     1
  9
$FILLMODE
 70
     1
  9
$QTEXTMODE
 70
     0
  9
$MIRRTEXT
 70
     1
  9
$LTSCALE
 40
1.0
  9
$ATTMODE
 70
     1
  9
$TEXTSIZE
 40
0.2
  9
$TRACEWID
 40
0.05
  9
$TEXTSTYLE
  7
Standard
  9
$CLAYER
  8
0
  9
$CELTYPE
  6
ByLayer
  9
$CECOLOR
 62
   256
  9
$CELTSCALE
 40
1.0
  9
$DISPSILH
 70
     0
  9
$DIMSCALE
 40
1.0
  9
$DIMASZ
 40
0.18
  9
$DIMEXO
 40
0.0625
  9
$DIMDLI
 40
0.38
  9
$DIMRND
 40
0.0
  9
$DIMDLE
 40
0.0
  9
$DIMEXE
 40
0.18
  9
$DIMTP
 40
0.0
  9
$DIMTM
 40
0.0
  9
$DIMTXT
 40
0.18
  9
$DIMCEN
 40
0.09
  9
$DIMTSZ
 40
0.0
  9
$DIMTOL
 70
     0
  9
$DIMLIM
 70
     0
  9
$DIMTIH
 70
     1
  9
$DIMTOH
 70
     1
  9
$DIMSE1
 70
     0
  9
$DIMSE2
 70
     0
  9
$DIMTAD
 70
     0
  9
$DIMZIN
 70
     0
  9
$DIMBLK
  1

  9
$DIMASO
 70
     1
  9
$DIMSHO
 70
     1
  9
$DIMPOST
  1

  9
$DIMAPOST
  1

  9
$DIMALT
 70
     0
  9
$DIMALTD
 70
     2
  9
$DIMALTF
 40
25.4
  9
$DIMLFAC
 40
1.0
  9
$DIMTOFL
 70
     0
  9
$DIMTVP
 40
0.0
  9
$DIMTIX
 70
     0
  9
$DIMSOXD
 70
     0
  9
$DIMSAH
 70
     0
  9
$DIMBLK1
  1

  9
$DIMBLK2
  1

  9
$DIMSTYLE
  2
Standard
  9
$DIMCLRD
 70
     0
  9
$DIMCLRE
 70
     0
  9
$DIMCLRT
 70
     0
  9
$DIMTFAC
 40
1.0
  9
$DIMGAP
 40
0.09
  9
$DIMJUST
 70
     0
  9
$DIMSD1
 70
     0
  9
$DIMSD2
 70
     0
  9
$DIMTOLJ
 70
     1
  9
$DIMTZIN
 70
     0
  9
$DIMALTZ
 70
     0
  9
$DIMALTTZ
 70
     0
  9
$DIMUPT
 70
     0
  9
$DIMDEC
 70
     4
  9
$DIMTDEC
 70
     4
  9
$DIMALTU
 70
     2
  9
$DIMALTTD
 70
     2
  9
$DIMTXSTY
  7
Standard
  9
$DIMAUNIT
 70
     0
  9
$DIMADEC
 70
     0
  9
$DIMALTRND
 40
0.0
  9
$DIMAZIN
 70
     0
  9
$DIMDSEP
 70
    46
  9
$DIMATFIT
 70
     3
  9
$DIMFRAC
 70
     0
  9
$DIMLDRBLK
  1

  9
$DIMLUNIT
 70
     2
  9
$DIMLWD
 70
    -2
  9
$DIMLWE
 70
    -2
  9
$DIMTMOVE
 70
     0
  9
$DIMFXL
 40
1.0
  9
$DIMFXLON
 70
     0
  9
$DIMJOGANG
 40
0.7853981633974483
  9
$DIMTFILL
 70
     0
  9
$DIMTFILLCLR
 70
     0
  9
$DIMARCSYM
 70
     0
  9
$DIMLTYPE
  6

  9
$DIMLTEX1
  6

  9
$DIMLTEX2
  6

  9
$DIMTXTDIRECTION
 70
     0
  9
$LUNITS
 70
     2
  9
$LUPREC
 70
     4
  9
$SKETCHINC
 40
0.1
  9
$FILLETRAD
 40
0.5
  9
$AUNITS
 70
     0
  9
$AUPREC
 70
     0
  9
$MENU
  1
.
  9
$ELEVATION
 40
0.0
  9
$PELEVATION
 40
0.0
  9
$THICKNESS
 40
0.0
  9
$LIMCHECK
 70
     0
  9
$CHAMFERA
 40
0.5
  9
$CHAMFERB
 40
0.5
  9
$CHAMFERC
 40
1.0
  9
$CHAMFERD
 40
0.0
  9
$SKPOLY
 70
     0
  9
$TDCREATE
 40
2459319.625879630
  9
$TDUCREATE
 40
2459319.542547778
  9
$TDUPDATE
 40
2459319.722743056
  9
$TDUUPDATE
 40
2459319.639409723
  9
$TDINDWG
 40
0.0006713079
  9
$TDUSRTIMER
 40
0.0006713079
  9
$USRTIMER
 70
     1
  9
$ANGBASE
 50
0.0
  9
$ANGDIR
 70
     0
  9
$PDMODE
 70
     0
  9
$PDSIZE
 40
0.0
  9
$PLINEWID
 40
0.0
  9
$SPLFRAME
 70
     0
  9
$SPLINETYPE
 70
     6
  9
$SPLINESEGS
 70
     8
  9
$HANDSEED
  5
29F
  9
$SURFTAB1
 70
     6
  9
$SURFTAB2
 70
     6
  9
$SURFTYPE
 70
     6
  9
$SURFU
 70
     6
  9
$SURFV
 70
     6
  9
$UCSBASE
  2

  9
$UCSNAME
  2

  9
$UCSORG
 10
0.0
 20
0.0
 30
0.0
  9
$UCSXDIR
 10
1.0
 20
0.0
 30
0.0
  9
$UCSYDIR
 10
0.0
 20
1.0
 30
0.0
  9
$UCSORTHOREF
  2

  9
$UCSORTHOVIEW
 70
     0
  9
$UCSORGTOP
 10
0.0
 20
0.0
 30
0.0
  9
$UCSORGBOTTOM
 10
0.0
 20
0.0
 30
0.0
  9
$UCSORGLEFT
 10
0.0
 20
0.0
 30
0.0
  9
$UCSORGRIGHT
 10
0.0
 20
0.0
 30
0.0
  9
$UCSORGFRONT
 10
0.0
 20
0.0
 30
0.0
  9
$UCSORGBACK
 10
0.0
 20
0.0
 30
0.0
  9
$PUCSBASE
  2

  9
$PUCSNAME
  2

  9
$PUCSORG
 10
0.0
 20
0.0
 30
0.0
  9
$PUCSXDIR
 10
1.0
 20
0.0
 30
0.0
  9
$PUCSYDIR
 10
0.0
 20
1.0
 30
0.0
  9
$PUCSORTHOREF
  2

  9
$PUCSORTHOVIEW
 70
     0
  9
$PUCSORGTOP
 10
0.0
 20
0.0
 30
0.0
  9
$PUCSORGBOTTOM
 10
0.0
 20
0.0
 30
0.0
  9
$PUCSORGLEFT
 10
0.0
 20
0.0
 30
0.0
  9
$PUCSORGRIGHT
 10
0.0
 20
0.0
 30
0.0
  9
$PUCSORGFRONT
 10
0.0
 20
0.0
 30
0.0
  9
$PUCSORGBACK
 10
0.0
 20
0.0
 30
0.0
  9
$USERI1
 70
     0
  9
$USERI2
 70
     0
  9
$USERI3
 70
     0
  9
$USERI4
 70
     0
  9
$USERI5
 70
     0
  9
$USERR1
 40
0.0
  9
$USERR2
 40
0.0
  9
$USERR3
 40
0.0
  9
$USERR4
 40
0.0
  9
$USERR5
 40
0.0
  9
$WORLDVIEW
 70
     1
  9
$SHADEDGE
 70
     3
  9
$SHADEDIF
 70
    70
  9
$TILEMODE
 70
     1
  9
$MAXACTVP
 70
    64
  9
$PINSBASE
 10
0.0
 20
0.0
 30
0.0
  9
$PLIMCHECK
 70
     0
  9
$PEXTMIN
 10
1.000000000000000E+20
 20
1.000000000000000E+20
 30
1.000000000000000E+20
  9
$PEXTMAX
 10
-1.000000000000000E+20
 20
-1.000000000000000E+20
 30
-1.000000000000000E+20
  9
$PLIMMIN
 10
0.0
 20
0.0
  9
$PLIMMAX
 10
12.0
 20
9.0
  9
$UNITMODE
 70
     0
  9
$VISRETAIN
 70
     1
  9
$PLINEGEN
 70
     0
  9
$PSLTSCALE
 70
     1
  9
$TREEDEPTH
 70
  3020
  9
$CMLSTYLE
  2
Standard
  9
$CMLJUST
 70
     0
  9
$CMLSCALE
 40
1.0
  9
$PROXYGRAPHICS
 70
     1
  9
$MEASUREMENT
 70
     0
  9
$CELWEIGHT
370
    -1
  9
$ENDCAPS
280
     0
  9
$JOINSTYLE
280
     0
  9
$LWDISPLAY
290
     1
  9
$INSUNITS
 70
     0
  9
$HYPERLINKBASE
  1

  9
$STYLESHEET
  1

  9
$XEDIT
290
     1
  9
$CEPSNTYPE
380
     0
  9
$PSTYLEMODE
290
     1
  9
$FINGERPRINTGUID
  2
{548EB3FB-6A27-4409-A753-9E6A9200D3DE}
  9
$VERSIONGUID
  2
{601D5625-A9C2-264C-810B-47E6A771FCC0}
  9
$EXTNAMES
290
     1
  9
$PSVPSCALE
 40
0.0
  9
$OLESTARTUP
290
     0
  9
$SORTENTS
280
   127
  9
$INDEXCTL
280
     0
  9
$HIDETEXT
280
     1
  9
$XCLIPFRAME
280
     2
  9
$HALOGAP
280
     0
  9
$OBSCOLOR
 70
   257
  9
$OBSLTYPE
280
     0
  9
$INTERSECTIONDISPLAY
280
     0
  9
$INTERSECTIONCOLOR
 70
   257
  9
$DIMASSOC
280
     2
  9
$PROJECTNAME
  1

  9
$CAMERADISPLAY
290
     0
  9
$LENSLENGTH
 40
50.0
  9
$CAMERAHEIGHT
 40
0.0
  9
$STEPSPERSEC
 40
2.0
  9
$STEPSIZE
 40
6.0
  9
$3DDWFPREC
 40
2.0
  9
$PSOLWIDTH
 40
0.25
  9
$PSOLHEIGHT
 40
4.0
  9
$LOFTANG1
 40
1.570796326794897
  9
$LOFTANG2
 40
1.570796326794897
  9
$LOFTMAG1
 40
0.0
  9
$LOFTMAG2
 40
0.0
  9
$LOFTPARAM
 70
     7
  9
$LOFTNORMALS
280
     1
  9
$LATITUDE
 40
37.795
  9
$LONGITUDE
 40
-122.394
  9
$NORTHDIRECTION
 40
0.0
  9
$TIMEZONE
 70
 -8000
  9
$LIGHTGLYPHDISPLAY
280
     1
  9
$TILEMODELIGHTSYNCH
280
     1
  9
$CMATERIAL
347
3C
  9
$SOLIDHIST
280
     1
  9
$SHOWHIST
280
     1
  9
$DWFFRAME
280
     2
  9
$DGNFRAME
280
     2
  9
$REALWORLDSCALE
290
     1
  9
$INTERFERECOLOR
 62
   256
  9
$INTERFEREOBJVS
345
33
  9
$INTERFEREVPVS
346
1B0
  9
$CSHADOW
280
     0
  9
$SHADOWPLANELOCATION
 40
0.0
  0
ENDSEC
  0
SECTION
  2
CLASSES
  0
CLASS
  1
ACDBDICTIONARYWDFLT
  2
AcDbDictionaryWithDefault
  3
ObjectDBX Classes
 90
        0
 91
        1
280
     0
281
     0
  0
CLASS
  1
VISUALSTYLE
  2
AcDbVisualStyle
  3
ObjectDBX Classes
 90
     4095
 91
       26
280
     0
281
     0
  0
CLASS
  1
MATERIAL
  2
AcDbMaterial
  3
ObjectDBX Classes
 90
     1153
 91
        3
280
     0
281
     0
  0
CLASS
  1
SUN
  2
AcDbSun
  3
SCENEOE
 90
     1153
 91
        1
280
     0
281
     0
  0
CLASS
  1
TABLESTYLE
  2
AcDbTableStyle
  3
ObjectDBX Classes
 90
     4095
 91
        1
280
     0
281
     0
  0
CLASS
  1
SCALE
  2
AcDbScale
  3
ObjectDBX Classes
 90
     1153
 91
       21
280
     0
281
     0
  0
CLASS
  1
MLEADERSTYLE
  2
AcDbMLeaderStyle
  3
ACDB_MLEADERSTYLE_CLASS
 90
     4095
 91
        1
280
     0
281
     0
  0
CLASS
  1
ACDBSECTIONVIEWSTYLE
  2
AcDbSectionViewStyle
  3
ObjectDBX Classes
 90
     1025
 91
        1
280
     0
281
     0
  0
CLASS
  1
ACDBDETAILVIEWSTYLE
  2
AcDbDetailViewStyle
  3
ObjectDBX Classes
 90
     1025
 91
        1
280
     0
281
     0
  0
CLASS
  1
SORTENTSTABLE
  2
AcDbSortentsTable
  3
ObjectDBX Classes
 90
        0
 91
        1
280
     0
281
     0
  0
CLASS
  1
DICTIONARYVAR
  2
AcDbDictionaryVar
  3
ObjectDBX Classes
 90
        0
 91
        5
280
     0
281
     0
  0
CLASS
  1
CELLSTYLEMAP
  2
AcDbCellStyleMap
  3
ObjectDBX Classes
 90
     1152
 91
        1
280
     0
281
     0
  0
ENDSEC
  0
SECTION
  2
TABLES
  0
TABLE
  2
VPORT
  5
8
330
0
100
AcDbSymbolTable
 70
     1
1001
ACAD
1000
DbSaveVer
1071
      105
  0
VPORT
  5
29
330
8
100
AcDbSymbolTableRecord
100
AcDbViewportTableRecord
  2
*Active
 70
     0
 10
0.0
 20
0.0
 11
1.0
 21
1.0
 12
357.8487706572307
 22
-7.380795478208654
 13
0.0
 23
0.0
 14
0.5
 24
0.5
 15
0.5
 25
0.5
 16
0.0
 26
0.0
 36
1.0
 17
297.6379999999998
 27
420.9450000000002
 37
0.0
 40
809.7876712690965
 41
2.113286713286713
 42
50.0
 43
0.0
 44
0.0
 50
0.0
 51
0.0
 71
     0
 72
   100
 73
     1
 74
     3
 75
     0
 76
     0
 77
     0
 78
     0
281
     0
 65
     1
110
0.0
120
0.0
130
0.0
111
1.0
121
0.0
131
0.0
112
0.0
122
1.0
132
0.0
 79
     0
146
0.0
348
2F
 60
     3
 61
     5
292
     1
282
     1
141
0.0
142
0.0
 63
   250
361
3F
1001
ACAD_NAV_VCDISPLAY
1070
     3
  0
ENDTAB
  0
TABLE
  2
LTYPE
  5
5
330
0
100
AcDbSymbolTable
 70
     1
  0
LTYPE
  5
14
330
5
100
AcDbSymbolTableRecord
100
AcDbLinetypeTableRecord
  2
ByBlock
 70
     0
  3

 72
    65
 73
     0
 40
0.0
  0
LTYPE
  5
15
330
5
100
AcDbSymbolTableRecord
100
AcDbLinetypeTableRecord
  2
ByLayer
 70
     0
  3

 72
    65
 73
     0
 40
0.0
  0
LTYPE
  5
16
330
5
100
AcDbSymbolTableRecord
100
AcDbLinetypeTableRecord
  2
Continuous
 70
     0
  3
Solid line
 72
    65
 73
     0
 40
0.0
  0
ENDTAB
  0
TABLE
  2
LAYER
  5
2
330
0
100
AcDbSymbolTable
 70
     2
  0
LAYER
  5
10
330
2
100
AcDbSymbolTableRecord
100
AcDbLayerTableRecord
  2
0
 70
     0
 62
     7
  6
Continuous
370
    -3
390
F
347
3E
348
0
  0
LAYER
  5
86
330
2
100
AcDbSymbolTableRecord
100
AcDbLayerTableRecord
  2
Livello 1
 70
     0
 62
     7
  6
Continuous
370
    -3
390
F
347
3E
348
0
  0
ENDTAB
  0
TABLE
  2
STYLE
  5
3
330
0
100
AcDbSymbolTable
 70
     1
  0
STYLE
  5
11
330
3
100
AcDbSymbolTableRecord
100
AcDbTextStyleTableRecord
  2
Standard
 70
     0
 40
0.0
 41
1.0
 50
0.0
 71
     0
 42
0.2
  3
txt
  4

  0
ENDTAB
  0
TABLE
  2
VIEW
  5
6
330
0
100
AcDbSymbolTable
 70
     0
  0
ENDTAB
  0
TABLE
  2
UCS
  5
7
330
0
100
AcDbSymbolTable
 70
     0
  0
ENDTAB
  0
TABLE
  2
APPID
  5
9
330
0
100
AcDbSymbolTable
 70
     2
  0
APPID
  5
12
330
9
100
AcDbSymbolTableRecord
100
AcDbRegAppTableRecord
  2
ACAD
 70
     0
  0
APPID
  5
297
330
9
100
AcDbSymbolTableRecord
100
AcDbRegAppTableRecord
  2
ACAD_NAV_VCDISPLAY
 70
     0
  0
ENDTAB
  0
TABLE
  2
DIMSTYLE
  5
A
330
0
100
AcDbSymbolTable
 70
     1
100
AcDbDimStyleTable
 71
     0
  0
DIMSTYLE
105
27
330
A
100
AcDbSymbolTableRecord
100
AcDbDimStyleTableRecord
  2
Standard
 70
     0
340
11
  0
ENDTAB
  0
TABLE
  2
BLOCK_RECORD
  5
1
330
0
100
AcDbSymbolTable
 70
    45
  0
BLOCK_RECORD
  5
1F
102
{ACAD_XDICTIONARY
360
1DA
102
}
330
1
100
AcDbSymbolTableRecord
100
AcDbBlockTableRecord
  2
*Model_Space
340
22
 70
     0
280
     1
281
     0
  0
BLOCK_RECORD
  5
1B
330
1
100
AcDbSymbolTableRecord
100
AcDbBlockTableRecord
  2
*Paper_Space
340
1E
 70
     0
280
     1
281
     0
  0
BLOCK_RECORD
  5
23
330
1
100
AcDbSymbolTableRecord
100
AcDbBlockTableRecord
  2
*Paper_Space0
340
26
 70
     0
280
     1
281
     0
  0
BLOCK_RECORD
  5
40
330
1
100
AcDbSymbolTableRecord
100
AcDbBlockTableRecord
  2
block 2
340
0
 70
     0
280
     1
281
     0
  0
BLOCK_RECORD
  5
48
330
1
100
AcDbSymbolTableRecord
100
AcDbBlockTableRecord
  2
block 3
340
0
 70
     0
280
     1
281
     0
  0
BLOCK_RECORD
  5
50
330
1
100
AcDbSymbolTableRecord
100
AcDbBlockTableRecord
  2
block 4
340
0
 70
     0
280
     1
281
     0
  0
BLOCK_RECORD
  5
5B
330
1
100
AcDbSymbolTableRecord
100
AcDbBlockTableRecord
  2
block 5
340
0
 70
     0
280
     1
281
     0
  0
BLOCK_RECORD
  5
63
330
1
100
AcDbSymbolTableRecord
100
AcDbBlockTableRecord
  2
block 6
340
0
 70
     0
280
     1
281
     0
  0
BLOCK_RECORD
  5
6B
330
1
100
AcDbSymbolTableRecord
100
AcDbBlockTableRecord
  2
block 7
340
0
 70
     0
280
     1
281
     0
  0
BLOCK_RECORD
  5
76
330
1
100
AcDbSymbolTableRecord
100
AcDbBlockTableRecord
  2
block 8
340
0
 70
     0
280
     1
281
     0
  0
BLOCK_RECORD
  5
7E
330
1
100
AcDbSymbolTableRecord
100
AcDbBlockTableRecord
  2
block 9
340
0
 70
     0
280
     1
281
     0
  0
BLOCK_RECORD
  5
87
330
1
100
AcDbSymbolTableRecord
100
AcDbBlockTableRecord
  2
block 10
340
0
 70
     0
280
     1
281
     0
  0
BLOCK_RECORD
  5
92
330
1
100
AcDbSymbolTableRecord
100
AcDbBlockTableRecord
  2
block 11
340
0
 70
     0
280
     1
281
     0
  0
BLOCK_RECORD
  5
9A
330
1
100
AcDbSymbolTableRecord
100
AcDbBlockTableRecord
  2
block 12
340
0
 70
     0
280
     1
281
     0
  0
BLOCK_RECORD
  5
A2
330
1
100
AcDbSymbolTableRecord
100
AcDbBlockTableRecord
  2
block 13
340
0
 70
     0
280
     1
281
     0
  0
BLOCK_RECORD
  5
AA
330
1
100
AcDbSymbolTableRecord
100
AcDbBlockTableRecord
  2
block 14
340
0
 70
     0
280
     1
281
     0
  0
BLOCK_RECORD
  5
B2
330
1
100
AcDbSymbolTableRecord
100
AcDbBlockTableRecord
  2
block 15
340
0
 70
     0
280
     1
281
     0
  0
BLOCK_RECORD
  5
BA
330
1
100
AcDbSymbolTableRecord
100
AcDbBlockTableRecord
  2
block 16
340
0
 70
     0
280
     1
281
     0
  0
BLOCK_RECORD
  5
C2
330
1
100
AcDbSymbolTableRecord
100
AcDbBlockTableRecord
  2
block 17
340
0
 70
     0
280
     1
281
     0
  0
BLOCK_RECORD
  5
C7
330
1
100
AcDbSymbolTableRecord
100
AcDbBlockTableRecord
  2
block 18
340
0
 70
     0
280
     1
281
     0
  0
BLOCK_RECORD
  5
CC
330
1
100
AcDbSymbolTableRecord
100
AcDbBlockTableRecord
  2
block 19
340
0
 70
     0
280
     1
281
     0
  0
BLOCK_RECORD
  5
D1
330
1
100
AcDbSymbolTableRecord
100
AcDbBlockTableRecord
  2
block 20
340
0
 70
     0
280
     1
281
     0
  0
BLOCK_RECORD
  5
D6
330
1
100
AcDbSymbolTableRecord
100
AcDbBlockTableRecord
  2
block 21
340
0
 70
     0
280
     1
281
     0
  0
BLOCK_RECORD
  5
DB
330
1
100
AcDbSymbolTableRecord
100
AcDbBlockTableRecord
  2
block 22
340
0
 70
     0
280
     1
281
     0
  0
BLOCK_RECORD
  5
E3
330
1
100
AcDbSymbolTableRecord
100
AcDbBlockTableRecord
  2
block 23
340
0
 70
     0
280
     1
281
     0
  0
BLOCK_RECORD
  5
EB
330
1
100
AcDbSymbolTableRecord
100
AcDbBlockTableRecord
  2
block 24
340
0
 70
     0
280
     1
281
     0
  0
BLOCK_RECORD
  5
F5
330
1
100
AcDbSymbolTableRecord
100
AcDbBlockTableRecord
  2
block 25
340
0
 70
     0
280
     1
281
     0
  0
BLOCK_RECORD
  5
FA
330
1
100
AcDbSymbolTableRecord
100
AcDbBlockTableRecord
  2
block 26
340
0
 70
     0
280
     1
281
     0
  0
BLOCK_RECORD
  5
106
330
1
100
AcDbSymbolTableRecord
100
AcDbBlockTableRecord
  2
block 27
340
0
 70
     0
280
     1
281
     0
  0
BLOCK_RECORD
  5
111
330
1
100
AcDbSymbolTableRecord
100
AcDbBlockTableRecord
  2
block 28
340
0
 70
     0
280
     1
281
     0
  0
BLOCK_RECORD
  5
119
330
1
100
AcDbSymbolTableRecord
100
AcDbBlockTableRecord
  2
block 29
340
0
 70
     0
280
     1
281
     0
  0
BLOCK_RECORD
  5
121
330
1
100
AcDbSymbolTableRecord
100
AcDbBlockTableRecord
  2
block 30
340
0
 70
     0
280
     1
281
     0
  0
BLOCK_RECORD
  5
129
330
1
100
AcDbSymbolTableRecord
100
AcDbBlockTableRecord
  2
block 31
340
0
 70
     0
280
     1
281
     0
  0
BLOCK_RECORD
  5
131
330
1
100
AcDbSymbolTableRecord
100
AcDbBlockTableRecord
  2
block 32
340
0
 70
     0
280
     1
281
     0
  0
BLOCK_RECORD
  5
139
330
1
100
AcDbSymbolTableRecord
100
AcDbBlockTableRecord
  2
block 33
340
0
 70
     0
280
     1
281
     0
  0
BLOCK_RECORD
  5
141
330
1
100
AcDbSymbolTableRecord
100
AcDbBlockTableRecord
  2
block 34
340
0
 70
     0
280
     1
281
     0
  0
BLOCK_RECORD
  5
146
330
1
100
AcDbSymbolTableRecord
100
AcDbBlockTableRecord
  2
block 35
340
0
 70
     0
280
     1
281
     0
  0
BLOCK_RECORD
  5
14B
330
1
100
AcDbSymbolTableRecord
100
AcDbBlockTableRecord
  2
block 36
340
0
 70
     0
280
     1
281
     0
  0
BLOCK_RECORD
  5
150
330
1
100
AcDbSymbolTableRecord
100
AcDbBlockTableRecord
  2
block 37
340
0
 70
     0
280
     1
281
     0
  0
BLOCK_RECORD
  5
155
330
1
100
AcDbSymbolTableRecord
100
AcDbBlockTableRecord
  2
block 38
340
0
 70
     0
280
     1
281
     0
  0
BLOCK_RECORD
  5
15A
330
1
100
AcDbSymbolTableRecord
100
AcDbBlockTableRecord
  2
block 39
340
0
 70
     0
280
     1
281
     0
  0
BLOCK_RECORD
  5
162
330
1
100
AcDbSymbolTableRecord
100
AcDbBlockTableRecord
  2
block 40
340
0
 70
     0
280
     1
281
     0
  0
BLOCK_RECORD
  5
16A
330
1
100
AcDbSymbolTableRecord
100
AcDbBlockTableRecord
  2
block 41
340
0
 70
     0
280
     1
281
     0
  0
BLOCK_RECORD
  5
174
330
1
100
AcDbSymbolTableRecord
100
AcDbBlockTableRecord
  2
block 42
340
0
 70
     0
280
     1
281
     0
  0
BLOCK_RECORD
  5
179
330
1
100
AcDbSymbolTableRecord
100
AcDbBlockTableRecord
  2
block 43
340
0
 70
     0
280
     1
281
     0
  0
BLOCK_RECORD
  5
18D
330
1
100
AcDbSymbolTableRecord
100
AcDbBlockTableRecord
  2
block 44
340
0
 70
     0
280
     1
281
     0
  0
BLOCK_RECORD
  5
19A
330
1
100
AcDbSymbolTableRecord
100
AcDbBlockTableRecord
  2
block 45
340
0
 70
     0
280
     1
281
     0
  0
ENDTAB
  0
ENDSEC
  0
SECTION
  2
BLOCKS
  0
BLOCK
  5
20
330
1F
100
AcDbEntity
  8
0
100
AcDbBlockBegin
  2
*Model_Space
 70
     0
 10
0.0
 20
0.0
 30
0.0
  3
*Model_Space
  1

  0
ENDBLK
  5
21
330
1F
100
AcDbEntity
  8
0
100
AcDbBlockEnd
  0
BLOCK
  5
1C
330
1B
100
AcDbEntity
 67
     1
  8
0
100
AcDbBlockBegin
  2
*Paper_Space
 70
     0
 10
0.0
 20
0.0
 30
0.0
  3
*Paper_Space
  1

  0
ENDBLK
  5
1D
330
1B
100
AcDbEntity
 67
     1
  8
0
100
AcDbBlockEnd
  0
BLOCK
  5
24
330
23
100
AcDbEntity
 67
     1
  8
0
100
AcDbBlockBegin
  2
*Paper_Space0
 70
     0
 10
0.0
 20
0.0
 30
0.0
  3
*Paper_Space0
  1

  0
ENDBLK
  5
25
330
23
100
AcDbEntity
 67
     1
  8
0
100
AcDbBlockEnd
  0
BLOCK
  5
42
330
40
100
AcDbEntity
  8
0
100
AcDbBlockBegin
  2
block 2
 70
     0
 10
0.0
 20
0.0
 30
0.0
  3
block 2
  1

  0
POLYLINE
  5
44
330
40
100
AcDbEntity
  8
0
 62
     7
420
 16777215
370
    53
100
AcDb2dPolyline
 66
     1
 10
0.0
 20
0.0
 30
0.0
  0
VERTEX
  5
45
330
44
100
AcDbEntity
  8
0
 62
     7
420
 16777215
370
    53
100
AcDbVertex
100
AcDb2dVertex
 10
305.7017594391236
 20
489.8507721557534
 30
0.0
  0
VERTEX
  5
46
330
44
100
AcDbEntity
  8
0
 62
     7
420
 16777215
370
    53
100
AcDbVertex
100
AcDb2dVertex
 10
236.6367026932812
 20
384.8464614473451
 30
0.0
  0
SEQEND
  5
47
330
44
100
AcDbEntity
  8
0
 62
     7
420
 16777215
370
    53
  0
ENDBLK
  5
43
330
40
100
AcDbEntity
  8
0
100
AcDbBlockEnd
  0
BLOCK
  5
4A
330
48
100
AcDbEntity
  8
0
100
AcDbBlockBegin
  2
block 3
 70
     0
 10
0.0
 20
0.0
 30
0.0
  3
block 3
  1

  0
POLYLINE
  5
4C
330
48
100
AcDbEntity
  8
0
 62
     7
420
 16777215
370
    53
100
AcDb2dPolyline
 66
     1
 10
0.0
 20
0.0
 30
0.0
  0
VERTEX
  5
4D
330
4C
100
AcDbEntity
  8
0
 62
     7
420
 16777215
370
    53
100
AcDbVertex
100
AcDb2dVertex
 10
314.7892653010458
 20
489.2892522387173
 30
0.0
  0
VERTEX
  5
4E
330
4C
100
AcDbEntity
  8
0
 62
     7
420
 16777215
370
    53
100
AcDbVertex
100
AcDb2dVertex
 10
245.7242085552043
 20
384.2849415303099
 30
0.0
  0
SEQEND
  5
4F
330
4C
100
AcDbEntity
  8
0
 62
     7
420
 16777215
370
    53
  0
ENDBLK
  5
4B
330
48
100
AcDbEntity
  8
0
100
AcDbBlockEnd
  0
BLOCK
  5
52
330
50
100
AcDbEntity
  8
0
100
AcDbBlockBegin
  2
block 4
 70
     0
 10
0.0
 20
0.0
 30
0.0
  3
block 4
  1

  0
POLYLINE
  5
54
330
50
100
AcDbEntity
  8
0
 62
     7
420
 16777215
370
    53
100
AcDb2dPolyline
 66
     1
 10
0.0
 20
0.0
 30
0.0
  0
VERTEX
  5
55
330
54
100
AcDbEntity
  8
0
 62
     7
420
 16777215
370
    53
100
AcDbVertex
100
AcDb2dVertex
 10
491.9831175150121
 20
463.6195059305737
 30
0.0
  0
VERTEX
  5
56
330
54
100
AcDbEntity
  8
0
 62
     7
420
 16777215
370
    53
100
AcDbVertex
100
AcDb2dVertex
 10
499.8419190720723
 20
463.6195059305737
 30
0.0
  0
VERTEX
  5
57
330
54
100
AcDbEntity
  8
0
 62
     7
420
 16777215
370
    53
100
AcDbVertex
100
AcDb2dVertex
 10
499.8419190720723
 20
413.1729897303339
 30
0.0
  0
VERTEX
  5
58
330
54
100
AcDbEntity
  8
0
 62
     7
420
 16777215
370
    53
100
AcDbVertex
100
AcDb2dVertex
 10
491.9831175150121
 20
413.1729897303339
 30
0.0
  0
VERTEX
  5
59
330
54
100
AcDbEntity
  8
0
 62
     7
420
 16777215
370
    53
100
AcDbVertex
100
AcDb2dVertex
 10
491.9831175150121
 20
463.6195059305737
 30
0.0
  0
SEQEND
  5
5A
330
54
100
AcDbEntity
  8
0
 62
     7
420
 16777215
370
    53
  0
ENDBLK
  5
53
330
50
100
AcDbEntity
  8
0
100
AcDbBlockEnd
  0
BLOCK
  5
5D
330
5B
100
AcDbEntity
  8
0
100
AcDbBlockBegin
  2
block 5
 70
     0
 10
0.0
 20
0.0
 30
0.0
  3
block 5
  1

  0
POLYLINE
  5
5F
330
5B
100
AcDbEntity
  8
0
 62
     7
420
 16777215
370
    53
100
AcDb2dPolyline
 66
     1
 10
0.0
 20
0.0
 30
0.0
  0
VERTEX
  5
60
330
5F
100
AcDbEntity
  8
0
 62
     7
420
 16777215
370
    53
100
AcDbVertex
100
AcDb2dVertex
 10
280.8558353624321
 20
437.6979470467368
 30
0.0
  0
VERTEX
  5
61
330
5F
100
AcDbEntity
  8
0
 62
     7
420
 16777215
370
    53
100
AcDbVertex
100
AcDb2dVertex
 10
402.2524382876654
 20
437.6979470467368
 30
0.0
  0
SEQEND
  5
62
330
5F
100
AcDbEntity
  8
0
 62
     7
420
 16777215
370
    53
  0
ENDBLK
  5
5E
330
5B
100
AcDbEntity
  8
0
100
AcDbBlockEnd
  0
BLOCK
  5
65
330
63
100
AcDbEntity
  8
0
100
AcDbBlockBegin
  2
block 6
 70
     0
 10
0.0
 20
0.0
 30
0.0
  3
block 6
  1

  0
POLYLINE
  5
67
330
63
100
AcDbEntity
  8
0
 62
     7
420
 16777215
370
    53
100
AcDb2dPolyline
 66
     1
 10
0.0
 20
0.0
 30
0.0
  0
VERTEX
  5
68
330
67
100
AcDbEntity
  8
0
 62
     7
420
 16777215
370
    53
100
AcDbVertex
100
AcDb2dVertex
 10
281.3037945716987
 20
438.3790099490333
 30
0.0
  0
VERTEX
  5
69
330
67
100
AcDbEntity
  8
0
 62
     7
420
 16777215
370
    53
100
AcDbVertex
100
AcDb2dVertex
 10
402.2524382876654
 20
438.3790099490333
 30
0.0
  0
SEQEND
  5
6A
330
67
100
AcDbEntity
  8
0
 62
     7
420
 16777215
370
    53
  0
ENDBLK
  5
66
330
63
100
AcDbEntity
  8
0
100
AcDbBlockEnd
  0
BLOCK
  5
6D
330
6B
100
AcDbEntity
  8
0
100
AcDbBlockBegin
  2
block 7
 70
     0
 10
0.0
 20
0.0
 30
0.0
  3
block 7
  1

  0
POLYLINE
  5
6F
330
6B
100
AcDbEntity
  8
0
 62
     7
420
 16777215
370
    53
100
AcDb2dPolyline
 66
     1
 10
0.0
 20
0.0
 30
0.0
  0
VERTEX
  5
70
330
6F
100
AcDbEntity
  8
0
 62
     7
420
 16777215
370
    53
100
AcDbVertex
100
AcDb2dVertex
 10
57.43984009581254
 20
412.3047230256524
 30
0.0
  0
VERTEX
  5
71
330
6F
100
AcDbEntity
  8
0
 62
     7
420
 16777215
370
    53
100
AcDbVertex
100
AcDb2dVertex
 10
49.58103853875218
 20
412.3047230256524
 30
0.0
  0
VERTEX
  5
72
330
6F
100
AcDbEntity
  8
0
 62
     7
420
 16777215
370
    53
100
AcDbVertex
100
AcDb2dVertex
 10
49.58103853875218
 20
462.7512392258905
 30
0.0
  0
VERTEX
  5
73
330
6F
100
AcDbEntity
  8
0
 62
     7
420
 16777215
370
    53
100
AcDbVertex
100
AcDb2dVertex
 10
57.43984009581254
 20
462.7512392258905
 30
0.0
  0
VERTEX
  5
74
330
6F
100
AcDbEntity
  8
0
 62
     7
420
 16777215
370
    53
100
AcDbVertex
100
AcDb2dVertex
 10
57.43984009581254
 20
412.3047230256524
 30
0.0
  0
SEQEND
  5
75
330
6F
100
AcDbEntity
  8
0
 62
     7
420
 16777215
370
    53
  0
ENDBLK
  5
6E
330
6B
100
AcDbEntity
  8
0
100
AcDbBlockEnd
  0
BLOCK
  5
78
330
76
100
AcDbEntity
  8
0
100
AcDbBlockBegin
  2
block 8
 70
     0
 10
0.0
 20
0.0
 30
0.0
  3
block 8
  1

  0
POLYLINE
  5
7A
330
76
100
AcDbEntity
  8
0
 62
     7
420
 16777215
370
    53
100
AcDb2dPolyline
 66
     1
 10
0.0
 20
0.0
 30
0.0
  0
VERTEX
  5
7B
330
7A
100
AcDbEntity
  8
0
 62
     7
420
 16777215
370
    53
100
AcDbVertex
100
AcDb2dVertex
 10
271.1692771818325
 20
437.9660634283973
 30
0.0
  0
VERTEX
  5
7C
330
7A
100
AcDbEntity
  8
0
 62
     7
420
 16777215
370
    53
100
AcDbVertex
100
AcDb2dVertex
 10
147.170565495855
 20
437.9660634283973
 30
0.0
  0
SEQEND
  5
7D
330
7A
100
AcDbEntity
  8
0
 62
     7
420
 16777215
370
    53
  0
ENDBLK
  5
79
330
76
100
AcDbEntity
  8
0
100
AcDbBlockEnd
  0
BLOCK
  5
80
330
7E
100
AcDbEntity
  8
0
100
AcDbBlockBegin
  2
block 9
 70
     0
 10
0.0
 20
0.0
 30
0.0
  3
block 9
  1

  0
POLYLINE
  5
82
330
7E
100
AcDbEntity
  8
0
 62
     7
420
 16777215
370
    53
100
AcDb2dPolyline
 66
     1
 10
0.0
 20
0.0
 30
0.0
  0
VERTEX
  5
83
330
82
100
AcDbEntity
  8
0
 62
     7
420
 16777215
370
    53
100
AcDbVertex
100
AcDb2dVertex
 10
270.7117160681064
 20
437.5452326475669
 30
0.0
  0
VERTEX
  5
84
330
82
100
AcDbEntity
  8
0
 62
     7
420
 16777215
370
    53
100
AcDbVertex
100
AcDb2dVertex
 10
147.170565495855
 20
437.5452326475669
 30
0.0
  0
SEQEND
  5
85
330
82
100
AcDbEntity
  8
0
 62
     7
420
 16777215
370
    53
  0
ENDBLK
  5
81
330
7E
100
AcDbEntity
  8
0
100
AcDbBlockEnd
  0
BLOCK
  5
89
330
87
100
AcDbEntity
  8
0
100
AcDbBlockBegin
  2
block 10
 70
     0
 10
0.0
 20
0.0
 30
0.0
  3
block 10
  1

  0
POLYLINE
  5
8B
330
87
100
AcDbEntity
  8
Livello 1
 62
   250
420
  1842203
370
    53
100
AcDb2dPolyline
 66
     1
 10
0.0
 20
0.0
 30
0.0
  0
VERTEX
  5
8C
330
8B
100
AcDbEntity
  8
Livello 1
 62
   250
420
  1842203
370
    53
100
AcDbVertex
100
AcDb2dVertex
 10
491.9831175150121
 20
463.6195059305737
 30
0.0
  0
VERTEX
  5
8D
330
8B
100
AcDbEntity
  8
Livello 1
 62
   250
420
  1842203
370
    53
100
AcDbVertex
100
AcDb2dVertex
 10
499.8419190720723
 20
463.6195059305737
 30
0.0
  0
VERTEX
  5
8E
330
8B
100
AcDbEntity
  8
Livello 1
 62
   250
420
  1842203
370
    53
100
AcDbVertex
100
AcDb2dVertex
 10
499.8419190720723
 20
413.1729897303339
 30
0.0
  0
VERTEX
  5
8F
330
8B
100
AcDbEntity
  8
Livello 1
 62
   250
420
  1842203
370
    53
100
AcDbVertex
100
AcDb2dVertex
 10
491.9831175150121
 20
413.1729897303339
 30
0.0
  0
VERTEX
  5
90
330
8B
100
AcDbEntity
  8
Livello 1
 62
   250
420
  1842203
370
    53
100
AcDbVertex
100
AcDb2dVertex
 10
491.9831175150121
 20
463.6195059305737
 30
0.0
  0
SEQEND
  5
91
330
8B
100
AcDbEntity
  8
Livello 1
 62
   250
420
  1842203
370
    53
  0
ENDBLK
  5
8A
330
87
100
AcDbEntity
  8
0
100
AcDbBlockEnd
  0
BLOCK
  5
94
330
92
100
AcDbEntity
  8
0
100
AcDbBlockBegin
  2
block 11
 70
     0
 10
0.0
 20
0.0
 30
0.0
  3
block 11
  1

  0
POLYLINE
  5
96
330
92
100
AcDbEntity
  8
Livello 1
 62
   250
420
  1842203
370
    53
100
AcDb2dPolyline
 66
     1
 10
0.0
 20
0.0
 30
0.0
  0
VERTEX
  5
97
330
96
100
AcDbEntity
  8
Livello 1
 62
   250
420
  1842203
370
    53
100
AcDbVertex
100
AcDb2dVertex
 10
381.0292497016253
 20
446.2373991577132
 30
0.0
  0
VERTEX
  5
98
330
96
100
AcDbEntity
  8
Livello 1
 62
   250
420
  1842203
370
    53
100
AcDbVertex
100
AcDb2dVertex
 10
432.8632510265142
 20
446.2373991577132
 30
0.0
  0
SEQEND
  5
99
330
96
100
AcDbEntity
  8
Livello 1
 62
   250
420
  1842203
370
    53
  0
ENDBLK
  5
95
330
92
100
AcDbEntity
  8
0
100
AcDbBlockEnd
  0
BLOCK
  5
9C
330
9A
100
AcDbEntity
  8
0
100
AcDbBlockBegin
  2
block 12
 70
     0
 10
0.0
 20
0.0
 30
0.0
  3
block 12
  1

  0
POLYLINE
  5
9E
330
9A
100
AcDbEntity
  8
Livello 1
 62
   250
420
  1842203
370
    53
100
AcDb2dPolyline
 66
     1
 10
0.0
 20
0.0
 30
0.0
  0
VERTEX
  5
9F
330
9E
100
AcDbEntity
  8
Livello 1
 62
   250
420
  1842203
370
    53
100
AcDbVertex
100
AcDb2dVertex
 10
492.0511601112321
 20
446.2373991577132
 30
0.0
  0
VERTEX
  5
A0
330
9E
100
AcDbEntity
  8
Livello 1
 62
   250
420
  1842203
370
    53
100
AcDbVertex
100
AcDb2dVertex
 10
492.0511601112321
 20
429.6164730349437
 30
0.0
  0
SEQEND
  5
A1
330
9E
100
AcDbEntity
  8
Livello 1
 62
   250
420
  1842203
370
    53
  0
ENDBLK
  5
9D
330
9A
100
AcDbEntity
  8
0
100
AcDbBlockEnd
  0
BLOCK
  5
A4
330
A2
100
AcDbEntity
  8
0
100
AcDbBlockBegin
  2
block 13
 70
     0
 10
0.0
 20
0.0
 30
0.0
  3
block 13
  1

  0
POLYLINE
  5
A6
330
A2
100
AcDbEntity
  8
Livello 1
 62
   250
420
  1842203
370
    53
100
AcDb2dPolyline
 66
     1
 10
0.0
 20
0.0
 30
0.0
  0
VERTEX
  5
A7
330
A6
100
AcDbEntity
  8
Livello 1
 62
   250
420
  1842203
370
    53
100
AcDbVertex
100
AcDb2dVertex
 10
431.7662651234513
 20
429.6164730349437
 30
0.0
  0
VERTEX
  5
A8
330
A6
100
AcDbEntity
  8
Livello 1
 62
   250
420
  1842203
370
    53
100
AcDbVertex
100
AcDb2dVertex
 10
381.0292497016253
 20
429.6164730349437
 30
0.0
  0
SEQEND
  5
A9
330
A6
100
AcDbEntity
  8
Livello 1
 62
   250
420
  1842203
370
    53
  0
ENDBLK
  5
A5
330
A2
100
AcDbEntity
  8
0
100
AcDbBlockEnd
  0
BLOCK
  5
AC
330
AA
100
AcDbEntity
  8
0
100
AcDbBlockBegin
  2
block 14
 70
     0
 10
0.0
 20
0.0
 30
0.0
  3
block 14
  1

  0
POLYLINE
  5
AE
330
AA
100
AcDbEntity
  8
Livello 1
 62
   250
420
  1842203
370
    53
100
AcDb2dPolyline
 66
     1
 10
0.0
 20
0.0
 30
0.0
  0
VERTEX
  5
AF
330
AE
100
AcDbEntity
  8
Livello 1
 62
   250
420
  1842203
370
    53
100
AcDbVertex
100
AcDb2dVertex
 10
381.0292497016253
 20
429.6164730349437
 30
0.0
  0
VERTEX
  5
B0
330
AE
100
AcDbEntity
  8
Livello 1
 62
   250
420
  1842203
370
    53
100
AcDbVertex
100
AcDb2dVertex
 10
381.0292497016253
 20
446.2373991577132
 30
0.0
  0
SEQEND
  5
B1
330
AE
100
AcDbEntity
  8
Livello 1
 62
   250
420
  1842203
370
    53
  0
ENDBLK
  5
AD
330
AA
100
AcDbEntity
  8
0
100
AcDbBlockEnd
  0
BLOCK
  5
B4
330
B2
100
AcDbEntity
  8
0
100
AcDbBlockBegin
  2
block 15
 70
     0
 10
0.0
 20
0.0
 30
0.0
  3
block 15
  1

  0
POLYLINE
  5
B6
330
B2
100
AcDbEntity
  8
Livello 1
 62
    28
420
  1249801
370
    53
100
AcDb2dPolyline
 66
     1
 10
0.0
 20
0.0
 30
0.0
  0
VERTEX
  5
B7
330
B6
100
AcDbEntity
  8
Livello 1
 62
    28
420
  1249801
370
    53
100
AcDbVertex
100
AcDb2dVertex
 10
451.1561207421054
 20
431.772683729032
 30
0.0
  0
VERTEX
  5
B8
330
B6
100
AcDbEntity
  8
Livello 1
 62
    28
420
  1249801
370
    53
100
AcDbVertex
100
AcDb2dVertex
 10
448.3322170574829
 20
431.772683729032
 30
0.0
  0
SEQEND
  5
B9
330
B6
100
AcDbEntity
  8
Livello 1
 62
    28
420
  1249801
370
    53
  0
ENDBLK
  5
B5
330
B2
100
AcDbEntity
  8
0
100
AcDbBlockEnd
  0
BLOCK
  5
BC
330
BA
100
AcDbEntity
  8
0
100
AcDbBlockBegin
  2
block 16
 70
     0
 10
0.0
 20
0.0
 30
0.0
  3
block 16
  1

  0
POLYLINE
  5
BE
330
BA
100
AcDbEntity
  8
Livello 1
 62
    28
420
  1249801
370
    53
100
AcDb2dPolyline
 66
     1
 10
0.0
 20
0.0
 30
0.0
  0
VERTEX
  5
BF
330
BE
100
AcDbEntity
  8
Livello 1
 62
    28
420
  1249801
370
    53
100
AcDbVertex
100
AcDb2dVertex
 10
465.1566448372959
 20
429.6479285811273
 30
0.0
  0
VERTEX
  5
C0
330
BE
100
AcDbEntity
  8
Livello 1
 62
    28
420
  1249801
370
    53
100
AcDbVertex
100
AcDb2dVertex
 10
451.8157173380768
 20
429.6479285811273
 30
0.0
  0
SEQEND
  5
C1
330
BE
100
AcDbEntity
  8
Livello 1
 62
    28
420
  1249801
370
    53
  0
ENDBLK
  5
BD
330
BA
100
AcDbEntity
  8
0
100
AcDbBlockEnd
  0
BLOCK
  5
C4
330
C2
100
AcDbEntity
  8
0
100
AcDbBlockBegin
  2
block 17
 70
     0
 10
0.0
 20
0.0
 30
0.0
  3
block 17
  1

  0
SPLINE
  5
C6
330
C2
100
AcDbEntity
  8
Livello 1
 62
    28
420
  1249801
370
    53
100
AcDbSpline
210
0.0
220
0.0
230
1.0
 70
     8
 71
     3
 72
    26
 73
    22
 74
     0
 42
0.000000001
 43
0.0000000001
 40
0.0
 40
0.0
 40
0.0
 40
0.0
 40
1.0
 40
1.0
 40
1.0
 40
2.0
 40
2.0
 40
2.0
 40
3.0
 40
3.0
 40
3.0
 40
4.0
 40
4.0
 40
4.0
 40
5.0
 40
5.0
 40
5.0
 40
6.0
 40
6.0
 40
6.0
 40
7.0
 40
7.0
 40
7.0
 40
7.0
 10
465.0584258558611
 20
429.6164730349437
 30
0.0
 10
465.6906866920963
 20
430.9214217801218
 30
0.0
 10
466.0419427122232
 20
432.2263705253016
 30
0.0
 10
466.3229475283296
 20
433.6686822962883
 30
0.0
 10
466.3229475283296
 20
433.8747268349953
 30
0.0
 10
466.393198732354
 20
434.0807713737039
 30
0.0
 10
466.393198732354
 20
434.2868159124264
 30
0.0
 10
466.5337011404026
 20
434.7675865027468
 30
0.0
 10
466.6039523444268
 20
435.248357093079
 30
0.0
 10
466.6039523444268
 20
435.7978091963131
 30
0.0
 10
466.6039523444268
 20
436.4846243253441
 30
0.0
 10
466.6039523444268
 20
437.1714394543833
 30
0.0
 10
466.6039523444268
 20
437.8582545834252
 30
0.0
 10
466.6742035484531
 20
439.0258403027992
 30
0.0
 10
466.6742035484531
 20
440.1934260221596
 30
0.0
 10
466.6039523444268
 20
441.2923302286308
 30
0.0
 10
466.393198732354
 20
442.9406865383253
 30
0.0
 10
465.971691508199
 20
444.5890428480196
 30
0.0
 10
465.4096818759899
 20
446.2373991577132
 30
0.0
 10
465.4096818759899
 20
446.2373991577132
 30
0.0
 10
450.9131114699067
 20
446.2373991577132
 30
0.0
 10
450.9131114699067
 20
446.2373991577132
 30
0.0
  0
ENDBLK
  5
C5
330
C2
100
AcDbEntity
  8
0
100
AcDbBlockEnd
  0
BLOCK
  5
C9
330
C7
100
AcDbEntity
  8
0
100
AcDbBlockBegin
  2
block 18
 70
     0
 10
0.0
 20
0.0
 30
0.0
  3
block 18
  1

  0
SPLINE
  5
CB
330
C7
100
AcDbEntity
  8
Livello 1
 62
    28
420
  1249801
370
    53
100
AcDbSpline
210
0.0
220
0.0
230
1.0
 70
     8
 71
     3
 72
    29
 73
    25
 74
     0
 42
0.000000001
 43
0.0000000001
 40
0.0
 40
0.0
 40
0.0
 40
0.0
 40
1.0
 40
1.0
 40
1.0
 40
2.0
 40
2.0
 40
2.0
 40
3.0
 40
3.0
 40
3.0
 40
4.0
 40
4.0
 40
4.0
 40
5.0
 40
5.0
 40
5.0
 40
6.0
 40
6.0
 40
6.0
 40
7.0
 40
7.0
 40
7.0
 40
8.0
 40
8.0
 40
8.0
 40
8.0
 10
450.1493680429903
 20
444.6991637482652
 30
0.0
 10
450.1336903038827
 20
446.5944895486246
 30
0.0
 10
451.8157173380768
 20
446.2041853370737
 30
0.0
 10
451.8157173380768
 20
446.2041853370737
 30
0.0
 10
452.5100295443663
 20
446.078766871341
 30
0.0
 10
452.9266168681369
 20
444.8872914468638
 30
0.0
 10
452.9960480887639
 20
444.3856175839346
 30
0.0
 10
453.2737729712808
 20
443.6958160223958
 30
0.0
 10
453.3432041919076
 20
443.0060144608588
 30
0.0
 10
453.5514978537957
 20
442.253503666454
 30
0.0
 10
453.7597915156784
 20
440.7484820776453
 30
0.0
 10
453.8292227363053
 20
439.3061697216908
 30
0.0
 10
453.8292227363053
 20
437.8638573657481
 30
0.0
 10
453.7597915156784
 20
436.3588357769404
 30
0.0
 10
453.6209290744245
 20
434.9165234209968
 30
0.0
 10
453.3432041919076
 20
433.4115018321882
 30
0.0
 10
453.2737729712808
 20
432.721700270651
 30
0.0
 10
452.9960480887639
 20
431.9691894762463
 30
0.0
 10
452.7877544268813
 20
431.2793879147066
 30
0.0
 10
452.6488919856201
 20
430.9031325175001
 30
0.0
 10
452.3711671031106
 20
430.0252032573634
 30
0.0
 10
451.7462861174498
 20
429.8370755587657
 30
0.0
 10
451.6768548968212
 20
429.711657093033
 30
0.0
 10
451.4685612349331
 20
429.648947860167
 30
0.0
 10
451.3296987936773
 20
429.711657093033
 30
0.0
  0
ENDBLK
  5
CA
330
C7
100
AcDbEntity
  8
0
100
AcDbBlockEnd
  0
BLOCK
  5
CE
330
CC
100
AcDbEntity
  8
0
100
AcDbBlockBegin
  2
block 19
 70
     0
 10
0.0
 20
0.0
 30
0.0
  3
block 19
  1

  0
SPLINE
  5
D0
330
CC
100
AcDbEntity
  8
Livello 1
 62
    28
420
  1249801
370
    53
100
AcDbSpline
210
0.0
220
0.0
230
1.0
 70
     8
 71
     3
 72
    23
 73
    19
 74
     0
 42
0.000000001
 43
0.0000000001
 40
0.0
 40
0.0
 40
0.0
 40
0.0
 40
1.0
 40
1.0
 40
1.0
 40
2.0
 40
2.0
 40
2.0
 40
3.0
 40
3.0
 40
3.0
 40
4.0
 40
4.0
 40
4.0
 40
5.0
 40
5.0
 40
5.0
 40
6.0
 40
6.0
 40
6.0
 40
6.0
 10
450.9825426905336
 20
431.772683729032
 30
0.0
 10
451.53799245556
 20
431.7082972093995
 30
0.0
 10
451.8851485587056
 20
432.6740950038984
 30
0.0
 10
452.0934422205937
 20
432.9960276020611
 30
0.0
 10
452.1628734412225
 20
433.5755062787638
 30
0.0
 10
452.3711671031106
 20
434.1549849554667
 30
0.0
 10
452.4405983237374
 20
434.6700771125388
 30
0.0
 10
452.718323206247
 20
435.8290344659353
 30
0.0
 10
452.718323206247
 20
436.9236052997093
 30
0.0
 10
452.718323206247
 20
438.0825626531049
 30
0.0
 10
452.718323206247
 20
439.2415200065125
 30
0.0
 10
452.718323206247
 20
440.3360908402873
 30
0.0
 10
452.5100295443663
 20
441.4950481936838
 30
0.0
 10
452.4405983237374
 20
442.0101403507551
 30
0.0
 10
452.4405983237374
 20
442.5896190274588
 30
0.0
 10
452.1628734412225
 20
443.1690977041508
 30
0.0
 10
452.0934422205937
 20
443.4910303023243
 30
0.0
 10
451.8851485587056
 20
444.3924415771907
 30
0.0
 10
451.2602675730503
 20
444.5212146164558
 30
0.0
  0
ENDBLK
  5
CF
330
CC
100
AcDbEntity
  8
0
100
AcDbBlockEnd
  0
BLOCK
  5
D3
330
D1
100
AcDbEntity
  8
0
100
AcDbBlockBegin
  2
block 20
 70
     0
 10
0.0
 20
0.0
 30
0.0
  3
block 20
  1

  0
SPLINE
  5
D5
330
D1
100
AcDbEntity
  8
Livello 1
 62
    28
420
  1249801
370
    53
100
AcDbSpline
210
0.0
220
0.0
230
1.0
 70
     8
 71
     3
 72
    11
 73
     7
 74
     0
 42
0.000000001
 43
0.0000000001
 40
0.0
 40
0.0
 40
0.0
 40
0.0
 40
1.0
 40
1.0
 40
1.0
 40
2.0
 40
2.0
 40
2.0
 40
2.0
 10
450.9131114699067
 20
430.0986342185533
 30
0.0
 10
450.1493680429903
 20
430.4849533363586
 30
0.0
 10
449.8716431604752
 20
430.9356589737872
 30
0.0
 10
449.8022119398483
 20
431.5795241701235
 30
0.0
 10
449.8022119398483
 20
431.5795241701235
 30
0.0
 10
449.8022119398483
 20
431.6439106897551
 30
0.0
 10
449.8022119398483
 20
431.6439106897551
 30
0.0
  0
ENDBLK
  5
D4
330
D1
100
AcDbEntity
  8
0
100
AcDbBlockEnd
  0
BLOCK
  5
D8
330
D6
100
AcDbEntity
  8
0
100
AcDbBlockBegin
  2
block 21
 70
     0
 10
0.0
 20
0.0
 30
0.0
  3
block 21
  1

  0
SPLINE
  5
DA
330
D6
100
AcDbEntity
  8
Livello 1
 62
    28
420
  1249801
370
    53
100
AcDbSpline
210
0.0
220
0.0
230
1.0
 70
     9
 71
     3
 72
    35
 73
    31
 74
     0
 42
0.000000001
 43
0.0000000001
 40
0.0
 40
0.0
 40
0.0
 40
0.0
 40
1.0
 40
1.0
 40
1.0
 40
2.0
 40
2.0
 40
2.0
 40
3.0
 40
3.0
 40
3.0
 40
4.0
 40
4.0
 40
4.0
 40
5.0
 40
5.0
 40
5.0
 40
6.0
 40
6.0
 40
6.0
 40
7.0
 40
7.0
 40
7.0
 40
8.0
 40
8.0
 40
8.0
 40
9.0
 40
9.0
 40
9.0
 40
10.0
 40
10.0
 40
10.0
 40
10.0
 10
447.3026879972131
 20
429.6164730349437
 30
0.0
 10
449.1398910446733
 20
431.3752121936714
 30
0.0
 10
449.038468512932
 20
437.1811513782395
 30
0.0
 10
449.038468512932
 20
437.1811513782395
 30
0.0
 10
449.038468512932
 20
437.1811513782395
 30
0.0
 10
448.7081819240739
 20
428.7293543462619
 30
0.0
 10
449.038468512932
 20
437.1811513782395
 30
0.0
 10
449.3687551017901
 20
445.6329484102179
 30
0.0
 10
446.9555318940765
 20
446.6674929688115
 30
0.0
 10
446.9555318940765
 20
446.6674929688115
 30
0.0
 10
446.9555318940765
 20
446.6674929688115
 30
0.0
 10
434.2496185190339
 20
446.6674929688115
 30
0.0
 10
434.2496185190339
 20
446.6674929688115
 30
0.0
 10
434.2496185190339
 20
446.6674929688115
 30
0.0
 10
433.7091719763356
 20
446.2373991577132
 30
0.0
 10
433.7091719763356
 20
446.2373991577132
 30
0.0
 10
433.7091719763356
 20
446.2373991577132
 30
0.0
 10
435.3118888117806
 20
444.0739160018802
 30
0.0
 10
435.3118888117806
 20
437.6979470467368
 30
0.0
 10
435.3118888117806
 20
437.6979470467368
 30
0.0
 10
435.5420007009525
 20
431.1137260526574
 30
0.0
 10
432.8632510265142
 20
429.6164730349437
 30
0.0
 10
432.8632510265142
 20
429.6164730349437
 30
0.0
 10
433.8105740855243
 20
428.9690499755242
 30
0.0
 10
433.8105740855243
 20
428.9690499755242
 30
0.0
 10
433.8105740855243
 20
428.9690499755242
 30
0.0
 10
446.8518553952945
 20
428.9690499755242
 30
0.0
 10
446.8518553952945
 20
428.9690499755242
 30
0.0
 10
446.8518553952945
 20
428.9690499755242
 30
0.0
 10
447.3026879972131
 20
429.6164730349437
 30
0.0
 10
447.3026879972131
 20
429.6164730349437
 30
0.0
  0
ENDBLK
  5
D9
330
D6
100
AcDbEntity
  8
0
100
AcDbBlockEnd
  0
BLOCK
  5
DD
330
DB
100
AcDbEntity
  8
0
100
AcDbBlockBegin
  2
block 22
 70
     0
 10
0.0
 20
0.0
 30
0.0
  3
block 22
  1

  0
POLYLINE
  5
DF
330
DB
100
AcDbEntity
  8
Livello 1
 62
    28
420
  1249801
370
    53
100
AcDb2dPolyline
 66
     1
 10
0.0
 20
0.0
 30
0.0
  0
VERTEX
  5
E0
330
DF
100
AcDbEntity
  8
Livello 1
 62
    28
420
  1249801
370
    53
100
AcDbVertex
100
AcDb2dVertex
 10
450.9825426905336
 20
430.0986342185533
 30
0.0
  0
VERTEX
  5
E1
330
DF
100
AcDbEntity
  8
Livello 1
 62
    28
420
  1249801
370
    53
100
AcDbVertex
100
AcDb2dVertex
 10
451.3296987936773
 20
429.7123151007589
 30
0.0
  0
SEQEND
  5
E2
330
DF
100
AcDbEntity
  8
Livello 1
 62
    28
420
  1249801
370
    53
  0
ENDBLK
  5
DE
330
DB
100
AcDbEntity
  8
0
100
AcDbBlockEnd
  0
BLOCK
  5
E5
330
E3
100
AcDbEntity
  8
0
100
AcDbBlockBegin
  2
block 23
 70
     0
 10
0.0
 20
0.0
 30
0.0
  3
block 23
  1

  0
POLYLINE
  5
E7
330
E3
100
AcDbEntity
  8
Livello 1
 62
    28
420
  1249801
370
    53
100
AcDb2dPolyline
 66
     1
 10
0.0
 20
0.0
 30
0.0
  0
VERTEX
  5
E8
330
E7
100
AcDbEntity
  8
Livello 1
 62
    28
420
  1249801
370
    53
100
AcDbVertex
100
AcDb2dVertex
 10
451.2602675730503
 20
444.5212146164558
 30
0.0
  0
VERTEX
  5
E9
330
E7
100
AcDbEntity
  8
Livello 1
 62
    28
420
  1249801
370
    53
100
AcDbVertex
100
AcDb2dVertex
 10
448.3322170574829
 20
444.5212146164558
 30
0.0
  0
SEQEND
  5
EA
330
E7
100
AcDbEntity
  8
Livello 1
 62
    28
420
  1249801
370
    53
  0
ENDBLK
  5
E6
330
E3
100
AcDbEntity
  8
0
100
AcDbBlockEnd
  0
BLOCK
  5
ED
330
EB
100
AcDbEntity
  8
0
100
AcDbBlockBegin
  2
block 24
 70
     0
 10
0.0
 20
0.0
 30
0.0
  3
block 24
  1

  0
POLYLINE
  5
EF
330
EB
100
AcDbEntity
  8
Livello 1
 62
    28
420
  1249801
370
    53
100
AcDb2dPolyline
 66
     1
 10
0.0
 20
0.0
 30
0.0
  0
VERTEX
  5
F0
330
EF
100
AcDbEntity
  8
Livello 1
 62
    28
420
  1249801
370
    53
100
AcDbVertex
100
AcDb2dVertex
 10
492.0511601112321
 20
430.329326779578
 30
0.0
  0
VERTEX
  5
F1
330
EF
100
AcDbEntity
  8
Livello 1
 62
    28
420
  1249801
370
    53
100
AcDbVertex
100
AcDb2dVertex
 10
489.080608690072
 20
430.329326779578
 30
0.0
  0
VERTEX
  5
F2
330
EF
100
AcDbEntity
  8
Livello 1
 62
    28
420
  1249801
370
    53
100
AcDbVertex
100
AcDb2dVertex
 10
482.4687361720153
 20
430.329326779578
 30
0.0
  0
VERTEX
  5
F3
330
EF
100
AcDbEntity
  8
Livello 1
 62
    28
420
  1249801
370
    53
100
AcDbVertex
100
AcDb2dVertex
 10
471.1614759237455
 20
430.329326779578
 30
0.0
  0
SEQEND
  5
F4
330
EF
100
AcDbEntity
  8
Livello 1
 62
    28
420
  1249801
370
    53
  0
ENDBLK
  5
EE
330
EB
100
AcDbEntity
  8
0
100
AcDbBlockEnd
  0
BLOCK
  5
F7
330
F5
100
AcDbEntity
  8
0
100
AcDbBlockBegin
  2
block 25
 70
     0
 10
0.0
 20
0.0
 30
0.0
  3
block 25
  1

  0
SPLINE
  5
F9
330
F5
100
AcDbEntity
  8
Livello 1
 62
    28
420
  1249801
370
    53
100
AcDbSpline
210
0.0
220
0.0
230
1.0
 70
     8
 71
     3
 72
    20
 73
    16
 74
     0
 42
0.000000001
 43
0.0000000001
 40
0.0
 40
0.0
 40
0.0
 40
0.0
 40
1.0
 40
1.0
 40
1.0
 40
2.0
 40
2.0
 40
2.0
 40
3.0
 40
3.0
 40
3.0
 40
4.0
 40
4.0
 40
4.0
 40
5.0
 40
5.0
 40
5.0
 40
5.0
 10
471.0295108299269
 20
430.329326779578
 30
0.0
 10
470.4046298442681
 20
430.7800324170038
 30
0.0
 10
469.9186112998686
 20
431.2307380544435
 30
0.0
 10
469.502023976096
 20
431.7458302115146
 30
0.0
 10
468.9465742110642
 20
432.3253088882183
 30
0.0
 10
468.5299868872935
 20
432.969174084541
 30
0.0
 10
468.2522620047766
 20
433.6130392808773
 30
0.0
 10
467.488518577862
 20
435.0295427128139
 30
0.0
 10
467.1413624747183
 20
436.5748191840174
 30
0.0
 10
467.0719312540896
 20
438.1844821748646
 30
0.0
 10
467.0719312540896
 20
439.6653721264328
 30
0.0
 10
467.3496561366063
 20
441.2106485976356
 30
0.0
 10
468.0439683428939
 20
442.5627655099396
 30
0.0
 10
468.5994181079204
 20
443.7861093829679
 30
0.0
 10
469.502023976096
 20
444.8162936971112
 30
0.0
 10
470.6823547267831
 20
445.5245454130791
 30
0.0
  0
ENDBLK
  5
F8
330
F5
100
AcDbEntity
  8
0
100
AcDbBlockEnd
  0
BLOCK
  5
FC
330
FA
100
AcDbEntity
  8
0
100
AcDbBlockBegin
  2
block 26
 70
     0
 10
0.0
 20
0.0
 30
0.0
  3
block 26
  1

  0
POLYLINE
  5
FE
330
FA
100
AcDbEntity
  8
Livello 1
 62
    28
420
  1249801
370
    53
100
AcDb2dPolyline
 66
     1
 10
0.0
 20
0.0
 30
0.0
  0
VERTEX
  5
FF
330
FE
100
AcDbEntity
  8
Livello 1
 62
    28
420
  1249801
370
    53
100
AcDbVertex
100
AcDb2dVertex
 10
470.6823547267831
 20
445.5245454130791
 30
0.0
  0
VERTEX
  5
100
330
FE
100
AcDbEntity
  8
Livello 1
 62
    28
420
  1249801
370
    53
100
AcDbVertex
100
AcDb2dVertex
 10
481.7979664962658
 20
445.5245454130791
 30
0.0
  0
VERTEX
  5
101
330
FE
100
AcDbEntity
  8
Livello 1
 62
    28
420
  1249801
370
    53
100
AcDbVertex
100
AcDb2dVertex
 10
488.7931359718914
 20
445.5245454130791
 30
0.0
  0
VERTEX
  5
102
330
FE
100
AcDbEntity
  8
Livello 1
 62
    28
420
  1249801
370
    53
100
AcDbVertex
100
AcDb2dVertex
 10
491.476214674869
 20
445.5245454130791
 30
0.0
  0
SEQEND
  5
103
330
FE
100
AcDbEntity
  8
Livello 1
 62
    28
420
  1249801
370
    53
  0
ENDBLK
  5
FD
330
FA
100
AcDbEntity
  8
0
100
AcDbBlockEnd
  0
BLOCK
  5
108
330
106
100
AcDbEntity
  8
0
100
AcDbBlockBegin
  2
block 27
 70
     0
 10
0.0
 20
0.0
 30
0.0
  3
block 27
  1

  0
POLYLINE
  5
10A
330
106
100
AcDbEntity
  8
Livello 1
 62
   250
420
  1842203
370
    53
100
AcDb2dPolyline
 66
     1
 10
0.0
 20
0.0
 30
0.0
  0
VERTEX
  5
10B
330
10A
100
AcDbEntity
  8
Livello 1
 62
   250
420
  1842203
370
    53
100
AcDbVertex
100
AcDb2dVertex
 10
57.43984009581254
 20
412.3047230256524
 30
0.0
  0
VERTEX
  5
10C
330
10A
100
AcDbEntity
  8
Livello 1
 62
   250
420
  1842203
370
    53
100
AcDbVertex
100
AcDb2dVertex
 10
49.58103853875218
 20
412.3047230256524
 30
0.0
  0
VERTEX
  5
10D
330
10A
100
AcDbEntity
  8
Livello 1
 62
   250
420
  1842203
370
    53
100
AcDbVertex
100
AcDb2dVertex
 10
49.58103853875218
 20
462.7512392258905
 30
0.0
  0
VERTEX
  5
10E
330
10A
100
AcDbEntity
  8
Livello 1
 62
   250
420
  1842203
370
    53
100
AcDbVertex
100
AcDb2dVertex
 10
57.43984009581254
 20
462.7512392258905
 30
0.0
  0
VERTEX
  5
10F
330
10A
100
AcDbEntity
  8
Livello 1
 62
   250
420
  1842203
370
    53
100
AcDbVertex
100
AcDb2dVertex
 10
57.43984009581254
 20
412.3047230256524
 30
0.0
  0
SEQEND
  5
110
330
10A
100
AcDbEntity
  8
Livello 1
 62
   250
420
  1842203
370
    53
  0
ENDBLK
  5
109
330
106
100
AcDbEntity
  8
0
100
AcDbBlockEnd
  0
BLOCK
  5
113
330
111
100
AcDbEntity
  8
0
100
AcDbBlockBegin
  2
block 28
 70
     0
 10
0.0
 20
0.0
 30
0.0
  3
block 28
  1

  0
POLYLINE
  5
115
330
111
100
AcDbEntity
  8
Livello 1
 62
   250
420
  1842203
370
    53
100
AcDb2dPolyline
 66
     1
 10
0.0
 20
0.0
 30
0.0
  0
VERTEX
  5
116
330
115
100
AcDbEntity
  8
Livello 1
 62
   250
420
  1842203
370
    53
100
AcDbVertex
100
AcDb2dVertex
 10
168.3937079091993
 20
429.686829798512
 30
0.0
  0
VERTEX
  5
117
330
115
100
AcDbEntity
  8
Livello 1
 62
   250
420
  1842203
370
    53
100
AcDbVertex
100
AcDb2dVertex
 10
116.5597065843103
 20
429.686829798512
 30
0.0
  0
SEQEND
  5
118
330
115
100
AcDbEntity
  8
Livello 1
 62
   250
420
  1842203
370
    53
  0
ENDBLK
  5
114
330
111
100
AcDbEntity
  8
0
100
AcDbBlockEnd
  0
BLOCK
  5
11B
330
119
100
AcDbEntity
  8
0
100
AcDbBlockBegin
  2
block 29
 70
     0
 10
0.0
 20
0.0
 30
0.0
  3
block 29
  1

  0
POLYLINE
  5
11D
330
119
100
AcDbEntity
  8
Livello 1
 62
   250
420
  1842203
370
    53
100
AcDb2dPolyline
 66
     1
 10
0.0
 20
0.0
 30
0.0
  0
VERTEX
  5
11E
330
11D
100
AcDbEntity
  8
Livello 1
 62
   250
420
  1842203
370
    53
100
AcDbVertex
100
AcDb2dVertex
 10
57.37179749959341
 20
429.686829798512
 30
0.0
  0
VERTEX
  5
11F
330
11D
100
AcDbEntity
  8
Livello 1
 62
   250
420
  1842203
370
    53
100
AcDbVertex
100
AcDb2dVertex
 10
57.37179749959341
 20
446.3077559212806
 30
0.0
  0
SEQEND
  5
120
330
11D
100
AcDbEntity
  8
Livello 1
 62
   250
420
  1842203
370
    53
  0
ENDBLK
  5
11C
330
119
100
AcDbEntity
  8
0
100
AcDbBlockEnd
  0
BLOCK
  5
123
330
121
100
AcDbEntity
  8
0
100
AcDbBlockBegin
  2
block 30
 70
     0
 10
0.0
 20
0.0
 30
0.0
  3
block 30
  1

  0
POLYLINE
  5
125
330
121
100
AcDbEntity
  8
Livello 1
 62
   250
420
  1842203
370
    53
100
AcDb2dPolyline
 66
     1
 10
0.0
 20
0.0
 30
0.0
  0
VERTEX
  5
126
330
125
100
AcDbEntity
  8
Livello 1
 62
   250
420
  1842203
370
    53
100
AcDbVertex
100
AcDb2dVertex
 10
117.6566924873723
 20
446.3077559212806
 30
0.0
  0
VERTEX
  5
127
330
125
100
AcDbEntity
  8
Livello 1
 62
   250
420
  1842203
370
    53
100
AcDbVertex
100
AcDb2dVertex
 10
168.3937079091993
 20
446.3077559212806
 30
0.0
  0
SEQEND
  5
128
330
125
100
AcDbEntity
  8
Livello 1
 62
   250
420
  1842203
370
    53
  0
ENDBLK
  5
124
330
121
100
AcDbEntity
  8
0
100
AcDbBlockEnd
  0
BLOCK
  5
12B
330
129
100
AcDbEntity
  8
0
100
AcDbBlockBegin
  2
block 31
 70
     0
 10
0.0
 20
0.0
 30
0.0
  3
block 31
  1

  0
POLYLINE
  5
12D
330
129
100
AcDbEntity
  8
Livello 1
 62
   250
420
  1842203
370
    53
100
AcDb2dPolyline
 66
     1
 10
0.0
 20
0.0
 30
0.0
  0
VERTEX
  5
12E
330
12D
100
AcDbEntity
  8
Livello 1
 62
   250
420
  1842203
370
    53
100
AcDbVertex
100
AcDb2dVertex
 10
168.3937079091993
 20
446.3077559212806
 30
0.0
  0
VERTEX
  5
12F
330
12D
100
AcDbEntity
  8
Livello 1
 62
   250
420
  1842203
370
    53
100
AcDbVertex
100
AcDb2dVertex
 10
168.3937079091993
 20
429.686829798512
 30
0.0
  0
SEQEND
  5
130
330
12D
100
AcDbEntity
  8
Livello 1
 62
   250
420
  1842203
370
    53
  0
ENDBLK
  5
12C
330
129
100
AcDbEntity
  8
0
100
AcDbBlockEnd
  0
BLOCK
  5
133
330
131
100
AcDbEntity
  8
0
100
AcDbBlockBegin
  2
block 32
 70
     0
 10
0.0
 20
0.0
 30
0.0
  3
block 32
  1

  0
POLYLINE
  5
135
330
131
100
AcDbEntity
  8
Livello 1
 62
    28
420
  1249801
370
    53
100
AcDb2dPolyline
 66
     1
 10
0.0
 20
0.0
 30
0.0
  0
VERTEX
  5
136
330
135
100
AcDbEntity
  8
Livello 1
 62
    28
420
  1249801
370
    53
100
AcDbVertex
100
AcDb2dVertex
 10
98.26683686871913
 20
444.1515452271933
 30
0.0
  0
VERTEX
  5
137
330
135
100
AcDbEntity
  8
Livello 1
 62
    28
420
  1249801
370
    53
100
AcDbVertex
100
AcDb2dVertex
 10
101.0907405533417
 20
444.1515452271933
 30
0.0
  0
SEQEND
  5
138
330
135
100
AcDbEntity
  8
Livello 1
 62
    28
420
  1249801
370
    53
  0
ENDBLK
  5
134
330
131
100
AcDbEntity
  8
0
100
AcDbBlockEnd
  0
BLOCK
  5
13B
330
139
100
AcDbEntity
  8
0
100
AcDbBlockBegin
  2
block 33
 70
     0
 10
0.0
 20
0.0
 30
0.0
  3
block 33
  1

  0
POLYLINE
  5
13D
330
139
100
AcDbEntity
  8
Livello 1
 62
    28
420
  1249801
370
    53
100
AcDb2dPolyline
 66
     1
 10
0.0
 20
0.0
 30
0.0
  0
VERTEX
  5
13E
330
13D
100
AcDbEntity
  8
Livello 1
 62
    28
420
  1249801
370
    53
100
AcDbVertex
100
AcDb2dVertex
 10
84.26631277352862
 20
446.2763003750978
 30
0.0
  0
VERTEX
  5
13F
330
13D
100
AcDbEntity
  8
Livello 1
 62
    28
420
  1249801
370
    53
100
AcDbVertex
100
AcDb2dVertex
 10
97.60724027274774
 20
446.2763003750978
 30
0.0
  0
SEQEND
  5
140
330
13D
100
AcDbEntity
  8
Livello 1
 62
    28
420
  1249801
370
    53
  0
ENDBLK
  5
13C
330
139
100
AcDbEntity
  8
0
100
AcDbBlockEnd
  0
BLOCK
  5
143
330
141
100
AcDbEntity
  8
0
100
AcDbBlockBegin
  2
block 34
 70
     0
 10
0.0
 20
0.0
 30
0.0
  3
block 34
  1

  0
SPLINE
  5
145
330
141
100
AcDbEntity
  8
Livello 1
 62
    28
420
  1249801
370
    53
100
AcDbSpline
210
0.0
220
0.0
230
1.0
 70
     8
 71
     3
 72
    26
 73
    22
 74
     0
 42
0.000000001
 43
0.0000000001
 40
0.0
 40
0.0
 40
0.0
 40
0.0
 40
1.0
 40
1.0
 40
1.0
 40
2.0
 40
2.0
 40
2.0
 40
3.0
 40
3.0
 40
3.0
 40
4.0
 40
4.0
 40
4.0
 40
5.0
 40
5.0
 40
5.0
 40
6.0
 40
6.0
 40
6.0
 40
7.0
 40
7.0
 40
7.0
 40
7.0
 10
84.36453175496355
 20
446.3077559212806
 30
0.0
 10
83.73227091872925
 20
445.0028071761034
 30
0.0
 10
83.38101489860127
 20
443.6978584309226
 30
0.0
 10
83.10001008249583
 20
442.255546659936
 30
0.0
 10
83.10001008249583
 20
442.04950212123
 30
0.0
 10
83.02975887847152
 20
441.8434575825203
 30
0.0
 10
83.02975887847152
 20
441.6374130437979
 30
0.0
 10
82.88925647042196
 20
441.1566424534784
 30
0.0
 10
82.81900526639764
 20
440.6758718631453
 30
0.0
 10
82.81900526639764
 20
440.1264197599111
 30
0.0
 10
82.81900526639764
 20
439.4396046308821
 30
0.0
 10
82.81900526639764
 20
438.752789501841
 30
0.0
 10
82.81900526639764
 20
438.0659743727992
 30
0.0
 10
82.74875406237152
 20
436.8983886534261
 30
0.0
 10
82.74875406237152
 20
435.7308029340656
 30
0.0
 10
82.81900526639764
 20
434.6318987275945
 30
0.0
 10
83.02975887847152
 20
432.9835424179
 30
0.0
 10
83.45126610262468
 20
431.3351861082056
 30
0.0
 10
84.01327573483468
 20
429.686829798512
 30
0.0
 10
84.01327573483468
 20
429.686829798512
 30
0.0
 10
98.50984614091792
 20
429.686829798512
 30
0.0
 10
98.50984614091792
 20
429.686829798512
 30
0.0
  0
ENDBLK
  5
144
330
141
100
AcDbEntity
  8
0
100
AcDbBlockEnd
  0
BLOCK
  5
148
330
146
100
AcDbEntity
  8
0
100
AcDbBlockBegin
  2
block 35
 70
     0
 10
0.0
 20
0.0
 30
0.0
  3
block 35
  1

  0
SPLINE
  5
14A
330
146
100
AcDbEntity
  8
Livello 1
 62
    28
420
  1249801
370
    53
100
AcDbSpline
210
0.0
220
0.0
230
1.0
 70
     8
 71
     3
 72
    29
 73
    25
 74
     0
 42
0.000000001
 43
0.0000000001
 40
0.0
 40
0.0
 40
0.0
 40
0.0
 40
1.0
 40
1.0
 40
1.0
 40
2.0
 40
2.0
 40
2.0
 40
3.0
 40
3.0
 40
3.0
 40
4.0
 40
4.0
 40
4.0
 40
5.0
 40
5.0
 40
5.0
 40
6.0
 40
6.0
 40
6.0
 40
7.0
 40
7.0
 40
7.0
 40
8.0
 40
8.0
 40
8.0
 40
8.0
 10
99.27358956783336
 20
431.2250652079611
 30
0.0
 10
99.28926730694277
 20
429.3297394075988
 30
0.0
 10
97.60724027274774
 20
429.7200436191506
 30
0.0
 10
97.60724027274774
 20
429.7200436191506
 30
0.0
 10
96.91292806645924
 20
429.8454620848842
 30
0.0
 10
96.49634074268853
 20
431.0369375093615
 30
0.0
 10
96.42690952206068
 20
431.5386113722906
 30
0.0
 10
96.14918463954472
 20
432.2284129338276
 30
0.0
 10
96.07975341891688
 20
432.9182144953666
 30
0.0
 10
95.87145975702972
 20
433.6707252897703
 30
0.0
 10
95.66316609514617
 20
435.17574687858
 30
0.0
 10
95.5937348745183
 20
436.6180592345336
 30
0.0
 10
95.5937348745183
 20
438.0603715904762
 30
0.0
 10
95.66316609514617
 20
439.5653931792849
 30
0.0
 10
95.80202853640093
 20
441.0077055352276
 30
0.0
 10
96.07975341891688
 20
442.5127271240371
 30
0.0
 10
96.14918463954472
 20
443.2025286855742
 30
0.0
 10
96.42690952206068
 20
443.955039479978
 30
0.0
 10
96.6352031839424
 20
444.6448410415178
 30
0.0
 10
96.77406562520445
 20
445.0210964387252
 30
0.0
 10
97.05179050771405
 20
445.8990256988608
 30
0.0
 10
97.6766714933756
 20
446.0871533974596
 30
0.0
 10
97.74610271400252
 20
446.2125718631923
 30
0.0
 10
97.95439637589153
 20
446.2752810960573
 30
0.0
 10
98.09325881714631
 20
446.2125718631923
 30
0.0
  0
ENDBLK
  5
149
330
146
100
AcDbEntity
  8
0
100
AcDbBlockEnd
  0
BLOCK
  5
14D
330
14B
100
AcDbEntity
  8
0
100
AcDbBlockBegin
  2
block 36
 70
     0
 10
0.0
 20
0.0
 30
0.0
  3
block 36
  1

  0
SPLINE
  5
14F
330
14B
100
AcDbEntity
  8
Livello 1
 62
    28
420
  1249801
370
    53
100
AcDbSpline
210
0.0
220
0.0
230
1.0
 70
     8
 71
     3
 72
    23
 73
    19
 74
     0
 42
0.000000001
 43
0.0000000001
 40
0.0
 40
0.0
 40
0.0
 40
0.0
 40
1.0
 40
1.0
 40
1.0
 40
2.0
 40
2.0
 40
2.0
 40
3.0
 40
3.0
 40
3.0
 40
4.0
 40
4.0
 40
4.0
 40
5.0
 40
5.0
 40
5.0
 40
6.0
 40
6.0
 40
6.0
 40
6.0
 10
98.4404149202901
 20
444.1515452271933
 30
0.0
 10
97.88496515526459
 20
444.2159317468249
 30
0.0
 10
97.53780905211895
 20
443.2501339523269
 30
0.0
 10
97.32951539022995
 20
442.9282013541632
 30
0.0
 10
97.26008416960304
 20
442.3487226774613
 30
0.0
 10
97.05179050771405
 20
441.7692440007576
 30
0.0
 10
96.98235928708619
 20
441.2541518436865
 30
0.0
 10
96.70463440457751
 20
440.095194490289
 30
0.0
 10
96.70463440457751
 20
439.0006236565159
 30
0.0
 10
96.70463440457751
 20
437.8416663031194
 30
0.0
 10
96.70463440457751
 20
436.6827089497117
 30
0.0
 10
96.70463440457751
 20
435.5881381159369
 30
0.0
 10
96.91292806645924
 20
434.4291807625404
 30
0.0
 10
96.98235928708619
 20
433.9140886054702
 30
0.0
 10
96.98235928708619
 20
433.3346099287664
 30
0.0
 10
97.26008416960304
 20
432.7551312520745
 30
0.0
 10
97.32951539022995
 20
432.4331986538999
 30
0.0
 10
97.53780905211895
 20
431.5317873790345
 30
0.0
 10
98.16269003777417
 20
431.4030143397686
 30
0.0
  0
ENDBLK
  5
14E
330
14B
100
AcDbEntity
  8
0
100
AcDbBlockEnd
  0
BLOCK
  5
152
330
150
100
AcDbEntity
  8
0
100
AcDbBlockBegin
  2
block 37
 70
     0
 10
0.0
 20
0.0
 30
0.0
  3
block 37
  1

  0
SPLINE
  5
154
330
150
100
AcDbEntity
  8
Livello 1
 62
    28
420
  1249801
370
    53
100
AcDbSpline
210
0.0
220
0.0
230
1.0
 70
     8
 71
     3
 72
    11
 73
     7
 74
     0
 42
0.000000001
 43
0.0000000001
 40
0.0
 40
0.0
 40
0.0
 40
0.0
 40
1.0
 40
1.0
 40
1.0
 40
2.0
 40
2.0
 40
2.0
 40
2.0
 10
98.50984614091792
 20
445.8255947376719
 30
0.0
 10
99.27358956783336
 20
445.4392756198657
 30
0.0
 10
99.55131445034842
 20
444.9885699824371
 30
0.0
 10
99.62074567097623
 20
444.3447047861018
 30
0.0
 10
99.62074567097623
 20
444.3447047861018
 30
0.0
 10
99.62074567097623
 20
444.2803182664693
 30
0.0
 10
99.62074567097623
 20
444.2803182664693
 30
0.0
  0
ENDBLK
  5
153
330
150
100
AcDbEntity
  8
0
100
AcDbBlockEnd
  0
BLOCK
  5
157
330
155
100
AcDbEntity
  8
0
100
AcDbBlockBegin
  2
block 38
 70
     0
 10
0.0
 20
0.0
 30
0.0
  3
block 38
  1

  0
SPLINE
  5
159
330
155
100
AcDbEntity
  8
Livello 1
 62
    28
420
  1249801
370
    53
100
AcDbSpline
210
0.0
220
0.0
230
1.0
 70
     9
 71
     3
 72
    35
 73
    31
 74
     0
 42
0.000000001
 43
0.0000000001
 40
0.0
 40
0.0
 40
0.0
 40
0.0
 40
1.0
 40
1.0
 40
1.0
 40
2.0
 40
2.0
 40
2.0
 40
3.0
 40
3.0
 40
3.0
 40
4.0
 40
4.0
 40
4.0
 40
5.0
 40
5.0
 40
5.0
 40
6.0
 40
6.0
 40
6.0
 40
7.0
 40
7.0
 40
7.0
 40
8.0
 40
8.0
 40
8.0
 40
9.0
 40
9.0
 40
9.0
 40
10.0
 40
10.0
 40
10.0
 40
10.0
 10
102.1202696136106
 20
446.3077559212806
 30
0.0
 10
100.2830665661504
 20
444.549016762553
 30
0.0
 10
100.3844890978926
 20
438.7430775779848
 30
0.0
 10
100.3844890978926
 20
438.7430775779848
 30
0.0
 10
100.3844890978926
 20
438.7430775779848
 30
0.0
 10
100.7147756867507
 20
447.1948746099624
 30
0.0
 10
100.3844890978926
 20
438.7430775779848
 30
0.0
 10
100.0542025090335
 20
430.2912805460073
 30
0.0
 10
102.467425716748
 20
429.2567359874128
 30
0.0
 10
102.467425716748
 20
429.2567359874128
 30
0.0
 10
102.467425716748
 20
429.2567359874128
 30
0.0
 10
115.1733390917898
 20
429.2567359874128
 30
0.0
 10
115.1733390917898
 20
429.2567359874128
 30
0.0
 10
115.1733390917898
 20
429.2567359874128
 30
0.0
 10
115.713785634488
 20
429.686829798512
 30
0.0
 10
115.713785634488
 20
429.686829798512
 30
0.0
 10
115.713785634488
 20
429.686829798512
 30
0.0
 10
114.111068799044
 20
431.8503129543451
 30
0.0
 10
114.111068799044
 20
438.2262819094885
 30
0.0
 10
114.111068799044
 20
438.2262819094885
 30
0.0
 10
113.8809569098712
 20
444.8105029035668
 30
0.0
 10
116.5597065843103
 20
446.3077559212806
 30
0.0
 10
116.5597065843103
 20
446.3077559212806
 30
0.0
 10
115.6123835253002
 20
446.955178980701
 30
0.0
 10
115.6123835253002
 20
446.955178980701
 30
0.0
 10
115.6123835253002
 20
446.955178980701
 30
0.0
 10
102.571102215531
 20
446.955178980701
 30
0.0
 10
102.571102215531
 20
446.955178980701
 30
0.0
 10
102.571102215531
 20
446.955178980701
 30
0.0
 10
102.1202696136106
 20
446.3077559212806
 30
0.0
 10
102.1202696136106
 20
446.3077559212806
 30
0.0
  0
ENDBLK
  5
158
330
155
100
AcDbEntity
  8
0
100
AcDbBlockEnd
  0
BLOCK
  5
15C
330
15A
100
AcDbEntity
  8
0
100
AcDbBlockBegin
  2
block 39
 70
     0
 10
0.0
 20
0.0
 30
0.0
  3
block 39
  1

  0
POLYLINE
  5
15E
330
15A
100
AcDbEntity
  8
Livello 1
 62
    28
420
  1249801
370
    53
100
AcDb2dPolyline
 66
     1
 10
0.0
 20
0.0
 30
0.0
  0
VERTEX
  5
15F
330
15E
100
AcDbEntity
  8
Livello 1
 62
    28
420
  1249801
370
    53
100
AcDbVertex
100
AcDb2dVertex
 10
98.4404149202901
 20
445.8255947376719
 30
0.0
  0
VERTEX
  5
160
330
15E
100
AcDbEntity
  8
Livello 1
 62
    28
420
  1249801
370
    53
100
AcDbVertex
100
AcDb2dVertex
 10
98.09325881714631
 20
446.2119138554654
 30
0.0
  0
SEQEND
  5
161
330
15E
100
AcDbEntity
  8
Livello 1
 62
    28
420
  1249801
370
    53
  0
ENDBLK
  5
15D
330
15A
100
AcDbEntity
  8
0
100
AcDbBlockEnd
  0
BLOCK
  5
164
330
162
100
AcDbEntity
  8
0
100
AcDbBlockBegin
  2
block 40
 70
     0
 10
0.0
 20
0.0
 30
0.0
  3
block 40
  1

  0
POLYLINE
  5
166
330
162
100
AcDbEntity
  8
Livello 1
 62
    28
420
  1249801
370
    53
100
AcDb2dPolyline
 66
     1
 10
0.0
 20
0.0
 30
0.0
  0
VERTEX
  5
167
330
166
100
AcDbEntity
  8
Livello 1
 62
    28
420
  1249801
370
    53
100
AcDbVertex
100
AcDb2dVertex
 10
98.16269003777417
 20
431.4030143397686
 30
0.0
  0
VERTEX
  5
168
330
166
100
AcDbEntity
  8
Livello 1
 62
    28
420
  1249801
370
    53
100
AcDbVertex
100
AcDb2dVertex
 10
101.0907405533417
 20
431.4030143397686
 30
0.0
  0
SEQEND
  5
169
330
166
100
AcDbEntity
  8
Livello 1
 62
    28
420
  1249801
370
    53
  0
ENDBLK
  5
165
330
162
100
AcDbEntity
  8
0
100
AcDbBlockEnd
  0
BLOCK
  5
16C
330
16A
100
AcDbEntity
  8
0
100
AcDbBlockBegin
  2
block 41
 70
     0
 10
0.0
 20
0.0
 30
0.0
  3
block 41
  1

  0
POLYLINE
  5
16E
330
16A
100
AcDbEntity
  8
Livello 1
 62
    28
420
  1249801
370
    53
100
AcDb2dPolyline
 66
     1
 10
0.0
 20
0.0
 30
0.0
  0
VERTEX
  5
16F
330
16E
100
AcDbEntity
  8
Livello 1
 62
    28
420
  1249801
370
    53
100
AcDbVertex
100
AcDb2dVertex
 10
57.37179749959341
 20
445.5949021766463
 30
0.0
  0
VERTEX
  5
170
330
16E
100
AcDbEntity
  8
Livello 1
 62
    28
420
  1249801
370
    53
100
AcDbVertex
100
AcDb2dVertex
 10
60.34234892075256
 20
445.5949021766463
 30
0.0
  0
VERTEX
  5
171
330
16E
100
AcDbEntity
  8
Livello 1
 62
    28
420
  1249801
370
    53
100
AcDbVertex
100
AcDb2dVertex
 10
66.95422143880932
 20
445.5949021766463
 30
0.0
  0
VERTEX
  5
172
330
16E
100
AcDbEntity
  8
Livello 1
 62
    28
420
  1249801
370
    53
100
AcDbVertex
100
AcDb2dVertex
 10
78.26148168707914
 20
445.5949021766463
 30
0.0
  0
SEQEND
  5
173
330
16E
100
AcDbEntity
  8
Livello 1
 62
    28
420
  1249801
370
    53
  0
ENDBLK
  5
16D
330
16A
100
AcDbEntity
  8
0
100
AcDbBlockEnd
  0
BLOCK
  5
176
330
174
100
AcDbEntity
  8
0
100
AcDbBlockBegin
  2
block 42
 70
     0
 10
0.0
 20
0.0
 30
0.0
  3
block 42
  1

  0
SPLINE
  5
178
330
174
100
AcDbEntity
  8
Livello 1
 62
    28
420
  1249801
370
    53
100
AcDbSpline
210
0.0
220
0.0
230
1.0
 70
     8
 71
     3
 72
    20
 73
    16
 74
     0
 42
0.000000001
 43
0.0000000001
 40
0.0
 40
0.0
 40
0.0
 40
0.0
 40
1.0
 40
1.0
 40
1.0
 40
2.0
 40
2.0
 40
2.0
 40
3.0
 40
3.0
 40
3.0
 40
4.0
 40
4.0
 40
4.0
 40
5.0
 40
5.0
 40
5.0
 40
5.0
 10
78.39344678089672
 20
445.5949021766463
 30
0.0
 10
79.01832776655737
 20
445.1441965392205
 30
0.0
 10
79.50434631095595
 20
444.6934909017818
 30
0.0
 10
79.9209336347285
 20
444.1783987447106
 30
0.0
 10
80.47638339975947
 20
443.5989200680069
 30
0.0
 10
80.89297072353021
 20
442.9550548716833
 30
0.0
 10
81.17069560604704
 20
442.3111896753479
 30
0.0
 10
81.93443903296337
 20
440.8946862434113
 30
0.0
 10
82.28159513610718
 20
439.3494097722087
 30
0.0
 10
82.35102635673412
 20
437.7397467813606
 30
0.0
 10
82.35102635673412
 20
436.2588568297915
 30
0.0
 10
82.07330147421817
 20
434.7135803585888
 30
0.0
 10
81.37898926793059
 20
433.3614634462846
 30
0.0
 10
80.82353950290325
 20
432.1381195732573
 30
0.0
 10
79.9209336347285
 20
431.1079352591141
 30
0.0
 10
78.74060288404052
 20
430.3996835431461
 30
0.0
  0
ENDBLK
  5
177
330
174
100
AcDbEntity
  8
0
100
AcDbBlockEnd
  0
BLOCK
  5
17B
330
179
100
AcDbEntity
  8
0
100
AcDbBlockBegin
  2
block 43
 70
     0
 10
0.0
 20
0.0
 30
0.0
  3
block 43
  1

  0
POLYLINE
  5
17D
330
179
100
AcDbEntity
  8
Livello 1
 62
    28
420
  1249801
370
    53
100
AcDb2dPolyline
 66
     1
 10
0.0
 20
0.0
 30
0.0
  0
VERTEX
  5
17E
330
17D
100
AcDbEntity
  8
Livello 1
 62
    28
420
  1249801
370
    53
100
AcDbVertex
100
AcDb2dVertex
 10
78.74060288404052
 20
430.3996835431461
 30
0.0
  0
VERTEX
  5
17F
330
17D
100
AcDbEntity
  8
Livello 1
 62
    28
420
  1249801
370
    53
100
AcDbVertex
100
AcDb2dVertex
 10
67.62499111455871
 20
430.3996835431461
 30
0.0
  0
VERTEX
  5
180
330
17D
100
AcDbEntity
  8
Livello 1
 62
    28
420
  1249801
370
    53
100
AcDbVertex
100
AcDb2dVertex
 10
60.62982163893412
 20
430.3996835431461
 30
0.0
  0
VERTEX
  5
181
330
17D
100
AcDbEntity
  8
Livello 1
 62
    28
420
  1249801
370
    53
100
AcDbVertex
100
AcDb2dVertex
 10
57.94674293595472
 20
430.3996835431461
 30
0.0
  0
SEQEND
  5
182
330
17D
100
AcDbEntity
  8
Livello 1
 62
    28
420
  1249801
370
    53
  0
ENDBLK
  5
17C
330
179
100
AcDbEntity
  8
0
100
AcDbBlockEnd
  0
BLOCK
  5
18F
330
18D
100
AcDbEntity
  8
0
100
AcDbBlockBegin
  2
block 44
 70
     0
 10
0.0
 20
0.0
 30
0.0
  3
block 44
  1

  0
SPLINE
  5
191
330
18D
100
AcDbEntity
  8
Livello 1
370
     0
100
AcDbSpline
210
0.0
220
0.0
230
1.0
 70
    11
 71
     3
 72
    50
 73
    46
 74
     0
 42
0.000000001
 43
0.0000000001
 40
0.0
 40
0.0
 40
0.0
 40
0.0
 40
1.0
 40
1.0
 40
1.0
 40
2.0
 40
2.0
 40
2.0
 40
3.0
 40
3.0
 40
3.0
 40
4.0
 40
4.0
 40
4.0
 40
5.0
 40
5.0
 40
5.0
 40
6.0
 40
6.0
 40
6.0
 40
7.0
 40
7.0
 40
7.0
 40
8.0
 40
8.0
 40
8.0
 40
9.0
 40
9.0
 40
9.0
 40
10.0
 40
10.0
 40
10.0
 40
11.0
 40
11.0
 40
11.0
 40
12.0
 40
12.0
 40
12.0
 40
13.0
 40
13.0
 40
13.0
 40
14.0
 40
14.0
 40
14.0
 40
15.0
 40
15.0
 40
15.0
 40
15.0
 10
532.8886718749999
 20
445.212890625
 30
0.0
 10
532.8886718749999
 20
445.212890625
 30
0.0
 10
532.8886718749999
 20
450.419921875
 30
0.0
 10
532.8886718749999
 20
450.419921875
 30
0.0
 10
532.8886718749999
 20
450.419921875
 30
0.0
 10
529.3828125
 20
450.9453125
 30
0.0
 10
529.3828125
 20
450.9453125
 30
0.0
 10
529.4248046875
 20
450.630859375
 30
0.0
 10
529.4667968749999
 20
450.3359375
 30
0.0
 10
529.4667968749999
 20
449.8320312499999
 30
0.0
 10
529.4667968749999
 20
448.7832031249999
 30
0.0
 10
529.236328125
 20
447.7324218749999
 30
0.0
 10
528.732421875
 20
446.892578125
 30
0.0
 10
528.123046875
 20
445.822265625
 30
0.0
 10
526.947265625
 20
444.9404296875
 30
0.0
 10
525.2255859375
 20
444.9404296875
 30
0.0
 10
522.55859375
 20
444.9404296875
 30
0.0
 10
520.5644531249999
 20
447.060546875
 30
0.0
 10
520.5644531249999
 20
450.021484375
 30
0.0
 10
520.5644531249999
 20
451.51171875
 30
0.0
 10
520.984375
 20
452.771484375
 30
0.0
 10
521.404296875
 20
453.4228515625
 30
0.0
 10
521.404296875
 20
453.4228515625
 30
0.0
 10
522.8105468749999
 20
452.9609374999999
 30
0.0
 10
522.8105468749999
 20
452.9609374999999
 30
0.0
 10
522.474609375
 20
452.39453125
 30
0.0
 10
522.0546875
 20
451.2812499999999
 30
0.0
 10
522.0546875
 20
450.04296875
 30
0.0
 10
522.0546875
 20
448.2998046875
 30
0.0
 10
523.189453125
 20
446.8085937499999
 30
0.0
 10
525.0156249999999
 20
446.8085937499999
 30
0.0
 10
526.779296875
 20
446.8300781249999
 30
0.0
 10
528.0390624999999
 20
448.0058593749999
 30
0.0
 10
528.0390624999999
 20
450.7353515624999
 30
0.0
 10
528.0390624999999
 20
451.51171875
 30
0.0
 10
527.955078125
 20
452.12109375
 30
0.0
 10
527.8925781249999
 20
452.625
 30
0.0
 10
527.8925781249999
 20
452.625
 30
0.0
 10
534.4433593749999
 20
451.7431640625
 30
0.0
 10
534.4433593749999
 20
451.7431640625
 30
0.0
 10
534.4433593749999
 20
451.7431640625
 30
0.0
 10
534.4433593749999
 20
445.212890625
 30
0.0
 10
534.4433593749999
 20
445.212890625
 30
0.0
 10
534.4433593749999
 20
445.212890625
 30
0.0
 10
532.8886718749999
 20
445.212890625
 30
0.0
 10
532.8886718749999
 20
445.212890625
 30
0.0
  0
HATCH
  5
192
330
18D
100
AcDbEntity
  8
Livello 1
 62
   250
420
  1907995
100
AcDbHatch
 10
0.0
 20
0.0
 30
0.0
210
0.0
220
0.0
230
1.0
  2
SOLID
 70
     1
 71
     0
 91
        1
 92
        1
 93
        1
 72
     4
 94
        3
 73
     0
 74
     0
 95
       50
 96
       46
 40
0.0
 40
0.0
 40
0.0
 40
0.0
 40
1.0
 40
1.0
 40
1.0
 40
2.0
 40
2.0
 40
2.0
 40
3.0
 40
3.0
 40
3.0
 40
4.0
 40
4.0
 40
4.0
 40
5.0
 40
5.0
 40
5.0
 40
6.0
 40
6.0
 40
6.0
 40
7.0
 40
7.0
 40
7.0
 40
8.0
 40
8.0
 40
8.0
 40
9.0
 40
9.0
 40
9.0
 40
10.0
 40
10.0
 40
10.0
 40
11.0
 40
11.0
 40
11.0
 40
12.0
 40
12.0
 40
12.0
 40
13.0
 40
13.0
 40
13.0
 40
14.0
 40
14.0
 40
14.0
 40
15.0
 40
15.0
 40
15.0
 40
15.0
 10
532.8886718749999
 20
445.212890625
 10
532.8886718749999
 20
445.212890625
 10
532.8886718749999
 20
450.419921875
 10
532.8886718749999
 20
450.419921875
 10
532.8886718749999
 20
450.419921875
 10
529.3828125
 20
450.9453125
 10
529.3828125
 20
450.9453125
 10
529.4248046875
 20
450.630859375
 10
529.4667968749999
 20
450.3359375
 10
529.4667968749999
 20
449.8320312499999
 10
529.4667968749999
 20
448.7832031249999
 10
529.236328125
 20
447.7324218749999
 10
528.732421875
 20
446.892578125
 10
528.123046875
 20
445.822265625
 10
526.947265625
 20
444.9404296875
 10
525.2255859375
 20
444.9404296875
 10
522.55859375
 20
444.9404296875
 10
520.5644531249999
 20
447.060546875
 10
520.5644531249999
 20
450.021484375
 10
520.5644531249999
 20
451.51171875
 10
520.984375
 20
452.771484375
 10
521.404296875
 20
453.4228515625
 10
521.404296875
 20
453.4228515625
 10
522.8105468749999
 20
452.9609374999999
 10
522.8105468749999
 20
452.9609374999999
 10
522.474609375
 20
452.39453125
 10
522.0546875
 20
451.2812499999999
 10
522.0546875
 20
450.04296875
 10
522.0546875
 20
448.2998046875
 10
523.189453125
 20
446.8085937499999
 10
525.0156249999999
 20
446.8085937499999
 10
526.779296875
 20
446.8300781249999
 10
528.0390624999999
 20
448.0058593749999
 10
528.0390624999999
 20
450.7353515624999
 10
528.0390624999999
 20
451.51171875
 10
527.955078125
 20
452.12109375
 10
527.8925781249999
 20
452.625
 10
527.8925781249999
 20
452.625
 10
534.4433593749999
 20
451.7431640625
 10
534.4433593749999
 20
451.7431640625
 10
534.4433593749999
 20
451.7431640625
 10
534.4433593749999
 20
445.212890625
 10
534.4433593749999
 20
445.212890625
 10
534.4433593749999
 20
445.212890625
 10
532.8886718749999
 20
445.212890625
 10
532.8886718749999
 20
445.212890625
 97
        0
 97
        0
 75
     2
 76
     1
 98
        0
450
        0
451
        0
460
0.0
461
0.0
452
        0
462
0.0
453
        0
470

  0
SPLINE
  5
193
330
18D
100
AcDbEntity
  8
Livello 1
370
     0
100
AcDbSpline
210
0.0
220
0.0
230
1.0
 70
     9
 71
     3
 72
    41
 73
    37
 74
     0
 42
0.000000001
 43
0.0000000001
 40
0.0
 40
0.0
 40
0.0
 40
0.0
 40
1.0
 40
1.0
 40
1.0
 40
2.0
 40
2.0
 40
2.0
 40
3.0
 40
3.0
 40
3.0
 40
4.0
 40
4.0
 40
4.0
 40
5.0
 40
5.0
 40
5.0
 40
6.0
 40
6.0
 40
6.0
 40
7.0
 40
7.0
 40
7.0
 40
8.0
 40
8.0
 40
8.0
 40
9.0
 40
9.0
 40
9.0
 40
10.0
 40
10.0
 40
10.0
 40
11.0
 40
11.0
 40
11.0
 40
12.0
 40
12.0
 40
12.0
 40
12.0
 10
522.0976562499999
 20
441.5166015625
 30
0.0
 10
522.0546875
 20
441.1171874999999
 30
0.0
 10
522.0976562499999
 20
440.6562499999999
 30
0.0
 10
522.16015625
 20
440.0253906249999
 30
0.0
 10
522.306640625
 20
438.955078125
 30
0.0
 10
522.748046875
 20
437.9472656249999
 30
0.0
 10
523.482421875
 20
437.1699218749999
 30
0.0
 10
524.3017578125
 20
436.267578125
 30
0.0
 10
525.498046875
 20
435.6171875
 30
0.0
 10
527.1152343749999
 20
435.365234375
 30
0.0
 10
527.1152343749999
 20
435.365234375
 30
0.0
 10
527.1152343749999
 20
435.4277343749999
 30
0.0
 10
527.1152343749999
 20
435.4277343749999
 30
0.0
 10
526.1914062499999
 20
436.18359375
 30
0.0
 10
525.6455078124999
 20
437.2753906249999
 30
0.0
 10
525.6455078124999
 20
438.640625
 30
0.0
 10
525.6455078124999
 20
441.0966796874999
 30
0.0
 10
527.4931640624999
 20
442.671875
 30
0.0
 10
529.82421875
 20
442.671875
 30
0.0
 10
532.40625
 20
442.671875
 30
0.0
 10
534.673828125
 20
440.8027343749999
 30
0.0
 10
534.673828125
 20
438.009765625
 30
0.0
 10
534.673828125
 20
435.2177734375
 30
0.0
 10
532.40625
 20
433.49609375
 30
0.0
 10
528.9208984375
 20
433.49609375
 30
0.0
 10
525.91796875
 20
433.49609375
 30
0.0
 10
523.818359375
 20
434.5039062499999
 30
0.0
 10
522.5175781249999
 20
435.8476562499999
 30
0.0
 10
521.4882812499999
 20
436.8974609374999
 30
0.0
 10
520.8583984375
 20
438.3457031249999
 30
0.0
 10
520.6904296874999
 20
439.81640625
 30
0.0
 10
520.5859375
 20
440.48828125
 30
0.0
 10
520.5644531249999
 20
441.0761718749999
 30
0.0
 10
520.5859375
 20
441.5166015625
 30
0.0
 10
520.5859375
 20
441.5166015625
 30
0.0
 10
522.0976562499999
 20
441.5166015625
 30
0.0
 10
522.0976562499999
 20
441.5166015625
 30
0.0
  0
SPLINE
  5
194
330
18D
100
AcDbEntity
  8
Livello 1
370
     0
100
AcDbSpline
210
0.0
220
0.0
230
1.0
 70
     9
 71
     3
 72
    20
 73
    16
 74
     0
 42
0.000000001
 43
0.0000000001
 40
0.0
 40
0.0
 40
0.0
 40
0.0
 40
1.0
 40
1.0
 40
1.0
 40
2.0
 40
2.0
 40
2.0
 40
3.0
 40
3.0
 40
3.0
 40
4.0
 40
4.0
 40
4.0
 40
5.0
 40
5.0
 40
5.0
 40
5.0
 10
529.94921875
 20
440.8447265625
 30
0.0
 10
528.2490234375
 20
440.8447265625
 30
0.0
 10
527.052734375
 20
439.81640625
 30
0.0
 10
527.052734375
 20
438.220703125
 30
0.0
 10
527.052734375
 20
436.9814453125
 30
0.0
 10
527.6611328125
 20
436.015625
 30
0.0
 10
528.48046875
 20
435.5332031249999
 30
0.0
 10
528.6484374999999
 20
435.4277343749999
 30
0.0
 10
528.857421875
 20
435.365234375
 30
0.0
 10
529.15234375
 20
435.365234375
 30
0.0
 10
531.482421875
 20
435.365234375
 30
0.0
 10
533.2675781249999
 20
436.2255859374999
 30
0.0
 10
533.2675781249999
 20
438.1572265625
 30
0.0
 10
533.2675781249999
 20
439.7324218749999
 30
0.0
 10
531.880859375
 20
440.8447265625
 30
0.0
 10
529.94921875
 20
440.8447265625
 30
0.0
  0
HATCH
  5
195
330
18D
100
AcDbEntity
  8
Livello 1
 62
   250
420
  1907995
100
AcDbHatch
 10
0.0
 20
0.0
 30
0.0
210
0.0
220
0.0
230
1.0
  2
SOLID
 70
     1
 71
     0
 91
        2
 92
        1
 93
        1
 72
     4
 94
        3
 73
     0
 74
     0
 95
       41
 96
       37
 40
0.0
 40
0.0
 40
0.0
 40
0.0
 40
1.0
 40
1.0
 40
1.0
 40
2.0
 40
2.0
 40
2.0
 40
3.0
 40
3.0
 40
3.0
 40
4.0
 40
4.0
 40
4.0
 40
5.0
 40
5.0
 40
5.0
 40
6.0
 40
6.0
 40
6.0
 40
7.0
 40
7.0
 40
7.0
 40
8.0
 40
8.0
 40
8.0
 40
9.0
 40
9.0
 40
9.0
 40
10.0
 40
10.0
 40
10.0
 40
11.0
 40
11.0
 40
11.0
 40
12.0
 40
12.0
 40
12.0
 40
12.0
 10
522.0976562499999
 20
441.5166015625
 10
522.0546875
 20
441.1171874999999
 10
522.0976562499999
 20
440.6562499999999
 10
522.16015625
 20
440.0253906249999
 10
522.306640625
 20
438.955078125
 10
522.748046875
 20
437.9472656249999
 10
523.482421875
 20
437.1699218749999
 10
524.3017578125
 20
436.267578125
 10
525.498046875
 20
435.6171875
 10
527.1152343749999
 20
435.365234375
 10
527.1152343749999
 20
435.365234375
 10
527.1152343749999
 20
435.4277343749999
 10
527.1152343749999
 20
435.4277343749999
 10
526.1914062499999
 20
436.18359375
 10
525.6455078124999
 20
437.2753906249999
 10
525.6455078124999
 20
438.640625
 10
525.6455078124999
 20
441.0966796874999
 10
527.4931640624999
 20
442.671875
 10
529.82421875
 20
442.671875
 10
532.40625
 20
442.671875
 10
534.673828125
 20
440.8027343749999
 10
534.673828125
 20
438.009765625
 10
534.673828125
 20
435.2177734375
 10
532.40625
 20
433.49609375
 10
528.9208984375
 20
433.49609375
 10
525.91796875
 20
433.49609375
 10
523.818359375
 20
434.5039062499999
 10
522.5175781249999
 20
435.8476562499999
 10
521.4882812499999
 20
436.8974609374999
 10
520.8583984375
 20
438.3457031249999
 10
520.6904296874999
 20
439.81640625
 10
520.5859375
 20
440.48828125
 10
520.5644531249999
 20
441.0761718749999
 10
520.5859375
 20
441.5166015625
 10
520.5859375
 20
441.5166015625
 10
522.0976562499999
 20
441.5166015625
 10
522.0976562499999
 20
441.5166015625
 97
        0
 97
        0
 92
        1
 93
        1
 72
     4
 94
        3
 73
     0
 74
     0
 95
       20
 96
       16
 40
0.0
 40
0.0
 40
0.0
 40
0.0
 40
1.0
 40
1.0
 40
1.0
 40
2.0
 40
2.0
 40
2.0
 40
3.0
 40
3.0
 40
3.0
 40
4.0
 40
4.0
 40
4.0
 40
5.0
 40
5.0
 40
5.0
 40
5.0
 10
529.94921875
 20
440.8447265625
 10
528.2490234375
 20
440.8447265625
 10
527.052734375
 20
439.81640625
 10
527.052734375
 20
438.220703125
 10
527.052734375
 20
436.9814453125
 10
527.6611328125
 20
436.015625
 10
528.48046875
 20
435.5332031249999
 10
528.6484374999999
 20
435.4277343749999
 10
528.857421875
 20
435.365234375
 10
529.15234375
 20
435.365234375
 10
531.482421875
 20
435.365234375
 10
533.2675781249999
 20
436.2255859374999
 10
533.2675781249999
 20
438.1572265625
 10
533.2675781249999
 20
439.7324218749999
 10
531.880859375
 20
440.8447265625
 10
529.94921875
 20
440.8447265625
 97
        0
 97
        0
 75
     2
 76
     1
 98
        0
450
        0
451
        0
460
0.0
461
0.0
452
        0
462
0.0
453
        0
470

  0
SPLINE
  5
196
330
18D
100
AcDbEntity
  8
Livello 1
370
     0
100
AcDbSpline
210
0.0
220
0.0
230
1.0
 70
     9
 71
     3
 72
    80
 73
    76
 74
     0
 42
0.000000001
 43
0.0000000001
 40
0.0
 40
0.0
 40
0.0
 40
0.0
 40
1.0
 40
1.0
 40
1.0
 40
2.0
 40
2.0
 40
2.0
 40
3.0
 40
3.0
 40
3.0
 40
4.0
 40
4.0
 40
4.0
 40
5.0
 40
5.0
 40
5.0
 40
6.0
 40
6.0
 40
6.0
 40
7.0
 40
7.0
 40
7.0
 40
8.0
 40
8.0
 40
8.0
 40
9.0
 40
9.0
 40
9.0
 40
10.0
 40
10.0
 40
10.0
 40
11.0
 40
11.0
 40
11.0
 40
12.0
 40
12.0
 40
12.0
 40
13.0
 40
13.0
 40
13.0
 40
14.0
 40
14.0
 40
14.0
 40
15.0
 40
15.0
 40
15.0
 40
16.0
 40
16.0
 40
16.0
 40
17.0
 40
17.0
 40
17.0
 40
18.0
 40
18.0
 40
18.0
 40
19.0
 40
19.0
 40
19.0
 40
20.0
 40
20.0
 40
20.0
 40
21.0
 40
21.0
 40
21.0
 40
22.0
 40
22.0
 40
22.0
 40
23.0
 40
23.0
 40
23.0
 40
24.0
 40
24.0
 40
24.0
 40
25.0
 40
25.0
 40
25.0
 40
25.0
 10
528.20703125
 20
426.775390625
 30
0.0
 10
529.2568359375
 20
426.775390625
 30
0.0
 10
530.1171875
 20
426.7958984375
 30
0.0
 10
530.95703125
 20
426.8593749999999
 30
0.0
 10
530.95703125
 20
426.8593749999999
 30
0.0
 10
530.95703125
 20
425.2421875
 30
0.0
 10
530.95703125
 20
425.2421875
 30
0.0
 10
530.95703125
 20
425.2421875
 30
0.0
 10
529.3203124999999
 20
425.1582031249999
 30
0.0
 10
529.3203124999999
 20
425.1582031249999
 30
0.0
 10
529.3203124999999
 20
425.1582031249999
 30
0.0
 10
529.3203124999999
 20
425.095703125
 30
0.0
 10
529.3203124999999
 20
425.095703125
 30
0.0
 10
530.2851562499999
 20
424.5283203125
 30
0.0
 10
531.1884765624999
 20
423.583984375
 30
0.0
 10
531.1884765624999
 20
421.904296875
 30
0.0
 10
531.1884765624999
 20
420.517578125
 30
0.0
 10
530.3486328125
 20
419.4687499999999
 30
0.0
 10
529.15234375
 20
419.02734375
 30
0.0
 10
529.15234375
 20
419.02734375
 30
0.0
 10
529.15234375
 20
418.9853515624999
 30
0.0
 10
529.15234375
 20
418.9853515624999
 30
0.0
 10
529.7187499999999
 20
418.669921875
 30
0.0
 10
530.16015625
 20
418.271484375
 30
0.0
 10
530.474609375
 20
417.8515625
 30
0.0
 10
530.9365234374999
 20
417.2421875
 30
0.0
 10
531.1884765624999
 20
416.5703125
 30
0.0
 10
531.1884765624999
 20
415.60546875
 30
0.0
 10
531.1884765624999
 20
414.2617187499999
 30
0.0
 10
530.306640625
 20
412.2666015624999
 30
0.0
 10
526.779296875
 20
412.2666015624999
 30
0.0
 10
526.779296875
 20
412.2666015624999
 30
0.0
 10
520.794921875
 20
412.2666015624999
 30
0.0
 10
520.794921875
 20
412.2666015624999
 30
0.0
 10
520.794921875
 20
412.2666015624999
 30
0.0
 10
520.794921875
 20
414.072265625
 30
0.0
 10
520.794921875
 20
414.072265625
 30
0.0
 10
520.794921875
 20
414.072265625
 30
0.0
 10
526.5488281249999
 20
414.072265625
 30
0.0
 10
526.5488281249999
 20
414.072265625
 30
0.0
 10
528.5009765625
 20
414.072265625
 30
0.0
 10
529.6767578125
 20
414.7861328124999
 30
0.0
 10
529.6767578125
 20
416.27734375
 30
0.0
 10
529.6767578125
 20
417.326171875
 30
0.0
 10
528.900390625
 20
418.1455078125
 30
0.0
 10
527.9970703125
 20
418.4609374999999
 30
0.0
 10
527.7451171874999
 20
418.5449218749999
 30
0.0
 10
527.4091796875
 20
418.6074218749999
 30
0.0
 10
527.0732421875
 20
418.6074218749999
 30
0.0
 10
527.0732421875
 20
418.6074218749999
 30
0.0
 10
520.794921875
 20
418.6074218749999
 30
0.0
 10
520.794921875
 20
418.6074218749999
 30
0.0
 10
520.794921875
 20
418.6074218749999
 30
0.0
 10
520.794921875
 20
420.4130859374999
 30
0.0
 10
520.794921875
 20
420.4130859374999
 30
0.0
 10
520.794921875
 20
420.4130859374999
 30
0.0
 10
526.884765625
 20
420.4130859374999
 30
0.0
 10
526.884765625
 20
420.4130859374999
 30
0.0
 10
528.5009765625
 20
420.4130859374999
 30
0.0
 10
529.6767578125
 20
421.126953125
 30
0.0
 10
529.6767578125
 20
422.5332031249999
 30
0.0
 10
529.6767578125
 20
423.6884765624999
 30
0.0
 10
528.7529296875
 20
424.5283203125
 30
0.0
 10
527.8291015625
 20
424.822265625
 30
0.0
 10
527.556640625
 20
424.927734375
 30
0.0
 10
527.2412109374999
 20
424.96875
 30
0.0
 10
526.92578125
 20
424.96875
 30
0.0
 10
526.92578125
 20
424.96875
 30
0.0
 10
520.794921875
 20
424.96875
 30
0.0
 10
520.794921875
 20
424.96875
 30
0.0
 10
520.794921875
 20
424.96875
 30
0.0
 10
520.794921875
 20
426.775390625
 30
0.0
 10
520.794921875
 20
426.775390625
 30
0.0
 10
520.794921875
 20
426.775390625
 30
0.0
 10
528.20703125
 20
426.775390625
 30
0.0
 10
528.20703125
 20
426.775390625
 30
0.0
  0
HATCH
  5
197
330
18D
100
AcDbEntity
  8
Livello 1
 62
   250
420
  1907995
100
AcDbHatch
 10
0.0
 20
0.0
 30
0.0
210
0.0
220
0.0
230
1.0
  2
SOLID
 70
     1
 71
     0
 91
        1
 92
        1
 93
        1
 72
     4
 94
        3
 73
     0
 74
     0
 95
       80
 96
       76
 40
0.0
 40
0.0
 40
0.0
 40
0.0
 40
1.0
 40
1.0
 40
1.0
 40
2.0
 40
2.0
 40
2.0
 40
3.0
 40
3.0
 40
3.0
 40
4.0
 40
4.0
 40
4.0
 40
5.0
 40
5.0
 40
5.0
 40
6.0
 40
6.0
 40
6.0
 40
7.0
 40
7.0
 40
7.0
 40
8.0
 40
8.0
 40
8.0
 40
9.0
 40
9.0
 40
9.0
 40
10.0
 40
10.0
 40
10.0
 40
11.0
 40
11.0
 40
11.0
 40
12.0
 40
12.0
 40
12.0
 40
13.0
 40
13.0
 40
13.0
 40
14.0
 40
14.0
 40
14.0
 40
15.0
 40
15.0
 40
15.0
 40
16.0
 40
16.0
 40
16.0
 40
17.0
 40
17.0
 40
17.0
 40
18.0
 40
18.0
 40
18.0
 40
19.0
 40
19.0
 40
19.0
 40
20.0
 40
20.0
 40
20.0
 40
21.0
 40
21.0
 40
21.0
 40
22.0
 40
22.0
 40
22.0
 40
23.0
 40
23.0
 40
23.0
 40
24.0
 40
24.0
 40
24.0
 40
25.0
 40
25.0
 40
25.0
 40
25.0
 10
528.20703125
 20
426.775390625
 10
529.2568359375
 20
426.775390625
 10
530.1171875
 20
426.7958984375
 10
530.95703125
 20
426.8593749999999
 10
530.95703125
 20
426.8593749999999
 10
530.95703125
 20
425.2421875
 10
530.95703125
 20
425.2421875
 10
530.95703125
 20
425.2421875
 10
529.3203124999999
 20
425.1582031249999
 10
529.3203124999999
 20
425.1582031249999
 10
529.3203124999999
 20
425.1582031249999
 10
529.3203124999999
 20
425.095703125
 10
529.3203124999999
 20
425.095703125
 10
530.2851562499999
 20
424.5283203125
 10
531.1884765624999
 20
423.583984375
 10
531.1884765624999
 20
421.904296875
 10
531.1884765624999
 20
420.517578125
 10
530.3486328125
 20
419.4687499999999
 10
529.15234375
 20
419.02734375
 10
529.15234375
 20
419.02734375
 10
529.15234375
 20
418.9853515624999
 10
529.15234375
 20
418.9853515624999
 10
529.7187499999999
 20
418.669921875
 10
530.16015625
 20
418.271484375
 10
530.474609375
 20
417.8515625
 10
530.9365234374999
 20
417.2421875
 10
531.1884765624999
 20
416.5703125
 10
531.1884765624999
 20
415.60546875
 10
531.1884765624999
 20
414.2617187499999
 10
530.306640625
 20
412.2666015624999
 10
526.779296875
 20
412.2666015624999
 10
526.779296875
 20
412.2666015624999
 10
520.794921875
 20
412.2666015624999
 10
520.794921875
 20
412.2666015624999
 10
520.794921875
 20
412.2666015624999
 10
520.794921875
 20
414.072265625
 10
520.794921875
 20
414.072265625
 10
520.794921875
 20
414.072265625
 10
526.5488281249999
 20
414.072265625
 10
526.5488281249999
 20
414.072265625
 10
528.5009765625
 20
414.072265625
 10
529.6767578125
 20
414.7861328124999
 10
529.6767578125
 20
416.27734375
 10
529.6767578125
 20
417.326171875
 10
528.900390625
 20
418.1455078125
 10
527.9970703125
 20
418.4609374999999
 10
527.7451171874999
 20
418.5449218749999
 10
527.4091796875
 20
418.6074218749999
 10
527.0732421875
 20
418.6074218749999
 10
527.0732421875
 20
418.6074218749999
 10
520.794921875
 20
418.6074218749999
 10
520.794921875
 20
418.6074218749999
 10
520.794921875
 20
418.6074218749999
 10
520.794921875
 20
420.4130859374999
 10
520.794921875
 20
420.4130859374999
 10
520.794921875
 20
420.4130859374999
 10
526.884765625
 20
420.4130859374999
 10
526.884765625
 20
420.4130859374999
 10
528.5009765625
 20
420.4130859374999
 10
529.6767578125
 20
421.126953125
 10
529.6767578125
 20
422.5332031249999
 10
529.6767578125
 20
423.6884765624999
 10
528.7529296875
 20
424.5283203125
 10
527.8291015625
 20
424.822265625
 10
527.556640625
 20
424.927734375
 10
527.2412109374999
 20
424.96875
 10
526.92578125
 20
424.96875
 10
526.92578125
 20
424.96875
 10
520.794921875
 20
424.96875
 10
520.794921875
 20
424.96875
 10
520.794921875
 20
424.96875
 10
520.794921875
 20
426.775390625
 10
520.794921875
 20
426.775390625
 10
520.794921875
 20
426.775390625
 10
528.20703125
 20
426.775390625
 10
528.20703125
 20
426.775390625
 97
        0
 97
        0
 75
     2
 76
     1
 98
        0
450
        0
451
        0
460
0.0
461
0.0
452
        0
462
0.0
453
        0
470

  0
SPLINE
  5
198
330
18D
100
AcDbEntity
  8
Livello 1
370
     0
100
AcDbSpline
210
0.0
220
0.0
230
1.0
 70
     9
 71
     3
 72
    80
 73
    76
 74
     0
 42
0.000000001
 43
0.0000000001
 40
0.0
 40
0.0
 40
0.0
 40
0.0
 40
1.0
 40
1.0
 40
1.0
 40
2.0
 40
2.0
 40
2.0
 40
3.0
 40
3.0
 40
3.0
 40
4.0
 40
4.0
 40
4.0
 40
5.0
 40
5.0
 40
5.0
 40
6.0
 40
6.0
 40
6.0
 40
7.0
 40
7.0
 40
7.0
 40
8.0
 40
8.0
 40
8.0
 40
9.0
 40
9.0
 40
9.0
 40
10.0
 40
10.0
 40
10.0
 40
11.0
 40
11.0
 40
11.0
 40
12.0
 40
12.0
 40
12.0
 40
13.0
 40
13.0
 40
13.0
 40
14.0
 40
14.0
 40
14.0
 40
15.0
 40
15.0
 40
15.0
 40
16.0
 40
16.0
 40
16.0
 40
17.0
 40
17.0
 40
17.0
 40
18.0
 40
18.0
 40
18.0
 40
19.0
 40
19.0
 40
19.0
 40
20.0
 40
20.0
 40
20.0
 40
21.0
 40
21.0
 40
21.0
 40
22.0
 40
22.0
 40
22.0
 40
23.0
 40
23.0
 40
23.0
 40
24.0
 40
24.0
 40
24.0
 40
25.0
 40
25.0
 40
25.0
 40
25.0
 10
528.20703125
 20
409.26171875
 30
0.0
 10
529.2568359375
 20
409.26171875
 30
0.0
 10
530.1171875
 20
409.2822265625
 30
0.0
 10
530.95703125
 20
409.3457031249999
 30
0.0
 10
530.95703125
 20
409.3457031249999
 30
0.0
 10
530.95703125
 20
407.728515625
 30
0.0
 10
530.95703125
 20
407.728515625
 30
0.0
 10
530.95703125
 20
407.728515625
 30
0.0
 10
529.3203124999999
 20
407.6445312499999
 30
0.0
 10
529.3203124999999
 20
407.6445312499999
 30
0.0
 10
529.3203124999999
 20
407.6445312499999
 30
0.0
 10
529.3203124999999
 20
407.58203125
 30
0.0
 10
529.3203124999999
 20
407.58203125
 30
0.0
 10
530.2851562499999
 20
407.0146484374999
 30
0.0
 10
531.1884765624999
 20
406.0703124999999
 30
0.0
 10
531.1884765624999
 20
404.390625
 30
0.0
 10
531.1884765624999
 20
403.00390625
 30
0.0
 10
530.3486328125
 20
401.955078125
 30
0.0
 10
529.15234375
 20
401.513671875
 30
0.0
 10
529.15234375
 20
401.513671875
 30
0.0
 10
529.15234375
 20
401.4716796874999
 30
0.0
 10
529.15234375
 20
401.4716796874999
 30
0.0
 10
529.7187499999999
 20
401.15625
 30
0.0
 10
530.16015625
 20
400.7578125
 30
0.0
 10
530.474609375
 20
400.337890625
 30
0.0
 10
530.9365234374999
 20
399.728515625
 30
0.0
 10
531.1884765624999
 20
399.056640625
 30
0.0
 10
531.1884765624999
 20
398.091796875
 30
0.0
 10
531.1884765624999
 20
396.748046875
 30
0.0
 10
530.306640625
 20
394.7529296875
 30
0.0
 10
526.779296875
 20
394.7529296875
 30
0.0
 10
526.779296875
 20
394.7529296875
 30
0.0
 10
520.794921875
 20
394.7529296875
 30
0.0
 10
520.794921875
 20
394.7529296875
 30
0.0
 10
520.794921875
 20
394.7529296875
 30
0.0
 10
520.794921875
 20
396.55859375
 30
0.0
 10
520.794921875
 20
396.55859375
 30
0.0
 10
520.794921875
 20
396.55859375
 30
0.0
 10
526.5488281249999
 20
396.55859375
 30
0.0
 10
526.5488281249999
 20
396.55859375
 30
0.0
 10
528.5009765625
 20
396.55859375
 30
0.0
 10
529.6767578125
 20
397.2724609375
 30
0.0
 10
529.6767578125
 20
398.763671875
 30
0.0
 10
529.6767578125
 20
399.8125
 30
0.0
 10
528.900390625
 20
400.6318359375
 30
0.0
 10
527.9970703125
 20
400.9472656249999
 30
0.0
 10
527.7451171874999
 20
401.03125
 30
0.0
 10
527.4091796875
 20
401.0937499999999
 30
0.0
 10
527.0732421875
 20
401.0937499999999
 30
0.0
 10
527.0732421875
 20
401.0937499999999
 30
0.0
 10
520.794921875
 20
401.0937499999999
 30
0.0
 10
520.794921875
 20
401.0937499999999
 30
0.0
 10
520.794921875
 20
401.0937499999999
 30
0.0
 10
520.794921875
 20
402.8994140625
 30
0.0
 10
520.794921875
 20
402.8994140625
 30
0.0
 10
520.794921875
 20
402.8994140625
 30
0.0
 10
526.884765625
 20
402.8994140625
 30
0.0
 10
526.884765625
 20
402.8994140625
 30
0.0
 10
528.5009765625
 20
402.8994140625
 30
0.0
 10
529.6767578125
 20
403.61328125
 30
0.0
 10
529.6767578125
 20
405.0195312499999
 30
0.0
 10
529.6767578125
 20
406.1748046875
 30
0.0
 10
528.7529296875
 20
407.0146484374999
 30
0.0
 10
527.8291015625
 20
407.30859375
 30
0.0
 10
527.556640625
 20
407.4140625
 30
0.0
 10
527.2412109374999
 20
407.455078125
 30
0.0
 10
526.92578125
 20
407.455078125
 30
0.0
 10
526.92578125
 20
407.455078125
 30
0.0
 10
520.794921875
 20
407.455078125
 30
0.0
 10
520.794921875
 20
407.455078125
 30
0.0
 10
520.794921875
 20
407.455078125
 30
0.0
 10
520.794921875
 20
409.26171875
 30
0.0
 10
520.794921875
 20
409.26171875
 30
0.0
 10
520.794921875
 20
409.26171875
 30
0.0
 10
528.20703125
 20
409.26171875
 30
0.0
 10
528.20703125
 20
409.26171875
 30
0.0
  0
HATCH
  5
199
330
18D
100
AcDbEntity
  8
Livello 1
 62
   250
420
  1907995
100
AcDbHatch
 10
0.0
 20
0.0
 30
0.0
210
0.0
220
0.0
230
1.0
  2
SOLID
 70
     1
 71
     0
 91
        1
 92
        1
 93
        1
 72
     4
 94
        3
 73
     0
 74
     0
 95
       80
 96
       76
 40
0.0
 40
0.0
 40
0.0
 40
0.0
 40
1.0
 40
1.0
 40
1.0
 40
2.0
 40
2.0
 40
2.0
 40
3.0
 40
3.0
 40
3.0
 40
4.0
 40
4.0
 40
4.0
 40
5.0
 40
5.0
 40
5.0
 40
6.0
 40
6.0
 40
6.0
 40
7.0
 40
7.0
 40
7.0
 40
8.0
 40
8.0
 40
8.0
 40
9.0
 40
9.0
 40
9.0
 40
10.0
 40
10.0
 40
10.0
 40
11.0
 40
11.0
 40
11.0
 40
12.0
 40
12.0
 40
12.0
 40
13.0
 40
13.0
 40
13.0
 40
14.0
 40
14.0
 40
14.0
 40
15.0
 40
15.0
 40
15.0
 40
16.0
 40
16.0
 40
16.0
 40
17.0
 40
17.0
 40
17.0
 40
18.0
 40
18.0
 40
18.0
 40
19.0
 40
19.0
 40
19.0
 40
20.0
 40
20.0
 40
20.0
 40
21.0
 40
21.0
 40
21.0
 40
22.0
 40
22.0
 40
22.0
 40
23.0
 40
23.0
 40
23.0
 40
24.0
 40
24.0
 40
24.0
 40
25.0
 40
25.0
 40
25.0
 40
25.0
 10
528.20703125
 20
409.26171875
 10
529.2568359375
 20
409.26171875
 10
530.1171875
 20
409.2822265625
 10
530.95703125
 20
409.3457031249999
 10
530.95703125
 20
409.3457031249999
 10
530.95703125
 20
407.728515625
 10
530.95703125
 20
407.728515625
 10
530.95703125
 20
407.728515625
 10
529.3203124999999
 20
407.6445312499999
 10
529.3203124999999
 20
407.6445312499999
 10
529.3203124999999
 20
407.6445312499999
 10
529.3203124999999
 20
407.58203125
 10
529.3203124999999
 20
407.58203125
 10
530.2851562499999
 20
407.0146484374999
 10
531.1884765624999
 20
406.0703124999999
 10
531.1884765624999
 20
404.390625
 10
531.1884765624999
 20
403.00390625
 10
530.3486328125
 20
401.955078125
 10
529.15234375
 20
401.513671875
 10
529.15234375
 20
401.513671875
 10
529.15234375
 20
401.4716796874999
 10
529.15234375
 20
401.4716796874999
 10
529.7187499999999
 20
401.15625
 10
530.16015625
 20
400.7578125
 10
530.474609375
 20
400.337890625
 10
530.9365234374999
 20
399.728515625
 10
531.1884765624999
 20
399.056640625
 10
531.1884765624999
 20
398.091796875
 10
531.1884765624999
 20
396.748046875
 10
530.306640625
 20
394.7529296875
 10
526.779296875
 20
394.7529296875
 10
526.779296875
 20
394.7529296875
 10
520.794921875
 20
394.7529296875
 10
520.794921875
 20
394.7529296875
 10
520.794921875
 20
394.7529296875
 10
520.794921875
 20
396.55859375
 10
520.794921875
 20
396.55859375
 10
520.794921875
 20
396.55859375
 10
526.5488281249999
 20
396.55859375
 10
526.5488281249999
 20
396.55859375
 10
528.5009765625
 20
396.55859375
 10
529.6767578125
 20
397.2724609375
 10
529.6767578125
 20
398.763671875
 10
529.6767578125
 20
399.8125
 10
528.900390625
 20
400.6318359375
 10
527.9970703125
 20
400.9472656249999
 10
527.7451171874999
 20
401.03125
 10
527.4091796875
 20
401.0937499999999
 10
527.0732421875
 20
401.0937499999999
 10
527.0732421875
 20
401.0937499999999
 10
520.794921875
 20
401.0937499999999
 10
520.794921875
 20
401.0937499999999
 10
520.794921875
 20
401.0937499999999
 10
520.794921875
 20
402.8994140625
 10
520.794921875
 20
402.8994140625
 10
520.794921875
 20
402.8994140625
 10
526.884765625
 20
402.8994140625
 10
526.884765625
 20
402.8994140625
 10
528.5009765625
 20
402.8994140625
 10
529.6767578125
 20
403.61328125
 10
529.6767578125
 20
405.0195312499999
 10
529.6767578125
 20
406.1748046875
 10
528.7529296875
 20
407.0146484374999
 10
527.8291015625
 20
407.30859375
 10
527.556640625
 20
407.4140625
 10
527.2412109374999
 20
407.455078125
 10
526.92578125
 20
407.455078125
 10
526.92578125
 20
407.455078125
 10
520.794921875
 20
407.455078125
 10
520.794921875
 20
407.455078125
 10
520.794921875
 20
407.455078125
 10
520.794921875
 20
409.26171875
 10
520.794921875
 20
409.26171875
 10
520.794921875
 20
409.26171875
 10
528.20703125
 20
409.26171875
 10
528.20703125
 20
409.26171875
 97
        0
 97
        0
 75
     2
 76
     1
 98
        0
450
        0
451
        0
460
0.0
461
0.0
452
        0
462
0.0
453
        0
470

  0
ENDBLK
  5
190
330
18D
100
AcDbEntity
  8
0
100
AcDbBlockEnd
  0
BLOCK
  5
19C
330
19A
100
AcDbEntity
  8
0
100
AcDbBlockBegin
  2
block 45
 70
     0
 10
0.0
 20
0.0
 30
0.0
  3
block 45
  1

  0
SPLINE
  5
19E
330
19A
100
AcDbEntity
  8
Livello 1
370
     0
100
AcDbSpline
210
0.0
220
0.0
230
1.0
 70
    11
 71
     3
 72
    50
 73
    46
 74
     0
 42
0.000000001
 43
0.0000000001
 40
0.0
 40
0.0
 40
0.0
 40
0.0
 40
1.0
 40
1.0
 40
1.0
 40
2.0
 40
2.0
 40
2.0
 40
3.0
 40
3.0
 40
3.0
 40
4.0
 40
4.0
 40
4.0
 40
5.0
 40
5.0
 40
5.0
 40
6.0
 40
6.0
 40
6.0
 40
7.0
 40
7.0
 40
7.0
 40
8.0
 40
8.0
 40
8.0
 40
9.0
 40
9.0
 40
9.0
 40
10.0
 40
10.0
 40
10.0
 40
11.0
 40
11.0
 40
11.0
 40
12.0
 40
12.0
 40
12.0
 40
13.0
 40
13.0
 40
13.0
 40
14.0
 40
14.0
 40
14.0
 40
15.0
 40
15.0
 40
15.0
 40
15.0
 10
259.26806640625
 20
344.3896484375
 30
0.0
 10
259.26806640625
 20
344.3896484375
 30
0.0
 10
254.06103515625
 20
344.3896484375
 30
0.0
 10
254.06103515625
 20
344.3896484375
 30
0.0
 10
254.06103515625
 20
344.3896484375
 30
0.0
 10
253.53564453125
 20
340.8828125
 30
0.0
 10
253.53564453125
 20
340.8828125
 30
0.0
 10
253.85009765625
 20
340.9248046875
 30
0.0
 10
254.14501953125
 20
340.966796875
 30
0.0
 10
254.64892578125
 20
340.966796875
 30
0.0
 10
255.69775390625
 20
340.966796875
 30
0.0
 10
256.74853515625
 20
340.736328125
 30
0.0
 10
257.58837890625
 20
340.232421875
 30
0.0
 10
258.65869140625
 20
339.623046875
 30
0.0
 10
259.54052734375
 20
338.447265625
 30
0.0
 10
259.54052734375
 20
336.7255859375
 30
0.0
 10
259.54052734375
 20
334.0595703125
 30
0.0
 10
257.42041015625
 20
332.064453125
 30
0.0
 10
254.45947265625
 20
332.064453125
 30
0.0
 10
252.96923828125
 20
332.064453125
 30
0.0
 10
251.70947265625
 20
332.484375
 30
0.0
 10
251.05810546875
 20
332.904296875
 30
0.0
 10
251.05810546875
 20
332.904296875
 30
0.0
 10
251.52001953125
 20
334.3115234375
 30
0.0
 10
251.52001953125
 20
334.3115234375
 30
0.0
 10
252.08642578125
 20
333.9755859375
 30
0.0
 10
253.19970703125
 20
333.5556640625
 30
0.0
 10
254.43798828125
 20
333.5556640625
 30
0.0
 10
256.18115234375
 20
333.5556640625
 30
0.0
 10
257.67236328125
 20
334.689453125
 30
0.0
 10
257.67236328125
 20
336.515625
 30
0.0
 10
257.65087890625
 20
338.279296875
 30
0.0
 10
256.47509765625
 20
339.5390625
 30
0.0
 10
253.74560546875
 20
339.5390625
 30
0.0
 10
252.96923828125
 20
339.5390625
 30
0.0
 10
252.35986328125
 20
339.455078125
 30
0.0
 10
251.85595703125
 20
339.392578125
 30
0.0
 10
251.85595703125
 20
339.392578125
 30
0.0
 10
252.73779296875
 20
345.943359375
 30
0.0
 10
252.73779296875
 20
345.943359375
 30
0.0
 10
252.73779296875
 20
345.943359375
 30
0.0
 10
259.26806640625
 20
345.943359375
 30
0.0
 10
259.26806640625
 20
345.943359375
 30
0.0
 10
259.26806640625
 20
345.943359375
 30
0.0
 10
259.26806640625
 20
344.3896484375
 30
0.0
 10
259.26806640625
 20
344.3896484375
 30
0.0
  0
HATCH
  5
19F
330
19A
100
AcDbEntity
  8
Livello 1
 62
   250
420
  1907995
100
AcDbHatch
 10
0.0
 20
0.0
 30
0.0
210
0.0
220
0.0
230
1.0
  2
SOLID
 70
     1
 71
     0
 91
        1
 92
        1
 93
        1
 72
     4
 94
        3
 73
     0
 74
     0
 95
       50
 96
       46
 40
0.0
 40
0.0
 40
0.0
 40
0.0
 40
1.0
 40
1.0
 40
1.0
 40
2.0
 40
2.0
 40
2.0
 40
3.0
 40
3.0
 40
3.0
 40
4.0
 40
4.0
 40
4.0
 40
5.0
 40
5.0
 40
5.0
 40
6.0
 40
6.0
 40
6.0
 40
7.0
 40
7.0
 40
7.0
 40
8.0
 40
8.0
 40
8.0
 40
9.0
 40
9.0
 40
9.0
 40
10.0
 40
10.0
 40
10.0
 40
11.0
 40
11.0
 40
11.0
 40
12.0
 40
12.0
 40
12.0
 40
13.0
 40
13.0
 40
13.0
 40
14.0
 40
14.0
 40
14.0
 40
15.0
 40
15.0
 40
15.0
 40
15.0
 10
259.26806640625
 20
344.3896484375
 10
259.26806640625
 20
344.3896484375
 10
254.06103515625
 20
344.3896484375
 10
254.06103515625
 20
344.3896484375
 10
254.06103515625
 20
344.3896484375
 10
253.53564453125
 20
340.8828125
 10
253.53564453125
 20
340.8828125
 10
253.85009765625
 20
340.9248046875
 10
254.14501953125
 20
340.966796875
 10
254.64892578125
 20
340.966796875
 10
255.69775390625
 20
340.966796875
 10
256.74853515625
 20
340.736328125
 10
257.58837890625
 20
340.232421875
 10
258.65869140625
 20
339.623046875
 10
259.54052734375
 20
338.447265625
 10
259.54052734375
 20
336.7255859375
 10
259.54052734375
 20
334.0595703125
 10
257.42041015625
 20
332.064453125
 10
254.45947265625
 20
332.064453125
 10
252.96923828125
 20
332.064453125
 10
251.70947265625
 20
332.484375
 10
251.05810546875
 20
332.904296875
 10
251.05810546875
 20
332.904296875
 10
251.52001953125
 20
334.3115234375
 10
251.52001953125
 20
334.3115234375
 10
252.08642578125
 20
333.9755859375
 10
253.19970703125
 20
333.5556640625
 10
254.43798828125
 20
333.5556640625
 10
256.18115234375
 20
333.5556640625
 10
257.67236328125
 20
334.689453125
 10
257.67236328125
 20
336.515625
 10
257.65087890625
 20
338.279296875
 10
256.47509765625
 20
339.5390625
 10
253.74560546875
 20
339.5390625
 10
252.96923828125
 20
339.5390625
 10
252.35986328125
 20
339.455078125
 10
251.85595703125
 20
339.392578125
 10
251.85595703125
 20
339.392578125
 10
252.73779296875
 20
345.943359375
 10
252.73779296875
 20
345.943359375
 10
252.73779296875
 20
345.943359375
 10
259.26806640625
 20
345.943359375
 10
259.26806640625
 20
345.943359375
 10
259.26806640625
 20
345.943359375
 10
259.26806640625
 20
344.3896484375
 10
259.26806640625
 20
344.3896484375
 97
        0
 97
        0
 75
     2
 76
     1
 98
        0
450
        0
451
        0
460
0.0
461
0.0
452
        0
462
0.0
453
        0
470

  0
SPLINE
  5
1A0
330
19A
100
AcDbEntity
  8
Livello 1
370
     0
100
AcDbSpline
210
0.0
220
0.0
230
1.0
 70
     9
 71
     3
 72
    59
 73
    55
 74
     0
 42
0.000000001
 43
0.0000000001
 40
0.0
 40
0.0
 40
0.0
 40
0.0
 40
1.0
 40
1.0
 40
1.0
 40
2.0
 40
2.0
 40
2.0
 40
3.0
 40
3.0
 40
3.0
 40
4.0
 40
4.0
 40
4.0
 40
5.0
 40
5.0
 40
5.0
 40
6.0
 40
6.0
 40
6.0
 40
7.0
 40
7.0
 40
7.0
 40
8.0
 40
8.0
 40
8.0
 40
9.0
 40
9.0
 40
9.0
 40
10.0
 40
10.0
 40
10.0
 40
11.0
 40
11.0
 40
11.0
 40
12.0
 40
12.0
 40
12.0
 40
13.0
 40
13.0
 40
13.0
 40
14.0
 40
14.0
 40
14.0
 40
15.0
 40
15.0
 40
15.0
 40
16.0
 40
16.0
 40
16.0
 40
17.0
 40
17.0
 40
17.0
 40
18.0
 40
18.0
 40
18.0
 40
18.0
 10
262.33447265625
 20
334.416015625
 30
0.0
 10
262.85986328125
 20
334.080078125
 30
0.0
 10
264.07666015625
 20
333.5556640625
 30
0.0
 10
265.35791015625
 20
333.5556640625
 30
0.0
 10
267.73095703125
 20
333.5556640625
 30
0.0
 10
268.46533203125
 20
335.0673828125
 30
0.0
 10
268.44384765625
 20
336.201171875
 30
0.0
 10
268.42333984375
 20
338.111328125
 30
0.0
 10
266.70166015625
 20
338.9306640625
 30
0.0
 10
264.91650390625
 20
338.9306640625
 30
0.0
 10
264.91650390625
 20
338.9306640625
 30
0.0
 10
263.88818359375
 20
338.9306640625
 30
0.0
 10
263.88818359375
 20
338.9306640625
 30
0.0
 10
263.88818359375
 20
338.9306640625
 30
0.0
 10
263.88818359375
 20
340.31640625
 30
0.0
 10
263.88818359375
 20
340.31640625
 30
0.0
 10
263.88818359375
 20
340.31640625
 30
0.0
 10
264.91650390625
 20
340.31640625
 30
0.0
 10
264.91650390625
 20
340.31640625
 30
0.0
 10
266.26025390625
 20
340.31640625
 30
0.0
 10
267.96142578125
 20
341.0087890625
 30
0.0
 10
267.96142578125
 20
342.6259765625
 30
0.0
 10
267.96142578125
 20
343.7177734375
 30
0.0
 10
267.26806640625
 20
344.68359375
 30
0.0
 10
265.56787109375
 20
344.68359375
 30
0.0
 10
264.47607421875
 20
344.68359375
 30
0.0
 10
263.42626953125
 20
344.2001953125
 30
0.0
 10
262.83837890625
 20
343.7802734375
 30
0.0
 10
262.83837890625
 20
343.7802734375
 30
0.0
 10
262.35595703125
 20
345.1240234375
 30
0.0
 10
262.35595703125
 20
345.1240234375
 30
0.0
 10
263.06884765625
 20
345.6494140625
 30
0.0
 10
264.45556640625
 20
346.173828125
 30
0.0
 10
265.92431640625
 20
346.173828125
 30
0.0
 10
268.61181640625
 20
346.173828125
 30
0.0
 10
269.83056640625
 20
344.578125
 30
0.0
 10
269.83056640625
 20
342.919921875
 30
0.0
 10
269.83056640625
 20
341.5126953125
 30
0.0
 10
268.99072265625
 20
340.31640625
 30
0.0
 10
267.31103515625
 20
339.70703125
 30
0.0
 10
267.31103515625
 20
339.70703125
 30
0.0
 10
267.31103515625
 20
339.6650390625
 30
0.0
 10
267.31103515625
 20
339.6650390625
 30
0.0
 10
268.99072265625
 20
339.3291015625
 30
0.0
 10
270.35498046875
 20
338.0693359375
 30
0.0
 10
270.35498046875
 20
336.1591796875
 30
0.0
 10
270.35498046875
 20
333.9755859375
 30
0.0
 10
268.65478515625
 20
332.064453125
 30
0.0
 10
265.37939453125
 20
332.064453125
 30
0.0
 10
263.84619140625
 20
332.064453125
 30
0.0
 10
262.50244140625
 20
332.5478515625
 30
0.0
 10
261.83056640625
 20
332.98828125
 30
0.0
 10
261.83056640625
 20
332.98828125
 30
0.0
 10
262.33447265625
 20
334.416015625
 30
0.0
 10
262.33447265625
 20
334.416015625
 30
0.0
  0
HATCH
  5
1A1
330
19A
100
AcDbEntity
  8
Livello 1
 62
   250
420
  1907995
100
AcDbHatch
 10
0.0
 20
0.0
 30
0.0
210
0.0
220
0.0
230
1.0
  2
SOLID
 70
     1
 71
     0
 91
        1
 92
        1
 93
        1
 72
     4
 94
        3
 73
     0
 74
     0
 95
       59
 96
       55
 40
0.0
 40
0.0
 40
0.0
 40
0.0
 40
1.0
 40
1.0
 40
1.0
 40
2.0
 40
2.0
 40
2.0
 40
3.0
 40
3.0
 40
3.0
 40
4.0
 40
4.0
 40
4.0
 40
5.0
 40
5.0
 40
5.0
 40
6.0
 40
6.0
 40
6.0
 40
7.0
 40
7.0
 40
7.0
 40
8.0
 40
8.0
 40
8.0
 40
9.0
 40
9.0
 40
9.0
 40
10.0
 40
10.0
 40
10.0
 40
11.0
 40
11.0
 40
11.0
 40
12.0
 40
12.0
 40
12.0
 40
13.0
 40
13.0
 40
13.0
 40
14.0
 40
14.0
 40
14.0
 40
15.0
 40
15.0
 40
15.0
 40
16.0
 40
16.0
 40
16.0
 40
17.0
 40
17.0
 40
17.0
 40
18.0
 40
18.0
 40
18.0
 40
18.0
 10
262.33447265625
 20
334.416015625
 10
262.85986328125
 20
334.080078125
 10
264.07666015625
 20
333.5556640625
 10
265.35791015625
 20
333.5556640625
 10
267.73095703125
 20
333.5556640625
 10
268.46533203125
 20
335.0673828125
 10
268.44384765625
 20
336.201171875
 10
268.42333984375
 20
338.111328125
 10
266.70166015625
 20
338.9306640625
 10
264.91650390625
 20
338.9306640625
 10
264.91650390625
 20
338.9306640625
 10
263.88818359375
 20
338.9306640625
 10
263.88818359375
 20
338.9306640625
 10
263.88818359375
 20
338.9306640625
 10
263.88818359375
 20
340.31640625
 10
263.88818359375
 20
340.31640625
 10
263.88818359375
 20
340.31640625
 10
264.91650390625
 20
340.31640625
 10
264.91650390625
 20
340.31640625
 10
266.26025390625
 20
340.31640625
 10
267.96142578125
 20
341.0087890625
 10
267.96142578125
 20
342.6259765625
 10
267.96142578125
 20
343.7177734375
 10
267.26806640625
 20
344.68359375
 10
265.56787109375
 20
344.68359375
 10
264.47607421875
 20
344.68359375
 10
263.42626953125
 20
344.2001953125
 10
262.83837890625
 20
343.7802734375
 10
262.83837890625
 20
343.7802734375
 10
262.35595703125
 20
345.1240234375
 10
262.35595703125
 20
345.1240234375
 10
263.06884765625
 20
345.6494140625
 10
264.45556640625
 20
346.173828125
 10
265.92431640625
 20
346.173828125
 10
268.61181640625
 20
346.173828125
 10
269.83056640625
 20
344.578125
 10
269.83056640625
 20
342.919921875
 10
269.83056640625
 20
341.5126953125
 10
268.99072265625
 20
340.31640625
 10
267.31103515625
 20
339.70703125
 10
267.31103515625
 20
339.70703125
 10
267.31103515625
 20
339.6650390625
 10
267.31103515625
 20
339.6650390625
 10
268.99072265625
 20
339.3291015625
 10
270.35498046875
 20
338.0693359375
 10
270.35498046875
 20
336.1591796875
 10
270.35498046875
 20
333.9755859375
 10
268.65478515625
 20
332.064453125
 10
265.37939453125
 20
332.064453125
 10
263.84619140625
 20
332.064453125
 10
262.50244140625
 20
332.5478515625
 10
261.83056640625
 20
332.98828125
 10
261.83056640625
 20
332.98828125
 10
262.33447265625
 20
334.416015625
 10
262.33447265625
 20
334.416015625
 97
        0
 97
        0
 75
     2
 76
     1
 98
        0
450
        0
451
        0
460
0.0
461
0.0
452
        0
462
0.0
453
        0
470

  0
SPLINE
  5
1A2
330
19A
100
AcDbEntity
  8
Livello 1
370
     0
100
AcDbSpline
210
0.0
220
0.0
230
1.0
 70
     9
 71
     3
 72
    17
 73
    13
 74
     0
 42
0.000000001
 43
0.0000000001
 40
0.0
 40
0.0
 40
0.0
 40
0.0
 40
1.0
 40
1.0
 40
1.0
 40
2.0
 40
2.0
 40
2.0
 40
3.0
 40
3.0
 40
3.0
 40
4.0
 40
4.0
 40
4.0
 40
4.0
 10
281.73681640625
 20
339.2666015625
 30
0.0
 10
281.73681640625
 20
334.6259765625
 30
0.0
 10
280.01416015625
 20
332.064453125
 30
0.0
 10
276.99072265625
 20
332.064453125
 30
0.0
 10
274.32470703125
 20
332.064453125
 30
0.0
 10
272.51904296875
 20
334.5634765625
 30
0.0
 10
272.47705078125
 20
339.0771484375
 30
0.0
 10
272.47705078125
 20
343.654296875
 30
0.0
 10
274.45068359375
 20
346.173828125
 30
0.0
 10
277.22216796875
 20
346.173828125
 30
0.0
 10
280.09814453125
 20
346.173828125
 30
0.0
 10
281.73681640625
 20
343.6123046875
 30
0.0
 10
281.73681640625
 20
339.2666015625
 30
0.0
  0
SPLINE
  5
1A3
330
19A
100
AcDbEntity
  8
Livello 1
370
     0
100
AcDbSpline
210
0.0
220
0.0
230
1.0
 70
     9
 71
     3
 72
    17
 73
    13
 74
     0
 42
0.000000001
 43
0.0000000001
 40
0.0
 40
0.0
 40
0.0
 40
0.0
 40
1.0
 40
1.0
 40
1.0
 40
2.0
 40
2.0
 40
2.0
 40
3.0
 40
3.0
 40
3.0
 40
4.0
 40
4.0
 40
4.0
 40
4.0
 10
274.32470703125
 20
339.056640625
 30
0.0
 10
274.32470703125
 20
335.5078125
 30
0.0
 10
275.41650390625
 20
333.4921875
 30
0.0
 10
277.09619140625
 20
333.4921875
 30
0.0
 10
278.98583984375
 20
333.4921875
 30
0.0
 10
279.88916015625
 20
335.697265625
 30
0.0
 10
279.88916015625
 20
339.1826171875
 30
0.0
 10
279.88916015625
 20
342.5419921875
 30
0.0
 10
279.02783203125
 20
344.74609375
 30
0.0
 10
277.11767578125
 20
344.74609375
 30
0.0
 10
275.50048828125
 20
344.74609375
 30
0.0
 10
274.32470703125
 20
342.7724609375
 30
0.0
 10
274.32470703125
 20
339.056640625
 30
0.0
  0
HATCH
  5
1A4
330
19A
100
AcDbEntity
  8
Livello 1
 62
   250
420
  1907995
100
AcDbHatch
 10
0.0
 20
0.0
 30
0.0
210
0.0
220
0.0
230
1.0
  2
SOLID
 70
     1
 71
     0
 91
        2
 92
        1
 93
        1
 72
     4
 94
        3
 73
     0
 74
     0
 95
       17
 96
       13
 40
0.0
 40
0.0
 40
0.0
 40
0.0
 40
1.0
 40
1.0
 40
1.0
 40
2.0
 40
2.0
 40
2.0
 40
3.0
 40
3.0
 40
3.0
 40
4.0
 40
4.0
 40
4.0
 40
4.0
 10
281.73681640625
 20
339.2666015625
 10
281.73681640625
 20
334.6259765625
 10
280.01416015625
 20
332.064453125
 10
276.99072265625
 20
332.064453125
 10
274.32470703125
 20
332.064453125
 10
272.51904296875
 20
334.5634765625
 10
272.47705078125
 20
339.0771484375
 10
272.47705078125
 20
343.654296875
 10
274.45068359375
 20
346.173828125
 10
277.22216796875
 20
346.173828125
 10
280.09814453125
 20
346.173828125
 10
281.73681640625
 20
343.6123046875
 10
281.73681640625
 20
339.2666015625
 97
        0
 97
        0
 92
        1
 93
        1
 72
     4
 94
        3
 73
     0
 74
     0
 95
       17
 96
       13
 40
0.0
 40
0.0
 40
0.0
 40
0.0
 40
1.0
 40
1.0
 40
1.0
 40
2.0
 40
2.0
 40
2.0
 40
3.0
 40
3.0
 40
3.0
 40
4.0
 40
4.0
 40
4.0
 40
4.0
 10
274.32470703125
 20
339.056640625
 10
274.32470703125
 20
335.5078125
 10
275.41650390625
 20
333.4921875
 10
277.09619140625
 20
333.4921875
 10
278.98583984375
 20
333.4921875
 10
279.88916015625
 20
335.697265625
 10
279.88916015625
 20
339.1826171875
 10
279.88916015625
 20
342.5419921875
 10
279.02783203125
 20
344.74609375
 10
277.11767578125
 20
344.74609375
 10
275.50048828125
 20
344.74609375
 10
274.32470703125
 20
342.7724609375
 10
274.32470703125
 20
339.056640625
 97
        0
 97
        0
 75
     2
 76
     1
 98
        0
450
        0
451
        0
460
0.0
461
0.0
452
        0
462
0.0
453
        0
470

  0
SPLINE
  5
1A5
330
19A
100
AcDbEntity
  8
Livello 1
370
     0
100
AcDbSpline
210
0.0
220
0.0
230
1.0
 70
     9
 71
     3
 72
    17
 73
    13
 74
     0
 42
0.000000001
 43
0.0000000001
 40
0.0
 40
0.0
 40
0.0
 40
0.0
 40
1.0
 40
1.0
 40
1.0
 40
2.0
 40
2.0
 40
2.0
 40
3.0
 40
3.0
 40
3.0
 40
4.0
 40
4.0
 40
4.0
 40
4.0
 10
292.51025390625
 20
339.2666015625
 30
0.0
 10
292.51025390625
 20
334.6259765625
 30
0.0
 10
290.78759765625
 20
332.064453125
 30
0.0
 10
287.76416015625
 20
332.064453125
 30
0.0
 10
285.09814453125
 20
332.064453125
 30
0.0
 10
283.29248046875
 20
334.5634765625
 30
0.0
 10
283.25048828125
 20
339.0771484375
 30
0.0
 10
283.25048828125
 20
343.654296875
 30
0.0
 10
285.22412109375
 20
346.173828125
 30
0.0
 10
287.99560546875
 20
346.173828125
 30
0.0
 10
290.87158203125
 20
346.173828125
 30
0.0
 10
292.51025390625
 20
343.6123046875
 30
0.0
 10
292.51025390625
 20
339.2666015625
 30
0.0
  0
SPLINE
  5
1A6
330
19A
100
AcDbEntity
  8
Livello 1
370
     0
100
AcDbSpline
210
0.0
220
0.0
230
1.0
 70
     9
 71
     3
 72
    17
 73
    13
 74
     0
 42
0.000000001
 43
0.0000000001
 40
0.0
 40
0.0
 40
0.0
 40
0.0
 40
1.0
 40
1.0
 40
1.0
 40
2.0
 40
2.0
 40
2.0
 40
3.0
 40
3.0
 40
3.0
 40
4.0
 40
4.0
 40
4.0
 40
4.0
 10
285.09814453125
 20
339.056640625
 30
0.0
 10
285.09814453125
 20
335.5078125
 30
0.0
 10
286.18994140625
 20
333.4921875
 30
0.0
 10
287.86962890625
 20
333.4921875
 30
0.0
 10
289.75927734375
 20
333.4921875
 30
0.0
 10
290.66259765625
 20
335.697265625
 30
0.0
 10
290.66259765625
 20
339.1826171875
 30
0.0
 10
290.66259765625
 20
342.5419921875
 30
0.0
 10
289.80126953125
 20
344.74609375
 30
0.0
 10
287.89111328125
 20
344.74609375
 30
0.0
 10
286.27392578125
 20
344.74609375
 30
0.0
 10
285.09814453125
 20
342.7724609375
 30
0.0
 10
285.09814453125
 20
339.056640625
 30
0.0
  0
HATCH
  5
1A7
330
19A
100
AcDbEntity
  8
Livello 1
 62
   250
420
  1907995
100
AcDbHatch
 10
0.0
 20
0.0
 30
0.0
210
0.0
220
0.0
230
1.0
  2
SOLID
 70
     1
 71
     0
 91
        2
 92
        1
 93
        1
 72
     4
 94
        3
 73
     0
 74
     0
 95
       17
 96
       13
 40
0.0
 40
0.0
 40
0.0
 40
0.0
 40
1.0
 40
1.0
 40
1.0
 40
2.0
 40
2.0
 40
2.0
 40
3.0
 40
3.0
 40
3.0
 40
4.0
 40
4.0
 40
4.0
 40
4.0
 10
292.51025390625
 20
339.2666015625
 10
292.51025390625
 20
334.6259765625
 10
290.78759765625
 20
332.064453125
 10
287.76416015625
 20
332.064453125
 10
285.09814453125
 20
332.064453125
 10
283.29248046875
 20
334.5634765625
 10
283.25048828125
 20
339.0771484375
 10
283.25048828125
 20
343.654296875
 10
285.22412109375
 20
346.173828125
 10
287.99560546875
 20
346.173828125
 10
290.87158203125
 20
346.173828125
 10
292.51025390625
 20
343.6123046875
 10
292.51025390625
 20
339.2666015625
 97
        0
 97
        0
 92
        1
 93
        1
 72
     4
 94
        3
 73
     0
 74
     0
 95
       17
 96
       13
 40
0.0
 40
0.0
 40
0.0
 40
0.0
 40
1.0
 40
1.0
 40
1.0
 40
2.0
 40
2.0
 40
2.0
 40
3.0
 40
3.0
 40
3.0
 40
4.0
 40
4.0
 40
4.0
 40
4.0
 10
285.09814453125
 20
339.056640625
 10
285.09814453125
 20
335.5078125
 10
286.18994140625
 20
333.4921875
 10
287.86962890625
 20
333.4921875
 10
289.75927734375
 20
333.4921875
 10
290.66259765625
 20
335.697265625
 10
290.66259765625
 20
339.1826171875
 10
290.66259765625
 20
342.5419921875
 10
289.80126953125
 20
344.74609375
 10
287.89111328125
 20
344.74609375
 10
286.27392578125
 20
344.74609375
 10
285.09814453125
 20
342.7724609375
 10
285.09814453125
 20
339.056640625
 97
        0
 97
        0
 75
     2
 76
     1
 98
        0
450
        0
451
        0
460
0.0
461
0.0
452
        0
462
0.0
453
        0
470

  0
SPLINE
  5
1A8
330
19A
100
AcDbEntity
  8
Livello 1
370
     0
100
AcDbSpline
210
0.0
220
0.0
230
1.0
 70
     9
 71
     3
 72
    80
 73
    76
 74
     0
 42
0.000000001
 43
0.0000000001
 40
0.0
 40
0.0
 40
0.0
 40
0.0
 40
1.0
 40
1.0
 40
1.0
 40
2.0
 40
2.0
 40
2.0
 40
3.0
 40
3.0
 40
3.0
 40
4.0
 40
4.0
 40
4.0
 40
5.0
 40
5.0
 40
5.0
 40
6.0
 40
6.0
 40
6.0
 40
7.0
 40
7.0
 40
7.0
 40
8.0
 40
8.0
 40
8.0
 40
9.0
 40
9.0
 40
9.0
 40
10.0
 40
10.0
 40
10.0
 40
11.0
 40
11.0
 40
11.0
 40
12.0
 40
12.0
 40
12.0
 40
13.0
 40
13.0
 40
13.0
 40
14.0
 40
14.0
 40
14.0
 40
15.0
 40
15.0
 40
15.0
 40
16.0
 40
16.0
 40
16.0
 40
17.0
 40
17.0
 40
17.0
 40
18.0
 40
18.0
 40
18.0
 40
19.0
 40
19.0
 40
19.0
 40
20.0
 40
20.0
 40
20.0
 40
21.0
 40
21.0
 40
21.0
 40
22.0
 40
22.0
 40
22.0
 40
23.0
 40
23.0
 40
23.0
 40
24.0
 40
24.0
 40
24.0
 40
25.0
 40
25.0
 40
25.0
 40
25.0
 10
299.251953125
 20
339.70703125
 30
0.0
 10
299.251953125
 20
340.7568359375
 30
0.0
 10
299.23046875
 20
341.6181640625
 30
0.0
 10
299.16796875
 20
342.4580078125
 30
0.0
 10
299.16796875
 20
342.4580078125
 30
0.0
 10
300.7841796875
 20
342.4580078125
 30
0.0
 10
300.7841796875
 20
342.4580078125
 30
0.0
 10
300.7841796875
 20
342.4580078125
 30
0.0
 10
300.8681640625
 20
340.8203125
 30
0.0
 10
300.8681640625
 20
340.8203125
 30
0.0
 10
300.8681640625
 20
340.8203125
 30
0.0
 10
300.931640625
 20
340.8203125
 30
0.0
 10
300.931640625
 20
340.8203125
 30
0.0
 10
301.498046875
 20
341.7861328125
 30
0.0
 10
302.443359375
 20
342.6884765625
 30
0.0
 10
304.123046875
 20
342.6884765625
 30
0.0
 10
305.5078125
 20
342.6884765625
 30
0.0
 10
306.55859375
 20
341.8486328125
 30
0.0
 10
306.9990234375
 20
340.65234375
 30
0.0
 10
306.9990234375
 20
340.65234375
 30
0.0
 10
307.041015625
 20
340.65234375
 30
0.0
 10
307.041015625
 20
340.65234375
 30
0.0
 10
307.35546875
 20
341.21875
 30
0.0
 10
307.7548828125
 20
341.66015625
 30
0.0
 10
308.1748046875
 20
341.974609375
 30
0.0
 10
308.783203125
 20
342.4365234375
 30
0.0
 10
309.455078125
 20
342.6884765625
 30
0.0
 10
310.421875
 20
342.6884765625
 30
0.0
 10
311.765625
 20
342.6884765625
 30
0.0
 10
313.759765625
 20
341.806640625
 30
0.0
 10
313.759765625
 20
338.279296875
 30
0.0
 10
313.759765625
 20
338.279296875
 30
0.0
 10
313.759765625
 20
332.2958984375
 30
0.0
 10
313.759765625
 20
332.2958984375
 30
0.0
 10
313.759765625
 20
332.2958984375
 30
0.0
 10
311.9541015625
 20
332.2958984375
 30
0.0
 10
311.9541015625
 20
332.2958984375
 30
0.0
 10
311.9541015625
 20
332.2958984375
 30
0.0
 10
311.9541015625
 20
338.048828125
 30
0.0
 10
311.9541015625
 20
338.048828125
 30
0.0
 10
311.9541015625
 20
340.0009765625
 30
0.0
 10
311.240234375
 20
341.1767578125
 30
0.0
 10
309.75
 20
341.1767578125
 30
0.0
 10
308.69921875
 20
341.1767578125
 30
0.0
 10
307.880859375
 20
340.400390625
 30
0.0
 10
307.56640625
 20
339.4970703125
 30
0.0
 10
307.482421875
 20
339.2451171875
 30
0.0
 10
307.4189453125
 20
338.9091796875
 30
0.0
 10
307.4189453125
 20
338.5732421875
 30
0.0
 10
307.4189453125
 20
338.5732421875
 30
0.0
 10
307.4189453125
 20
332.2958984375
 30
0.0
 10
307.4189453125
 20
332.2958984375
 30
0.0
 10
307.4189453125
 20
332.2958984375
 30
0.0
 10
305.61328125
 20
332.2958984375
 30
0.0
 10
305.61328125
 20
332.2958984375
 30
0.0
 10
305.61328125
 20
332.2958984375
 30
0.0
 10
305.61328125
 20
338.384765625
 30
0.0
 10
305.61328125
 20
338.384765625
 30
0.0
 10
305.61328125
 20
340.0009765625
 30
0.0
 10
304.8994140625
 20
341.1767578125
 30
0.0
 10
303.4921875
 20
341.1767578125
 30
0.0
 10
302.337890625
 20
341.1767578125
 30
0.0
 10
301.498046875
 20
340.2529296875
 30
0.0
 10
301.2041015625
 20
339.3291015625
 30
0.0
 10
301.099609375
 20
339.056640625
 30
0.0
 10
301.056640625
 20
338.7412109375
 30
0.0
 10
301.056640625
 20
338.4267578125
 30
0.0
 10
301.056640625
 20
338.4267578125
 30
0.0
 10
301.056640625
 20
332.2958984375
 30
0.0
 10
301.056640625
 20
332.2958984375
 30
0.0
 10
301.056640625
 20
332.2958984375
 30
0.0
 10
299.251953125
 20
332.2958984375
 30
0.0
 10
299.251953125
 20
332.2958984375
 30
0.0
 10
299.251953125
 20
332.2958984375
 30
0.0
 10
299.251953125
 20
339.70703125
 30
0.0
 10
299.251953125
 20
339.70703125
 30
0.0
  0
HATCH
  5
1A9
330
19A
100
AcDbEntity
  8
Livello 1
 62
   250
420
  1907995
100
AcDbHatch
 10
0.0
 20
0.0
 30
0.0
210
0.0
220
0.0
230
1.0
  2
SOLID
 70
     1
 71
     0
 91
        1
 92
        1
 93
        1
 72
     4
 94
        3
 73
     0
 74
     0
 95
       80
 96
       76
 40
0.0
 40
0.0
 40
0.0
 40
0.0
 40
1.0
 40
1.0
 40
1.0
 40
2.0
 40
2.0
 40
2.0
 40
3.0
 40
3.0
 40
3.0
 40
4.0
 40
4.0
 40
4.0
 40
5.0
 40
5.0
 40
5.0
 40
6.0
 40
6.0
 40
6.0
 40
7.0
 40
7.0
 40
7.0
 40
8.0
 40
8.0
 40
8.0
 40
9.0
 40
9.0
 40
9.0
 40
10.0
 40
10.0
 40
10.0
 40
11.0
 40
11.0
 40
11.0
 40
12.0
 40
12.0
 40
12.0
 40
13.0
 40
13.0
 40
13.0
 40
14.0
 40
14.0
 40
14.0
 40
15.0
 40
15.0
 40
15.0
 40
16.0
 40
16.0
 40
16.0
 40
17.0
 40
17.0
 40
17.0
 40
18.0
 40
18.0
 40
18.0
 40
19.0
 40
19.0
 40
19.0
 40
20.0
 40
20.0
 40
20.0
 40
21.0
 40
21.0
 40
21.0
 40
22.0
 40
22.0
 40
22.0
 40
23.0
 40
23.0
 40
23.0
 40
24.0
 40
24.0
 40
24.0
 40
25.0
 40
25.0
 40
25.0
 40
25.0
 10
299.251953125
 20
339.70703125
 10
299.251953125
 20
340.7568359375
 10
299.23046875
 20
341.6181640625
 10
299.16796875
 20
342.4580078125
 10
299.16796875
 20
342.4580078125
 10
300.7841796875
 20
342.4580078125
 10
300.7841796875
 20
342.4580078125
 10
300.7841796875
 20
342.4580078125
 10
300.8681640625
 20
340.8203125
 10
300.8681640625
 20
340.8203125
 10
300.8681640625
 20
340.8203125
 10
300.931640625
 20
340.8203125
 10
300.931640625
 20
340.8203125
 10
301.498046875
 20
341.7861328125
 10
302.443359375
 20
342.6884765625
 10
304.123046875
 20
342.6884765625
 10
305.5078125
 20
342.6884765625
 10
306.55859375
 20
341.8486328125
 10
306.9990234375
 20
340.65234375
 10
306.9990234375
 20
340.65234375
 10
307.041015625
 20
340.65234375
 10
307.041015625
 20
340.65234375
 10
307.35546875
 20
341.21875
 10
307.7548828125
 20
341.66015625
 10
308.1748046875
 20
341.974609375
 10
308.783203125
 20
342.4365234375
 10
309.455078125
 20
342.6884765625
 10
310.421875
 20
342.6884765625
 10
311.765625
 20
342.6884765625
 10
313.759765625
 20
341.806640625
 10
313.759765625
 20
338.279296875
 10
313.759765625
 20
338.279296875
 10
313.759765625
 20
332.2958984375
 10
313.759765625
 20
332.2958984375
 10
313.759765625
 20
332.2958984375
 10
311.9541015625
 20
332.2958984375
 10
311.9541015625
 20
332.2958984375
 10
311.9541015625
 20
332.2958984375
 10
311.9541015625
 20
338.048828125
 10
311.9541015625
 20
338.048828125
 10
311.9541015625
 20
340.0009765625
 10
311.240234375
 20
341.1767578125
 10
309.75
 20
341.1767578125
 10
308.69921875
 20
341.1767578125
 10
307.880859375
 20
340.400390625
 10
307.56640625
 20
339.4970703125
 10
307.482421875
 20
339.2451171875
 10
307.4189453125
 20
338.9091796875
 10
307.4189453125
 20
338.5732421875
 10
307.4189453125
 20
338.5732421875
 10
307.4189453125
 20
332.2958984375
 10
307.4189453125
 20
332.2958984375
 10
307.4189453125
 20
332.2958984375
 10
305.61328125
 20
332.2958984375
 10
305.61328125
 20
332.2958984375
 10
305.61328125
 20
332.2958984375
 10
305.61328125
 20
338.384765625
 10
305.61328125
 20
338.384765625
 10
305.61328125
 20
340.0009765625
 10
304.8994140625
 20
341.1767578125
 10
303.4921875
 20
341.1767578125
 10
302.337890625
 20
341.1767578125
 10
301.498046875
 20
340.2529296875
 10
301.2041015625
 20
339.3291015625
 10
301.099609375
 20
339.056640625
 10
301.056640625
 20
338.7412109375
 10
301.056640625
 20
338.4267578125
 10
301.056640625
 20
338.4267578125
 10
301.056640625
 20
332.2958984375
 10
301.056640625
 20
332.2958984375
 10
301.056640625
 20
332.2958984375
 10
299.251953125
 20
332.2958984375
 10
299.251953125
 20
332.2958984375
 10
299.251953125
 20
332.2958984375
 10
299.251953125
 20
339.70703125
 10
299.251953125
 20
339.70703125
 97
        0
 97
        0
 75
     2
 76
     1
 98
        0
450
        0
451
        0
460
0.0
461
0.0
452
        0
462
0.0
453
        0
470

  0
SPLINE
  5
1AA
330
19A
100
AcDbEntity
  8
Livello 1
370
     0
100
AcDbSpline
210
0.0
220
0.0
230
1.0
 70
     9
 71
     3
 72
    80
 73
    76
 74
     0
 42
0.000000001
 43
0.0000000001
 40
0.0
 40
0.0
 40
0.0
 40
0.0
 40
1.0
 40
1.0
 40
1.0
 40
2.0
 40
2.0
 40
2.0
 40
3.0
 40
3.0
 40
3.0
 40
4.0
 40
4.0
 40
4.0
 40
5.0
 40
5.0
 40
5.0
 40
6.0
 40
6.0
 40
6.0
 40
7.0
 40
7.0
 40
7.0
 40
8.0
 40
8.0
 40
8.0
 40
9.0
 40
9.0
 40
9.0
 40
10.0
 40
10.0
 40
10.0
 40
11.0
 40
11.0
 40
11.0
 40
12.0
 40
12.0
 40
12.0
 40
13.0
 40
13.0
 40
13.0
 40
14.0
 40
14.0
 40
14.0
 40
15.0
 40
15.0
 40
15.0
 40
16.0
 40
16.0
 40
16.0
 40
17.0
 40
17.0
 40
17.0
 40
18.0
 40
18.0
 40
18.0
 40
19.0
 40
19.0
 40
19.0
 40
20.0
 40
20.0
 40
20.0
 40
21.0
 40
21.0
 40
21.0
 40
22.0
 40
22.0
 40
22.0
 40
23.0
 40
23.0
 40
23.0
 40
24.0
 40
24.0
 40
24.0
 40
25.0
 40
25.0
 40
25.0
 40
25.0
 10
316.765625
 20
339.70703125
 30
0.0
 10
316.765625
 20
340.7568359375
 30
0.0
 10
316.744140625
 20
341.6181640625
 30
0.0
 10
316.681640625
 20
342.4580078125
 30
0.0
 10
316.681640625
 20
342.4580078125
 30
0.0
 10
318.2978515625
 20
342.4580078125
 30
0.0
 10
318.2978515625
 20
342.4580078125
 30
0.0
 10
318.2978515625
 20
342.4580078125
 30
0.0
 10
318.3818359375
 20
340.8203125
 30
0.0
 10
318.3818359375
 20
340.8203125
 30
0.0
 10
318.3818359375
 20
340.8203125
 30
0.0
 10
318.4453125
 20
340.8203125
 30
0.0
 10
318.4453125
 20
340.8203125
 30
0.0
 10
319.01171875
 20
341.7861328125
 30
0.0
 10
319.95703125
 20
342.6884765625
 30
0.0
 10
321.63671875
 20
342.6884765625
 30
0.0
 10
323.021484375
 20
342.6884765625
 30
0.0
 10
324.072265625
 20
341.8486328125
 30
0.0
 10
324.5126953125
 20
340.65234375
 30
0.0
 10
324.5126953125
 20
340.65234375
 30
0.0
 10
324.5546875
 20
340.65234375
 30
0.0
 10
324.5546875
 20
340.65234375
 30
0.0
 10
324.869140625
 20
341.21875
 30
0.0
 10
325.2685546875
 20
341.66015625
 30
0.0
 10
325.6884765625
 20
341.974609375
 30
0.0
 10
326.296875
 20
342.4365234375
 30
0.0
 10
326.96875
 20
342.6884765625
 30
0.0
 10
327.935546875
 20
342.6884765625
 30
0.0
 10
329.279296875
 20
342.6884765625
 30
0.0
 10
331.2734375
 20
341.806640625
 30
0.0
 10
331.2734375
 20
338.279296875
 30
0.0
 10
331.2734375
 20
338.279296875
 30
0.0
 10
331.2734375
 20
332.2958984375
 30
0.0
 10
331.2734375
 20
332.2958984375
 30
0.0
 10
331.2734375
 20
332.2958984375
 30
0.0
 10
329.4677734375
 20
332.2958984375
 30
0.0
 10
329.4677734375
 20
332.2958984375
 30
0.0
 10
329.4677734375
 20
332.2958984375
 30
0.0
 10
329.4677734375
 20
338.048828125
 30
0.0
 10
329.4677734375
 20
338.048828125
 30
0.0
 10
329.4677734375
 20
340.0009765625
 30
0.0
 10
328.75390625
 20
341.1767578125
 30
0.0
 10
327.263671875
 20
341.1767578125
 30
0.0
 10
326.212890625
 20
341.1767578125
 30
0.0
 10
325.39453125
 20
340.400390625
 30
0.0
 10
325.080078125
 20
339.4970703125
 30
0.0
 10
324.99609375
 20
339.2451171875
 30
0.0
 10
324.9326171875
 20
338.9091796875
 30
0.0
 10
324.9326171875
 20
338.5732421875
 30
0.0
 10
324.9326171875
 20
338.5732421875
 30
0.0
 10
324.9326171875
 20
332.2958984375
 30
0.0
 10
324.9326171875
 20
332.2958984375
 30
0.0
 10
324.9326171875
 20
332.2958984375
 30
0.0
 10
323.126953125
 20
332.2958984375
 30
0.0
 10
323.126953125
 20
332.2958984375
 30
0.0
 10
323.126953125
 20
332.2958984375
 30
0.0
 10
323.126953125
 20
338.384765625
 30
0.0
 10
323.126953125
 20
338.384765625
 30
0.0
 10
323.126953125
 20
340.0009765625
 30
0.0
 10
322.4130859375
 20
341.1767578125
 30
0.0
 10
321.005859375
 20
341.1767578125
 30
0.0
 10
319.8515625
 20
341.1767578125
 30
0.0
 10
319.01171875
 20
340.2529296875
 30
0.0
 10
318.7177734375
 20
339.3291015625
 30
0.0
 10
318.61328125
 20
339.056640625
 30
0.0
 10
318.5703125
 20
338.7412109375
 30
0.0
 10
318.5703125
 20
338.4267578125
 30
0.0
 10
318.5703125
 20
338.4267578125
 30
0.0
 10
318.5703125
 20
332.2958984375
 30
0.0
 10
318.5703125
 20
332.2958984375
 30
0.0
 10
318.5703125
 20
332.2958984375
 30
0.0
 10
316.765625
 20
332.2958984375
 30
0.0
 10
316.765625
 20
332.2958984375
 30
0.0
 10
316.765625
 20
332.2958984375
 30
0.0
 10
316.765625
 20
339.70703125
 30
0.0
 10
316.765625
 20
339.70703125
 30
0.0
  0
HATCH
  5
1AB
330
19A
100
AcDbEntity
  8
Livello 1
 62
   250
420
  1907995
100
AcDbHatch
 10
0.0
 20
0.0
 30
0.0
210
0.0
220
0.0
230
1.0
  2
SOLID
 70
     1
 71
     0
 91
        1
 92
        1
 93
        1
 72
     4
 94
        3
 73
     0
 74
     0
 95
       80
 96
       76
 40
0.0
 40
0.0
 40
0.0
 40
0.0
 40
1.0
 40
1.0
 40
1.0
 40
2.0
 40
2.0
 40
2.0
 40
3.0
 40
3.0
 40
3.0
 40
4.0
 40
4.0
 40
4.0
 40
5.0
 40
5.0
 40
5.0
 40
6.0
 40
6.0
 40
6.0
 40
7.0
 40
7.0
 40
7.0
 40
8.0
 40
8.0
 40
8.0
 40
9.0
 40
9.0
 40
9.0
 40
10.0
 40
10.0
 40
10.0
 40
11.0
 40
11.0
 40
11.0
 40
12.0
 40
12.0
 40
12.0
 40
13.0
 40
13.0
 40
13.0
 40
14.0
 40
14.0
 40
14.0
 40
15.0
 40
15.0
 40
15.0
 40
16.0
 40
16.0
 40
16.0
 40
17.0
 40
17.0
 40
17.0
 40
18.0
 40
18.0
 40
18.0
 40
19.0
 40
19.0
 40
19.0
 40
20.0
 40
20.0
 40
20.0
 40
21.0
 40
21.0
 40
21.0
 40
22.0
 40
22.0
 40
22.0
 40
23.0
 40
23.0
 40
23.0
 40
24.0
 40
24.0
 40
24.0
 40
25.0
 40
25.0
 40
25.0
 40
25.0
 10
316.765625
 20
339.70703125
 10
316.765625
 20
340.7568359375
 10
316.744140625
 20
341.6181640625
 10
316.681640625
 20
342.4580078125
 10
316.681640625
 20
342.4580078125
 10
318.2978515625
 20
342.4580078125
 10
318.2978515625
 20
342.4580078125
 10
318.2978515625
 20
342.4580078125
 10
318.3818359375
 20
340.8203125
 10
318.3818359375
 20
340.8203125
 10
318.3818359375
 20
340.8203125
 10
318.4453125
 20
340.8203125
 10
318.4453125
 20
340.8203125
 10
319.01171875
 20
341.7861328125
 10
319.95703125
 20
342.6884765625
 10
321.63671875
 20
342.6884765625
 10
323.021484375
 20
342.6884765625
 10
324.072265625
 20
341.8486328125
 10
324.5126953125
 20
340.65234375
 10
324.5126953125
 20
340.65234375
 10
324.5546875
 20
340.65234375
 10
324.5546875
 20
340.65234375
 10
324.869140625
 20
341.21875
 10
325.2685546875
 20
341.66015625
 10
325.6884765625
 20
341.974609375
 10
326.296875
 20
342.4365234375
 10
326.96875
 20
342.6884765625
 10
327.935546875
 20
342.6884765625
 10
329.279296875
 20
342.6884765625
 10
331.2734375
 20
341.806640625
 10
331.2734375
 20
338.279296875
 10
331.2734375
 20
338.279296875
 10
331.2734375
 20
332.2958984375
 10
331.2734375
 20
332.2958984375
 10
331.2734375
 20
332.2958984375
 10
329.4677734375
 20
332.2958984375
 10
329.4677734375
 20
332.2958984375
 10
329.4677734375
 20
332.2958984375
 10
329.4677734375
 20
338.048828125
 10
329.4677734375
 20
338.048828125
 10
329.4677734375
 20
340.0009765625
 10
328.75390625
 20
341.1767578125
 10
327.263671875
 20
341.1767578125
 10
326.212890625
 20
341.1767578125
 10
325.39453125
 20
340.400390625
 10
325.080078125
 20
339.4970703125
 10
324.99609375
 20
339.2451171875
 10
324.9326171875
 20
338.9091796875
 10
324.9326171875
 20
338.5732421875
 10
324.9326171875
 20
338.5732421875
 10
324.9326171875
 20
332.2958984375
 10
324.9326171875
 20
332.2958984375
 10
324.9326171875
 20
332.2958984375
 10
323.126953125
 20
332.2958984375
 10
323.126953125
 20
332.2958984375
 10
323.126953125
 20
332.2958984375
 10
323.126953125
 20
338.384765625
 10
323.126953125
 20
338.384765625
 10
323.126953125
 20
340.0009765625
 10
322.4130859375
 20
341.1767578125
 10
321.005859375
 20
341.1767578125
 10
319.8515625
 20
341.1767578125
 10
319.01171875
 20
340.2529296875
 10
318.7177734375
 20
339.3291015625
 10
318.61328125
 20
339.056640625
 10
318.5703125
 20
338.7412109375
 10
318.5703125
 20
338.4267578125
 10
318.5703125
 20
338.4267578125
 10
318.5703125
 20
332.2958984375
 10
318.5703125
 20
332.2958984375
 10
318.5703125
 20
332.2958984375
 10
316.765625
 20
332.2958984375
 10
316.765625
 20
332.2958984375
 10
316.765625
 20
332.2958984375
 10
316.765625
 20
339.70703125
 10
316.765625
 20
339.70703125
 97
        0
 97
        0
 75
     2
 76
     1
 98
        0
450
        0
451
        0
460
0.0
461
0.0
452
        0
462
0.0
453
        0
470

  0
ENDBLK
  5
19D
330
19A
100
AcDbEntity
  8
0
100
AcDbBlockEnd
  0
ENDSEC
  0
SECTION
  2
ENTITIES
  0
SPLINE
  5
105
330
1F
100
AcDbEntity
  8
Livello 1
100
AcDbSpline
210
0.0
220
0.0
230
1.0
 70
     9
 71
     3
 72
    17
 73
    13
 74
     0
 42
0.000000001
 43
0.0000000001
 40
0.0
 40
0.0
 40
0.0
 40
0.0
 40
1.0
 40
1.0
 40
1.0
 40
2.0
 40
2.0
 40
2.0
 40
3.0
 40
3.0
 40
3.0
 40
4.0
 40
4.0
 40
4.0
 40
4.0
 10
480.1961768404308
 20
438.4411100354027
 30
0.0
 10
480.1961768404308
 20
436.4315405590578
 30
0.0
 10
478.4394602122302
 20
434.8024626219567
 30
0.0
 10
476.2724404311502
 20
434.8024626219567
 30
0.0
 10
474.1054206500703
 20
434.8024626219567
 30
0.0
 10
472.3487040218696
 20
436.4315405590578
 30
0.0
 10
472.3487040218696
 20
438.4411100354027
 30
0.0
 10
472.3487040218696
 20
440.4506795117486
 30
0.0
 10
474.1054206500703
 20
442.0797574488488
 30
0.0
 10
476.2724404311502
 20
442.0797574488488
 30
0.0
 10
478.4394602122302
 20
442.0797574488488
 30
0.0
 10
480.1961768404308
 20
440.4506795117486
 30
0.0
 10
480.1961768404308
 20
438.4411100354027
 30
0.0
  0
SPLINE
  5
184
330
1F
100
AcDbEntity
  8
Livello 1
100
AcDbSpline
210
0.0
220
0.0
230
1.0
 70
    11
 71
     3
 72
    17
 73
    13
 74
     0
 42
0.000000001
 43
0.0000000001
 40
0.0
 40
0.0
 40
0.0
 40
0.0
 40
1.0
 40
1.0
 40
1.0
 40
2.0
 40
2.0
 40
2.0
 40
3.0
 40
3.0
 40
3.0
 40
4.0
 40
4.0
 40
4.0
 40
4.0
 10
69.22678077039289
 20
437.4831189208217
 30
0.0
 10
69.22678077039289
 20
439.4926883971675
 30
0.0
 10
70.9834973985935
 20
441.1217663342687
 30
0.0
 10
73.15051717967434
 20
441.1217663342687
 30
0.0
 10
75.3175369607543
 20
441.1217663342687
 30
0.0
 10
77.07425358895489
 20
439.4926883971675
 30
0.0
 10
77.07425358895489
 20
437.4831189208217
 30
0.0
 10
77.07425358895489
 20
435.4735494444757
 30
0.0
 10
75.3175369607543
 20
433.8444715073756
 30
0.0
 10
73.15051717967434
 20
433.8444715073756
 30
0.0
 10
70.9834973985935
 20
433.8444715073756
 30
0.0
 10
69.22678077039289
 20
435.4735494444757
 30
0.0
 10
69.22678077039289
 20
437.4831189208217
 30
0.0
  0
POLYLINE
  5
1DC
330
1F
100
AcDbEntity
  8
0
100
AcDb2dPolyline
 66
     1
 10
0.0
 20
0.0
 30
0.0
  0
VERTEX
  5
1DD
330
1DC
100
AcDbEntity
  8
0
100
AcDbVertex
100
AcDb2dVertex
 10
305.7017594391236
 20
489.8507721557534
 30
0.0
  0
VERTEX
  5
1DE
330
1DC
100
AcDbEntity
  8
0
100
AcDbVertex
100
AcDb2dVertex
 10
236.6367026932812
 20
384.8464614473451
 30
0.0
  0
SEQEND
  5
1DF
330
1DC
100
AcDbEntity
  8
0
  0
POLYLINE
  5
1E0
330
1F
100
AcDbEntity
  8
0
100
AcDb2dPolyline
 66
     1
 10
0.0
 20
0.0
 30
0.0
  0
VERTEX
  5
1E1
330
1E0
100
AcDbEntity
  8
0
100
AcDbVertex
100
AcDb2dVertex
 10
314.7892653010458
 20
489.2892522387173
 30
0.0
  0
VERTEX
  5
1E2
330
1E0
100
AcDbEntity
  8
0
100
AcDbVertex
100
AcDb2dVertex
 10
245.7242085552043
 20
384.2849415303099
 30
0.0
  0
SEQEND
  5
1E3
330
1E0
100
AcDbEntity
  8
0
  0
POLYLINE
  5
1E4
330
1F
100
AcDbEntity
  8
0
100
AcDb2dPolyline
 66
     1
 10
0.0
 20
0.0
 30
0.0
  0
VERTEX
  5
1E5
330
1E4
100
AcDbEntity
  8
0
100
AcDbVertex
100
AcDb2dVertex
 10
491.9831175150121
 20
463.6195059305737
 30
0.0
  0
VERTEX
  5
1E6
330
1E4
100
AcDbEntity
  8
0
100
AcDbVertex
100
AcDb2dVertex
 10
499.8419190720723
 20
463.6195059305737
 30
0.0
  0
VERTEX
  5
1E7
330
1E4
100
AcDbEntity
  8
0
100
AcDbVertex
100
AcDb2dVertex
 10
499.8419190720723
 20
413.1729897303339
 30
0.0
  0
VERTEX
  5
1E8
330
1E4
100
AcDbEntity
  8
0
100
AcDbVertex
100
AcDb2dVertex
 10
491.9831175150121
 20
413.1729897303339
 30
0.0
  0
VERTEX
  5
1E9
330
1E4
100
AcDbEntity
  8
0
100
AcDbVertex
100
AcDb2dVertex
 10
491.9831175150121
 20
463.6195059305737
 30
0.0
  0
SEQEND
  5
1EA
330
1E4
100
AcDbEntity
  8
0
  0
POLYLINE
  5
1EB
330
1F
100
AcDbEntity
  8
0
100
AcDb2dPolyline
 66
     1
 10
0.0
 20
0.0
 30
0.0
  0
VERTEX
  5
1EC
330
1EB
100
AcDbEntity
  8
0
100
AcDbVertex
100
AcDb2dVertex
 10
280.8558353624321
 20
437.6979470467368
 30
0.0
  0
VERTEX
  5
1ED
330
1EB
100
AcDbEntity
  8
0
100
AcDbVertex
100
AcDb2dVertex
 10
402.2524382876654
 20
437.6979470467368
 30
0.0
  0
SEQEND
  5
1EE
330
1EB
100
AcDbEntity
  8
0
  0
POLYLINE
  5
1EF
330
1F
100
AcDbEntity
  8
0
100
AcDb2dPolyline
 66
     1
 10
0.0
 20
0.0
 30
0.0
  0
VERTEX
  5
1F0
330
1EF
100
AcDbEntity
  8
0
100
AcDbVertex
100
AcDb2dVertex
 10
281.3037945716987
 20
438.3790099490333
 30
0.0
  0
VERTEX
  5
1F1
330
1EF
100
AcDbEntity
  8
0
100
AcDbVertex
100
AcDb2dVertex
 10
402.2524382876654
 20
438.3790099490333
 30
0.0
  0
SEQEND
  5
1F2
330
1EF
100
AcDbEntity
  8
0
  0
POLYLINE
  5
1F3
330
1F
100
AcDbEntity
  8
0
100
AcDb2dPolyline
 66
     1
 10
0.0
 20
0.0
 30
0.0
  0
VERTEX
  5
1F4
330
1F3
100
AcDbEntity
  8
0
100
AcDbVertex
100
AcDb2dVertex
 10
57.43984009581254
 20
412.3047230256524
 30
0.0
  0
VERTEX
  5
1F5
330
1F3
100
AcDbEntity
  8
0
100
AcDbVertex
100
AcDb2dVertex
 10
49.58103853875218
 20
412.3047230256524
 30
0.0
  0
VERTEX
  5
1F6
330
1F3
100
AcDbEntity
  8
0
100
AcDbVertex
100
AcDb2dVertex
 10
49.58103853875218
 20
462.7512392258905
 30
0.0
  0
VERTEX
  5
1F7
330
1F3
100
AcDbEntity
  8
0
100
AcDbVertex
100
AcDb2dVertex
 10
57.43984009581254
 20
462.7512392258905
 30
0.0
  0
VERTEX
  5
1F8
330
1F3
100
AcDbEntity
  8
0
100
AcDbVertex
100
AcDb2dVertex
 10
57.43984009581254
 20
412.3047230256524
 30
0.0
  0
SEQEND
  5
1F9
330
1F3
100
AcDbEntity
  8
0
  0
POLYLINE
  5
1FA
330
1F
100
AcDbEntity
  8
0
100
AcDb2dPolyline
 66
     1
 10
0.0
 20
0.0
 30
0.0
  0
VERTEX
  5
1FB
330
1FA
100
AcDbEntity
  8
0
100
AcDbVertex
100
AcDb2dVertex
 10
271.1692771818325
 20
437.9660634283973
 30
0.0
  0
VERTEX
  5
1FC
330
1FA
100
AcDbEntity
  8
0
100
AcDbVertex
100
AcDb2dVertex
 10
147.170565495855
 20
437.9660634283973
 30
0.0
  0
SEQEND
  5
1FD
330
1FA
100
AcDbEntity
  8
0
  0
POLYLINE
  5
1FE
330
1F
100
AcDbEntity
  8
0
100
AcDb2dPolyline
 66
     1
 10
0.0
 20
0.0
 30
0.0
  0
VERTEX
  5
1FF
330
1FE
100
AcDbEntity
  8
0
100
AcDbVertex
100
AcDb2dVertex
 10
270.7117160681064
 20
437.5452326475669
 30
0.0
  0
VERTEX
  5
200
330
1FE
100
AcDbEntity
  8
0
100
AcDbVertex
100
AcDb2dVertex
 10
147.170565495855
 20
437.5452326475669
 30
0.0
  0
SEQEND
  5
201
330
1FE
100
AcDbEntity
  8
0
  0
POLYLINE
  5
202
330
1F
100
AcDbEntity
  8
Livello 1
100
AcDb2dPolyline
 66
     1
 10
0.0
 20
0.0
 30
0.0
  0
VERTEX
  5
203
330
202
100
AcDbEntity
  8
Livello 1
100
AcDbVertex
100
AcDb2dVertex
 10
491.9831175150121
 20
463.6195059305737
 30
0.0
  0
VERTEX
  5
204
330
202
100
AcDbEntity
  8
Livello 1
100
AcDbVertex
100
AcDb2dVertex
 10
499.8419190720723
 20
463.6195059305737
 30
0.0
  0
VERTEX
  5
205
330
202
100
AcDbEntity
  8
Livello 1
100
AcDbVertex
100
AcDb2dVertex
 10
499.8419190720723
 20
413.1729897303339
 30
0.0
  0
VERTEX
  5
206
330
202
100
AcDbEntity
  8
Livello 1
100
AcDbVertex
100
AcDb2dVertex
 10
491.9831175150121
 20
413.1729897303339
 30
0.0
  0
VERTEX
  5
207
330
202
100
AcDbEntity
  8
Livello 1
100
AcDbVertex
100
AcDb2dVertex
 10
491.9831175150121
 20
463.6195059305737
 30
0.0
  0
SEQEND
  5
208
330
202
100
AcDbEntity
  8
Livello 1
  0
POLYLINE
  5
209
330
1F
100
AcDbEntity
  8
Livello 1
100
AcDb2dPolyline
 66
     1
 10
0.0
 20
0.0
 30
0.0
  0
VERTEX
  5
20A
330
209
100
AcDbEntity
  8
Livello 1
100
AcDbVertex
100
AcDb2dVertex
 10
381.0292497016253
 20
446.2373991577132
 30
0.0
  0
VERTEX
  5
20B
330
209
100
AcDbEntity
  8
Livello 1
100
AcDbVertex
100
AcDb2dVertex
 10
432.8632510265142
 20
446.2373991577132
 30
0.0
  0
SEQEND
  5
20C
330
209
100
AcDbEntity
  8
Livello 1
  0
POLYLINE
  5
20D
330
1F
100
AcDbEntity
  8
Livello 1
100
AcDb2dPolyline
 66
     1
 10
0.0
 20
0.0
 30
0.0
  0
VERTEX
  5
20E
330
20D
100
AcDbEntity
  8
Livello 1
100
AcDbVertex
100
AcDb2dVertex
 10
492.0511601112321
 20
446.2373991577132
 30
0.0
  0
VERTEX
  5
20F
330
20D
100
AcDbEntity
  8
Livello 1
100
AcDbVertex
100
AcDb2dVertex
 10
492.0511601112321
 20
429.6164730349437
 30
0.0
  0
SEQEND
  5
210
330
20D
100
AcDbEntity
  8
Livello 1
  0
POLYLINE
  5
211
330
1F
100
AcDbEntity
  8
Livello 1
100
AcDb2dPolyline
 66
     1
 10
0.0
 20
0.0
 30
0.0
  0
VERTEX
  5
212
330
211
100
AcDbEntity
  8
Livello 1
100
AcDbVertex
100
AcDb2dVertex
 10
431.7662651234513
 20
429.6164730349437
 30
0.0
  0
VERTEX
  5
213
330
211
100
AcDbEntity
  8
Livello 1
100
AcDbVertex
100
AcDb2dVertex
 10
381.0292497016253
 20
429.6164730349437
 30
0.0
  0
SEQEND
  5
214
330
211
100
AcDbEntity
  8
Livello 1
  0
POLYLINE
  5
215
330
1F
100
AcDbEntity
  8
Livello 1
100
AcDb2dPolyline
 66
     1
 10
0.0
 20
0.0
 30
0.0
  0
VERTEX
  5
216
330
215
100
AcDbEntity
  8
Livello 1
100
AcDbVertex
100
AcDb2dVertex
 10
381.0292497016253
 20
429.6164730349437
 30
0.0
  0
VERTEX
  5
217
330
215
100
AcDbEntity
  8
Livello 1
100
AcDbVertex
100
AcDb2dVertex
 10
381.0292497016253
 20
446.2373991577132
 30
0.0
  0
SEQEND
  5
218
330
215
100
AcDbEntity
  8
Livello 1
  0
POLYLINE
  5
219
330
1F
100
AcDbEntity
  8
Livello 1
100
AcDb2dPolyline
 66
     1
 10
0.0
 20
0.0
 30
0.0
  0
VERTEX
  5
21A
330
219
100
AcDbEntity
  8
Livello 1
100
AcDbVertex
100
AcDb2dVertex
 10
451.1561207421054
 20
431.772683729032
 30
0.0
  0
VERTEX
  5
21B
330
219
100
AcDbEntity
  8
Livello 1
100
AcDbVertex
100
AcDb2dVertex
 10
448.3322170574829
 20
431.772683729032
 30
0.0
  0
SEQEND
  5
21C
330
219
100
AcDbEntity
  8
Livello 1
  0
POLYLINE
  5
21D
330
1F
100
AcDbEntity
  8
Livello 1
100
AcDb2dPolyline
 66
     1
 10
0.0
 20
0.0
 30
0.0
  0
VERTEX
  5
21E
330
21D
100
AcDbEntity
  8
Livello 1
100
AcDbVertex
100
AcDb2dVertex
 10
465.1566448372959
 20
429.6479285811273
 30
0.0
  0
VERTEX
  5
21F
330
21D
100
AcDbEntity
  8
Livello 1
100
AcDbVertex
100
AcDb2dVertex
 10
451.8157173380768
 20
429.6479285811273
 30
0.0
  0
SEQEND
  5
220
330
21D
100
AcDbEntity
  8
Livello 1
  0
SPLINE
  5
221
330
1F
100
AcDbEntity
  8
Livello 1
100
AcDbSpline
210
0.0
220
0.0
230
1.0
 70
     8
 71
     3
 72
    26
 73
    22
 74
     0
 42
0.000000001
 43
0.0000000001
 40
0.0
 40
0.0
 40
0.0
 40
0.0
 40
1.0
 40
1.0
 40
1.0
 40
2.0
 40
2.0
 40
2.0
 40
3.0
 40
3.0
 40
3.0
 40
4.0
 40
4.0
 40
4.0
 40
5.0
 40
5.0
 40
5.0
 40
6.0
 40
6.0
 40
6.0
 40
7.0
 40
7.0
 40
7.0
 40
7.0
 10
465.0584258558611
 20
429.6164730349437
 30
0.0
 10
465.6906866920963
 20
430.9214217801218
 30
0.0
 10
466.0419427122232
 20
432.2263705253016
 30
0.0
 10
466.3229475283296
 20
433.6686822962883
 30
0.0
 10
466.3229475283296
 20
433.8747268349953
 30
0.0
 10
466.393198732354
 20
434.0807713737039
 30
0.0
 10
466.393198732354
 20
434.2868159124264
 30
0.0
 10
466.5337011404026
 20
434.7675865027468
 30
0.0
 10
466.6039523444268
 20
435.248357093079
 30
0.0
 10
466.6039523444268
 20
435.7978091963131
 30
0.0
 10
466.6039523444268
 20
436.4846243253441
 30
0.0
 10
466.6039523444268
 20
437.1714394543833
 30
0.0
 10
466.6039523444268
 20
437.8582545834252
 30
0.0
 10
466.6742035484531
 20
439.0258403027992
 30
0.0
 10
466.6742035484531
 20
440.1934260221596
 30
0.0
 10
466.6039523444268
 20
441.2923302286308
 30
0.0
 10
466.393198732354
 20
442.9406865383253
 30
0.0
 10
465.971691508199
 20
444.5890428480196
 30
0.0
 10
465.4096818759899
 20
446.2373991577132
 30
0.0
 10
465.4096818759899
 20
446.2373991577132
 30
0.0
 10
450.9131114699067
 20
446.2373991577132
 30
0.0
 10
450.9131114699067
 20
446.2373991577132
 30
0.0
  0
SPLINE
  5
222
330
1F
100
AcDbEntity
  8
Livello 1
100
AcDbSpline
210
0.0
220
0.0
230
1.0
 70
     8
 71
     3
 72
    29
 73
    25
 74
     0
 42
0.000000001
 43
0.0000000001
 40
0.0
 40
0.0
 40
0.0
 40
0.0
 40
1.0
 40
1.0
 40
1.0
 40
2.0
 40
2.0
 40
2.0
 40
3.0
 40
3.0
 40
3.0
 40
4.0
 40
4.0
 40
4.0
 40
5.0
 40
5.0
 40
5.0
 40
6.0
 40
6.0
 40
6.0
 40
7.0
 40
7.0
 40
7.0
 40
8.0
 40
8.0
 40
8.0
 40
8.0
 10
450.1493680429903
 20
444.6991637482652
 30
0.0
 10
450.1336903038827
 20
446.5944895486246
 30
0.0
 10
451.8157173380768
 20
446.2041853370737
 30
0.0
 10
451.8157173380768
 20
446.2041853370737
 30
0.0
 10
452.5100295443663
 20
446.078766871341
 30
0.0
 10
452.9266168681369
 20
444.8872914468638
 30
0.0
 10
452.9960480887639
 20
444.3856175839346
 30
0.0
 10
453.2737729712808
 20
443.6958160223958
 30
0.0
 10
453.3432041919076
 20
443.0060144608588
 30
0.0
 10
453.5514978537957
 20
442.253503666454
 30
0.0
 10
453.7597915156784
 20
440.7484820776453
 30
0.0
 10
453.8292227363053
 20
439.3061697216908
 30
0.0
 10
453.8292227363053
 20
437.8638573657481
 30
0.0
 10
453.7597915156784
 20
436.3588357769404
 30
0.0
 10
453.6209290744245
 20
434.9165234209968
 30
0.0
 10
453.3432041919076
 20
433.4115018321882
 30
0.0
 10
453.2737729712808
 20
432.721700270651
 30
0.0
 10
452.9960480887639
 20
431.9691894762463
 30
0.0
 10
452.7877544268813
 20
431.2793879147066
 30
0.0
 10
452.6488919856201
 20
430.9031325175001
 30
0.0
 10
452.3711671031106
 20
430.0252032573634
 30
0.0
 10
451.7462861174498
 20
429.8370755587657
 30
0.0
 10
451.6768548968212
 20
429.711657093033
 30
0.0
 10
451.4685612349331
 20
429.648947860167
 30
0.0
 10
451.3296987936773
 20
429.711657093033
 30
0.0
  0
SPLINE
  5
223
330
1F
100
AcDbEntity
  8
Livello 1
100
AcDbSpline
210
0.0
220
0.0
230
1.0
 70
     8
 71
     3
 72
    23
 73
    19
 74
     0
 42
0.000000001
 43
0.0000000001
 40
0.0
 40
0.0
 40
0.0
 40
0.0
 40
1.0
 40
1.0
 40
1.0
 40
2.0
 40
2.0
 40
2.0
 40
3.0
 40
3.0
 40
3.0
 40
4.0
 40
4.0
 40
4.0
 40
5.0
 40
5.0
 40
5.0
 40
6.0
 40
6.0
 40
6.0
 40
6.0
 10
450.9825426905336
 20
431.772683729032
 30
0.0
 10
451.53799245556
 20
431.7082972093995
 30
0.0
 10
451.8851485587056
 20
432.6740950038984
 30
0.0
 10
452.0934422205937
 20
432.9960276020611
 30
0.0
 10
452.1628734412225
 20
433.5755062787638
 30
0.0
 10
452.3711671031106
 20
434.1549849554667
 30
0.0
 10
452.4405983237374
 20
434.6700771125388
 30
0.0
 10
452.718323206247
 20
435.8290344659353
 30
0.0
 10
452.718323206247
 20
436.9236052997093
 30
0.0
 10
452.718323206247
 20
438.0825626531049
 30
0.0
 10
452.718323206247
 20
439.2415200065125
 30
0.0
 10
452.718323206247
 20
440.3360908402873
 30
0.0
 10
452.5100295443663
 20
441.4950481936838
 30
0.0
 10
452.4405983237374
 20
442.0101403507551
 30
0.0
 10
452.4405983237374
 20
442.5896190274588
 30
0.0
 10
452.1628734412225
 20
443.1690977041508
 30
0.0
 10
452.0934422205937
 20
443.4910303023243
 30
0.0
 10
451.8851485587056
 20
444.3924415771907
 30
0.0
 10
451.2602675730503
 20
444.5212146164558
 30
0.0
  0
SPLINE
  5
224
330
1F
100
AcDbEntity
  8
Livello 1
100
AcDbSpline
210
0.0
220
0.0
230
1.0
 70
     8
 71
     3
 72
    11
 73
     7
 74
     0
 42
0.000000001
 43
0.0000000001
 40
0.0
 40
0.0
 40
0.0
 40
0.0
 40
1.0
 40
1.0
 40
1.0
 40
2.0
 40
2.0
 40
2.0
 40
2.0
 10
450.9131114699067
 20
430.0986342185533
 30
0.0
 10
450.1493680429903
 20
430.4849533363586
 30
0.0
 10
449.8716431604752
 20
430.9356589737872
 30
0.0
 10
449.8022119398483
 20
431.5795241701235
 30
0.0
 10
449.8022119398483
 20
431.5795241701235
 30
0.0
 10
449.8022119398483
 20
431.6439106897551
 30
0.0
 10
449.8022119398483
 20
431.6439106897551
 30
0.0
  0
SPLINE
  5
225
330
1F
100
AcDbEntity
  8
Livello 1
100
AcDbSpline
210
0.0
220
0.0
230
1.0
 70
     9
 71
     3
 72
    35
 73
    31
 74
     0
 42
0.000000001
 43
0.0000000001
 40
0.0
 40
0.0
 40
0.0
 40
0.0
 40
1.0
 40
1.0
 40
1.0
 40
2.0
 40
2.0
 40
2.0
 40
3.0
 40
3.0
 40
3.0
 40
4.0
 40
4.0
 40
4.0
 40
5.0
 40
5.0
 40
5.0
 40
6.0
 40
6.0
 40
6.0
 40
7.0
 40
7.0
 40
7.0
 40
8.0
 40
8.0
 40
8.0
 40
9.0
 40
9.0
 40
9.0
 40
10.0
 40
10.0
 40
10.0
 40
10.0
 10
447.3026879972131
 20
429.6164730349437
 30
0.0
 10
449.1398910446733
 20
431.3752121936714
 30
0.0
 10
449.038468512932
 20
437.1811513782395
 30
0.0
 10
449.038468512932
 20
437.1811513782395
 30
0.0
 10
449.038468512932
 20
437.1811513782395
 30
0.0
 10
448.7081819240739
 20
428.7293543462619
 30
0.0
 10
449.038468512932
 20
437.1811513782395
 30
0.0
 10
449.3687551017901
 20
445.6329484102179
 30
0.0
 10
446.9555318940765
 20
446.6674929688115
 30
0.0
 10
446.9555318940765
 20
446.6674929688115
 30
0.0
 10
446.9555318940765
 20
446.6674929688115
 30
0.0
 10
434.2496185190339
 20
446.6674929688115
 30
0.0
 10
434.2496185190339
 20
446.6674929688115
 30
0.0
 10
434.2496185190339
 20
446.6674929688115
 30
0.0
 10
433.7091719763356
 20
446.2373991577132
 30
0.0
 10
433.7091719763356
 20
446.2373991577132
 30
0.0
 10
433.7091719763356
 20
446.2373991577132
 30
0.0
 10
435.3118888117806
 20
444.0739160018802
 30
0.0
 10
435.3118888117806
 20
437.6979470467368
 30
0.0
 10
435.3118888117806
 20
437.6979470467368
 30
0.0
 10
435.5420007009525
 20
431.1137260526574
 30
0.0
 10
432.8632510265142
 20
429.6164730349437
 30
0.0
 10
432.8632510265142
 20
429.6164730349437
 30
0.0
 10
433.8105740855243
 20
428.9690499755242
 30
0.0
 10
433.8105740855243
 20
428.9690499755242
 30
0.0
 10
433.8105740855243
 20
428.9690499755242
 30
0.0
 10
446.8518553952945
 20
428.9690499755242
 30
0.0
 10
446.8518553952945
 20
428.9690499755242
 30
0.0
 10
446.8518553952945
 20
428.9690499755242
 30
0.0
 10
447.3026879972131
 20
429.6164730349437
 30
0.0
 10
447.3026879972131
 20
429.6164730349437
 30
0.0
  0
POLYLINE
  5
226
330
1F
100
AcDbEntity
  8
Livello 1
100
AcDb2dPolyline
 66
     1
 10
0.0
 20
0.0
 30
0.0
  0
VERTEX
  5
227
330
226
100
AcDbEntity
  8
Livello 1
100
AcDbVertex
100
AcDb2dVertex
 10
450.9825426905336
 20
430.0986342185533
 30
0.0
  0
VERTEX
  5
228
330
226
100
AcDbEntity
  8
Livello 1
100
AcDbVertex
100
AcDb2dVertex
 10
451.3296987936773
 20
429.7123151007589
 30
0.0
  0
SEQEND
  5
229
330
226
100
AcDbEntity
  8
Livello 1
  0
POLYLINE
  5
22A
330
1F
100
AcDbEntity
  8
Livello 1
100
AcDb2dPolyline
 66
     1
 10
0.0
 20
0.0
 30
0.0
  0
VERTEX
  5
22B
330
22A
100
AcDbEntity
  8
Livello 1
100
AcDbVertex
100
AcDb2dVertex
 10
451.2602675730503
 20
444.5212146164558
 30
0.0
  0
VERTEX
  5
22C
330
22A
100
AcDbEntity
  8
Livello 1
100
AcDbVertex
100
AcDb2dVertex
 10
448.3322170574829
 20
444.5212146164558
 30
0.0
  0
SEQEND
  5
22D
330
22A
100
AcDbEntity
  8
Livello 1
  0
POLYLINE
  5
22E
330
1F
100
AcDbEntity
  8
Livello 1
100
AcDb2dPolyline
 66
     1
 10
0.0
 20
0.0
 30
0.0
  0
VERTEX
  5
22F
330
22E
100
AcDbEntity
  8
Livello 1
100
AcDbVertex
100
AcDb2dVertex
 10
492.0511601112321
 20
430.329326779578
 30
0.0
  0
VERTEX
  5
230
330
22E
100
AcDbEntity
  8
Livello 1
100
AcDbVertex
100
AcDb2dVertex
 10
489.080608690072
 20
430.329326779578
 30
0.0
  0
VERTEX
  5
231
330
22E
100
AcDbEntity
  8
Livello 1
100
AcDbVertex
100
AcDb2dVertex
 10
482.4687361720153
 20
430.329326779578
 30
0.0
  0
VERTEX
  5
232
330
22E
100
AcDbEntity
  8
Livello 1
100
AcDbVertex
100
AcDb2dVertex
 10
471.1614759237455
 20
430.329326779578
 30
0.0
  0
SEQEND
  5
233
330
22E
100
AcDbEntity
  8
Livello 1
  0
SPLINE
  5
234
330
1F
100
AcDbEntity
  8
Livello 1
100
AcDbSpline
210
0.0
220
0.0
230
1.0
 70
     8
 71
     3
 72
    20
 73
    16
 74
     0
 42
0.000000001
 43
0.0000000001
 40
0.0
 40
0.0
 40
0.0
 40
0.0
 40
1.0
 40
1.0
 40
1.0
 40
2.0
 40
2.0
 40
2.0
 40
3.0
 40
3.0
 40
3.0
 40
4.0
 40
4.0
 40
4.0
 40
5.0
 40
5.0
 40
5.0
 40
5.0
 10
471.0295108299269
 20
430.329326779578
 30
0.0
 10
470.4046298442681
 20
430.7800324170038
 30
0.0
 10
469.9186112998686
 20
431.2307380544435
 30
0.0
 10
469.502023976096
 20
431.7458302115146
 30
0.0
 10
468.9465742110642
 20
432.3253088882183
 30
0.0
 10
468.5299868872935
 20
432.969174084541
 30
0.0
 10
468.2522620047766
 20
433.6130392808773
 30
0.0
 10
467.488518577862
 20
435.0295427128139
 30
0.0
 10
467.1413624747183
 20
436.5748191840174
 30
0.0
 10
467.0719312540896
 20
438.1844821748646
 30
0.0
 10
467.0719312540896
 20
439.6653721264328
 30
0.0
 10
467.3496561366063
 20
441.2106485976356
 30
0.0
 10
468.0439683428939
 20
442.5627655099396
 30
0.0
 10
468.5994181079204
 20
443.7861093829679
 30
0.0
 10
469.502023976096
 20
444.8162936971112
 30
0.0
 10
470.6823547267831
 20
445.5245454130791
 30
0.0
  0
POLYLINE
  5
235
330
1F
100
AcDbEntity
  8
Livello 1
100
AcDb2dPolyline
 66
     1
 10
0.0
 20
0.0
 30
0.0
  0
VERTEX
  5
236
330
235
100
AcDbEntity
  8
Livello 1
100
AcDbVertex
100
AcDb2dVertex
 10
470.6823547267831
 20
445.5245454130791
 30
0.0
  0
VERTEX
  5
237
330
235
100
AcDbEntity
  8
Livello 1
100
AcDbVertex
100
AcDb2dVertex
 10
481.7979664962658
 20
445.5245454130791
 30
0.0
  0
VERTEX
  5
238
330
235
100
AcDbEntity
  8
Livello 1
100
AcDbVertex
100
AcDb2dVertex
 10
488.7931359718914
 20
445.5245454130791
 30
0.0
  0
VERTEX
  5
239
330
235
100
AcDbEntity
  8
Livello 1
100
AcDbVertex
100
AcDb2dVertex
 10
491.476214674869
 20
445.5245454130791
 30
0.0
  0
SEQEND
  5
23A
330
235
100
AcDbEntity
  8
Livello 1
  0
SPLINE
  5
23B
330
1F
100
AcDbEntity
  8
Livello 1
100
AcDbSpline
210
0.0
220
0.0
230
1.0
 70
     8
 71
     3
 72
     8
 73
     4
 74
     0
 42
0.000000001
 43
0.0000000001
 40
0.0
 40
0.0
 40
0.0
 40
0.0
 40
1.0
 40
1.0
 40
1.0
 40
1.0
 10
432.6121860732746
 20
446.2373991577132
 30
0.0
 10
432.6121860732746
 20
446.2373991577132
 30
0.0
 10
434.2149029087194
 20
444.0739160018802
 30
0.0
 10
434.2149029087194
 20
437.6979470467368
 30
0.0
  0
SPLINE
  5
23C
330
1F
100
AcDbEntity
  8
Livello 1
100
AcDbSpline
210
0.0
220
0.0
230
1.0
 70
     8
 71
     3
 72
     8
 73
     4
 74
     0
 42
0.000000001
 43
0.0000000001
 40
1.0
 40
1.0
 40
1.0
 40
1.0
 40
2.0
 40
2.0
 40
2.0
 40
2.0
 10
434.2149029087194
 20
437.6979470467368
 30
0.0
 10
434.2149029087194
 20
437.6979470467368
 30
0.0
 10
434.4450147978913
 20
431.1137260526574
 30
0.0
 10
431.7662651234513
 20
429.6164730349437
 30
0.0
  0
POLYLINE
  5
23D
330
1F
100
AcDbEntity
  8
Livello 1
100
AcDb2dPolyline
 66
     1
 10
0.0
 20
0.0
 30
0.0
  0
VERTEX
  5
23E
330
23D
100
AcDbEntity
  8
Livello 1
100
AcDbVertex
100
AcDb2dVertex
 10
57.43984009581254
 20
412.3047230256524
 30
0.0
  0
VERTEX
  5
23F
330
23D
100
AcDbEntity
  8
Livello 1
100
AcDbVertex
100
AcDb2dVertex
 10
49.58103853875218
 20
412.3047230256524
 30
0.0
  0
VERTEX
  5
240
330
23D
100
AcDbEntity
  8
Livello 1
100
AcDbVertex
100
AcDb2dVertex
 10
49.58103853875218
 20
462.7512392258905
 30
0.0
  0
VERTEX
  5
241
330
23D
100
AcDbEntity
  8
Livello 1
100
AcDbVertex
100
AcDb2dVertex
 10
57.43984009581254
 20
462.7512392258905
 30
0.0
  0
VERTEX
  5
242
330
23D
100
AcDbEntity
  8
Livello 1
100
AcDbVertex
100
AcDb2dVertex
 10
57.43984009581254
 20
412.3047230256524
 30
0.0
  0
SEQEND
  5
243
330
23D
100
AcDbEntity
  8
Livello 1
  0
POLYLINE
  5
244
330
1F
100
AcDbEntity
  8
Livello 1
100
AcDb2dPolyline
 66
     1
 10
0.0
 20
0.0
 30
0.0
  0
VERTEX
  5
245
330
244
100
AcDbEntity
  8
Livello 1
100
AcDbVertex
100
AcDb2dVertex
 10
168.3937079091993
 20
429.686829798512
 30
0.0
  0
VERTEX
  5
246
330
244
100
AcDbEntity
  8
Livello 1
100
AcDbVertex
100
AcDb2dVertex
 10
116.5597065843103
 20
429.686829798512
 30
0.0
  0
SEQEND
  5
247
330
244
100
AcDbEntity
  8
Livello 1
  0
POLYLINE
  5
248
330
1F
100
AcDbEntity
  8
Livello 1
100
AcDb2dPolyline
 66
     1
 10
0.0
 20
0.0
 30
0.0
  0
VERTEX
  5
249
330
248
100
AcDbEntity
  8
Livello 1
100
AcDbVertex
100
AcDb2dVertex
 10
57.37179749959341
 20
429.686829798512
 30
0.0
  0
VERTEX
  5
24A
330
248
100
AcDbEntity
  8
Livello 1
100
AcDbVertex
100
AcDb2dVertex
 10
57.37179749959341
 20
446.3077559212806
 30
0.0
  0
SEQEND
  5
24B
330
248
100
AcDbEntity
  8
Livello 1
  0
POLYLINE
  5
24C
330
1F
100
AcDbEntity
  8
Livello 1
100
AcDb2dPolyline
 66
     1
 10
0.0
 20
0.0
 30
0.0
  0
VERTEX
  5
24D
330
24C
100
AcDbEntity
  8
Livello 1
100
AcDbVertex
100
AcDb2dVertex
 10
117.6566924873723
 20
446.3077559212806
 30
0.0
  0
VERTEX
  5
24E
330
24C
100
AcDbEntity
  8
Livello 1
100
AcDbVertex
100
AcDb2dVertex
 10
168.3937079091993
 20
446.3077559212806
 30
0.0
  0
SEQEND
  5
24F
330
24C
100
AcDbEntity
  8
Livello 1
  0
POLYLINE
  5
250
330
1F
100
AcDbEntity
  8
Livello 1
100
AcDb2dPolyline
 66
     1
 10
0.0
 20
0.0
 30
0.0
  0
VERTEX
  5
251
330
250
100
AcDbEntity
  8
Livello 1
100
AcDbVertex
100
AcDb2dVertex
 10
168.3937079091993
 20
446.3077559212806
 30
0.0
  0
VERTEX
  5
252
330
250
100
AcDbEntity
  8
Livello 1
100
AcDbVertex
100
AcDb2dVertex
 10
168.3937079091993
 20
429.686829798512
 30
0.0
  0
SEQEND
  5
253
330
250
100
AcDbEntity
  8
Livello 1
  0
POLYLINE
  5
254
330
1F
100
AcDbEntity
  8
Livello 1
100
AcDb2dPolyline
 66
     1
 10
0.0
 20
0.0
 30
0.0
  0
VERTEX
  5
255
330
254
100
AcDbEntity
  8
Livello 1
100
AcDbVertex
100
AcDb2dVertex
 10
98.26683686871913
 20
444.1515452271933
 30
0.0
  0
VERTEX
  5
256
330
254
100
AcDbEntity
  8
Livello 1
100
AcDbVertex
100
AcDb2dVertex
 10
101.0907405533417
 20
444.1515452271933
 30
0.0
  0
SEQEND
  5
257
330
254
100
AcDbEntity
  8
Livello 1
  0
POLYLINE
  5
258
330
1F
100
AcDbEntity
  8
Livello 1
100
AcDb2dPolyline
 66
     1
 10
0.0
 20
0.0
 30
0.0
  0
VERTEX
  5
259
330
258
100
AcDbEntity
  8
Livello 1
100
AcDbVertex
100
AcDb2dVertex
 10
84.26631277352862
 20
446.2763003750978
 30
0.0
  0
VERTEX
  5
25A
330
258
100
AcDbEntity
  8
Livello 1
100
AcDbVertex
100
AcDb2dVertex
 10
97.60724027274774
 20
446.2763003750978
 30
0.0
  0
SEQEND
  5
25B
330
258
100
AcDbEntity
  8
Livello 1
  0
SPLINE
  5
25C
330
1F
100
AcDbEntity
  8
Livello 1
100
AcDbSpline
210
0.0
220
0.0
230
1.0
 70
     8
 71
     3
 72
    26
 73
    22
 74
     0
 42
0.000000001
 43
0.0000000001
 40
0.0
 40
0.0
 40
0.0
 40
0.0
 40
1.0
 40
1.0
 40
1.0
 40
2.0
 40
2.0
 40
2.0
 40
3.0
 40
3.0
 40
3.0
 40
4.0
 40
4.0
 40
4.0
 40
5.0
 40
5.0
 40
5.0
 40
6.0
 40
6.0
 40
6.0
 40
7.0
 40
7.0
 40
7.0
 40
7.0
 10
84.36453175496355
 20
446.3077559212806
 30
0.0
 10
83.73227091872925
 20
445.0028071761034
 30
0.0
 10
83.38101489860127
 20
443.6978584309226
 30
0.0
 10
83.10001008249583
 20
442.255546659936
 30
0.0
 10
83.10001008249583
 20
442.04950212123
 30
0.0
 10
83.02975887847152
 20
441.8434575825203
 30
0.0
 10
83.02975887847152
 20
441.6374130437979
 30
0.0
 10
82.88925647042196
 20
441.1566424534784
 30
0.0
 10
82.81900526639764
 20
440.6758718631453
 30
0.0
 10
82.81900526639764
 20
440.1264197599111
 30
0.0
 10
82.81900526639764
 20
439.4396046308821
 30
0.0
 10
82.81900526639764
 20
438.752789501841
 30
0.0
 10
82.81900526639764
 20
438.0659743727992
 30
0.0
 10
82.74875406237152
 20
436.8983886534261
 30
0.0
 10
82.74875406237152
 20
435.7308029340656
 30
0.0
 10
82.81900526639764
 20
434.6318987275945
 30
0.0
 10
83.02975887847152
 20
432.9835424179
 30
0.0
 10
83.45126610262468
 20
431.3351861082056
 30
0.0
 10
84.01327573483468
 20
429.686829798512
 30
0.0
 10
84.01327573483468
 20
429.686829798512
 30
0.0
 10
98.50984614091792
 20
429.686829798512
 30
0.0
 10
98.50984614091792
 20
429.686829798512
 30
0.0
  0
SPLINE
  5
25D
330
1F
100
AcDbEntity
  8
Livello 1
100
AcDbSpline
210
0.0
220
0.0
230
1.0
 70
     8
 71
     3
 72
    29
 73
    25
 74
     0
 42
0.000000001
 43
0.0000000001
 40
0.0
 40
0.0
 40
0.0
 40
0.0
 40
1.0
 40
1.0
 40
1.0
 40
2.0
 40
2.0
 40
2.0
 40
3.0
 40
3.0
 40
3.0
 40
4.0
 40
4.0
 40
4.0
 40
5.0
 40
5.0
 40
5.0
 40
6.0
 40
6.0
 40
6.0
 40
7.0
 40
7.0
 40
7.0
 40
8.0
 40
8.0
 40
8.0
 40
8.0
 10
99.27358956783336
 20
431.2250652079611
 30
0.0
 10
99.28926730694277
 20
429.3297394075988
 30
0.0
 10
97.60724027274774
 20
429.7200436191506
 30
0.0
 10
97.60724027274774
 20
429.7200436191506
 30
0.0
 10
96.91292806645924
 20
429.8454620848842
 30
0.0
 10
96.49634074268853
 20
431.0369375093615
 30
0.0
 10
96.42690952206068
 20
431.5386113722906
 30
0.0
 10
96.14918463954472
 20
432.2284129338276
 30
0.0
 10
96.07975341891688
 20
432.9182144953666
 30
0.0
 10
95.87145975702972
 20
433.6707252897703
 30
0.0
 10
95.66316609514617
 20
435.17574687858
 30
0.0
 10
95.5937348745183
 20
436.6180592345336
 30
0.0
 10
95.5937348745183
 20
438.0603715904762
 30
0.0
 10
95.66316609514617
 20
439.5653931792849
 30
0.0
 10
95.80202853640093
 20
441.0077055352276
 30
0.0
 10
96.07975341891688
 20
442.5127271240371
 30
0.0
 10
96.14918463954472
 20
443.2025286855742
 30
0.0
 10
96.42690952206068
 20
443.955039479978
 30
0.0
 10
96.6352031839424
 20
444.6448410415178
 30
0.0
 10
96.77406562520445
 20
445.0210964387252
 30
0.0
 10
97.05179050771405
 20
445.8990256988608
 30
0.0
 10
97.6766714933756
 20
446.0871533974596
 30
0.0
 10
97.74610271400252
 20
446.2125718631923
 30
0.0
 10
97.95439637589153
 20
446.2752810960573
 30
0.0
 10
98.09325881714631
 20
446.2125718631923
 30
0.0
  0
SPLINE
  5
25E
330
1F
100
AcDbEntity
  8
Livello 1
100
AcDbSpline
210
0.0
220
0.0
230
1.0
 70
     8
 71
     3
 72
    23
 73
    19
 74
     0
 42
0.000000001
 43
0.0000000001
 40
0.0
 40
0.0
 40
0.0
 40
0.0
 40
1.0
 40
1.0
 40
1.0
 40
2.0
 40
2.0
 40
2.0
 40
3.0
 40
3.0
 40
3.0
 40
4.0
 40
4.0
 40
4.0
 40
5.0
 40
5.0
 40
5.0
 40
6.0
 40
6.0
 40
6.0
 40
6.0
 10
98.4404149202901
 20
444.1515452271933
 30
0.0
 10
97.88496515526459
 20
444.2159317468249
 30
0.0
 10
97.53780905211895
 20
443.2501339523269
 30
0.0
 10
97.32951539022995
 20
442.9282013541632
 30
0.0
 10
97.26008416960304
 20
442.3487226774613
 30
0.0
 10
97.05179050771405
 20
441.7692440007576
 30
0.0
 10
96.98235928708619
 20
441.2541518436865
 30
0.0
 10
96.70463440457751
 20
440.095194490289
 30
0.0
 10
96.70463440457751
 20
439.0006236565159
 30
0.0
 10
96.70463440457751
 20
437.8416663031194
 30
0.0
 10
96.70463440457751
 20
436.6827089497117
 30
0.0
 10
96.70463440457751
 20
435.5881381159369
 30
0.0
 10
96.91292806645924
 20
434.4291807625404
 30
0.0
 10
96.98235928708619
 20
433.9140886054702
 30
0.0
 10
96.98235928708619
 20
433.3346099287664
 30
0.0
 10
97.26008416960304
 20
432.7551312520745
 30
0.0
 10
97.32951539022995
 20
432.4331986538999
 30
0.0
 10
97.53780905211895
 20
431.5317873790345
 30
0.0
 10
98.16269003777417
 20
431.4030143397686
 30
0.0
  0
SPLINE
  5
25F
330
1F
100
AcDbEntity
  8
Livello 1
100
AcDbSpline
210
0.0
220
0.0
230
1.0
 70
     8
 71
     3
 72
    11
 73
     7
 74
     0
 42
0.000000001
 43
0.0000000001
 40
0.0
 40
0.0
 40
0.0
 40
0.0
 40
1.0
 40
1.0
 40
1.0
 40
2.0
 40
2.0
 40
2.0
 40
2.0
 10
98.50984614091792
 20
445.8255947376719
 30
0.0
 10
99.27358956783336
 20
445.4392756198657
 30
0.0
 10
99.55131445034842
 20
444.9885699824371
 30
0.0
 10
99.62074567097623
 20
444.3447047861018
 30
0.0
 10
99.62074567097623
 20
444.3447047861018
 30
0.0
 10
99.62074567097623
 20
444.2803182664693
 30
0.0
 10
99.62074567097623
 20
444.2803182664693
 30
0.0
  0
SPLINE
  5
260
330
1F
100
AcDbEntity
  8
Livello 1
100
AcDbSpline
210
0.0
220
0.0
230
1.0
 70
     9
 71
     3
 72
    35
 73
    31
 74
     0
 42
0.000000001
 43
0.0000000001
 40
0.0
 40
0.0
 40
0.0
 40
0.0
 40
1.0
 40
1.0
 40
1.0
 40
2.0
 40
2.0
 40
2.0
 40
3.0
 40
3.0
 40
3.0
 40
4.0
 40
4.0
 40
4.0
 40
5.0
 40
5.0
 40
5.0
 40
6.0
 40
6.0
 40
6.0
 40
7.0
 40
7.0
 40
7.0
 40
8.0
 40
8.0
 40
8.0
 40
9.0
 40
9.0
 40
9.0
 40
10.0
 40
10.0
 40
10.0
 40
10.0
 10
102.1202696136106
 20
446.3077559212806
 30
0.0
 10
100.2830665661504
 20
444.549016762553
 30
0.0
 10
100.3844890978926
 20
438.7430775779848
 30
0.0
 10
100.3844890978926
 20
438.7430775779848
 30
0.0
 10
100.3844890978926
 20
438.7430775779848
 30
0.0
 10
100.7147756867507
 20
447.1948746099624
 30
0.0
 10
100.3844890978926
 20
438.7430775779848
 30
0.0
 10
100.0542025090335
 20
430.2912805460073
 30
0.0
 10
102.467425716748
 20
429.2567359874128
 30
0.0
 10
102.467425716748
 20
429.2567359874128
 30
0.0
 10
102.467425716748
 20
429.2567359874128
 30
0.0
 10
115.1733390917898
 20
429.2567359874128
 30
0.0
 10
115.1733390917898
 20
429.2567359874128
 30
0.0
 10
115.1733390917898
 20
429.2567359874128
 30
0.0
 10
115.713785634488
 20
429.686829798512
 30
0.0
 10
115.713785634488
 20
429.686829798512
 30
0.0
 10
115.713785634488
 20
429.686829798512
 30
0.0
 10
114.111068799044
 20
431.8503129543451
 30
0.0
 10
114.111068799044
 20
438.2262819094885
 30
0.0
 10
114.111068799044
 20
438.2262819094885
 30
0.0
 10
113.8809569098712
 20
444.8105029035668
 30
0.0
 10
116.5597065843103
 20
446.3077559212806
 30
0.0
 10
116.5597065843103
 20
446.3077559212806
 30
0.0
 10
115.6123835253002
 20
446.955178980701
 30
0.0
 10
115.6123835253002
 20
446.955178980701
 30
0.0
 10
115.6123835253002
 20
446.955178980701
 30
0.0
 10
102.571102215531
 20
446.955178980701
 30
0.0
 10
102.571102215531
 20
446.955178980701
 30
0.0
 10
102.571102215531
 20
446.955178980701
 30
0.0
 10
102.1202696136106
 20
446.3077559212806
 30
0.0
 10
102.1202696136106
 20
446.3077559212806
 30
0.0
  0
POLYLINE
  5
261
330
1F
100
AcDbEntity
  8
Livello 1
100
AcDb2dPolyline
 66
     1
 10
0.0
 20
0.0
 30
0.0
  0
VERTEX
  5
262
330
261
100
AcDbEntity
  8
Livello 1
100
AcDbVertex
100
AcDb2dVertex
 10
98.4404149202901
 20
445.8255947376719
 30
0.0
  0
VERTEX
  5
263
330
261
100
AcDbEntity
  8
Livello 1
100
AcDbVertex
100
AcDb2dVertex
 10
98.09325881714631
 20
446.2119138554654
 30
0.0
  0
SEQEND
  5
264
330
261
100
AcDbEntity
  8
Livello 1
  0
POLYLINE
  5
265
330
1F
100
AcDbEntity
  8
Livello 1
100
AcDb2dPolyline
 66
     1
 10
0.0
 20
0.0
 30
0.0
  0
VERTEX
  5
266
330
265
100
AcDbEntity
  8
Livello 1
100
AcDbVertex
100
AcDb2dVertex
 10
98.16269003777417
 20
431.4030143397686
 30
0.0
  0
VERTEX
  5
267
330
265
100
AcDbEntity
  8
Livello 1
100
AcDbVertex
100
AcDb2dVertex
 10
101.0907405533417
 20
431.4030143397686
 30
0.0
  0
SEQEND
  5
268
330
265
100
AcDbEntity
  8
Livello 1
  0
POLYLINE
  5
269
330
1F
100
AcDbEntity
  8
Livello 1
100
AcDb2dPolyline
 66
     1
 10
0.0
 20
0.0
 30
0.0
  0
VERTEX
  5
26A
330
269
100
AcDbEntity
  8
Livello 1
100
AcDbVertex
100
AcDb2dVertex
 10
57.37179749959341
 20
445.5949021766463
 30
0.0
  0
VERTEX
  5
26B
330
269
100
AcDbEntity
  8
Livello 1
100
AcDbVertex
100
AcDb2dVertex
 10
60.34234892075256
 20
445.5949021766463
 30
0.0
  0
VERTEX
  5
26C
330
269
100
AcDbEntity
  8
Livello 1
100
AcDbVertex
100
AcDb2dVertex
 10
66.95422143880932
 20
445.5949021766463
 30
0.0
  0
VERTEX
  5
26D
330
269
100
AcDbEntity
  8
Livello 1
100
AcDbVertex
100
AcDb2dVertex
 10
78.26148168707914
 20
445.5949021766463
 30
0.0
  0
SEQEND
  5
26E
330
269
100
AcDbEntity
  8
Livello 1
  0
SPLINE
  5
26F
330
1F
100
AcDbEntity
  8
Livello 1
100
AcDbSpline
210
0.0
220
0.0
230
1.0
 70
     8
 71
     3
 72
    20
 73
    16
 74
     0
 42
0.000000001
 43
0.0000000001
 40
0.0
 40
0.0
 40
0.0
 40
0.0
 40
1.0
 40
1.0
 40
1.0
 40
2.0
 40
2.0
 40
2.0
 40
3.0
 40
3.0
 40
3.0
 40
4.0
 40
4.0
 40
4.0
 40
5.0
 40
5.0
 40
5.0
 40
5.0
 10
78.39344678089672
 20
445.5949021766463
 30
0.0
 10
79.01832776655737
 20
445.1441965392205
 30
0.0
 10
79.50434631095595
 20
444.6934909017818
 30
0.0
 10
79.9209336347285
 20
444.1783987447106
 30
0.0
 10
80.47638339975947
 20
443.5989200680069
 30
0.0
 10
80.89297072353021
 20
442.9550548716833
 30
0.0
 10
81.17069560604704
 20
442.3111896753479
 30
0.0
 10
81.93443903296337
 20
440.8946862434113
 30
0.0
 10
82.28159513610718
 20
439.3494097722087
 30
0.0
 10
82.35102635673412
 20
437.7397467813606
 30
0.0
 10
82.35102635673412
 20
436.2588568297915
 30
0.0
 10
82.07330147421817
 20
434.7135803585888
 30
0.0
 10
81.37898926793059
 20
433.3614634462846
 30
0.0
 10
80.82353950290325
 20
432.1381195732573
 30
0.0
 10
79.9209336347285
 20
431.1079352591141
 30
0.0
 10
78.74060288404052
 20
430.3996835431461
 30
0.0
  0
POLYLINE
  5
270
330
1F
100
AcDbEntity
  8
Livello 1
100
AcDb2dPolyline
 66
     1
 10
0.0
 20
0.0
 30
0.0
  0
VERTEX
  5
271
330
270
100
AcDbEntity
  8
Livello 1
100
AcDbVertex
100
AcDb2dVertex
 10
78.74060288404052
 20
430.3996835431461
 30
0.0
  0
VERTEX
  5
272
330
270
100
AcDbEntity
  8
Livello 1
100
AcDbVertex
100
AcDb2dVertex
 10
67.62499111455871
 20
430.3996835431461
 30
0.0
  0
VERTEX
  5
273
330
270
100
AcDbEntity
  8
Livello 1
100
AcDbVertex
100
AcDb2dVertex
 10
60.62982163893412
 20
430.3996835431461
 30
0.0
  0
VERTEX
  5
274
330
270
100
AcDbEntity
  8
Livello 1
100
AcDbVertex
100
AcDb2dVertex
 10
57.94674293595472
 20
430.3996835431461
 30
0.0
  0
SEQEND
  5
275
330
270
100
AcDbEntity
  8
Livello 1
  0
SPLINE
  5
276
330
1F
100
AcDbEntity
  8
Livello 1
100
AcDbSpline
210
0.0
220
0.0
230
1.0
 70
     8
 71
     3
 72
     8
 73
     4
 74
     0
 42
0.000000001
 43
0.0000000001
 40
0.0
 40
0.0
 40
0.0
 40
0.0
 40
1.0
 40
1.0
 40
1.0
 40
1.0
 10
116.81077153755
 20
429.686829798512
 30
0.0
 10
116.81077153755
 20
429.686829798512
 30
0.0
 10
115.2080547021051
 20
431.8503129543451
 30
0.0
 10
115.2080547021051
 20
438.2262819094885
 30
0.0
  0
SPLINE
  5
277
330
1F
100
AcDbEntity
  8
Livello 1
100
AcDbSpline
210
0.0
220
0.0
230
1.0
 70
     8
 71
     3
 72
     8
 73
     4
 74
     0
 42
0.000000001
 43
0.0000000001
 40
1.0
 40
1.0
 40
1.0
 40
1.0
 40
2.0
 40
2.0
 40
2.0
 40
2.0
 10
115.2080547021051
 20
438.2262819094885
 30
0.0
 10
115.2080547021051
 20
438.2262819094885
 30
0.0
 10
114.9779428129332
 20
444.8105029035668
 30
0.0
 10
117.6566924873723
 20
446.3077559212806
 30
0.0
  0
LINE
  5
278
330
1F
100
AcDbEntity
  8
Livello 1
100
AcDbLine
 10
514.2962962962956
 20
463.6195059305737
 30
0.0
 11
514.2962962962956
 21
413.1729897303339
 31
0.0
  0
LINE
  5
279
330
1F
100
AcDbEntity
  8
Livello 1
100
AcDbLine
 10
49.58103853875218
 20
355.1111111111113
 30
0.0
 11
499.8419190720723
 21
355.1111111111113
 31
0.0
  0
SPLINE
  5
27A
330
1F
100
AcDbEntity
  8
Livello 1
100
AcDbSpline
210
0.0
220
0.0
230
1.0
 70
    11
 71
     3
 72
    50
 73
    46
 74
     0
 42
0.000000001
 43
0.0000000001
 40
0.0
 40
0.0
 40
0.0
 40
0.0
 40
1.0
 40
1.0
 40
1.0
 40
2.0
 40
2.0
 40
2.0
 40
3.0
 40
3.0
 40
3.0
 40
4.0
 40
4.0
 40
4.0
 40
5.0
 40
5.0
 40
5.0
 40
6.0
 40
6.0
 40
6.0
 40
7.0
 40
7.0
 40
7.0
 40
8.0
 40
8.0
 40
8.0
 40
9.0
 40
9.0
 40
9.0
 40
10.0
 40
10.0
 40
10.0
 40
11.0
 40
11.0
 40
11.0
 40
12.0
 40
12.0
 40
12.0
 40
13.0
 40
13.0
 40
13.0
 40
14.0
 40
14.0
 40
14.0
 40
15.0
 40
15.0
 40
15.0
 40
15.0
 10
532.8886718749999
 20
445.212890625
 30
0.0
 10
532.8886718749999
 20
445.212890625
 30
0.0
 10
532.8886718749999
 20
450.419921875
 30
0.0
 10
532.8886718749999
 20
450.419921875
 30
0.0
 10
532.8886718749999
 20
450.419921875
 30
0.0
 10
529.3828125
 20
450.9453125
 30
0.0
 10
529.3828125
 20
450.9453125
 30
0.0
 10
529.4248046875
 20
450.630859375
 30
0.0
 10
529.4667968749999
 20
450.3359375
 30
0.0
 10
529.4667968749999
 20
449.8320312499999
 30
0.0
 10
529.4667968749999
 20
448.7832031249999
 30
0.0
 10
529.236328125
 20
447.7324218749999
 30
0.0
 10
528.732421875
 20
446.892578125
 30
0.0
 10
528.123046875
 20
445.822265625
 30
0.0
 10
526.947265625
 20
444.9404296875
 30
0.0
 10
525.2255859375
 20
444.9404296875
 30
0.0
 10
522.55859375
 20
444.9404296875
 30
0.0
 10
520.5644531249999
 20
447.060546875
 30
0.0
 10
520.5644531249999
 20
450.021484375
 30
0.0
 10
520.5644531249999
 20
451.51171875
 30
0.0
 10
520.984375
 20
452.771484375
 30
0.0
 10
521.404296875
 20
453.4228515625
 30
0.0
 10
521.404296875
 20
453.4228515625
 30
0.0
 10
522.8105468749999
 20
452.9609374999999
 30
0.0
 10
522.8105468749999
 20
452.9609374999999
 30
0.0
 10
522.474609375
 20
452.39453125
 30
0.0
 10
522.0546875
 20
451.2812499999999
 30
0.0
 10
522.0546875
 20
450.04296875
 30
0.0
 10
522.0546875
 20
448.2998046875
 30
0.0
 10
523.189453125
 20
446.8085937499999
 30
0.0
 10
525.0156249999999
 20
446.8085937499999
 30
0.0
 10
526.779296875
 20
446.8300781249999
 30
0.0
 10
528.0390624999999
 20
448.0058593749999
 30
0.0
 10
528.0390624999999
 20
450.7353515624999
 30
0.0
 10
528.0390624999999
 20
451.51171875
 30
0.0
 10
527.955078125
 20
452.12109375
 30
0.0
 10
527.8925781249999
 20
452.625
 30
0.0
 10
527.8925781249999
 20
452.625
 30
0.0
 10
534.4433593749999
 20
451.7431640625
 30
0.0
 10
534.4433593749999
 20
451.7431640625
 30
0.0
 10
534.4433593749999
 20
451.7431640625
 30
0.0
 10
534.4433593749999
 20
445.212890625
 30
0.0
 10
534.4433593749999
 20
445.212890625
 30
0.0
 10
534.4433593749999
 20
445.212890625
 30
0.0
 10
532.8886718749999
 20
445.212890625
 30
0.0
 10
532.8886718749999
 20
445.212890625
 30
0.0
  0
HATCH
  5
27B
330
1F
100
AcDbEntity
  8
Livello 1
100
AcDbHatch
 10
0.0
 20
0.0
 30
0.0
210
0.0
220
0.0
230
1.0
  2
SOLID
 70
     1
 71
     0
 91
        1
 92
        1
 93
        1
 72
     4
 94
        3
 73
     0
 74
     0
 95
       50
 96
       46
 40
0.0
 40
0.0
 40
0.0
 40
0.0
 40
1.0
 40
1.0
 40
1.0
 40
2.0
 40
2.0
 40
2.0
 40
3.0
 40
3.0
 40
3.0
 40
4.0
 40
4.0
 40
4.0
 40
5.0
 40
5.0
 40
5.0
 40
6.0
 40
6.0
 40
6.0
 40
7.0
 40
7.0
 40
7.0
 40
8.0
 40
8.0
 40
8.0
 40
9.0
 40
9.0
 40
9.0
 40
10.0
 40
10.0
 40
10.0
 40
11.0
 40
11.0
 40
11.0
 40
12.0
 40
12.0
 40
12.0
 40
13.0
 40
13.0
 40
13.0
 40
14.0
 40
14.0
 40
14.0
 40
15.0
 40
15.0
 40
15.0
 40
15.0
 10
532.8886718749999
 20
445.212890625
 10
532.8886718749999
 20
445.212890625
 10
532.8886718749999
 20
450.419921875
 10
532.8886718749999
 20
450.419921875
 10
532.8886718749999
 20
450.419921875
 10
529.3828125
 20
450.9453125
 10
529.3828125
 20
450.9453125
 10
529.4248046875
 20
450.630859375
 10
529.4667968749999
 20
450.3359375
 10
529.4667968749999
 20
449.8320312499999
 10
529.4667968749999
 20
448.7832031249999
 10
529.236328125
 20
447.7324218749999
 10
528.732421875
 20
446.892578125
 10
528.123046875
 20
445.822265625
 10
526.947265625
 20
444.9404296875
 10
525.2255859375
 20
444.9404296875
 10
522.55859375
 20
444.9404296875
 10
520.5644531249999
 20
447.060546875
 10
520.5644531249999
 20
450.021484375
 10
520.5644531249999
 20
451.51171875
 10
520.984375
 20
452.771484375
 10
521.404296875
 20
453.4228515625
 10
521.404296875
 20
453.4228515625
 10
522.8105468749999
 20
452.9609374999999
 10
522.8105468749999
 20
452.9609374999999
 10
522.474609375
 20
452.39453125
 10
522.0546875
 20
451.2812499999999
 10
522.0546875
 20
450.04296875
 10
522.0546875
 20
448.2998046875
 10
523.189453125
 20
446.8085937499999
 10
525.0156249999999
 20
446.8085937499999
 10
526.779296875
 20
446.8300781249999
 10
528.0390624999999
 20
448.0058593749999
 10
528.0390624999999
 20
450.7353515624999
 10
528.0390624999999
 20
451.51171875
 10
527.955078125
 20
452.12109375
 10
527.8925781249999
 20
452.625
 10
527.8925781249999
 20
452.625
 10
534.4433593749999
 20
451.7431640625
 10
534.4433593749999
 20
451.7431640625
 10
534.4433593749999
 20
451.7431640625
 10
534.4433593749999
 20
445.212890625
 10
534.4433593749999
 20
445.212890625
 10
534.4433593749999
 20
445.212890625
 10
532.8886718749999
 20
445.212890625
 10
532.8886718749999
 20
445.212890625
 97
        0
 97
        0
 75
     2
 76
     1
 98
        0
450
        0
451
        0
460
0.0
461
0.0
452
        0
462
0.0
453
        0
470

  0
SPLINE
  5
27C
330
1F
100
AcDbEntity
  8
Livello 1
100
AcDbSpline
210
0.0
220
0.0
230
1.0
 70
     9
 71
     3
 72
    41
 73
    37
 74
     0
 42
0.000000001
 43
0.0000000001
 40
0.0
 40
0.0
 40
0.0
 40
0.0
 40
1.0
 40
1.0
 40
1.0
 40
2.0
 40
2.0
 40
2.0
 40
3.0
 40
3.0
 40
3.0
 40
4.0
 40
4.0
 40
4.0
 40
5.0
 40
5.0
 40
5.0
 40
6.0
 40
6.0
 40
6.0
 40
7.0
 40
7.0
 40
7.0
 40
8.0
 40
8.0
 40
8.0
 40
9.0
 40
9.0
 40
9.0
 40
10.0
 40
10.0
 40
10.0
 40
11.0
 40
11.0
 40
11.0
 40
12.0
 40
12.0
 40
12.0
 40
12.0
 10
522.0976562499999
 20
441.5166015625
 30
0.0
 10
522.0546875
 20
441.1171874999999
 30
0.0
 10
522.0976562499999
 20
440.6562499999999
 30
0.0
 10
522.16015625
 20
440.0253906249999
 30
0.0
 10
522.306640625
 20
438.955078125
 30
0.0
 10
522.748046875
 20
437.9472656249999
 30
0.0
 10
523.482421875
 20
437.1699218749999
 30
0.0
 10
524.3017578125
 20
436.267578125
 30
0.0
 10
525.498046875
 20
435.6171875
 30
0.0
 10
527.1152343749999
 20
435.365234375
 30
0.0
 10
527.1152343749999
 20
435.365234375
 30
0.0
 10
527.1152343749999
 20
435.4277343749999
 30
0.0
 10
527.1152343749999
 20
435.4277343749999
 30
0.0
 10
526.1914062499999
 20
436.18359375
 30
0.0
 10
525.6455078124999
 20
437.2753906249999
 30
0.0
 10
525.6455078124999
 20
438.640625
 30
0.0
 10
525.6455078124999
 20
441.0966796874999
 30
0.0
 10
527.4931640624999
 20
442.671875
 30
0.0
 10
529.82421875
 20
442.671875
 30
0.0
 10
532.40625
 20
442.671875
 30
0.0
 10
534.673828125
 20
440.8027343749999
 30
0.0
 10
534.673828125
 20
438.009765625
 30
0.0
 10
534.673828125
 20
435.2177734375
 30
0.0
 10
532.40625
 20
433.49609375
 30
0.0
 10
528.9208984375
 20
433.49609375
 30
0.0
 10
525.91796875
 20
433.49609375
 30
0.0
 10
523.818359375
 20
434.5039062499999
 30
0.0
 10
522.5175781249999
 20
435.8476562499999
 30
0.0
 10
521.4882812499999
 20
436.8974609374999
 30
0.0
 10
520.8583984375
 20
438.3457031249999
 30
0.0
 10
520.6904296874999
 20
439.81640625
 30
0.0
 10
520.5859375
 20
440.48828125
 30
0.0
 10
520.5644531249999
 20
441.0761718749999
 30
0.0
 10
520.5859375
 20
441.5166015625
 30
0.0
 10
520.5859375
 20
441.5166015625
 30
0.0
 10
522.0976562499999
 20
441.5166015625
 30
0.0
 10
522.0976562499999
 20
441.5166015625
 30
0.0
  0
SPLINE
  5
27D
330
1F
100
AcDbEntity
  8
Livello 1
100
AcDbSpline
210
0.0
220
0.0
230
1.0
 70
     9
 71
     3
 72
    20
 73
    16
 74
     0
 42
0.000000001
 43
0.0000000001
 40
0.0
 40
0.0
 40
0.0
 40
0.0
 40
1.0
 40
1.0
 40
1.0
 40
2.0
 40
2.0
 40
2.0
 40
3.0
 40
3.0
 40
3.0
 40
4.0
 40
4.0
 40
4.0
 40
5.0
 40
5.0
 40
5.0
 40
5.0
 10
529.94921875
 20
440.8447265625
 30
0.0
 10
528.2490234375
 20
440.8447265625
 30
0.0
 10
527.052734375
 20
439.81640625
 30
0.0
 10
527.052734375
 20
438.220703125
 30
0.0
 10
527.052734375
 20
436.9814453125
 30
0.0
 10
527.6611328125
 20
436.015625
 30
0.0
 10
528.48046875
 20
435.5332031249999
 30
0.0
 10
528.6484374999999
 20
435.4277343749999
 30
0.0
 10
528.857421875
 20
435.365234375
 30
0.0
 10
529.15234375
 20
435.365234375
 30
0.0
 10
531.482421875
 20
435.365234375
 30
0.0
 10
533.2675781249999
 20
436.2255859374999
 30
0.0
 10
533.2675781249999
 20
438.1572265625
 30
0.0
 10
533.2675781249999
 20
439.7324218749999
 30
0.0
 10
531.880859375
 20
440.8447265625
 30
0.0
 10
529.94921875
 20
440.8447265625
 30
0.0
  0
HATCH
  5
27E
330
1F
100
AcDbEntity
  8
Livello 1
100
AcDbHatch
 10
0.0
 20
0.0
 30
0.0
210
0.0
220
0.0
230
1.0
  2
SOLID
 70
     1
 71
     0
 91
        2
 92
        1
 93
        1
 72
     4
 94
        3
 73
     0
 74
     0
 95
       41
 96
       37
 40
0.0
 40
0.0
 40
0.0
 40
0.0
 40
1.0
 40
1.0
 40
1.0
 40
2.0
 40
2.0
 40
2.0
 40
3.0
 40
3.0
 40
3.0
 40
4.0
 40
4.0
 40
4.0
 40
5.0
 40
5.0
 40
5.0
 40
6.0
 40
6.0
 40
6.0
 40
7.0
 40
7.0
 40
7.0
 40
8.0
 40
8.0
 40
8.0
 40
9.0
 40
9.0
 40
9.0
 40
10.0
 40
10.0
 40
10.0
 40
11.0
 40
11.0
 40
11.0
 40
12.0
 40
12.0
 40
12.0
 40
12.0
 10
522.0976562499999
 20
441.5166015625
 10
522.0546875
 20
441.1171874999999
 10
522.0976562499999
 20
440.6562499999999
 10
522.16015625
 20
440.0253906249999
 10
522.306640625
 20
438.955078125
 10
522.748046875
 20
437.9472656249999
 10
523.482421875
 20
437.1699218749999
 10
524.3017578125
 20
436.267578125
 10
525.498046875
 20
435.6171875
 10
527.1152343749999
 20
435.365234375
 10
527.1152343749999
 20
435.365234375
 10
527.1152343749999
 20
435.4277343749999
 10
527.1152343749999
 20
435.4277343749999
 10
526.1914062499999
 20
436.18359375
 10
525.6455078124999
 20
437.2753906249999
 10
525.6455078124999
 20
438.640625
 10
525.6455078124999
 20
441.0966796874999
 10
527.4931640624999
 20
442.671875
 10
529.82421875
 20
442.671875
 10
532.40625
 20
442.671875
 10
534.673828125
 20
440.8027343749999
 10
534.673828125
 20
438.009765625
 10
534.673828125
 20
435.2177734375
 10
532.40625
 20
433.49609375
 10
528.9208984375
 20
433.49609375
 10
525.91796875
 20
433.49609375
 10
523.818359375
 20
434.5039062499999
 10
522.5175781249999
 20
435.8476562499999
 10
521.4882812499999
 20
436.8974609374999
 10
520.8583984375
 20
438.3457031249999
 10
520.6904296874999
 20
439.81640625
 10
520.5859375
 20
440.48828125
 10
520.5644531249999
 20
441.0761718749999
 10
520.5859375
 20
441.5166015625
 10
520.5859375
 20
441.5166015625
 10
522.0976562499999
 20
441.5166015625
 10
522.0976562499999
 20
441.5166015625
 97
        0
 97
        0
 92
        1
 93
        1
 72
     4
 94
        3
 73
     0
 74
     0
 95
       20
 96
       16
 40
0.0
 40
0.0
 40
0.0
 40
0.0
 40
1.0
 40
1.0
 40
1.0
 40
2.0
 40
2.0
 40
2.0
 40
3.0
 40
3.0
 40
3.0
 40
4.0
 40
4.0
 40
4.0
 40
5.0
 40
5.0
 40
5.0
 40
5.0
 10
529.94921875
 20
440.8447265625
 10
528.2490234375
 20
440.8447265625
 10
527.052734375
 20
439.81640625
 10
527.052734375
 20
438.220703125
 10
527.052734375
 20
436.9814453125
 10
527.6611328125
 20
436.015625
 10
528.48046875
 20
435.5332031249999
 10
528.6484374999999
 20
435.4277343749999
 10
528.857421875
 20
435.365234375
 10
529.15234375
 20
435.365234375
 10
531.482421875
 20
435.365234375
 10
533.2675781249999
 20
436.2255859374999
 10
533.2675781249999
 20
438.1572265625
 10
533.2675781249999
 20
439.7324218749999
 10
531.880859375
 20
440.8447265625
 10
529.94921875
 20
440.8447265625
 97
        0
 97
        0
 75
     2
 76
     1
 98
        0
450
        0
451
        0
460
0.0
461
0.0
452
        0
462
0.0
453
        0
470

  0
SPLINE
  5
27F
330
1F
100
AcDbEntity
  8
Livello 1
100
AcDbSpline
210
0.0
220
0.0
230
1.0
 70
     9
 71
     3
 72
    80
 73
    76
 74
     0
 42
0.000000001
 43
0.0000000001
 40
0.0
 40
0.0
 40
0.0
 40
0.0
 40
1.0
 40
1.0
 40
1.0
 40
2.0
 40
2.0
 40
2.0
 40
3.0
 40
3.0
 40
3.0
 40
4.0
 40
4.0
 40
4.0
 40
5.0
 40
5.0
 40
5.0
 40
6.0
 40
6.0
 40
6.0
 40
7.0
 40
7.0
 40
7.0
 40
8.0
 40
8.0
 40
8.0
 40
9.0
 40
9.0
 40
9.0
 40
10.0
 40
10.0
 40
10.0
 40
11.0
 40
11.0
 40
11.0
 40
12.0
 40
12.0
 40
12.0
 40
13.0
 40
13.0
 40
13.0
 40
14.0
 40
14.0
 40
14.0
 40
15.0
 40
15.0
 40
15.0
 40
16.0
 40
16.0
 40
16.0
 40
17.0
 40
17.0
 40
17.0
 40
18.0
 40
18.0
 40
18.0
 40
19.0
 40
19.0
 40
19.0
 40
20.0
 40
20.0
 40
20.0
 40
21.0
 40
21.0
 40
21.0
 40
22.0
 40
22.0
 40
22.0
 40
23.0
 40
23.0
 40
23.0
 40
24.0
 40
24.0
 40
24.0
 40
25.0
 40
25.0
 40
25.0
 40
25.0
 10
528.20703125
 20
426.775390625
 30
0.0
 10
529.2568359375
 20
426.775390625
 30
0.0
 10
530.1171875
 20
426.7958984375
 30
0.0
 10
530.95703125
 20
426.8593749999999
 30
0.0
 10
530.95703125
 20
426.8593749999999
 30
0.0
 10
530.95703125
 20
425.2421875
 30
0.0
 10
530.95703125
 20
425.2421875
 30
0.0
 10
530.95703125
 20
425.2421875
 30
0.0
 10
529.3203124999999
 20
425.1582031249999
 30
0.0
 10
529.3203124999999
 20
425.1582031249999
 30
0.0
 10
529.3203124999999
 20
425.1582031249999
 30
0.0
 10
529.3203124999999
 20
425.095703125
 30
0.0
 10
529.3203124999999
 20
425.095703125
 30
0.0
 10
530.2851562499999
 20
424.5283203125
 30
0.0
 10
531.1884765624999
 20
423.583984375
 30
0.0
 10
531.1884765624999
 20
421.904296875
 30
0.0
 10
531.1884765624999
 20
420.517578125
 30
0.0
 10
530.3486328125
 20
419.4687499999999
 30
0.0
 10
529.15234375
 20
419.02734375
 30
0.0
 10
529.15234375
 20
419.02734375
 30
0.0
 10
529.15234375
 20
418.9853515624999
 30
0.0
 10
529.15234375
 20
418.9853515624999
 30
0.0
 10
529.7187499999999
 20
418.669921875
 30
0.0
 10
530.16015625
 20
418.271484375
 30
0.0
 10
530.474609375
 20
417.8515625
 30
0.0
 10
530.9365234374999
 20
417.2421875
 30
0.0
 10
531.1884765624999
 20
416.5703125
 30
0.0
 10
531.1884765624999
 20
415.60546875
 30
0.0
 10
531.1884765624999
 20
414.2617187499999
 30
0.0
 10
530.306640625
 20
412.2666015624999
 30
0.0
 10
526.779296875
 20
412.2666015624999
 30
0.0
 10
526.779296875
 20
412.2666015624999
 30
0.0
 10
520.794921875
 20
412.2666015624999
 30
0.0
 10
520.794921875
 20
412.2666015624999
 30
0.0
 10
520.794921875
 20
412.2666015624999
 30
0.0
 10
520.794921875
 20
414.072265625
 30
0.0
 10
520.794921875
 20
414.072265625
 30
0.0
 10
520.794921875
 20
414.072265625
 30
0.0
 10
526.5488281249999
 20
414.072265625
 30
0.0
 10
526.5488281249999
 20
414.072265625
 30
0.0
 10
528.5009765625
 20
414.072265625
 30
0.0
 10
529.6767578125
 20
414.7861328124999
 30
0.0
 10
529.6767578125
 20
416.27734375
 30
0.0
 10
529.6767578125
 20
417.326171875
 30
0.0
 10
528.900390625
 20
418.1455078125
 30
0.0
 10
527.9970703125
 20
418.4609374999999
 30
0.0
 10
527.7451171874999
 20
418.5449218749999
 30
0.0
 10
527.4091796875
 20
418.6074218749999
 30
0.0
 10
527.0732421875
 20
418.6074218749999
 30
0.0
 10
527.0732421875
 20
418.6074218749999
 30
0.0
 10
520.794921875
 20
418.6074218749999
 30
0.0
 10
520.794921875
 20
418.6074218749999
 30
0.0
 10
520.794921875
 20
418.6074218749999
 30
0.0
 10
520.794921875
 20
420.4130859374999
 30
0.0
 10
520.794921875
 20
420.4130859374999
 30
0.0
 10
520.794921875
 20
420.4130859374999
 30
0.0
 10
526.884765625
 20
420.4130859374999
 30
0.0
 10
526.884765625
 20
420.4130859374999
 30
0.0
 10
528.5009765625
 20
420.4130859374999
 30
0.0
 10
529.6767578125
 20
421.126953125
 30
0.0
 10
529.6767578125
 20
422.5332031249999
 30
0.0
 10
529.6767578125
 20
423.6884765624999
 30
0.0
 10
528.7529296875
 20
424.5283203125
 30
0.0
 10
527.8291015625
 20
424.822265625
 30
0.0
 10
527.556640625
 20
424.927734375
 30
0.0
 10
527.2412109374999
 20
424.96875
 30
0.0
 10
526.92578125
 20
424.96875
 30
0.0
 10
526.92578125
 20
424.96875
 30
0.0
 10
520.794921875
 20
424.96875
 30
0.0
 10
520.794921875
 20
424.96875
 30
0.0
 10
520.794921875
 20
424.96875
 30
0.0
 10
520.794921875
 20
426.775390625
 30
0.0
 10
520.794921875
 20
426.775390625
 30
0.0
 10
520.794921875
 20
426.775390625
 30
0.0
 10
528.20703125
 20
426.775390625
 30
0.0
 10
528.20703125
 20
426.775390625
 30
0.0
  0
HATCH
  5
280
330
1F
100
AcDbEntity
  8
Livello 1
100
AcDbHatch
 10
0.0
 20
0.0
 30
0.0
210
0.0
220
0.0
230
1.0
  2
SOLID
 70
     1
 71
     0
 91
        1
 92
        1
 93
        1
 72
     4
 94
        3
 73
     0
 74
     0
 95
       80
 96
       76
 40
0.0
 40
0.0
 40
0.0
 40
0.0
 40
1.0
 40
1.0
 40
1.0
 40
2.0
 40
2.0
 40
2.0
 40
3.0
 40
3.0
 40
3.0
 40
4.0
 40
4.0
 40
4.0
 40
5.0
 40
5.0
 40
5.0
 40
6.0
 40
6.0
 40
6.0
 40
7.0
 40
7.0
 40
7.0
 40
8.0
 40
8.0
 40
8.0
 40
9.0
 40
9.0
 40
9.0
 40
10.0
 40
10.0
 40
10.0
 40
11.0
 40
11.0
 40
11.0
 40
12.0
 40
12.0
 40
12.0
 40
13.0
 40
13.0
 40
13.0
 40
14.0
 40
14.0
 40
14.0
 40
15.0
 40
15.0
 40
15.0
 40
16.0
 40
16.0
 40
16.0
 40
17.0
 40
17.0
 40
17.0
 40
18.0
 40
18.0
 40
18.0
 40
19.0
 40
19.0
 40
19.0
 40
20.0
 40
20.0
 40
20.0
 40
21.0
 40
21.0
 40
21.0
 40
22.0
 40
22.0
 40
22.0
 40
23.0
 40
23.0
 40
23.0
 40
24.0
 40
24.0
 40
24.0
 40
25.0
 40
25.0
 40
25.0
 40
25.0
 10
528.20703125
 20
426.775390625
 10
529.2568359375
 20
426.775390625
 10
530.1171875
 20
426.7958984375
 10
530.95703125
 20
426.8593749999999
 10
530.95703125
 20
426.8593749999999
 10
530.95703125
 20
425.2421875
 10
530.95703125
 20
425.2421875
 10
530.95703125
 20
425.2421875
 10
529.3203124999999
 20
425.1582031249999
 10
529.3203124999999
 20
425.1582031249999
 10
529.3203124999999
 20
425.1582031249999
 10
529.3203124999999
 20
425.095703125
 10
529.3203124999999
 20
425.095703125
 10
530.2851562499999
 20
424.5283203125
 10
531.1884765624999
 20
423.583984375
 10
531.1884765624999
 20
421.904296875
 10
531.1884765624999
 20
420.517578125
 10
530.3486328125
 20
419.4687499999999
 10
529.15234375
 20
419.02734375
 10
529.15234375
 20
419.02734375
 10
529.15234375
 20
418.9853515624999
 10
529.15234375
 20
418.9853515624999
 10
529.7187499999999
 20
418.669921875
 10
530.16015625
 20
418.271484375
 10
530.474609375
 20
417.8515625
 10
530.9365234374999
 20
417.2421875
 10
531.1884765624999
 20
416.5703125
 10
531.1884765624999
 20
415.60546875
 10
531.1884765624999
 20
414.2617187499999
 10
530.306640625
 20
412.2666015624999
 10
526.779296875
 20
412.2666015624999
 10
526.779296875
 20
412.2666015624999
 10
520.794921875
 20
412.2666015624999
 10
520.794921875
 20
412.2666015624999
 10
520.794921875
 20
412.2666015624999
 10
520.794921875
 20
414.072265625
 10
520.794921875
 20
414.072265625
 10
520.794921875
 20
414.072265625
 10
526.5488281249999
 20
414.072265625
 10
526.5488281249999
 20
414.072265625
 10
528.5009765625
 20
414.072265625
 10
529.6767578125
 20
414.7861328124999
 10
529.6767578125
 20
416.27734375
 10
529.6767578125
 20
417.326171875
 10
528.900390625
 20
418.1455078125
 10
527.9970703125
 20
418.4609374999999
 10
527.7451171874999
 20
418.5449218749999
 10
527.4091796875
 20
418.6074218749999
 10
527.0732421875
 20
418.6074218749999
 10
527.0732421875
 20
418.6074218749999
 10
520.794921875
 20
418.6074218749999
 10
520.794921875
 20
418.6074218749999
 10
520.794921875
 20
418.6074218749999
 10
520.794921875
 20
420.4130859374999
 10
520.794921875
 20
420.4130859374999
 10
520.794921875
 20
420.4130859374999
 10
526.884765625
 20
420.4130859374999
 10
526.884765625
 20
420.4130859374999
 10
528.5009765625
 20
420.4130859374999
 10
529.6767578125
 20
421.126953125
 10
529.6767578125
 20
422.5332031249999
 10
529.6767578125
 20
423.6884765624999
 10
528.7529296875
 20
424.5283203125
 10
527.8291015625
 20
424.822265625
 10
527.556640625
 20
424.927734375
 10
527.2412109374999
 20
424.96875
 10
526.92578125
 20
424.96875
 10
526.92578125
 20
424.96875
 10
520.794921875
 20
424.96875
 10
520.794921875
 20
424.96875
 10
520.794921875
 20
424.96875
 10
520.794921875
 20
426.775390625
 10
520.794921875
 20
426.775390625
 10
520.794921875
 20
426.775390625
 10
528.20703125
 20
426.775390625
 10
528.20703125
 20
426.775390625
 97
        0
 97
        0
 75
     2
 76
     1
 98
        0
450
        0
451
        0
460
0.0
461
0.0
452
        0
462
0.0
453
        0
470

  0
SPLINE
  5
281
330
1F
100
AcDbEntity
  8
Livello 1
100
AcDbSpline
210
0.0
220
0.0
230
1.0
 70
     9
 71
     3
 72
    80
 73
    76
 74
     0
 42
0.000000001
 43
0.0000000001
 40
0.0
 40
0.0
 40
0.0
 40
0.0
 40
1.0
 40
1.0
 40
1.0
 40
2.0
 40
2.0
 40
2.0
 40
3.0
 40
3.0
 40
3.0
 40
4.0
 40
4.0
 40
4.0
 40
5.0
 40
5.0
 40
5.0
 40
6.0
 40
6.0
 40
6.0
 40
7.0
 40
7.0
 40
7.0
 40
8.0
 40
8.0
 40
8.0
 40
9.0
 40
9.0
 40
9.0
 40
10.0
 40
10.0
 40
10.0
 40
11.0
 40
11.0
 40
11.0
 40
12.0
 40
12.0
 40
12.0
 40
13.0
 40
13.0
 40
13.0
 40
14.0
 40
14.0
 40
14.0
 40
15.0
 40
15.0
 40
15.0
 40
16.0
 40
16.0
 40
16.0
 40
17.0
 40
17.0
 40
17.0
 40
18.0
 40
18.0
 40
18.0
 40
19.0
 40
19.0
 40
19.0
 40
20.0
 40
20.0
 40
20.0
 40
21.0
 40
21.0
 40
21.0
 40
22.0
 40
22.0
 40
22.0
 40
23.0
 40
23.0
 40
23.0
 40
24.0
 40
24.0
 40
24.0
 40
25.0
 40
25.0
 40
25.0
 40
25.0
 10
528.20703125
 20
409.26171875
 30
0.0
 10
529.2568359375
 20
409.26171875
 30
0.0
 10
530.1171875
 20
409.2822265625
 30
0.0
 10
530.95703125
 20
409.3457031249999
 30
0.0
 10
530.95703125
 20
409.3457031249999
 30
0.0
 10
530.95703125
 20
407.728515625
 30
0.0
 10
530.95703125
 20
407.728515625
 30
0.0
 10
530.95703125
 20
407.728515625
 30
0.0
 10
529.3203124999999
 20
407.6445312499999
 30
0.0
 10
529.3203124999999
 20
407.6445312499999
 30
0.0
 10
529.3203124999999
 20
407.6445312499999
 30
0.0
 10
529.3203124999999
 20
407.58203125
 30
0.0
 10
529.3203124999999
 20
407.58203125
 30
0.0
 10
530.2851562499999
 20
407.0146484374999
 30
0.0
 10
531.1884765624999
 20
406.0703124999999
 30
0.0
 10
531.1884765624999
 20
404.390625
 30
0.0
 10
531.1884765624999
 20
403.00390625
 30
0.0
 10
530.3486328125
 20
401.955078125
 30
0.0
 10
529.15234375
 20
401.513671875
 30
0.0
 10
529.15234375
 20
401.513671875
 30
0.0
 10
529.15234375
 20
401.4716796874999
 30
0.0
 10
529.15234375
 20
401.4716796874999
 30
0.0
 10
529.7187499999999
 20
401.15625
 30
0.0
 10
530.16015625
 20
400.7578125
 30
0.0
 10
530.474609375
 20
400.337890625
 30
0.0
 10
530.9365234374999
 20
399.728515625
 30
0.0
 10
531.1884765624999
 20
399.056640625
 30
0.0
 10
531.1884765624999
 20
398.091796875
 30
0.0
 10
531.1884765624999
 20
396.748046875
 30
0.0
 10
530.306640625
 20
394.7529296875
 30
0.0
 10
526.779296875
 20
394.7529296875
 30
0.0
 10
526.779296875
 20
394.7529296875
 30
0.0
 10
520.794921875
 20
394.7529296875
 30
0.0
 10
520.794921875
 20
394.7529296875
 30
0.0
 10
520.794921875
 20
394.7529296875
 30
0.0
 10
520.794921875
 20
396.55859375
 30
0.0
 10
520.794921875
 20
396.55859375
 30
0.0
 10
520.794921875
 20
396.55859375
 30
0.0
 10
526.5488281249999
 20
396.55859375
 30
0.0
 10
526.5488281249999
 20
396.55859375
 30
0.0
 10
528.5009765625
 20
396.55859375
 30
0.0
 10
529.6767578125
 20
397.2724609375
 30
0.0
 10
529.6767578125
 20
398.763671875
 30
0.0
 10
529.6767578125
 20
399.8125
 30
0.0
 10
528.900390625
 20
400.6318359375
 30
0.0
 10
527.9970703125
 20
400.9472656249999
 30
0.0
 10
527.7451171874999
 20
401.03125
 30
0.0
 10
527.4091796875
 20
401.0937499999999
 30
0.0
 10
527.0732421875
 20
401.0937499999999
 30
0.0
 10
527.0732421875
 20
401.0937499999999
 30
0.0
 10
520.794921875
 20
401.0937499999999
 30
0.0
 10
520.794921875
 20
401.0937499999999
 30
0.0
 10
520.794921875
 20
401.0937499999999
 30
0.0
 10
520.794921875
 20
402.8994140625
 30
0.0
 10
520.794921875
 20
402.8994140625
 30
0.0
 10
520.794921875
 20
402.8994140625
 30
0.0
 10
526.884765625
 20
402.8994140625
 30
0.0
 10
526.884765625
 20
402.8994140625
 30
0.0
 10
528.5009765625
 20
402.8994140625
 30
0.0
 10
529.6767578125
 20
403.61328125
 30
0.0
 10
529.6767578125
 20
405.0195312499999
 30
0.0
 10
529.6767578125
 20
406.1748046875
 30
0.0
 10
528.7529296875
 20
407.0146484374999
 30
0.0
 10
527.8291015625
 20
407.30859375
 30
0.0
 10
527.556640625
 20
407.4140625
 30
0.0
 10
527.2412109374999
 20
407.455078125
 30
0.0
 10
526.92578125
 20
407.455078125
 30
0.0
 10
526.92578125
 20
407.455078125
 30
0.0
 10
520.794921875
 20
407.455078125
 30
0.0
 10
520.794921875
 20
407.455078125
 30
0.0
 10
520.794921875
 20
407.455078125
 30
0.0
 10
520.794921875
 20
409.26171875
 30
0.0
 10
520.794921875
 20
409.26171875
 30
0.0
 10
520.794921875
 20
409.26171875
 30
0.0
 10
528.20703125
 20
409.26171875
 30
0.0
 10
528.20703125
 20
409.26171875
 30
0.0
  0
HATCH
  5
282
330
1F
100
AcDbEntity
  8
Livello 1
100
AcDbHatch
 10
0.0
 20
0.0
 30
0.0
210
0.0
220
0.0
230
1.0
  2
SOLID
 70
     1
 71
     0
 91
        1
 92
        1
 93
        1
 72
     4
 94
        3
 73
     0
 74
     0
 95
       80
 96
       76
 40
0.0
 40
0.0
 40
0.0
 40
0.0
 40
1.0
 40
1.0
 40
1.0
 40
2.0
 40
2.0
 40
2.0
 40
3.0
 40
3.0
 40
3.0
 40
4.0
 40
4.0
 40
4.0
 40
5.0
 40
5.0
 40
5.0
 40
6.0
 40
6.0
 40
6.0
 40
7.0
 40
7.0
 40
7.0
 40
8.0
 40
8.0
 40
8.0
 40
9.0
 40
9.0
 40
9.0
 40
10.0
 40
10.0
 40
10.0
 40
11.0
 40
11.0
 40
11.0
 40
12.0
 40
12.0
 40
12.0
 40
13.0
 40
13.0
 40
13.0
 40
14.0
 40
14.0
 40
14.0
 40
15.0
 40
15.0
 40
15.0
 40
16.0
 40
16.0
 40
16.0
 40
17.0
 40
17.0
 40
17.0
 40
18.0
 40
18.0
 40
18.0
 40
19.0
 40
19.0
 40
19.0
 40
20.0
 40
20.0
 40
20.0
 40
21.0
 40
21.0
 40
21.0
 40
22.0
 40
22.0
 40
22.0
 40
23.0
 40
23.0
 40
23.0
 40
24.0
 40
24.0
 40
24.0
 40
25.0
 40
25.0
 40
25.0
 40
25.0
 10
528.20703125
 20
409.26171875
 10
529.2568359375
 20
409.26171875
 10
530.1171875
 20
409.2822265625
 10
530.95703125
 20
409.3457031249999
 10
530.95703125
 20
409.3457031249999
 10
530.95703125
 20
407.728515625
 10
530.95703125
 20
407.728515625
 10
530.95703125
 20
407.728515625
 10
529.3203124999999
 20
407.6445312499999
 10
529.3203124999999
 20
407.6445312499999
 10
529.3203124999999
 20
407.6445312499999
 10
529.3203124999999
 20
407.58203125
 10
529.3203124999999
 20
407.58203125
 10
530.2851562499999
 20
407.0146484374999
 10
531.1884765624999
 20
406.0703124999999
 10
531.1884765624999
 20
404.390625
 10
531.1884765624999
 20
403.00390625
 10
530.3486328125
 20
401.955078125
 10
529.15234375
 20
401.513671875
 10
529.15234375
 20
401.513671875
 10
529.15234375
 20
401.4716796874999
 10
529.15234375
 20
401.4716796874999
 10
529.7187499999999
 20
401.15625
 10
530.16015625
 20
400.7578125
 10
530.474609375
 20
400.337890625
 10
530.9365234374999
 20
399.728515625
 10
531.1884765624999
 20
399.056640625
 10
531.1884765624999
 20
398.091796875
 10
531.1884765624999
 20
396.748046875
 10
530.306640625
 20
394.7529296875
 10
526.779296875
 20
394.7529296875
 10
526.779296875
 20
394.7529296875
 10
520.794921875
 20
394.7529296875
 10
520.794921875
 20
394.7529296875
 10
520.794921875
 20
394.7529296875
 10
520.794921875
 20
396.55859375
 10
520.794921875
 20
396.55859375
 10
520.794921875
 20
396.55859375
 10
526.5488281249999
 20
396.55859375
 10
526.5488281249999
 20
396.55859375
 10
528.5009765625
 20
396.55859375
 10
529.6767578125
 20
397.2724609375
 10
529.6767578125
 20
398.763671875
 10
529.6767578125
 20
399.8125
 10
528.900390625
 20
400.6318359375
 10
527.9970703125
 20
400.9472656249999
 10
527.7451171874999
 20
401.03125
 10
527.4091796875
 20
401.0937499999999
 10
527.0732421875
 20
401.0937499999999
 10
527.0732421875
 20
401.0937499999999
 10
520.794921875
 20
401.0937499999999
 10
520.794921875
 20
401.0937499999999
 10
520.794921875
 20
401.0937499999999
 10
520.794921875
 20
402.8994140625
 10
520.794921875
 20
402.8994140625
 10
520.794921875
 20
402.8994140625
 10
526.884765625
 20
402.8994140625
 10
526.884765625
 20
402.8994140625
 10
528.5009765625
 20
402.8994140625
 10
529.6767578125
 20
403.61328125
 10
529.6767578125
 20
405.0195312499999
 10
529.6767578125
 20
406.1748046875
 10
528.7529296875
 20
407.0146484374999
 10
527.8291015625
 20
407.30859375
 10
527.556640625
 20
407.4140625
 10
527.2412109374999
 20
407.455078125
 10
526.92578125
 20
407.455078125
 10
526.92578125
 20
407.455078125
 10
520.794921875
 20
407.455078125
 10
520.794921875
 20
407.455078125
 10
520.794921875
 20
407.455078125
 10
520.794921875
 20
409.26171875
 10
520.794921875
 20
409.26171875
 10
520.794921875
 20
409.26171875
 10
528.20703125
 20
409.26171875
 10
528.20703125
 20
409.26171875
 97
        0
 97
        0
 75
     2
 76
     1
 98
        0
450
        0
451
        0
460
0.0
461
0.0
452
        0
462
0.0
453
        0
470

  0
SPLINE
  5
283
330
1F
100
AcDbEntity
  8
Livello 1
100
AcDbSpline
210
0.0
220
0.0
230
1.0
 70
    11
 71
     3
 72
    50
 73
    46
 74
     0
 42
0.000000001
 43
0.0000000001
 40
0.0
 40
0.0
 40
0.0
 40
0.0
 40
1.0
 40
1.0
 40
1.0
 40
2.0
 40
2.0
 40
2.0
 40
3.0
 40
3.0
 40
3.0
 40
4.0
 40
4.0
 40
4.0
 40
5.0
 40
5.0
 40
5.0
 40
6.0
 40
6.0
 40
6.0
 40
7.0
 40
7.0
 40
7.0
 40
8.0
 40
8.0
 40
8.0
 40
9.0
 40
9.0
 40
9.0
 40
10.0
 40
10.0
 40
10.0
 40
11.0
 40
11.0
 40
11.0
 40
12.0
 40
12.0
 40
12.0
 40
13.0
 40
13.0
 40
13.0
 40
14.0
 40
14.0
 40
14.0
 40
15.0
 40
15.0
 40
15.0
 40
15.0
 10
259.26806640625
 20
344.3896484375
 30
0.0
 10
259.26806640625
 20
344.3896484375
 30
0.0
 10
254.06103515625
 20
344.3896484375
 30
0.0
 10
254.06103515625
 20
344.3896484375
 30
0.0
 10
254.06103515625
 20
344.3896484375
 30
0.0
 10
253.53564453125
 20
340.8828125
 30
0.0
 10
253.53564453125
 20
340.8828125
 30
0.0
 10
253.85009765625
 20
340.9248046875
 30
0.0
 10
254.14501953125
 20
340.966796875
 30
0.0
 10
254.64892578125
 20
340.966796875
 30
0.0
 10
255.69775390625
 20
340.966796875
 30
0.0
 10
256.74853515625
 20
340.736328125
 30
0.0
 10
257.58837890625
 20
340.232421875
 30
0.0
 10
258.65869140625
 20
339.623046875
 30
0.0
 10
259.54052734375
 20
338.447265625
 30
0.0
 10
259.54052734375
 20
336.7255859375
 30
0.0
 10
259.54052734375
 20
334.0595703125
 30
0.0
 10
257.42041015625
 20
332.064453125
 30
0.0
 10
254.45947265625
 20
332.064453125
 30
0.0
 10
252.96923828125
 20
332.064453125
 30
0.0
 10
251.70947265625
 20
332.484375
 30
0.0
 10
251.05810546875
 20
332.904296875
 30
0.0
 10
251.05810546875
 20
332.904296875
 30
0.0
 10
251.52001953125
 20
334.3115234375
 30
0.0
 10
251.52001953125
 20
334.3115234375
 30
0.0
 10
252.08642578125
 20
333.9755859375
 30
0.0
 10
253.19970703125
 20
333.5556640625
 30
0.0
 10
254.43798828125
 20
333.5556640625
 30
0.0
 10
256.18115234375
 20
333.5556640625
 30
0.0
 10
257.67236328125
 20
334.689453125
 30
0.0
 10
257.67236328125
 20
336.515625
 30
0.0
 10
257.65087890625
 20
338.279296875
 30
0.0
 10
256.47509765625
 20
339.5390625
 30
0.0
 10
253.74560546875
 20
339.5390625
 30
0.0
 10
252.96923828125
 20
339.5390625
 30
0.0
 10
252.35986328125
 20
339.455078125
 30
0.0
 10
251.85595703125
 20
339.392578125
 30
0.0
 10
251.85595703125
 20
339.392578125
 30
0.0
 10
252.73779296875
 20
345.943359375
 30
0.0
 10
252.73779296875
 20
345.943359375
 30
0.0
 10
252.73779296875
 20
345.943359375
 30
0.0
 10
259.26806640625
 20
345.943359375
 30
0.0
 10
259.26806640625
 20
345.943359375
 30
0.0
 10
259.26806640625
 20
345.943359375
 30
0.0
 10
259.26806640625
 20
344.3896484375
 30
0.0
 10
259.26806640625
 20
344.3896484375
 30
0.0
  0
HATCH
  5
284
330
1F
100
AcDbEntity
  8
Livello 1
100
AcDbHatch
 10
0.0
 20
0.0
 30
0.0
210
0.0
220
0.0
230
1.0
  2
SOLID
 70
     1
 71
     0
 91
        1
 92
        1
 93
        1
 72
     4
 94
        3
 73
     0
 74
     0
 95
       50
 96
       46
 40
0.0
 40
0.0
 40
0.0
 40
0.0
 40
1.0
 40
1.0
 40
1.0
 40
2.0
 40
2.0
 40
2.0
 40
3.0
 40
3.0
 40
3.0
 40
4.0
 40
4.0
 40
4.0
 40
5.0
 40
5.0
 40
5.0
 40
6.0
 40
6.0
 40
6.0
 40
7.0
 40
7.0
 40
7.0
 40
8.0
 40
8.0
 40
8.0
 40
9.0
 40
9.0
 40
9.0
 40
10.0
 40
10.0
 40
10.0
 40
11.0
 40
11.0
 40
11.0
 40
12.0
 40
12.0
 40
12.0
 40
13.0
 40
13.0
 40
13.0
 40
14.0
 40
14.0
 40
14.0
 40
15.0
 40
15.0
 40
15.0
 40
15.0
 10
259.26806640625
 20
344.3896484375
 10
259.26806640625
 20
344.3896484375
 10
254.06103515625
 20
344.3896484375
 10
254.06103515625
 20
344.3896484375
 10
254.06103515625
 20
344.3896484375
 10
253.53564453125
 20
340.8828125
 10
253.53564453125
 20
340.8828125
 10
253.85009765625
 20
340.9248046875
 10
254.14501953125
 20
340.966796875
 10
254.64892578125
 20
340.966796875
 10
255.69775390625
 20
340.966796875
 10
256.74853515625
 20
340.736328125
 10
257.58837890625
 20
340.232421875
 10
258.65869140625
 20
339.623046875
 10
259.54052734375
 20
338.447265625
 10
259.54052734375
 20
336.7255859375
 10
259.54052734375
 20
334.0595703125
 10
257.42041015625
 20
332.064453125
 10
254.45947265625
 20
332.064453125
 10
252.96923828125
 20
332.064453125
 10
251.70947265625
 20
332.484375
 10
251.05810546875
 20
332.904296875
 10
251.05810546875
 20
332.904296875
 10
251.52001953125
 20
334.3115234375
 10
251.52001953125
 20
334.3115234375
 10
252.08642578125
 20
333.9755859375
 10
253.19970703125
 20
333.5556640625
 10
254.43798828125
 20
333.5556640625
 10
256.18115234375
 20
333.5556640625
 10
257.67236328125
 20
334.689453125
 10
257.67236328125
 20
336.515625
 10
257.65087890625
 20
338.279296875
 10
256.47509765625
 20
339.5390625
 10
253.74560546875
 20
339.5390625
 10
252.96923828125
 20
339.5390625
 10
252.35986328125
 20
339.455078125
 10
251.85595703125
 20
339.392578125
 10
251.85595703125
 20
339.392578125
 10
252.73779296875
 20
345.943359375
 10
252.73779296875
 20
345.943359375
 10
252.73779296875
 20
345.943359375
 10
259.26806640625
 20
345.943359375
 10
259.26806640625
 20
345.943359375
 10
259.26806640625
 20
345.943359375
 10
259.26806640625
 20
344.3896484375
 10
259.26806640625
 20
344.3896484375
 97
        0
 97
        0
 75
     2
 76
     1
 98
        0
450
        0
451
        0
460
0.0
461
0.0
452
        0
462
0.0
453
        0
470

  0
SPLINE
  5
285
330
1F
100
AcDbEntity
  8
Livello 1
100
AcDbSpline
210
0.0
220
0.0
230
1.0
 70
     9
 71
     3
 72
    59
 73
    55
 74
     0
 42
0.000000001
 43
0.0000000001
 40
0.0
 40
0.0
 40
0.0
 40
0.0
 40
1.0
 40
1.0
 40
1.0
 40
2.0
 40
2.0
 40
2.0
 40
3.0
 40
3.0
 40
3.0
 40
4.0
 40
4.0
 40
4.0
 40
5.0
 40
5.0
 40
5.0
 40
6.0
 40
6.0
 40
6.0
 40
7.0
 40
7.0
 40
7.0
 40
8.0
 40
8.0
 40
8.0
 40
9.0
 40
9.0
 40
9.0
 40
10.0
 40
10.0
 40
10.0
 40
11.0
 40
11.0
 40
11.0
 40
12.0
 40
12.0
 40
12.0
 40
13.0
 40
13.0
 40
13.0
 40
14.0
 40
14.0
 40
14.0
 40
15.0
 40
15.0
 40
15.0
 40
16.0
 40
16.0
 40
16.0
 40
17.0
 40
17.0
 40
17.0
 40
18.0
 40
18.0
 40
18.0
 40
18.0
 10
262.33447265625
 20
334.416015625
 30
0.0
 10
262.85986328125
 20
334.080078125
 30
0.0
 10
264.07666015625
 20
333.5556640625
 30
0.0
 10
265.35791015625
 20
333.5556640625
 30
0.0
 10
267.73095703125
 20
333.5556640625
 30
0.0
 10
268.46533203125
 20
335.0673828125
 30
0.0
 10
268.44384765625
 20
336.201171875
 30
0.0
 10
268.42333984375
 20
338.111328125
 30
0.0
 10
266.70166015625
 20
338.9306640625
 30
0.0
 10
264.91650390625
 20
338.9306640625
 30
0.0
 10
264.91650390625
 20
338.9306640625
 30
0.0
 10
263.88818359375
 20
338.9306640625
 30
0.0
 10
263.88818359375
 20
338.9306640625
 30
0.0
 10
263.88818359375
 20
338.9306640625
 30
0.0
 10
263.88818359375
 20
340.31640625
 30
0.0
 10
263.88818359375
 20
340.31640625
 30
0.0
 10
263.88818359375
 20
340.31640625
 30
0.0
 10
264.91650390625
 20
340.31640625
 30
0.0
 10
264.91650390625
 20
340.31640625
 30
0.0
 10
266.26025390625
 20
340.31640625
 30
0.0
 10
267.96142578125
 20
341.0087890625
 30
0.0
 10
267.96142578125
 20
342.6259765625
 30
0.0
 10
267.96142578125
 20
343.7177734375
 30
0.0
 10
267.26806640625
 20
344.68359375
 30
0.0
 10
265.56787109375
 20
344.68359375
 30
0.0
 10
264.47607421875
 20
344.68359375
 30
0.0
 10
263.42626953125
 20
344.2001953125
 30
0.0
 10
262.83837890625
 20
343.7802734375
 30
0.0
 10
262.83837890625
 20
343.7802734375
 30
0.0
 10
262.35595703125
 20
345.1240234375
 30
0.0
 10
262.35595703125
 20
345.1240234375
 30
0.0
 10
263.06884765625
 20
345.6494140625
 30
0.0
 10
264.45556640625
 20
346.173828125
 30
0.0
 10
265.92431640625
 20
346.173828125
 30
0.0
 10
268.61181640625
 20
346.173828125
 30
0.0
 10
269.83056640625
 20
344.578125
 30
0.0
 10
269.83056640625
 20
342.919921875
 30
0.0
 10
269.83056640625
 20
341.5126953125
 30
0.0
 10
268.99072265625
 20
340.31640625
 30
0.0
 10
267.31103515625
 20
339.70703125
 30
0.0
 10
267.31103515625
 20
339.70703125
 30
0.0
 10
267.31103515625
 20
339.6650390625
 30
0.0
 10
267.31103515625
 20
339.6650390625
 30
0.0
 10
268.99072265625
 20
339.3291015625
 30
0.0
 10
270.35498046875
 20
338.0693359375
 30
0.0
 10
270.35498046875
 20
336.1591796875
 30
0.0
 10
270.35498046875
 20
333.9755859375
 30
0.0
 10
268.65478515625
 20
332.064453125
 30
0.0
 10
265.37939453125
 20
332.064453125
 30
0.0
 10
263.84619140625
 20
332.064453125
 30
0.0
 10
262.50244140625
 20
332.5478515625
 30
0.0
 10
261.83056640625
 20
332.98828125
 30
0.0
 10
261.83056640625
 20
332.98828125
 30
0.0
 10
262.33447265625
 20
334.416015625
 30
0.0
 10
262.33447265625
 20
334.416015625
 30
0.0
  0
HATCH
  5
286
330
1F
100
AcDbEntity
  8
Livello 1
100
AcDbHatch
 10
0.0
 20
0.0
 30
0.0
210
0.0
220
0.0
230
1.0
  2
SOLID
 70
     1
 71
     0
 91
        1
 92
        1
 93
        1
 72
     4
 94
        3
 73
     0
 74
     0
 95
       59
 96
       55
 40
0.0
 40
0.0
 40
0.0
 40
0.0
 40
1.0
 40
1.0
 40
1.0
 40
2.0
 40
2.0
 40
2.0
 40
3.0
 40
3.0
 40
3.0
 40
4.0
 40
4.0
 40
4.0
 40
5.0
 40
5.0
 40
5.0
 40
6.0
 40
6.0
 40
6.0
 40
7.0
 40
7.0
 40
7.0
 40
8.0
 40
8.0
 40
8.0
 40
9.0
 40
9.0
 40
9.0
 40
10.0
 40
10.0
 40
10.0
 40
11.0
 40
11.0
 40
11.0
 40
12.0
 40
12.0
 40
12.0
 40
13.0
 40
13.0
 40
13.0
 40
14.0
 40
14.0
 40
14.0
 40
15.0
 40
15.0
 40
15.0
 40
16.0
 40
16.0
 40
16.0
 40
17.0
 40
17.0
 40
17.0
 40
18.0
 40
18.0
 40
18.0
 40
18.0
 10
262.33447265625
 20
334.416015625
 10
262.85986328125
 20
334.080078125
 10
264.07666015625
 20
333.5556640625
 10
265.35791015625
 20
333.5556640625
 10
267.73095703125
 20
333.5556640625
 10
268.46533203125
 20
335.0673828125
 10
268.44384765625
 20
336.201171875
 10
268.42333984375
 20
338.111328125
 10
266.70166015625
 20
338.9306640625
 10
264.91650390625
 20
338.9306640625
 10
264.91650390625
 20
338.9306640625
 10
263.88818359375
 20
338.9306640625
 10
263.88818359375
 20
338.9306640625
 10
263.88818359375
 20
338.9306640625
 10
263.88818359375
 20
340.31640625
 10
263.88818359375
 20
340.31640625
 10
263.88818359375
 20
340.31640625
 10
264.91650390625
 20
340.31640625
 10
264.91650390625
 20
340.31640625
 10
266.26025390625
 20
340.31640625
 10
267.96142578125
 20
341.0087890625
 10
267.96142578125
 20
342.6259765625
 10
267.96142578125
 20
343.7177734375
 10
267.26806640625
 20
344.68359375
 10
265.56787109375
 20
344.68359375
 10
264.47607421875
 20
344.68359375
 10
263.42626953125
 20
344.2001953125
 10
262.83837890625
 20
343.7802734375
 10
262.83837890625
 20
343.7802734375
 10
262.35595703125
 20
345.1240234375
 10
262.35595703125
 20
345.1240234375
 10
263.06884765625
 20
345.6494140625
 10
264.45556640625
 20
346.173828125
 10
265.92431640625
 20
346.173828125
 10
268.61181640625
 20
346.173828125
 10
269.83056640625
 20
344.578125
 10
269.83056640625
 20
342.919921875
 10
269.83056640625
 20
341.5126953125
 10
268.99072265625
 20
340.31640625
 10
267.31103515625
 20
339.70703125
 10
267.31103515625
 20
339.70703125
 10
267.31103515625
 20
339.6650390625
 10
267.31103515625
 20
339.6650390625
 10
268.99072265625
 20
339.3291015625
 10
270.35498046875
 20
338.0693359375
 10
270.35498046875
 20
336.1591796875
 10
270.35498046875
 20
333.9755859375
 10
268.65478515625
 20
332.064453125
 10
265.37939453125
 20
332.064453125
 10
263.84619140625
 20
332.064453125
 10
262.50244140625
 20
332.5478515625
 10
261.83056640625
 20
332.98828125
 10
261.83056640625
 20
332.98828125
 10
262.33447265625
 20
334.416015625
 10
262.33447265625
 20
334.416015625
 97
        0
 97
        0
 75
     2
 76
     1
 98
        0
450
        0
451
        0
460
0.0
461
0.0
452
        0
462
0.0
453
        0
470

  0
SPLINE
  5
287
330
1F
100
AcDbEntity
  8
Livello 1
100
AcDbSpline
210
0.0
220
0.0
230
1.0
 70
     9
 71
     3
 72
    17
 73
    13
 74
     0
 42
0.000000001
 43
0.0000000001
 40
0.0
 40
0.0
 40
0.0
 40
0.0
 40
1.0
 40
1.0
 40
1.0
 40
2.0
 40
2.0
 40
2.0
 40
3.0
 40
3.0
 40
3.0
 40
4.0
 40
4.0
 40
4.0
 40
4.0
 10
281.73681640625
 20
339.2666015625
 30
0.0
 10
281.73681640625
 20
334.6259765625
 30
0.0
 10
280.01416015625
 20
332.064453125
 30
0.0
 10
276.99072265625
 20
332.064453125
 30
0.0
 10
274.32470703125
 20
332.064453125
 30
0.0
 10
272.51904296875
 20
334.5634765625
 30
0.0
 10
272.47705078125
 20
339.0771484375
 30
0.0
 10
272.47705078125
 20
343.654296875
 30
0.0
 10
274.45068359375
 20
346.173828125
 30
0.0
 10
277.22216796875
 20
346.173828125
 30
0.0
 10
280.09814453125
 20
346.173828125
 30
0.0
 10
281.73681640625
 20
343.6123046875
 30
0.0
 10
281.73681640625
 20
339.2666015625
 30
0.0
  0
SPLINE
  5
288
330
1F
100
AcDbEntity
  8
Livello 1
100
AcDbSpline
210
0.0
220
0.0
230
1.0
 70
     9
 71
     3
 72
    17
 73
    13
 74
     0
 42
0.000000001
 43
0.0000000001
 40
0.0
 40
0.0
 40
0.0
 40
0.0
 40
1.0
 40
1.0
 40
1.0
 40
2.0
 40
2.0
 40
2.0
 40
3.0
 40
3.0
 40
3.0
 40
4.0
 40
4.0
 40
4.0
 40
4.0
 10
274.32470703125
 20
339.056640625
 30
0.0
 10
274.32470703125
 20
335.5078125
 30
0.0
 10
275.41650390625
 20
333.4921875
 30
0.0
 10
277.09619140625
 20
333.4921875
 30
0.0
 10
278.98583984375
 20
333.4921875
 30
0.0
 10
279.88916015625
 20
335.697265625
 30
0.0
 10
279.88916015625
 20
339.1826171875
 30
0.0
 10
279.88916015625
 20
342.5419921875
 30
0.0
 10
279.02783203125
 20
344.74609375
 30
0.0
 10
277.11767578125
 20
344.74609375
 30
0.0
 10
275.50048828125
 20
344.74609375
 30
0.0
 10
274.32470703125
 20
342.7724609375
 30
0.0
 10
274.32470703125
 20
339.056640625
 30
0.0
  0
HATCH
  5
289
330
1F
100
AcDbEntity
  8
Livello 1
100
AcDbHatch
 10
0.0
 20
0.0
 30
0.0
210
0.0
220
0.0
230
1.0
  2
SOLID
 70
     1
 71
     0
 91
        2
 92
        1
 93
        1
 72
     4
 94
        3
 73
     0
 74
     0
 95
       17
 96
       13
 40
0.0
 40
0.0
 40
0.0
 40
0.0
 40
1.0
 40
1.0
 40
1.0
 40
2.0
 40
2.0
 40
2.0
 40
3.0
 40
3.0
 40
3.0
 40
4.0
 40
4.0
 40
4.0
 40
4.0
 10
281.73681640625
 20
339.2666015625
 10
281.73681640625
 20
334.6259765625
 10
280.01416015625
 20
332.064453125
 10
276.99072265625
 20
332.064453125
 10
274.32470703125
 20
332.064453125
 10
272.51904296875
 20
334.5634765625
 10
272.47705078125
 20
339.0771484375
 10
272.47705078125
 20
343.654296875
 10
274.45068359375
 20
346.173828125
 10
277.22216796875
 20
346.173828125
 10
280.09814453125
 20
346.173828125
 10
281.73681640625
 20
343.6123046875
 10
281.73681640625
 20
339.2666015625
 97
        0
 97
        0
 92
        1
 93
        1
 72
     4
 94
        3
 73
     0
 74
     0
 95
       17
 96
       13
 40
0.0
 40
0.0
 40
0.0
 40
0.0
 40
1.0
 40
1.0
 40
1.0
 40
2.0
 40
2.0
 40
2.0
 40
3.0
 40
3.0
 40
3.0
 40
4.0
 40
4.0
 40
4.0
 40
4.0
 10
274.32470703125
 20
339.056640625
 10
274.32470703125
 20
335.5078125
 10
275.41650390625
 20
333.4921875
 10
277.09619140625
 20
333.4921875
 10
278.98583984375
 20
333.4921875
 10
279.88916015625
 20
335.697265625
 10
279.88916015625
 20
339.1826171875
 10
279.88916015625
 20
342.5419921875
 10
279.02783203125
 20
344.74609375
 10
277.11767578125
 20
344.74609375
 10
275.50048828125
 20
344.74609375
 10
274.32470703125
 20
342.7724609375
 10
274.32470703125
 20
339.056640625
 97
        0
 97
        0
 75
     2
 76
     1
 98
        0
450
        0
451
        0
460
0.0
461
0.0
452
        0
462
0.0
453
        0
470

  0
SPLINE
  5
28A
330
1F
100
AcDbEntity
  8
Livello 1
100
AcDbSpline
210
0.0
220
0.0
230
1.0
 70
     9
 71
     3
 72
    17
 73
    13
 74
     0
 42
0.000000001
 43
0.0000000001
 40
0.0
 40
0.0
 40
0.0
 40
0.0
 40
1.0
 40
1.0
 40
1.0
 40
2.0
 40
2.0
 40
2.0
 40
3.0
 40
3.0
 40
3.0
 40
4.0
 40
4.0
 40
4.0
 40
4.0
 10
292.51025390625
 20
339.2666015625
 30
0.0
 10
292.51025390625
 20
334.6259765625
 30
0.0
 10
290.78759765625
 20
332.064453125
 30
0.0
 10
287.76416015625
 20
332.064453125
 30
0.0
 10
285.09814453125
 20
332.064453125
 30
0.0
 10
283.29248046875
 20
334.5634765625
 30
0.0
 10
283.25048828125
 20
339.0771484375
 30
0.0
 10
283.25048828125
 20
343.654296875
 30
0.0
 10
285.22412109375
 20
346.173828125
 30
0.0
 10
287.99560546875
 20
346.173828125
 30
0.0
 10
290.87158203125
 20
346.173828125
 30
0.0
 10
292.51025390625
 20
343.6123046875
 30
0.0
 10
292.51025390625
 20
339.2666015625
 30
0.0
  0
SPLINE
  5
28B
330
1F
100
AcDbEntity
  8
Livello 1
100
AcDbSpline
210
0.0
220
0.0
230
1.0
 70
     9
 71
     3
 72
    17
 73
    13
 74
     0
 42
0.000000001
 43
0.0000000001
 40
0.0
 40
0.0
 40
0.0
 40
0.0
 40
1.0
 40
1.0
 40
1.0
 40
2.0
 40
2.0
 40
2.0
 40
3.0
 40
3.0
 40
3.0
 40
4.0
 40
4.0
 40
4.0
 40
4.0
 10
285.09814453125
 20
339.056640625
 30
0.0
 10
285.09814453125
 20
335.5078125
 30
0.0
 10
286.18994140625
 20
333.4921875
 30
0.0
 10
287.86962890625
 20
333.4921875
 30
0.0
 10
289.75927734375
 20
333.4921875
 30
0.0
 10
290.66259765625
 20
335.697265625
 30
0.0
 10
290.66259765625
 20
339.1826171875
 30
0.0
 10
290.66259765625
 20
342.5419921875
 30
0.0
 10
289.80126953125
 20
344.74609375
 30
0.0
 10
287.89111328125
 20
344.74609375
 30
0.0
 10
286.27392578125
 20
344.74609375
 30
0.0
 10
285.09814453125
 20
342.7724609375
 30
0.0
 10
285.09814453125
 20
339.056640625
 30
0.0
  0
HATCH
  5
28C
330
1F
100
AcDbEntity
  8
Livello 1
100
AcDbHatch
 10
0.0
 20
0.0
 30
0.0
210
0.0
220
0.0
230
1.0
  2
SOLID
 70
     1
 71
     0
 91
        2
 92
        1
 93
        1
 72
     4
 94
        3
 73
     0
 74
     0
 95
       17
 96
       13
 40
0.0
 40
0.0
 40
0.0
 40
0.0
 40
1.0
 40
1.0
 40
1.0
 40
2.0
 40
2.0
 40
2.0
 40
3.0
 40
3.0
 40
3.0
 40
4.0
 40
4.0
 40
4.0
 40
4.0
 10
292.51025390625
 20
339.2666015625
 10
292.51025390625
 20
334.6259765625
 10
290.78759765625
 20
332.064453125
 10
287.76416015625
 20
332.064453125
 10
285.09814453125
 20
332.064453125
 10
283.29248046875
 20
334.5634765625
 10
283.25048828125
 20
339.0771484375
 10
283.25048828125
 20
343.654296875
 10
285.22412109375
 20
346.173828125
 10
287.99560546875
 20
346.173828125
 10
290.87158203125
 20
346.173828125
 10
292.51025390625
 20
343.6123046875
 10
292.51025390625
 20
339.2666015625
 97
        0
 97
        0
 92
        1
 93
        1
 72
     4
 94
        3
 73
     0
 74
     0
 95
       17
 96
       13
 40
0.0
 40
0.0
 40
0.0
 40
0.0
 40
1.0
 40
1.0
 40
1.0
 40
2.0
 40
2.0
 40
2.0
 40
3.0
 40
3.0
 40
3.0
 40
4.0
 40
4.0
 40
4.0
 40
4.0
 10
285.09814453125
 20
339.056640625
 10
285.09814453125
 20
335.5078125
 10
286.18994140625
 20
333.4921875
 10
287.86962890625
 20
333.4921875
 10
289.75927734375
 20
333.4921875
 10
290.66259765625
 20
335.697265625
 10
290.66259765625
 20
339.1826171875
 10
290.66259765625
 20
342.5419921875
 10
289.80126953125
 20
344.74609375
 10
287.89111328125
 20
344.74609375
 10
286.27392578125
 20
344.74609375
 10
285.09814453125
 20
342.7724609375
 10
285.09814453125
 20
339.056640625
 97
        0
 97
        0
 75
     2
 76
     1
 98
        0
450
        0
451
        0
460
0.0
461
0.0
452
        0
462
0.0
453
        0
470

  0
SPLINE
  5
28D
330
1F
100
AcDbEntity
  8
Livello 1
100
AcDbSpline
210
0.0
220
0.0
230
1.0
 70
     9
 71
     3
 72
    80
 73
    76
 74
     0
 42
0.000000001
 43
0.0000000001
 40
0.0
 40
0.0
 40
0.0
 40
0.0
 40
1.0
 40
1.0
 40
1.0
 40
2.0
 40
2.0
 40
2.0
 40
3.0
 40
3.0
 40
3.0
 40
4.0
 40
4.0
 40
4.0
 40
5.0
 40
5.0
 40
5.0
 40
6.0
 40
6.0
 40
6.0
 40
7.0
 40
7.0
 40
7.0
 40
8.0
 40
8.0
 40
8.0
 40
9.0
 40
9.0
 40
9.0
 40
10.0
 40
10.0
 40
10.0
 40
11.0
 40
11.0
 40
11.0
 40
12.0
 40
12.0
 40
12.0
 40
13.0
 40
13.0
 40
13.0
 40
14.0
 40
14.0
 40
14.0
 40
15.0
 40
15.0
 40
15.0
 40
16.0
 40
16.0
 40
16.0
 40
17.0
 40
17.0
 40
17.0
 40
18.0
 40
18.0
 40
18.0
 40
19.0
 40
19.0
 40
19.0
 40
20.0
 40
20.0
 40
20.0
 40
21.0
 40
21.0
 40
21.0
 40
22.0
 40
22.0
 40
22.0
 40
23.0
 40
23.0
 40
23.0
 40
24.0
 40
24.0
 40
24.0
 40
25.0
 40
25.0
 40
25.0
 40
25.0
 10
299.251953125
 20
339.70703125
 30
0.0
 10
299.251953125
 20
340.7568359375
 30
0.0
 10
299.23046875
 20
341.6181640625
 30
0.0
 10
299.16796875
 20
342.4580078125
 30
0.0
 10
299.16796875
 20
342.4580078125
 30
0.0
 10
300.7841796875
 20
342.4580078125
 30
0.0
 10
300.7841796875
 20
342.4580078125
 30
0.0
 10
300.7841796875
 20
342.4580078125
 30
0.0
 10
300.8681640625
 20
340.8203125
 30
0.0
 10
300.8681640625
 20
340.8203125
 30
0.0
 10
300.8681640625
 20
340.8203125
 30
0.0
 10
300.931640625
 20
340.8203125
 30
0.0
 10
300.931640625
 20
340.8203125
 30
0.0
 10
301.498046875
 20
341.7861328125
 30
0.0
 10
302.443359375
 20
342.6884765625
 30
0.0
 10
304.123046875
 20
342.6884765625
 30
0.0
 10
305.5078125
 20
342.6884765625
 30
0.0
 10
306.55859375
 20
341.8486328125
 30
0.0
 10
306.9990234375
 20
340.65234375
 30
0.0
 10
306.9990234375
 20
340.65234375
 30
0.0
 10
307.041015625
 20
340.65234375
 30
0.0
 10
307.041015625
 20
340.65234375
 30
0.0
 10
307.35546875
 20
341.21875
 30
0.0
 10
307.7548828125
 20
341.66015625
 30
0.0
 10
308.1748046875
 20
341.974609375
 30
0.0
 10
308.783203125
 20
342.4365234375
 30
0.0
 10
309.455078125
 20
342.6884765625
 30
0.0
 10
310.421875
 20
342.6884765625
 30
0.0
 10
311.765625
 20
342.6884765625
 30
0.0
 10
313.759765625
 20
341.806640625
 30
0.0
 10
313.759765625
 20
338.279296875
 30
0.0
 10
313.759765625
 20
338.279296875
 30
0.0
 10
313.759765625
 20
332.2958984375
 30
0.0
 10
313.759765625
 20
332.2958984375
 30
0.0
 10
313.759765625
 20
332.2958984375
 30
0.0
 10
311.9541015625
 20
332.2958984375
 30
0.0
 10
311.9541015625
 20
332.2958984375
 30
0.0
 10
311.9541015625
 20
332.2958984375
 30
0.0
 10
311.9541015625
 20
338.048828125
 30
0.0
 10
311.9541015625
 20
338.048828125
 30
0.0
 10
311.9541015625
 20
340.0009765625
 30
0.0
 10
311.240234375
 20
341.1767578125
 30
0.0
 10
309.75
 20
341.1767578125
 30
0.0
 10
308.69921875
 20
341.1767578125
 30
0.0
 10
307.880859375
 20
340.400390625
 30
0.0
 10
307.56640625
 20
339.4970703125
 30
0.0
 10
307.482421875
 20
339.2451171875
 30
0.0
 10
307.4189453125
 20
338.9091796875
 30
0.0
 10
307.4189453125
 20
338.5732421875
 30
0.0
 10
307.4189453125
 20
338.5732421875
 30
0.0
 10
307.4189453125
 20
332.2958984375
 30
0.0
 10
307.4189453125
 20
332.2958984375
 30
0.0
 10
307.4189453125
 20
332.2958984375
 30
0.0
 10
305.61328125
 20
332.2958984375
 30
0.0
 10
305.61328125
 20
332.2958984375
 30
0.0
 10
305.61328125
 20
332.2958984375
 30
0.0
 10
305.61328125
 20
338.384765625
 30
0.0
 10
305.61328125
 20
338.384765625
 30
0.0
 10
305.61328125
 20
340.0009765625
 30
0.0
 10
304.8994140625
 20
341.1767578125
 30
0.0
 10
303.4921875
 20
341.1767578125
 30
0.0
 10
302.337890625
 20
341.1767578125
 30
0.0
 10
301.498046875
 20
340.2529296875
 30
0.0
 10
301.2041015625
 20
339.3291015625
 30
0.0
 10
301.099609375
 20
339.056640625
 30
0.0
 10
301.056640625
 20
338.7412109375
 30
0.0
 10
301.056640625
 20
338.4267578125
 30
0.0
 10
301.056640625
 20
338.4267578125
 30
0.0
 10
301.056640625
 20
332.2958984375
 30
0.0
 10
301.056640625
 20
332.2958984375
 30
0.0
 10
301.056640625
 20
332.2958984375
 30
0.0
 10
299.251953125
 20
332.2958984375
 30
0.0
 10
299.251953125
 20
332.2958984375
 30
0.0
 10
299.251953125
 20
332.2958984375
 30
0.0
 10
299.251953125
 20
339.70703125
 30
0.0
 10
299.251953125
 20
339.70703125
 30
0.0
  0
HATCH
  5
28E
330
1F
100
AcDbEntity
  8
Livello 1
100
AcDbHatch
 10
0.0
 20
0.0
 30
0.0
210
0.0
220
0.0
230
1.0
  2
SOLID
 70
     1
 71
     0
 91
        1
 92
        1
 93
        1
 72
     4
 94
        3
 73
     0
 74
     0
 95
       80
 96
       76
 40
0.0
 40
0.0
 40
0.0
 40
0.0
 40
1.0
 40
1.0
 40
1.0
 40
2.0
 40
2.0
 40
2.0
 40
3.0
 40
3.0
 40
3.0
 40
4.0
 40
4.0
 40
4.0
 40
5.0
 40
5.0
 40
5.0
 40
6.0
 40
6.0
 40
6.0
 40
7.0
 40
7.0
 40
7.0
 40
8.0
 40
8.0
 40
8.0
 40
9.0
 40
9.0
 40
9.0
 40
10.0
 40
10.0
 40
10.0
 40
11.0
 40
11.0
 40
11.0
 40
12.0
 40
12.0
 40
12.0
 40
13.0
 40
13.0
 40
13.0
 40
14.0
 40
14.0
 40
14.0
 40
15.0
 40
15.0
 40
15.0
 40
16.0
 40
16.0
 40
16.0
 40
17.0
 40
17.0
 40
17.0
 40
18.0
 40
18.0
 40
18.0
 40
19.0
 40
19.0
 40
19.0
 40
20.0
 40
20.0
 40
20.0
 40
21.0
 40
21.0
 40
21.0
 40
22.0
 40
22.0
 40
22.0
 40
23.0
 40
23.0
 40
23.0
 40
24.0
 40
24.0
 40
24.0
 40
25.0
 40
25.0
 40
25.0
 40
25.0
 10
299.251953125
 20
339.70703125
 10
299.251953125
 20
340.7568359375
 10
299.23046875
 20
341.6181640625
 10
299.16796875
 20
342.4580078125
 10
299.16796875
 20
342.4580078125
 10
300.7841796875
 20
342.4580078125
 10
300.7841796875
 20
342.4580078125
 10
300.7841796875
 20
342.4580078125
 10
300.8681640625
 20
340.8203125
 10
300.8681640625
 20
340.8203125
 10
300.8681640625
 20
340.8203125
 10
300.931640625
 20
340.8203125
 10
300.931640625
 20
340.8203125
 10
301.498046875
 20
341.7861328125
 10
302.443359375
 20
342.6884765625
 10
304.123046875
 20
342.6884765625
 10
305.5078125
 20
342.6884765625
 10
306.55859375
 20
341.8486328125
 10
306.9990234375
 20
340.65234375
 10
306.9990234375
 20
340.65234375
 10
307.041015625
 20
340.65234375
 10
307.041015625
 20
340.65234375
 10
307.35546875
 20
341.21875
 10
307.7548828125
 20
341.66015625
 10
308.1748046875
 20
341.974609375
 10
308.783203125
 20
342.4365234375
 10
309.455078125
 20
342.6884765625
 10
310.421875
 20
342.6884765625
 10
311.765625
 20
342.6884765625
 10
313.759765625
 20
341.806640625
 10
313.759765625
 20
338.279296875
 10
313.759765625
 20
338.279296875
 10
313.759765625
 20
332.2958984375
 10
313.759765625
 20
332.2958984375
 10
313.759765625
 20
332.2958984375
 10
311.9541015625
 20
332.2958984375
 10
311.9541015625
 20
332.2958984375
 10
311.9541015625
 20
332.2958984375
 10
311.9541015625
 20
338.048828125
 10
311.9541015625
 20
338.048828125
 10
311.9541015625
 20
340.0009765625
 10
311.240234375
 20
341.1767578125
 10
309.75
 20
341.1767578125
 10
308.69921875
 20
341.1767578125
 10
307.880859375
 20
340.400390625
 10
307.56640625
 20
339.4970703125
 10
307.482421875
 20
339.2451171875
 10
307.4189453125
 20
338.9091796875
 10
307.4189453125
 20
338.5732421875
 10
307.4189453125
 20
338.5732421875
 10
307.4189453125
 20
332.2958984375
 10
307.4189453125
 20
332.2958984375
 10
307.4189453125
 20
332.2958984375
 10
305.61328125
 20
332.2958984375
 10
305.61328125
 20
332.2958984375
 10
305.61328125
 20
332.2958984375
 10
305.61328125
 20
338.384765625
 10
305.61328125
 20
338.384765625
 10
305.61328125
 20
340.0009765625
 10
304.8994140625
 20
341.1767578125
 10
303.4921875
 20
341.1767578125
 10
302.337890625
 20
341.1767578125
 10
301.498046875
 20
340.2529296875
 10
301.2041015625
 20
339.3291015625
 10
301.099609375
 20
339.056640625
 10
301.056640625
 20
338.7412109375
 10
301.056640625
 20
338.4267578125
 10
301.056640625
 20
338.4267578125
 10
301.056640625
 20
332.2958984375
 10
301.056640625
 20
332.2958984375
 10
301.056640625
 20
332.2958984375
 10
299.251953125
 20
332.2958984375
 10
299.251953125
 20
332.2958984375
 10
299.251953125
 20
332.2958984375
 10
299.251953125
 20
339.70703125
 10
299.251953125
 20
339.70703125
 97
        0
 97
        0
 75
     2
 76
     1
 98
        0
450
        0
451
        0
460
0.0
461
0.0
452
        0
462
0.0
453
        0
470

  0
SPLINE
  5
28F
330
1F
100
AcDbEntity
  8
Livello 1
100
AcDbSpline
210
0.0
220
0.0
230
1.0
 70
     9
 71
     3
 72
    80
 73
    76
 74
     0
 42
0.000000001
 43
0.0000000001
 40
0.0
 40
0.0
 40
0.0
 40
0.0
 40
1.0
 40
1.0
 40
1.0
 40
2.0
 40
2.0
 40
2.0
 40
3.0
 40
3.0
 40
3.0
 40
4.0
 40
4.0
 40
4.0
 40
5.0
 40
5.0
 40
5.0
 40
6.0
 40
6.0
 40
6.0
 40
7.0
 40
7.0
 40
7.0
 40
8.0
 40
8.0
 40
8.0
 40
9.0
 40
9.0
 40
9.0
 40
10.0
 40
10.0
 40
10.0
 40
11.0
 40
11.0
 40
11.0
 40
12.0
 40
12.0
 40
12.0
 40
13.0
 40
13.0
 40
13.0
 40
14.0
 40
14.0
 40
14.0
 40
15.0
 40
15.0
 40
15.0
 40
16.0
 40
16.0
 40
16.0
 40
17.0
 40
17.0
 40
17.0
 40
18.0
 40
18.0
 40
18.0
 40
19.0
 40
19.0
 40
19.0
 40
20.0
 40
20.0
 40
20.0
 40
21.0
 40
21.0
 40
21.0
 40
22.0
 40
22.0
 40
22.0
 40
23.0
 40
23.0
 40
23.0
 40
24.0
 40
24.0
 40
24.0
 40
25.0
 40
25.0
 40
25.0
 40
25.0
 10
316.765625
 20
339.70703125
 30
0.0
 10
316.765625
 20
340.7568359375
 30
0.0
 10
316.744140625
 20
341.6181640625
 30
0.0
 10
316.681640625
 20
342.4580078125
 30
0.0
 10
316.681640625
 20
342.4580078125
 30
0.0
 10
318.2978515625
 20
342.4580078125
 30
0.0
 10
318.2978515625
 20
342.4580078125
 30
0.0
 10
318.2978515625
 20
342.4580078125
 30
0.0
 10
318.3818359375
 20
340.8203125
 30
0.0
 10
318.3818359375
 20
340.8203125
 30
0.0
 10
318.3818359375
 20
340.8203125
 30
0.0
 10
318.4453125
 20
340.8203125
 30
0.0
 10
318.4453125
 20
340.8203125
 30
0.0
 10
319.01171875
 20
341.7861328125
 30
0.0
 10
319.95703125
 20
342.6884765625
 30
0.0
 10
321.63671875
 20
342.6884765625
 30
0.0
 10
323.021484375
 20
342.6884765625
 30
0.0
 10
324.072265625
 20
341.8486328125
 30
0.0
 10
324.5126953125
 20
340.65234375
 30
0.0
 10
324.5126953125
 20
340.65234375
 30
0.0
 10
324.5546875
 20
340.65234375
 30
0.0
 10
324.5546875
 20
340.65234375
 30
0.0
 10
324.869140625
 20
341.21875
 30
0.0
 10
325.2685546875
 20
341.66015625
 30
0.0
 10
325.6884765625
 20
341.974609375
 30
0.0
 10
326.296875
 20
342.4365234375
 30
0.0
 10
326.96875
 20
342.6884765625
 30
0.0
 10
327.935546875
 20
342.6884765625
 30
0.0
 10
329.279296875
 20
342.6884765625
 30
0.0
 10
331.2734375
 20
341.806640625
 30
0.0
 10
331.2734375
 20
338.279296875
 30
0.0
 10
331.2734375
 20
338.279296875
 30
0.0
 10
331.2734375
 20
332.2958984375
 30
0.0
 10
331.2734375
 20
332.2958984375
 30
0.0
 10
331.2734375
 20
332.2958984375
 30
0.0
 10
329.4677734375
 20
332.2958984375
 30
0.0
 10
329.4677734375
 20
332.2958984375
 30
0.0
 10
329.4677734375
 20
332.2958984375
 30
0.0
 10
329.4677734375
 20
338.048828125
 30
0.0
 10
329.4677734375
 20
338.048828125
 30
0.0
 10
329.4677734375
 20
340.0009765625
 30
0.0
 10
328.75390625
 20
341.1767578125
 30
0.0
 10
327.263671875
 20
341.1767578125
 30
0.0
 10
326.212890625
 20
341.1767578125
 30
0.0
 10
325.39453125
 20
340.400390625
 30
0.0
 10
325.080078125
 20
339.4970703125
 30
0.0
 10
324.99609375
 20
339.2451171875
 30
0.0
 10
324.9326171875
 20
338.9091796875
 30
0.0
 10
324.9326171875
 20
338.5732421875
 30
0.0
 10
324.9326171875
 20
338.5732421875
 30
0.0
 10
324.9326171875
 20
332.2958984375
 30
0.0
 10
324.9326171875
 20
332.2958984375
 30
0.0
 10
324.9326171875
 20
332.2958984375
 30
0.0
 10
323.126953125
 20
332.2958984375
 30
0.0
 10
323.126953125
 20
332.2958984375
 30
0.0
 10
323.126953125
 20
332.2958984375
 30
0.0
 10
323.126953125
 20
338.384765625
 30
0.0
 10
323.126953125
 20
338.384765625
 30
0.0
 10
323.126953125
 20
340.0009765625
 30
0.0
 10
322.4130859375
 20
341.1767578125
 30
0.0
 10
321.005859375
 20
341.1767578125
 30
0.0
 10
319.8515625
 20
341.1767578125
 30
0.0
 10
319.01171875
 20
340.2529296875
 30
0.0
 10
318.7177734375
 20
339.3291015625
 30
0.0
 10
318.61328125
 20
339.056640625
 30
0.0
 10
318.5703125
 20
338.7412109375
 30
0.0
 10
318.5703125
 20
338.4267578125
 30
0.0
 10
318.5703125
 20
338.4267578125
 30
0.0
 10
318.5703125
 20
332.2958984375
 30
0.0
 10
318.5703125
 20
332.2958984375
 30
0.0
 10
318.5703125
 20
332.2958984375
 30
0.0
 10
316.765625
 20
332.2958984375
 30
0.0
 10
316.765625
 20
332.2958984375
 30
0.0
 10
316.765625
 20
332.2958984375
 30
0.0
 10
316.765625
 20
339.70703125
 30
0.0
 10
316.765625
 20
339.70703125
 30
0.0
  0
HATCH
  5
290
330
1F
100
AcDbEntity
  8
Livello 1
100
AcDbHatch
 10
0.0
 20
0.0
 30
0.0
210
0.0
220
0.0
230
1.0
  2
SOLID
 70
     1
 71
     0
 91
        1
 92
        1
 93
        1
 72
     4
 94
        3
 73
     0
 74
     0
 95
       80
 96
       76
 40
0.0
 40
0.0
 40
0.0
 40
0.0
 40
1.0
 40
1.0
 40
1.0
 40
2.0
 40
2.0
 40
2.0
 40
3.0
 40
3.0
 40
3.0
 40
4.0
 40
4.0
 40
4.0
 40
5.0
 40
5.0
 40
5.0
 40
6.0
 40
6.0
 40
6.0
 40
7.0
 40
7.0
 40
7.0
 40
8.0
 40
8.0
 40
8.0
 40
9.0
 40
9.0
 40
9.0
 40
10.0
 40
10.0
 40
10.0
 40
11.0
 40
11.0
 40
11.0
 40
12.0
 40
12.0
 40
12.0
 40
13.0
 40
13.0
 40
13.0
 40
14.0
 40
14.0
 40
14.0
 40
15.0
 40
15.0
 40
15.0
 40
16.0
 40
16.0
 40
16.0
 40
17.0
 40
17.0
 40
17.0
 40
18.0
 40
18.0
 40
18.0
 40
19.0
 40
19.0
 40
19.0
 40
20.0
 40
20.0
 40
20.0
 40
21.0
 40
21.0
 40
21.0
 40
22.0
 40
22.0
 40
22.0
 40
23.0
 40
23.0
 40
23.0
 40
24.0
 40
24.0
 40
24.0
 40
25.0
 40
25.0
 40
25.0
 40
25.0
 10
316.765625
 20
339.70703125
 10
316.765625
 20
340.7568359375
 10
316.744140625
 20
341.6181640625
 10
316.681640625
 20
342.4580078125
 10
316.681640625
 20
342.4580078125
 10
318.2978515625
 20
342.4580078125
 10
318.2978515625
 20
342.4580078125
 10
318.2978515625
 20
342.4580078125
 10
318.3818359375
 20
340.8203125
 10
318.3818359375
 20
340.8203125
 10
318.3818359375
 20
340.8203125
 10
318.4453125
 20
340.8203125
 10
318.4453125
 20
340.8203125
 10
319.01171875
 20
341.7861328125
 10
319.95703125
 20
342.6884765625
 10
321.63671875
 20
342.6884765625
 10
323.021484375
 20
342.6884765625
 10
324.072265625
 20
341.8486328125
 10
324.5126953125
 20
340.65234375
 10
324.5126953125
 20
340.65234375
 10
324.5546875
 20
340.65234375
 10
324.5546875
 20
340.65234375
 10
324.869140625
 20
341.21875
 10
325.2685546875
 20
341.66015625
 10
325.6884765625
 20
341.974609375
 10
326.296875
 20
342.4365234375
 10
326.96875
 20
342.6884765625
 10
327.935546875
 20
342.6884765625
 10
329.279296875
 20
342.6884765625
 10
331.2734375
 20
341.806640625
 10
331.2734375
 20
338.279296875
 10
331.2734375
 20
338.279296875
 10
331.2734375
 20
332.2958984375
 10
331.2734375
 20
332.2958984375
 10
331.2734375
 20
332.2958984375
 10
329.4677734375
 20
332.2958984375
 10
329.4677734375
 20
332.2958984375
 10
329.4677734375
 20
332.2958984375
 10
329.4677734375
 20
338.048828125
 10
329.4677734375
 20
338.048828125
 10
329.4677734375
 20
340.0009765625
 10
328.75390625
 20
341.1767578125
 10
327.263671875
 20
341.1767578125
 10
326.212890625
 20
341.1767578125
 10
325.39453125
 20
340.400390625
 10
325.080078125
 20
339.4970703125
 10
324.99609375
 20
339.2451171875
 10
324.9326171875
 20
338.9091796875
 10
324.9326171875
 20
338.5732421875
 10
324.9326171875
 20
338.5732421875
 10
324.9326171875
 20
332.2958984375
 10
324.9326171875
 20
332.2958984375
 10
324.9326171875
 20
332.2958984375
 10
323.126953125
 20
332.2958984375
 10
323.126953125
 20
332.2958984375
 10
323.126953125
 20
332.2958984375
 10
323.126953125
 20
338.384765625
 10
323.126953125
 20
338.384765625
 10
323.126953125
 20
340.0009765625
 10
322.4130859375
 20
341.1767578125
 10
321.005859375
 20
341.1767578125
 10
319.8515625
 20
341.1767578125
 10
319.01171875
 20
340.2529296875
 10
318.7177734375
 20
339.3291015625
 10
318.61328125
 20
339.056640625
 10
318.5703125
 20
338.7412109375
 10
318.5703125
 20
338.4267578125
 10
318.5703125
 20
338.4267578125
 10
318.5703125
 20
332.2958984375
 10
318.5703125
 20
332.2958984375
 10
318.5703125
 20
332.2958984375
 10
316.765625
 20
332.2958984375
 10
316.765625
 20
332.2958984375
 10
316.765625
 20
332.2958984375
 10
316.765625
 20
339.70703125
 10
316.765625
 20
339.70703125
 97
        0
 97
        0
 75
     2
 76
     1
 98
        0
450
        0
451
        0
460
0.0
461
0.0
452
        0
462
0.0
453
        0
470

  0
ENDSEC
  0
SECTION
  2
OBJECTS
  0
DICTIONARY
  5
C
330
0
100
AcDbDictionary
281
     1
  3
ACAD_CIP_PREVIOUS_PRODUCT_INFO
350
1D9
  3
ACAD_COLOR
350
1BA
  3
ACAD_DETAILVIEWSTYLE
350
1D5
  3
ACAD_GROUP
350
D
  3
ACAD_LAYOUT
350
1A
  3
ACAD_MATERIAL
350
3B
  3
ACAD_MLEADERSTYLE
350
1AD
  3
ACAD_MLINESTYLE
350
17
  3
ACAD_PLOTSETTINGS
350
19
  3
ACAD_PLOTSTYLENAME
350
E
  3
ACAD_SCALELIST
350
1BC
  3
ACAD_SECTIONVIEWSTYLE
350
1D3
  3
ACAD_TABLESTYLE
350
1AC
  3
ACAD_VISUALSTYLE
350
2A
  3
ACDB_RECOMPOSE_DATA
350
29A
  3
AcDbVariableDictionary
350
291
  0
SUN
  5
3F
330
29
100
AcDbSun
 90
        1
290
     1
 63
     7
421
 16777215
 40
1.0
291
     1
 91
  2455826
 92
 54000000
292
     0
 70
     0
 71
   256
280
     1
1001
ACAD
1000
AcDbSavedByObjectVersion
1070
     0
  0
DICTIONARY
  5
1DA
330
1F
100
AcDbDictionary
280
     1
281
     1
  3
ACAD_SORTENTS
360
1DB
  0
XRECORD
  5
1D9
102
{ACAD_REACTORS
330
C
102
}
330
C
100
AcDbXrecord
280
     1
300
ACD
300
2019
300
ACD_F_S
  0
DICTIONARY
  5
1BA
102
{ACAD_REACTORS
330
C
102
}
330
C
100
AcDbDictionary
281
     1
  0
DICTIONARY
  5
1D5
102
{ACAD_REACTORS
330
C
102
}
330
C
100
AcDbDictionary
281
     1
  3
Imperial24
350
1D6
  0
DICTIONARY
  5
D
102
{ACAD_REACTORS
330
C
102
}
330
C
100
AcDbDictionary
281
     1
  0
DICTIONARY
  5
1A
102
{ACAD_REACTORS
330
C
102
}
330
C
100
AcDbDictionary
281
     1
  3
Layout1
350
1E
  3
Layout2
350
26
  3
Model
350
22
  0
DICTIONARY
  5
3B
102
{ACAD_REACTORS
330
C
102
}
330
C
100
AcDbDictionary
281
     1
  3
ByBlock
350
3D
  3
ByLayer
350
3C
  3
Global
350
3E
  0
DICTIONARY
  5
1AD
102
{ACAD_REACTORS
330
C
102
}
330
C
100
AcDbDictionary
281
     1
  3
Standard
350
1D2
  0
DICTIONARY
  5
17
102
{ACAD_REACTORS
330
C
102
}
330
C
100
AcDbDictionary
281
     1
  3
Standard
350
18
  0
DICTIONARY
  5
19
102
{ACAD_REACTORS
330
C
102
}
330
C
100
AcDbDictionary
281
     1
  0
ACDBDICTIONARYWDFLT
  5
E
102
{ACAD_REACTORS
330
C
102
}
330
C
100
AcDbDictionary
281
     1
  3
Normal
350
F
100
AcDbDictionaryWithDefault
340
F
  0
DICTIONARY
  5
1BC
102
{ACAD_REACTORS
330
C
102
}
330
C
100
AcDbDictionary
281
     1
  3
A0
350
1BD
  3
A1
350
1BE
  3
A2
350
1BF
  3
A3
350
1C0
  3
A4
350
1C1
  3
A5
350
1C2
  3
A6
350
1C3
  3
A7
350
1C4
  3
A8
350
1C5
  3
A9
350
1C6
  3
B0
350
1C7
  3
B1
350
1C8
  3
B2
350
1C9
  3
B3
350
1CA
  3
B4
350
1CB
  3
B5
350
1CC
  3
B6
350
1CD
  3
B7
350
1CE
  3
B8
350
1CF
  3
B9
350
1D0
  3
C0
350
1D1
  0
DICTIONARY
  5
1D3
102
{ACAD_REACTORS
330
C
102
}
330
C
100
AcDbDictionary
281
     1
  3
Imperial24
350
1D4
  0
DICTIONARY
  5
1AC
102
{ACAD_REACTORS
330
C
102
}
330
C
100
AcDbDictionary
281
     1
  3
Standard
350
1BB
  0
DICTIONARY
  5
2A
102
{ACAD_REACTORS
330
C
102
}
330
C
100
AcDbDictionary
281
     1
  3
2dWireframe
350
2F
  3
3D Hidden
350
31
  3
3dWireframe
350
30
  3
Basic
350
32
  3
Brighten
350
36
  3
ColorChange
350
3A
  3
Conceptual
350
34
  3
Dim
350
35
  3
EdgeColorOff
350
1B9
  3
Facepattern
350
39
  3
Flat
350
2B
  3
FlatWithEdges
350
2C
  3
Gouraud
350
2D
  3
GouraudWithEdges
350
2E
  3
Hidden
350
1B1
  3
JitterOff
350
1B7
  3
Linepattern
350
38
  3
OverhangOff
350
1B8
  3
Realistic
350
33
  3
Shaded
350
1B6
  3
Shaded with edges
350
1B5
  3
Shades of Gray
350
1B2
  3
Sketchy
350
1B3
  3
Thicken
350
37
  3
Wireframe
350
1B0
  3
X-Ray
350
1B4
  0
XRECORD
  5
29A
102
{ACAD_REACTORS
330
C
102
}
330
C
100
AcDbXrecord
280
     1
 90
        1
330
1BB
  0
DICTIONARY
  5
291
102
{ACAD_REACTORS
330
C
102
}
330
C
100
AcDbDictionary
281
     1
  3
CANNOSCALE
350
296
  3
CMLEADERSTYLE
350
293
  3
CTABLESTYLE
350
292
  3
CVIEWDETAILSTYLE
350
294
  3
CVIEWSECTIONSTYLE
350
295
  0
SORTENTSTABLE
  5
1DB
102
{ACAD_REACTORS
330
1DA
102
}
330
1DA
100
AcDbSortentsTable
330
1F
  0
ACDBDETAILVIEWSTYLE
  5
1D6
102
{ACAD_XDICTIONARY
360
29D
102
}
102
{ACAD_REACTORS
330
1D5
102
}
330
1D5
100
AcDbModelDocViewStyle
 70
     0
  3
Imperial24
290
     0
100
AcDbDetailViewStyle
 70
     0
 71
     0
 90
        3
 71
     1
340
11
 62
   256
 40
0.24
340
0
 62
   256
 40
0.24
300

 40
0.36
280
     3
 71
     2
340
16
 90
       25
 62
   256
 71
     3
340
11
 62
   256
 40
0.24
 90
        1
 40
0.75
 90
        1
300
%<\AcVar ViewType \f "%tc1">% %<\AcVar ViewDetailId>%\PSCALA %<\AcVar ViewScale \f "%sn">%
 71
     4
340
16
 90
       25
 62
   256
340
16
 90
       25
 62
   256
280
     0
  0
LAYOUT
  5
1E
102
{ACAD_REACTORS
330
1A
102
}
330
1A
100
AcDbPlotSettings
  1

  2
none_device
  4

  6

 40
0.0
 41
0.0
 42
0.0
 43
0.0
 44
0.0
 45
0.0
 46
0.0
 47
0.0
 48
0.0
 49
0.0
140
0.0
141
0.0
142
1.0
143
1.0
 70
   688
 72
     0
 73
     0
 74
     5
  7

 75
    16
147
1.0
 76
     0
 77
     2
 78
   300
148
0.0
149
0.0
100
AcDbLayout
  1
Layout1
 70
     1
 71
     1
 10
0.0
 20
0.0
 11
12.0
 21
9.0
 12
0.0
 22
0.0
 32
0.0
 14
1.000000000000000E+20
 24
1.000000000000000E+20
 34
1.000000000000000E+20
 15
-1.000000000000000E+20
 25
-1.000000000000000E+20
 35
-1.000000000000000E+20
146
0.0
 13
0.0
 23
0.0
 33
0.0
 16
1.0
 26
0.0
 36
0.0
 17
0.0
 27
1.0
 37
0.0
 76
     0
330
1B
  0
LAYOUT
  5
26
102
{ACAD_REACTORS
330
1A
102
}
330
1A
100
AcDbPlotSettings
  1

  2
none_device
  4

  6

 40
0.0
 41
0.0
 42
0.0
 43
0.0
 44
0.0
 45
0.0
 46
0.0
 47
0.0
 48
0.0
 49
0.0
140
0.0
141
0.0
142
1.0
143
1.0
 70
   688
 72
     0
 73
     0
 74
     5
  7

 75
    16
147
1.0
 76
     0
 77
     2
 78
   300
148
0.0
149
0.0
100
AcDbLayout
  1
Layout2
 70
     1
 71
     2
 10
0.0
 20
0.0
 11
0.0
 21
0.0
 12
0.0
 22
0.0
 32
0.0
 14
0.0
 24
0.0
 34
0.0
 15
0.0
 25
0.0
 35
0.0
146
0.0
 13
0.0
 23
0.0
 33
0.0
 16
1.0
 26
0.0
 36
0.0
 17
0.0
 27
1.0
 37
0.0
 76
     0
330
23
  0
LAYOUT
  5
22
102
{ACAD_REACTORS
330
1A
102
}
330
1A
100
AcDbPlotSettings
  1

  2
none_device
  4

  6

 40
0.0
 41
0.0
 42
0.0
 43
0.0
 44
0.0
 45
0.0
 46
0.0
 47
0.0
 48
0.0
 49
0.0
140
0.0
141
0.0
142
1.0
143
1.0
 70
  1712
 72
     0
 73
     0
 74
     0
  7

 75
     0
147
1.0
 76
     0
 77
     2
 78
   300
148
0.0
149
0.0
100
AcDbLayout
  1
Model
 70
     1
 71
     0
 10
0.0
 20
0.0
 11
12.0
 21
9.0
 12
0.0
 22
0.0
 32
0.0
 14
1.000000000000000E+20
 24
1.000000000000000E+20
 34
1.000000000000000E+20
 15
-1.000000000000000E+20
 25
-1.000000000000000E+20
 35
-1.000000000000000E+20
146
0.0
 13
0.0
 23
0.0
 33
0.0
 16
1.0
 26
0.0
 36
0.0
 17
0.0
 27
1.0
 37
0.0
 76
     0
330
1F
331
29
  0
MATERIAL
  5
3D
102
{ACAD_REACTORS
330
3B
102
}
330
3B
100
AcDbMaterial
  1
ByBlock
  0
MATERIAL
  5
3C
102
{ACAD_REACTORS
330
3B
102
}
330
3B
100
AcDbMaterial
  1
ByLayer
  0
MATERIAL
  5
3E
102
{ACAD_REACTORS
330
3B
102
}
330
3B
100
AcDbMaterial
  1
Global
  0
MLEADERSTYLE
  5
1D2
102
{ACAD_REACTORS
330
1AD
102
}
330
1AD
100
AcDbMLeaderStyle
179
     2
170
     2
171
     1
172
     0
 90
        2
 40
0.0
 41
0.0
173
     1
 91
-1056964608
340
14
 92
       -2
290
     1
 42
0.09
291
     1
 43
0.36
  3
Standard
 44
0.18
300

342
11
174
     1
178
     6
175
     1
176
     0
 93
-1056964608
 45
0.18
292
     0
297
     0
 46
0.18
 94
-1056964608
 47
1.0
 49
1.0
140
1.0
293
     1
141
0.0
294
     1
177
     0
142
1.0
295
     0
296
     0
143
0.125
271
     0
272
     9
273
     9
298
     0
  0
MLINESTYLE
  5
18
102
{ACAD_REACTORS
330
17
102
}
330
17
100
AcDbMlineStyle
  2
STANDARD
 70
     0
  3

 62
   256
 51
90.0
 52
90.0
 71
     2
 49
0.5
 62
   256
  6
BYLAYER
 49
-0.5
 62
   256
  6
BYLAYER
  0
ACDBPLACEHOLDER
  5
F
102
{ACAD_REACTORS
330
E
102
}
330
E
  0
SCALE
  5
1BD
102
{ACAD_REACTORS
330
1BC
102
}
330
1BC
100
AcDbScale
 70
     0
300
1:1
140
1.0
141
1.0
290
     1
  0
SCALE
  5
1BE
102
{ACAD_REACTORS
330
1BC
102
}
330
1BC
100
AcDbScale
 70
     0
300
1.10
140
1.0
141
10.0
290
     0
  0
SCALE
  5
1BF
102
{ACAD_REACTORS
330
1BC
102
}
330
1BC
100
AcDbScale
 70
     0
300
1.50
140
1.0
141
50.0
290
     0
  0
SCALE
  5
1C0
102
{ACAD_REACTORS
330
1BC
102
}
330
1BC
100
AcDbScale
 70
     0
300
1:100
140
1.0
141
100.0
290
     0
  0
SCALE
  5
1C1
102
{ACAD_REACTORS
330
1BC
102
}
330
1BC
100
AcDbScale
 70
     0
300
1.200
140
1.0
141
200.0
290
     0
  0
SCALE
  5
1C2
102
{ACAD_REACTORS
330
1BC
102
}
330
1BC
100
AcDbScale
 70
     0
300
1/128" = 1'-0"
140
0.0078125
141
12.0
290
     0
  0
SCALE
  5
1C3
102
{ACAD_REACTORS
330
1BC
102
}
330
1BC
100
AcDbScale
 70
     0
300
1/64" = 1'-0"
140
0.015625
141
12.0
290
     0
  0
SCALE
  5
1C4
102
{ACAD_REACTORS
330
1BC
102
}
330
1BC
100
AcDbScale
 70
     0
300
1/32" = 1'-0"
140
0.03125
141
12.0
290
     0
  0
SCALE
  5
1C5
102
{ACAD_REACTORS
330
1BC
102
}
330
1BC
100
AcDbScale
 70
     0
300
1/16" = 1'-0"
140
0.0625
141
12.0
290
     0
  0
SCALE
  5
1C6
102
{ACAD_REACTORS
330
1BC
102
}
330
1BC
100
AcDbScale
 70
     0
300
3/32" = 1'-0"
140
0.09375
141
12.0
290
     0
  0
SCALE
  5
1C7
102
{ACAD_REACTORS
330
1BC
102
}
330
1BC
100
AcDbScale
 70
     0
300
1/8" = 1'-0"
140
0.125
141
12.0
290
     0
  0
SCALE
  5
1C8
102
{ACAD_REACTORS
330
1BC
102
}
330
1BC
100
AcDbScale
 70
     0
300
3/16" = 1'-0"
140
0.1875
141
12.0
290
     0
  0
SCALE
  5
1C9
102
{ACAD_REACTORS
330
1BC
102
}
330
1BC
100
AcDbScale
 70
     0
300
1/4" = 1'-0"
140
0.25
141
12.0
290
     0
  0
SCALE
  5
1CA
102
{ACAD_REACTORS
330
1BC
102
}
330
1BC
100
AcDbScale
 70
     0
300
3/8" = 1'-0"
140
0.375
141
12.0
290
     0
  0
SCALE
  5
1CB
102
{ACAD_REACTORS
330
1BC
102
}
330
1BC
100
AcDbScale
 70
     0
300
1/2" = 1'-0"
140
0.5
141
12.0
290
     0
  0
SCALE
  5
1CC
102
{ACAD_REACTORS
330
1BC
102
}
330
1BC
100
AcDbScale
 70
     0
300
3/4" = 1'-0"
140
0.75
141
12.0
290
     0
  0
SCALE
  5
1CD
102
{ACAD_REACTORS
330
1BC
102
}
330
1BC
100
AcDbScale
 70
     0
300
1" = 1'-0"
140
1.0
141
12.0
290
     0
  0
SCALE
  5
1CE
102
{ACAD_REACTORS
330
1BC
102
}
330
1BC
100
AcDbScale
 70
     0
300
1-1/2" = 1'-0"
140
1.5
141
12.0
290
     0
  0
SCALE
  5
1CF
102
{ACAD_REACTORS
330
1BC
102
}
330
1BC
100
AcDbScale
 70
     0
300
3" = 1'-0"
140
3.0
141
12.0
290
     0
  0
SCALE
  5
1D0
102
{ACAD_REACTORS
330
1BC
102
}
330
1BC
100
AcDbScale
 70
     0
300
6" = 1'-0"
140
6.0
141
12.0
290
     0
  0
SCALE
  5
1D1
102
{ACAD_REACTORS
330
1BC
102
}
330
1BC
100
AcDbScale
 70
     0
300
1'-0" = 1'-0"
140
12.0
141
12.0
290
     0
  0
ACDBSECTIONVIEWSTYLE
  5
1D4
102
{ACAD_XDICTIONARY
360
29B
102
}
102
{ACAD_REACTORS
330
1D3
102
}
330
1D3
100
AcDbModelDocViewStyle
 70
     0
  3
Imperial24
290
     0
100
AcDbSectionViewStyle
 70
     0
 71
     0
 90
       78
 71
     1
340
11
 62
   256
 40
0.24
340
0
340
0
 62
   256
 40
0.24
300
I, O, Q, S, X, Z
 40
0.48
 90
        3
 40
0.18
 90
        1
 71
     2
340
16
 90
       25
 62
   256
340
16
 90
       50
 62
   256
 40
0.24
 40
0.0
 40
0.24
 71
     3
340
11
 62
   256
 40
0.24
 90
        1
 40
0.75
 90
        1
300
%<\AcVar ViewType \f "%tc1">% %<\AcVar ViewSectionStartId>%-%<\AcVar ViewSectionEndId>%\PSCALA %<\AcVar ViewScale \f "%sn">%
 71
     4
 62
   256
 62
   257
300
ANSI31
 40
1.0
 90
        0
290
     0
290
     0
 90
        6
 40
0.0
 40
1.570796326794896
 40
0.2617993877991494
 40
1.308996938995747
 40
-0.2617993877991494
 40
1.832595714594046
  0
TABLESTYLE
  5
1BB
102
{ACAD_XDICTIONARY
360
298
102
}
102
{ACAD_REACTORS
330
1AC
102
}
330
1AC
100
AcDbTableStyle
280
     0
  3
Standard
 70
     0
 71
     0
 40
0.06
 41
0.06
280
     0
281
     0
  7
Standard
140
0.18
170
     2
 62
     0
 63
     7
283
     0
 90
      512
 91
        0
  1

274
    -2
284
     1
 64
     0
275
    -2
285
     1
 65
     0
276
    -2
286
     1
 66
     0
277
    -2
287
     1
 67
     0
278
    -2
288
     1
 68
     0
279
    -2
289
     1
 69
     0
  7
Standard
140
0.25
170
     5
 62
     0
 63
     7
283
     0
 90
      512
 91
        0
  1

274
    -2
284
     1
 64
     0
275
    -2
285
     1
 65
     0
276
    -2
286
     1
 66
     0
277
    -2
287
     1
 67
     0
278
    -2
288
     1
 68
     0
279
    -2
289
     1
 69
     0
  7
Standard
140
0.18
170
     5
 62
     0
 63
     7
283
     0
 90
      512
 91
        0
  1

274
    -2
284
     1
 64
     0
275
    -2
285
     1
 65
     0
276
    -2
286
     1
 66
     0
277
    -2
287
     1
 67
     0
278
    -2
288
     1
 68
     0
279
    -2
289
     1
 69
     0
  0
VISUALSTYLE
  5
2F
102
{ACAD_REACTORS
330
2A
102
}
330
2A
100
AcDbVisualStyle
  2
2dWireframe
 70
     4
177
     3
291
     0
 70
    58
 90
        0
176
     1
 90
        2
176
     1
 90
        0
176
     1
 90
        0
176
     1
 40
0.6
176
     1
 40
30.0
176
     1
 62
     7
420
 16777215
176
     1
 90
        1
176
     1
 90
        4
176
     1
 62
     7
176
     1
 62
   257
176
     1
 90
        1
176
     1
 90
        1
176
     1
 40
1.0
176
     1
 90
        0
176
     1
 62
   257
176
     1
 40
1.0
176
     1
 90
        1
176
     1
 90
        6
176
     1
 90
        2
176
     1
 62
     7
176
     1
 90
        5
176
     1
 90
        0
176
     1
 90
        0
176
     1
290
     0
176
     1
 90
        1
176
     1
 40
0.0
176
     1
 90
        0
176
     1
290
     1
176
     1
290
     1
176
     1
290
     0
176
     1
290
     0
176
     1
290
     0
176
     1
290
     0
176
     1
290
     0
176
     1
290
     0
176
     1
290
     0
176
     1
 90
       50
176
     1
 40
0.0
176
     1
 40
1.0
176
     1
 90
        0
176
     1
 62
    18
420
        0
176
     1
 90
       50
176
     1
 90
        3
176
     1
 62
     5
420
      255
176
     1
290
     0
176
     1
 90
       50
176
     1
 90
       50
176
     1
 90
       50
176
     1
290
     0
176
     1
 90
       50
176
     1
 62
   256
176
     0
 40
1.0
176
     0
 90
        2
176
     1
  1
strokes_ogs.tif
176
     1
290
     0
176
     1
 40
1.0
176
     1
 40
1.0
176
     1
1001
ACAD
1000
AcDbSavedByObjectVersion
1070
     0
  0
VISUALSTYLE
  5
31
102
{ACAD_REACTORS
330
2A
102
}
330
2A
100
AcDbVisualStyle
  2
3D Hidden
 70
     6
177
     3
291
     0
 70
    58
 90
        1
176
     1
 90
        2
176
     1
 90
        2
176
     1
 90
        0
176
     1
 40
0.6
176
     1
 40
30.0
176
     1
 62
     7
420
 16777215
176
     1
 90
        2
176
     1
 90
        2
176
     1
 62
     7
176
     1
 62
   257
176
     1
 90
        2
176
     1
 90
        1
176
     1
 40
40.0
176
     1
 90
        0
176
     1
 62
   257
176
     1
 40
1.0
176
     1
 90
        1
176
     1
 90
        6
176
     1
 90
        2
176
     1
 62
     7
176
     1
 90
        3
176
     1
 90
        0
176
     1
 90
        0
176
     1
290
     0
176
     1
 90
        1
176
     1
 40
0.0
176
     1
 90
        0
176
     1
290
     0
176
     1
290
     1
176
     1
290
     1
176
     1
290
     0
176
     1
290
     0
176
     1
290
     0
176
     1
290
     0
176
     1
290
     0
176
     1
290
     0
176
     1
 90
       50
176
     1
 40
0.0
176
     1
 40
1.0
176
     1
 90
        0
176
     1
 62
    18
420
        0
176
     1
 90
       50
176
     1
 90
        3
176
     1
 62
     5
420
      255
176
     1
290
     0
176
     1
 90
       50
176
     1
 90
       50
176
     1
 90
       50
176
     1
290
     0
176
     1
 90
       50
176
     1
 62
   256
176
     0
 40
1.0
176
     0
 90
        2
176
     1
  1
strokes_ogs.tif
176
     1
290
     0
176
     1
 40
1.0
176
     1
 40
1.0
176
     1
1001
ACAD
1000
AcDbSavedByObjectVersion
1070
     0
  0
VISUALSTYLE
  5
30
102
{ACAD_REACTORS
330
2A
102
}
330
2A
100
AcDbVisualStyle
  2
3dWireframe
 70
     5
177
     3
291
     0
 70
    58
 90
        0
176
     1
 90
        2
176
     1
 90
        0
176
     1
 90
        0
176
     1
 40
0.6
176
     1
 40
30.0
176
     1
 62
     7
420
 16777215
176
     1
 90
        1
176
     1
 90
        4
176
     1
 62
     7
176
     1
 62
   257
176
     1
 90
        1
176
     1
 90
        1
176
     1
 40
1.0
176
     1
 90
        0
176
     1
 62
   257
176
     1
 40
1.0
176
     1
 90
        1
176
     1
 90
        6
176
     1
 90
        2
176
     1
 62
     7
176
     1
 90
        5
176
     1
 90
        0
176
     1
 90
        0
176
     1
290
     0
176
     1
 90
        1
176
     1
 40
0.0
176
     1
 90
        0
176
     1
290
     0
176
     1
290
     1
176
     1
290
     1
176
     1
290
     0
176
     1
290
     0
176
     1
290
     0
176
     1
290
     0
176
     1
290
     0
176
     1
290
     0
176
     1
 90
       50
176
     1
 40
0.0
176
     1
 40
1.0
176
     1
 90
        0
176
     1
 62
    18
420
        0
176
     1
 90
       50
176
     1
 90
        3
176
     1
 62
     5
420
      255
176
     1
290
     0
176
     1
 90
       50
176
     1
 90
       50
176
     1
 90
       50
176
     1
290
     0
176
     1
 90
       50
176
     1
 62
   256
176
     0
 40
1.0
176
     0
 90
        2
176
     1
  1
strokes_ogs.tif
176
     1
290
     0
176
     1
 40
1.0
176
     1
 40
1.0
176
     1
1001
ACAD
1000
AcDbSavedByObjectVersion
1070
     0
  0
VISUALSTYLE
  5
32
102
{ACAD_REACTORS
330
2A
102
}
330
2A
100
AcDbVisualStyle
  2
Basic
 70
     7
177
     3
291
     1
 70
    58
 90
        1
176
     1
 90
        0
176
     1
 90
        1
176
     1
 90
        0
176
     1
 40
0.6
176
     1
 40
30.0
176
     1
 62
     7
420
 16777215
176
     1
 90
        0
176
     1
 90
        4
176
     1
 62
     7
176
     1
 62
   257
176
     1
 90
        1
176
     1
 90
        1
176
     1
 40
1.0
176
     1
 90
        8
176
     1
 62
     7
176
     1
 40
1.0
176
     1
 90
        1
176
     1
 90
        6
176
     1
 90
        2
176
     1
 62
     7
176
     1
 90
        5
176
     1
 90
        0
176
     1
 90
        0
176
     1
290
     0
176
     1
 90
        1
176
     1
 40
0.0
176
     1
 90
        0
176
     1
290
     0
176
     1
290
     1
176
     1
290
     1
176
     1
290
     0
176
     1
290
     0
176
     1
290
     0
176
     1
290
     0
176
     1
290
     0
176
     1
290
     0
176
     1
 90
       50
176
     1
 40
0.0
176
     1
 40
1.0
176
     1
 90
        0
176
     1
 62
    18
420
        0
176
     1
 90
       50
176
     1
 90
        3
176
     1
 62
     5
420
      255
176
     1
290
     0
176
     1
 90
       50
176
     1
 90
       50
176
     1
 90
       50
176
     1
290
     0
176
     1
 90
       50
176
     1
 62
   256
176
     0
 40
1.0
176
     0
 90
        2
176
     1
  1
strokes_ogs.tif
176
     1
290
     0
176
     1
 40
1.0
176
     1
 40
1.0
176
     1
1001
ACAD
1000
AcDbSavedByObjectVersion
1070
     0
  0
VISUALSTYLE
  5
36
102
{ACAD_REACTORS
330
2A
102
}
330
2A
100
AcDbVisualStyle
  2
Brighten
 70
    12
177
     3
291
     1
 70
    58
 90
        2
176
     1
 90
        2
176
     1
 90
        0
176
     1
 90
        0
176
     1
 40
0.6
176
     1
 40
30.0
176
     1
 62
     7
420
 16777215
176
     1
 90
        1
176
     1
 90
        4
176
     1
 62
     7
176
     1
 62
   257
176
     1
 90
        1
176
     1
 90
        1
176
     1
 40
1.0
176
     1
 90
        8
176
     1
 62
     7
176
     1
 40
1.0
176
     1
 90
        1
176
     1
 90
        6
176
     1
 90
        2
176
     1
 62
     7
176
     1
 90
        5
176
     1
 90
        0
176
     1
 90
        0
176
     1
290
     0
176
     1
 90
        1
176
     1
 40
50.0
176
     1
 90
        0
176
     1
290
     0
176
     1
290
     1
176
     1
290
     1
176
     1
290
     0
176
     1
290
     0
176
     1
290
     0
176
     1
290
     0
176
     1
290
     0
176
     1
290
     0
176
     1
 90
       50
176
     1
 40
0.0
176
     1
 40
1.0
176
     1
 90
        0
176
     1
 62
    18
420
        0
176
     1
 90
       50
176
     1
 90
        3
176
     1
 62
     5
420
      255
176
     1
290
     0
176
     1
 90
       50
176
     1
 90
       50
176
     1
 90
       50
176
     1
290
     0
176
     1
 90
       50
176
     1
 62
   256
176
     0
 40
1.0
176
     0
 90
        2
176
     1
  1
strokes_ogs.tif
176
     1
290
     0
176
     1
 40
1.0
176
     1
 40
1.0
176
     1
1001
ACAD
1000
AcDbSavedByObjectVersion
1070
     0
  0
VISUALSTYLE
  5
3A
102
{ACAD_REACTORS
330
2A
102
}
330
2A
100
AcDbVisualStyle
  2
ColorChange
 70
    16
177
     3
291
     1
 70
    58
 90
        2
176
     1
 90
        2
176
     1
 90
        3
176
     1
 90
        0
176
     1
 40
0.6
176
     1
 40
30.0
176
     1
 62
     8
420
  8421504
176
     1
 90
        1
176
     1
 90
        4
176
     1
 62
     7
176
     1
 62
   257
176
     1
 90
        1
176
     1
 90
        1
176
     1
 40
1.0
176
     1
 90
        8
176
     1
 62
     8
420
  8421504
176
     1
 40
1.0
176
     1
 90
        1
176
     1
 90
        6
176
     1
 90
        2
176
     1
 62
     7
176
     1
 90
        5
176
     1
 90
        0
176
     1
 90
        0
176
     1
290
     0
176
     1
 90
        1
176
     1
 40
0.0
176
     1
 90
        0
176
     1
290
     0
176
     1
290
     1
176
     1
290
     1
176
     1
290
     0
176
     1
290
     0
176
     1
290
     0
176
     1
290
     0
176
     1
290
     0
176
     1
290
     0
176
     1
 90
       50
176
     1
 40
0.0
176
     1
 40
1.0
176
     1
 90
        0
176
     1
 62
    18
420
        0
176
     1
 90
       50
176
     1
 90
        3
176
     1
 62
     5
420
      255
176
     1
290
     0
176
     1
 90
       50
176
     1
 90
       50
176
     1
 90
       50
176
     1
290
     0
176
     1
 90
       50
176
     1
 62
   256
176
     0
 40
1.0
176
     0
 90
        2
176
     1
  1
strokes_ogs.tif
176
     1
290
     0
176
     1
 40
1.0
176
     1
 40
1.0
176
     1
1001
ACAD
1000
AcDbSavedByObjectVersion
1070
     0
  0
VISUALSTYLE
  5
34
102
{ACAD_REACTORS
330
2A
102
}
330
2A
100
AcDbVisualStyle
  2
Conceptual
 70
     9
177
     3
291
     0
 70
    58
 90
        3
176
     1
 90
        2
176
     1
 90
        0
176
     1
 90
        0
176
     1
 40
0.6
176
     1
 40
30.0
176
     1
 62
     7
420
 16777215
176
     1
 90
        2
176
     1
 90
        2
176
     1
 62
     7
176
     1
 62
   257
176
     1
 90
        1
176
     1
 90
        1
176
     1
 40
40.0
176
     1
 90
        8
176
     1
 62
     7
176
     1
 40
1.0
176
     1
 90
        1
176
     1
 90
        6
176
     1
 90
        2
176
     1
 62
     7
176
     1
 90
        3
176
     1
 90
        0
176
     1
 90
        0
176
     1
290
     0
176
     1
 90
        1
176
     1
 40
0.0
176
     1
 90
        0
176
     1
290
     0
176
     1
290
     1
176
     1
290
     1
176
     1
290
     0
176
     1
290
     0
176
     1
290
     0
176
     1
290
     0
176
     1
290
     0
176
     1
290
     0
176
     1
 90
       50
176
     1
 40
0.0
176
     1
 40
1.0
176
     1
 90
        0
176
     1
 62
    18
420
        0
176
     1
 90
       50
176
     1
 90
        3
176
     1
 62
     5
420
      255
176
     1
290
     0
176
     1
 90
       50
176
     1
 90
       50
176
     1
 90
       50
176
     1
290
     0
176
     1
 90
       50
176
     1
 62
   256
176
     0
 40
1.0
176
     0
 90
        2
176
     1
  1
strokes_ogs.tif
176
     1
290
     0
176
     1
 40
1.0
176
     1
 40
1.0
176
     1
1001
ACAD
1000
AcDbSavedByObjectVersion
1070
     0
  0
VISUALSTYLE
  5
35
102
{ACAD_REACTORS
330
2A
102
}
330
2A
100
AcDbVisualStyle
  2
Dim
 70
    11
177
     3
291
     1
 70
    58
 90
        2
176
     1
 90
        2
176
     1
 90
        0
176
     1
 90
        0
176
     1
 40
0.6
176
     1
 40
30.0
176
     1
 62
     7
420
 16777215
176
     1
 90
        1
176
     1
 90
        4
176
     1
 62
     7
176
     1
 62
   257
176
     1
 90
        1
176
     1
 90
        1
176
     1
 40
1.0
176
     1
 90
        8
176
     1
 62
     7
176
     1
 40
1.0
176
     1
 90
        1
176
     1
 90
        6
176
     1
 90
        2
176
     1
 62
     7
176
     1
 90
        5
176
     1
 90
        0
176
     1
 90
        0
176
     1
290
     0
176
     1
 90
        1
176
     1
 40
-50.0
176
     1
 90
        0
176
     1
290
     0
176
     1
290
     1
176
     1
290
     1
176
     1
290
     0
176
     1
290
     0
176
     1
290
     0
176
     1
290
     0
176
     1
290
     0
176
     1
290
     0
176
     1
 90
       50
176
     1
 40
0.0
176
     1
 40
1.0
176
     1
 90
        0
176
     1
 62
    18
420
        0
176
     1
 90
       50
176
     1
 90
        3
176
     1
 62
     5
420
      255
176
     1
290
     0
176
     1
 90
       50
176
     1
 90
       50
176
     1
 90
       50
176
     1
290
     0
176
     1
 90
       50
176
     1
 62
   256
176
     0
 40
1.0
176
     0
 90
        2
176
     1
  1
strokes_ogs.tif
176
     1
290
     0
176
     1
 40
1.0
176
     1
 40
1.0
176
     1
1001
ACAD
1000
AcDbSavedByObjectVersion
1070
     0
  0
VISUALSTYLE
  5
1B9
102
{ACAD_REACTORS
330
2A
102
}
330
2A
100
AcDbVisualStyle
  2
EdgeColorOff
 70
    22
177
     3
291
     1
 70
    58
 90
        2
176
     0
 90
        2
176
     0
 90
        0
176
     0
 90
        0
176
     0
 40
0.6
176
     0
 40
30.0
176
     0
 62
     7
420
 16777215
176
     0
 90
        1
176
     0
 90
        4
176
     0
 62
     7
176
     0
 62
   257
176
     0
 90
        1
176
     0
 90
        1
176
     0
 40
1.0
176
     0
 90
        8
176
     2
 62
     7
176
     0
 40
1.0
176
     0
 90
        1
176
     0
 90
        6
176
     0
 90
        2
176
     0
 62
     7
176
     0
 90
        5
176
     0
 90
        0
176
     0
 90
        0
176
     0
290
     0
176
     0
 90
        1
176
     0
 40
0.0
176
     0
 90
        0
176
     0
290
     0
176
     1
290
     1
176
     1
290
     1
176
     1
290
     0
176
     1
290
     0
176
     1
290
     0
176
     1
290
     0
176
     1
290
     0
176
     1
290
     0
176
     1
 90
       50
176
     0
 40
0.0
176
     0
 40
1.0
176
     0
 90
        0
176
     0
 62
    18
420
        0
176
     0
 90
       50
176
     0
 90
        3
176
     0
 62
     5
420
      255
176
     0
290
     0
176
     1
 90
       50
176
     0
 90
       50
176
     0
 90
       50
176
     0
290
     0
176
     1
 90
       50
176
     0
 62
   256
176
     0
 40
1.0
176
     0
 90
        2
176
     0
  1
strokes_ogs.tif
176
     0
290
     0
176
     1
 40
1.0
176
     0
 40
1.0
176
     0
1001
ACAD
1000
AcDbSavedByObjectVersion
1070
     0
  0
VISUALSTYLE
  5
39
102
{ACAD_REACTORS
330
2A
102
}
330
2A
100
AcDbVisualStyle
  2
Facepattern
 70
    15
177
     3
291
     1
 70
    58
 90
        2
176
     1
 90
        2
176
     1
 90
        0
176
     1
 90
        0
176
     1
 40
0.6
176
     1
 40
30.0
176
     1
 62
     7
420
 16777215
176
     1
 90
        1
176
     1
 90
        4
176
     1
 62
     7
176
     1
 62
   257
176
     1
 90
        1
176
     1
 90
        1
176
     1
 40
1.0
176
     1
 90
        8
176
     1
 62
     7
176
     1
 40
1.0
176
     1
 90
        1
176
     1
 90
        6
176
     1
 90
        2
176
     1
 62
     7
176
     1
 90
        5
176
     1
 90
        0
176
     1
 90
        0
176
     1
290
     0
176
     1
 90
        1
176
     1
 40
0.0
176
     1
 90
        0
176
     1
290
     0
176
     1
290
     1
176
     1
290
     1
176
     1
290
     0
176
     1
290
     0
176
     1
290
     0
176
     1
290
     0
176
     1
290
     0
176
     1
290
     0
176
     1
 90
       50
176
     1
 40
0.0
176
     1
 40
1.0
176
     1
 90
        0
176
     1
 62
    18
420
        0
176
     1
 90
       50
176
     1
 90
        3
176
     1
 62
     5
420
      255
176
     1
290
     0
176
     1
 90
       50
176
     1
 90
       50
176
     1
 90
       50
176
     1
290
     0
176
     1
 90
       50
176
     1
 62
   256
176
     0
 40
1.0
176
     0
 90
        2
176
     1
  1
strokes_ogs.tif
176
     1
290
     0
176
     1
 40
1.0
176
     1
 40
1.0
176
     1
1001
ACAD
1000
AcDbSavedByObjectVersion
1070
     0
  0
VISUALSTYLE
  5
2B
102
{ACAD_REACTORS
330
2A
102
}
330
2A
100
AcDbVisualStyle
  2
Flat
 70
     0
177
     3
291
     1
 70
    58
 90
        2
176
     1
 90
        1
176
     1
 90
        1
176
     1
 90
        2
176
     1
 40
0.6
176
     1
 40
30.0
176
     1
 62
     7
420
 16777215
176
     1
 90
        0
176
     1
 90
        4
176
     1
 62
     7
176
     1
 62
   257
176
     1
 90
        1
176
     1
 90
        1
176
     1
 40
1.0
176
     1
 90
        8
176
     1
 62
     7
176
     1
 40
1.0
176
     1
 90
        1
176
     1
 90
        6
176
     1
 90
        2
176
     1
 62
     7
176
     1
 90
        5
176
     1
 90
        0
176
     1
 90
        0
176
     1
290
     0
176
     1
 90
       13
176
     1
 40
0.0
176
     1
 90
        0
176
     1
290
     0
176
     1
290
     1
176
     1
290
     1
176
     1
290
     0
176
     1
290
     0
176
     1
290
     0
176
     1
290
     0
176
     1
290
     0
176
     1
290
     0
176
     1
 90
       50
176
     1
 40
0.0
176
     1
 40
1.0
176
     1
 90
        0
176
     1
 62
    18
420
        0
176
     1
 90
       50
176
     1
 90
        3
176
     1
 62
     5
420
      255
176
     1
290
     0
176
     1
 90
       50
176
     1
 90
       50
176
     1
 90
       50
176
     1
290
     0
176
     1
 90
       50
176
     1
 62
   256
176
     0
 40
1.0
176
     0
 90
        2
176
     1
  1
strokes_ogs.tif
176
     1
290
     0
176
     1
 40
1.0
176
     1
 40
1.0
176
     1
1001
ACAD
1000
AcDbSavedByObjectVersion
1070
     0
  0
VISUALSTYLE
  5
2C
102
{ACAD_REACTORS
330
2A
102
}
330
2A
100
AcDbVisualStyle
  2
FlatWithEdges
 70
     1
177
     3
291
     1
 70
    58
 90
        2
176
     1
 90
        1
176
     1
 90
        1
176
     1
 90
        2
176
     1
 40
0.6
176
     1
 40
30.0
176
     1
 62
     7
420
 16777215
176
     1
 90
        1
176
     1
 90
        4
176
     1
 62
     7
176
     1
 62
   257
176
     1
 90
        1
176
     1
 90
        1
176
     1
 40
1.0
176
     1
 90
        0
176
     1
 62
   257
176
     1
 40
1.0
176
     1
 90
        1
176
     1
 90
        6
176
     1
 90
        2
176
     1
 62
     7
176
     1
 90
        5
176
     1
 90
        0
176
     1
 90
        0
176
     1
290
     0
176
     1
 90
       13
176
     1
 40
0.0
176
     1
 90
        0
176
     1
290
     0
176
     1
290
     1
176
     1
290
     1
176
     1
290
     0
176
     1
290
     0
176
     1
290
     0
176
     1
290
     0
176
     1
290
     0
176
     1
290
     0
176
     1
 90
       50
176
     1
 40
0.0
176
     1
 40
1.0
176
     1
 90
        0
176
     1
 62
    18
420
        0
176
     1
 90
       50
176
     1
 90
        3
176
     1
 62
     5
420
      255
176
     1
290
     0
176
     1
 90
       50
176
     1
 90
       50
176
     1
 90
       50
176
     1
290
     0
176
     1
 90
       50
176
     1
 62
   256
176
     0
 40
1.0
176
     0
 90
        2
176
     1
  1
strokes_ogs.tif
176
     1
290
     0
176
     1
 40
1.0
176
     1
 40
1.0
176
     1
1001
ACAD
1000
AcDbSavedByObjectVersion
1070
     0
  0
VISUALSTYLE
  5
2D
102
{ACAD_REACTORS
330
2A
102
}
330
2A
100
AcDbVisualStyle
  2
Gouraud
 70
     2
177
     3
291
     1
 70
    58
 90
        2
176
     1
 90
        2
176
     1
 90
        1
176
     1
 90
        2
176
     1
 40
0.6
176
     1
 40
30.0
176
     1
 62
     7
420
 16777215
176
     1
 90
        0
176
     1
 90
        4
176
     1
 62
     7
176
     1
 62
   257
176
     1
 90
        1
176
     1
 90
        1
176
     1
 40
1.0
176
     1
 90
        0
176
     1
 62
     7
176
     1
 40
1.0
176
     1
 90
        1
176
     1
 90
        6
176
     1
 90
        2
176
     1
 62
     7
176
     1
 90
        5
176
     1
 90
        0
176
     1
 90
        0
176
     1
290
     0
176
     1
 90
       13
176
     1
 40
0.0
176
     1
 90
        0
176
     1
290
     0
176
     1
290
     1
176
     1
290
     1
176
     1
290
     0
176
     1
290
     0
176
     1
290
     0
176
     1
290
     0
176
     1
290
     0
176
     1
290
     0
176
     1
 90
       50
176
     1
 40
0.0
176
     1
 40
1.0
176
     1
 90
        0
176
     1
 62
    18
420
        0
176
     1
 90
       50
176
     1
 90
        3
176
     1
 62
     5
420
      255
176
     1
290
     0
176
     1
 90
       50
176
     1
 90
       50
176
     1
 90
       50
176
     1
290
     0
176
     1
 90
       50
176
     1
 62
   256
176
     0
 40
1.0
176
     0
 90
        2
176
     1
  1
strokes_ogs.tif
176
     1
290
     0
176
     1
 40
1.0
176
     1
 40
1.0
176
     1
1001
ACAD
1000
AcDbSavedByObjectVersion
1070
     0
  0
VISUALSTYLE
  5
2E
102
{ACAD_REACTORS
330
2A
102
}
330
2A
100
AcDbVisualStyle
  2
GouraudWithEdges
 70
     3
177
     3
291
     1
 70
    58
 90
        2
176
     1
 90
        2
176
     1
 90
        1
176
     1
 90
        2
176
     1
 40
0.6
176
     1
 40
30.0
176
     1
 62
     7
420
 16777215
176
     1
 90
        1
176
     1
 90
        4
176
     1
 62
     7
176
     1
 62
   257
176
     1
 90
        1
176
     1
 90
        1
176
     1
 40
1.0
176
     1
 90
        0
176
     1
 62
   257
176
     1
 40
1.0
176
     1
 90
        1
176
     1
 90
        6
176
     1
 90
        2
176
     1
 62
     7
176
     1
 90
        5
176
     1
 90
        0
176
     1
 90
        0
176
     1
290
     0
176
     1
 90
       13
176
     1
 40
0.0
176
     1
 90
        0
176
     1
290
     0
176
     1
290
     1
176
     1
290
     1
176
     1
290
     0
176
     1
290
     0
176
     1
290
     0
176
     1
290
     0
176
     1
290
     0
176
     1
290
     0
176
     1
 90
       50
176
     1
 40
0.0
176
     1
 40
1.0
176
     1
 90
        0
176
     1
 62
    18
420
        0
176
     1
 90
       50
176
     1
 90
        3
176
     1
 62
     5
420
      255
176
     1
290
     0
176
     1
 90
       50
176
     1
 90
       50
176
     1
 90
       50
176
     1
290
     0
176
     1
 90
       50
176
     1
 62
   256
176
     0
 40
1.0
176
     0
 90
        2
176
     1
  1
strokes_ogs.tif
176
     1
290
     0
176
     1
 40
1.0
176
     1
 40
1.0
176
     1
1001
ACAD
1000
AcDbSavedByObjectVersion
1070
     0
  0
VISUALSTYLE
  5
1B1
102
{ACAD_REACTORS
330
2A
102
}
330
2A
100
AcDbVisualStyle
  2
Hidden
 70
     6
177
     3
291
     0
 70
    58
 90
        1
176
     1
 90
        2
176
     1
 90
        2
176
     1
 90
        0
176
     1
 40
0.6
176
     1
 40
30.0
176
     1
 62
     7
420
 16777215
176
     1
 90
        2
176
     1
 90
        2
176
     1
 62
     7
176
     1
 62
   257
176
     1
 90
        2
176
     1
 90
        1
176
     1
 40
40.0
176
     1
 90
        0
176
     1
 62
   257
176
     1
 40
1.0
176
     1
 90
        1
176
     1
 90
        6
176
     1
 90
        2
176
     1
 62
     7
176
     1
 90
        3
176
     1
 90
        0
176
     1
 90
        0
176
     1
290
     0
176
     1
 90
        1
176
     1
 40
0.0
176
     1
 90
        0
176
     1
290
     0
176
     1
290
     1
176
     1
290
     1
176
     1
290
     0
176
     1
290
     0
176
     1
290
     0
176
     1
290
     0
176
     1
290
     0
176
     1
290
     0
176
     1
 90
       50
176
     1
 40
0.0
176
     1
 40
1.0
176
     1
 90
        0
176
     1
 62
    18
420
        0
176
     1
 90
       50
176
     1
 90
        3
176
     1
 62
     5
420
      255
176
     1
290
     0
176
     1
 90
       50
176
     1
 90
       50
176
     1
 90
       50
176
     1
290
     0
176
     1
 90
       50
176
     1
 62
   256
176
     0
 40
1.0
176
     0
 90
        2
176
     1
  1
strokes_ogs.tif
176
     1
290
     0
176
     1
 40
1.0
176
     1
 40
1.0
176
     1
1001
ACAD
1000
AcDbSavedByObjectVersion
1070
     0
  0
VISUALSTYLE
  5
1B7
102
{ACAD_REACTORS
330
2A
102
}
330
2A
100
AcDbVisualStyle
  2
JitterOff
 70
    20
177
     3
291
     1
 70
    58
 90
        2
176
     0
 90
        2
176
     0
 90
        0
176
     0
 90
        0
176
     0
 40
0.6
176
     0
 40
30.0
176
     0
 62
     7
420
 16777215
176
     0
 90
        1
176
     0
 90
        4
176
     0
 62
     7
176
     0
 62
   257
176
     0
 90
        1
176
     0
 90
        1
176
     0
 40
1.0
176
     0
 90
       10
176
     2
 62
     7
176
     0
 40
1.0
176
     0
 90
        1
176
     0
 90
        6
176
     0
 90
        2
176
     0
 62
     7
176
     0
 90
        5
176
     0
 90
        0
176
     0
 90
        0
176
     0
290
     0
176
     0
 90
        1
176
     0
 40
0.0
176
     0
 90
        0
176
     0
290
     0
176
     1
290
     1
176
     1
290
     1
176
     1
290
     0
176
     1
290
     0
176
     1
290
     0
176
     1
290
     0
176
     1
290
     0
176
     1
290
     0
176
     1
 90
       50
176
     0
 40
0.0
176
     0
 40
1.0
176
     0
 90
        0
176
     0
 62
    18
420
        0
176
     0
 90
       50
176
     0
 90
        3
176
     0
 62
     5
420
      255
176
     0
290
     0
176
     1
 90
       50
176
     0
 90
       50
176
     0
 90
       50
176
     0
290
     0
176
     1
 90
       50
176
     0
 62
   256
176
     0
 40
1.0
176
     0
 90
        2
176
     0
  1
strokes_ogs.tif
176
     0
290
     0
176
     1
 40
1.0
176
     0
 40
1.0
176
     0
1001
ACAD
1000
AcDbSavedByObjectVersion
1070
     0
  0
VISUALSTYLE
  5
38
102
{ACAD_REACTORS
330
2A
102
}
330
2A
100
AcDbVisualStyle
  2
Linepattern
 70
    14
177
     3
291
     1
 70
    58
 90
        2
176
     1
 90
        2
176
     1
 90
        0
176
     1
 90
        0
176
     1
 40
0.6
176
     1
 40
30.0
176
     1
 62
     7
420
 16777215
176
     1
 90
        1
176
     1
 90
        4
176
     1
 62
     7
176
     1
 62
   257
176
     1
 90
        7
176
     1
 90
        7
176
     1
 40
1.0
176
     1
 90
        8
176
     1
 62
     7
176
     1
 40
1.0
176
     1
 90
        1
176
     1
 90
        6
176
     1
 90
        2
176
     1
 62
     7
176
     1
 90
        5
176
     1
 90
        0
176
     1
 90
        0
176
     1
290
     0
176
     1
 90
        1
176
     1
 40
0.0
176
     1
 90
        0
176
     1
290
     0
176
     1
290
     1
176
     1
290
     1
176
     1
290
     0
176
     1
290
     0
176
     1
290
     0
176
     1
290
     0
176
     1
290
     0
176
     1
290
     0
176
     1
 90
       50
176
     1
 40
0.0
176
     1
 40
1.0
176
     1
 90
        0
176
     1
 62
    18
420
        0
176
     1
 90
       50
176
     1
 90
        3
176
     1
 62
     5
420
      255
176
     1
290
     0
176
     1
 90
       50
176
     1
 90
       50
176
     1
 90
       50
176
     1
290
     0
176
     1
 90
       50
176
     1
 62
   256
176
     0
 40
1.0
176
     0
 90
        2
176
     1
  1
strokes_ogs.tif
176
     1
290
     0
176
     1
 40
1.0
176
     1
 40
1.0
176
     1
1001
ACAD
1000
AcDbSavedByObjectVersion
1070
     0
  0
VISUALSTYLE
  5
1B8
102
{ACAD_REACTORS
330
2A
102
}
330
2A
100
AcDbVisualStyle
  2
OverhangOff
 70
    21
177
     3
291
     1
 70
    58
 90
        2
176
     0
 90
        2
176
     0
 90
        0
176
     0
 90
        0
176
     0
 40
0.6
176
     0
 40
30.0
176
     0
 62
     7
420
 16777215
176
     0
 90
        1
176
     0
 90
        4
176
     0
 62
     7
176
     0
 62
   257
176
     0
 90
        1
176
     0
 90
        1
176
     0
 40
1.0
176
     0
 90
        9
176
     2
 62
     7
176
     0
 40
1.0
176
     0
 90
        1
176
     0
 90
        6
176
     0
 90
        2
176
     0
 62
     7
176
     0
 90
        5
176
     0
 90
        0
176
     0
 90
        0
176
     0
290
     0
176
     0
 90
        1
176
     0
 40
0.0
176
     0
 90
        0
176
     0
290
     0
176
     1
290
     1
176
     1
290
     1
176
     1
290
     0
176
     1
290
     0
176
     1
290
     0
176
     1
290
     0
176
     1
290
     0
176
     1
290
     0
176
     1
 90
       50
176
     0
 40
0.0
176
     0
 40
1.0
176
     0
 90
        0
176
     0
 62
    18
420
        0
176
     0
 90
       50
176
     0
 90
        3
176
     0
 62
     5
420
      255
176
     0
290
     0
176
     1
 90
       50
176
     0
 90
       50
176
     0
 90
       50
176
     0
290
     0
176
     1
 90
       50
176
     0
 62
   256
176
     0
 40
1.0
176
     0
 90
        2
176
     0
  1
strokes_ogs.tif
176
     0
290
     0
176
     1
 40
1.0
176
     0
 40
1.0
176
     0
1001
ACAD
1000
AcDbSavedByObjectVersion
1070
     0
  0
VISUALSTYLE
  5
33
102
{ACAD_REACTORS
330
2A
102
}
330
2A
100
AcDbVisualStyle
  2
Realistic
 70
     8
177
     3
291
     0
 70
    58
 90
        2
176
     1
 90
        2
176
     1
 90
        0
176
     1
 90
        0
176
     1
 40
0.6
176
     1
 40
30.0
176
     1
 62
     7
420
 16777215
176
     1
 90
        1
176
     1
 90
        0
176
     1
 62
     7
176
     1
 62
   257
176
     1
 90
        1
176
     1
 90
        1
176
     1
 40
1.0
176
     1
 90
        8
176
     1
 62
     8
420
  7895160
176
     1
 40
1.0
176
     1
 90
        1
176
     1
 90
        6
176
     1
 90
        2
176
     1
 62
     7
176
     1
 90
        5
176
     1
 90
        0
176
     1
 90
        0
176
     1
290
     0
176
     1
 90
       13
176
     1
 40
0.0
176
     1
 90
        0
176
     1
290
     0
176
     1
290
     1
176
     1
290
     1
176
     1
290
     0
176
     1
290
     0
176
     1
290
     0
176
     1
290
     0
176
     1
290
     0
176
     1
290
     0
176
     1
 90
       50
176
     1
 40
0.0
176
     1
 40
1.0
176
     1
 90
        0
176
     1
 62
    18
420
        0
176
     1
 90
       50
176
     1
 90
        3
176
     1
 62
     5
420
      255
176
     1
290
     0
176
     1
 90
       50
176
     1
 90
       50
176
     1
 90
       50
176
     1
290
     0
176
     1
 90
       50
176
     1
 62
   256
176
     0
 40
1.0
176
     0
 90
        2
176
     1
  1
strokes_ogs.tif
176
     1
290
     0
176
     1
 40
1.0
176
     1
 40
1.0
176
     1
1001
ACAD
1000
AcDbSavedByObjectVersion
1070
     0
  0
VISUALSTYLE
  5
1B6
102
{ACAD_REACTORS
330
2A
102
}
330
2A
100
AcDbVisualStyle
  2
Shaded
 70
    27
177
     3
291
     0
 70
    58
 90
        2
176
     1
 90
        2
176
     1
 90
        1
176
     1
 90
        2
176
     1
 40
0.6
176
     1
 40
30.0
176
     1
 62
     7
420
 16777215
176
     1
 90
        0
176
     1
 90
        4
176
     1
 62
     7
176
     1
 62
   257
176
     1
 90
        1
176
     1
 90
        1
176
     1
 40
1.0
176
     1
 90
        8
176
     1
 62
   257
176
     1
 40
1.0
176
     1
 90
        1
176
     1
 90
        6
176
     1
 90
        2
176
     1
 62
     8
420
  7895160
176
     1
 90
        3
176
     1
 90
        0
176
     1
 90
        0
176
     1
290
     0
176
     1
 90
        5
176
     1
 40
0.0
176
     1
 90
        0
176
     1
290
     0
176
     1
290
     1
176
     1
290
     1
176
     1
290
     0
176
     1
290
     0
176
     1
290
     0
176
     1
290
     0
176
     1
290
     0
176
     1
290
     0
176
     1
 90
       50
176
     1
 40
0.0
176
     1
 40
1.0
176
     1
 90
        0
176
     1
 62
    18
420
        0
176
     1
 90
       50
176
     1
 90
        3
176
     1
 62
     5
420
      255
176
     1
290
     0
176
     1
 90
       50
176
     1
 90
       50
176
     1
 90
       50
176
     1
290
     0
176
     1
 90
       50
176
     1
 62
   256
176
     0
 40
1.0
176
     0
 90
        2
176
     1
  1
strokes_ogs.tif
176
     1
290
     0
176
     1
 40
1.0
176
     1
 40
1.0
176
     1
1001
ACAD
1000
AcDbSavedByObjectVersion
1070
     0
  0
VISUALSTYLE
  5
1B5
102
{ACAD_REACTORS
330
2A
102
}
330
2A
100
AcDbVisualStyle
  2
Shaded with edges
 70
    26
177
     3
291
     0
 70
    58
 90
        2
176
     1
 90
        2
176
     1
 90
        1
176
     1
 90
        2
176
     1
 40
0.6
176
     1
 40
30.0
176
     1
 62
     7
420
 16777215
176
     1
 90
        1
176
     1
 90
        2
176
     1
 62
     7
176
     1
 62
   257
176
     1
 90
        2
176
     1
 90
        1
176
     1
 40
1.0
176
     1
 90
        8
176
     1
 62
   257
176
     1
 40
1.0
176
     1
 90
        1
176
     1
 90
        6
176
     1
 90
        2
176
     1
 62
     7
176
     1
 90
        3
176
     1
 90
        0
176
     1
 90
        0
176
     1
290
     0
176
     1
 90
        5
176
     1
 40
0.0
176
     1
 90
        0
176
     1
290
     0
176
     1
290
     1
176
     1
290
     1
176
     1
290
     0
176
     1
290
     0
176
     1
290
     0
176
     1
290
     0
176
     1
290
     0
176
     1
290
     0
176
     1
 90
       50
176
     1
 40
0.0
176
     1
 40
1.0
176
     1
 90
        0
176
     1
 62
    18
420
        0
176
     1
 90
       50
176
     1
 90
        3
176
     1
 62
     5
420
      255
176
     1
290
     0
176
     1
 90
       50
176
     1
 90
       50
176
     1
 90
       50
176
     1
290
     0
176
     1
 90
       50
176
     1
 62
   256
176
     0
 40
1.0
176
     0
 90
        2
176
     1
  1
strokes_ogs.tif
176
     1
290
     0
176
     1
 40
1.0
176
     1
 40
1.0
176
     1
1001
ACAD
1000
AcDbSavedByObjectVersion
1070
     0
  0
VISUALSTYLE
  5
1B2
102
{ACAD_REACTORS
330
2A
102
}
330
2A
100
AcDbVisualStyle
  2
Shades of Gray
 70
    23
177
     3
291
     0
 70
    58
 90
        2
176
     1
 90
        2
176
     1
 90
        3
176
     1
 90
        0
176
     1
 40
0.6
176
     1
 40
30.0
176
     1
 62
     7
420
 16777215
176
     1
 90
        2
176
     1
 90
        2
176
     1
 62
     7
176
     1
 62
     7
176
     1
 90
        1
176
     1
 90
        1
176
     1
 40
40.0
176
     1
 90
        8
176
     1
 62
     7
176
     1
 40
1.0
176
     1
 90
        1
176
     1
 90
        6
176
     1
 90
        2
176
     1
 62
     7
176
     1
 90
        3
176
     1
 90
        0
176
     1
 90
        0
176
     1
290
     0
176
     1
 90
        1
176
     1
 40
0.0
176
     1
 90
        0
176
     1
290
     0
176
     1
290
     1
176
     1
290
     1
176
     1
290
     0
176
     1
290
     0
176
     1
290
     0
176
     1
290
     0
176
     1
290
     0
176
     1
290
     0
176
     1
 90
       50
176
     1
 40
0.0
176
     1
 40
1.0
176
     1
 90
        0
176
     1
 62
    18
420
        0
176
     1
 90
       50
176
     1
 90
        3
176
     1
 62
     5
420
      255
176
     1
290
     0
176
     1
 90
       50
176
     1
 90
       50
176
     1
 90
       50
176
     1
290
     0
176
     1
 90
       50
176
     1
 62
   256
176
     0
 40
1.0
176
     0
 90
        2
176
     1
  1
strokes_ogs.tif
176
     1
290
     0
176
     1
 40
1.0
176
     1
 40
1.0
176
     1
1001
ACAD
1000
AcDbSavedByObjectVersion
1070
     0
  0
VISUALSTYLE
  5
1B3
102
{ACAD_REACTORS
330
2A
102
}
330
2A
100
AcDbVisualStyle
  2
Sketchy
 70
    24
177
     3
291
     0
 70
    58
 90
        1
176
     1
 90
        2
176
     1
 90
        2
176
     1
 90
        0
176
     1
 40
0.6
176
     1
 40
30.0
176
     1
 62
     7
420
 16777215
176
     1
 90
        2
176
     1
 90
        2
176
     1
 62
     7
176
     1
 62
     7
176
     1
 90
        1
176
     1
 90
        1
176
     1
 40
40.0
176
     1
 90
       11
176
     1
 62
     7
176
     1
 40
1.0
176
     1
 90
        1
176
     1
 90
        6
176
     1
 90
        2
176
     1
 62
     7
176
     1
 90
        6
176
     1
 90
        0
176
     1
 90
        0
176
     1
290
     0
176
     1
 90
        1
176
     1
 40
0.0
176
     1
 90
        0
176
     1
290
     0
176
     1
290
     1
176
     1
290
     1
176
     1
290
     0
176
     1
290
     0
176
     1
290
     0
176
     1
290
     0
176
     1
290
     0
176
     1
290
     0
176
     1
 90
       50
176
     1
 40
0.0
176
     1
 40
1.0
176
     1
 90
        0
176
     1
 62
    18
420
        0
176
     1
 90
       50
176
     1
 90
        3
176
     1
 62
     5
420
      255
176
     1
290
     0
176
     1
 90
       50
176
     1
 90
       50
176
     1
 90
       50
176
     1
290
     0
176
     1
 90
       50
176
     1
 62
   256
176
     0
 40
1.0
176
     0
 90
        2
176
     1
  1
strokes_ogs.tif
176
     1
290
     0
176
     1
 40
1.0
176
     1
 40
1.0
176
     1
1001
ACAD
1000
AcDbSavedByObjectVersion
1070
     0
  0
VISUALSTYLE
  5
37
102
{ACAD_REACTORS
330
2A
102
}
330
2A
100
AcDbVisualStyle
  2
Thicken
 70
    13
177
     3
291
     1
 70
    58
 90
        2
176
     1
 90
        2
176
     1
 90
        0
176
     1
 90
        0
176
     1
 40
0.6
176
     1
 40
30.0
176
     1
 62
     7
420
 16777215
176
     1
 90
        1
176
     1
 90
        4
176
     1
 62
     7
176
     1
 62
   257
176
     1
 90
        1
176
     1
 90
        1
176
     1
 40
1.0
176
     1
 90
       12
176
     1
 62
     7
176
     1
 40
1.0
176
     1
 90
        1
176
     1
 90
        6
176
     1
 90
        2
176
     1
 62
     7
176
     1
 90
        5
176
     1
 90
        0
176
     1
 90
        0
176
     1
290
     0
176
     1
 90
        1
176
     1
 40
0.0
176
     1
 90
        0
176
     1
290
     0
176
     1
290
     1
176
     1
290
     1
176
     1
290
     0
176
     1
290
     0
176
     1
290
     0
176
     1
290
     0
176
     1
290
     0
176
     1
290
     0
176
     1
 90
       50
176
     1
 40
0.0
176
     1
 40
1.0
176
     1
 90
        0
176
     1
 62
    18
420
        0
176
     1
 90
       50
176
     1
 90
        3
176
     1
 62
     5
420
      255
176
     1
290
     0
176
     1
 90
       50
176
     1
 90
       50
176
     1
 90
       50
176
     1
290
     0
176
     1
 90
       50
176
     1
 62
   256
176
     0
 40
1.0
176
     0
 90
        2
176
     1
  1
strokes_ogs.tif
176
     1
290
     0
176
     1
 40
1.0
176
     1
 40
1.0
176
     1
1001
ACAD
1000
AcDbSavedByObjectVersion
1070
     0
  0
VISUALSTYLE
  5
1B0
102
{ACAD_REACTORS
330
2A
102
}
330
2A
100
AcDbVisualStyle
  2
Wireframe
 70
     5
177
     3
291
     0
 70
    58
 90
        0
176
     1
 90
        2
176
     1
 90
        0
176
     1
 90
        0
176
     1
 40
0.6
176
     1
 40
30.0
176
     1
 62
     7
420
 16777215
176
     1
 90
        1
176
     1
 90
        4
176
     1
 62
     7
176
     1
 62
   257
176
     1
 90
        1
176
     1
 90
        1
176
     1
 40
1.0
176
     1
 90
        0
176
     1
 62
   257
176
     1
 40
1.0
176
     1
 90
        1
176
     1
 90
        6
176
     1
 90
        2
176
     1
 62
     7
176
     1
 90
        3
176
     1
 90
        0
176
     1
 90
        0
176
     1
290
     0
176
     1
 90
        1
176
     1
 40
0.0
176
     1
 90
        0
176
     1
290
     0
176
     1
290
     1
176
     1
290
     1
176
     1
290
     0
176
     1
290
     0
176
     1
290
     0
176
     1
290
     0
176
     1
290
     0
176
     1
290
     0
176
     1
 90
       50
176
     1
 40
0.0
176
     1
 40
1.0
176
     1
 90
        0
176
     1
 62
    18
420
        0
176
     1
 90
       50
176
     1
 90
        3
176
     1
 62
     5
420
      255
176
     1
290
     0
176
     1
 90
       50
176
     1
 90
       50
176
     1
 90
       50
176
     1
290
     0
176
     1
 90
       50
176
     1
 62
   256
176
     0
 40
1.0
176
     0
 90
        2
176
     1
  1
strokes_ogs.tif
176
     1
290
     0
176
     1
 40
1.0
176
     1
 40
1.0
176
     1
1001
ACAD
1000
AcDbSavedByObjectVersion
1070
     0
  0
VISUALSTYLE
  5
1B4
102
{ACAD_REACTORS
330
2A
102
}
330
2A
100
AcDbVisualStyle
  2
X-Ray
 70
    25
177
     3
291
     0
 70
    58
 90
        2
176
     1
 90
        2
176
     1
 90
        1
176
     1
 90
        1
176
     1
 40
0.5
176
     1
 40
30.0
176
     1
 62
     7
420
 16777215
176
     1
 90
        1
176
     1
 90
        0
176
     1
 62
     7
176
     1
 62
   257
176
     1
 90
        1
176
     1
 90
        1
176
     1
 40
1.0
176
     1
 90
        8
176
     1
 62
     7
176
     1
 40
1.0
176
     1
 90
        1
176
     1
 90
        6
176
     1
 90
        2
176
     1
 62
     7
176
     1
 90
        3
176
     1
 90
        0
176
     1
 90
        0
176
     1
290
     0
176
     1
 90
       13
176
     1
 40
0.0
176
     1
 90
        0
176
     1
290
     0
176
     1
290
     1
176
     1
290
     1
176
     1
290
     0
176
     1
290
     0
176
     1
290
     0
176
     1
290
     0
176
     1
290
     0
176
     1
290
     0
176
     1
 90
       50
176
     1
 40
0.0
176
     1
 40
1.0
176
     1
 90
        0
176
     1
 62
    18
420
        0
176
     1
 90
       50
176
     1
 90
        3
176
     1
 62
     5
420
      255
176
     1
290
     0
176
     1
 90
       50
176
     1
 90
       50
176
     1
 90
       50
176
     1
290
     0
176
     1
 90
       50
176
     1
 62
   256
176
     0
 40
1.0
176
     0
 90
        2
176
     1
  1
strokes_ogs.tif
176
     1
290
     0
176
     1
 40
1.0
176
     1
 40
1.0
176
     1
1001
ACAD
1000
AcDbSavedByObjectVersion
1070
     0
  0
DICTIONARYVAR
  5
296
102
{ACAD_REACTORS
330
291
102
}
330
291
100
DictionaryVariables
280
     0
  1
1:1
  0
DICTIONARYVAR
  5
293
102
{ACAD_REACTORS
330
291
102
}
330
291
100
DictionaryVariables
280
     0
  1
STANDARD
  0
DICTIONARYVAR
  5
292
102
{ACAD_REACTORS
330
291
102
}
330
291
100
DictionaryVariables
280
     0
  1
STANDARD
  0
DICTIONARYVAR
  5
294
102
{ACAD_REACTORS
330
291
102
}
330
291
100
DictionaryVariables
280
     0
  1
Imperial24
  0
DICTIONARYVAR
  5
295
102
{ACAD_REACTORS
330
291
102
}
330
291
100
DictionaryVariables
280
     0
  1
Imperial24
  0
DICTIONARY
  5
29D
330
1D6
100
AcDbDictionary
280
     1
281
     1
  3
ACAD_XREC_ROUNDTRIP
360
29E
  0
DICTIONARY
  5
29B
330
1D4
100
AcDbDictionary
280
     1
281
     1
  3
ACAD_XREC_ROUNDTRIP
360
29C
  0
DICTIONARY
  5
298
330
1BB
100
AcDbDictionary
280
     1
281
     1
  3
ACAD_ROUNDTRIP_2008_TABLESTYLE_CELLSTYLEMAP
360
299
  0
XRECORD
  5
29E
102
{ACAD_REACTORS
330
29D
102
}
330
29D
100
AcDbXrecord
280
     1
102
DISPLAYNAME
  1
Imperial24
102
FLAGS
 90
        0
  0
XRECORD
  5
29C
102
{ACAD_REACTORS
330
29B
102
}
330
29B
100
AcDbXrecord
280
     1
102
DISPLAYNAME
  1
Imperial24
102
FLAGS
 90
        0
  0
CELLSTYLEMAP
  5
299
102
{ACAD_REACTORS
330
298
102
}
330
298
100
AcDbCellStyleMap
 90
        3
300
CELLSTYLE
  1
TABLEFORMAT_BEGIN
 90
        5
170
     1
 91
        0
 92
    32768
 62
   257
 93
        1
300
CONTENTFORMAT
  1
CONTENTFORMAT_BEGIN
 90
        0
 91
        0
 92
      512
 93
        0
300

 40
0.0
140
1.0
 94
        5
 62
     0
340
11
144
0.25
309
CONTENTFORMAT_END
171
     0
 94
        0
309
TABLEFORMAT_END
  1
CELLSTYLE_BEGIN
 90
        1
 91
        1
300
_TITLE
309
CELLSTYLE_END
300
CELLSTYLE
  1
TABLEFORMAT_BEGIN
 90
        5
170
     1
 91
        0
 92
        0
 62
   257
 93
        1
300
CONTENTFORMAT
  1
CONTENTFORMAT_BEGIN
 90
        0
 91
        0
 92
      512
 93
        0
300

 40
0.0
140
1.0
 94
        5
 62
     0
340
11
144
0.18
309
CONTENTFORMAT_END
171
     0
 94
        0
309
TABLEFORMAT_END
  1
CELLSTYLE_BEGIN
 90
        2
 91
        1
300
_HEADER
309
CELLSTYLE_END
300
CELLSTYLE
  1
TABLEFORMAT_BEGIN
 90
        5
170
     1
 91
        0
 92
        0
 62
   257
 93
        1
300
CONTENTFORMAT
  1
CONTENTFORMAT_BEGIN
 90
        0
 91
        0
 92
      512
 93
        0
300

 40
0.0
140
1.0
 94
        2
 62
     0
340
11
144
0.18
309
CONTENTFORMAT_END
171
     0
 94
        0
309
TABLEFORMAT_END
  1
CELLSTYLE_BEGIN
 90
        3
 91
        2
300
_DATA
309
CELLSTYLE_END
  0
ENDSEC
  0
EOF
