  0
SECTION
  2
HEADER
  9
$ACADVER
  1
AC1027
  9
$ACADMAINTVER
 70
   125
  9
$DWGCODEPAGE
  3
ANSI_1252
  9
$LASTSAVEDBY
  1
ufficio.tecnico
  9
$REQUIREDVERSIONS
160
                 0
  9
$INSBASE
 10
0.0
 20
0.0
 30
0.0
  9
$EXTMIN
 10
320.512046903379
 20
-278.9435462045339
 30
0.0
  9
$EXTMAX
 10
465.6570202828913
 20
-14.30868733366241
 30
0.0
  9
$LIMMIN
 10
0.0
 20
0.0
  9
$LIMMAX
 10
12.0
 20
9.0
  9
$ORTHOMODE
 70
     0
  9
$REGENMODE
 70
     1
  9
$FILLMODE
 70
     1
  9
$QTEXTMODE
 70
     0
  9
$MIRRTEXT
 70
     1
  9
$LTSCALE
 40
1.0
  9
$ATTMODE
 70
     1
  9
$TEXTSIZE
 40
0.2
  9
$TRACEWID
 40
0.05
  9
$TEXTSTYLE
  7
Standard
  9
$CLAYER
  8
0
  9
$CELTYPE
  6
ByLayer
  9
$CECOLOR
 62
   256
  9
$CELTSCALE
 40
1.0
  9
$DISPSILH
 70
     0
  9
$DIMSCALE
 40
1.0
  9
$DIMASZ
 40
0.18
  9
$DIMEXO
 40
0.0625
  9
$DIMDLI
 40
0.38
  9
$DIMRND
 40
0.0
  9
$DIMDLE
 40
0.0
  9
$DIMEXE
 40
0.18
  9
$DIMTP
 40
0.0
  9
$DIMTM
 40
0.0
  9
$DIMTXT
 40
0.18
  9
$DIMCEN
 40
0.09
  9
$DIMTSZ
 40
0.0
  9
$DIMTOL
 70
     0
  9
$DIMLIM
 70
     0
  9
$DIMTIH
 70
     1
  9
$DIMTOH
 70
     1
  9
$DIMSE1
 70
     0
  9
$DIMSE2
 70
     0
  9
$DIMTAD
 70
     0
  9
$DIMZIN
 70
     0
  9
$DIMBLK
  1

  9
$DIMASO
 70
     1
  9
$DIMSHO
 70
     1
  9
$DIMPOST
  1

  9
$DIMAPOST
  1

  9
$DIMALT
 70
     0
  9
$DIMALTD
 70
     2
  9
$DIMALTF
 40
25.4
  9
$DIMLFAC
 40
1.0
  9
$DIMTOFL
 70
     0
  9
$DIMTVP
 40
0.0
  9
$DIMTIX
 70
     0
  9
$DIMSOXD
 70
     0
  9
$DIMSAH
 70
     0
  9
$DIMBLK1
  1

  9
$DIMBLK2
  1

  9
$DIMSTYLE
  2
Standard
  9
$DIMCLRD
 70
     0
  9
$DIMCLRE
 70
     0
  9
$DIMCLRT
 70
     0
  9
$DIMTFAC
 40
1.0
  9
$DIMGAP
 40
0.09
  9
$DIMJUST
 70
     0
  9
$DIMSD1
 70
     0
  9
$DIMSD2
 70
     0
  9
$DIMTOLJ
 70
     1
  9
$DIMTZIN
 70
     0
  9
$DIMALTZ
 70
     0
  9
$DIMALTTZ
 70
     0
  9
$DIMUPT
 70
     0
  9
$DIMDEC
 70
     4
  9
$DIMTDEC
 70
     4
  9
$DIMALTU
 70
     2
  9
$DIMALTTD
 70
     2
  9
$DIMTXSTY
  7
Standard
  9
$DIMAUNIT
 70
     0
  9
$DIMADEC
 70
     0
  9
$DIMALTRND
 40
0.0
  9
$DIMAZIN
 70
     0
  9
$DIMDSEP
 70
    46
  9
$DIMATFIT
 70
     3
  9
$DIMFRAC
 70
     0
  9
$DIMLDRBLK
  1

  9
$DIMLUNIT
 70
     2
  9
$DIMLWD
 70
    -2
  9
$DIMLWE
 70
    -2
  9
$DIMTMOVE
 70
     0
  9
$DIMFXL
 40
1.0
  9
$DIMFXLON
 70
     0
  9
$DIMJOGANG
 40
0.7853981633974483
  9
$DIMTFILL
 70
     0
  9
$DIMTFILLCLR
 70
     0
  9
$DIMARCSYM
 70
     0
  9
$DIMLTYPE
  6

  9
$DIMLTEX1
  6

  9
$DIMLTEX2
  6

  9
$DIMTXTDIRECTION
 70
     0
  9
$LUNITS
 70
     2
  9
$LUPREC
 70
     4
  9
$SKETCHINC
 40
0.1
  9
$FILLETRAD
 40
0.5
  9
$AUNITS
 70
     0
  9
$AUPREC
 70
     0
  9
$MENU
  1
.
  9
$ELEVATION
 40
0.0
  9
$PELEVATION
 40
0.0
  9
$THICKNESS
 40
0.0
  9
$LIMCHECK
 70
     0
  9
$CHAMFERA
 40
0.5
  9
$CHAMFERB
 40
0.5
  9
$CHAMFERC
 40
1.0
  9
$CHAMFERD
 40
0.0
  9
$SKPOLY
 70
     0
  9
$TDCREATE
 40
2459325.423263889
  9
$TDUCREATE
 40
2459325.339932697
  9
$TDUPDATE
 40
2459325.447812500
  9
$TDUUPDATE
 40
2459325.364479167
  9
$TDINDWG
 40
0.0025694560
  9
$TDUSRTIMER
 40
0.0025694560
  9
$USRTIMER
 70
     1
  9
$ANGBASE
 50
0.0
  9
$ANGDIR
 70
     0
  9
$PDMODE
 70
     0
  9
$PDSIZE
 40
0.0
  9
$PLINEWID
 40
0.0
  9
$SPLFRAME
 70
     0
  9
$SPLINETYPE
 70
     6
  9
$SPLINESEGS
 70
     8
  9
$HANDSEED
  5
1E1
  9
$SURFTAB1
 70
     6
  9
$SURFTAB2
 70
     6
  9
$SURFTYPE
 70
     6
  9
$SURFU
 70
     6
  9
$SURFV
 70
     6
  9
$UCSBASE
  2

  9
$UCSNAME
  2

  9
$UCSORG
 10
0.0
 20
0.0
 30
0.0
  9
$UCSXDIR
 10
1.0
 20
0.0
 30
0.0
  9
$UCSYDIR
 10
0.0
 20
1.0
 30
0.0
  9
$UCSORTHOREF
  2

  9
$UCSORTHOVIEW
 70
     0
  9
$UCSORGTOP
 10
0.0
 20
0.0
 30
0.0
  9
$UCSORGBOTTOM
 10
0.0
 20
0.0
 30
0.0
  9
$UCSORGLEFT
 10
0.0
 20
0.0
 30
0.0
  9
$UCSORGRIGHT
 10
0.0
 20
0.0
 30
0.0
  9
$UCSORGFRONT
 10
0.0
 20
0.0
 30
0.0
  9
$UCSORGBACK
 10
0.0
 20
0.0
 30
0.0
  9
$PUCSBASE
  2

  9
$PUCSNAME
  2

  9
$PUCSORG
 10
0.0
 20
0.0
 30
0.0
  9
$PUCSXDIR
 10
1.0
 20
0.0
 30
0.0
  9
$PUCSYDIR
 10
0.0
 20
1.0
 30
0.0
  9
$PUCSORTHOREF
  2

  9
$PUCSORTHOVIEW
 70
     0
  9
$PUCSORGTOP
 10
0.0
 20
0.0
 30
0.0
  9
$PUCSORGBOTTOM
 10
0.0
 20
0.0
 30
0.0
  9
$PUCSORGLEFT
 10
0.0
 20
0.0
 30
0.0
  9
$PUCSORGRIGHT
 10
0.0
 20
0.0
 30
0.0
  9
$PUCSORGFRONT
 10
0.0
 20
0.0
 30
0.0
  9
$PUCSORGBACK
 10
0.0
 20
0.0
 30
0.0
  9
$USERI1
 70
     0
  9
$USERI2
 70
     0
  9
$USERI3
 70
     0
  9
$USERI4
 70
     0
  9
$USERI5
 70
     0
  9
$USERR1
 40
0.0
  9
$USERR2
 40
0.0
  9
$USERR3
 40
0.0
  9
$USERR4
 40
0.0
  9
$USERR5
 40
0.0
  9
$WORLDVIEW
 70
     1
  9
$SHADEDGE
 70
     3
  9
$SHADEDIF
 70
    70
  9
$TILEMODE
 70
     1
  9
$MAXACTVP
 70
    64
  9
$PINSBASE
 10
0.0
 20
0.0
 30
0.0
  9
$PLIMCHECK
 70
     0
  9
$PEXTMIN
 10
1.000000000000000E+20
 20
1.000000000000000E+20
 30
1.000000000000000E+20
  9
$PEXTMAX
 10
-1.000000000000000E+20
 20
-1.000000000000000E+20
 30
-1.000000000000000E+20
  9
$PLIMMIN
 10
0.0
 20
0.0
  9
$PLIMMAX
 10
12.0
 20
9.0
  9
$UNITMODE
 70
     0
  9
$VISRETAIN
 70
     1
  9
$PLINEGEN
 70
     0
  9
$PSLTSCALE
 70
     1
  9
$TREEDEPTH
 70
  3020
  9
$CMLSTYLE
  2
Standard
  9
$CMLJUST
 70
     0
  9
$CMLSCALE
 40
1.0
  9
$PROXYGRAPHICS
 70
     1
  9
$MEASUREMENT
 70
     0
  9
$CELWEIGHT
370
    -1
  9
$ENDCAPS
280
     0
  9
$JOINSTYLE
280
     0
  9
$LWDISPLAY
290
     1
  9
$INSUNITS
 70
     4
  9
$HYPERLINKBASE
  1

  9
$STYLESHEET
  1

  9
$XEDIT
290
     1
  9
$CEPSNTYPE
380
     0
  9
$PSTYLEMODE
290
     1
  9
$FINGERPRINTGUID
  2
{9BEFA9C3-1559-4670-A49B-ABF46BD4A66E}
  9
$VERSIONGUID
  2
{828FD904-EA05-9D44-901E-6699DF13ED9D}
  9
$EXTNAMES
290
     1
  9
$PSVPSCALE
 40
0.0
  9
$OLESTARTUP
290
     0
  9
$SORTENTS
280
   127
  9
$INDEXCTL
280
     0
  9
$HIDETEXT
280
     1
  9
$XCLIPFRAME
280
     2
  9
$HALOGAP
280
     0
  9
$OBSCOLOR
 70
   257
  9
$OBSLTYPE
280
     0
  9
$INTERSECTIONDISPLAY
280
     0
  9
$INTERSECTIONCOLOR
 70
   257
  9
$DIMASSOC
280
     2
  9
$PROJECTNAME
  1

  9
$CAMERADISPLAY
290
     0
  9
$LENSLENGTH
 40
50.0
  9
$CAMERAHEIGHT
 40
0.0
  9
$STEPSPERSEC
 40
2.0
  9
$STEPSIZE
 40
6.0
  9
$3DDWFPREC
 40
2.0
  9
$PSOLWIDTH
 40
0.25
  9
$PSOLHEIGHT
 40
4.0
  9
$LOFTANG1
 40
1.570796326794897
  9
$LOFTANG2
 40
1.570796326794897
  9
$LOFTMAG1
 40
0.0
  9
$LOFTMAG2
 40
0.0
  9
$LOFTPARAM
 70
     7
  9
$LOFTNORMALS
280
     1
  9
$LATITUDE
 40
37.795
  9
$LONGITUDE
 40
-122.394
  9
$NORTHDIRECTION
 40
0.0
  9
$TIMEZONE
 70
 -8000
  9
$LIGHTGLYPHDISPLAY
280
     1
  9
$TILEMODELIGHTSYNCH
280
     1
  9
$CMATERIAL
347
3C
  9
$SOLIDHIST
280
     1
  9
$SHOWHIST
280
     1
  9
$DWFFRAME
280
     2
  9
$DGNFRAME
280
     2
  9
$REALWORLDSCALE
290
     1
  9
$INTERFERECOLOR
 62
   256
  9
$INTERFEREOBJVS
345
33
  9
$INTERFEREVPVS
346
D5
  9
$CSHADOW
280
     0
  9
$SHADOWPLANELOCATION
 40
0.0
  0
ENDSEC
  0
SECTION
  2
CLASSES
  0
CLASS
  1
ACDBDICTIONARYWDFLT
  2
AcDbDictionaryWithDefault
  3
ObjectDBX Classes
 90
        0
 91
        1
280
     0
281
     0
  0
CLASS
  1
VISUALSTYLE
  2
AcDbVisualStyle
  3
ObjectDBX Classes
 90
     4095
 91
       26
280
     0
281
     0
  0
CLASS
  1
MATERIAL
  2
AcDbMaterial
  3
ObjectDBX Classes
 90
     1153
 91
        3
280
     0
281
     0
  0
CLASS
  1
SUN
  2
AcDbSun
  3
SCENEOE
 90
     1153
 91
        1
280
     0
281
     0
  0
CLASS
  1
TABLESTYLE
  2
AcDbTableStyle
  3
ObjectDBX Classes
 90
     4095
 91
        1
280
     0
281
     0
  0
CLASS
  1
SCALE
  2
AcDbScale
  3
ObjectDBX Classes
 90
     1153
 91
       21
280
     0
281
     0
  0
CLASS
  1
MLEADERSTYLE
  2
AcDbMLeaderStyle
  3
ACDB_MLEADERSTYLE_CLASS
 90
     4095
 91
        1
280
     0
281
     0
  0
CLASS
  1
ACDBSECTIONVIEWSTYLE
  2
AcDbSectionViewStyle
  3
ObjectDBX Classes
 90
     1025
 91
        1
280
     0
281
     0
  0
CLASS
  1
ACDBDETAILVIEWSTYLE
  2
AcDbDetailViewStyle
  3
ObjectDBX Classes
 90
     1025
 91
        1
280
     0
281
     0
  0
CLASS
  1
SORTENTSTABLE
  2
AcDbSortentsTable
  3
ObjectDBX Classes
 90
        0
 91
        1
280
     0
281
     0
  0
CLASS
  1
DICTIONARYVAR
  2
AcDbDictionaryVar
  3
ObjectDBX Classes
 90
        0
 91
        5
280
     0
281
     0
  0
CLASS
  1
CELLSTYLEMAP
  2
AcDbCellStyleMap
  3
ObjectDBX Classes
 90
     1152
 91
        1
280
     0
281
     0
  0
ENDSEC
  0
SECTION
  2
TABLES
  0
TABLE
  2
VPORT
  5
8
330
0
100
AcDbSymbolTable
 70
     1
1001
ACAD
1000
DbSaveVer
1071
      105
  0
VPORT
  5
29
330
8
100
AcDbSymbolTableRecord
100
AcDbViewportTableRecord
  2
*Active
 70
     0
 10
0.0
 20
0.0
 11
1.0
 21
1.0
 12
23.61021639525245
 22
-9.139934739446346
 13
0.0
 23
0.0
 14
0.5
 24
0.5
 15
0.5
 25
0.5
 16
0.0
 26
0.0
 36
1.0
 17
319.9999999200078
 27
-148.4999999628701
 37
0.0
 40
361.2533620580358
 41
1.823776223776223
 42
50.0
 43
0.0
 44
0.0
 50
0.0
 51
0.0
 71
     0
 72
   100
 73
     1
 74
     3
 75
     0
 76
     0
 77
     0
 78
     0
281
     0
 65
     1
110
0.0
120
0.0
130
0.0
111
1.0
121
0.0
131
0.0
112
0.0
122
1.0
132
0.0
 79
     0
146
0.0
348
2F
 60
     3
 61
     5
292
     1
282
     1
141
0.0
142
0.0
 63
   250
361
3F
1001
ACAD_NAV_VCDISPLAY
1070
     3
  0
ENDTAB
  0
TABLE
  2
LTYPE
  5
5
330
0
100
AcDbSymbolTable
 70
     1
  0
LTYPE
  5
14
330
5
100
AcDbSymbolTableRecord
100
AcDbLinetypeTableRecord
  2
ByBlock
 70
     0
  3

 72
    65
 73
     0
 40
0.0
  0
LTYPE
  5
15
330
5
100
AcDbSymbolTableRecord
100
AcDbLinetypeTableRecord
  2
ByLayer
 70
     0
  3

 72
    65
 73
     0
 40
0.0
  0
LTYPE
  5
16
330
5
100
AcDbSymbolTableRecord
100
AcDbLinetypeTableRecord
  2
Continuous
 70
     0
  3
Solid line
 72
    65
 73
     0
 40
0.0
  0
ENDTAB
  0
TABLE
  2
LAYER
  5
2
330
0
100
AcDbSymbolTable
 70
     2
  0
LAYER
  5
10
330
2
100
AcDbSymbolTableRecord
100
AcDbLayerTableRecord
  2
0
 70
     0
 62
     7
  6
Continuous
370
    -3
390
F
347
3E
348
0
  0
LAYER
  5
40
330
2
100
AcDbSymbolTableRecord
100
AcDbLayerTableRecord
  2
Livello 1
 70
     0
 62
     7
  6
Continuous
370
    -3
390
F
347
3E
348
0
  0
ENDTAB
  0
TABLE
  2
STYLE
  5
3
330
0
100
AcDbSymbolTable
 70
     1
  0
STYLE
  5
11
330
3
100
AcDbSymbolTableRecord
100
AcDbTextStyleTableRecord
  2
Standard
 70
     0
 40
0.0
 41
1.0
 50
0.0
 71
     0
 42
0.2
  3
txt
  4

  0
ENDTAB
  0
TABLE
  2
VIEW
  5
6
330
0
100
AcDbSymbolTable
 70
     0
  0
ENDTAB
  0
TABLE
  2
UCS
  5
7
330
0
100
AcDbSymbolTable
 70
     0
  0
ENDTAB
  0
TABLE
  2
APPID
  5
9
330
0
100
AcDbSymbolTable
 70
     2
  0
APPID
  5
12
330
9
100
AcDbSymbolTableRecord
100
AcDbRegAppTableRecord
  2
ACAD
 70
     0
  0
APPID
  5
1D9
330
9
100
AcDbSymbolTableRecord
100
AcDbRegAppTableRecord
  2
ACAD_NAV_VCDISPLAY
 70
     0
  0
ENDTAB
  0
TABLE
  2
DIMSTYLE
  5
A
330
0
100
AcDbSymbolTable
 70
     1
100
AcDbDimStyleTable
 71
     0
  0
DIMSTYLE
105
27
330
A
100
AcDbSymbolTableRecord
100
AcDbDimStyleTableRecord
  2
Standard
 70
     0
340
11
  0
ENDTAB
  0
TABLE
  2
BLOCK_RECORD
  5
1
330
0
100
AcDbSymbolTable
 70
     5
  0
BLOCK_RECORD
  5
1F
102
{ACAD_XDICTIONARY
360
FF
102
}
330
1
100
AcDbSymbolTableRecord
100
AcDbBlockTableRecord
  2
*Model_Space
340
22
 70
     0
280
     1
281
     0
  0
BLOCK_RECORD
  5
1B
330
1
100
AcDbSymbolTableRecord
100
AcDbBlockTableRecord
  2
*Paper_Space
340
1E
 70
     0
280
     1
281
     0
  0
BLOCK_RECORD
  5
23
330
1
100
AcDbSymbolTableRecord
100
AcDbBlockTableRecord
  2
*Paper_Space0
340
26
 70
     0
280
     1
281
     0
  0
BLOCK_RECORD
  5
A0
330
1
100
AcDbSymbolTableRecord
100
AcDbBlockTableRecord
  2
block 2
340
0
 70
     0
280
     1
281
     0
  0
BLOCK_RECORD
  5
AB
330
1
100
AcDbSymbolTableRecord
100
AcDbBlockTableRecord
  2
block 3
340
0
 70
     0
280
     1
281
     0
  0
BLOCK_RECORD
  5
B5
330
1
100
AcDbSymbolTableRecord
100
AcDbBlockTableRecord
  2
block 4
340
0
 70
     0
280
     1
281
     0
  0
BLOCK_RECORD
  5
BE
330
1
100
AcDbSymbolTableRecord
100
AcDbBlockTableRecord
  2
block 5
340
0
 70
     0
280
     1
281
     0
  0
ENDTAB
  0
ENDSEC
  0
SECTION
  2
BLOCKS
  0
BLOCK
  5
20
330
1F
100
AcDbEntity
  8
0
100
AcDbBlockBegin
  2
*Model_Space
 70
     0
 10
0.0
 20
0.0
 30
0.0
  3
*Model_Space
  1

  0
ENDBLK
  5
21
330
1F
100
AcDbEntity
  8
0
100
AcDbBlockEnd
  0
BLOCK
  5
1C
330
1B
100
AcDbEntity
 67
     1
  8
0
100
AcDbBlockBegin
  2
*Paper_Space
 70
     0
 10
0.0
 20
0.0
 30
0.0
  3
*Paper_Space
  1

  0
ENDBLK
  5
1D
330
1B
100
AcDbEntity
 67
     1
  8
0
100
AcDbBlockEnd
  0
BLOCK
  5
24
330
23
100
AcDbEntity
 67
     1
  8
0
100
AcDbBlockBegin
  2
*Paper_Space0
 70
     0
 10
0.0
 20
0.0
 30
0.0
  3
*Paper_Space0
  1

  0
ENDBLK
  5
25
330
23
100
AcDbEntity
 67
     1
  8
0
100
AcDbBlockEnd
  0
BLOCK
  5
A2
330
A0
100
AcDbEntity
  8
0
100
AcDbBlockBegin
  2
block 2
 70
     0
 10
0.0
 20
0.0
 30
0.0
  3
block 2
  1

  0
SPLINE
  5
A4
330
A0
100
AcDbEntity
  8
Livello 1
370
     0
100
AcDbSpline
210
0.0
220
0.0
230
1.0
 70
    11
 71
     3
 72
    47
 73
    43
 74
     0
 42
0.000000001
 43
0.0000000001
 40
0.0
 40
0.0
 40
0.0
 40
0.0
 40
1.0
 40
1.0
 40
1.0
 40
2.0
 40
2.0
 40
2.0
 40
3.0
 40
3.0
 40
3.0
 40
4.0
 40
4.0
 40
4.0
 40
5.0
 40
5.0
 40
5.0
 40
6.0
 40
6.0
 40
6.0
 40
7.0
 40
7.0
 40
7.0
 40
8.0
 40
8.0
 40
8.0
 40
9.0
 40
9.0
 40
9.0
 40
10.0
 40
10.0
 40
10.0
 40
11.0
 40
11.0
 40
11.0
 40
12.0
 40
12.0
 40
12.0
 40
13.0
 40
13.0
 40
13.0
 40
14.0
 40
14.0
 40
14.0
 40
14.0
 10
459.6687553104301
 20
-85.72172713785775
 30
0.0
 10
459.6687553104301
 20
-85.72172713785775
 30
0.0
 10
458.9831813088652
 20
-85.72172713785775
 30
0.0
 10
458.9831813088652
 20
-85.72172713785775
 30
0.0
 10
458.9831813088652
 20
-85.72172713785775
 30
0.0
 10
458.1322427240086
 20
-84.84546710118447
 30
0.0
 10
458.1322427240086
 20
-84.84546710118447
 30
0.0
 10
456.1258191133991
 20
-82.73758542853435
 30
0.0
 10
455.0592175511658
 20
-81.78518878163705
 30
0.0
 10
453.8148490618935
 20
-81.77244192834162
 30
0.0
 10
452.9766573303323
 20
-81.77244192834162
 30
0.0
 10
452.2021998652481
 20
-82.17879094082682
 30
0.0
 10
452.2021998652481
 20
-83.41058483157791
 30
0.0
 10
452.2021998652481
 20
-84.1597208448455
 30
0.0
 10
452.5832274259166
 20
-84.78190508948161
 30
0.0
 10
452.9005207201081
 20
-85.16293265015024
 30
0.0
 10
452.9005207201081
 20
-85.16293265015024
 30
0.0
 10
452.1133164017285
 20
-85.51846650422803
 30
0.0
 10
452.1133164017285
 20
-85.51846650422803
 30
0.0
 10
451.6306585242451
 20
-84.94709741799935
 30
0.0
 10
451.2751246701673
 20
-84.13439939302891
 30
0.0
 10
451.2751246701673
 20
-83.18200274613159
 30
0.0
 10
451.2751246701673
 20
-81.40416122096841
 30
0.0
 10
452.4943439623973
 20
-80.65502520770083
 30
0.0
 10
453.6753226947409
 20
-80.65502520770083
 30
0.0
 10
455.1990884278668
 20
-80.65502520770083
 30
0.0
 10
456.4307100638436
 20
-81.75969507504621
 30
0.0
 10
458.1070935269663
 20
-83.49946829509736
 30
0.0
 10
458.1070935269663
 20
-83.49946829509736
 30
0.0
 10
458.716530918307
 20
-84.1597208448455
 30
0.0
 10
458.716530918307
 20
-84.1597208448455
 30
0.0
 10
458.716530918307
 20
-84.1597208448455
 30
0.0
 10
458.7420246248978
 20
-84.1597208448455
 30
0.0
 10
458.7420246248978
 20
-84.1597208448455
 30
0.0
 10
458.7420246248978
 20
-84.1597208448455
 30
0.0
 10
458.7420246248978
 20
-80.45176457407109
 30
0.0
 10
458.7420246248978
 20
-80.45176457407109
 30
0.0
 10
458.7420246248978
 20
-80.45176457407109
 30
0.0
 10
459.6687553104301
 20
-80.45176457407109
 30
0.0
 10
459.6687553104301
 20
-80.45176457407109
 30
0.0
 10
459.6687553104301
 20
-80.45176457407109
 30
0.0
 10
459.6687553104301
 20
-85.72172713785775
 30
0.0
 10
459.6687553104301
 20
-85.72172713785775
 30
0.0
  0
HATCH
  5
A5
330
A0
100
AcDbEntity
  8
Livello 1
 62
   250
420
  1842203
100
AcDbHatch
 10
0.0
 20
0.0
 30
0.0
210
0.0
220
0.0
230
1.0
  2
SOLID
 70
     1
 71
     0
 91
        1
 92
        1
 93
        1
 72
     4
 94
        3
 73
     0
 74
     0
 95
       47
 96
       43
 40
0.0
 40
0.0
 40
0.0
 40
0.0
 40
1.0
 40
1.0
 40
1.0
 40
2.0
 40
2.0
 40
2.0
 40
3.0
 40
3.0
 40
3.0
 40
4.0
 40
4.0
 40
4.0
 40
5.0
 40
5.0
 40
5.0
 40
6.0
 40
6.0
 40
6.0
 40
7.0
 40
7.0
 40
7.0
 40
8.0
 40
8.0
 40
8.0
 40
9.0
 40
9.0
 40
9.0
 40
10.0
 40
10.0
 40
10.0
 40
11.0
 40
11.0
 40
11.0
 40
12.0
 40
12.0
 40
12.0
 40
13.0
 40
13.0
 40
13.0
 40
14.0
 40
14.0
 40
14.0
 40
14.0
 10
459.6687553104301
 20
-85.72172713785775
 10
459.6687553104301
 20
-85.72172713785775
 10
458.9831813088652
 20
-85.72172713785775
 10
458.9831813088652
 20
-85.72172713785775
 10
458.9831813088652
 20
-85.72172713785775
 10
458.1322427240086
 20
-84.84546710118447
 10
458.1322427240086
 20
-84.84546710118447
 10
456.1258191133991
 20
-82.73758542853435
 10
455.0592175511658
 20
-81.78518878163705
 10
453.8148490618935
 20
-81.77244192834162
 10
452.9766573303323
 20
-81.77244192834162
 10
452.2021998652481
 20
-82.17879094082682
 10
452.2021998652481
 20
-83.41058483157791
 10
452.2021998652481
 20
-84.1597208448455
 10
452.5832274259166
 20
-84.78190508948161
 10
452.9005207201081
 20
-85.16293265015024
 10
452.9005207201081
 20
-85.16293265015024
 10
452.1133164017285
 20
-85.51846650422803
 10
452.1133164017285
 20
-85.51846650422803
 10
451.6306585242451
 20
-84.94709741799935
 10
451.2751246701673
 20
-84.13439939302891
 10
451.2751246701673
 20
-83.18200274613159
 10
451.2751246701673
 20
-81.40416122096841
 10
452.4943439623973
 20
-80.65502520770083
 10
453.6753226947409
 20
-80.65502520770083
 10
455.1990884278668
 20
-80.65502520770083
 10
456.4307100638436
 20
-81.75969507504621
 10
458.1070935269663
 20
-83.49946829509736
 10
458.1070935269663
 20
-83.49946829509736
 10
458.716530918307
 20
-84.1597208448455
 10
458.716530918307
 20
-84.1597208448455
 10
458.716530918307
 20
-84.1597208448455
 10
458.7420246248978
 20
-84.1597208448455
 10
458.7420246248978
 20
-84.1597208448455
 10
458.7420246248978
 20
-84.1597208448455
 10
458.7420246248978
 20
-80.45176457407109
 10
458.7420246248978
 20
-80.45176457407109
 10
458.7420246248978
 20
-80.45176457407109
 10
459.6687553104301
 20
-80.45176457407109
 10
459.6687553104301
 20
-80.45176457407109
 10
459.6687553104301
 20
-80.45176457407109
 10
459.6687553104301
 20
-85.72172713785775
 10
459.6687553104301
 20
-85.72172713785775
 97
        0
 97
        0
 75
     2
 76
     1
 98
        0
450
        0
451
        0
460
0.0
461
0.0
452
        0
462
0.0
453
        0
470

  0
SPLINE
  5
A6
330
A0
100
AcDbEntity
  8
Livello 1
370
     0
100
AcDbSpline
210
0.0
220
0.0
230
1.0
 70
     9
 71
     3
 72
    17
 73
    13
 74
     0
 42
0.000000001
 43
0.0000000001
 40
0.0
 40
0.0
 40
0.0
 40
0.0
 40
1.0
 40
1.0
 40
1.0
 40
2.0
 40
2.0
 40
2.0
 40
3.0
 40
3.0
 40
3.0
 40
4.0
 40
4.0
 40
4.0
 40
4.0
 10
455.4529919651298
 20
-73.72108152453849
 30
0.0
 10
458.2593667474143
 20
-73.72108152453849
 30
0.0
 10
459.8086261871312
 20
-74.76236163495524
 30
0.0
 10
459.8086261871312
 20
-76.59101831852585
 30
0.0
 10
459.8086261871312
 20
-78.20366751517131
 30
0.0
 10
458.2972627977521
 20
-79.29576278399551
 30
0.0
 10
455.56736913524
 20
-79.32108423581209
 30
0.0
 10
452.7988904032932
 20
-79.32108423581209
 30
0.0
 10
451.2751246701673
 20
-78.1275309049473
 30
0.0
 10
451.2751246701673
 20
-76.45131969659897
 30
0.0
 10
451.2751246701673
 20
-74.71154647654781
 30
0.0
 10
452.8243841098841
 20
-73.72108152453849
 30
0.0
 10
455.4529919651298
 20
-73.72108152453849
 30
0.0
  0
SPLINE
  5
A7
330
A0
100
AcDbEntity
  8
Livello 1
370
     0
100
AcDbSpline
210
0.0
220
0.0
230
1.0
 70
     9
 71
     3
 72
    17
 73
    13
 74
     0
 42
0.000000001
 43
0.0000000001
 40
0.0
 40
0.0
 40
0.0
 40
0.0
 40
1.0
 40
1.0
 40
1.0
 40
2.0
 40
2.0
 40
2.0
 40
3.0
 40
3.0
 40
3.0
 40
4.0
 40
4.0
 40
4.0
 40
4.0
 10
455.5801159885356
 20
-78.20366751517131
 30
0.0
 10
457.7260659662977
 20
-78.20366751517131
 30
0.0
 10
458.944940748979
 20
-77.54324271064891
 30
0.0
 10
458.944940748979
 20
-76.527456306823
 30
0.0
 10
458.944940748979
 20
-75.38454587959138
 30
0.0
 10
457.6116887961873
 20
-74.83849824517927
 30
0.0
 10
455.5036348687629
 20
-74.83849824517927
 30
0.0
 10
453.4720620611111
 20
-74.83849824517927
 30
0.0
 10
452.1388101083195
 20
-75.35922442777478
 30
0.0
 10
452.1388101083195
 20
-76.51470945352755
 30
0.0
 10
452.1388101083195
 20
-77.49259980701573
 30
0.0
 10
453.3321911844099
 20
-78.20366751517131
 30
0.0
 10
455.5801159885356
 20
-78.20366751517131
 30
0.0
  0
HATCH
  5
A8
330
A0
100
AcDbEntity
  8
Livello 1
 62
   250
420
  1842203
100
AcDbHatch
 10
0.0
 20
0.0
 30
0.0
210
0.0
220
0.0
230
1.0
  2
SOLID
 70
     1
 71
     0
 91
        2
 92
        1
 93
        1
 72
     4
 94
        3
 73
     0
 74
     0
 95
       17
 96
       13
 40
0.0
 40
0.0
 40
0.0
 40
0.0
 40
1.0
 40
1.0
 40
1.0
 40
2.0
 40
2.0
 40
2.0
 40
3.0
 40
3.0
 40
3.0
 40
4.0
 40
4.0
 40
4.0
 40
4.0
 10
455.4529919651298
 20
-73.72108152453849
 10
458.2593667474143
 20
-73.72108152453849
 10
459.8086261871312
 20
-74.76236163495524
 10
459.8086261871312
 20
-76.59101831852585
 10
459.8086261871312
 20
-78.20366751517131
 10
458.2972627977521
 20
-79.29576278399551
 10
455.56736913524
 20
-79.32108423581209
 10
452.7988904032932
 20
-79.32108423581209
 10
451.2751246701673
 20
-78.1275309049473
 10
451.2751246701673
 20
-76.45131969659897
 10
451.2751246701673
 20
-74.71154647654781
 10
452.8243841098841
 20
-73.72108152453849
 10
455.4529919651298
 20
-73.72108152453849
 97
        0
 97
        0
 92
        1
 93
        1
 72
     4
 94
        3
 73
     0
 74
     0
 95
       17
 96
       13
 40
0.0
 40
0.0
 40
0.0
 40
0.0
 40
1.0
 40
1.0
 40
1.0
 40
2.0
 40
2.0
 40
2.0
 40
3.0
 40
3.0
 40
3.0
 40
4.0
 40
4.0
 40
4.0
 40
4.0
 10
455.5801159885356
 20
-78.20366751517131
 10
457.7260659662977
 20
-78.20366751517131
 10
458.944940748979
 20
-77.54324271064891
 10
458.944940748979
 20
-76.527456306823
 10
458.944940748979
 20
-75.38454587959138
 10
457.6116887961873
 20
-74.83849824517927
 10
455.5036348687629
 20
-74.83849824517927
 10
453.4720620611111
 20
-74.83849824517927
 10
452.1388101083195
 20
-75.35922442777478
 10
452.1388101083195
 20
-76.51470945352755
 10
452.1388101083195
 20
-77.49259980701573
 10
453.3321911844099
 20
-78.20366751517131
 10
455.5801159885356
 20
-78.20366751517131
 97
        0
 97
        0
 75
     2
 76
     1
 98
        0
450
        0
451
        0
460
0.0
461
0.0
452
        0
462
0.0
453
        0
470

  0
SPLINE
  5
A9
330
A0
100
AcDbEntity
  8
Livello 1
370
     0
100
AcDbSpline
210
0.0
220
0.0
230
1.0
 70
    11
 71
     3
 72
    50
 73
    46
 74
     0
 42
0.000000001
 43
0.0000000001
 40
0.0
 40
0.0
 40
0.0
 40
0.0
 40
1.0
 40
1.0
 40
1.0
 40
2.0
 40
2.0
 40
2.0
 40
3.0
 40
3.0
 40
3.0
 40
4.0
 40
4.0
 40
4.0
 40
5.0
 40
5.0
 40
5.0
 40
6.0
 40
6.0
 40
6.0
 40
7.0
 40
7.0
 40
7.0
 40
8.0
 40
8.0
 40
8.0
 40
9.0
 40
9.0
 40
9.0
 40
10.0
 40
10.0
 40
10.0
 40
11.0
 40
11.0
 40
11.0
 40
12.0
 40
12.0
 40
12.0
 40
13.0
 40
13.0
 40
13.0
 40
14.0
 40
14.0
 40
14.0
 40
15.0
 40
15.0
 40
15.0
 40
15.0
 10
452.354473085696
 20
-67.76485594009002
 30
0.0
 10
452.354473085696
 20
-67.76485594009002
 30
0.0
 10
452.354473085696
 20
-70.91401772315691
 30
0.0
 10
452.354473085696
 20
-70.91401772315691
 30
0.0
 10
452.354473085696
 20
-70.91401772315691
 30
0.0
 10
454.4752738664159
 20
-71.23148327212269
 30
0.0
 10
454.4752738664159
 20
-71.23148327212269
 30
0.0
 10
454.4497801598251
 20
-71.04096949178837
 30
0.0
 10
454.4242864532342
 20
-70.86320256474948
 30
0.0
 10
454.4242864532342
 20
-70.55848386907912
 30
0.0
 10
454.4242864532342
 20
-69.92355277114757
 30
0.0
 10
454.5641573299353
 20
-69.28862167321604
 30
0.0
 10
454.8687037708315
 20
-68.78064234391596
 30
0.0
 10
455.2369844782046
 20
-68.13313664746324
 30
0.0
 10
455.9480521863603
 20
-67.59966361157231
 30
0.0
 10
456.9895045515512
 20
-67.59966361157231
 30
0.0
 10
458.6021537481967
 20
-67.59966361157231
 30
0.0
 10
459.8086261871312
 20
-68.88227266073082
 30
0.0
 10
459.8086261871312
 20
-70.67268878441516
 30
0.0
 10
459.8086261871312
 20
-71.57427027290504
 30
0.0
 10
459.5547226498683
 20
-72.33632539424231
 30
0.0
 10
459.3004746030567
 20
-72.72992755343209
 30
0.0
 10
459.3004746030567
 20
-72.72992755343209
 30
0.0
 10
458.4498805277487
 20
-72.45053030957834
 30
0.0
 10
458.4498805277487
 20
-72.45053030957834
 30
0.0
 10
458.6531411613783
 20
-72.10774330879599
 30
0.0
 10
458.9070446986412
 20
-71.43474390575244
 30
0.0
 10
458.9070446986412
 20
-70.68543563771058
 30
0.0
 10
458.9070446986412
 20
-69.6314086739984
 30
0.0
 10
458.2211261875281
 20
-68.72982718550851
 30
0.0
 10
457.1166285749569
 20
-68.72982718550851
 30
0.0
 10
456.0496825031751
 20
-68.74257403880394
 30
0.0
 10
455.2879718913863
 20
-69.45364174695949
 30
0.0
 10
455.2879718913863
 20
-71.10453150349123
 30
0.0
 10
455.2879718913863
 20
-71.57427027290504
 30
0.0
 10
455.3386147950194
 20
-71.94255098027827
 30
0.0
 10
455.3768553549057
 20
-72.24744193072287
 30
0.0
 10
455.3768553549057
 20
-72.24744193072287
 30
0.0
 10
451.4149955468685
 20
-71.71396889483192
 30
0.0
 10
451.4149955468685
 20
-71.71396889483192
 30
0.0
 10
451.4149955468685
 20
-71.71396889483192
 30
0.0
 10
451.4149955468685
 20
-67.76485594009002
 30
0.0
 10
451.4149955468685
 20
-67.76485594009002
 30
0.0
 10
451.4149955468685
 20
-67.76485594009002
 30
0.0
 10
452.354473085696
 20
-67.76485594009002
 30
0.0
 10
452.354473085696
 20
-67.76485594009002
 30
0.0
  0
HATCH
  5
AA
330
A0
100
AcDbEntity
  8
Livello 1
 62
   250
420
  1842203
100
AcDbHatch
 10
0.0
 20
0.0
 30
0.0
210
0.0
220
0.0
230
1.0
  2
SOLID
 70
     1
 71
     0
 91
        1
 92
        1
 93
        1
 72
     4
 94
        3
 73
     0
 74
     0
 95
       50
 96
       46
 40
0.0
 40
0.0
 40
0.0
 40
0.0
 40
1.0
 40
1.0
 40
1.0
 40
2.0
 40
2.0
 40
2.0
 40
3.0
 40
3.0
 40
3.0
 40
4.0
 40
4.0
 40
4.0
 40
5.0
 40
5.0
 40
5.0
 40
6.0
 40
6.0
 40
6.0
 40
7.0
 40
7.0
 40
7.0
 40
8.0
 40
8.0
 40
8.0
 40
9.0
 40
9.0
 40
9.0
 40
10.0
 40
10.0
 40
10.0
 40
11.0
 40
11.0
 40
11.0
 40
12.0
 40
12.0
 40
12.0
 40
13.0
 40
13.0
 40
13.0
 40
14.0
 40
14.0
 40
14.0
 40
15.0
 40
15.0
 40
15.0
 40
15.0
 10
452.354473085696
 20
-67.76485594009002
 10
452.354473085696
 20
-67.76485594009002
 10
452.354473085696
 20
-70.91401772315691
 10
452.354473085696
 20
-70.91401772315691
 10
452.354473085696
 20
-70.91401772315691
 10
454.4752738664159
 20
-71.23148327212269
 10
454.4752738664159
 20
-71.23148327212269
 10
454.4497801598251
 20
-71.04096949178837
 10
454.4242864532342
 20
-70.86320256474948
 10
454.4242864532342
 20
-70.55848386907912
 10
454.4242864532342
 20
-69.92355277114757
 10
454.5641573299353
 20
-69.28862167321604
 10
454.8687037708315
 20
-68.78064234391596
 10
455.2369844782046
 20
-68.13313664746324
 10
455.9480521863603
 20
-67.59966361157231
 10
456.9895045515512
 20
-67.59966361157231
 10
458.6021537481967
 20
-67.59966361157231
 10
459.8086261871312
 20
-68.88227266073082
 10
459.8086261871312
 20
-70.67268878441516
 10
459.8086261871312
 20
-71.57427027290504
 10
459.5547226498683
 20
-72.33632539424231
 10
459.3004746030567
 20
-72.72992755343209
 10
459.3004746030567
 20
-72.72992755343209
 10
458.4498805277487
 20
-72.45053030957834
 10
458.4498805277487
 20
-72.45053030957834
 10
458.6531411613783
 20
-72.10774330879599
 10
458.9070446986412
 20
-71.43474390575244
 10
458.9070446986412
 20
-70.68543563771058
 10
458.9070446986412
 20
-69.6314086739984
 10
458.2211261875281
 20
-68.72982718550851
 10
457.1166285749569
 20
-68.72982718550851
 10
456.0496825031751
 20
-68.74257403880394
 10
455.2879718913863
 20
-69.45364174695949
 10
455.2879718913863
 20
-71.10453150349123
 10
455.2879718913863
 20
-71.57427027290504
 10
455.3386147950194
 20
-71.94255098027827
 10
455.3768553549057
 20
-72.24744193072287
 10
455.3768553549057
 20
-72.24744193072287
 10
451.4149955468685
 20
-71.71396889483192
 10
451.4149955468685
 20
-71.71396889483192
 10
451.4149955468685
 20
-71.71396889483192
 10
451.4149955468685
 20
-67.76485594009002
 10
451.4149955468685
 20
-67.76485594009002
 10
451.4149955468685
 20
-67.76485594009002
 10
452.354473085696
 20
-67.76485594009002
 10
452.354473085696
 20
-67.76485594009002
 97
        0
 97
        0
 75
     2
 76
     1
 98
        0
450
        0
451
        0
460
0.0
461
0.0
452
        0
462
0.0
453
        0
470

  0
ENDBLK
  5
A3
330
A0
100
AcDbEntity
  8
0
100
AcDbBlockEnd
  0
BLOCK
  5
AD
330
AB
100
AcDbEntity
  8
0
100
AcDbBlockBegin
  2
block 3
 70
     0
 10
0.0
 20
0.0
 30
0.0
  3
block 3
  1

  0
SPLINE
  5
AF
330
AB
100
AcDbEntity
  8
Livello 1
370
     0
100
AcDbSpline
210
0.0
220
0.0
230
1.0
 70
    11
 71
     3
 72
    47
 73
    43
 74
     0
 42
0.000000001
 43
0.0000000001
 40
0.0
 40
0.0
 40
0.0
 40
0.0
 40
1.0
 40
1.0
 40
1.0
 40
2.0
 40
2.0
 40
2.0
 40
3.0
 40
3.0
 40
3.0
 40
4.0
 40
4.0
 40
4.0
 40
5.0
 40
5.0
 40
5.0
 40
6.0
 40
6.0
 40
6.0
 40
7.0
 40
7.0
 40
7.0
 40
8.0
 40
8.0
 40
8.0
 40
9.0
 40
9.0
 40
9.0
 40
10.0
 40
10.0
 40
10.0
 40
11.0
 40
11.0
 40
11.0
 40
12.0
 40
12.0
 40
12.0
 40
13.0
 40
13.0
 40
13.0
 40
14.0
 40
14.0
 40
14.0
 40
14.0
 10
328.9056775436417
 20
-147.9287827863685
 30
0.0
 10
328.9056775436417
 20
-147.9287827863685
 30
0.0
 10
328.2201035420769
 20
-147.9287827863685
 30
0.0
 10
328.2201035420769
 20
-147.9287827863685
 30
0.0
 10
328.2201035420769
 20
-147.9287827863685
 30
0.0
 10
327.3691649572202
 20
-147.0525227496952
 30
0.0
 10
327.3691649572202
 20
-147.0525227496952
 30
0.0
 10
325.3627413466107
 20
-144.9446410770451
 30
0.0
 10
324.2961397843774
 20
-143.9922444301478
 30
0.0
 10
323.0517712951051
 20
-143.9794975768524
 30
0.0
 10
322.2135795635438
 20
-143.9794975768524
 30
0.0
 10
321.4391220984597
 20
-144.3858465893376
 30
0.0
 10
321.4391220984597
 20
-145.6176404800887
 30
0.0
 10
321.4391220984597
 20
-146.3667764933562
 30
0.0
 10
321.8201496591283
 20
-146.9889607379924
 30
0.0
 10
322.1374429533198
 20
-147.369988298661
 30
0.0
 10
322.1374429533198
 20
-147.369988298661
 30
0.0
 10
321.3502386349402
 20
-147.7255221527388
 30
0.0
 10
321.3502386349402
 20
-147.7255221527388
 30
0.0
 10
320.8675807574567
 20
-147.15415306651
 30
0.0
 10
320.512046903379
 20
-146.3414550415396
 30
0.0
 10
320.512046903379
 20
-145.3890583946423
 30
0.0
 10
320.512046903379
 20
-143.6112168694791
 30
0.0
 10
321.7312661956088
 20
-142.8620808562115
 30
0.0
 10
322.9122449279525
 20
-142.8620808562115
 30
0.0
 10
324.4360106610785
 20
-142.8620808562115
 30
0.0
 10
325.6676322970553
 20
-143.9667507235569
 30
0.0
 10
327.3440157601779
 20
-145.7065239436081
 30
0.0
 10
327.3440157601779
 20
-145.7065239436081
 30
0.0
 10
327.9534531515186
 20
-146.3667764933562
 30
0.0
 10
327.9534531515186
 20
-146.3667764933562
 30
0.0
 10
327.9534531515186
 20
-146.3667764933562
 30
0.0
 10
327.9789468581095
 20
-146.3667764933562
 30
0.0
 10
327.9789468581095
 20
-146.3667764933562
 30
0.0
 10
327.9789468581095
 20
-146.3667764933562
 30
0.0
 10
327.9789468581095
 20
-142.6588202225818
 30
0.0
 10
327.9789468581095
 20
-142.6588202225818
 30
0.0
 10
327.9789468581095
 20
-142.6588202225818
 30
0.0
 10
328.9056775436417
 20
-142.6588202225818
 30
0.0
 10
328.9056775436417
 20
-142.6588202225818
 30
0.0
 10
328.9056775436417
 20
-142.6588202225818
 30
0.0
 10
328.9056775436417
 20
-147.9287827863685
 30
0.0
 10
328.9056775436417
 20
-147.9287827863685
 30
0.0
  0
HATCH
  5
B0
330
AB
100
AcDbEntity
  8
Livello 1
 62
   250
420
  1842203
100
AcDbHatch
 10
0.0
 20
0.0
 30
0.0
210
0.0
220
0.0
230
1.0
  2
SOLID
 70
     1
 71
     0
 91
        1
 92
        1
 93
        1
 72
     4
 94
        3
 73
     0
 74
     0
 95
       47
 96
       43
 40
0.0
 40
0.0
 40
0.0
 40
0.0
 40
1.0
 40
1.0
 40
1.0
 40
2.0
 40
2.0
 40
2.0
 40
3.0
 40
3.0
 40
3.0
 40
4.0
 40
4.0
 40
4.0
 40
5.0
 40
5.0
 40
5.0
 40
6.0
 40
6.0
 40
6.0
 40
7.0
 40
7.0
 40
7.0
 40
8.0
 40
8.0
 40
8.0
 40
9.0
 40
9.0
 40
9.0
 40
10.0
 40
10.0
 40
10.0
 40
11.0
 40
11.0
 40
11.0
 40
12.0
 40
12.0
 40
12.0
 40
13.0
 40
13.0
 40
13.0
 40
14.0
 40
14.0
 40
14.0
 40
14.0
 10
328.9056775436417
 20
-147.9287827863685
 10
328.9056775436417
 20
-147.9287827863685
 10
328.2201035420769
 20
-147.9287827863685
 10
328.2201035420769
 20
-147.9287827863685
 10
328.2201035420769
 20
-147.9287827863685
 10
327.3691649572202
 20
-147.0525227496952
 10
327.3691649572202
 20
-147.0525227496952
 10
325.3627413466107
 20
-144.9446410770451
 10
324.2961397843774
 20
-143.9922444301478
 10
323.0517712951051
 20
-143.9794975768524
 10
322.2135795635438
 20
-143.9794975768524
 10
321.4391220984597
 20
-144.3858465893376
 10
321.4391220984597
 20
-145.6176404800887
 10
321.4391220984597
 20
-146.3667764933562
 10
321.8201496591283
 20
-146.9889607379924
 10
322.1374429533198
 20
-147.369988298661
 10
322.1374429533198
 20
-147.369988298661
 10
321.3502386349402
 20
-147.7255221527388
 10
321.3502386349402
 20
-147.7255221527388
 10
320.8675807574567
 20
-147.15415306651
 10
320.512046903379
 20
-146.3414550415396
 10
320.512046903379
 20
-145.3890583946423
 10
320.512046903379
 20
-143.6112168694791
 10
321.7312661956088
 20
-142.8620808562115
 10
322.9122449279525
 20
-142.8620808562115
 10
324.4360106610785
 20
-142.8620808562115
 10
325.6676322970553
 20
-143.9667507235569
 10
327.3440157601779
 20
-145.7065239436081
 10
327.3440157601779
 20
-145.7065239436081
 10
327.9534531515186
 20
-146.3667764933562
 10
327.9534531515186
 20
-146.3667764933562
 10
327.9534531515186
 20
-146.3667764933562
 10
327.9789468581095
 20
-146.3667764933562
 10
327.9789468581095
 20
-146.3667764933562
 10
327.9789468581095
 20
-146.3667764933562
 10
327.9789468581095
 20
-142.6588202225818
 10
327.9789468581095
 20
-142.6588202225818
 10
327.9789468581095
 20
-142.6588202225818
 10
328.9056775436417
 20
-142.6588202225818
 10
328.9056775436417
 20
-142.6588202225818
 10
328.9056775436417
 20
-142.6588202225818
 10
328.9056775436417
 20
-147.9287827863685
 10
328.9056775436417
 20
-147.9287827863685
 97
        0
 97
        0
 75
     2
 76
     1
 98
        0
450
        0
451
        0
460
0.0
461
0.0
452
        0
462
0.0
453
        0
470

  0
SPLINE
  5
B1
330
AB
100
AcDbEntity
  8
Livello 1
370
     0
100
AcDbSpline
210
0.0
220
0.0
230
1.0
 70
     9
 71
     3
 72
    17
 73
    13
 74
     0
 42
0.000000001
 43
0.0000000001
 40
0.0
 40
0.0
 40
0.0
 40
0.0
 40
1.0
 40
1.0
 40
1.0
 40
2.0
 40
2.0
 40
2.0
 40
3.0
 40
3.0
 40
3.0
 40
4.0
 40
4.0
 40
4.0
 40
4.0
 10
330.4676838366539
 20
-141.78221567636
 30
0.0
 10
329.7183755686122
 20
-141.5028184325062
 30
0.0
 10
328.3596299092296
 20
-141.1598591769496
 30
0.0
 10
327.4328992236973
 20
-141.0201605550228
 30
0.0
 10
327.4328992236973
 20
-141.0201605550228
 30
0.0
 10
327.3057752002916
 20
-139.7757920657505
 30
0.0
 10
327.3057752002916
 20
-139.7757920657505
 30
0.0
 10
328.3851236158203
 20
-140.0677639081254
 30
0.0
 10
329.7945121788361
 20
-140.6265583958329
 30
0.0
 10
330.3915472264299
 20
-140.9820922499107
 30
0.0
 10
330.3915472264299
 20
-140.9820922499107
 30
0.0
 10
330.4676838366539
 20
-141.78221567636
 30
0.0
 10
330.4676838366539
 20
-141.78221567636
 30
0.0
  0
HATCH
  5
B2
330
AB
100
AcDbEntity
  8
Livello 1
 62
   250
420
  1842203
100
AcDbHatch
 10
0.0
 20
0.0
 30
0.0
210
0.0
220
0.0
230
1.0
  2
SOLID
 70
     1
 71
     0
 91
        1
 92
        1
 93
        1
 72
     4
 94
        3
 73
     0
 74
     0
 95
       17
 96
       13
 40
0.0
 40
0.0
 40
0.0
 40
0.0
 40
1.0
 40
1.0
 40
1.0
 40
2.0
 40
2.0
 40
2.0
 40
3.0
 40
3.0
 40
3.0
 40
4.0
 40
4.0
 40
4.0
 40
4.0
 10
330.4676838366539
 20
-141.78221567636
 10
329.7183755686122
 20
-141.5028184325062
 10
328.3596299092296
 20
-141.1598591769496
 10
327.4328992236973
 20
-141.0201605550228
 10
327.4328992236973
 20
-141.0201605550228
 10
327.3057752002916
 20
-139.7757920657505
 10
327.3057752002916
 20
-139.7757920657505
 10
328.3851236158203
 20
-140.0677639081254
 10
329.7945121788361
 20
-140.6265583958329
 10
330.3915472264299
 20
-140.9820922499107
 10
330.3915472264299
 20
-140.9820922499107
 10
330.4676838366539
 20
-141.78221567636
 10
330.4676838366539
 20
-141.78221567636
 97
        0
 97
        0
 75
     2
 76
     1
 98
        0
450
        0
451
        0
460
0.0
461
0.0
452
        0
462
0.0
453
        0
470

  0
SPLINE
  5
B3
330
AB
100
AcDbEntity
  8
Livello 1
370
     0
100
AcDbSpline
210
0.0
220
0.0
230
1.0
 70
    11
 71
     3
 72
    50
 73
    46
 74
     0
 42
0.000000001
 43
0.0000000001
 40
0.0
 40
0.0
 40
0.0
 40
0.0
 40
1.0
 40
1.0
 40
1.0
 40
2.0
 40
2.0
 40
2.0
 40
3.0
 40
3.0
 40
3.0
 40
4.0
 40
4.0
 40
4.0
 40
5.0
 40
5.0
 40
5.0
 40
6.0
 40
6.0
 40
6.0
 40
7.0
 40
7.0
 40
7.0
 40
8.0
 40
8.0
 40
8.0
 40
9.0
 40
9.0
 40
9.0
 40
10.0
 40
10.0
 40
10.0
 40
11.0
 40
11.0
 40
11.0
 40
12.0
 40
12.0
 40
12.0
 40
13.0
 40
13.0
 40
13.0
 40
14.0
 40
14.0
 40
14.0
 40
15.0
 40
15.0
 40
15.0
 40
15.0
 10
321.5913953189077
 20
-133.8581515507369
 30
0.0
 10
321.5913953189077
 20
-133.8581515507369
 30
0.0
 10
321.5913953189077
 20
-137.0073133338037
 30
0.0
 10
321.5913953189077
 20
-137.0073133338037
 30
0.0
 10
321.5913953189077
 20
-137.0073133338037
 30
0.0
 10
323.7121960996275
 20
-137.3247788827695
 30
0.0
 10
323.7121960996275
 20
-137.3247788827695
 30
0.0
 10
323.6867023930367
 20
-137.1342651024352
 30
0.0
 10
323.6612086864458
 20
-136.9564981753963
 30
0.0
 10
323.6612086864458
 20
-136.6517794797259
 30
0.0
 10
323.6612086864458
 20
-136.0168483817944
 30
0.0
 10
323.801079563147
 20
-135.3819172838629
 30
0.0
 10
324.1056260040431
 20
-134.8739379545628
 30
0.0
 10
324.4739067114162
 20
-134.2264322581101
 30
0.0
 10
325.1849744195718
 20
-133.6929592222191
 30
0.0
 10
326.2264267847629
 20
-133.6929592222191
 30
0.0
 10
327.8390759814083
 20
-133.6929592222191
 30
0.0
 10
329.0455484203428
 20
-134.9755682713777
 30
0.0
 10
329.0455484203428
 20
-136.765984395062
 30
0.0
 10
329.0455484203428
 20
-137.6675658835519
 30
0.0
 10
328.7916448830799
 20
-138.4296210048891
 30
0.0
 10
328.5373968362684
 20
-138.8232231640789
 30
0.0
 10
328.5373968362684
 20
-138.8232231640789
 30
0.0
 10
327.6868027609602
 20
-138.5438259202252
 30
0.0
 10
327.6868027609602
 20
-138.5438259202252
 30
0.0
 10
327.89006339459
 20
-138.2010389194428
 30
0.0
 10
328.1439669318529
 20
-137.527867261625
 30
0.0
 10
328.1439669318529
 20
-136.7787312483574
 30
0.0
 10
328.1439669318529
 20
-135.7247042846452
 30
0.0
 10
327.4580484207397
 20
-134.8231227961553
 30
0.0
 10
326.3535508081686
 20
-134.8231227961553
 30
0.0
 10
325.2866047363867
 20
-134.8358696494508
 30
0.0
 10
324.5248941245979
 20
-135.5469373576063
 30
0.0
 10
324.5248941245979
 20
-137.1978271141381
 30
0.0
 10
324.5248941245979
 20
-137.6675658835519
 30
0.0
 10
324.5755370282311
 20
-138.0358465909251
 30
0.0
 10
324.6137775881174
 20
-138.3405652865954
 30
0.0
 10
324.6137775881174
 20
-138.3405652865954
 30
0.0
 10
320.6519177800801
 20
-137.8072645054787
 30
0.0
 10
320.6519177800801
 20
-137.8072645054787
 30
0.0
 10
320.6519177800801
 20
-137.8072645054787
 30
0.0
 10
320.6519177800801
 20
-133.8581515507369
 30
0.0
 10
320.6519177800801
 20
-133.8581515507369
 30
0.0
 10
320.6519177800801
 20
-133.8581515507369
 30
0.0
 10
321.5913953189077
 20
-133.8581515507369
 30
0.0
 10
321.5913953189077
 20
-133.8581515507369
 30
0.0
  0
HATCH
  5
B4
330
AB
100
AcDbEntity
  8
Livello 1
 62
   250
420
  1842203
100
AcDbHatch
 10
0.0
 20
0.0
 30
0.0
210
0.0
220
0.0
230
1.0
  2
SOLID
 70
     1
 71
     0
 91
        1
 92
        1
 93
        1
 72
     4
 94
        3
 73
     0
 74
     0
 95
       50
 96
       46
 40
0.0
 40
0.0
 40
0.0
 40
0.0
 40
1.0
 40
1.0
 40
1.0
 40
2.0
 40
2.0
 40
2.0
 40
3.0
 40
3.0
 40
3.0
 40
4.0
 40
4.0
 40
4.0
 40
5.0
 40
5.0
 40
5.0
 40
6.0
 40
6.0
 40
6.0
 40
7.0
 40
7.0
 40
7.0
 40
8.0
 40
8.0
 40
8.0
 40
9.0
 40
9.0
 40
9.0
 40
10.0
 40
10.0
 40
10.0
 40
11.0
 40
11.0
 40
11.0
 40
12.0
 40
12.0
 40
12.0
 40
13.0
 40
13.0
 40
13.0
 40
14.0
 40
14.0
 40
14.0
 40
15.0
 40
15.0
 40
15.0
 40
15.0
 10
321.5913953189077
 20
-133.8581515507369
 10
321.5913953189077
 20
-133.8581515507369
 10
321.5913953189077
 20
-137.0073133338037
 10
321.5913953189077
 20
-137.0073133338037
 10
321.5913953189077
 20
-137.0073133338037
 10
323.7121960996275
 20
-137.3247788827695
 10
323.7121960996275
 20
-137.3247788827695
 10
323.6867023930367
 20
-137.1342651024352
 10
323.6612086864458
 20
-136.9564981753963
 10
323.6612086864458
 20
-136.6517794797259
 10
323.6612086864458
 20
-136.0168483817944
 10
323.801079563147
 20
-135.3819172838629
 10
324.1056260040431
 20
-134.8739379545628
 10
324.4739067114162
 20
-134.2264322581101
 10
325.1849744195718
 20
-133.6929592222191
 10
326.2264267847629
 20
-133.6929592222191
 10
327.8390759814083
 20
-133.6929592222191
 10
329.0455484203428
 20
-134.9755682713777
 10
329.0455484203428
 20
-136.765984395062
 10
329.0455484203428
 20
-137.6675658835519
 10
328.7916448830799
 20
-138.4296210048891
 10
328.5373968362684
 20
-138.8232231640789
 10
328.5373968362684
 20
-138.8232231640789
 10
327.6868027609602
 20
-138.5438259202252
 10
327.6868027609602
 20
-138.5438259202252
 10
327.89006339459
 20
-138.2010389194428
 10
328.1439669318529
 20
-137.527867261625
 10
328.1439669318529
 20
-136.7787312483574
 10
328.1439669318529
 20
-135.7247042846452
 10
327.4580484207397
 20
-134.8231227961553
 10
326.3535508081686
 20
-134.8231227961553
 10
325.2866047363867
 20
-134.8358696494508
 10
324.5248941245979
 20
-135.5469373576063
 10
324.5248941245979
 20
-137.1978271141381
 10
324.5248941245979
 20
-137.6675658835519
 10
324.5755370282311
 20
-138.0358465909251
 10
324.6137775881174
 20
-138.3405652865954
 10
324.6137775881174
 20
-138.3405652865954
 10
320.6519177800801
 20
-137.8072645054787
 10
320.6519177800801
 20
-137.8072645054787
 10
320.6519177800801
 20
-137.8072645054787
 10
320.6519177800801
 20
-133.8581515507369
 10
320.6519177800801
 20
-133.8581515507369
 10
320.6519177800801
 20
-133.8581515507369
 10
321.5913953189077
 20
-133.8581515507369
 10
321.5913953189077
 20
-133.8581515507369
 97
        0
 97
        0
 75
     2
 76
     1
 98
        0
450
        0
451
        0
460
0.0
461
0.0
452
        0
462
0.0
453
        0
470

  0
ENDBLK
  5
AE
330
AB
100
AcDbEntity
  8
0
100
AcDbBlockEnd
  0
BLOCK
  5
B7
330
B5
100
AcDbEntity
  8
0
100
AcDbBlockBegin
  2
block 4
 70
     0
 10
0.0
 20
0.0
 30
0.0
  3
block 4
  1

  0
SPLINE
  5
B9
330
B5
100
AcDbEntity
  8
Livello 1
370
     0
100
AcDbSpline
210
0.0
220
0.0
230
1.0
 70
    11
 71
     3
 72
    50
 73
    46
 74
     0
 42
0.000000001
 43
0.0000000001
 40
0.0
 40
0.0
 40
0.0
 40
0.0
 40
1.0
 40
1.0
 40
1.0
 40
2.0
 40
2.0
 40
2.0
 40
3.0
 40
3.0
 40
3.0
 40
4.0
 40
4.0
 40
4.0
 40
5.0
 40
5.0
 40
5.0
 40
6.0
 40
6.0
 40
6.0
 40
7.0
 40
7.0
 40
7.0
 40
8.0
 40
8.0
 40
8.0
 40
9.0
 40
9.0
 40
9.0
 40
10.0
 40
10.0
 40
10.0
 40
11.0
 40
11.0
 40
11.0
 40
12.0
 40
12.0
 40
12.0
 40
13.0
 40
13.0
 40
13.0
 40
14.0
 40
14.0
 40
14.0
 40
15.0
 40
15.0
 40
15.0
 40
15.0
 10
458.2032116910048
 20
-226.2449326691332
 30
0.0
 10
458.2032116910048
 20
-226.2449326691332
 30
0.0
 10
458.2032116910048
 20
-229.3940944522001
 30
0.0
 10
458.2032116910048
 20
-229.3940944522001
 30
0.0
 10
458.2032116910048
 20
-229.3940944522001
 30
0.0
 10
460.3236679621759
 20
-229.7113877463916
 30
0.0
 10
460.3236679621759
 20
-229.7113877463916
 30
0.0
 10
460.2985187651336
 20
-229.5212184756058
 30
0.0
 10
460.2730250585429
 20
-229.3434515485669
 30
0.0
 10
460.2730250585429
 20
-229.0385605981223
 30
0.0
 10
460.2730250585429
 20
-228.4036295001908
 30
0.0
 10
460.4125514256955
 20
-227.7686984022592
 30
0.0
 10
460.7174423761401
 20
-227.2605468181849
 30
0.0
 10
461.0857230835133
 20
-226.6132133765064
 30
0.0
 10
461.7967907916688
 20
-226.0795680858412
 30
0.0
 10
462.8378986473114
 20
-226.0795680858412
 30
0.0
 10
464.4508923535054
 20
-226.0795680858412
 30
0.0
 10
465.6570202828913
 20
-227.3625216445483
 30
0.0
 10
465.6570202828913
 20
-229.1525932586841
 30
0.0
 10
465.6570202828913
 20
-230.0545192567225
 30
0.0
 10
465.4031167456284
 20
-230.8165743780598
 30
0.0
 10
465.1492132083655
 20
-231.2100042824753
 30
0.0
 10
465.1492132083655
 20
-231.2100042824753
 30
0.0
 10
464.2982746235088
 20
-230.9306070386215
 30
0.0
 10
464.2982746235088
 20
-230.9306070386215
 30
0.0
 10
464.5015352571385
 20
-230.5878200378392
 30
0.0
 10
464.7554387944014
 20
-229.9146483800214
 30
0.0
 10
464.7554387944014
 20
-229.165684621528
 30
0.0
 10
464.7554387944014
 20
-228.1114854030416
 30
0.0
 10
464.0698647928367
 20
-227.2099039145517
 30
0.0
 10
462.9650226707171
 20
-227.2099039145517
 30
0.0
 10
461.8984211084838
 20
-227.2226507678471
 30
0.0
 10
461.1363659871464
 20
-227.9337184760027
 30
0.0
 10
461.1363659871464
 20
-229.5846082325344
 30
0.0
 10
461.1363659871464
 20
-230.0545192567225
 30
0.0
 10
461.1873534003282
 20
-230.4224554545472
 30
0.0
 10
461.2252494506659
 20
-230.7273464049918
 30
0.0
 10
461.2252494506659
 20
-230.7273464049918
 30
0.0
 10
457.2633896426286
 20
-230.1940456238751
 30
0.0
 10
457.2633896426286
 20
-230.1940456238751
 30
0.0
 10
457.2633896426286
 20
-230.1940456238751
 30
0.0
 10
457.2633896426286
 20
-226.2449326691332
 30
0.0
 10
457.2633896426286
 20
-226.2449326691332
 30
0.0
 10
457.2633896426286
 20
-226.2449326691332
 30
0.0
 10
458.2032116910048
 20
-226.2449326691332
 30
0.0
 10
458.2032116910048
 20
-226.2449326691332
 30
0.0
  0
HATCH
  5
BA
330
B5
100
AcDbEntity
  8
Livello 1
 62
   250
420
  1842203
100
AcDbHatch
 10
0.0
 20
0.0
 30
0.0
210
0.0
220
0.0
230
1.0
  2
SOLID
 70
     1
 71
     0
 91
        1
 92
        1
 93
        1
 72
     4
 94
        3
 73
     0
 74
     0
 95
       50
 96
       46
 40
0.0
 40
0.0
 40
0.0
 40
0.0
 40
1.0
 40
1.0
 40
1.0
 40
2.0
 40
2.0
 40
2.0
 40
3.0
 40
3.0
 40
3.0
 40
4.0
 40
4.0
 40
4.0
 40
5.0
 40
5.0
 40
5.0
 40
6.0
 40
6.0
 40
6.0
 40
7.0
 40
7.0
 40
7.0
 40
8.0
 40
8.0
 40
8.0
 40
9.0
 40
9.0
 40
9.0
 40
10.0
 40
10.0
 40
10.0
 40
11.0
 40
11.0
 40
11.0
 40
12.0
 40
12.0
 40
12.0
 40
13.0
 40
13.0
 40
13.0
 40
14.0
 40
14.0
 40
14.0
 40
15.0
 40
15.0
 40
15.0
 40
15.0
 10
458.2032116910048
 20
-226.2449326691332
 10
458.2032116910048
 20
-226.2449326691332
 10
458.2032116910048
 20
-229.3940944522001
 10
458.2032116910048
 20
-229.3940944522001
 10
458.2032116910048
 20
-229.3940944522001
 10
460.3236679621759
 20
-229.7113877463916
 10
460.3236679621759
 20
-229.7113877463916
 10
460.2985187651336
 20
-229.5212184756058
 10
460.2730250585429
 20
-229.3434515485669
 10
460.2730250585429
 20
-229.0385605981223
 10
460.2730250585429
 20
-228.4036295001908
 10
460.4125514256955
 20
-227.7686984022592
 10
460.7174423761401
 20
-227.2605468181849
 10
461.0857230835133
 20
-226.6132133765064
 10
461.7967907916688
 20
-226.0795680858412
 10
462.8378986473114
 20
-226.0795680858412
 10
464.4508923535054
 20
-226.0795680858412
 10
465.6570202828913
 20
-227.3625216445483
 10
465.6570202828913
 20
-229.1525932586841
 10
465.6570202828913
 20
-230.0545192567225
 10
465.4031167456284
 20
-230.8165743780598
 10
465.1492132083655
 20
-231.2100042824753
 10
465.1492132083655
 20
-231.2100042824753
 10
464.2982746235088
 20
-230.9306070386215
 10
464.2982746235088
 20
-230.9306070386215
 10
464.5015352571385
 20
-230.5878200378392
 10
464.7554387944014
 20
-229.9146483800214
 10
464.7554387944014
 20
-229.165684621528
 10
464.7554387944014
 20
-228.1114854030416
 10
464.0698647928367
 20
-227.2099039145517
 10
462.9650226707171
 20
-227.2099039145517
 10
461.8984211084838
 20
-227.2226507678471
 10
461.1363659871464
 20
-227.9337184760027
 10
461.1363659871464
 20
-229.5846082325344
 10
461.1363659871464
 20
-230.0545192567225
 10
461.1873534003282
 20
-230.4224554545472
 10
461.2252494506659
 20
-230.7273464049918
 10
461.2252494506659
 20
-230.7273464049918
 10
457.2633896426286
 20
-230.1940456238751
 10
457.2633896426286
 20
-230.1940456238751
 10
457.2633896426286
 20
-230.1940456238751
 10
457.2633896426286
 20
-226.2449326691332
 10
457.2633896426286
 20
-226.2449326691332
 10
457.2633896426286
 20
-226.2449326691332
 10
458.2032116910048
 20
-226.2449326691332
 10
458.2032116910048
 20
-226.2449326691332
 97
        0
 97
        0
 75
     2
 76
     1
 98
        0
450
        0
451
        0
460
0.0
461
0.0
452
        0
462
0.0
453
        0
470

  0
SPLINE
  5
BB
330
B5
100
AcDbEntity
  8
Livello 1
370
     0
100
AcDbSpline
210
0.0
220
0.0
230
1.0
 70
     9
 71
     3
 72
    17
 73
    13
 74
     0
 42
0.000000001
 43
0.0000000001
 40
0.0
 40
0.0
 40
0.0
 40
0.0
 40
1.0
 40
1.0
 40
1.0
 40
2.0
 40
2.0
 40
2.0
 40
3.0
 40
3.0
 40
3.0
 40
4.0
 40
4.0
 40
4.0
 40
4.0
 10
461.30138606089
 20
-219.1714626188183
 30
0.0
 10
464.1077608431744
 20
-219.1714626188183
 30
0.0
 10
465.6570202828913
 20
-220.2125704744608
 30
0.0
 10
465.6570202828913
 20
-222.0412271580314
 30
0.0
 10
465.6570202828913
 20
-223.6538763546768
 30
0.0
 10
464.1460014030606
 20
-224.745971623501
 30
0.0
 10
461.4157632310003
 20
-224.7711208205434
 30
0.0
 10
458.647629008602
 20
-224.7711208205434
 30
0.0
 10
457.123863275476
 20
-223.5777397444528
 30
0.0
 10
457.123863275476
 20
-221.9013562813302
 30
0.0
 10
457.123863275476
 20
-220.1615830612791
 30
0.0
 10
458.6731227151927
 20
-219.1714626188183
 30
0.0
 10
461.30138606089
 20
-219.1714626188183
 30
0.0
  0
SPLINE
  5
BC
330
B5
100
AcDbEntity
  8
Livello 1
370
     0
100
AcDbSpline
210
0.0
220
0.0
230
1.0
 70
     9
 71
     3
 72
    17
 73
    13
 74
     0
 42
0.000000001
 43
0.0000000001
 40
0.0
 40
0.0
 40
0.0
 40
0.0
 40
1.0
 40
1.0
 40
1.0
 40
2.0
 40
2.0
 40
2.0
 40
3.0
 40
3.0
 40
3.0
 40
4.0
 40
4.0
 40
4.0
 40
4.0
 10
461.4285100842956
 20
-223.6538763546768
 30
0.0
 10
463.5744600620578
 20
-223.6538763546768
 30
0.0
 10
464.7936793542877
 20
-222.9934515501544
 30
0.0
 10
464.7936793542877
 20
-221.9778374011028
 30
0.0
 10
464.7936793542877
 20
-220.8347547190969
 30
0.0
 10
463.4604274014959
 20
-220.2887070846848
 30
0.0
 10
461.3523734740716
 20
-220.2887070846848
 30
0.0
 10
459.3204561568713
 20
-220.2887070846848
 30
0.0
 10
457.9872042040796
 20
-220.809261012506
 30
0.0
 10
457.9872042040796
 20
-221.9647460382588
 30
0.0
 10
457.9872042040796
 20
-222.9428086465213
 30
0.0
 10
459.1809297897187
 20
-223.6538763546768
 30
0.0
 10
461.4285100842956
 20
-223.6538763546768
 30
0.0
  0
HATCH
  5
BD
330
B5
100
AcDbEntity
  8
Livello 1
 62
   250
420
  1842203
100
AcDbHatch
 10
0.0
 20
0.0
 30
0.0
210
0.0
220
0.0
230
1.0
  2
SOLID
 70
     1
 71
     0
 91
        2
 92
        1
 93
        1
 72
     4
 94
        3
 73
     0
 74
     0
 95
       17
 96
       13
 40
0.0
 40
0.0
 40
0.0
 40
0.0
 40
1.0
 40
1.0
 40
1.0
 40
2.0
 40
2.0
 40
2.0
 40
3.0
 40
3.0
 40
3.0
 40
4.0
 40
4.0
 40
4.0
 40
4.0
 10
461.30138606089
 20
-219.1714626188183
 10
464.1077608431744
 20
-219.1714626188183
 10
465.6570202828913
 20
-220.2125704744608
 10
465.6570202828913
 20
-222.0412271580314
 10
465.6570202828913
 20
-223.6538763546768
 10
464.1460014030606
 20
-224.745971623501
 10
461.4157632310003
 20
-224.7711208205434
 10
458.647629008602
 20
-224.7711208205434
 10
457.123863275476
 20
-223.5777397444528
 10
457.123863275476
 20
-221.9013562813302
 10
457.123863275476
 20
-220.1615830612791
 10
458.6731227151927
 20
-219.1714626188183
 10
461.30138606089
 20
-219.1714626188183
 97
        0
 97
        0
 92
        1
 93
        1
 72
     4
 94
        3
 73
     0
 74
     0
 95
       17
 96
       13
 40
0.0
 40
0.0
 40
0.0
 40
0.0
 40
1.0
 40
1.0
 40
1.0
 40
2.0
 40
2.0
 40
2.0
 40
3.0
 40
3.0
 40
3.0
 40
4.0
 40
4.0
 40
4.0
 40
4.0
 10
461.4285100842956
 20
-223.6538763546768
 10
463.5744600620578
 20
-223.6538763546768
 10
464.7936793542877
 20
-222.9934515501544
 10
464.7936793542877
 20
-221.9778374011028
 10
464.7936793542877
 20
-220.8347547190969
 10
463.4604274014959
 20
-220.2887070846848
 10
461.3523734740716
 20
-220.2887070846848
 10
459.3204561568713
 20
-220.2887070846848
 10
457.9872042040796
 20
-220.809261012506
 10
457.9872042040796
 20
-221.9647460382588
 10
457.9872042040796
 20
-222.9428086465213
 10
459.1809297897187
 20
-223.6538763546768
 10
461.4285100842956
 20
-223.6538763546768
 97
        0
 97
        0
 75
     2
 76
     1
 98
        0
450
        0
451
        0
460
0.0
461
0.0
452
        0
462
0.0
453
        0
470

  0
ENDBLK
  5
B8
330
B5
100
AcDbEntity
  8
0
100
AcDbBlockEnd
  0
BLOCK
  5
C0
330
BE
100
AcDbEntity
  8
0
100
AcDbBlockBegin
  2
block 5
 70
     0
 10
0.0
 20
0.0
 30
0.0
  3
block 5
  1

  0
SPLINE
  5
C2
330
BE
100
AcDbEntity
  8
Livello 1
370
     0
100
AcDbSpline
210
0.0
220
0.0
230
1.0
 70
    11
 71
     3
 72
    47
 73
    43
 74
     0
 42
0.000000001
 43
0.0000000001
 40
0.0
 40
0.0
 40
0.0
 40
0.0
 40
1.0
 40
1.0
 40
1.0
 40
2.0
 40
2.0
 40
2.0
 40
3.0
 40
3.0
 40
3.0
 40
4.0
 40
4.0
 40
4.0
 40
5.0
 40
5.0
 40
5.0
 40
6.0
 40
6.0
 40
6.0
 40
7.0
 40
7.0
 40
7.0
 40
8.0
 40
8.0
 40
8.0
 40
9.0
 40
9.0
 40
9.0
 40
10.0
 40
10.0
 40
10.0
 40
11.0
 40
11.0
 40
11.0
 40
12.0
 40
12.0
 40
12.0
 40
13.0
 40
13.0
 40
13.0
 40
14.0
 40
14.0
 40
14.0
 40
14.0
 10
359.8781194846833
 20
-22.70231797392512
 30
0.0
 10
359.8781194846833
 20
-22.70231797392512
 30
0.0
 10
359.8781194846833
 20
-22.01657171758614
 30
0.0
 10
359.8781194846833
 20
-22.01657171758614
 30
0.0
 10
359.8781194846833
 20
-22.01657171758614
 30
0.0
 10
360.7545517761308
 20
-21.16580538750369
 30
0.0
 10
360.7545517761308
 20
-21.16580538750369
 30
0.0
 10
362.8622611940067
 20
-19.15938177689418
 30
0.0
 10
363.8148300956782
 20
-18.09278021466083
 30
0.0
 10
363.8275769489737
 20
-16.84841172538859
 30
0.0
 10
363.8275769489737
 20
-16.01021999382731
 30
0.0
 10
363.4210556817142
 20
-15.23559027396888
 30
0.0
 10
362.1894340457374
 20
-15.23559027396888
 30
0.0
 10
361.4401257776955
 20
-15.23559027396888
 30
0.0
 10
360.8179415330594
 20
-15.61661783463751
 30
0.0
 10
360.4369139723908
 20
-15.93408338360329
 30
0.0
 10
360.4369139723908
 20
-15.93408338360329
 30
0.0
 10
360.081380118313
 20
-15.14670681044944
 30
0.0
 10
360.081380118313
 20
-15.14670681044944
 30
0.0
 10
360.652921459316
 20
-14.6642211877402
 30
0.0
 10
361.4656194842863
 20
-14.30868733366241
 30
0.0
 10
362.4178438764094
 20
-14.30868733366241
 30
0.0
 10
364.1958576563469
 20
-14.30868733366241
 30
0.0
 10
364.9448214148402
 20
-15.52773437111807
 30
0.0
 10
364.9448214148402
 20
-16.70871310346171
 30
0.0
 10
364.9448214148402
 20
-18.23247883658771
 30
0.0
 10
363.8403238022692
 20
-19.46427272733879
 30
0.0
 10
362.1005505822179
 20
-21.1404839356871
 30
0.0
 10
362.1005505822179
 20
-21.1404839356871
 30
0.0
 10
361.4401257776955
 20
-21.7499213270278
 30
0.0
 10
361.4401257776955
 20
-21.7499213270278
 30
0.0
 10
361.4401257776955
 20
-21.7499213270278
 30
0.0
 10
361.4401257776955
 20
-21.77541503361865
 30
0.0
 10
361.4401257776955
 20
-21.77541503361865
 30
0.0
 10
361.4401257776955
 20
-21.77541503361865
 30
0.0
 10
365.1480820484699
 20
-21.77541503361865
 30
0.0
 10
365.1480820484699
 20
-21.77541503361865
 30
0.0
 10
365.1480820484699
 20
-21.77541503361865
 30
0.0
 10
365.1480820484699
 20
-22.70231797392512
 30
0.0
 10
365.1480820484699
 20
-22.70231797392512
 30
0.0
 10
365.1480820484699
 20
-22.70231797392512
 30
0.0
 10
359.8781194846833
 20
-22.70231797392512
 30
0.0
 10
359.8781194846833
 20
-22.70231797392512
 30
0.0
  0
HATCH
  5
C3
330
BE
100
AcDbEntity
  8
Livello 1
 62
   250
420
  1842203
100
AcDbHatch
 10
0.0
 20
0.0
 30
0.0
210
0.0
220
0.0
230
1.0
  2
SOLID
 70
     1
 71
     0
 91
        1
 92
        1
 93
        1
 72
     4
 94
        3
 73
     0
 74
     0
 95
       47
 96
       43
 40
0.0
 40
0.0
 40
0.0
 40
0.0
 40
1.0
 40
1.0
 40
1.0
 40
2.0
 40
2.0
 40
2.0
 40
3.0
 40
3.0
 40
3.0
 40
4.0
 40
4.0
 40
4.0
 40
5.0
 40
5.0
 40
5.0
 40
6.0
 40
6.0
 40
6.0
 40
7.0
 40
7.0
 40
7.0
 40
8.0
 40
8.0
 40
8.0
 40
9.0
 40
9.0
 40
9.0
 40
10.0
 40
10.0
 40
10.0
 40
11.0
 40
11.0
 40
11.0
 40
12.0
 40
12.0
 40
12.0
 40
13.0
 40
13.0
 40
13.0
 40
14.0
 40
14.0
 40
14.0
 40
14.0
 10
359.8781194846833
 20
-22.70231797392512
 10
359.8781194846833
 20
-22.70231797392512
 10
359.8781194846833
 20
-22.01657171758614
 10
359.8781194846833
 20
-22.01657171758614
 10
359.8781194846833
 20
-22.01657171758614
 10
360.7545517761308
 20
-21.16580538750369
 10
360.7545517761308
 20
-21.16580538750369
 10
362.8622611940067
 20
-19.15938177689418
 10
363.8148300956782
 20
-18.09278021466083
 10
363.8275769489737
 20
-16.84841172538859
 10
363.8275769489737
 20
-16.01021999382731
 10
363.4210556817142
 20
-15.23559027396888
 10
362.1894340457374
 20
-15.23559027396888
 10
361.4401257776955
 20
-15.23559027396888
 10
360.8179415330594
 20
-15.61661783463751
 10
360.4369139723908
 20
-15.93408338360329
 10
360.4369139723908
 20
-15.93408338360329
 10
360.081380118313
 20
-15.14670681044944
 10
360.081380118313
 20
-15.14670681044944
 10
360.652921459316
 20
-14.6642211877402
 10
361.4656194842863
 20
-14.30868733366241
 10
362.4178438764094
 20
-14.30868733366241
 10
364.1958576563469
 20
-14.30868733366241
 10
364.9448214148402
 20
-15.52773437111807
 10
364.9448214148402
 20
-16.70871310346171
 10
364.9448214148402
 20
-18.23247883658771
 10
363.8403238022692
 20
-19.46427272733879
 10
362.1005505822179
 20
-21.1404839356871
 10
362.1005505822179
 20
-21.1404839356871
 10
361.4401257776955
 20
-21.7499213270278
 10
361.4401257776955
 20
-21.7499213270278
 10
361.4401257776955
 20
-21.7499213270278
 10
361.4401257776955
 20
-21.77541503361865
 10
361.4401257776955
 20
-21.77541503361865
 10
361.4401257776955
 20
-21.77541503361865
 10
365.1480820484699
 20
-21.77541503361865
 10
365.1480820484699
 20
-21.77541503361865
 10
365.1480820484699
 20
-21.77541503361865
 10
365.1480820484699
 20
-22.70231797392512
 10
365.1480820484699
 20
-22.70231797392512
 10
365.1480820484699
 20
-22.70231797392512
 10
359.8781194846833
 20
-22.70231797392512
 10
359.8781194846833
 20
-22.70231797392512
 97
        0
 97
        0
 75
     2
 76
     1
 98
        0
450
        0
451
        0
460
0.0
461
0.0
452
        0
462
0.0
453
        0
470

  0
SPLINE
  5
C4
330
BE
100
AcDbEntity
  8
Livello 1
370
     0
100
AcDbSpline
210
0.0
220
0.0
230
1.0
 70
     9
 71
     3
 72
    59
 73
    55
 74
     0
 42
0.000000001
 43
0.0000000001
 40
0.0
 40
0.0
 40
0.0
 40
0.0
 40
1.0
 40
1.0
 40
1.0
 40
2.0
 40
2.0
 40
2.0
 40
3.0
 40
3.0
 40
3.0
 40
4.0
 40
4.0
 40
4.0
 40
5.0
 40
5.0
 40
5.0
 40
6.0
 40
6.0
 40
6.0
 40
7.0
 40
7.0
 40
7.0
 40
8.0
 40
8.0
 40
8.0
 40
9.0
 40
9.0
 40
9.0
 40
10.0
 40
10.0
 40
10.0
 40
11.0
 40
11.0
 40
11.0
 40
12.0
 40
12.0
 40
12.0
 40
13.0
 40
13.0
 40
13.0
 40
14.0
 40
14.0
 40
14.0
 40
15.0
 40
15.0
 40
15.0
 40
16.0
 40
16.0
 40
16.0
 40
17.0
 40
17.0
 40
17.0
 40
18.0
 40
18.0
 40
18.0
 40
18.0
 10
366.6597899473976
 20
-21.4197089247666
 30
0.0
 10
366.9770832415891
 20
-21.62296955839634
 30
0.0
 10
367.7136446563356
 20
-21.94043510736211
 30
0.0
 10
368.4884466309682
 20
-21.94043510736211
 30
0.0
 10
369.9233289005747
 20
-21.94043510736211
 30
0.0
 10
370.367746218172
 20
-21.02610676557681
 30
0.0
 10
370.3549993648766
 20
-20.34036050923783
 30
0.0
 10
370.3422525115811
 20
-19.18487548348503
 30
0.0
 10
369.3011446559386
 20
-18.68964300748037
 30
0.0
 10
368.2217962404098
 20
-18.68964300748037
 30
0.0
 10
368.2217962404098
 20
-18.68964300748037
 30
0.0
 10
367.5996119957737
 20
-18.68964300748037
 30
0.0
 10
367.5996119957737
 20
-18.68964300748037
 30
0.0
 10
367.5996119957737
 20
-18.68964300748037
 30
0.0
 10
367.5996119957737
 20
-17.85145127591908
 30
0.0
 10
367.5996119957737
 20
-17.85145127591908
 30
0.0
 10
367.5996119957737
 20
-17.85145127591908
 30
0.0
 10
368.2217962404098
 20
-17.85145127591908
 30
0.0
 10
368.2217962404098
 20
-17.85145127591908
 30
0.0
 10
369.0344942653803
 20
-17.85145127591908
 30
0.0
 10
370.0628552677273
 20
-17.4325276649127
 30
0.0
 10
370.0628552677273
 20
-16.45463731142453
 30
0.0
 10
370.0628552677273
 20
-15.7943847616764
 30
0.0
 10
369.643931656721
 20
-15.21026882215229
 30
0.0
 10
368.6152261448254
 20
-15.21026882215229
 30
0.0
 10
367.9551458498516
 20
-15.21026882215229
 30
0.0
 10
367.32021475192
 20
-15.50224066452722
 30
0.0
 10
366.9646808978422
 20
-15.75631645656439
 30
0.0
 10
366.9646808978422
 20
-15.75631645656439
 30
0.0
 10
366.672536800693
 20
-14.94361843159396
 30
0.0
 10
366.672536800693
 20
-14.94361843159396
 30
0.0
 10
367.1042072649948
 20
-14.62615288262819
 30
0.0
 10
367.9423989965561
 20
-14.30868733366241
 30
0.0
 10
368.8312336317505
 20
-14.30868733366241
 30
0.0
 10
370.4566296816914
 20
-14.30868733366241
 30
0.0
 10
371.1931910964378
 20
-15.27383083385515
 30
0.0
 10
371.1931910964378
 20
-16.27687038438565
 30
0.0
 10
371.1931910964378
 20
-17.12763671446809
 30
0.0
 10
370.6850395123635
 20
-17.85145127591908
 30
0.0
 10
369.6694253633119
 20
-18.21973198329229
 30
0.0
 10
369.6694253633119
 20
-18.21973198329229
 30
0.0
 10
369.6694253633119
 20
-18.24522568988314
 30
0.0
 10
369.6694253633119
 20
-18.24522568988314
 30
0.0
 10
370.6850395123635
 20
-18.44831406873862
 30
0.0
 10
371.5104843906293
 20
-19.21019693530162
 30
0.0
 10
371.5104843906293
 20
-20.36585421582868
 30
0.0
 10
371.5104843906293
 20
-21.6865315700992
 30
0.0
 10
370.4821233882823
 20
-22.842016595852
 30
0.0
 10
368.5011934842636
 20
-22.842016595852
 30
0.0
 10
367.5741182891829
 20
-22.842016595852
 30
0.0
 10
366.7614202642125
 20
-22.54987249870281
 30
0.0
 10
366.3548989969529
 20
-22.28322210814448
 30
0.0
 10
366.3548989969529
 20
-22.28322210814448
 30
0.0
 10
366.6597899473976
 20
-21.4197089247666
 30
0.0
 10
366.6597899473976
 20
-21.4197089247666
 30
0.0
  0
HATCH
  5
C5
330
BE
100
AcDbEntity
  8
Livello 1
 62
   250
420
  1842203
100
AcDbHatch
 10
0.0
 20
0.0
 30
0.0
210
0.0
220
0.0
230
1.0
  2
SOLID
 70
     1
 71
     0
 91
        1
 92
        1
 93
        1
 72
     4
 94
        3
 73
     0
 74
     0
 95
       59
 96
       55
 40
0.0
 40
0.0
 40
0.0
 40
0.0
 40
1.0
 40
1.0
 40
1.0
 40
2.0
 40
2.0
 40
2.0
 40
3.0
 40
3.0
 40
3.0
 40
4.0
 40
4.0
 40
4.0
 40
5.0
 40
5.0
 40
5.0
 40
6.0
 40
6.0
 40
6.0
 40
7.0
 40
7.0
 40
7.0
 40
8.0
 40
8.0
 40
8.0
 40
9.0
 40
9.0
 40
9.0
 40
10.0
 40
10.0
 40
10.0
 40
11.0
 40
11.0
 40
11.0
 40
12.0
 40
12.0
 40
12.0
 40
13.0
 40
13.0
 40
13.0
 40
14.0
 40
14.0
 40
14.0
 40
15.0
 40
15.0
 40
15.0
 40
16.0
 40
16.0
 40
16.0
 40
17.0
 40
17.0
 40
17.0
 40
18.0
 40
18.0
 40
18.0
 40
18.0
 10
366.6597899473976
 20
-21.4197089247666
 10
366.9770832415891
 20
-21.62296955839634
 10
367.7136446563356
 20
-21.94043510736211
 10
368.4884466309682
 20
-21.94043510736211
 10
369.9233289005747
 20
-21.94043510736211
 10
370.367746218172
 20
-21.02610676557681
 10
370.3549993648766
 20
-20.34036050923783
 10
370.3422525115811
 20
-19.18487548348503
 10
369.3011446559386
 20
-18.68964300748037
 10
368.2217962404098
 20
-18.68964300748037
 10
368.2217962404098
 20
-18.68964300748037
 10
367.5996119957737
 20
-18.68964300748037
 10
367.5996119957737
 20
-18.68964300748037
 10
367.5996119957737
 20
-18.68964300748037
 10
367.5996119957737
 20
-17.85145127591908
 10
367.5996119957737
 20
-17.85145127591908
 10
367.5996119957737
 20
-17.85145127591908
 10
368.2217962404098
 20
-17.85145127591908
 10
368.2217962404098
 20
-17.85145127591908
 10
369.0344942653803
 20
-17.85145127591908
 10
370.0628552677273
 20
-17.4325276649127
 10
370.0628552677273
 20
-16.45463731142453
 10
370.0628552677273
 20
-15.7943847616764
 10
369.643931656721
 20
-15.21026882215229
 10
368.6152261448254
 20
-15.21026882215229
 10
367.9551458498516
 20
-15.21026882215229
 10
367.32021475192
 20
-15.50224066452722
 10
366.9646808978422
 20
-15.75631645656439
 10
366.9646808978422
 20
-15.75631645656439
 10
366.672536800693
 20
-14.94361843159396
 10
366.672536800693
 20
-14.94361843159396
 10
367.1042072649948
 20
-14.62615288262819
 10
367.9423989965561
 20
-14.30868733366241
 10
368.8312336317505
 20
-14.30868733366241
 10
370.4566296816914
 20
-14.30868733366241
 10
371.1931910964378
 20
-15.27383083385515
 10
371.1931910964378
 20
-16.27687038438565
 10
371.1931910964378
 20
-17.12763671446809
 10
370.6850395123635
 20
-17.85145127591908
 10
369.6694253633119
 20
-18.21973198329229
 10
369.6694253633119
 20
-18.21973198329229
 10
369.6694253633119
 20
-18.24522568988314
 10
369.6694253633119
 20
-18.24522568988314
 10
370.6850395123635
 20
-18.44831406873862
 10
371.5104843906293
 20
-19.21019693530162
 10
371.5104843906293
 20
-20.36585421582868
 10
371.5104843906293
 20
-21.6865315700992
 10
370.4821233882823
 20
-22.842016595852
 10
368.5011934842636
 20
-22.842016595852
 10
367.5741182891829
 20
-22.842016595852
 10
366.7614202642125
 20
-22.54987249870281
 10
366.3548989969529
 20
-22.28322210814448
 10
366.3548989969529
 20
-22.28322210814448
 10
366.6597899473976
 20
-21.4197089247666
 10
366.6597899473976
 20
-21.4197089247666
 97
        0
 97
        0
 75
     2
 76
     1
 98
        0
450
        0
451
        0
460
0.0
461
0.0
452
        0
462
0.0
453
        0
470

  0
SPLINE
  5
C6
330
BE
100
AcDbEntity
  8
Livello 1
370
     0
100
AcDbSpline
210
0.0
220
0.0
230
1.0
 70
    11
 71
     3
 72
    59
 73
    55
 74
     0
 42
0.000000001
 43
0.0000000001
 40
0.0
 40
0.0
 40
0.0
 40
0.0
 40
1.0
 40
1.0
 40
1.0
 40
2.0
 40
2.0
 40
2.0
 40
3.0
 40
3.0
 40
3.0
 40
4.0
 40
4.0
 40
4.0
 40
5.0
 40
5.0
 40
5.0
 40
6.0
 40
6.0
 40
6.0
 40
7.0
 40
7.0
 40
7.0
 40
8.0
 40
8.0
 40
8.0
 40
9.0
 40
9.0
 40
9.0
 40
10.0
 40
10.0
 40
10.0
 40
11.0
 40
11.0
 40
11.0
 40
12.0
 40
12.0
 40
12.0
 40
13.0
 40
13.0
 40
13.0
 40
14.0
 40
14.0
 40
14.0
 40
15.0
 40
15.0
 40
15.0
 40
16.0
 40
16.0
 40
16.0
 40
17.0
 40
17.0
 40
17.0
 40
18.0
 40
18.0
 40
18.0
 40
18.0
 10
376.476589532617
 20
-16.55626762823941
 30
0.0
 10
376.476589532617
 20
-16.55626762823941
 30
0.0
 10
377.352677314516
 20
-17.87694498250993
 30
0.0
 10
377.352677314516
 20
-17.87694498250993
 30
0.0
 10
377.5810871451881
 20
-18.21973198329229
 30
0.0
 10
377.7716009255223
 20
-18.53719753225806
 30
0.0
 10
377.9748615591521
 20
-18.88015678781468
 30
0.0
 10
377.9748615591521
 20
-18.88015678781468
 30
0.0
 10
378.0131021190384
 20
-18.88015678781468
 30
0.0
 10
378.0131021190384
 20
-18.88015678781468
 30
0.0
 10
378.2160182431197
 20
-18.51187608044147
 30
0.0
 10
378.4192788767493
 20
-18.1944105314757
 30
0.0
 10
378.6225395103791
 20
-17.86419812921451
 30
0.0
 10
378.6225395103791
 20
-17.86419812921451
 30
0.0
 10
379.4858804389827
 20
-16.55626762823941
 30
0.0
 10
379.4858804389827
 20
-16.55626762823941
 30
0.0
 10
379.4858804389827
 20
-16.55626762823941
 30
0.0
 10
380.6923528779172
 20
-16.55626762823941
 30
0.0
 10
380.6923528779172
 20
-16.55626762823941
 30
0.0
 10
380.6923528779172
 20
-16.55626762823941
 30
0.0
 10
378.5970458037883
 20
-19.52766248426739
 30
0.0
 10
378.5970458037883
 20
-19.52766248426739
 30
0.0
 10
378.5970458037883
 20
-19.52766248426739
 30
0.0
 10
380.7557426348458
 20
-22.70231797392512
 30
0.0
 10
380.7557426348458
 20
-22.70231797392512
 30
0.0
 10
380.7557426348458
 20
-22.70231797392512
 30
0.0
 10
379.4858804389827
 20
-22.70231797392512
 30
0.0
 10
379.4858804389827
 20
-22.70231797392512
 30
0.0
 10
379.4858804389827
 20
-22.70231797392512
 30
0.0
 10
378.5842989504928
 20
-21.31825086272598
 30
0.0
 10
378.5842989504928
 20
-21.31825086272598
 30
0.0
 10
378.3431422665253
 20
-20.96271700864821
 30
0.0
 10
378.1398816328957
 20
-20.61975775309159
 30
0.0
 10
377.924218655519
 20
-20.25147704571838
 30
0.0
 10
377.924218655519
 20
-20.25147704571838
 30
0.0
 10
377.8987249489281
 20
-20.25147704571838
 30
0.0
 10
377.8987249489281
 20
-20.25147704571838
 30
0.0
 10
377.6954643152984
 20
-20.61975775309159
 30
0.0
 10
377.4798013379217
 20
-20.94997015535279
 30
0.0
 10
377.2510469977012
 20
-21.31825086272598
 30
0.0
 10
377.2510469977012
 20
-21.31825086272598
 30
0.0
 10
376.3622123625067
 20
-22.70231797392512
 30
0.0
 10
376.3622123625067
 20
-22.70231797392512
 30
0.0
 10
376.3622123625067
 20
-22.70231797392512
 30
0.0
 10
375.1305907265299
 20
-22.70231797392512
 30
0.0
 10
375.1305907265299
 20
-22.70231797392512
 30
0.0
 10
375.1305907265299
 20
-22.70231797392512
 30
0.0
 10
377.3144367546298
 20
-19.5657307893794
 30
0.0
 10
377.3144367546298
 20
-19.5657307893794
 30
0.0
 10
377.3144367546298
 20
-19.5657307893794
 30
0.0
 10
375.2322210433446
 20
-16.55626762823941
 30
0.0
 10
375.2322210433446
 20
-16.55626762823941
 30
0.0
 10
375.2322210433446
 20
-16.55626762823941
 30
0.0
 10
376.476589532617
 20
-16.55626762823941
 30
0.0
 10
376.476589532617
 20
-16.55626762823941
 30
0.0
  0
HATCH
  5
C7
330
BE
100
AcDbEntity
  8
Livello 1
 62
   250
420
  1842203
100
AcDbHatch
 10
0.0
 20
0.0
 30
0.0
210
0.0
220
0.0
230
1.0
  2
SOLID
 70
     1
 71
     0
 91
        1
 92
        1
 93
        1
 72
     4
 94
        3
 73
     0
 74
     0
 95
       59
 96
       55
 40
0.0
 40
0.0
 40
0.0
 40
0.0
 40
1.0
 40
1.0
 40
1.0
 40
2.0
 40
2.0
 40
2.0
 40
3.0
 40
3.0
 40
3.0
 40
4.0
 40
4.0
 40
4.0
 40
5.0
 40
5.0
 40
5.0
 40
6.0
 40
6.0
 40
6.0
 40
7.0
 40
7.0
 40
7.0
 40
8.0
 40
8.0
 40
8.0
 40
9.0
 40
9.0
 40
9.0
 40
10.0
 40
10.0
 40
10.0
 40
11.0
 40
11.0
 40
11.0
 40
12.0
 40
12.0
 40
12.0
 40
13.0
 40
13.0
 40
13.0
 40
14.0
 40
14.0
 40
14.0
 40
15.0
 40
15.0
 40
15.0
 40
16.0
 40
16.0
 40
16.0
 40
17.0
 40
17.0
 40
17.0
 40
18.0
 40
18.0
 40
18.0
 40
18.0
 10
376.476589532617
 20
-16.55626762823941
 10
376.476589532617
 20
-16.55626762823941
 10
377.352677314516
 20
-17.87694498250993
 10
377.352677314516
 20
-17.87694498250993
 10
377.5810871451881
 20
-18.21973198329229
 10
377.7716009255223
 20
-18.53719753225806
 10
377.9748615591521
 20
-18.88015678781468
 10
377.9748615591521
 20
-18.88015678781468
 10
378.0131021190384
 20
-18.88015678781468
 10
378.0131021190384
 20
-18.88015678781468
 10
378.2160182431197
 20
-18.51187608044147
 10
378.4192788767493
 20
-18.1944105314757
 10
378.6225395103791
 20
-17.86419812921451
 10
378.6225395103791
 20
-17.86419812921451
 10
379.4858804389827
 20
-16.55626762823941
 10
379.4858804389827
 20
-16.55626762823941
 10
379.4858804389827
 20
-16.55626762823941
 10
380.6923528779172
 20
-16.55626762823941
 10
380.6923528779172
 20
-16.55626762823941
 10
380.6923528779172
 20
-16.55626762823941
 10
378.5970458037883
 20
-19.52766248426739
 10
378.5970458037883
 20
-19.52766248426739
 10
378.5970458037883
 20
-19.52766248426739
 10
380.7557426348458
 20
-22.70231797392512
 10
380.7557426348458
 20
-22.70231797392512
 10
380.7557426348458
 20
-22.70231797392512
 10
379.4858804389827
 20
-22.70231797392512
 10
379.4858804389827
 20
-22.70231797392512
 10
379.4858804389827
 20
-22.70231797392512
 10
378.5842989504928
 20
-21.31825086272598
 10
378.5842989504928
 20
-21.31825086272598
 10
378.3431422665253
 20
-20.96271700864821
 10
378.1398816328957
 20
-20.61975775309159
 10
377.924218655519
 20
-20.25147704571838
 10
377.924218655519
 20
-20.25147704571838
 10
377.8987249489281
 20
-20.25147704571838
 10
377.8987249489281
 20
-20.25147704571838
 10
377.6954643152984
 20
-20.61975775309159
 10
377.4798013379217
 20
-20.94997015535279
 10
377.2510469977012
 20
-21.31825086272598
 10
377.2510469977012
 20
-21.31825086272598
 10
376.3622123625067
 20
-22.70231797392512
 10
376.3622123625067
 20
-22.70231797392512
 10
376.3622123625067
 20
-22.70231797392512
 10
375.1305907265299
 20
-22.70231797392512
 10
375.1305907265299
 20
-22.70231797392512
 10
375.1305907265299
 20
-22.70231797392512
 10
377.3144367546298
 20
-19.5657307893794
 10
377.3144367546298
 20
-19.5657307893794
 10
377.3144367546298
 20
-19.5657307893794
 10
375.2322210433446
 20
-16.55626762823941
 10
375.2322210433446
 20
-16.55626762823941
 10
375.2322210433446
 20
-16.55626762823941
 10
376.476589532617
 20
-16.55626762823941
 10
376.476589532617
 20
-16.55626762823941
 97
        0
 97
        0
 75
     2
 76
     1
 98
        0
450
        0
451
        0
460
0.0
461
0.0
452
        0
462
0.0
453
        0
470

  0
SPLINE
  5
C8
330
BE
100
AcDbEntity
  8
Livello 1
370
     0
100
AcDbSpline
210
0.0
220
0.0
230
1.0
 70
     9
 71
     3
 72
    38
 73
    34
 74
     0
 42
0.000000001
 43
0.0000000001
 40
0.0
 40
0.0
 40
0.0
 40
0.0
 40
1.0
 40
1.0
 40
1.0
 40
2.0
 40
2.0
 40
2.0
 40
3.0
 40
3.0
 40
3.0
 40
4.0
 40
4.0
 40
4.0
 40
5.0
 40
5.0
 40
5.0
 40
6.0
 40
6.0
 40
6.0
 40
7.0
 40
7.0
 40
7.0
 40
8.0
 40
8.0
 40
8.0
 40
9.0
 40
9.0
 40
9.0
 40
10.0
 40
10.0
 40
10.0
 40
11.0
 40
11.0
 40
11.0
 40
11.0
 10
388.8837564131957
 20
-15.23559027396888
 30
0.0
 10
388.6553465825236
 20
-15.22301567544772
 30
0.0
 10
388.3632024853745
 20
-15.23559027396888
 30
0.0
 10
388.045909191183
 20
-15.28640543237632
 30
0.0
 10
386.2933891178364
 20
-15.5785495295255
 30
0.0
 10
385.3663139227557
 20
-16.86098632390975
 30
0.0
 10
385.1758001424213
 20
-18.21973198329229
 30
0.0
 10
385.1758001424213
 20
-18.21973198329229
 30
0.0
 10
385.2140407023077
 20
-18.21973198329229
 30
0.0
 10
385.2140407023077
 20
-18.21973198329229
 30
0.0
 10
385.6078151162717
 20
-17.69917805547104
 30
0.0
 10
386.2933891178364
 20
-17.26733533639497
 30
0.0
 10
387.2077174596217
 20
-17.26733533639497
 30
0.0
 10
388.6680934358191
 20
-17.26733533639497
 30
0.0
 10
389.6964544381662
 20
-18.32136230010716
 30
0.0
 10
389.6964544381662
 20
-19.93401149675261
 30
0.0
 10
389.6964544381662
 20
-21.44520263135745
 30
0.0
 10
388.6680934358191
 20
-22.842016595852
 30
0.0
 10
386.9538139223588
 20
-22.842016595852
 30
0.0
 10
385.1885469957167
 20
-22.842016595852
 30
0.0
 10
384.033061969964
 20
-21.47052408317404
 30
0.0
 10
384.033061969964
 20
-19.32457410541191
 30
0.0
 10
384.033061969964
 20
-17.69917805547104
 30
0.0
 10
384.6173501642623
 20
-16.41656900631252
 30
0.0
 10
385.4300481892328
 20
-15.60387098134209
 30
0.0
 10
386.1156221907975
 20
-14.93087157829853
 30
0.0
 10
387.0299505325828
 20
-14.51177571251789
 30
0.0
 10
388.0710583882253
 20
-14.38482394388643
 30
0.0
 10
388.4014430452607
 20
-14.334008785479
 30
0.0
 10
388.6808402891146
 20
-14.32143418695784
 30
0.0
 10
388.8837564131957
 20
-14.32143418695784
 30
0.0
 10
388.8837564131957
 20
-14.32143418695784
 30
0.0
 10
388.8837564131957
 20
-15.23559027396888
 30
0.0
 10
388.8837564131957
 20
-15.23559027396888
 30
0.0
  0
SPLINE
  5
C9
330
BE
100
AcDbEntity
  8
Livello 1
370
     0
100
AcDbSpline
210
0.0
220
0.0
230
1.0
 70
    11
 71
     3
 72
    20
 73
    16
 74
     0
 42
0.000000001
 43
0.0000000001
 40
0.0
 40
0.0
 40
0.0
 40
0.0
 40
1.0
 40
1.0
 40
1.0
 40
2.0
 40
2.0
 40
2.0
 40
3.0
 40
3.0
 40
3.0
 40
4.0
 40
4.0
 40
4.0
 40
5.0
 40
5.0
 40
5.0
 40
5.0
 10
388.5664631190043
 20
-19.99757350845547
 30
0.0
 10
388.5664631190043
 20
-18.81659477611182
 30
0.0
 10
387.8932914611864
 20
-18.10552706795626
 30
0.0
 10
386.8649304588394
 20
-18.10552706795626
 30
0.0
 10
386.1917588010215
 20
-18.10552706795626
 30
0.0
 10
385.5695745563854
 20
-18.5246229337369
 30
0.0
 10
385.2646836059408
 20
-19.12131347178217
 30
0.0
 10
385.1885469957167
 20
-19.24843749518789
 30
0.0
 10
385.1379040920836
 20
-19.41345756893136
 30
0.0
 10
385.1379040920836
 20
-19.61654594778684
 30
0.0
 10
385.1630532891259
 20
-20.97529160716937
 30
0.0
 10
385.7855820433106
 20
-21.97850341247413
 30
0.0
 10
386.9538139223588
 20
-21.97850341247413
 30
0.0
 10
387.9187851677773
 20
-21.97850341247413
 30
0.0
 10
388.5664631190043
 20
-21.17855224079911
 30
0.0
 10
388.5664631190043
 20
-19.99757350845547
 30
0.0
  0
HATCH
  5
CA
330
BE
100
AcDbEntity
  8
Livello 1
 62
   250
420
  1842203
100
AcDbHatch
 10
0.0
 20
0.0
 30
0.0
210
0.0
220
0.0
230
1.0
  2
SOLID
 70
     1
 71
     0
 91
        2
 92
        1
 93
        1
 72
     4
 94
        3
 73
     0
 74
     0
 95
       38
 96
       34
 40
0.0
 40
0.0
 40
0.0
 40
0.0
 40
1.0
 40
1.0
 40
1.0
 40
2.0
 40
2.0
 40
2.0
 40
3.0
 40
3.0
 40
3.0
 40
4.0
 40
4.0
 40
4.0
 40
5.0
 40
5.0
 40
5.0
 40
6.0
 40
6.0
 40
6.0
 40
7.0
 40
7.0
 40
7.0
 40
8.0
 40
8.0
 40
8.0
 40
9.0
 40
9.0
 40
9.0
 40
10.0
 40
10.0
 40
10.0
 40
11.0
 40
11.0
 40
11.0
 40
11.0
 10
388.8837564131957
 20
-15.23559027396888
 10
388.6553465825236
 20
-15.22301567544772
 10
388.3632024853745
 20
-15.23559027396888
 10
388.045909191183
 20
-15.28640543237632
 10
386.2933891178364
 20
-15.5785495295255
 10
385.3663139227557
 20
-16.86098632390975
 10
385.1758001424213
 20
-18.21973198329229
 10
385.1758001424213
 20
-18.21973198329229
 10
385.2140407023077
 20
-18.21973198329229
 10
385.2140407023077
 20
-18.21973198329229
 10
385.6078151162717
 20
-17.69917805547104
 10
386.2933891178364
 20
-17.26733533639497
 10
387.2077174596217
 20
-17.26733533639497
 10
388.6680934358191
 20
-17.26733533639497
 10
389.6964544381662
 20
-18.32136230010716
 10
389.6964544381662
 20
-19.93401149675261
 10
389.6964544381662
 20
-21.44520263135745
 10
388.6680934358191
 20
-22.842016595852
 10
386.9538139223588
 20
-22.842016595852
 10
385.1885469957167
 20
-22.842016595852
 10
384.033061969964
 20
-21.47052408317404
 10
384.033061969964
 20
-19.32457410541191
 10
384.033061969964
 20
-17.69917805547104
 10
384.6173501642623
 20
-16.41656900631252
 10
385.4300481892328
 20
-15.60387098134209
 10
386.1156221907975
 20
-14.93087157829853
 10
387.0299505325828
 20
-14.51177571251789
 10
388.0710583882253
 20
-14.38482394388643
 10
388.4014430452607
 20
-14.334008785479
 10
388.6808402891146
 20
-14.32143418695784
 10
388.8837564131957
 20
-14.32143418695784
 10
388.8837564131957
 20
-14.32143418695784
 10
388.8837564131957
 20
-15.23559027396888
 10
388.8837564131957
 20
-15.23559027396888
 97
        0
 97
        0
 92
        1
 93
        1
 72
     4
 94
        3
 73
     0
 74
     0
 95
       20
 96
       16
 40
0.0
 40
0.0
 40
0.0
 40
0.0
 40
1.0
 40
1.0
 40
1.0
 40
2.0
 40
2.0
 40
2.0
 40
3.0
 40
3.0
 40
3.0
 40
4.0
 40
4.0
 40
4.0
 40
5.0
 40
5.0
 40
5.0
 40
5.0
 10
388.5664631190043
 20
-19.99757350845547
 10
388.5664631190043
 20
-18.81659477611182
 10
387.8932914611864
 20
-18.10552706795626
 10
386.8649304588394
 20
-18.10552706795626
 10
386.1917588010215
 20
-18.10552706795626
 10
385.5695745563854
 20
-18.5246229337369
 10
385.2646836059408
 20
-19.12131347178217
 10
385.1885469957167
 20
-19.24843749518789
 10
385.1379040920836
 20
-19.41345756893136
 10
385.1379040920836
 20
-19.61654594778684
 10
385.1630532891259
 20
-20.97529160716937
 10
385.7855820433106
 20
-21.97850341247413
 10
386.9538139223588
 20
-21.97850341247413
 10
387.9187851677773
 20
-21.97850341247413
 10
388.5664631190043
 20
-21.17855224079911
 10
388.5664631190043
 20
-19.99757350845547
 97
        0
 97
        0
 75
     2
 76
     1
 98
        0
450
        0
451
        0
460
0.0
461
0.0
452
        0
462
0.0
453
        0
470

  0
SPLINE
  5
CB
330
BE
100
AcDbEntity
  8
Livello 1
370
     0
100
AcDbSpline
210
0.0
220
0.0
230
1.0
 70
     9
 71
     3
 72
    17
 73
    13
 74
     0
 42
0.000000001
 43
0.0000000001
 40
0.0
 40
0.0
 40
0.0
 40
0.0
 40
1.0
 40
1.0
 40
1.0
 40
2.0
 40
2.0
 40
2.0
 40
3.0
 40
3.0
 40
3.0
 40
4.0
 40
4.0
 40
4.0
 40
4.0
 10
390.3193277018993
 20
-24.26415201216313
 30
0.0
 10
390.5987249457531
 20
-23.51501599889555
 30
0.0
 10
390.9415119465355
 20
-22.15627033951302
 30
0.0
 10
391.0813828232366
 20
-21.22936739920655
 30
0.0
 10
391.0813828232366
 20
-21.22936739920655
 30
0.0
 10
392.3257513125088
 20
-21.10224337580083
 30
0.0
 10
392.3257513125088
 20
-21.10224337580083
 30
0.0
 10
392.0336072153597
 20
-22.18176404610386
 30
0.0
 10
391.4748127276522
 20
-23.59115260911958
 30
0.0
 10
391.1192788735744
 20
-24.18801540193911
 30
0.0
 10
391.1192788735744
 20
-24.18801540193911
 30
0.0
 10
390.3193277018993
 20
-24.26415201216313
 30
0.0
 10
390.3193277018993
 20
-24.26415201216313
 30
0.0
  0
HATCH
  5
CC
330
BE
100
AcDbEntity
  8
Livello 1
 62
   250
420
  1842203
100
AcDbHatch
 10
0.0
 20
0.0
 30
0.0
210
0.0
220
0.0
230
1.0
  2
SOLID
 70
     1
 71
     0
 91
        1
 92
        1
 93
        1
 72
     4
 94
        3
 73
     0
 74
     0
 95
       17
 96
       13
 40
0.0
 40
0.0
 40
0.0
 40
0.0
 40
1.0
 40
1.0
 40
1.0
 40
2.0
 40
2.0
 40
2.0
 40
3.0
 40
3.0
 40
3.0
 40
4.0
 40
4.0
 40
4.0
 40
4.0
 10
390.3193277018993
 20
-24.26415201216313
 10
390.5987249457531
 20
-23.51501599889555
 10
390.9415119465355
 20
-22.15627033951302
 10
391.0813828232366
 20
-21.22936739920655
 10
391.0813828232366
 20
-21.22936739920655
 10
392.3257513125088
 20
-21.10224337580083
 10
392.3257513125088
 20
-21.10224337580083
 10
392.0336072153597
 20
-22.18176404610386
 10
391.4748127276522
 20
-23.59115260911958
 10
391.1192788735744
 20
-24.18801540193911
 10
391.1192788735744
 20
-24.18801540193911
 10
390.3193277018993
 20
-24.26415201216313
 10
390.3193277018993
 20
-24.26415201216313
 97
        0
 97
        0
 75
     2
 76
     1
 98
        0
450
        0
451
        0
460
0.0
461
0.0
452
        0
462
0.0
453
        0
470

  0
SPLINE
  5
CD
330
BE
100
AcDbEntity
  8
Livello 1
370
     0
100
AcDbSpline
210
0.0
220
0.0
230
1.0
 70
    11
 71
     3
 72
    50
 73
    46
 74
     0
 42
0.000000001
 43
0.0000000001
 40
0.0
 40
0.0
 40
0.0
 40
0.0
 40
1.0
 40
1.0
 40
1.0
 40
2.0
 40
2.0
 40
2.0
 40
3.0
 40
3.0
 40
3.0
 40
4.0
 40
4.0
 40
4.0
 40
5.0
 40
5.0
 40
5.0
 40
6.0
 40
6.0
 40
6.0
 40
7.0
 40
7.0
 40
7.0
 40
8.0
 40
8.0
 40
8.0
 40
9.0
 40
9.0
 40
9.0
 40
10.0
 40
10.0
 40
10.0
 40
11.0
 40
11.0
 40
11.0
 40
12.0
 40
12.0
 40
12.0
 40
13.0
 40
13.0
 40
13.0
 40
14.0
 40
14.0
 40
14.0
 40
15.0
 40
15.0
 40
15.0
 40
15.0
 10
398.2433918275225
 20
-15.38803574919119
 30
0.0
 10
398.2433918275225
 20
-15.38803574919119
 30
0.0
 10
395.0942300444556
 20
-15.38803574919119
 30
0.0
 10
395.0942300444556
 20
-15.38803574919119
 30
0.0
 10
395.0942300444556
 20
-15.38803574919119
 30
0.0
 10
394.7765922407156
 20
-17.50866427513672
 30
0.0
 10
394.7765922407156
 20
-17.50866427513672
 30
0.0
 10
394.9671060210499
 20
-17.48334282332014
 30
0.0
 10
395.1448729480889
 20
-17.45784911672929
 30
0.0
 10
395.4497638985334
 20
-17.45784911672929
 30
0.0
 10
396.084694996465
 20
-17.45784911672929
 30
0.0
 10
396.7196260943965
 20
-17.59754773865617
 30
0.0
 10
397.2274331689224
 20
-17.90226643432652
 30
0.0
 10
397.8751111201493
 20
-18.27054714169973
 30
0.0
 10
398.4084119012661
 20
-18.98161484985529
 30
0.0
 10
398.4084119012661
 20
-20.02289496027205
 30
0.0
 10
398.4084119012661
 20
-21.63571641169177
 30
0.0
 10
397.1258028521075
 20
-22.842016595852
 30
0.0
 10
395.3353867284231
 20
-22.842016595852
 30
0.0
 10
394.4338052399332
 20
-22.842016595852
 30
0.0
 10
393.671750118596
 20
-22.58811305858908
 30
0.0
 10
393.2783202141804
 20
-22.33403726655191
 30
0.0
 10
393.2783202141804
 20
-22.33403726655191
 30
0.0
 10
393.5577174580343
 20
-21.48327093646946
 30
0.0
 10
393.5577174580343
 20
-21.48327093646946
 30
0.0
 10
393.9005044588166
 20
-21.6865315700992
 30
0.0
 10
394.5736761166344
 20
-21.94043510736211
 30
0.0
 10
395.3226398751277
 20
-21.94043510736211
 30
0.0
 10
396.3768390936142
 20
-21.94043510736211
 30
0.0
 10
397.278420582104
 20
-21.25468885102313
 30
0.0
 10
397.278420582104
 20
-20.15001898367777
 30
0.0
 10
397.2656737288086
 20
-19.08324516667016
 30
0.0
 10
396.554606020653
 20
-18.32136230010716
 30
0.0
 10
394.9037162641213
 20
-18.32136230010716
 30
0.0
 10
394.4338052399332
 20
-18.32136230010716
 30
0.0
 10
394.0655245325601
 20
-18.3721774585146
 30
0.0
 10
393.7609780916639
 20
-18.41024576362661
 30
0.0
 10
393.7609780916639
 20
-18.41024576362661
 30
0.0
 10
394.2942788727807
 20
-14.44838595558929
 30
0.0
 10
394.2942788727807
 20
-14.44838595558929
 30
0.0
 10
394.2942788727807
 20
-14.44838595558929
 30
0.0
 10
398.2433918275225
 20
-14.44838595558929
 30
0.0
 10
398.2433918275225
 20
-14.44838595558929
 30
0.0
 10
398.2433918275225
 20
-14.44838595558929
 30
0.0
 10
398.2433918275225
 20
-15.38803574919119
 30
0.0
 10
398.2433918275225
 20
-15.38803574919119
 30
0.0
  0
HATCH
  5
CE
330
BE
100
AcDbEntity
  8
Livello 1
 62
   250
420
  1842203
100
AcDbHatch
 10
0.0
 20
0.0
 30
0.0
210
0.0
220
0.0
230
1.0
  2
SOLID
 70
     1
 71
     0
 91
        1
 92
        1
 93
        1
 72
     4
 94
        3
 73
     0
 74
     0
 95
       50
 96
       46
 40
0.0
 40
0.0
 40
0.0
 40
0.0
 40
1.0
 40
1.0
 40
1.0
 40
2.0
 40
2.0
 40
2.0
 40
3.0
 40
3.0
 40
3.0
 40
4.0
 40
4.0
 40
4.0
 40
5.0
 40
5.0
 40
5.0
 40
6.0
 40
6.0
 40
6.0
 40
7.0
 40
7.0
 40
7.0
 40
8.0
 40
8.0
 40
8.0
 40
9.0
 40
9.0
 40
9.0
 40
10.0
 40
10.0
 40
10.0
 40
11.0
 40
11.0
 40
11.0
 40
12.0
 40
12.0
 40
12.0
 40
13.0
 40
13.0
 40
13.0
 40
14.0
 40
14.0
 40
14.0
 40
15.0
 40
15.0
 40
15.0
 40
15.0
 10
398.2433918275225
 20
-15.38803574919119
 10
398.2433918275225
 20
-15.38803574919119
 10
395.0942300444556
 20
-15.38803574919119
 10
395.0942300444556
 20
-15.38803574919119
 10
395.0942300444556
 20
-15.38803574919119
 10
394.7765922407156
 20
-17.50866427513672
 10
394.7765922407156
 20
-17.50866427513672
 10
394.9671060210499
 20
-17.48334282332014
 10
395.1448729480889
 20
-17.45784911672929
 10
395.4497638985334
 20
-17.45784911672929
 10
396.084694996465
 20
-17.45784911672929
 10
396.7196260943965
 20
-17.59754773865617
 10
397.2274331689224
 20
-17.90226643432652
 10
397.8751111201493
 20
-18.27054714169973
 10
398.4084119012661
 20
-18.98161484985529
 10
398.4084119012661
 20
-20.02289496027205
 10
398.4084119012661
 20
-21.63571641169177
 10
397.1258028521075
 20
-22.842016595852
 10
395.3353867284231
 20
-22.842016595852
 10
394.4338052399332
 20
-22.842016595852
 10
393.671750118596
 20
-22.58811305858908
 10
393.2783202141804
 20
-22.33403726655191
 10
393.2783202141804
 20
-22.33403726655191
 10
393.5577174580343
 20
-21.48327093646946
 10
393.5577174580343
 20
-21.48327093646946
 10
393.9005044588166
 20
-21.6865315700992
 10
394.5736761166344
 20
-21.94043510736211
 10
395.3226398751277
 20
-21.94043510736211
 10
396.3768390936142
 20
-21.94043510736211
 10
397.278420582104
 20
-21.25468885102313
 10
397.278420582104
 20
-20.15001898367777
 10
397.2656737288086
 20
-19.08324516667016
 10
396.554606020653
 20
-18.32136230010716
 10
394.9037162641213
 20
-18.32136230010716
 10
394.4338052399332
 20
-18.32136230010716
 10
394.0655245325601
 20
-18.3721774585146
 10
393.7609780916639
 20
-18.41024576362661
 10
393.7609780916639
 20
-18.41024576362661
 10
394.2942788727807
 20
-14.44838595558929
 10
394.2942788727807
 20
-14.44838595558929
 10
394.2942788727807
 20
-14.44838595558929
 10
398.2433918275225
 20
-14.44838595558929
 10
398.2433918275225
 20
-14.44838595558929
 10
398.2433918275225
 20
-14.44838595558929
 10
398.2433918275225
 20
-15.38803574919119
 10
398.2433918275225
 20
-15.38803574919119
 97
        0
 97
        0
 75
     2
 76
     1
 98
        0
450
        0
451
        0
460
0.0
461
0.0
452
        0
462
0.0
453
        0
470

  0
ENDBLK
  5
C1
330
BE
100
AcDbEntity
  8
0
100
AcDbBlockEnd
  0
ENDSEC
  0
SECTION
  2
ENTITIES
  0
LINE
  5
101
330
1F
100
AcDbEntity
  8
Livello 1
100
AcDbLine
 10
445.0271528369971
 20
-142.234962133768
 30
0.0
 11
335.027163976664
 21
-142.234962133768
 31
0.0
  0
LINE
  5
102
330
1F
100
AcDbEntity
  8
Livello 1
100
AcDbLine
 10
335.027163976664
 20
-142.234962133768
 30
0.0
 11
335.027163976664
 21
-137.6589757460227
 31
0.0
  0
LINE
  5
103
330
1F
100
AcDbEntity
  8
Livello 1
100
AcDbLine
 10
335.027163976664
 20
-137.6589757460227
 30
0.0
 11
445.0271528369971
 21
-137.6589757460227
 31
0.0
  0
LINE
  5
104
330
1F
100
AcDbEntity
  8
Livello 1
100
AcDbLine
 10
445.0271528369971
 20
-137.6589757460227
 30
0.0
 11
445.0271528369971
 21
-142.234962133768
 31
0.0
  0
LINE
  5
105
330
1F
100
AcDbEntity
  8
Livello 1
100
AcDbLine
 10
394.3390199634925
 20
-37.47336771551381
 30
0.0
 11
363.278912978124
 21
-37.47336771551381
 31
0.0
  0
LINE
  5
106
330
1F
100
AcDbEntity
  8
Livello 1
100
AcDbLine
 10
363.278912978124
 20
-37.47336771551381
 30
0.0
 11
363.278912978124
 21
-32.50410466120073
 31
0.0
  0
LINE
  5
107
330
1F
100
AcDbEntity
  8
Livello 1
100
AcDbLine
 10
363.278912978124
 20
-32.50410466120073
 30
0.0
 11
394.3390199634925
 21
-32.50410466120073
 31
0.0
  0
LINE
  5
108
330
1F
100
AcDbEntity
  8
Livello 1
100
AcDbLine
 10
394.3390199634925
 20
-32.50410466120073
 30
0.0
 11
394.3390199634925
 21
-37.47336771551381
 31
0.0
  0
LINE
  5
109
330
1F
100
AcDbEntity
  8
Livello 1
100
AcDbLine
 10
348.1714214188074
 20
-137.6589757460227
 30
0.0
 11
348.1714214188074
 21
-35.80945604926321
 31
0.0
  0
LINE
  5
10A
330
1F
100
AcDbEntity
  8
Livello 1
100
AcDbLine
 10
348.8128019582963
 20
-35.86240799369436
 30
0.0
 11
347.530031435467
 21
-35.86240799369436
 31
0.0
  0
LINE
  5
10B
330
1F
100
AcDbEntity
  8
Livello 1
100
AcDbLine
 10
347.530031435467
 20
-35.86240799369436
 30
0.0
 11
347.530031435467
 21
-32.99834632774378
 31
0.0
  0
LINE
  5
10C
330
1F
100
AcDbEntity
  8
Livello 1
100
AcDbLine
 10
347.530031435467
 20
-32.99834632774378
 30
0.0
 11
348.8128019582963
 21
-32.99834632774378
 31
0.0
  0
LINE
  5
10D
330
1F
100
AcDbEntity
  8
Livello 1
100
AcDbLine
 10
348.8128019582963
 20
-32.99834632774378
 30
0.0
 11
348.8128019582963
 21
-35.86240799369436
 31
0.0
  0
LINE
  5
10E
330
1F
100
AcDbEntity
  8
Livello 1
100
AcDbLine
 10
431.8829353945562
 20
-137.2176860239112
 30
0.0
 11
431.8829353945562
 21
-35.36816632715132
 31
0.0
  0
LINE
  5
10F
330
1F
100
AcDbEntity
  8
Livello 1
100
AcDbLine
 10
432.524320655971
 20
-35.36816632715132
 30
0.0
 11
431.2415501331416
 21
-35.36816632715132
 31
0.0
  0
LINE
  5
110
330
1F
100
AcDbEntity
  8
Livello 1
100
AcDbLine
 10
431.2415501331416
 20
-35.36816632715132
 30
0.0
 11
431.2415501331416
 21
-32.50410466120073
 31
0.0
  0
LINE
  5
111
330
1F
100
AcDbEntity
  8
Livello 1
100
AcDbLine
 10
431.2415501331416
 20
-32.50410466120073
 30
0.0
 11
432.524320655971
 21
-32.50410466120073
 31
0.0
  0
LINE
  5
112
330
1F
100
AcDbEntity
  8
Livello 1
100
AcDbLine
 10
432.524320655971
 20
-32.50410466120073
 30
0.0
 11
432.524320655971
 21
-35.36816632715132
 31
0.0
  0
LINE
  5
113
330
1F
100
AcDbEntity
  8
Livello 1
100
AcDbLine
 10
407.5816271256453
 20
-137.2178624128001
 30
0.0
 11
407.0404307505636
 21
-137.2178624128001
 31
0.0
  0
LINE
  5
114
330
1F
100
AcDbEntity
  8
Livello 1
100
AcDbLine
 10
407.0404307505636
 20
-137.2178624128001
 30
0.0
 11
407.0404307505636
 21
-35.36830743826236
 31
0.0
  0
LINE
  5
115
330
1F
100
AcDbEntity
  8
Livello 1
100
AcDbLine
 10
407.0404307505636
 20
-35.36830743826236
 30
0.0
 11
407.5816271256453
 21
-35.36830743826236
 31
0.0
  0
LINE
  5
116
330
1F
100
AcDbEntity
  8
Livello 1
100
AcDbLine
 10
407.5816271256453
 20
-35.36830743826236
 30
0.0
 11
407.5816271256453
 21
-137.2178624128001
 31
0.0
  0
LINE
  5
117
330
1F
100
AcDbEntity
  8
Livello 1
100
AcDbLine
 10
407.9525023939614
 20
-35.36816632715132
 30
0.0
 11
406.6697380708482
 21
-35.36816632715132
 31
0.0
  0
LINE
  5
118
330
1F
100
AcDbEntity
  8
Livello 1
100
AcDbLine
 10
406.6697380708482
 20
-35.36816632715132
 30
0.0
 11
406.6697380708482
 21
-32.50410466120073
 31
0.0
  0
LINE
  5
119
330
1F
100
AcDbEntity
  8
Livello 1
100
AcDbLine
 10
406.6697380708482
 20
-32.50410466120073
 30
0.0
 11
407.9525023939614
 21
-32.50410466120073
 31
0.0
  0
LINE
  5
11A
330
1F
100
AcDbEntity
  8
Livello 1
100
AcDbLine
 10
407.9525023939614
 20
-32.50410466120073
 30
0.0
 11
407.9525023939614
 21
-35.36816632715132
 31
0.0
  0
SPLINE
  5
11B
330
1F
100
AcDbEntity
  8
Livello 1
100
AcDbSpline
210
0.0
220
0.0
230
1.0
 70
     8
 71
     3
 72
     8
 73
     4
 74
     0
 42
0.000000001
 43
0.0000000001
 40
0.0
 40
0.0
 40
0.0
 40
0.0
 40
1.0
 40
1.0
 40
1.0
 40
1.0
 10
381.0314311363307
 20
-49.73546465689285
 30
0.0
 10
378.6592123079622
 20
-49.73546465689285
 30
0.0
 10
376.4363948646709
 20
-49.26334215701075
 30
0.0
 10
374.4954468586331
 20
-48.32262493502386
 30
0.0
  0
SPLINE
  5
11C
330
1F
100
AcDbEntity
  8
Livello 1
100
AcDbSpline
210
0.0
220
0.0
230
1.0
 70
     8
 71
     3
 72
     8
 73
     4
 74
     0
 42
0.000000001
 43
0.0000000001
 40
1.0
 40
1.0
 40
1.0
 40
1.0
 40
2.0
 40
2.0
 40
2.0
 40
2.0
 10
374.4954468586331
 20
-48.32262493502386
 30
0.0
 10
370.2946750213594
 20
-46.28653271331065
 30
0.0
 10
367.6405867557374
 20
-41.81235799220686
 30
0.0
 10
368.1849581307382
 20
-37.68415243768329
 30
0.0
  0
SPLINE
  5
11D
330
1F
100
AcDbEntity
  8
Livello 1
100
AcDbSpline
210
0.0
220
0.0
230
1.0
 70
    24
 71
     3
 72
     8
 73
     4
 74
     0
 42
0.000000001
 43
0.0000000001
 40
2.0
 40
2.0
 40
2.0
 40
2.0
 40
3.0
 40
3.0
 40
3.0
 40
3.0
 10
368.1849581307382
 20
-37.68415243768329
 30
0.0
 10
368.1849581307382
 20
-37.68415243768329
 30
0.0
 10
368.7211803392802
 20
-37.75463743766579
 30
0.0
 10
368.7211803392802
 20
-37.75463743766579
 30
0.0
  0
SPLINE
  5
11E
330
1F
100
AcDbEntity
  8
Livello 1
100
AcDbSpline
210
0.0
220
0.0
230
1.0
 70
     8
 71
     3
 72
     8
 73
     4
 74
     0
 42
0.000000001
 43
0.0000000001
 40
3.0
 40
3.0
 40
3.0
 40
3.0
 40
4.0
 40
4.0
 40
4.0
 40
4.0
 10
368.7211803392802
 20
-37.75463743766579
 30
0.0
 10
368.2067950746255
 20
-41.65875854780071
 30
0.0
 10
370.7343825242773
 20
-45.89826549118526
 30
0.0
 10
374.7314904637223
 20
-47.83572104625652
 30
0.0
  0
SPLINE
  5
11F
330
1F
100
AcDbEntity
  8
Livello 1
100
AcDbSpline
210
0.0
220
0.0
230
1.0
 70
     8
 71
     3
 72
     8
 73
     4
 74
     0
 42
0.000000001
 43
0.0000000001
 40
4.0
 40
4.0
 40
4.0
 40
4.0
 40
5.0
 40
5.0
 40
5.0
 40
5.0
 10
374.7314904637223
 20
-47.83572104625652
 30
0.0
 10
378.1811278757147
 20
-49.50714687917202
 30
0.0
 10
382.5717999859215
 20
-49.64102604580522
 30
0.0
 10
387.0959984816107
 20
-48.2126993794958
 30
0.0
  0
SPLINE
  5
120
330
1F
100
AcDbEntity
  8
Livello 1
100
AcDbSpline
210
0.0
220
0.0
230
1.0
 70
     8
 71
     3
 72
     8
 73
     4
 74
     0
 42
0.000000001
 43
0.0000000001
 40
5.0
 40
5.0
 40
5.0
 40
5.0
 40
6.0
 40
6.0
 40
6.0
 40
6.0
 10
387.0959984816107
 20
-48.2126993794958
 30
0.0
 10
389.6528259163806
 20
-47.40483826858665
 30
0.0
 10
391.7628955847704
 20
-46.26257910220553
 30
0.0
 10
393.3670466549563
 20
-44.81770715812234
 30
0.0
  0
SPLINE
  5
121
330
1F
100
AcDbEntity
  8
Livello 1
100
AcDbSpline
210
0.0
220
0.0
230
1.0
 70
     8
 71
     3
 72
     8
 73
     4
 74
     0
 42
0.000000001
 43
0.0000000001
 40
6.0
 40
6.0
 40
6.0
 40
6.0
 40
7.0
 40
7.0
 40
7.0
 40
7.0
 10
393.3670466549563
 20
-44.81770715812234
 30
0.0
 10
394.7076374540883
 20
-43.61028993620172
 30
0.0
 10
395.7921115930877
 20
-42.10689215879984
 30
0.0
 10
396.8413491844175
 20
-40.65284799249679
 30
0.0
  0
SPLINE
  5
122
330
1F
100
AcDbEntity
  8
Livello 1
100
AcDbSpline
210
0.0
220
0.0
230
1.0
 70
     8
 71
     3
 72
     8
 73
     4
 74
     0
 42
0.000000001
 43
0.0000000001
 40
7.0
 40
7.0
 40
7.0
 40
7.0
 40
8.0
 40
8.0
 40
8.0
 40
8.0
 10
396.8413491844175
 20
-40.65284799249679
 30
0.0
 10
397.4811409944414
 20
-39.7657177149409
 30
0.0
 10
398.1431637553296
 20
-38.84789577072587
 30
0.0
 10
398.862265959206
 20
-37.99703104871632
 30
0.0
  0
SPLINE
  5
123
330
1F
100
AcDbEntity
  8
Livello 1
100
AcDbSpline
210
0.0
220
0.0
230
1.0
 70
     8
 71
     3
 72
     8
 73
     4
 74
     0
 42
0.000000001
 43
0.0000000001
 40
8.0
 40
8.0
 40
8.0
 40
8.0
 40
9.0
 40
9.0
 40
9.0
 40
9.0
 10
398.862265959206
 20
-37.99703104871632
 30
0.0
 10
400.2455075905832
 20
-36.35978938245879
 30
0.0
 10
403.0965164067368
 20
-33.65461882757982
 30
0.0
 10
406.5908860398101
 20
-33.95973632750339
 30
0.0
  0
SPLINE
  5
124
330
1F
100
AcDbEntity
  8
Livello 1
100
AcDbSpline
210
0.0
220
0.0
230
1.0
 70
    24
 71
     3
 72
     8
 73
     4
 74
     0
 42
0.000000001
 43
0.0000000001
 40
9.0
 40
9.0
 40
9.0
 40
9.0
 40
10.0
 40
10.0
 40
10.0
 40
10.0
 10
406.5908860398101
 20
-33.95973632750339
 30
0.0
 10
406.5908860398101
 20
-33.95973632750339
 30
0.0
 10
406.5443546521083
 20
-34.49878077181316
 30
0.0
 10
406.5443546521083
 20
-34.49878077181316
 30
0.0
  0
SPLINE
  5
125
330
1F
100
AcDbEntity
  8
Livello 1
100
AcDbSpline
210
0.0
220
0.0
230
1.0
 70
     8
 71
     3
 72
     8
 73
     4
 74
     0
 42
0.000000001
 43
0.0000000001
 40
10.0
 40
10.0
 40
10.0
 40
10.0
 40
11.0
 40
11.0
 40
11.0
 40
11.0
 10
406.5443546521083
 20
-34.49878077181316
 30
0.0
 10
403.2705769578517
 20
-34.21553549410599
 30
0.0
 10
400.5914767484235
 20
-36.78855549346272
 30
0.0
 10
399.2751923375602
 20
-38.34652799307349
 30
0.0
  0
SPLINE
  5
126
330
1F
100
AcDbEntity
  8
Livello 1
100
AcDbSpline
210
0.0
220
0.0
230
1.0
 70
     8
 71
     3
 72
     8
 73
     4
 74
     0
 42
0.000000001
 43
0.0000000001
 40
11.0
 40
11.0
 40
11.0
 40
11.0
 40
12.0
 40
12.0
 40
12.0
 40
12.0
 10
399.2751923375602
 20
-38.34652799307349
 30
0.0
 10
398.5698484666661
 20
-39.1815529928645
 30
0.0
 10
397.9141464063707
 20
-40.09055549263742
 30
0.0
 10
397.2799871106844
 20
-40.96960715908425
 30
0.0
  0
SPLINE
  5
127
330
1F
100
AcDbEntity
  8
Livello 1
100
AcDbSpline
210
0.0
220
0.0
230
1.0
 70
     8
 71
     3
 72
     8
 73
     4
 74
     0
 42
0.000000001
 43
0.0000000001
 40
12.0
 40
12.0
 40
12.0
 40
12.0
 40
13.0
 40
13.0
 40
13.0
 40
13.0
 10
397.2799871106844
 20
-40.96960715908425
 30
0.0
 10
396.2145276934221
 20
-42.44654660315946
 30
0.0
 10
395.1128027215294
 20
-43.97389799166645
 30
0.0
 10
393.7292435901603
 20
-45.22005021357714
 30
0.0
  0
SPLINE
  5
128
330
1F
100
AcDbEntity
  8
Livello 1
100
AcDbSpline
210
0.0
220
0.0
230
1.0
 70
     8
 71
     3
 72
     8
 73
     4
 74
     0
 42
0.000000001
 43
0.0000000001
 40
13.0
 40
13.0
 40
13.0
 40
13.0
 40
14.0
 40
14.0
 40
14.0
 40
14.0
 10
393.7292435901603
 20
-45.22005021357714
 30
0.0
 10
392.0673075214487
 20
-46.71674521320315
 30
0.0
 10
389.8903159103216
 20
-47.89738660179689
 30
0.0
 10
387.2587701441247
 20
-48.72849576825563
 30
0.0
  0
SPLINE
  5
129
330
1F
100
AcDbEntity
  8
Livello 1
100
AcDbSpline
210
0.0
220
0.0
230
1.0
 70
     8
 71
     3
 72
     8
 73
     4
 74
     0
 42
0.000000001
 43
0.0000000001
 40
14.0
 40
14.0
 40
14.0
 40
14.0
 40
15.0
 40
15.0
 40
15.0
 40
15.0
 10
387.2587701441247
 20
-48.72849576825563
 30
0.0
 10
385.1310968650728
 20
-49.40074910142092
 30
0.0
 10
383.0280474742817
 20
-49.73546465689285
 30
0.0
 10
381.0314311363307
 20
-49.73546465689285
 30
0.0
  0
LINE
  5
12A
330
1F
100
AcDbEntity
  8
Livello 1
100
AcDbLine
 10
445.0271524289746
 20
-168.9435545653667
 30
0.0
 11
335.027163976664
 21
-168.9435545653667
 31
0.0
  0
LINE
  5
12B
330
1F
100
AcDbEntity
  8
Livello 1
100
AcDbLine
 10
335.027163976664
 20
-168.9435545653667
 30
0.0
 11
335.027163976664
 21
-278.9435462045339
 31
0.0
  0
LINE
  5
12C
330
1F
100
AcDbEntity
  8
Livello 1
100
AcDbLine
 10
335.027163976664
 20
-278.9435462045339
 30
0.0
 11
445.0271524289746
 21
-278.9435462045339
 31
0.0
  0
LINE
  5
12D
330
1F
100
AcDbEntity
  8
Livello 1
100
AcDbLine
 10
445.0271524289746
 20
-278.9435462045339
 30
0.0
 11
445.0271524289746
 21
-168.9435545653667
 31
0.0
  0
LINE
  5
12E
330
1F
100
AcDbEntity
  8
Livello 1
100
AcDbLine
 10
442.1502881165499
 20
-171.8204220646479
 30
0.0
 11
337.9040314759446
 21
-171.8204220646479
 31
0.0
  0
LINE
  5
12F
330
1F
100
AcDbEntity
  8
Livello 1
100
AcDbLine
 10
337.9040314759446
 20
-171.8204220646479
 30
0.0
 11
337.9040314759446
 21
-276.0666787052533
 31
0.0
  0
LINE
  5
130
330
1F
100
AcDbEntity
  8
Livello 1
100
AcDbLine
 10
337.9040314759446
 20
-276.0666787052533
 30
0.0
 11
442.1502881165499
 21
-276.0666787052533
 31
0.0
  0
LINE
  5
131
330
1F
100
AcDbEntity
  8
Livello 1
100
AcDbLine
 10
442.1502881165499
 20
-276.0666787052533
 30
0.0
 11
442.1502881165499
 21
-171.8204220646479
 31
0.0
  0
LINE
  5
132
330
1F
100
AcDbEntity
  8
Livello 1
100
AcDbLine
 10
455.5182140391338
 20
-168.9435545653667
 30
0.0
 11
455.5182140391338
 21
-278.9435462045339
 31
0.0
  0
LINE
  5
133
330
1F
100
AcDbEntity
  8
Livello 1
100
AcDbLine
 10
331.6589650443342
 20
-137.6589757460227
 30
0.0
 11
331.6589650443342
 21
-142.234962133768
 31
0.0
  0
LINE
  5
134
330
1F
100
AcDbEntity
  8
Livello 1
100
AcDbLine
 10
363.278912978124
 20
-25.66705574315672
 30
0.0
 11
394.3390199634925
 21
-25.66705574315672
 31
0.0
  0
LINE
  5
135
330
1F
100
AcDbEntity
  8
Livello 1
100
AcDbLine
 10
454.0597880590016
 20
-32.23497049460113
 30
0.0
 11
454.0597880590016
 21
-32.23497049460113
 31
0.0
  0
LINE
  5
136
330
1F
100
AcDbEntity
  8
Livello 1
100
AcDbLine
 10
454.0597880590016
 20
-142.234962133768
 30
0.0
 11
454.0597880590016
 21
-142.234962133768
 31
0.0
  0
LINE
  5
137
330
1F
100
AcDbEntity
  8
Livello 1
100
AcDbLine
 10
449.0425041096385
 20
-32.23497049460113
 30
0.0
 11
449.0425041096385
 21
-142.234962133768
 31
0.0
  0
HATCH
  5
139
330
1F
100
AcDbEntity
  8
Livello 1
100
AcDbHatch
 10
0.0
 20
0.0
 30
0.0
210
0.0
220
0.0
230
1.0
  2
SOLID
 70
     1
 71
     0
 91
        1
 92
        1
 93
        1
 72
     4
 94
        3
 73
     0
 74
     0
 95
       47
 96
       43
 40
0.0
 40
0.0
 40
0.0
 40
0.0
 40
1.0
 40
1.0
 40
1.0
 40
2.0
 40
2.0
 40
2.0
 40
3.0
 40
3.0
 40
3.0
 40
4.0
 40
4.0
 40
4.0
 40
5.0
 40
5.0
 40
5.0
 40
6.0
 40
6.0
 40
6.0
 40
7.0
 40
7.0
 40
7.0
 40
8.0
 40
8.0
 40
8.0
 40
9.0
 40
9.0
 40
9.0
 40
10.0
 40
10.0
 40
10.0
 40
11.0
 40
11.0
 40
11.0
 40
12.0
 40
12.0
 40
12.0
 40
13.0
 40
13.0
 40
13.0
 40
14.0
 40
14.0
 40
14.0
 40
14.0
 10
459.6687553104301
 20
-85.72172713785775
 10
459.6687553104301
 20
-85.72172713785775
 10
458.9831813088652
 20
-85.72172713785775
 10
458.9831813088652
 20
-85.72172713785775
 10
458.9831813088652
 20
-85.72172713785775
 10
458.1322427240086
 20
-84.84546710118447
 10
458.1322427240086
 20
-84.84546710118447
 10
456.1258191133991
 20
-82.73758542853435
 10
455.0592175511658
 20
-81.78518878163705
 10
453.8148490618935
 20
-81.77244192834162
 10
452.9766573303323
 20
-81.77244192834162
 10
452.2021998652481
 20
-82.17879094082682
 10
452.2021998652481
 20
-83.41058483157791
 10
452.2021998652481
 20
-84.1597208448455
 10
452.5832274259166
 20
-84.78190508948161
 10
452.9005207201081
 20
-85.16293265015024
 10
452.9005207201081
 20
-85.16293265015024
 10
452.1133164017285
 20
-85.51846650422803
 10
452.1133164017285
 20
-85.51846650422803
 10
451.6306585242451
 20
-84.94709741799935
 10
451.2751246701673
 20
-84.13439939302891
 10
451.2751246701673
 20
-83.18200274613159
 10
451.2751246701673
 20
-81.40416122096841
 10
452.4943439623973
 20
-80.65502520770083
 10
453.6753226947409
 20
-80.65502520770083
 10
455.1990884278668
 20
-80.65502520770083
 10
456.4307100638436
 20
-81.75969507504621
 10
458.1070935269663
 20
-83.49946829509736
 10
458.1070935269663
 20
-83.49946829509736
 10
458.716530918307
 20
-84.1597208448455
 10
458.716530918307
 20
-84.1597208448455
 10
458.716530918307
 20
-84.1597208448455
 10
458.7420246248978
 20
-84.1597208448455
 10
458.7420246248978
 20
-84.1597208448455
 10
458.7420246248978
 20
-84.1597208448455
 10
458.7420246248978
 20
-80.45176457407109
 10
458.7420246248978
 20
-80.45176457407109
 10
458.7420246248978
 20
-80.45176457407109
 10
459.6687553104301
 20
-80.45176457407109
 10
459.6687553104301
 20
-80.45176457407109
 10
459.6687553104301
 20
-80.45176457407109
 10
459.6687553104301
 20
-85.72172713785775
 10
459.6687553104301
 20
-85.72172713785775
 97
        0
 97
        0
 75
     2
 76
     1
 98
        0
450
        0
451
        0
460
0.0
461
0.0
452
        0
462
0.0
453
        0
470

  0
SPLINE
  5
13B
330
1F
100
AcDbEntity
  8
Livello 1
100
AcDbSpline
210
0.0
220
0.0
230
1.0
 70
     9
 71
     3
 72
    17
 73
    13
 74
     0
 42
0.000000001
 43
0.0000000001
 40
0.0
 40
0.0
 40
0.0
 40
0.0
 40
1.0
 40
1.0
 40
1.0
 40
2.0
 40
2.0
 40
2.0
 40
3.0
 40
3.0
 40
3.0
 40
4.0
 40
4.0
 40
4.0
 40
4.0
 10
455.5801159885356
 20
-78.20366751517131
 30
0.0
 10
457.7260659662977
 20
-78.20366751517131
 30
0.0
 10
458.944940748979
 20
-77.54324271064891
 30
0.0
 10
458.944940748979
 20
-76.527456306823
 30
0.0
 10
458.944940748979
 20
-75.38454587959138
 30
0.0
 10
457.6116887961873
 20
-74.83849824517927
 30
0.0
 10
455.5036348687629
 20
-74.83849824517927
 30
0.0
 10
453.4720620611111
 20
-74.83849824517927
 30
0.0
 10
452.1388101083195
 20
-75.35922442777478
 30
0.0
 10
452.1388101083195
 20
-76.51470945352755
 30
0.0
 10
452.1388101083195
 20
-77.49259980701573
 30
0.0
 10
453.3321911844099
 20
-78.20366751517131
 30
0.0
 10
455.5801159885356
 20
-78.20366751517131
 30
0.0
  0
HATCH
  5
13C
330
1F
100
AcDbEntity
  8
Livello 1
100
AcDbHatch
 10
0.0
 20
0.0
 30
0.0
210
0.0
220
0.0
230
1.0
  2
SOLID
 70
     1
 71
     0
 91
        2
 92
        1
 93
        1
 72
     4
 94
        3
 73
     0
 74
     0
 95
       17
 96
       13
 40
0.0
 40
0.0
 40
0.0
 40
0.0
 40
1.0
 40
1.0
 40
1.0
 40
2.0
 40
2.0
 40
2.0
 40
3.0
 40
3.0
 40
3.0
 40
4.0
 40
4.0
 40
4.0
 40
4.0
 10
455.4529919651298
 20
-73.72108152453849
 10
458.2593667474143
 20
-73.72108152453849
 10
459.8086261871312
 20
-74.76236163495524
 10
459.8086261871312
 20
-76.59101831852585
 10
459.8086261871312
 20
-78.20366751517131
 10
458.2972627977521
 20
-79.29576278399551
 10
455.56736913524
 20
-79.32108423581209
 10
452.7988904032932
 20
-79.32108423581209
 10
451.2751246701673
 20
-78.1275309049473
 10
451.2751246701673
 20
-76.45131969659897
 10
451.2751246701673
 20
-74.71154647654781
 10
452.8243841098841
 20
-73.72108152453849
 10
455.4529919651298
 20
-73.72108152453849
 97
        0
 97
        0
 92
        1
 93
        1
 72
     4
 94
        3
 73
     0
 74
     0
 95
       17
 96
       13
 40
0.0
 40
0.0
 40
0.0
 40
0.0
 40
1.0
 40
1.0
 40
1.0
 40
2.0
 40
2.0
 40
2.0
 40
3.0
 40
3.0
 40
3.0
 40
4.0
 40
4.0
 40
4.0
 40
4.0
 10
455.5801159885356
 20
-78.20366751517131
 10
457.7260659662977
 20
-78.20366751517131
 10
458.944940748979
 20
-77.54324271064891
 10
458.944940748979
 20
-76.527456306823
 10
458.944940748979
 20
-75.38454587959138
 10
457.6116887961873
 20
-74.83849824517927
 10
455.5036348687629
 20
-74.83849824517927
 10
453.4720620611111
 20
-74.83849824517927
 10
452.1388101083195
 20
-75.35922442777478
 10
452.1388101083195
 20
-76.51470945352755
 10
452.1388101083195
 20
-77.49259980701573
 10
453.3321911844099
 20
-78.20366751517131
 10
455.5801159885356
 20
-78.20366751517131
 97
        0
 97
        0
 75
     2
 76
     1
 98
        0
450
        0
451
        0
460
0.0
461
0.0
452
        0
462
0.0
453
        0
470

  0
HATCH
  5
13E
330
1F
100
AcDbEntity
  8
Livello 1
100
AcDbHatch
 10
0.0
 20
0.0
 30
0.0
210
0.0
220
0.0
230
1.0
  2
SOLID
 70
     1
 71
     0
 91
        1
 92
        1
 93
        1
 72
     4
 94
        3
 73
     0
 74
     0
 95
       50
 96
       46
 40
0.0
 40
0.0
 40
0.0
 40
0.0
 40
1.0
 40
1.0
 40
1.0
 40
2.0
 40
2.0
 40
2.0
 40
3.0
 40
3.0
 40
3.0
 40
4.0
 40
4.0
 40
4.0
 40
5.0
 40
5.0
 40
5.0
 40
6.0
 40
6.0
 40
6.0
 40
7.0
 40
7.0
 40
7.0
 40
8.0
 40
8.0
 40
8.0
 40
9.0
 40
9.0
 40
9.0
 40
10.0
 40
10.0
 40
10.0
 40
11.0
 40
11.0
 40
11.0
 40
12.0
 40
12.0
 40
12.0
 40
13.0
 40
13.0
 40
13.0
 40
14.0
 40
14.0
 40
14.0
 40
15.0
 40
15.0
 40
15.0
 40
15.0
 10
452.354473085696
 20
-67.76485594009002
 10
452.354473085696
 20
-67.76485594009002
 10
452.354473085696
 20
-70.91401772315691
 10
452.354473085696
 20
-70.91401772315691
 10
452.354473085696
 20
-70.91401772315691
 10
454.4752738664159
 20
-71.23148327212269
 10
454.4752738664159
 20
-71.23148327212269
 10
454.4497801598251
 20
-71.04096949178837
 10
454.4242864532342
 20
-70.86320256474948
 10
454.4242864532342
 20
-70.55848386907912
 10
454.4242864532342
 20
-69.92355277114757
 10
454.5641573299353
 20
-69.28862167321604
 10
454.8687037708315
 20
-68.78064234391596
 10
455.2369844782046
 20
-68.13313664746324
 10
455.9480521863603
 20
-67.59966361157231
 10
456.9895045515512
 20
-67.59966361157231
 10
458.6021537481967
 20
-67.59966361157231
 10
459.8086261871312
 20
-68.88227266073082
 10
459.8086261871312
 20
-70.67268878441516
 10
459.8086261871312
 20
-71.57427027290504
 10
459.5547226498683
 20
-72.33632539424231
 10
459.3004746030567
 20
-72.72992755343209
 10
459.3004746030567
 20
-72.72992755343209
 10
458.4498805277487
 20
-72.45053030957834
 10
458.4498805277487
 20
-72.45053030957834
 10
458.6531411613783
 20
-72.10774330879599
 10
458.9070446986412
 20
-71.43474390575244
 10
458.9070446986412
 20
-70.68543563771058
 10
458.9070446986412
 20
-69.6314086739984
 10
458.2211261875281
 20
-68.72982718550851
 10
457.1166285749569
 20
-68.72982718550851
 10
456.0496825031751
 20
-68.74257403880394
 10
455.2879718913863
 20
-69.45364174695949
 10
455.2879718913863
 20
-71.10453150349123
 10
455.2879718913863
 20
-71.57427027290504
 10
455.3386147950194
 20
-71.94255098027827
 10
455.3768553549057
 20
-72.24744193072287
 10
455.3768553549057
 20
-72.24744193072287
 10
451.4149955468685
 20
-71.71396889483192
 10
451.4149955468685
 20
-71.71396889483192
 10
451.4149955468685
 20
-71.71396889483192
 10
451.4149955468685
 20
-67.76485594009002
 10
451.4149955468685
 20
-67.76485594009002
 10
451.4149955468685
 20
-67.76485594009002
 10
452.354473085696
 20
-67.76485594009002
 10
452.354473085696
 20
-67.76485594009002
 97
        0
 97
        0
 75
     2
 76
     1
 98
        0
450
        0
451
        0
460
0.0
461
0.0
452
        0
462
0.0
453
        0
470

  0
HATCH
  5
140
330
1F
100
AcDbEntity
  8
Livello 1
100
AcDbHatch
 10
0.0
 20
0.0
 30
0.0
210
0.0
220
0.0
230
1.0
  2
SOLID
 70
     1
 71
     0
 91
        1
 92
        1
 93
        1
 72
     4
 94
        3
 73
     0
 74
     0
 95
       47
 96
       43
 40
0.0
 40
0.0
 40
0.0
 40
0.0
 40
1.0
 40
1.0
 40
1.0
 40
2.0
 40
2.0
 40
2.0
 40
3.0
 40
3.0
 40
3.0
 40
4.0
 40
4.0
 40
4.0
 40
5.0
 40
5.0
 40
5.0
 40
6.0
 40
6.0
 40
6.0
 40
7.0
 40
7.0
 40
7.0
 40
8.0
 40
8.0
 40
8.0
 40
9.0
 40
9.0
 40
9.0
 40
10.0
 40
10.0
 40
10.0
 40
11.0
 40
11.0
 40
11.0
 40
12.0
 40
12.0
 40
12.0
 40
13.0
 40
13.0
 40
13.0
 40
14.0
 40
14.0
 40
14.0
 40
14.0
 10
328.9056775436417
 20
-147.9287827863685
 10
328.9056775436417
 20
-147.9287827863685
 10
328.2201035420769
 20
-147.9287827863685
 10
328.2201035420769
 20
-147.9287827863685
 10
328.2201035420769
 20
-147.9287827863685
 10
327.3691649572202
 20
-147.0525227496952
 10
327.3691649572202
 20
-147.0525227496952
 10
325.3627413466107
 20
-144.9446410770451
 10
324.2961397843774
 20
-143.9922444301478
 10
323.0517712951051
 20
-143.9794975768524
 10
322.2135795635438
 20
-143.9794975768524
 10
321.4391220984597
 20
-144.3858465893376
 10
321.4391220984597
 20
-145.6176404800887
 10
321.4391220984597
 20
-146.3667764933562
 10
321.8201496591283
 20
-146.9889607379924
 10
322.1374429533198
 20
-147.369988298661
 10
322.1374429533198
 20
-147.369988298661
 10
321.3502386349402
 20
-147.7255221527388
 10
321.3502386349402
 20
-147.7255221527388
 10
320.8675807574567
 20
-147.15415306651
 10
320.512046903379
 20
-146.3414550415396
 10
320.512046903379
 20
-145.3890583946423
 10
320.512046903379
 20
-143.6112168694791
 10
321.7312661956088
 20
-142.8620808562115
 10
322.9122449279525
 20
-142.8620808562115
 10
324.4360106610785
 20
-142.8620808562115
 10
325.6676322970553
 20
-143.9667507235569
 10
327.3440157601779
 20
-145.7065239436081
 10
327.3440157601779
 20
-145.7065239436081
 10
327.9534531515186
 20
-146.3667764933562
 10
327.9534531515186
 20
-146.3667764933562
 10
327.9534531515186
 20
-146.3667764933562
 10
327.9789468581095
 20
-146.3667764933562
 10
327.9789468581095
 20
-146.3667764933562
 10
327.9789468581095
 20
-146.3667764933562
 10
327.9789468581095
 20
-142.6588202225818
 10
327.9789468581095
 20
-142.6588202225818
 10
327.9789468581095
 20
-142.6588202225818
 10
328.9056775436417
 20
-142.6588202225818
 10
328.9056775436417
 20
-142.6588202225818
 10
328.9056775436417
 20
-142.6588202225818
 10
328.9056775436417
 20
-147.9287827863685
 10
328.9056775436417
 20
-147.9287827863685
 97
        0
 97
        0
 75
     2
 76
     1
 98
        0
450
        0
451
        0
460
0.0
461
0.0
452
        0
462
0.0
453
        0
470

  0
HATCH
  5
142
330
1F
100
AcDbEntity
  8
Livello 1
100
AcDbHatch
 10
0.0
 20
0.0
 30
0.0
210
0.0
220
0.0
230
1.0
  2
SOLID
 70
     1
 71
     0
 91
        1
 92
        1
 93
        1
 72
     4
 94
        3
 73
     0
 74
     0
 95
       17
 96
       13
 40
0.0
 40
0.0
 40
0.0
 40
0.0
 40
1.0
 40
1.0
 40
1.0
 40
2.0
 40
2.0
 40
2.0
 40
3.0
 40
3.0
 40
3.0
 40
4.0
 40
4.0
 40
4.0
 40
4.0
 10
330.4676838366539
 20
-141.78221567636
 10
329.7183755686122
 20
-141.5028184325062
 10
328.3596299092296
 20
-141.1598591769496
 10
327.4328992236973
 20
-141.0201605550228
 10
327.4328992236973
 20
-141.0201605550228
 10
327.3057752002916
 20
-139.7757920657505
 10
327.3057752002916
 20
-139.7757920657505
 10
328.3851236158203
 20
-140.0677639081254
 10
329.7945121788361
 20
-140.6265583958329
 10
330.3915472264299
 20
-140.9820922499107
 10
330.3915472264299
 20
-140.9820922499107
 10
330.4676838366539
 20
-141.78221567636
 10
330.4676838366539
 20
-141.78221567636
 97
        0
 97
        0
 75
     2
 76
     1
 98
        0
450
        0
451
        0
460
0.0
461
0.0
452
        0
462
0.0
453
        0
470

  0
HATCH
  5
144
330
1F
100
AcDbEntity
  8
Livello 1
100
AcDbHatch
 10
0.0
 20
0.0
 30
0.0
210
0.0
220
0.0
230
1.0
  2
SOLID
 70
     1
 71
     0
 91
        1
 92
        1
 93
        1
 72
     4
 94
        3
 73
     0
 74
     0
 95
       50
 96
       46
 40
0.0
 40
0.0
 40
0.0
 40
0.0
 40
1.0
 40
1.0
 40
1.0
 40
2.0
 40
2.0
 40
2.0
 40
3.0
 40
3.0
 40
3.0
 40
4.0
 40
4.0
 40
4.0
 40
5.0
 40
5.0
 40
5.0
 40
6.0
 40
6.0
 40
6.0
 40
7.0
 40
7.0
 40
7.0
 40
8.0
 40
8.0
 40
8.0
 40
9.0
 40
9.0
 40
9.0
 40
10.0
 40
10.0
 40
10.0
 40
11.0
 40
11.0
 40
11.0
 40
12.0
 40
12.0
 40
12.0
 40
13.0
 40
13.0
 40
13.0
 40
14.0
 40
14.0
 40
14.0
 40
15.0
 40
15.0
 40
15.0
 40
15.0
 10
321.5913953189077
 20
-133.8581515507369
 10
321.5913953189077
 20
-133.8581515507369
 10
321.5913953189077
 20
-137.0073133338037
 10
321.5913953189077
 20
-137.0073133338037
 10
321.5913953189077
 20
-137.0073133338037
 10
323.7121960996275
 20
-137.3247788827695
 10
323.7121960996275
 20
-137.3247788827695
 10
323.6867023930367
 20
-137.1342651024352
 10
323.6612086864458
 20
-136.9564981753963
 10
323.6612086864458
 20
-136.6517794797259
 10
323.6612086864458
 20
-136.0168483817944
 10
323.801079563147
 20
-135.3819172838629
 10
324.1056260040431
 20
-134.8739379545628
 10
324.4739067114162
 20
-134.2264322581101
 10
325.1849744195718
 20
-133.6929592222191
 10
326.2264267847629
 20
-133.6929592222191
 10
327.8390759814083
 20
-133.6929592222191
 10
329.0455484203428
 20
-134.9755682713777
 10
329.0455484203428
 20
-136.765984395062
 10
329.0455484203428
 20
-137.6675658835519
 10
328.7916448830799
 20
-138.4296210048891
 10
328.5373968362684
 20
-138.8232231640789
 10
328.5373968362684
 20
-138.8232231640789
 10
327.6868027609602
 20
-138.5438259202252
 10
327.6868027609602
 20
-138.5438259202252
 10
327.89006339459
 20
-138.2010389194428
 10
328.1439669318529
 20
-137.527867261625
 10
328.1439669318529
 20
-136.7787312483574
 10
328.1439669318529
 20
-135.7247042846452
 10
327.4580484207397
 20
-134.8231227961553
 10
326.3535508081686
 20
-134.8231227961553
 10
325.2866047363867
 20
-134.8358696494508
 10
324.5248941245979
 20
-135.5469373576063
 10
324.5248941245979
 20
-137.1978271141381
 10
324.5248941245979
 20
-137.6675658835519
 10
324.5755370282311
 20
-138.0358465909251
 10
324.6137775881174
 20
-138.3405652865954
 10
324.6137775881174
 20
-138.3405652865954
 10
320.6519177800801
 20
-137.8072645054787
 10
320.6519177800801
 20
-137.8072645054787
 10
320.6519177800801
 20
-137.8072645054787
 10
320.6519177800801
 20
-133.8581515507369
 10
320.6519177800801
 20
-133.8581515507369
 10
320.6519177800801
 20
-133.8581515507369
 10
321.5913953189077
 20
-133.8581515507369
 10
321.5913953189077
 20
-133.8581515507369
 97
        0
 97
        0
 75
     2
 76
     1
 98
        0
450
        0
451
        0
460
0.0
461
0.0
452
        0
462
0.0
453
        0
470

  0
HATCH
  5
146
330
1F
100
AcDbEntity
  8
Livello 1
100
AcDbHatch
 10
0.0
 20
0.0
 30
0.0
210
0.0
220
0.0
230
1.0
  2
SOLID
 70
     1
 71
     0
 91
        1
 92
        1
 93
        1
 72
     4
 94
        3
 73
     0
 74
     0
 95
       50
 96
       46
 40
0.0
 40
0.0
 40
0.0
 40
0.0
 40
1.0
 40
1.0
 40
1.0
 40
2.0
 40
2.0
 40
2.0
 40
3.0
 40
3.0
 40
3.0
 40
4.0
 40
4.0
 40
4.0
 40
5.0
 40
5.0
 40
5.0
 40
6.0
 40
6.0
 40
6.0
 40
7.0
 40
7.0
 40
7.0
 40
8.0
 40
8.0
 40
8.0
 40
9.0
 40
9.0
 40
9.0
 40
10.0
 40
10.0
 40
10.0
 40
11.0
 40
11.0
 40
11.0
 40
12.0
 40
12.0
 40
12.0
 40
13.0
 40
13.0
 40
13.0
 40
14.0
 40
14.0
 40
14.0
 40
15.0
 40
15.0
 40
15.0
 40
15.0
 10
458.2032116910048
 20
-226.2449326691332
 10
458.2032116910048
 20
-226.2449326691332
 10
458.2032116910048
 20
-229.3940944522001
 10
458.2032116910048
 20
-229.3940944522001
 10
458.2032116910048
 20
-229.3940944522001
 10
460.3236679621759
 20
-229.7113877463916
 10
460.3236679621759
 20
-229.7113877463916
 10
460.2985187651336
 20
-229.5212184756058
 10
460.2730250585429
 20
-229.3434515485669
 10
460.2730250585429
 20
-229.0385605981223
 10
460.2730250585429
 20
-228.4036295001908
 10
460.4125514256955
 20
-227.7686984022592
 10
460.7174423761401
 20
-227.2605468181849
 10
461.0857230835133
 20
-226.6132133765064
 10
461.7967907916688
 20
-226.0795680858412
 10
462.8378986473114
 20
-226.0795680858412
 10
464.4508923535054
 20
-226.0795680858412
 10
465.6570202828913
 20
-227.3625216445483
 10
465.6570202828913
 20
-229.1525932586841
 10
465.6570202828913
 20
-230.0545192567225
 10
465.4031167456284
 20
-230.8165743780598
 10
465.1492132083655
 20
-231.2100042824753
 10
465.1492132083655
 20
-231.2100042824753
 10
464.2982746235088
 20
-230.9306070386215
 10
464.2982746235088
 20
-230.9306070386215
 10
464.5015352571385
 20
-230.5878200378392
 10
464.7554387944014
 20
-229.9146483800214
 10
464.7554387944014
 20
-229.165684621528
 10
464.7554387944014
 20
-228.1114854030416
 10
464.0698647928367
 20
-227.2099039145517
 10
462.9650226707171
 20
-227.2099039145517
 10
461.8984211084838
 20
-227.2226507678471
 10
461.1363659871464
 20
-227.9337184760027
 10
461.1363659871464
 20
-229.5846082325344
 10
461.1363659871464
 20
-230.0545192567225
 10
461.1873534003282
 20
-230.4224554545472
 10
461.2252494506659
 20
-230.7273464049918
 10
461.2252494506659
 20
-230.7273464049918
 10
457.2633896426286
 20
-230.1940456238751
 10
457.2633896426286
 20
-230.1940456238751
 10
457.2633896426286
 20
-230.1940456238751
 10
457.2633896426286
 20
-226.2449326691332
 10
457.2633896426286
 20
-226.2449326691332
 10
457.2633896426286
 20
-226.2449326691332
 10
458.2032116910048
 20
-226.2449326691332
 10
458.2032116910048
 20
-226.2449326691332
 97
        0
 97
        0
 75
     2
 76
     1
 98
        0
450
        0
451
        0
460
0.0
461
0.0
452
        0
462
0.0
453
        0
470

  0
SPLINE
  5
148
330
1F
100
AcDbEntity
  8
Livello 1
100
AcDbSpline
210
0.0
220
0.0
230
1.0
 70
     9
 71
     3
 72
    17
 73
    13
 74
     0
 42
0.000000001
 43
0.0000000001
 40
0.0
 40
0.0
 40
0.0
 40
0.0
 40
1.0
 40
1.0
 40
1.0
 40
2.0
 40
2.0
 40
2.0
 40
3.0
 40
3.0
 40
3.0
 40
4.0
 40
4.0
 40
4.0
 40
4.0
 10
461.4285100842956
 20
-223.6538763546768
 30
0.0
 10
463.5744600620578
 20
-223.6538763546768
 30
0.0
 10
464.7936793542877
 20
-222.9934515501544
 30
0.0
 10
464.7936793542877
 20
-221.9778374011028
 30
0.0
 10
464.7936793542877
 20
-220.8347547190969
 30
0.0
 10
463.4604274014959
 20
-220.2887070846848
 30
0.0
 10
461.3523734740716
 20
-220.2887070846848
 30
0.0
 10
459.3204561568713
 20
-220.2887070846848
 30
0.0
 10
457.9872042040796
 20
-220.809261012506
 30
0.0
 10
457.9872042040796
 20
-221.9647460382588
 30
0.0
 10
457.9872042040796
 20
-222.9428086465213
 30
0.0
 10
459.1809297897187
 20
-223.6538763546768
 30
0.0
 10
461.4285100842956
 20
-223.6538763546768
 30
0.0
  0
HATCH
  5
149
330
1F
100
AcDbEntity
  8
Livello 1
100
AcDbHatch
 10
0.0
 20
0.0
 30
0.0
210
0.0
220
0.0
230
1.0
  2
SOLID
 70
     1
 71
     0
 91
        2
 92
        1
 93
        1
 72
     4
 94
        3
 73
     0
 74
     0
 95
       17
 96
       13
 40
0.0
 40
0.0
 40
0.0
 40
0.0
 40
1.0
 40
1.0
 40
1.0
 40
2.0
 40
2.0
 40
2.0
 40
3.0
 40
3.0
 40
3.0
 40
4.0
 40
4.0
 40
4.0
 40
4.0
 10
461.30138606089
 20
-219.1714626188183
 10
464.1077608431744
 20
-219.1714626188183
 10
465.6570202828913
 20
-220.2125704744608
 10
465.6570202828913
 20
-222.0412271580314
 10
465.6570202828913
 20
-223.6538763546768
 10
464.1460014030606
 20
-224.745971623501
 10
461.4157632310003
 20
-224.7711208205434
 10
458.647629008602
 20
-224.7711208205434
 10
457.123863275476
 20
-223.5777397444528
 10
457.123863275476
 20
-221.9013562813302
 10
457.123863275476
 20
-220.1615830612791
 10
458.6731227151927
 20
-219.1714626188183
 10
461.30138606089
 20
-219.1714626188183
 97
        0
 97
        0
 92
        1
 93
        1
 72
     4
 94
        3
 73
     0
 74
     0
 95
       17
 96
       13
 40
0.0
 40
0.0
 40
0.0
 40
0.0
 40
1.0
 40
1.0
 40
1.0
 40
2.0
 40
2.0
 40
2.0
 40
3.0
 40
3.0
 40
3.0
 40
4.0
 40
4.0
 40
4.0
 40
4.0
 10
461.4285100842956
 20
-223.6538763546768
 10
463.5744600620578
 20
-223.6538763546768
 10
464.7936793542877
 20
-222.9934515501544
 10
464.7936793542877
 20
-221.9778374011028
 10
464.7936793542877
 20
-220.8347547190969
 10
463.4604274014959
 20
-220.2887070846848
 10
461.3523734740716
 20
-220.2887070846848
 10
459.3204561568713
 20
-220.2887070846848
 10
457.9872042040796
 20
-220.809261012506
 10
457.9872042040796
 20
-221.9647460382588
 10
457.9872042040796
 20
-222.9428086465213
 10
459.1809297897187
 20
-223.6538763546768
 10
461.4285100842956
 20
-223.6538763546768
 97
        0
 97
        0
 75
     2
 76
     1
 98
        0
450
        0
451
        0
460
0.0
461
0.0
452
        0
462
0.0
453
        0
470

  0
HATCH
  5
14B
330
1F
100
AcDbEntity
  8
Livello 1
100
AcDbHatch
 10
0.0
 20
0.0
 30
0.0
210
0.0
220
0.0
230
1.0
  2
SOLID
 70
     1
 71
     0
 91
        1
 92
        1
 93
        1
 72
     4
 94
        3
 73
     0
 74
     0
 95
       47
 96
       43
 40
0.0
 40
0.0
 40
0.0
 40
0.0
 40
1.0
 40
1.0
 40
1.0
 40
2.0
 40
2.0
 40
2.0
 40
3.0
 40
3.0
 40
3.0
 40
4.0
 40
4.0
 40
4.0
 40
5.0
 40
5.0
 40
5.0
 40
6.0
 40
6.0
 40
6.0
 40
7.0
 40
7.0
 40
7.0
 40
8.0
 40
8.0
 40
8.0
 40
9.0
 40
9.0
 40
9.0
 40
10.0
 40
10.0
 40
10.0
 40
11.0
 40
11.0
 40
11.0
 40
12.0
 40
12.0
 40
12.0
 40
13.0
 40
13.0
 40
13.0
 40
14.0
 40
14.0
 40
14.0
 40
14.0
 10
359.8781194846833
 20
-22.70231797392512
 10
359.8781194846833
 20
-22.70231797392512
 10
359.8781194846833
 20
-22.01657171758614
 10
359.8781194846833
 20
-22.01657171758614
 10
359.8781194846833
 20
-22.01657171758614
 10
360.7545517761308
 20
-21.16580538750369
 10
360.7545517761308
 20
-21.16580538750369
 10
362.8622611940067
 20
-19.15938177689418
 10
363.8148300956782
 20
-18.09278021466083
 10
363.8275769489737
 20
-16.84841172538859
 10
363.8275769489737
 20
-16.01021999382731
 10
363.4210556817142
 20
-15.23559027396888
 10
362.1894340457374
 20
-15.23559027396888
 10
361.4401257776955
 20
-15.23559027396888
 10
360.8179415330594
 20
-15.61661783463751
 10
360.4369139723908
 20
-15.93408338360329
 10
360.4369139723908
 20
-15.93408338360329
 10
360.081380118313
 20
-15.14670681044944
 10
360.081380118313
 20
-15.14670681044944
 10
360.652921459316
 20
-14.6642211877402
 10
361.4656194842863
 20
-14.30868733366241
 10
362.4178438764094
 20
-14.30868733366241
 10
364.1958576563469
 20
-14.30868733366241
 10
364.9448214148402
 20
-15.52773437111807
 10
364.9448214148402
 20
-16.70871310346171
 10
364.9448214148402
 20
-18.23247883658771
 10
363.8403238022692
 20
-19.46427272733879
 10
362.1005505822179
 20
-21.1404839356871
 10
362.1005505822179
 20
-21.1404839356871
 10
361.4401257776955
 20
-21.7499213270278
 10
361.4401257776955
 20
-21.7499213270278
 10
361.4401257776955
 20
-21.7499213270278
 10
361.4401257776955
 20
-21.77541503361865
 10
361.4401257776955
 20
-21.77541503361865
 10
361.4401257776955
 20
-21.77541503361865
 10
365.1480820484699
 20
-21.77541503361865
 10
365.1480820484699
 20
-21.77541503361865
 10
365.1480820484699
 20
-21.77541503361865
 10
365.1480820484699
 20
-22.70231797392512
 10
365.1480820484699
 20
-22.70231797392512
 10
365.1480820484699
 20
-22.70231797392512
 10
359.8781194846833
 20
-22.70231797392512
 10
359.8781194846833
 20
-22.70231797392512
 97
        0
 97
        0
 75
     2
 76
     1
 98
        0
450
        0
451
        0
460
0.0
461
0.0
452
        0
462
0.0
453
        0
470

  0
HATCH
  5
14D
330
1F
100
AcDbEntity
  8
Livello 1
100
AcDbHatch
 10
0.0
 20
0.0
 30
0.0
210
0.0
220
0.0
230
1.0
  2
SOLID
 70
     1
 71
     0
 91
        1
 92
        1
 93
        1
 72
     4
 94
        3
 73
     0
 74
     0
 95
       59
 96
       55
 40
0.0
 40
0.0
 40
0.0
 40
0.0
 40
1.0
 40
1.0
 40
1.0
 40
2.0
 40
2.0
 40
2.0
 40
3.0
 40
3.0
 40
3.0
 40
4.0
 40
4.0
 40
4.0
 40
5.0
 40
5.0
 40
5.0
 40
6.0
 40
6.0
 40
6.0
 40
7.0
 40
7.0
 40
7.0
 40
8.0
 40
8.0
 40
8.0
 40
9.0
 40
9.0
 40
9.0
 40
10.0
 40
10.0
 40
10.0
 40
11.0
 40
11.0
 40
11.0
 40
12.0
 40
12.0
 40
12.0
 40
13.0
 40
13.0
 40
13.0
 40
14.0
 40
14.0
 40
14.0
 40
15.0
 40
15.0
 40
15.0
 40
16.0
 40
16.0
 40
16.0
 40
17.0
 40
17.0
 40
17.0
 40
18.0
 40
18.0
 40
18.0
 40
18.0
 10
366.6597899473976
 20
-21.4197089247666
 10
366.9770832415891
 20
-21.62296955839634
 10
367.7136446563356
 20
-21.94043510736211
 10
368.4884466309682
 20
-21.94043510736211
 10
369.9233289005747
 20
-21.94043510736211
 10
370.367746218172
 20
-21.02610676557681
 10
370.3549993648766
 20
-20.34036050923783
 10
370.3422525115811
 20
-19.18487548348503
 10
369.3011446559386
 20
-18.68964300748037
 10
368.2217962404098
 20
-18.68964300748037
 10
368.2217962404098
 20
-18.68964300748037
 10
367.5996119957737
 20
-18.68964300748037
 10
367.5996119957737
 20
-18.68964300748037
 10
367.5996119957737
 20
-18.68964300748037
 10
367.5996119957737
 20
-17.85145127591908
 10
367.5996119957737
 20
-17.85145127591908
 10
367.5996119957737
 20
-17.85145127591908
 10
368.2217962404098
 20
-17.85145127591908
 10
368.2217962404098
 20
-17.85145127591908
 10
369.0344942653803
 20
-17.85145127591908
 10
370.0628552677273
 20
-17.4325276649127
 10
370.0628552677273
 20
-16.45463731142453
 10
370.0628552677273
 20
-15.7943847616764
 10
369.643931656721
 20
-15.21026882215229
 10
368.6152261448254
 20
-15.21026882215229
 10
367.9551458498516
 20
-15.21026882215229
 10
367.32021475192
 20
-15.50224066452722
 10
366.9646808978422
 20
-15.75631645656439
 10
366.9646808978422
 20
-15.75631645656439
 10
366.672536800693
 20
-14.94361843159396
 10
366.672536800693
 20
-14.94361843159396
 10
367.1042072649948
 20
-14.62615288262819
 10
367.9423989965561
 20
-14.30868733366241
 10
368.8312336317505
 20
-14.30868733366241
 10
370.4566296816914
 20
-14.30868733366241
 10
371.1931910964378
 20
-15.27383083385515
 10
371.1931910964378
 20
-16.27687038438565
 10
371.1931910964378
 20
-17.12763671446809
 10
370.6850395123635
 20
-17.85145127591908
 10
369.6694253633119
 20
-18.21973198329229
 10
369.6694253633119
 20
-18.21973198329229
 10
369.6694253633119
 20
-18.24522568988314
 10
369.6694253633119
 20
-18.24522568988314
 10
370.6850395123635
 20
-18.44831406873862
 10
371.5104843906293
 20
-19.21019693530162
 10
371.5104843906293
 20
-20.36585421582868
 10
371.5104843906293
 20
-21.6865315700992
 10
370.4821233882823
 20
-22.842016595852
 10
368.5011934842636
 20
-22.842016595852
 10
367.5741182891829
 20
-22.842016595852
 10
366.7614202642125
 20
-22.54987249870281
 10
366.3548989969529
 20
-22.28322210814448
 10
366.3548989969529
 20
-22.28322210814448
 10
366.6597899473976
 20
-21.4197089247666
 10
366.6597899473976
 20
-21.4197089247666
 97
        0
 97
        0
 75
     2
 76
     1
 98
        0
450
        0
451
        0
460
0.0
461
0.0
452
        0
462
0.0
453
        0
470

  0
HATCH
  5
14F
330
1F
100
AcDbEntity
  8
Livello 1
100
AcDbHatch
 10
0.0
 20
0.0
 30
0.0
210
0.0
220
0.0
230
1.0
  2
SOLID
 70
     1
 71
     0
 91
        1
 92
        1
 93
        1
 72
     4
 94
        3
 73
     0
 74
     0
 95
       59
 96
       55
 40
0.0
 40
0.0
 40
0.0
 40
0.0
 40
1.0
 40
1.0
 40
1.0
 40
2.0
 40
2.0
 40
2.0
 40
3.0
 40
3.0
 40
3.0
 40
4.0
 40
4.0
 40
4.0
 40
5.0
 40
5.0
 40
5.0
 40
6.0
 40
6.0
 40
6.0
 40
7.0
 40
7.0
 40
7.0
 40
8.0
 40
8.0
 40
8.0
 40
9.0
 40
9.0
 40
9.0
 40
10.0
 40
10.0
 40
10.0
 40
11.0
 40
11.0
 40
11.0
 40
12.0
 40
12.0
 40
12.0
 40
13.0
 40
13.0
 40
13.0
 40
14.0
 40
14.0
 40
14.0
 40
15.0
 40
15.0
 40
15.0
 40
16.0
 40
16.0
 40
16.0
 40
17.0
 40
17.0
 40
17.0
 40
18.0
 40
18.0
 40
18.0
 40
18.0
 10
376.476589532617
 20
-16.55626762823941
 10
376.476589532617
 20
-16.55626762823941
 10
377.352677314516
 20
-17.87694498250993
 10
377.352677314516
 20
-17.87694498250993
 10
377.5810871451881
 20
-18.21973198329229
 10
377.7716009255223
 20
-18.53719753225806
 10
377.9748615591521
 20
-18.88015678781468
 10
377.9748615591521
 20
-18.88015678781468
 10
378.0131021190384
 20
-18.88015678781468
 10
378.0131021190384
 20
-18.88015678781468
 10
378.2160182431197
 20
-18.51187608044147
 10
378.4192788767493
 20
-18.1944105314757
 10
378.6225395103791
 20
-17.86419812921451
 10
378.6225395103791
 20
-17.86419812921451
 10
379.4858804389827
 20
-16.55626762823941
 10
379.4858804389827
 20
-16.55626762823941
 10
379.4858804389827
 20
-16.55626762823941
 10
380.6923528779172
 20
-16.55626762823941
 10
380.6923528779172
 20
-16.55626762823941
 10
380.6923528779172
 20
-16.55626762823941
 10
378.5970458037883
 20
-19.52766248426739
 10
378.5970458037883
 20
-19.52766248426739
 10
378.5970458037883
 20
-19.52766248426739
 10
380.7557426348458
 20
-22.70231797392512
 10
380.7557426348458
 20
-22.70231797392512
 10
380.7557426348458
 20
-22.70231797392512
 10
379.4858804389827
 20
-22.70231797392512
 10
379.4858804389827
 20
-22.70231797392512
 10
379.4858804389827
 20
-22.70231797392512
 10
378.5842989504928
 20
-21.31825086272598
 10
378.5842989504928
 20
-21.31825086272598
 10
378.3431422665253
 20
-20.96271700864821
 10
378.1398816328957
 20
-20.61975775309159
 10
377.924218655519
 20
-20.25147704571838
 10
377.924218655519
 20
-20.25147704571838
 10
377.8987249489281
 20
-20.25147704571838
 10
377.8987249489281
 20
-20.25147704571838
 10
377.6954643152984
 20
-20.61975775309159
 10
377.4798013379217
 20
-20.94997015535279
 10
377.2510469977012
 20
-21.31825086272598
 10
377.2510469977012
 20
-21.31825086272598
 10
376.3622123625067
 20
-22.70231797392512
 10
376.3622123625067
 20
-22.70231797392512
 10
376.3622123625067
 20
-22.70231797392512
 10
375.1305907265299
 20
-22.70231797392512
 10
375.1305907265299
 20
-22.70231797392512
 10
375.1305907265299
 20
-22.70231797392512
 10
377.3144367546298
 20
-19.5657307893794
 10
377.3144367546298
 20
-19.5657307893794
 10
377.3144367546298
 20
-19.5657307893794
 10
375.2322210433446
 20
-16.55626762823941
 10
375.2322210433446
 20
-16.55626762823941
 10
375.2322210433446
 20
-16.55626762823941
 10
376.476589532617
 20
-16.55626762823941
 10
376.476589532617
 20
-16.55626762823941
 97
        0
 97
        0
 75
     2
 76
     1
 98
        0
450
        0
451
        0
460
0.0
461
0.0
452
        0
462
0.0
453
        0
470

  0
HATCH
  5
152
330
1F
100
AcDbEntity
  8
Livello 1
100
AcDbHatch
 10
0.0
 20
0.0
 30
0.0
210
0.0
220
0.0
230
1.0
  2
SOLID
 70
     1
 71
     0
 91
        2
 92
        1
 93
        1
 72
     4
 94
        3
 73
     0
 74
     0
 95
       38
 96
       34
 40
0.0
 40
0.0
 40
0.0
 40
0.0
 40
1.0
 40
1.0
 40
1.0
 40
2.0
 40
2.0
 40
2.0
 40
3.0
 40
3.0
 40
3.0
 40
4.0
 40
4.0
 40
4.0
 40
5.0
 40
5.0
 40
5.0
 40
6.0
 40
6.0
 40
6.0
 40
7.0
 40
7.0
 40
7.0
 40
8.0
 40
8.0
 40
8.0
 40
9.0
 40
9.0
 40
9.0
 40
10.0
 40
10.0
 40
10.0
 40
11.0
 40
11.0
 40
11.0
 40
11.0
 10
388.8837564131957
 20
-15.23559027396888
 10
388.6553465825236
 20
-15.22301567544772
 10
388.3632024853745
 20
-15.23559027396888
 10
388.045909191183
 20
-15.28640543237632
 10
386.2933891178364
 20
-15.5785495295255
 10
385.3663139227557
 20
-16.86098632390975
 10
385.1758001424213
 20
-18.21973198329229
 10
385.1758001424213
 20
-18.21973198329229
 10
385.2140407023077
 20
-18.21973198329229
 10
385.2140407023077
 20
-18.21973198329229
 10
385.6078151162717
 20
-17.69917805547104
 10
386.2933891178364
 20
-17.26733533639497
 10
387.2077174596217
 20
-17.26733533639497
 10
388.6680934358191
 20
-17.26733533639497
 10
389.6964544381662
 20
-18.32136230010716
 10
389.6964544381662
 20
-19.93401149675261
 10
389.6964544381662
 20
-21.44520263135745
 10
388.6680934358191
 20
-22.842016595852
 10
386.9538139223588
 20
-22.842016595852
 10
385.1885469957167
 20
-22.842016595852
 10
384.033061969964
 20
-21.47052408317404
 10
384.033061969964
 20
-19.32457410541191
 10
384.033061969964
 20
-17.69917805547104
 10
384.6173501642623
 20
-16.41656900631252
 10
385.4300481892328
 20
-15.60387098134209
 10
386.1156221907975
 20
-14.93087157829853
 10
387.0299505325828
 20
-14.51177571251789
 10
388.0710583882253
 20
-14.38482394388643
 10
388.4014430452607
 20
-14.334008785479
 10
388.6808402891146
 20
-14.32143418695784
 10
388.8837564131957
 20
-14.32143418695784
 10
388.8837564131957
 20
-14.32143418695784
 10
388.8837564131957
 20
-15.23559027396888
 10
388.8837564131957
 20
-15.23559027396888
 97
        0
 97
        0
 92
        1
 93
        1
 72
     4
 94
        3
 73
     0
 74
     0
 95
       20
 96
       16
 40
0.0
 40
0.0
 40
0.0
 40
0.0
 40
1.0
 40
1.0
 40
1.0
 40
2.0
 40
2.0
 40
2.0
 40
3.0
 40
3.0
 40
3.0
 40
4.0
 40
4.0
 40
4.0
 40
5.0
 40
5.0
 40
5.0
 40
5.0
 10
388.5664631190043
 20
-19.99757350845547
 10
388.5664631190043
 20
-18.81659477611182
 10
387.8932914611864
 20
-18.10552706795626
 10
386.8649304588394
 20
-18.10552706795626
 10
386.1917588010215
 20
-18.10552706795626
 10
385.5695745563854
 20
-18.5246229337369
 10
385.2646836059408
 20
-19.12131347178217
 10
385.1885469957167
 20
-19.24843749518789
 10
385.1379040920836
 20
-19.41345756893136
 10
385.1379040920836
 20
-19.61654594778684
 10
385.1630532891259
 20
-20.97529160716937
 10
385.7855820433106
 20
-21.97850341247413
 10
386.9538139223588
 20
-21.97850341247413
 10
387.9187851677773
 20
-21.97850341247413
 10
388.5664631190043
 20
-21.17855224079911
 10
388.5664631190043
 20
-19.99757350845547
 97
        0
 97
        0
 75
     2
 76
     1
 98
        0
450
        0
451
        0
460
0.0
461
0.0
452
        0
462
0.0
453
        0
470

  0
HATCH
  5
154
330
1F
100
AcDbEntity
  8
Livello 1
100
AcDbHatch
 10
0.0
 20
0.0
 30
0.0
210
0.0
220
0.0
230
1.0
  2
SOLID
 70
     1
 71
     0
 91
        1
 92
        1
 93
        1
 72
     4
 94
        3
 73
     0
 74
     0
 95
       17
 96
       13
 40
0.0
 40
0.0
 40
0.0
 40
0.0
 40
1.0
 40
1.0
 40
1.0
 40
2.0
 40
2.0
 40
2.0
 40
3.0
 40
3.0
 40
3.0
 40
4.0
 40
4.0
 40
4.0
 40
4.0
 10
390.3193277018993
 20
-24.26415201216313
 10
390.5987249457531
 20
-23.51501599889555
 10
390.9415119465355
 20
-22.15627033951302
 10
391.0813828232366
 20
-21.22936739920655
 10
391.0813828232366
 20
-21.22936739920655
 10
392.3257513125088
 20
-21.10224337580083
 10
392.3257513125088
 20
-21.10224337580083
 10
392.0336072153597
 20
-22.18176404610386
 10
391.4748127276522
 20
-23.59115260911958
 10
391.1192788735744
 20
-24.18801540193911
 10
391.1192788735744
 20
-24.18801540193911
 10
390.3193277018993
 20
-24.26415201216313
 10
390.3193277018993
 20
-24.26415201216313
 97
        0
 97
        0
 75
     2
 76
     1
 98
        0
450
        0
451
        0
460
0.0
461
0.0
452
        0
462
0.0
453
        0
470

  0
HATCH
  5
156
330
1F
100
AcDbEntity
  8
Livello 1
100
AcDbHatch
 10
0.0
 20
0.0
 30
0.0
210
0.0
220
0.0
230
1.0
  2
SOLID
 70
     1
 71
     0
 91
        1
 92
        1
 93
        1
 72
     4
 94
        3
 73
     0
 74
     0
 95
       50
 96
       46
 40
0.0
 40
0.0
 40
0.0
 40
0.0
 40
1.0
 40
1.0
 40
1.0
 40
2.0
 40
2.0
 40
2.0
 40
3.0
 40
3.0
 40
3.0
 40
4.0
 40
4.0
 40
4.0
 40
5.0
 40
5.0
 40
5.0
 40
6.0
 40
6.0
 40
6.0
 40
7.0
 40
7.0
 40
7.0
 40
8.0
 40
8.0
 40
8.0
 40
9.0
 40
9.0
 40
9.0
 40
10.0
 40
10.0
 40
10.0
 40
11.0
 40
11.0
 40
11.0
 40
12.0
 40
12.0
 40
12.0
 40
13.0
 40
13.0
 40
13.0
 40
14.0
 40
14.0
 40
14.0
 40
15.0
 40
15.0
 40
15.0
 40
15.0
 10
398.2433918275225
 20
-15.38803574919119
 10
398.2433918275225
 20
-15.38803574919119
 10
395.0942300444556
 20
-15.38803574919119
 10
395.0942300444556
 20
-15.38803574919119
 10
395.0942300444556
 20
-15.38803574919119
 10
394.7765922407156
 20
-17.50866427513672
 10
394.7765922407156
 20
-17.50866427513672
 10
394.9671060210499
 20
-17.48334282332014
 10
395.1448729480889
 20
-17.45784911672929
 10
395.4497638985334
 20
-17.45784911672929
 10
396.084694996465
 20
-17.45784911672929
 10
396.7196260943965
 20
-17.59754773865617
 10
397.2274331689224
 20
-17.90226643432652
 10
397.8751111201493
 20
-18.27054714169973
 10
398.4084119012661
 20
-18.98161484985529
 10
398.4084119012661
 20
-20.02289496027205
 10
398.4084119012661
 20
-21.63571641169177
 10
397.1258028521075
 20
-22.842016595852
 10
395.3353867284231
 20
-22.842016595852
 10
394.4338052399332
 20
-22.842016595852
 10
393.671750118596
 20
-22.58811305858908
 10
393.2783202141804
 20
-22.33403726655191
 10
393.2783202141804
 20
-22.33403726655191
 10
393.5577174580343
 20
-21.48327093646946
 10
393.5577174580343
 20
-21.48327093646946
 10
393.9005044588166
 20
-21.6865315700992
 10
394.5736761166344
 20
-21.94043510736211
 10
395.3226398751277
 20
-21.94043510736211
 10
396.3768390936142
 20
-21.94043510736211
 10
397.278420582104
 20
-21.25468885102313
 10
397.278420582104
 20
-20.15001898367777
 10
397.2656737288086
 20
-19.08324516667016
 10
396.554606020653
 20
-18.32136230010716
 10
394.9037162641213
 20
-18.32136230010716
 10
394.4338052399332
 20
-18.32136230010716
 10
394.0655245325601
 20
-18.3721774585146
 10
393.7609780916639
 20
-18.41024576362661
 10
393.7609780916639
 20
-18.41024576362661
 10
394.2942788727807
 20
-14.44838595558929
 10
394.2942788727807
 20
-14.44838595558929
 10
394.2942788727807
 20
-14.44838595558929
 10
398.2433918275225
 20
-14.44838595558929
 10
398.2433918275225
 20
-14.44838595558929
 10
398.2433918275225
 20
-14.44838595558929
 10
398.2433918275225
 20
-15.38803574919119
 10
398.2433918275225
 20
-15.38803574919119
 97
        0
 97
        0
 75
     2
 76
     1
 98
        0
450
        0
451
        0
460
0.0
461
0.0
452
        0
462
0.0
453
        0
470

  0
SPLINE
  5
157
330
1F
100
AcDbEntity
  8
Livello 1
100
AcDbSpline
210
0.0
220
0.0
230
1.0
 70
    24
 71
     3
 72
     8
 73
     4
 74
     0
 42
0.000000001
 43
0.0000000001
 40
0.0
 40
0.0
 40
0.0
 40
0.0
 40
1.0
 40
1.0
 40
1.0
 40
1.0
 10
459.6687553104301
 20
-85.72172713785775
 30
0.0
 10
459.6687553104301
 20
-85.72172713785775
 30
0.0
 10
458.9831813088652
 20
-85.72172713785775
 30
0.0
 10
458.9831813088652
 20
-85.72172713785775
 30
0.0
  0
SPLINE
  5
158
330
1F
100
AcDbEntity
  8
Livello 1
100
AcDbSpline
210
0.0
220
0.0
230
1.0
 70
    24
 71
     3
 72
     8
 73
     4
 74
     0
 42
0.000000001
 43
0.0000000001
 40
1.0
 40
1.0
 40
1.0
 40
1.0
 40
2.0
 40
2.0
 40
2.0
 40
2.0
 10
458.9831813088652
 20
-85.72172713785775
 30
0.0
 10
458.9831813088652
 20
-85.72172713785775
 30
0.0
 10
458.1322427240086
 20
-84.84546710118447
 30
0.0
 10
458.1322427240086
 20
-84.84546710118447
 30
0.0
  0
SPLINE
  5
159
330
1F
100
AcDbEntity
  8
Livello 1
100
AcDbSpline
210
0.0
220
0.0
230
1.0
 70
     8
 71
     3
 72
     8
 73
     4
 74
     0
 42
0.000000001
 43
0.0000000001
 40
2.0
 40
2.0
 40
2.0
 40
2.0
 40
3.0
 40
3.0
 40
3.0
 40
3.0
 10
458.1322427240086
 20
-84.84546710118447
 30
0.0
 10
456.1258191133991
 20
-82.73758542853435
 30
0.0
 10
455.0592175511658
 20
-81.78518878163705
 30
0.0
 10
453.8148490618935
 20
-81.77244192834162
 30
0.0
  0
SPLINE
  5
15A
330
1F
100
AcDbEntity
  8
Livello 1
100
AcDbSpline
210
0.0
220
0.0
230
1.0
 70
     8
 71
     3
 72
    11
 73
     7
 74
     0
 42
0.000000001
 43
0.0000000001
 40
3.0
 40
3.0
 40
3.0
 40
3.0
 40
4.0
 40
4.0
 40
4.0
 40
5.0
 40
5.0
 40
5.0
 40
5.0
 10
453.8148490618935
 20
-81.77244192834162
 30
0.0
 10
452.9766573303323
 20
-81.77244192834162
 30
0.0
 10
452.2021998652481
 20
-82.17879094082682
 30
0.0
 10
452.2021998652481
 20
-83.41058483157791
 30
0.0
 10
452.2021998652481
 20
-84.1597208448455
 30
0.0
 10
452.5832274259166
 20
-84.78190508948161
 30
0.0
 10
452.9005207201081
 20
-85.16293265015024
 30
0.0
  0
SPLINE
  5
15B
330
1F
100
AcDbEntity
  8
Livello 1
100
AcDbSpline
210
0.0
220
0.0
230
1.0
 70
    24
 71
     3
 72
     8
 73
     4
 74
     0
 42
0.000000001
 43
0.0000000001
 40
5.0
 40
5.0
 40
5.0
 40
5.0
 40
6.0
 40
6.0
 40
6.0
 40
6.0
 10
452.9005207201081
 20
-85.16293265015024
 30
0.0
 10
452.9005207201081
 20
-85.16293265015024
 30
0.0
 10
452.1133164017285
 20
-85.51846650422803
 30
0.0
 10
452.1133164017285
 20
-85.51846650422803
 30
0.0
  0
SPLINE
  5
15C
330
1F
100
AcDbEntity
  8
Livello 1
100
AcDbSpline
210
0.0
220
0.0
230
1.0
 70
     8
 71
     3
 72
    14
 73
    10
 74
     0
 42
0.000000001
 43
0.0000000001
 40
6.0
 40
6.0
 40
6.0
 40
6.0
 40
7.0
 40
7.0
 40
7.0
 40
8.0
 40
8.0
 40
8.0
 40
9.0
 40
9.0
 40
9.0
 40
9.0
 10
452.1133164017285
 20
-85.51846650422803
 30
0.0
 10
451.6306585242451
 20
-84.94709741799935
 30
0.0
 10
451.2751246701673
 20
-84.13439939302891
 30
0.0
 10
451.2751246701673
 20
-83.18200274613159
 30
0.0
 10
451.2751246701673
 20
-81.40416122096841
 30
0.0
 10
452.4943439623973
 20
-80.65502520770083
 30
0.0
 10
453.6753226947409
 20
-80.65502520770083
 30
0.0
 10
455.1990884278668
 20
-80.65502520770083
 30
0.0
 10
456.4307100638436
 20
-81.75969507504621
 30
0.0
 10
458.1070935269663
 20
-83.49946829509736
 30
0.0
  0
SPLINE
  5
15D
330
1F
100
AcDbEntity
  8
Livello 1
100
AcDbSpline
210
0.0
220
0.0
230
1.0
 70
    24
 71
     3
 72
     8
 73
     4
 74
     0
 42
0.000000001
 43
0.0000000001
 40
9.0
 40
9.0
 40
9.0
 40
9.0
 40
10.0
 40
10.0
 40
10.0
 40
10.0
 10
458.1070935269663
 20
-83.49946829509736
 30
0.0
 10
458.1070935269663
 20
-83.49946829509736
 30
0.0
 10
458.716530918307
 20
-84.1597208448455
 30
0.0
 10
458.716530918307
 20
-84.1597208448455
 30
0.0
  0
SPLINE
  5
15E
330
1F
100
AcDbEntity
  8
Livello 1
100
AcDbSpline
210
0.0
220
0.0
230
1.0
 70
    24
 71
     3
 72
     8
 73
     4
 74
     0
 42
0.000000001
 43
0.0000000001
 40
10.0
 40
10.0
 40
10.0
 40
10.0
 40
11.0
 40
11.0
 40
11.0
 40
11.0
 10
458.716530918307
 20
-84.1597208448455
 30
0.0
 10
458.716530918307
 20
-84.1597208448455
 30
0.0
 10
458.7420246248978
 20
-84.1597208448455
 30
0.0
 10
458.7420246248978
 20
-84.1597208448455
 30
0.0
  0
SPLINE
  5
15F
330
1F
100
AcDbEntity
  8
Livello 1
100
AcDbSpline
210
0.0
220
0.0
230
1.0
 70
    24
 71
     3
 72
     8
 73
     4
 74
     0
 42
0.000000001
 43
0.0000000001
 40
11.0
 40
11.0
 40
11.0
 40
11.0
 40
12.0
 40
12.0
 40
12.0
 40
12.0
 10
458.7420246248978
 20
-84.1597208448455
 30
0.0
 10
458.7420246248978
 20
-84.1597208448455
 30
0.0
 10
458.7420246248978
 20
-80.45176457407109
 30
0.0
 10
458.7420246248978
 20
-80.45176457407109
 30
0.0
  0
SPLINE
  5
160
330
1F
100
AcDbEntity
  8
Livello 1
100
AcDbSpline
210
0.0
220
0.0
230
1.0
 70
    24
 71
     3
 72
     8
 73
     4
 74
     0
 42
0.000000001
 43
0.0000000001
 40
12.0
 40
12.0
 40
12.0
 40
12.0
 40
13.0
 40
13.0
 40
13.0
 40
13.0
 10
458.7420246248978
 20
-80.45176457407109
 30
0.0
 10
458.7420246248978
 20
-80.45176457407109
 30
0.0
 10
459.6687553104301
 20
-80.45176457407109
 30
0.0
 10
459.6687553104301
 20
-80.45176457407109
 30
0.0
  0
SPLINE
  5
161
330
1F
100
AcDbEntity
  8
Livello 1
100
AcDbSpline
210
0.0
220
0.0
230
1.0
 70
    24
 71
     3
 72
     8
 73
     4
 74
     0
 42
0.000000001
 43
0.0000000001
 40
13.0
 40
13.0
 40
13.0
 40
13.0
 40
14.0
 40
14.0
 40
14.0
 40
14.0
 10
459.6687553104301
 20
-80.45176457407109
 30
0.0
 10
459.6687553104301
 20
-80.45176457407109
 30
0.0
 10
459.6687553104301
 20
-85.72172713785775
 30
0.0
 10
459.6687553104301
 20
-85.72172713785775
 30
0.0
  0
SPLINE
  5
162
330
1F
100
AcDbEntity
  8
Livello 1
100
AcDbSpline
210
0.0
220
0.0
230
1.0
 70
     8
 71
     3
 72
    11
 73
     7
 74
     0
 42
0.000000001
 43
0.0000000001
 40
0.0
 40
0.0
 40
0.0
 40
0.0
 40
1.0
 40
1.0
 40
1.0
 40
2.0
 40
2.0
 40
2.0
 40
2.0
 10
455.4529919651298
 20
-73.72108152453849
 30
0.0
 10
458.2593667474143
 20
-73.72108152453849
 30
0.0
 10
459.8086261871312
 20
-74.76236163495524
 30
0.0
 10
459.8086261871312
 20
-76.59101831852585
 30
0.0
 10
459.8086261871312
 20
-78.20366751517131
 30
0.0
 10
458.2972627977521
 20
-79.29576278399551
 30
0.0
 10
455.56736913524
 20
-79.32108423581209
 30
0.0
  0
SPLINE
  5
163
330
1F
100
AcDbEntity
  8
Livello 1
100
AcDbSpline
210
0.0
220
0.0
230
1.0
 70
     8
 71
     3
 72
    11
 73
     7
 74
     0
 42
0.000000001
 43
0.0000000001
 40
2.0
 40
2.0
 40
2.0
 40
2.0
 40
3.0
 40
3.0
 40
3.0
 40
4.0
 40
4.0
 40
4.0
 40
4.0
 10
455.56736913524
 20
-79.32108423581209
 30
0.0
 10
452.7988904032932
 20
-79.32108423581209
 30
0.0
 10
451.2751246701673
 20
-78.1275309049473
 30
0.0
 10
451.2751246701673
 20
-76.45131969659897
 30
0.0
 10
451.2751246701673
 20
-74.71154647654781
 30
0.0
 10
452.8243841098841
 20
-73.72108152453849
 30
0.0
 10
455.4529919651298
 20
-73.72108152453849
 30
0.0
  0
SPLINE
  5
164
330
1F
100
AcDbEntity
  8
Livello 1
100
AcDbSpline
210
0.0
220
0.0
230
1.0
 70
    24
 71
     3
 72
     8
 73
     4
 74
     0
 42
0.000000001
 43
0.0000000001
 40
0.0
 40
0.0
 40
0.0
 40
0.0
 40
1.0
 40
1.0
 40
1.0
 40
1.0
 10
452.354473085696
 20
-67.76485594009002
 30
0.0
 10
452.354473085696
 20
-67.76485594009002
 30
0.0
 10
452.354473085696
 20
-70.91401772315691
 30
0.0
 10
452.354473085696
 20
-70.91401772315691
 30
0.0
  0
SPLINE
  5
165
330
1F
100
AcDbEntity
  8
Livello 1
100
AcDbSpline
210
0.0
220
0.0
230
1.0
 70
    24
 71
     3
 72
     8
 73
     4
 74
     0
 42
0.000000001
 43
0.0000000001
 40
1.0
 40
1.0
 40
1.0
 40
1.0
 40
2.0
 40
2.0
 40
2.0
 40
2.0
 10
452.354473085696
 20
-70.91401772315691
 30
0.0
 10
452.354473085696
 20
-70.91401772315691
 30
0.0
 10
454.4752738664159
 20
-71.23148327212269
 30
0.0
 10
454.4752738664159
 20
-71.23148327212269
 30
0.0
  0
SPLINE
  5
166
330
1F
100
AcDbEntity
  8
Livello 1
100
AcDbSpline
210
0.0
220
0.0
230
1.0
 70
     8
 71
     3
 72
    11
 73
     7
 74
     0
 42
0.000000001
 43
0.0000000001
 40
2.0
 40
2.0
 40
2.0
 40
2.0
 40
3.0
 40
3.0
 40
3.0
 40
4.0
 40
4.0
 40
4.0
 40
4.0
 10
454.4752738664159
 20
-71.23148327212269
 30
0.0
 10
454.4497801598251
 20
-71.04096949178837
 30
0.0
 10
454.4242864532342
 20
-70.86320256474948
 30
0.0
 10
454.4242864532342
 20
-70.55848386907912
 30
0.0
 10
454.4242864532342
 20
-69.92355277114757
 30
0.0
 10
454.5641573299353
 20
-69.28862167321604
 30
0.0
 10
454.8687037708315
 20
-68.78064234391596
 30
0.0
  0
SPLINE
  5
167
330
1F
100
AcDbEntity
  8
Livello 1
100
AcDbSpline
210
0.0
220
0.0
230
1.0
 70
     8
 71
     3
 72
    14
 73
    10
 74
     0
 42
0.000000001
 43
0.0000000001
 40
4.0
 40
4.0
 40
4.0
 40
4.0
 40
5.0
 40
5.0
 40
5.0
 40
6.0
 40
6.0
 40
6.0
 40
7.0
 40
7.0
 40
7.0
 40
7.0
 10
454.8687037708315
 20
-68.78064234391596
 30
0.0
 10
455.2369844782046
 20
-68.13313664746324
 30
0.0
 10
455.9480521863603
 20
-67.59966361157231
 30
0.0
 10
456.9895045515512
 20
-67.59966361157231
 30
0.0
 10
458.6021537481967
 20
-67.59966361157231
 30
0.0
 10
459.8086261871312
 20
-68.88227266073082
 30
0.0
 10
459.8086261871312
 20
-70.67268878441516
 30
0.0
 10
459.8086261871312
 20
-71.57427027290504
 30
0.0
 10
459.5547226498683
 20
-72.33632539424231
 30
0.0
 10
459.3004746030567
 20
-72.72992755343209
 30
0.0
  0
SPLINE
  5
168
330
1F
100
AcDbEntity
  8
Livello 1
100
AcDbSpline
210
0.0
220
0.0
230
1.0
 70
    24
 71
     3
 72
     8
 73
     4
 74
     0
 42
0.000000001
 43
0.0000000001
 40
7.0
 40
7.0
 40
7.0
 40
7.0
 40
8.0
 40
8.0
 40
8.0
 40
8.0
 10
459.3004746030567
 20
-72.72992755343209
 30
0.0
 10
459.3004746030567
 20
-72.72992755343209
 30
0.0
 10
458.4498805277487
 20
-72.45053030957834
 30
0.0
 10
458.4498805277487
 20
-72.45053030957834
 30
0.0
  0
SPLINE
  5
169
330
1F
100
AcDbEntity
  8
Livello 1
100
AcDbSpline
210
0.0
220
0.0
230
1.0
 70
     8
 71
     3
 72
    11
 73
     7
 74
     0
 42
0.000000001
 43
0.0000000001
 40
8.0
 40
8.0
 40
8.0
 40
8.0
 40
9.0
 40
9.0
 40
9.0
 40
10.0
 40
10.0
 40
10.0
 40
10.0
 10
458.4498805277487
 20
-72.45053030957834
 30
0.0
 10
458.6531411613783
 20
-72.10774330879599
 30
0.0
 10
458.9070446986412
 20
-71.43474390575244
 30
0.0
 10
458.9070446986412
 20
-70.68543563771058
 30
0.0
 10
458.9070446986412
 20
-69.6314086739984
 30
0.0
 10
458.2211261875281
 20
-68.72982718550851
 30
0.0
 10
457.1166285749569
 20
-68.72982718550851
 30
0.0
  0
SPLINE
  5
16A
330
1F
100
AcDbEntity
  8
Livello 1
100
AcDbSpline
210
0.0
220
0.0
230
1.0
 70
     8
 71
     3
 72
    11
 73
     7
 74
     0
 42
0.000000001
 43
0.0000000001
 40
10.0
 40
10.0
 40
10.0
 40
10.0
 40
11.0
 40
11.0
 40
11.0
 40
12.0
 40
12.0
 40
12.0
 40
12.0
 10
457.1166285749569
 20
-68.72982718550851
 30
0.0
 10
456.0496825031751
 20
-68.74257403880394
 30
0.0
 10
455.2879718913863
 20
-69.45364174695949
 30
0.0
 10
455.2879718913863
 20
-71.10453150349123
 30
0.0
 10
455.2879718913863
 20
-71.57427027290504
 30
0.0
 10
455.3386147950194
 20
-71.94255098027827
 30
0.0
 10
455.3768553549057
 20
-72.24744193072287
 30
0.0
  0
SPLINE
  5
16B
330
1F
100
AcDbEntity
  8
Livello 1
100
AcDbSpline
210
0.0
220
0.0
230
1.0
 70
    24
 71
     3
 72
     8
 73
     4
 74
     0
 42
0.000000001
 43
0.0000000001
 40
12.0
 40
12.0
 40
12.0
 40
12.0
 40
13.0
 40
13.0
 40
13.0
 40
13.0
 10
455.3768553549057
 20
-72.24744193072287
 30
0.0
 10
455.3768553549057
 20
-72.24744193072287
 30
0.0
 10
451.4149955468685
 20
-71.71396889483192
 30
0.0
 10
451.4149955468685
 20
-71.71396889483192
 30
0.0
  0
SPLINE
  5
16C
330
1F
100
AcDbEntity
  8
Livello 1
100
AcDbSpline
210
0.0
220
0.0
230
1.0
 70
    24
 71
     3
 72
     8
 73
     4
 74
     0
 42
0.000000001
 43
0.0000000001
 40
13.0
 40
13.0
 40
13.0
 40
13.0
 40
14.0
 40
14.0
 40
14.0
 40
14.0
 10
451.4149955468685
 20
-71.71396889483192
 30
0.0
 10
451.4149955468685
 20
-71.71396889483192
 30
0.0
 10
451.4149955468685
 20
-67.76485594009002
 30
0.0
 10
451.4149955468685
 20
-67.76485594009002
 30
0.0
  0
SPLINE
  5
16D
330
1F
100
AcDbEntity
  8
Livello 1
100
AcDbSpline
210
0.0
220
0.0
230
1.0
 70
    24
 71
     3
 72
     8
 73
     4
 74
     0
 42
0.000000001
 43
0.0000000001
 40
14.0
 40
14.0
 40
14.0
 40
14.0
 40
15.0
 40
15.0
 40
15.0
 40
15.0
 10
451.4149955468685
 20
-67.76485594009002
 30
0.0
 10
451.4149955468685
 20
-67.76485594009002
 30
0.0
 10
452.354473085696
 20
-67.76485594009002
 30
0.0
 10
452.354473085696
 20
-67.76485594009002
 30
0.0
  0
SPLINE
  5
16E
330
1F
100
AcDbEntity
  8
Livello 1
100
AcDbSpline
210
0.0
220
0.0
230
1.0
 70
    24
 71
     3
 72
     8
 73
     4
 74
     0
 42
0.000000001
 43
0.0000000001
 40
0.0
 40
0.0
 40
0.0
 40
0.0
 40
1.0
 40
1.0
 40
1.0
 40
1.0
 10
328.9056775436417
 20
-147.9287827863685
 30
0.0
 10
328.9056775436417
 20
-147.9287827863685
 30
0.0
 10
328.2201035420769
 20
-147.9287827863685
 30
0.0
 10
328.2201035420769
 20
-147.9287827863685
 30
0.0
  0
SPLINE
  5
16F
330
1F
100
AcDbEntity
  8
Livello 1
100
AcDbSpline
210
0.0
220
0.0
230
1.0
 70
    24
 71
     3
 72
     8
 73
     4
 74
     0
 42
0.000000001
 43
0.0000000001
 40
1.0
 40
1.0
 40
1.0
 40
1.0
 40
2.0
 40
2.0
 40
2.0
 40
2.0
 10
328.2201035420769
 20
-147.9287827863685
 30
0.0
 10
328.2201035420769
 20
-147.9287827863685
 30
0.0
 10
327.3691649572202
 20
-147.0525227496952
 30
0.0
 10
327.3691649572202
 20
-147.0525227496952
 30
0.0
  0
SPLINE
  5
170
330
1F
100
AcDbEntity
  8
Livello 1
100
AcDbSpline
210
0.0
220
0.0
230
1.0
 70
     8
 71
     3
 72
     8
 73
     4
 74
     0
 42
0.000000001
 43
0.0000000001
 40
2.0
 40
2.0
 40
2.0
 40
2.0
 40
3.0
 40
3.0
 40
3.0
 40
3.0
 10
327.3691649572202
 20
-147.0525227496952
 30
0.0
 10
325.3627413466107
 20
-144.9446410770451
 30
0.0
 10
324.2961397843774
 20
-143.9922444301478
 30
0.0
 10
323.0517712951051
 20
-143.9794975768524
 30
0.0
  0
SPLINE
  5
171
330
1F
100
AcDbEntity
  8
Livello 1
100
AcDbSpline
210
0.0
220
0.0
230
1.0
 70
     8
 71
     3
 72
    11
 73
     7
 74
     0
 42
0.000000001
 43
0.0000000001
 40
3.0
 40
3.0
 40
3.0
 40
3.0
 40
4.0
 40
4.0
 40
4.0
 40
5.0
 40
5.0
 40
5.0
 40
5.0
 10
323.0517712951051
 20
-143.9794975768524
 30
0.0
 10
322.2135795635438
 20
-143.9794975768524
 30
0.0
 10
321.4391220984597
 20
-144.3858465893376
 30
0.0
 10
321.4391220984597
 20
-145.6176404800887
 30
0.0
 10
321.4391220984597
 20
-146.3667764933562
 30
0.0
 10
321.8201496591283
 20
-146.9889607379924
 30
0.0
 10
322.1374429533198
 20
-147.369988298661
 30
0.0
  0
SPLINE
  5
172
330
1F
100
AcDbEntity
  8
Livello 1
100
AcDbSpline
210
0.0
220
0.0
230
1.0
 70
    24
 71
     3
 72
     8
 73
     4
 74
     0
 42
0.000000001
 43
0.0000000001
 40
5.0
 40
5.0
 40
5.0
 40
5.0
 40
6.0
 40
6.0
 40
6.0
 40
6.0
 10
322.1374429533198
 20
-147.369988298661
 30
0.0
 10
322.1374429533198
 20
-147.369988298661
 30
0.0
 10
321.3502386349402
 20
-147.7255221527388
 30
0.0
 10
321.3502386349402
 20
-147.7255221527388
 30
0.0
  0
SPLINE
  5
173
330
1F
100
AcDbEntity
  8
Livello 1
100
AcDbSpline
210
0.0
220
0.0
230
1.0
 70
     8
 71
     3
 72
    14
 73
    10
 74
     0
 42
0.000000001
 43
0.0000000001
 40
6.0
 40
6.0
 40
6.0
 40
6.0
 40
7.0
 40
7.0
 40
7.0
 40
8.0
 40
8.0
 40
8.0
 40
9.0
 40
9.0
 40
9.0
 40
9.0
 10
321.3502386349402
 20
-147.7255221527388
 30
0.0
 10
320.8675807574567
 20
-147.15415306651
 30
0.0
 10
320.512046903379
 20
-146.3414550415396
 30
0.0
 10
320.512046903379
 20
-145.3890583946423
 30
0.0
 10
320.512046903379
 20
-143.6112168694791
 30
0.0
 10
321.7312661956088
 20
-142.8620808562115
 30
0.0
 10
322.9122449279525
 20
-142.8620808562115
 30
0.0
 10
324.4360106610785
 20
-142.8620808562115
 30
0.0
 10
325.6676322970553
 20
-143.9667507235569
 30
0.0
 10
327.3440157601779
 20
-145.7065239436081
 30
0.0
  0
SPLINE
  5
174
330
1F
100
AcDbEntity
  8
Livello 1
100
AcDbSpline
210
0.0
220
0.0
230
1.0
 70
    24
 71
     3
 72
     8
 73
     4
 74
     0
 42
0.000000001
 43
0.0000000001
 40
9.0
 40
9.0
 40
9.0
 40
9.0
 40
10.0
 40
10.0
 40
10.0
 40
10.0
 10
327.3440157601779
 20
-145.7065239436081
 30
0.0
 10
327.3440157601779
 20
-145.7065239436081
 30
0.0
 10
327.9534531515186
 20
-146.3667764933562
 30
0.0
 10
327.9534531515186
 20
-146.3667764933562
 30
0.0
  0
SPLINE
  5
175
330
1F
100
AcDbEntity
  8
Livello 1
100
AcDbSpline
210
0.0
220
0.0
230
1.0
 70
    24
 71
     3
 72
     8
 73
     4
 74
     0
 42
0.000000001
 43
0.0000000001
 40
10.0
 40
10.0
 40
10.0
 40
10.0
 40
11.0
 40
11.0
 40
11.0
 40
11.0
 10
327.9534531515186
 20
-146.3667764933562
 30
0.0
 10
327.9534531515186
 20
-146.3667764933562
 30
0.0
 10
327.9789468581095
 20
-146.3667764933562
 30
0.0
 10
327.9789468581095
 20
-146.3667764933562
 30
0.0
  0
SPLINE
  5
176
330
1F
100
AcDbEntity
  8
Livello 1
100
AcDbSpline
210
0.0
220
0.0
230
1.0
 70
    24
 71
     3
 72
     8
 73
     4
 74
     0
 42
0.000000001
 43
0.0000000001
 40
11.0
 40
11.0
 40
11.0
 40
11.0
 40
12.0
 40
12.0
 40
12.0
 40
12.0
 10
327.9789468581095
 20
-146.3667764933562
 30
0.0
 10
327.9789468581095
 20
-146.3667764933562
 30
0.0
 10
327.9789468581095
 20
-142.6588202225818
 30
0.0
 10
327.9789468581095
 20
-142.6588202225818
 30
0.0
  0
SPLINE
  5
177
330
1F
100
AcDbEntity
  8
Livello 1
100
AcDbSpline
210
0.0
220
0.0
230
1.0
 70
    24
 71
     3
 72
     8
 73
     4
 74
     0
 42
0.000000001
 43
0.0000000001
 40
12.0
 40
12.0
 40
12.0
 40
12.0
 40
13.0
 40
13.0
 40
13.0
 40
13.0
 10
327.9789468581095
 20
-142.6588202225818
 30
0.0
 10
327.9789468581095
 20
-142.6588202225818
 30
0.0
 10
328.9056775436417
 20
-142.6588202225818
 30
0.0
 10
328.9056775436417
 20
-142.6588202225818
 30
0.0
  0
SPLINE
  5
178
330
1F
100
AcDbEntity
  8
Livello 1
100
AcDbSpline
210
0.0
220
0.0
230
1.0
 70
    24
 71
     3
 72
     8
 73
     4
 74
     0
 42
0.000000001
 43
0.0000000001
 40
13.0
 40
13.0
 40
13.0
 40
13.0
 40
14.0
 40
14.0
 40
14.0
 40
14.0
 10
328.9056775436417
 20
-142.6588202225818
 30
0.0
 10
328.9056775436417
 20
-142.6588202225818
 30
0.0
 10
328.9056775436417
 20
-147.9287827863685
 30
0.0
 10
328.9056775436417
 20
-147.9287827863685
 30
0.0
  0
SPLINE
  5
179
330
1F
100
AcDbEntity
  8
Livello 1
100
AcDbSpline
210
0.0
220
0.0
230
1.0
 70
     8
 71
     3
 72
     8
 73
     4
 74
     0
 42
0.000000001
 43
0.0000000001
 40
0.0
 40
0.0
 40
0.0
 40
0.0
 40
1.0
 40
1.0
 40
1.0
 40
1.0
 10
330.4676838366539
 20
-141.78221567636
 30
0.0
 10
329.7183755686122
 20
-141.5028184325062
 30
0.0
 10
328.3596299092296
 20
-141.1598591769496
 30
0.0
 10
327.4328992236973
 20
-141.0201605550228
 30
0.0
  0
SPLINE
  5
17A
330
1F
100
AcDbEntity
  8
Livello 1
100
AcDbSpline
210
0.0
220
0.0
230
1.0
 70
    24
 71
     3
 72
     8
 73
     4
 74
     0
 42
0.000000001
 43
0.0000000001
 40
1.0
 40
1.0
 40
1.0
 40
1.0
 40
2.0
 40
2.0
 40
2.0
 40
2.0
 10
327.4328992236973
 20
-141.0201605550228
 30
0.0
 10
327.4328992236973
 20
-141.0201605550228
 30
0.0
 10
327.3057752002916
 20
-139.7757920657505
 30
0.0
 10
327.3057752002916
 20
-139.7757920657505
 30
0.0
  0
SPLINE
  5
17B
330
1F
100
AcDbEntity
  8
Livello 1
100
AcDbSpline
210
0.0
220
0.0
230
1.0
 70
     8
 71
     3
 72
     8
 73
     4
 74
     0
 42
0.000000001
 43
0.0000000001
 40
2.0
 40
2.0
 40
2.0
 40
2.0
 40
3.0
 40
3.0
 40
3.0
 40
3.0
 10
327.3057752002916
 20
-139.7757920657505
 30
0.0
 10
328.3851236158203
 20
-140.0677639081254
 30
0.0
 10
329.7945121788361
 20
-140.6265583958329
 30
0.0
 10
330.3915472264299
 20
-140.9820922499107
 30
0.0
  0
SPLINE
  5
17C
330
1F
100
AcDbEntity
  8
Livello 1
100
AcDbSpline
210
0.0
220
0.0
230
1.0
 70
    24
 71
     3
 72
     8
 73
     4
 74
     0
 42
0.000000001
 43
0.0000000001
 40
3.0
 40
3.0
 40
3.0
 40
3.0
 40
4.0
 40
4.0
 40
4.0
 40
4.0
 10
330.3915472264299
 20
-140.9820922499107
 30
0.0
 10
330.3915472264299
 20
-140.9820922499107
 30
0.0
 10
330.4676838366539
 20
-141.78221567636
 30
0.0
 10
330.4676838366539
 20
-141.78221567636
 30
0.0
  0
SPLINE
  5
17D
330
1F
100
AcDbEntity
  8
Livello 1
100
AcDbSpline
210
0.0
220
0.0
230
1.0
 70
    24
 71
     3
 72
     8
 73
     4
 74
     0
 42
0.000000001
 43
0.0000000001
 40
0.0
 40
0.0
 40
0.0
 40
0.0
 40
1.0
 40
1.0
 40
1.0
 40
1.0
 10
321.5913953189077
 20
-133.8581515507369
 30
0.0
 10
321.5913953189077
 20
-133.8581515507369
 30
0.0
 10
321.5913953189077
 20
-137.0073133338037
 30
0.0
 10
321.5913953189077
 20
-137.0073133338037
 30
0.0
  0
SPLINE
  5
17E
330
1F
100
AcDbEntity
  8
Livello 1
100
AcDbSpline
210
0.0
220
0.0
230
1.0
 70
    24
 71
     3
 72
     8
 73
     4
 74
     0
 42
0.000000001
 43
0.0000000001
 40
1.0
 40
1.0
 40
1.0
 40
1.0
 40
2.0
 40
2.0
 40
2.0
 40
2.0
 10
321.5913953189077
 20
-137.0073133338037
 30
0.0
 10
321.5913953189077
 20
-137.0073133338037
 30
0.0
 10
323.7121960996275
 20
-137.3247788827695
 30
0.0
 10
323.7121960996275
 20
-137.3247788827695
 30
0.0
  0
SPLINE
  5
17F
330
1F
100
AcDbEntity
  8
Livello 1
100
AcDbSpline
210
0.0
220
0.0
230
1.0
 70
     8
 71
     3
 72
    11
 73
     7
 74
     0
 42
0.000000001
 43
0.0000000001
 40
2.0
 40
2.0
 40
2.0
 40
2.0
 40
3.0
 40
3.0
 40
3.0
 40
4.0
 40
4.0
 40
4.0
 40
4.0
 10
323.7121960996275
 20
-137.3247788827695
 30
0.0
 10
323.6867023930367
 20
-137.1342651024352
 30
0.0
 10
323.6612086864458
 20
-136.9564981753963
 30
0.0
 10
323.6612086864458
 20
-136.6517794797259
 30
0.0
 10
323.6612086864458
 20
-136.0168483817944
 30
0.0
 10
323.801079563147
 20
-135.3819172838629
 30
0.0
 10
324.1056260040431
 20
-134.8739379545628
 30
0.0
  0
SPLINE
  5
180
330
1F
100
AcDbEntity
  8
Livello 1
100
AcDbSpline
210
0.0
220
0.0
230
1.0
 70
     8
 71
     3
 72
    14
 73
    10
 74
     0
 42
0.000000001
 43
0.0000000001
 40
4.0
 40
4.0
 40
4.0
 40
4.0
 40
5.0
 40
5.0
 40
5.0
 40
6.0
 40
6.0
 40
6.0
 40
7.0
 40
7.0
 40
7.0
 40
7.0
 10
324.1056260040431
 20
-134.8739379545628
 30
0.0
 10
324.4739067114162
 20
-134.2264322581101
 30
0.0
 10
325.1849744195718
 20
-133.6929592222191
 30
0.0
 10
326.2264267847629
 20
-133.6929592222191
 30
0.0
 10
327.8390759814083
 20
-133.6929592222191
 30
0.0
 10
329.0455484203428
 20
-134.9755682713777
 30
0.0
 10
329.0455484203428
 20
-136.765984395062
 30
0.0
 10
329.0455484203428
 20
-137.6675658835519
 30
0.0
 10
328.7916448830799
 20
-138.4296210048891
 30
0.0
 10
328.5373968362684
 20
-138.8232231640789
 30
0.0
  0
SPLINE
  5
181
330
1F
100
AcDbEntity
  8
Livello 1
100
AcDbSpline
210
0.0
220
0.0
230
1.0
 70
    24
 71
     3
 72
     8
 73
     4
 74
     0
 42
0.000000001
 43
0.0000000001
 40
7.0
 40
7.0
 40
7.0
 40
7.0
 40
8.0
 40
8.0
 40
8.0
 40
8.0
 10
328.5373968362684
 20
-138.8232231640789
 30
0.0
 10
328.5373968362684
 20
-138.8232231640789
 30
0.0
 10
327.6868027609602
 20
-138.5438259202252
 30
0.0
 10
327.6868027609602
 20
-138.5438259202252
 30
0.0
  0
SPLINE
  5
182
330
1F
100
AcDbEntity
  8
Livello 1
100
AcDbSpline
210
0.0
220
0.0
230
1.0
 70
     8
 71
     3
 72
    11
 73
     7
 74
     0
 42
0.000000001
 43
0.0000000001
 40
8.0
 40
8.0
 40
8.0
 40
8.0
 40
9.0
 40
9.0
 40
9.0
 40
10.0
 40
10.0
 40
10.0
 40
10.0
 10
327.6868027609602
 20
-138.5438259202252
 30
0.0
 10
327.89006339459
 20
-138.2010389194428
 30
0.0
 10
328.1439669318529
 20
-137.527867261625
 30
0.0
 10
328.1439669318529
 20
-136.7787312483574
 30
0.0
 10
328.1439669318529
 20
-135.7247042846452
 30
0.0
 10
327.4580484207397
 20
-134.8231227961553
 30
0.0
 10
326.3535508081686
 20
-134.8231227961553
 30
0.0
  0
SPLINE
  5
183
330
1F
100
AcDbEntity
  8
Livello 1
100
AcDbSpline
210
0.0
220
0.0
230
1.0
 70
     8
 71
     3
 72
    11
 73
     7
 74
     0
 42
0.000000001
 43
0.0000000001
 40
10.0
 40
10.0
 40
10.0
 40
10.0
 40
11.0
 40
11.0
 40
11.0
 40
12.0
 40
12.0
 40
12.0
 40
12.0
 10
326.3535508081686
 20
-134.8231227961553
 30
0.0
 10
325.2866047363867
 20
-134.8358696494508
 30
0.0
 10
324.5248941245979
 20
-135.5469373576063
 30
0.0
 10
324.5248941245979
 20
-137.1978271141381
 30
0.0
 10
324.5248941245979
 20
-137.6675658835519
 30
0.0
 10
324.5755370282311
 20
-138.0358465909251
 30
0.0
 10
324.6137775881174
 20
-138.3405652865954
 30
0.0
  0
SPLINE
  5
184
330
1F
100
AcDbEntity
  8
Livello 1
100
AcDbSpline
210
0.0
220
0.0
230
1.0
 70
    24
 71
     3
 72
     8
 73
     4
 74
     0
 42
0.000000001
 43
0.0000000001
 40
12.0
 40
12.0
 40
12.0
 40
12.0
 40
13.0
 40
13.0
 40
13.0
 40
13.0
 10
324.6137775881174
 20
-138.3405652865954
 30
0.0
 10
324.6137775881174
 20
-138.3405652865954
 30
0.0
 10
320.6519177800801
 20
-137.8072645054787
 30
0.0
 10
320.6519177800801
 20
-137.8072645054787
 30
0.0
  0
SPLINE
  5
185
330
1F
100
AcDbEntity
  8
Livello 1
100
AcDbSpline
210
0.0
220
0.0
230
1.0
 70
    24
 71
     3
 72
     8
 73
     4
 74
     0
 42
0.000000001
 43
0.0000000001
 40
13.0
 40
13.0
 40
13.0
 40
13.0
 40
14.0
 40
14.0
 40
14.0
 40
14.0
 10
320.6519177800801
 20
-137.8072645054787
 30
0.0
 10
320.6519177800801
 20
-137.8072645054787
 30
0.0
 10
320.6519177800801
 20
-133.8581515507369
 30
0.0
 10
320.6519177800801
 20
-133.8581515507369
 30
0.0
  0
SPLINE
  5
186
330
1F
100
AcDbEntity
  8
Livello 1
100
AcDbSpline
210
0.0
220
0.0
230
1.0
 70
    24
 71
     3
 72
     8
 73
     4
 74
     0
 42
0.000000001
 43
0.0000000001
 40
14.0
 40
14.0
 40
14.0
 40
14.0
 40
15.0
 40
15.0
 40
15.0
 40
15.0
 10
320.6519177800801
 20
-133.8581515507369
 30
0.0
 10
320.6519177800801
 20
-133.8581515507369
 30
0.0
 10
321.5913953189077
 20
-133.8581515507369
 30
0.0
 10
321.5913953189077
 20
-133.8581515507369
 30
0.0
  0
SPLINE
  5
187
330
1F
100
AcDbEntity
  8
Livello 1
100
AcDbSpline
210
0.0
220
0.0
230
1.0
 70
    24
 71
     3
 72
     8
 73
     4
 74
     0
 42
0.000000001
 43
0.0000000001
 40
0.0
 40
0.0
 40
0.0
 40
0.0
 40
1.0
 40
1.0
 40
1.0
 40
1.0
 10
458.2032116910048
 20
-226.2449326691332
 30
0.0
 10
458.2032116910048
 20
-226.2449326691332
 30
0.0
 10
458.2032116910048
 20
-229.3940944522001
 30
0.0
 10
458.2032116910048
 20
-229.3940944522001
 30
0.0
  0
SPLINE
  5
188
330
1F
100
AcDbEntity
  8
Livello 1
100
AcDbSpline
210
0.0
220
0.0
230
1.0
 70
    24
 71
     3
 72
     8
 73
     4
 74
     0
 42
0.000000001
 43
0.0000000001
 40
1.0
 40
1.0
 40
1.0
 40
1.0
 40
2.0
 40
2.0
 40
2.0
 40
2.0
 10
458.2032116910048
 20
-229.3940944522001
 30
0.0
 10
458.2032116910048
 20
-229.3940944522001
 30
0.0
 10
460.3236679621759
 20
-229.7113877463916
 30
0.0
 10
460.3236679621759
 20
-229.7113877463916
 30
0.0
  0
SPLINE
  5
189
330
1F
100
AcDbEntity
  8
Livello 1
100
AcDbSpline
210
0.0
220
0.0
230
1.0
 70
     8
 71
     3
 72
    11
 73
     7
 74
     0
 42
0.000000001
 43
0.0000000001
 40
2.0
 40
2.0
 40
2.0
 40
2.0
 40
3.0
 40
3.0
 40
3.0
 40
4.0
 40
4.0
 40
4.0
 40
4.0
 10
460.3236679621759
 20
-229.7113877463916
 30
0.0
 10
460.2985187651336
 20
-229.5212184756058
 30
0.0
 10
460.2730250585429
 20
-229.3434515485669
 30
0.0
 10
460.2730250585429
 20
-229.0385605981223
 30
0.0
 10
460.2730250585429
 20
-228.4036295001908
 30
0.0
 10
460.4125514256955
 20
-227.7686984022592
 30
0.0
 10
460.7174423761401
 20
-227.2605468181849
 30
0.0
  0
SPLINE
  5
18A
330
1F
100
AcDbEntity
  8
Livello 1
100
AcDbSpline
210
0.0
220
0.0
230
1.0
 70
     8
 71
     3
 72
    14
 73
    10
 74
     0
 42
0.000000001
 43
0.0000000001
 40
4.0
 40
4.0
 40
4.0
 40
4.0
 40
5.0
 40
5.0
 40
5.0
 40
6.0
 40
6.0
 40
6.0
 40
7.0
 40
7.0
 40
7.0
 40
7.0
 10
460.7174423761401
 20
-227.2605468181849
 30
0.0
 10
461.0857230835133
 20
-226.6132133765064
 30
0.0
 10
461.7967907916688
 20
-226.0795680858412
 30
0.0
 10
462.8378986473114
 20
-226.0795680858412
 30
0.0
 10
464.4508923535054
 20
-226.0795680858412
 30
0.0
 10
465.6570202828913
 20
-227.3625216445483
 30
0.0
 10
465.6570202828913
 20
-229.1525932586841
 30
0.0
 10
465.6570202828913
 20
-230.0545192567225
 30
0.0
 10
465.4031167456284
 20
-230.8165743780598
 30
0.0
 10
465.1492132083655
 20
-231.2100042824753
 30
0.0
  0
SPLINE
  5
18B
330
1F
100
AcDbEntity
  8
Livello 1
100
AcDbSpline
210
0.0
220
0.0
230
1.0
 70
    24
 71
     3
 72
     8
 73
     4
 74
     0
 42
0.000000001
 43
0.0000000001
 40
7.0
 40
7.0
 40
7.0
 40
7.0
 40
8.0
 40
8.0
 40
8.0
 40
8.0
 10
465.1492132083655
 20
-231.2100042824753
 30
0.0
 10
465.1492132083655
 20
-231.2100042824753
 30
0.0
 10
464.2982746235088
 20
-230.9306070386215
 30
0.0
 10
464.2982746235088
 20
-230.9306070386215
 30
0.0
  0
SPLINE
  5
18C
330
1F
100
AcDbEntity
  8
Livello 1
100
AcDbSpline
210
0.0
220
0.0
230
1.0
 70
     8
 71
     3
 72
    11
 73
     7
 74
     0
 42
0.000000001
 43
0.0000000001
 40
8.0
 40
8.0
 40
8.0
 40
8.0
 40
9.0
 40
9.0
 40
9.0
 40
10.0
 40
10.0
 40
10.0
 40
10.0
 10
464.2982746235088
 20
-230.9306070386215
 30
0.0
 10
464.5015352571385
 20
-230.5878200378392
 30
0.0
 10
464.7554387944014
 20
-229.9146483800214
 30
0.0
 10
464.7554387944014
 20
-229.165684621528
 30
0.0
 10
464.7554387944014
 20
-228.1114854030416
 30
0.0
 10
464.0698647928367
 20
-227.2099039145517
 30
0.0
 10
462.9650226707171
 20
-227.2099039145517
 30
0.0
  0
SPLINE
  5
18D
330
1F
100
AcDbEntity
  8
Livello 1
100
AcDbSpline
210
0.0
220
0.0
230
1.0
 70
     8
 71
     3
 72
    11
 73
     7
 74
     0
 42
0.000000001
 43
0.0000000001
 40
10.0
 40
10.0
 40
10.0
 40
10.0
 40
11.0
 40
11.0
 40
11.0
 40
12.0
 40
12.0
 40
12.0
 40
12.0
 10
462.9650226707171
 20
-227.2099039145517
 30
0.0
 10
461.8984211084838
 20
-227.2226507678471
 30
0.0
 10
461.1363659871464
 20
-227.9337184760027
 30
0.0
 10
461.1363659871464
 20
-229.5846082325344
 30
0.0
 10
461.1363659871464
 20
-230.0545192567225
 30
0.0
 10
461.1873534003282
 20
-230.4224554545472
 30
0.0
 10
461.2252494506659
 20
-230.7273464049918
 30
0.0
  0
SPLINE
  5
18E
330
1F
100
AcDbEntity
  8
Livello 1
100
AcDbSpline
210
0.0
220
0.0
230
1.0
 70
    24
 71
     3
 72
     8
 73
     4
 74
     0
 42
0.000000001
 43
0.0000000001
 40
12.0
 40
12.0
 40
12.0
 40
12.0
 40
13.0
 40
13.0
 40
13.0
 40
13.0
 10
461.2252494506659
 20
-230.7273464049918
 30
0.0
 10
461.2252494506659
 20
-230.7273464049918
 30
0.0
 10
457.2633896426286
 20
-230.1940456238751
 30
0.0
 10
457.2633896426286
 20
-230.1940456238751
 30
0.0
  0
SPLINE
  5
18F
330
1F
100
AcDbEntity
  8
Livello 1
100
AcDbSpline
210
0.0
220
0.0
230
1.0
 70
    24
 71
     3
 72
     8
 73
     4
 74
     0
 42
0.000000001
 43
0.0000000001
 40
13.0
 40
13.0
 40
13.0
 40
13.0
 40
14.0
 40
14.0
 40
14.0
 40
14.0
 10
457.2633896426286
 20
-230.1940456238751
 30
0.0
 10
457.2633896426286
 20
-230.1940456238751
 30
0.0
 10
457.2633896426286
 20
-226.2449326691332
 30
0.0
 10
457.2633896426286
 20
-226.2449326691332
 30
0.0
  0
SPLINE
  5
190
330
1F
100
AcDbEntity
  8
Livello 1
100
AcDbSpline
210
0.0
220
0.0
230
1.0
 70
    24
 71
     3
 72
     8
 73
     4
 74
     0
 42
0.000000001
 43
0.0000000001
 40
14.0
 40
14.0
 40
14.0
 40
14.0
 40
15.0
 40
15.0
 40
15.0
 40
15.0
 10
457.2633896426286
 20
-226.2449326691332
 30
0.0
 10
457.2633896426286
 20
-226.2449326691332
 30
0.0
 10
458.2032116910048
 20
-226.2449326691332
 30
0.0
 10
458.2032116910048
 20
-226.2449326691332
 30
0.0
  0
SPLINE
  5
191
330
1F
100
AcDbEntity
  8
Livello 1
100
AcDbSpline
210
0.0
220
0.0
230
1.0
 70
     8
 71
     3
 72
    11
 73
     7
 74
     0
 42
0.000000001
 43
0.0000000001
 40
0.0
 40
0.0
 40
0.0
 40
0.0
 40
1.0
 40
1.0
 40
1.0
 40
2.0
 40
2.0
 40
2.0
 40
2.0
 10
461.30138606089
 20
-219.1714626188183
 30
0.0
 10
464.1077608431744
 20
-219.1714626188183
 30
0.0
 10
465.6570202828913
 20
-220.2125704744608
 30
0.0
 10
465.6570202828913
 20
-222.0412271580314
 30
0.0
 10
465.6570202828913
 20
-223.6538763546768
 30
0.0
 10
464.1460014030606
 20
-224.745971623501
 30
0.0
 10
461.4157632310003
 20
-224.7711208205434
 30
0.0
  0
SPLINE
  5
192
330
1F
100
AcDbEntity
  8
Livello 1
100
AcDbSpline
210
0.0
220
0.0
230
1.0
 70
     8
 71
     3
 72
    11
 73
     7
 74
     0
 42
0.000000001
 43
0.0000000001
 40
2.0
 40
2.0
 40
2.0
 40
2.0
 40
3.0
 40
3.0
 40
3.0
 40
4.0
 40
4.0
 40
4.0
 40
4.0
 10
461.4157632310003
 20
-224.7711208205434
 30
0.0
 10
458.647629008602
 20
-224.7711208205434
 30
0.0
 10
457.123863275476
 20
-223.5777397444528
 30
0.0
 10
457.123863275476
 20
-221.9013562813302
 30
0.0
 10
457.123863275476
 20
-220.1615830612791
 30
0.0
 10
458.6731227151927
 20
-219.1714626188183
 30
0.0
 10
461.30138606089
 20
-219.1714626188183
 30
0.0
  0
SPLINE
  5
193
330
1F
100
AcDbEntity
  8
Livello 1
100
AcDbSpline
210
0.0
220
0.0
230
1.0
 70
    24
 71
     3
 72
     8
 73
     4
 74
     0
 42
0.000000001
 43
0.0000000001
 40
0.0
 40
0.0
 40
0.0
 40
0.0
 40
1.0
 40
1.0
 40
1.0
 40
1.0
 10
359.8781194846833
 20
-22.70231797392512
 30
0.0
 10
359.8781194846833
 20
-22.70231797392512
 30
0.0
 10
359.8781194846833
 20
-22.01657171758614
 30
0.0
 10
359.8781194846833
 20
-22.01657171758614
 30
0.0
  0
SPLINE
  5
194
330
1F
100
AcDbEntity
  8
Livello 1
100
AcDbSpline
210
0.0
220
0.0
230
1.0
 70
    24
 71
     3
 72
     8
 73
     4
 74
     0
 42
0.000000001
 43
0.0000000001
 40
1.0
 40
1.0
 40
1.0
 40
1.0
 40
2.0
 40
2.0
 40
2.0
 40
2.0
 10
359.8781194846833
 20
-22.01657171758614
 30
0.0
 10
359.8781194846833
 20
-22.01657171758614
 30
0.0
 10
360.7545517761308
 20
-21.16580538750369
 30
0.0
 10
360.7545517761308
 20
-21.16580538750369
 30
0.0
  0
SPLINE
  5
195
330
1F
100
AcDbEntity
  8
Livello 1
100
AcDbSpline
210
0.0
220
0.0
230
1.0
 70
     8
 71
     3
 72
     8
 73
     4
 74
     0
 42
0.000000001
 43
0.0000000001
 40
2.0
 40
2.0
 40
2.0
 40
2.0
 40
3.0
 40
3.0
 40
3.0
 40
3.0
 10
360.7545517761308
 20
-21.16580538750369
 30
0.0
 10
362.8622611940067
 20
-19.15938177689418
 30
0.0
 10
363.8148300956782
 20
-18.09278021466083
 30
0.0
 10
363.8275769489737
 20
-16.84841172538859
 30
0.0
  0
SPLINE
  5
196
330
1F
100
AcDbEntity
  8
Livello 1
100
AcDbSpline
210
0.0
220
0.0
230
1.0
 70
     8
 71
     3
 72
    11
 73
     7
 74
     0
 42
0.000000001
 43
0.0000000001
 40
3.0
 40
3.0
 40
3.0
 40
3.0
 40
4.0
 40
4.0
 40
4.0
 40
5.0
 40
5.0
 40
5.0
 40
5.0
 10
363.8275769489737
 20
-16.84841172538859
 30
0.0
 10
363.8275769489737
 20
-16.01021999382731
 30
0.0
 10
363.4210556817142
 20
-15.23559027396888
 30
0.0
 10
362.1894340457374
 20
-15.23559027396888
 30
0.0
 10
361.4401257776955
 20
-15.23559027396888
 30
0.0
 10
360.8179415330594
 20
-15.61661783463751
 30
0.0
 10
360.4369139723908
 20
-15.93408338360329
 30
0.0
  0
SPLINE
  5
197
330
1F
100
AcDbEntity
  8
Livello 1
100
AcDbSpline
210
0.0
220
0.0
230
1.0
 70
    24
 71
     3
 72
     8
 73
     4
 74
     0
 42
0.000000001
 43
0.0000000001
 40
5.0
 40
5.0
 40
5.0
 40
5.0
 40
6.0
 40
6.0
 40
6.0
 40
6.0
 10
360.4369139723908
 20
-15.93408338360329
 30
0.0
 10
360.4369139723908
 20
-15.93408338360329
 30
0.0
 10
360.081380118313
 20
-15.14670681044944
 30
0.0
 10
360.081380118313
 20
-15.14670681044944
 30
0.0
  0
SPLINE
  5
198
330
1F
100
AcDbEntity
  8
Livello 1
100
AcDbSpline
210
0.0
220
0.0
230
1.0
 70
     8
 71
     3
 72
    14
 73
    10
 74
     0
 42
0.000000001
 43
0.0000000001
 40
6.0
 40
6.0
 40
6.0
 40
6.0
 40
7.0
 40
7.0
 40
7.0
 40
8.0
 40
8.0
 40
8.0
 40
9.0
 40
9.0
 40
9.0
 40
9.0
 10
360.081380118313
 20
-15.14670681044944
 30
0.0
 10
360.652921459316
 20
-14.6642211877402
 30
0.0
 10
361.4656194842863
 20
-14.30868733366241
 30
0.0
 10
362.4178438764094
 20
-14.30868733366241
 30
0.0
 10
364.1958576563469
 20
-14.30868733366241
 30
0.0
 10
364.9448214148402
 20
-15.52773437111807
 30
0.0
 10
364.9448214148402
 20
-16.70871310346171
 30
0.0
 10
364.9448214148402
 20
-18.23247883658771
 30
0.0
 10
363.8403238022692
 20
-19.46427272733879
 30
0.0
 10
362.1005505822179
 20
-21.1404839356871
 30
0.0
  0
SPLINE
  5
199
330
1F
100
AcDbEntity
  8
Livello 1
100
AcDbSpline
210
0.0
220
0.0
230
1.0
 70
    24
 71
     3
 72
     8
 73
     4
 74
     0
 42
0.000000001
 43
0.0000000001
 40
9.0
 40
9.0
 40
9.0
 40
9.0
 40
10.0
 40
10.0
 40
10.0
 40
10.0
 10
362.1005505822179
 20
-21.1404839356871
 30
0.0
 10
362.1005505822179
 20
-21.1404839356871
 30
0.0
 10
361.4401257776955
 20
-21.7499213270278
 30
0.0
 10
361.4401257776955
 20
-21.7499213270278
 30
0.0
  0
SPLINE
  5
19A
330
1F
100
AcDbEntity
  8
Livello 1
100
AcDbSpline
210
0.0
220
0.0
230
1.0
 70
    24
 71
     3
 72
     8
 73
     4
 74
     0
 42
0.000000001
 43
0.0000000001
 40
10.0
 40
10.0
 40
10.0
 40
10.0
 40
11.0
 40
11.0
 40
11.0
 40
11.0
 10
361.4401257776955
 20
-21.7499213270278
 30
0.0
 10
361.4401257776955
 20
-21.7499213270278
 30
0.0
 10
361.4401257776955
 20
-21.77541503361865
 30
0.0
 10
361.4401257776955
 20
-21.77541503361865
 30
0.0
  0
SPLINE
  5
19B
330
1F
100
AcDbEntity
  8
Livello 1
100
AcDbSpline
210
0.0
220
0.0
230
1.0
 70
    24
 71
     3
 72
     8
 73
     4
 74
     0
 42
0.000000001
 43
0.0000000001
 40
11.0
 40
11.0
 40
11.0
 40
11.0
 40
12.0
 40
12.0
 40
12.0
 40
12.0
 10
361.4401257776955
 20
-21.77541503361865
 30
0.0
 10
361.4401257776955
 20
-21.77541503361865
 30
0.0
 10
365.1480820484699
 20
-21.77541503361865
 30
0.0
 10
365.1480820484699
 20
-21.77541503361865
 30
0.0
  0
SPLINE
  5
19C
330
1F
100
AcDbEntity
  8
Livello 1
100
AcDbSpline
210
0.0
220
0.0
230
1.0
 70
    24
 71
     3
 72
     8
 73
     4
 74
     0
 42
0.000000001
 43
0.0000000001
 40
12.0
 40
12.0
 40
12.0
 40
12.0
 40
13.0
 40
13.0
 40
13.0
 40
13.0
 10
365.1480820484699
 20
-21.77541503361865
 30
0.0
 10
365.1480820484699
 20
-21.77541503361865
 30
0.0
 10
365.1480820484699
 20
-22.70231797392512
 30
0.0
 10
365.1480820484699
 20
-22.70231797392512
 30
0.0
  0
SPLINE
  5
19D
330
1F
100
AcDbEntity
  8
Livello 1
100
AcDbSpline
210
0.0
220
0.0
230
1.0
 70
    24
 71
     3
 72
     8
 73
     4
 74
     0
 42
0.000000001
 43
0.0000000001
 40
13.0
 40
13.0
 40
13.0
 40
13.0
 40
14.0
 40
14.0
 40
14.0
 40
14.0
 10
365.1480820484699
 20
-22.70231797392512
 30
0.0
 10
365.1480820484699
 20
-22.70231797392512
 30
0.0
 10
359.8781194846833
 20
-22.70231797392512
 30
0.0
 10
359.8781194846833
 20
-22.70231797392512
 30
0.0
  0
SPLINE
  5
19E
330
1F
100
AcDbEntity
  8
Livello 1
100
AcDbSpline
210
0.0
220
0.0
230
1.0
 70
     8
 71
     3
 72
    11
 73
     7
 74
     0
 42
0.000000001
 43
0.0000000001
 40
0.0
 40
0.0
 40
0.0
 40
0.0
 40
1.0
 40
1.0
 40
1.0
 40
2.0
 40
2.0
 40
2.0
 40
2.0
 10
366.6597899473976
 20
-21.4197089247666
 30
0.0
 10
366.9770832415891
 20
-21.62296955839634
 30
0.0
 10
367.7136446563356
 20
-21.94043510736211
 30
0.0
 10
368.4884466309682
 20
-21.94043510736211
 30
0.0
 10
369.9233289005747
 20
-21.94043510736211
 30
0.0
 10
370.367746218172
 20
-21.02610676557681
 30
0.0
 10
370.3549993648766
 20
-20.34036050923783
 30
0.0
  0
SPLINE
  5
19F
330
1F
100
AcDbEntity
  8
Livello 1
100
AcDbSpline
210
0.0
220
0.0
230
1.0
 70
     8
 71
     3
 72
     8
 73
     4
 74
     0
 42
0.000000001
 43
0.0000000001
 40
2.0
 40
2.0
 40
2.0
 40
2.0
 40
3.0
 40
3.0
 40
3.0
 40
3.0
 10
370.3549993648766
 20
-20.34036050923783
 30
0.0
 10
370.3422525115811
 20
-19.18487548348503
 30
0.0
 10
369.3011446559386
 20
-18.68964300748037
 30
0.0
 10
368.2217962404098
 20
-18.68964300748037
 30
0.0
  0
SPLINE
  5
1A0
330
1F
100
AcDbEntity
  8
Livello 1
100
AcDbSpline
210
0.0
220
0.0
230
1.0
 70
    24
 71
     3
 72
     8
 73
     4
 74
     0
 42
0.000000001
 43
0.0000000001
 40
3.0
 40
3.0
 40
3.0
 40
3.0
 40
4.0
 40
4.0
 40
4.0
 40
4.0
 10
368.2217962404098
 20
-18.68964300748037
 30
0.0
 10
368.2217962404098
 20
-18.68964300748037
 30
0.0
 10
367.5996119957737
 20
-18.68964300748037
 30
0.0
 10
367.5996119957737
 20
-18.68964300748037
 30
0.0
  0
SPLINE
  5
1A1
330
1F
100
AcDbEntity
  8
Livello 1
100
AcDbSpline
210
0.0
220
0.0
230
1.0
 70
    24
 71
     3
 72
     8
 73
     4
 74
     0
 42
0.000000001
 43
0.0000000001
 40
4.0
 40
4.0
 40
4.0
 40
4.0
 40
5.0
 40
5.0
 40
5.0
 40
5.0
 10
367.5996119957737
 20
-18.68964300748037
 30
0.0
 10
367.5996119957737
 20
-18.68964300748037
 30
0.0
 10
367.5996119957737
 20
-17.85145127591908
 30
0.0
 10
367.5996119957737
 20
-17.85145127591908
 30
0.0
  0
SPLINE
  5
1A2
330
1F
100
AcDbEntity
  8
Livello 1
100
AcDbSpline
210
0.0
220
0.0
230
1.0
 70
    24
 71
     3
 72
     8
 73
     4
 74
     0
 42
0.000000001
 43
0.0000000001
 40
5.0
 40
5.0
 40
5.0
 40
5.0
 40
6.0
 40
6.0
 40
6.0
 40
6.0
 10
367.5996119957737
 20
-17.85145127591908
 30
0.0
 10
367.5996119957737
 20
-17.85145127591908
 30
0.0
 10
368.2217962404098
 20
-17.85145127591908
 30
0.0
 10
368.2217962404098
 20
-17.85145127591908
 30
0.0
  0
SPLINE
  5
1A3
330
1F
100
AcDbEntity
  8
Livello 1
100
AcDbSpline
210
0.0
220
0.0
230
1.0
 70
     8
 71
     3
 72
    14
 73
    10
 74
     0
 42
0.000000001
 43
0.0000000001
 40
6.0
 40
6.0
 40
6.0
 40
6.0
 40
7.0
 40
7.0
 40
7.0
 40
8.0
 40
8.0
 40
8.0
 40
9.0
 40
9.0
 40
9.0
 40
9.0
 10
368.2217962404098
 20
-17.85145127591908
 30
0.0
 10
369.0344942653803
 20
-17.85145127591908
 30
0.0
 10
370.0628552677273
 20
-17.4325276649127
 30
0.0
 10
370.0628552677273
 20
-16.45463731142453
 30
0.0
 10
370.0628552677273
 20
-15.7943847616764
 30
0.0
 10
369.643931656721
 20
-15.21026882215229
 30
0.0
 10
368.6152261448254
 20
-15.21026882215229
 30
0.0
 10
367.9551458498516
 20
-15.21026882215229
 30
0.0
 10
367.32021475192
 20
-15.50224066452722
 30
0.0
 10
366.9646808978422
 20
-15.75631645656439
 30
0.0
  0
SPLINE
  5
1A4
330
1F
100
AcDbEntity
  8
Livello 1
100
AcDbSpline
210
0.0
220
0.0
230
1.0
 70
    24
 71
     3
 72
     8
 73
     4
 74
     0
 42
0.000000001
 43
0.0000000001
 40
9.0
 40
9.0
 40
9.0
 40
9.0
 40
10.0
 40
10.0
 40
10.0
 40
10.0
 10
366.9646808978422
 20
-15.75631645656439
 30
0.0
 10
366.9646808978422
 20
-15.75631645656439
 30
0.0
 10
366.672536800693
 20
-14.94361843159396
 30
0.0
 10
366.672536800693
 20
-14.94361843159396
 30
0.0
  0
SPLINE
  5
1A5
330
1F
100
AcDbEntity
  8
Livello 1
100
AcDbSpline
210
0.0
220
0.0
230
1.0
 70
     8
 71
     3
 72
    14
 73
    10
 74
     0
 42
0.000000001
 43
0.0000000001
 40
10.0
 40
10.0
 40
10.0
 40
10.0
 40
11.0
 40
11.0
 40
11.0
 40
12.0
 40
12.0
 40
12.0
 40
13.0
 40
13.0
 40
13.0
 40
13.0
 10
366.672536800693
 20
-14.94361843159396
 30
0.0
 10
367.1042072649948
 20
-14.62615288262819
 30
0.0
 10
367.9423989965561
 20
-14.30868733366241
 30
0.0
 10
368.8312336317505
 20
-14.30868733366241
 30
0.0
 10
370.4566296816914
 20
-14.30868733366241
 30
0.0
 10
371.1931910964378
 20
-15.27383083385515
 30
0.0
 10
371.1931910964378
 20
-16.27687038438565
 30
0.0
 10
371.1931910964378
 20
-17.12763671446809
 30
0.0
 10
370.6850395123635
 20
-17.85145127591908
 30
0.0
 10
369.6694253633119
 20
-18.21973198329229
 30
0.0
  0
SPLINE
  5
1A6
330
1F
100
AcDbEntity
  8
Livello 1
100
AcDbSpline
210
0.0
220
0.0
230
1.0
 70
    24
 71
     3
 72
     8
 73
     4
 74
     0
 42
0.000000001
 43
0.0000000001
 40
13.0
 40
13.0
 40
13.0
 40
13.0
 40
14.0
 40
14.0
 40
14.0
 40
14.0
 10
369.6694253633119
 20
-18.21973198329229
 30
0.0
 10
369.6694253633119
 20
-18.21973198329229
 30
0.0
 10
369.6694253633119
 20
-18.24522568988314
 30
0.0
 10
369.6694253633119
 20
-18.24522568988314
 30
0.0
  0
SPLINE
  5
1A7
330
1F
100
AcDbEntity
  8
Livello 1
100
AcDbSpline
210
0.0
220
0.0
230
1.0
 70
     8
 71
     3
 72
    14
 73
    10
 74
     0
 42
0.000000001
 43
0.0000000001
 40
14.0
 40
14.0
 40
14.0
 40
14.0
 40
15.0
 40
15.0
 40
15.0
 40
16.0
 40
16.0
 40
16.0
 40
17.0
 40
17.0
 40
17.0
 40
17.0
 10
369.6694253633119
 20
-18.24522568988314
 30
0.0
 10
370.6850395123635
 20
-18.44831406873862
 30
0.0
 10
371.5104843906293
 20
-19.21019693530162
 30
0.0
 10
371.5104843906293
 20
-20.36585421582868
 30
0.0
 10
371.5104843906293
 20
-21.6865315700992
 30
0.0
 10
370.4821233882823
 20
-22.842016595852
 30
0.0
 10
368.5011934842636
 20
-22.842016595852
 30
0.0
 10
367.5741182891829
 20
-22.842016595852
 30
0.0
 10
366.7614202642125
 20
-22.54987249870281
 30
0.0
 10
366.3548989969529
 20
-22.28322210814448
 30
0.0
  0
SPLINE
  5
1A8
330
1F
100
AcDbEntity
  8
Livello 1
100
AcDbSpline
210
0.0
220
0.0
230
1.0
 70
    24
 71
     3
 72
     8
 73
     4
 74
     0
 42
0.000000001
 43
0.0000000001
 40
17.0
 40
17.0
 40
17.0
 40
17.0
 40
18.0
 40
18.0
 40
18.0
 40
18.0
 10
366.3548989969529
 20
-22.28322210814448
 30
0.0
 10
366.3548989969529
 20
-22.28322210814448
 30
0.0
 10
366.6597899473976
 20
-21.4197089247666
 30
0.0
 10
366.6597899473976
 20
-21.4197089247666
 30
0.0
  0
SPLINE
  5
1A9
330
1F
100
AcDbEntity
  8
Livello 1
100
AcDbSpline
210
0.0
220
0.0
230
1.0
 70
    24
 71
     3
 72
     8
 73
     4
 74
     0
 42
0.000000001
 43
0.0000000001
 40
0.0
 40
0.0
 40
0.0
 40
0.0
 40
1.0
 40
1.0
 40
1.0
 40
1.0
 10
376.476589532617
 20
-16.55626762823941
 30
0.0
 10
376.476589532617
 20
-16.55626762823941
 30
0.0
 10
377.352677314516
 20
-17.87694498250993
 30
0.0
 10
377.352677314516
 20
-17.87694498250993
 30
0.0
  0
SPLINE
  5
1AA
330
1F
100
AcDbEntity
  8
Livello 1
100
AcDbSpline
210
0.0
220
0.0
230
1.0
 70
     8
 71
     3
 72
     8
 73
     4
 74
     0
 42
0.000000001
 43
0.0000000001
 40
1.0
 40
1.0
 40
1.0
 40
1.0
 40
2.0
 40
2.0
 40
2.0
 40
2.0
 10
377.352677314516
 20
-17.87694498250993
 30
0.0
 10
377.5810871451881
 20
-18.21973198329229
 30
0.0
 10
377.7716009255223
 20
-18.53719753225806
 30
0.0
 10
377.9748615591521
 20
-18.88015678781468
 30
0.0
  0
SPLINE
  5
1AB
330
1F
100
AcDbEntity
  8
Livello 1
100
AcDbSpline
210
0.0
220
0.0
230
1.0
 70
    24
 71
     3
 72
     8
 73
     4
 74
     0
 42
0.000000001
 43
0.0000000001
 40
2.0
 40
2.0
 40
2.0
 40
2.0
 40
3.0
 40
3.0
 40
3.0
 40
3.0
 10
377.9748615591521
 20
-18.88015678781468
 30
0.0
 10
377.9748615591521
 20
-18.88015678781468
 30
0.0
 10
378.0131021190384
 20
-18.88015678781468
 30
0.0
 10
378.0131021190384
 20
-18.88015678781468
 30
0.0
  0
SPLINE
  5
1AC
330
1F
100
AcDbEntity
  8
Livello 1
100
AcDbSpline
210
0.0
220
0.0
230
1.0
 70
     8
 71
     3
 72
     8
 73
     4
 74
     0
 42
0.000000001
 43
0.0000000001
 40
3.0
 40
3.0
 40
3.0
 40
3.0
 40
4.0
 40
4.0
 40
4.0
 40
4.0
 10
378.0131021190384
 20
-18.88015678781468
 30
0.0
 10
378.2160182431197
 20
-18.51187608044147
 30
0.0
 10
378.4192788767493
 20
-18.1944105314757
 30
0.0
 10
378.6225395103791
 20
-17.86419812921451
 30
0.0
  0
SPLINE
  5
1AD
330
1F
100
AcDbEntity
  8
Livello 1
100
AcDbSpline
210
0.0
220
0.0
230
1.0
 70
    24
 71
     3
 72
     8
 73
     4
 74
     0
 42
0.000000001
 43
0.0000000001
 40
4.0
 40
4.0
 40
4.0
 40
4.0
 40
5.0
 40
5.0
 40
5.0
 40
5.0
 10
378.6225395103791
 20
-17.86419812921451
 30
0.0
 10
378.6225395103791
 20
-17.86419812921451
 30
0.0
 10
379.4858804389827
 20
-16.55626762823941
 30
0.0
 10
379.4858804389827
 20
-16.55626762823941
 30
0.0
  0
SPLINE
  5
1AE
330
1F
100
AcDbEntity
  8
Livello 1
100
AcDbSpline
210
0.0
220
0.0
230
1.0
 70
    24
 71
     3
 72
     8
 73
     4
 74
     0
 42
0.000000001
 43
0.0000000001
 40
5.0
 40
5.0
 40
5.0
 40
5.0
 40
6.0
 40
6.0
 40
6.0
 40
6.0
 10
379.4858804389827
 20
-16.55626762823941
 30
0.0
 10
379.4858804389827
 20
-16.55626762823941
 30
0.0
 10
380.6923528779172
 20
-16.55626762823941
 30
0.0
 10
380.6923528779172
 20
-16.55626762823941
 30
0.0
  0
SPLINE
  5
1AF
330
1F
100
AcDbEntity
  8
Livello 1
100
AcDbSpline
210
0.0
220
0.0
230
1.0
 70
    24
 71
     3
 72
     8
 73
     4
 74
     0
 42
0.000000001
 43
0.0000000001
 40
6.0
 40
6.0
 40
6.0
 40
6.0
 40
7.0
 40
7.0
 40
7.0
 40
7.0
 10
380.6923528779172
 20
-16.55626762823941
 30
0.0
 10
380.6923528779172
 20
-16.55626762823941
 30
0.0
 10
378.5970458037883
 20
-19.52766248426739
 30
0.0
 10
378.5970458037883
 20
-19.52766248426739
 30
0.0
  0
SPLINE
  5
1B0
330
1F
100
AcDbEntity
  8
Livello 1
100
AcDbSpline
210
0.0
220
0.0
230
1.0
 70
    24
 71
     3
 72
     8
 73
     4
 74
     0
 42
0.000000001
 43
0.0000000001
 40
7.0
 40
7.0
 40
7.0
 40
7.0
 40
8.0
 40
8.0
 40
8.0
 40
8.0
 10
378.5970458037883
 20
-19.52766248426739
 30
0.0
 10
378.5970458037883
 20
-19.52766248426739
 30
0.0
 10
380.7557426348458
 20
-22.70231797392512
 30
0.0
 10
380.7557426348458
 20
-22.70231797392512
 30
0.0
  0
SPLINE
  5
1B1
330
1F
100
AcDbEntity
  8
Livello 1
100
AcDbSpline
210
0.0
220
0.0
230
1.0
 70
    24
 71
     3
 72
     8
 73
     4
 74
     0
 42
0.000000001
 43
0.0000000001
 40
8.0
 40
8.0
 40
8.0
 40
8.0
 40
9.0
 40
9.0
 40
9.0
 40
9.0
 10
380.7557426348458
 20
-22.70231797392512
 30
0.0
 10
380.7557426348458
 20
-22.70231797392512
 30
0.0
 10
379.4858804389827
 20
-22.70231797392512
 30
0.0
 10
379.4858804389827
 20
-22.70231797392512
 30
0.0
  0
SPLINE
  5
1B2
330
1F
100
AcDbEntity
  8
Livello 1
100
AcDbSpline
210
0.0
220
0.0
230
1.0
 70
    24
 71
     3
 72
     8
 73
     4
 74
     0
 42
0.000000001
 43
0.0000000001
 40
9.0
 40
9.0
 40
9.0
 40
9.0
 40
10.0
 40
10.0
 40
10.0
 40
10.0
 10
379.4858804389827
 20
-22.70231797392512
 30
0.0
 10
379.4858804389827
 20
-22.70231797392512
 30
0.0
 10
378.5842989504928
 20
-21.31825086272598
 30
0.0
 10
378.5842989504928
 20
-21.31825086272598
 30
0.0
  0
SPLINE
  5
1B3
330
1F
100
AcDbEntity
  8
Livello 1
100
AcDbSpline
210
0.0
220
0.0
230
1.0
 70
     8
 71
     3
 72
     8
 73
     4
 74
     0
 42
0.000000001
 43
0.0000000001
 40
10.0
 40
10.0
 40
10.0
 40
10.0
 40
11.0
 40
11.0
 40
11.0
 40
11.0
 10
378.5842989504928
 20
-21.31825086272598
 30
0.0
 10
378.3431422665253
 20
-20.96271700864821
 30
0.0
 10
378.1398816328957
 20
-20.61975775309159
 30
0.0
 10
377.924218655519
 20
-20.25147704571838
 30
0.0
  0
SPLINE
  5
1B4
330
1F
100
AcDbEntity
  8
Livello 1
100
AcDbSpline
210
0.0
220
0.0
230
1.0
 70
    24
 71
     3
 72
     8
 73
     4
 74
     0
 42
0.000000001
 43
0.0000000001
 40
11.0
 40
11.0
 40
11.0
 40
11.0
 40
12.0
 40
12.0
 40
12.0
 40
12.0
 10
377.924218655519
 20
-20.25147704571838
 30
0.0
 10
377.924218655519
 20
-20.25147704571838
 30
0.0
 10
377.8987249489281
 20
-20.25147704571838
 30
0.0
 10
377.8987249489281
 20
-20.25147704571838
 30
0.0
  0
SPLINE
  5
1B5
330
1F
100
AcDbEntity
  8
Livello 1
100
AcDbSpline
210
0.0
220
0.0
230
1.0
 70
     8
 71
     3
 72
     8
 73
     4
 74
     0
 42
0.000000001
 43
0.0000000001
 40
12.0
 40
12.0
 40
12.0
 40
12.0
 40
13.0
 40
13.0
 40
13.0
 40
13.0
 10
377.8987249489281
 20
-20.25147704571838
 30
0.0
 10
377.6954643152984
 20
-20.61975775309159
 30
0.0
 10
377.4798013379217
 20
-20.94997015535279
 30
0.0
 10
377.2510469977012
 20
-21.31825086272598
 30
0.0
  0
SPLINE
  5
1B6
330
1F
100
AcDbEntity
  8
Livello 1
100
AcDbSpline
210
0.0
220
0.0
230
1.0
 70
    24
 71
     3
 72
     8
 73
     4
 74
     0
 42
0.000000001
 43
0.0000000001
 40
13.0
 40
13.0
 40
13.0
 40
13.0
 40
14.0
 40
14.0
 40
14.0
 40
14.0
 10
377.2510469977012
 20
-21.31825086272598
 30
0.0
 10
377.2510469977012
 20
-21.31825086272598
 30
0.0
 10
376.3622123625067
 20
-22.70231797392512
 30
0.0
 10
376.3622123625067
 20
-22.70231797392512
 30
0.0
  0
SPLINE
  5
1B7
330
1F
100
AcDbEntity
  8
Livello 1
100
AcDbSpline
210
0.0
220
0.0
230
1.0
 70
    24
 71
     3
 72
     8
 73
     4
 74
     0
 42
0.000000001
 43
0.0000000001
 40
14.0
 40
14.0
 40
14.0
 40
14.0
 40
15.0
 40
15.0
 40
15.0
 40
15.0
 10
376.3622123625067
 20
-22.70231797392512
 30
0.0
 10
376.3622123625067
 20
-22.70231797392512
 30
0.0
 10
375.1305907265299
 20
-22.70231797392512
 30
0.0
 10
375.1305907265299
 20
-22.70231797392512
 30
0.0
  0
SPLINE
  5
1B8
330
1F
100
AcDbEntity
  8
Livello 1
100
AcDbSpline
210
0.0
220
0.0
230
1.0
 70
    24
 71
     3
 72
     8
 73
     4
 74
     0
 42
0.000000001
 43
0.0000000001
 40
15.0
 40
15.0
 40
15.0
 40
15.0
 40
16.0
 40
16.0
 40
16.0
 40
16.0
 10
375.1305907265299
 20
-22.70231797392512
 30
0.0
 10
375.1305907265299
 20
-22.70231797392512
 30
0.0
 10
377.3144367546298
 20
-19.5657307893794
 30
0.0
 10
377.3144367546298
 20
-19.5657307893794
 30
0.0
  0
SPLINE
  5
1B9
330
1F
100
AcDbEntity
  8
Livello 1
100
AcDbSpline
210
0.0
220
0.0
230
1.0
 70
    24
 71
     3
 72
     8
 73
     4
 74
     0
 42
0.000000001
 43
0.0000000001
 40
16.0
 40
16.0
 40
16.0
 40
16.0
 40
17.0
 40
17.0
 40
17.0
 40
17.0
 10
377.3144367546298
 20
-19.5657307893794
 30
0.0
 10
377.3144367546298
 20
-19.5657307893794
 30
0.0
 10
375.2322210433446
 20
-16.55626762823941
 30
0.0
 10
375.2322210433446
 20
-16.55626762823941
 30
0.0
  0
SPLINE
  5
1BA
330
1F
100
AcDbEntity
  8
Livello 1
100
AcDbSpline
210
0.0
220
0.0
230
1.0
 70
    24
 71
     3
 72
     8
 73
     4
 74
     0
 42
0.000000001
 43
0.0000000001
 40
17.0
 40
17.0
 40
17.0
 40
17.0
 40
18.0
 40
18.0
 40
18.0
 40
18.0
 10
375.2322210433446
 20
-16.55626762823941
 30
0.0
 10
375.2322210433446
 20
-16.55626762823941
 30
0.0
 10
376.476589532617
 20
-16.55626762823941
 30
0.0
 10
376.476589532617
 20
-16.55626762823941
 30
0.0
  0
SPLINE
  5
1BB
330
1F
100
AcDbEntity
  8
Livello 1
100
AcDbSpline
210
0.0
220
0.0
230
1.0
 70
     8
 71
     3
 72
     8
 73
     4
 74
     0
 42
0.000000001
 43
0.0000000001
 40
0.0
 40
0.0
 40
0.0
 40
0.0
 40
1.0
 40
1.0
 40
1.0
 40
1.0
 10
388.8837564131957
 20
-15.23559027396888
 30
0.0
 10
388.6553465825236
 20
-15.22301567544772
 30
0.0
 10
388.3632024853745
 20
-15.23559027396888
 30
0.0
 10
388.045909191183
 20
-15.28640543237632
 30
0.0
  0
SPLINE
  5
1BC
330
1F
100
AcDbEntity
  8
Livello 1
100
AcDbSpline
210
0.0
220
0.0
230
1.0
 70
     8
 71
     3
 72
     8
 73
     4
 74
     0
 42
0.000000001
 43
0.0000000001
 40
1.0
 40
1.0
 40
1.0
 40
1.0
 40
2.0
 40
2.0
 40
2.0
 40
2.0
 10
388.045909191183
 20
-15.28640543237632
 30
0.0
 10
386.2933891178364
 20
-15.5785495295255
 30
0.0
 10
385.3663139227557
 20
-16.86098632390975
 30
0.0
 10
385.1758001424213
 20
-18.21973198329229
 30
0.0
  0
SPLINE
  5
1BD
330
1F
100
AcDbEntity
  8
Livello 1
100
AcDbSpline
210
0.0
220
0.0
230
1.0
 70
    24
 71
     3
 72
     8
 73
     4
 74
     0
 42
0.000000001
 43
0.0000000001
 40
2.0
 40
2.0
 40
2.0
 40
2.0
 40
3.0
 40
3.0
 40
3.0
 40
3.0
 10
385.1758001424213
 20
-18.21973198329229
 30
0.0
 10
385.1758001424213
 20
-18.21973198329229
 30
0.0
 10
385.2140407023077
 20
-18.21973198329229
 30
0.0
 10
385.2140407023077
 20
-18.21973198329229
 30
0.0
  0
SPLINE
  5
1BE
330
1F
100
AcDbEntity
  8
Livello 1
100
AcDbSpline
210
0.0
220
0.0
230
1.0
 70
     8
 71
     3
 72
    20
 73
    16
 74
     0
 42
0.000000001
 43
0.0000000001
 40
3.0
 40
3.0
 40
3.0
 40
3.0
 40
4.0
 40
4.0
 40
4.0
 40
5.0
 40
5.0
 40
5.0
 40
6.0
 40
6.0
 40
6.0
 40
7.0
 40
7.0
 40
7.0
 40
8.0
 40
8.0
 40
8.0
 40
8.0
 10
385.2140407023077
 20
-18.21973198329229
 30
0.0
 10
385.6078151162717
 20
-17.69917805547104
 30
0.0
 10
386.2933891178364
 20
-17.26733533639497
 30
0.0
 10
387.2077174596217
 20
-17.26733533639497
 30
0.0
 10
388.6680934358191
 20
-17.26733533639497
 30
0.0
 10
389.6964544381662
 20
-18.32136230010716
 30
0.0
 10
389.6964544381662
 20
-19.93401149675261
 30
0.0
 10
389.6964544381662
 20
-21.44520263135745
 30
0.0
 10
388.6680934358191
 20
-22.842016595852
 30
0.0
 10
386.9538139223588
 20
-22.842016595852
 30
0.0
 10
385.1885469957167
 20
-22.842016595852
 30
0.0
 10
384.033061969964
 20
-21.47052408317404
 30
0.0
 10
384.033061969964
 20
-19.32457410541191
 30
0.0
 10
384.033061969964
 20
-17.69917805547104
 30
0.0
 10
384.6173501642623
 20
-16.41656900631252
 30
0.0
 10
385.4300481892328
 20
-15.60387098134209
 30
0.0
  0
SPLINE
  5
1BF
330
1F
100
AcDbEntity
  8
Livello 1
100
AcDbSpline
210
0.0
220
0.0
230
1.0
 70
     8
 71
     3
 72
     8
 73
     4
 74
     0
 42
0.000000001
 43
0.0000000001
 40
8.0
 40
8.0
 40
8.0
 40
8.0
 40
9.0
 40
9.0
 40
9.0
 40
9.0
 10
385.4300481892328
 20
-15.60387098134209
 30
0.0
 10
386.1156221907975
 20
-14.93087157829853
 30
0.0
 10
387.0299505325828
 20
-14.51177571251789
 30
0.0
 10
388.0710583882253
 20
-14.38482394388643
 30
0.0
  0
SPLINE
  5
1C0
330
1F
100
AcDbEntity
  8
Livello 1
100
AcDbSpline
210
0.0
220
0.0
230
1.0
 70
     8
 71
     3
 72
     8
 73
     4
 74
     0
 42
0.000000001
 43
0.0000000001
 40
9.0
 40
9.0
 40
9.0
 40
9.0
 40
10.0
 40
10.0
 40
10.0
 40
10.0
 10
388.0710583882253
 20
-14.38482394388643
 30
0.0
 10
388.4014430452607
 20
-14.334008785479
 30
0.0
 10
388.6808402891146
 20
-14.32143418695784
 30
0.0
 10
388.8837564131957
 20
-14.32143418695784
 30
0.0
  0
SPLINE
  5
1C1
330
1F
100
AcDbEntity
  8
Livello 1
100
AcDbSpline
210
0.0
220
0.0
230
1.0
 70
    24
 71
     3
 72
     8
 73
     4
 74
     0
 42
0.000000001
 43
0.0000000001
 40
10.0
 40
10.0
 40
10.0
 40
10.0
 40
11.0
 40
11.0
 40
11.0
 40
11.0
 10
388.8837564131957
 20
-14.32143418695784
 30
0.0
 10
388.8837564131957
 20
-14.32143418695784
 30
0.0
 10
388.8837564131957
 20
-15.23559027396888
 30
0.0
 10
388.8837564131957
 20
-15.23559027396888
 30
0.0
  0
SPLINE
  5
1C2
330
1F
100
AcDbEntity
  8
Livello 1
100
AcDbSpline
210
0.0
220
0.0
230
1.0
 70
     8
 71
     3
 72
    11
 73
     7
 74
     0
 42
0.000000001
 43
0.0000000001
 40
0.0
 40
0.0
 40
0.0
 40
0.0
 40
1.0
 40
1.0
 40
1.0
 40
2.0
 40
2.0
 40
2.0
 40
2.0
 10
388.5664631190043
 20
-19.99757350845547
 30
0.0
 10
388.5664631190043
 20
-18.81659477611182
 30
0.0
 10
387.8932914611864
 20
-18.10552706795626
 30
0.0
 10
386.8649304588394
 20
-18.10552706795626
 30
0.0
 10
386.1917588010215
 20
-18.10552706795626
 30
0.0
 10
385.5695745563854
 20
-18.5246229337369
 30
0.0
 10
385.2646836059408
 20
-19.12131347178217
 30
0.0
  0
SPLINE
  5
1C3
330
1F
100
AcDbEntity
  8
Livello 1
100
AcDbSpline
210
0.0
220
0.0
230
1.0
 70
     8
 71
     3
 72
     8
 73
     4
 74
     0
 42
0.000000001
 43
0.0000000001
 40
2.0
 40
2.0
 40
2.0
 40
2.0
 40
3.0
 40
3.0
 40
3.0
 40
3.0
 10
385.2646836059408
 20
-19.12131347178217
 30
0.0
 10
385.1885469957167
 20
-19.24843749518789
 30
0.0
 10
385.1379040920836
 20
-19.41345756893136
 30
0.0
 10
385.1379040920836
 20
-19.61654594778684
 30
0.0
  0
SPLINE
  5
1C4
330
1F
100
AcDbEntity
  8
Livello 1
100
AcDbSpline
210
0.0
220
0.0
230
1.0
 70
     8
 71
     3
 72
    11
 73
     7
 74
     0
 42
0.000000001
 43
0.0000000001
 40
3.0
 40
3.0
 40
3.0
 40
3.0
 40
4.0
 40
4.0
 40
4.0
 40
5.0
 40
5.0
 40
5.0
 40
5.0
 10
385.1379040920836
 20
-19.61654594778684
 30
0.0
 10
385.1630532891259
 20
-20.97529160716937
 30
0.0
 10
385.7855820433106
 20
-21.97850341247413
 30
0.0
 10
386.9538139223588
 20
-21.97850341247413
 30
0.0
 10
387.9187851677773
 20
-21.97850341247413
 30
0.0
 10
388.5664631190043
 20
-21.17855224079911
 30
0.0
 10
388.5664631190043
 20
-19.99757350845547
 30
0.0
  0
SPLINE
  5
1C5
330
1F
100
AcDbEntity
  8
Livello 1
100
AcDbSpline
210
0.0
220
0.0
230
1.0
 70
     8
 71
     3
 72
     8
 73
     4
 74
     0
 42
0.000000001
 43
0.0000000001
 40
0.0
 40
0.0
 40
0.0
 40
0.0
 40
1.0
 40
1.0
 40
1.0
 40
1.0
 10
390.3193277018993
 20
-24.26415201216313
 30
0.0
 10
390.5987249457531
 20
-23.51501599889555
 30
0.0
 10
390.9415119465355
 20
-22.15627033951302
 30
0.0
 10
391.0813828232366
 20
-21.22936739920655
 30
0.0
  0
SPLINE
  5
1C6
330
1F
100
AcDbEntity
  8
Livello 1
100
AcDbSpline
210
0.0
220
0.0
230
1.0
 70
    24
 71
     3
 72
     8
 73
     4
 74
     0
 42
0.000000001
 43
0.0000000001
 40
1.0
 40
1.0
 40
1.0
 40
1.0
 40
2.0
 40
2.0
 40
2.0
 40
2.0
 10
391.0813828232366
 20
-21.22936739920655
 30
0.0
 10
391.0813828232366
 20
-21.22936739920655
 30
0.0
 10
392.3257513125088
 20
-21.10224337580083
 30
0.0
 10
392.3257513125088
 20
-21.10224337580083
 30
0.0
  0
SPLINE
  5
1C7
330
1F
100
AcDbEntity
  8
Livello 1
100
AcDbSpline
210
0.0
220
0.0
230
1.0
 70
     8
 71
     3
 72
     8
 73
     4
 74
     0
 42
0.000000001
 43
0.0000000001
 40
2.0
 40
2.0
 40
2.0
 40
2.0
 40
3.0
 40
3.0
 40
3.0
 40
3.0
 10
392.3257513125088
 20
-21.10224337580083
 30
0.0
 10
392.0336072153597
 20
-22.18176404610386
 30
0.0
 10
391.4748127276522
 20
-23.59115260911958
 30
0.0
 10
391.1192788735744
 20
-24.18801540193911
 30
0.0
  0
SPLINE
  5
1C8
330
1F
100
AcDbEntity
  8
Livello 1
100
AcDbSpline
210
0.0
220
0.0
230
1.0
 70
    24
 71
     3
 72
     8
 73
     4
 74
     0
 42
0.000000001
 43
0.0000000001
 40
3.0
 40
3.0
 40
3.0
 40
3.0
 40
4.0
 40
4.0
 40
4.0
 40
4.0
 10
391.1192788735744
 20
-24.18801540193911
 30
0.0
 10
391.1192788735744
 20
-24.18801540193911
 30
0.0
 10
390.3193277018993
 20
-24.26415201216313
 30
0.0
 10
390.3193277018993
 20
-24.26415201216313
 30
0.0
  0
SPLINE
  5
1C9
330
1F
100
AcDbEntity
  8
Livello 1
100
AcDbSpline
210
0.0
220
0.0
230
1.0
 70
    24
 71
     3
 72
     8
 73
     4
 74
     0
 42
0.000000001
 43
0.0000000001
 40
0.0
 40
0.0
 40
0.0
 40
0.0
 40
1.0
 40
1.0
 40
1.0
 40
1.0
 10
398.2433918275225
 20
-15.38803574919119
 30
0.0
 10
398.2433918275225
 20
-15.38803574919119
 30
0.0
 10
395.0942300444556
 20
-15.38803574919119
 30
0.0
 10
395.0942300444556
 20
-15.38803574919119
 30
0.0
  0
SPLINE
  5
1CA
330
1F
100
AcDbEntity
  8
Livello 1
100
AcDbSpline
210
0.0
220
0.0
230
1.0
 70
    24
 71
     3
 72
     8
 73
     4
 74
     0
 42
0.000000001
 43
0.0000000001
 40
1.0
 40
1.0
 40
1.0
 40
1.0
 40
2.0
 40
2.0
 40
2.0
 40
2.0
 10
395.0942300444556
 20
-15.38803574919119
 30
0.0
 10
395.0942300444556
 20
-15.38803574919119
 30
0.0
 10
394.7765922407156
 20
-17.50866427513672
 30
0.0
 10
394.7765922407156
 20
-17.50866427513672
 30
0.0
  0
SPLINE
  5
1CB
330
1F
100
AcDbEntity
  8
Livello 1
100
AcDbSpline
210
0.0
220
0.0
230
1.0
 70
     8
 71
     3
 72
    11
 73
     7
 74
     0
 42
0.000000001
 43
0.0000000001
 40
2.0
 40
2.0
 40
2.0
 40
2.0
 40
3.0
 40
3.0
 40
3.0
 40
4.0
 40
4.0
 40
4.0
 40
4.0
 10
394.7765922407156
 20
-17.50866427513672
 30
0.0
 10
394.9671060210499
 20
-17.48334282332014
 30
0.0
 10
395.1448729480889
 20
-17.45784911672929
 30
0.0
 10
395.4497638985334
 20
-17.45784911672929
 30
0.0
 10
396.084694996465
 20
-17.45784911672929
 30
0.0
 10
396.7196260943965
 20
-17.59754773865617
 30
0.0
 10
397.2274331689224
 20
-17.90226643432652
 30
0.0
  0
SPLINE
  5
1CC
330
1F
100
AcDbEntity
  8
Livello 1
100
AcDbSpline
210
0.0
220
0.0
230
1.0
 70
     8
 71
     3
 72
    14
 73
    10
 74
     0
 42
0.000000001
 43
0.0000000001
 40
4.0
 40
4.0
 40
4.0
 40
4.0
 40
5.0
 40
5.0
 40
5.0
 40
6.0
 40
6.0
 40
6.0
 40
7.0
 40
7.0
 40
7.0
 40
7.0
 10
397.2274331689224
 20
-17.90226643432652
 30
0.0
 10
397.8751111201493
 20
-18.27054714169973
 30
0.0
 10
398.4084119012661
 20
-18.98161484985529
 30
0.0
 10
398.4084119012661
 20
-20.02289496027205
 30
0.0
 10
398.4084119012661
 20
-21.63571641169177
 30
0.0
 10
397.1258028521075
 20
-22.842016595852
 30
0.0
 10
395.3353867284231
 20
-22.842016595852
 30
0.0
 10
394.4338052399332
 20
-22.842016595852
 30
0.0
 10
393.671750118596
 20
-22.58811305858908
 30
0.0
 10
393.2783202141804
 20
-22.33403726655191
 30
0.0
  0
SPLINE
  5
1CD
330
1F
100
AcDbEntity
  8
Livello 1
100
AcDbSpline
210
0.0
220
0.0
230
1.0
 70
    24
 71
     3
 72
     8
 73
     4
 74
     0
 42
0.000000001
 43
0.0000000001
 40
7.0
 40
7.0
 40
7.0
 40
7.0
 40
8.0
 40
8.0
 40
8.0
 40
8.0
 10
393.2783202141804
 20
-22.33403726655191
 30
0.0
 10
393.2783202141804
 20
-22.33403726655191
 30
0.0
 10
393.5577174580343
 20
-21.48327093646946
 30
0.0
 10
393.5577174580343
 20
-21.48327093646946
 30
0.0
  0
SPLINE
  5
1CE
330
1F
100
AcDbEntity
  8
Livello 1
100
AcDbSpline
210
0.0
220
0.0
230
1.0
 70
     8
 71
     3
 72
    11
 73
     7
 74
     0
 42
0.000000001
 43
0.0000000001
 40
8.0
 40
8.0
 40
8.0
 40
8.0
 40
9.0
 40
9.0
 40
9.0
 40
10.0
 40
10.0
 40
10.0
 40
10.0
 10
393.5577174580343
 20
-21.48327093646946
 30
0.0
 10
393.9005044588166
 20
-21.6865315700992
 30
0.0
 10
394.5736761166344
 20
-21.94043510736211
 30
0.0
 10
395.3226398751277
 20
-21.94043510736211
 30
0.0
 10
396.3768390936142
 20
-21.94043510736211
 30
0.0
 10
397.278420582104
 20
-21.25468885102313
 30
0.0
 10
397.278420582104
 20
-20.15001898367777
 30
0.0
  0
SPLINE
  5
1CF
330
1F
100
AcDbEntity
  8
Livello 1
100
AcDbSpline
210
0.0
220
0.0
230
1.0
 70
     8
 71
     3
 72
    11
 73
     7
 74
     0
 42
0.000000001
 43
0.0000000001
 40
10.0
 40
10.0
 40
10.0
 40
10.0
 40
11.0
 40
11.0
 40
11.0
 40
12.0
 40
12.0
 40
12.0
 40
12.0
 10
397.278420582104
 20
-20.15001898367777
 30
0.0
 10
397.2656737288086
 20
-19.08324516667016
 30
0.0
 10
396.554606020653
 20
-18.32136230010716
 30
0.0
 10
394.9037162641213
 20
-18.32136230010716
 30
0.0
 10
394.4338052399332
 20
-18.32136230010716
 30
0.0
 10
394.0655245325601
 20
-18.3721774585146
 30
0.0
 10
393.7609780916639
 20
-18.41024576362661
 30
0.0
  0
SPLINE
  5
1D0
330
1F
100
AcDbEntity
  8
Livello 1
100
AcDbSpline
210
0.0
220
0.0
230
1.0
 70
    24
 71
     3
 72
     8
 73
     4
 74
     0
 42
0.000000001
 43
0.0000000001
 40
12.0
 40
12.0
 40
12.0
 40
12.0
 40
13.0
 40
13.0
 40
13.0
 40
13.0
 10
393.7609780916639
 20
-18.41024576362661
 30
0.0
 10
393.7609780916639
 20
-18.41024576362661
 30
0.0
 10
394.2942788727807
 20
-14.44838595558929
 30
0.0
 10
394.2942788727807
 20
-14.44838595558929
 30
0.0
  0
SPLINE
  5
1D1
330
1F
100
AcDbEntity
  8
Livello 1
100
AcDbSpline
210
0.0
220
0.0
230
1.0
 70
    24
 71
     3
 72
     8
 73
     4
 74
     0
 42
0.000000001
 43
0.0000000001
 40
13.0
 40
13.0
 40
13.0
 40
13.0
 40
14.0
 40
14.0
 40
14.0
 40
14.0
 10
394.2942788727807
 20
-14.44838595558929
 30
0.0
 10
394.2942788727807
 20
-14.44838595558929
 30
0.0
 10
398.2433918275225
 20
-14.44838595558929
 30
0.0
 10
398.2433918275225
 20
-14.44838595558929
 30
0.0
  0
SPLINE
  5
1D2
330
1F
100
AcDbEntity
  8
Livello 1
100
AcDbSpline
210
0.0
220
0.0
230
1.0
 70
    24
 71
     3
 72
     8
 73
     4
 74
     0
 42
0.000000001
 43
0.0000000001
 40
14.0
 40
14.0
 40
14.0
 40
14.0
 40
15.0
 40
15.0
 40
15.0
 40
15.0
 10
398.2433918275225
 20
-14.44838595558929
 30
0.0
 10
398.2433918275225
 20
-14.44838595558929
 30
0.0
 10
398.2433918275225
 20
-15.38803574919119
 30
0.0
 10
398.2433918275225
 20
-15.38803574919119
 30
0.0
  0
ENDSEC
  0
SECTION
  2
OBJECTS
  0
DICTIONARY
  5
C
330
0
100
AcDbDictionary
281
     1
  3
ACAD_CIP_PREVIOUS_PRODUCT_INFO
350
FE
  3
ACAD_COLOR
350
DF
  3
ACAD_DETAILVIEWSTYLE
350
FA
  3
ACAD_GROUP
350
D
  3
ACAD_LAYOUT
350
1A
  3
ACAD_MATERIAL
350
3B
  3
ACAD_MLEADERSTYLE
350
D2
  3
ACAD_MLINESTYLE
350
17
  3
ACAD_PLOTSETTINGS
350
19
  3
ACAD_PLOTSTYLENAME
350
E
  3
ACAD_SCALELIST
350
E1
  3
ACAD_SECTIONVIEWSTYLE
350
F8
  3
ACAD_TABLESTYLE
350
D1
  3
ACAD_VISUALSTYLE
350
2A
  3
ACDB_RECOMPOSE_DATA
350
1DC
  3
AcDbVariableDictionary
350
1D3
  0
SUN
  5
3F
330
29
100
AcDbSun
 90
        1
290
     1
 63
     7
421
 16777215
 40
1.0
291
     1
 91
  2455826
 92
 54000000
292
     0
 70
     0
 71
   256
280
     1
1001
ACAD
1000
AcDbSavedByObjectVersion
1070
     0
  0
DICTIONARY
  5
FF
330
1F
100
AcDbDictionary
280
     1
281
     1
  3
ACAD_SORTENTS
360
100
  0
XRECORD
  5
FE
102
{ACAD_REACTORS
330
C
102
}
330
C
100
AcDbXrecord
280
     1
300
ACD
300
2019
300
ACD_F_S
  0
DICTIONARY
  5
DF
102
{ACAD_REACTORS
330
C
102
}
330
C
100
AcDbDictionary
281
     1
  0
DICTIONARY
  5
FA
102
{ACAD_REACTORS
330
C
102
}
330
C
100
AcDbDictionary
281
     1
  3
Imperial24
350
FB
  0
DICTIONARY
  5
D
102
{ACAD_REACTORS
330
C
102
}
330
C
100
AcDbDictionary
281
     1
  0
DICTIONARY
  5
1A
102
{ACAD_REACTORS
330
C
102
}
330
C
100
AcDbDictionary
281
     1
  3
Layout1
350
1E
  3
Layout2
350
26
  3
Model
350
22
  0
DICTIONARY
  5
3B
102
{ACAD_REACTORS
330
C
102
}
330
C
100
AcDbDictionary
281
     1
  3
ByBlock
350
3D
  3
ByLayer
350
3C
  3
Global
350
3E
  0
DICTIONARY
  5
D2
102
{ACAD_REACTORS
330
C
102
}
330
C
100
AcDbDictionary
281
     1
  3
Standard
350
F7
  0
DICTIONARY
  5
17
102
{ACAD_REACTORS
330
C
102
}
330
C
100
AcDbDictionary
281
     1
  3
Standard
350
18
  0
DICTIONARY
  5
19
102
{ACAD_REACTORS
330
C
102
}
330
C
100
AcDbDictionary
281
     1
  0
ACDBDICTIONARYWDFLT
  5
E
102
{ACAD_REACTORS
330
C
102
}
330
C
100
AcDbDictionary
281
     1
  3
Normal
350
F
100
AcDbDictionaryWithDefault
340
F
  0
DICTIONARY
  5
E1
102
{ACAD_REACTORS
330
C
102
}
330
C
100
AcDbDictionary
281
     1
  3
A0
350
E2
  3
A1
350
E3
  3
A2
350
E4
  3
A3
350
E5
  3
A4
350
E6
  3
A5
350
E7
  3
A6
350
E8
  3
A7
350
E9
  3
A8
350
EA
  3
A9
350
EB
  3
B0
350
EC
  3
B1
350
ED
  3
B2
350
EE
  3
B3
350
EF
  3
B4
350
F0
  3
B5
350
F1
  3
B6
350
F2
  3
B7
350
F3
  3
B8
350
F4
  3
B9
350
F5
  3
C0
350
F6
  0
DICTIONARY
  5
F8
102
{ACAD_REACTORS
330
C
102
}
330
C
100
AcDbDictionary
281
     1
  3
Imperial24
350
F9
  0
DICTIONARY
  5
D1
102
{ACAD_REACTORS
330
C
102
}
330
C
100
AcDbDictionary
281
     1
  3
Standard
350
E0
  0
DICTIONARY
  5
2A
102
{ACAD_REACTORS
330
C
102
}
330
C
100
AcDbDictionary
281
     1
  3
2dWireframe
350
2F
  3
3D Hidden
350
31
  3
3dWireframe
350
30
  3
Basic
350
32
  3
Brighten
350
36
  3
ColorChange
350
3A
  3
Conceptual
350
34
  3
Dim
350
35
  3
EdgeColorOff
350
DE
  3
Facepattern
350
39
  3
Flat
350
2B
  3
FlatWithEdges
350
2C
  3
Gouraud
350
2D
  3
GouraudWithEdges
350
2E
  3
Hidden
350
D6
  3
JitterOff
350
DC
  3
Linepattern
350
38
  3
OverhangOff
350
DD
  3
Realistic
350
33
  3
Shaded
350
DB
  3
Shaded with edges
350
DA
  3
Shades of Gray
350
D7
  3
Sketchy
350
D8
  3
Thicken
350
37
  3
Wireframe
350
D5
  3
X-Ray
350
D9
  0
XRECORD
  5
1DC
102
{ACAD_REACTORS
330
C
102
}
330
C
100
AcDbXrecord
280
     1
 90
        1
330
E0
  0
DICTIONARY
  5
1D3
102
{ACAD_REACTORS
330
C
102
}
330
C
100
AcDbDictionary
281
     1
  3
CANNOSCALE
350
1D8
  3
CMLEADERSTYLE
350
1D5
  3
CTABLESTYLE
350
1D4
  3
CVIEWDETAILSTYLE
350
1D6
  3
CVIEWSECTIONSTYLE
350
1D7
  0
SORTENTSTABLE
  5
100
102
{ACAD_REACTORS
330
FF
102
}
330
FF
100
AcDbSortentsTable
330
1F
  0
ACDBDETAILVIEWSTYLE
  5
FB
102
{ACAD_XDICTIONARY
360
1DF
102
}
102
{ACAD_REACTORS
330
FA
102
}
330
FA
100
AcDbModelDocViewStyle
 70
     0
  3
Imperial24
290
     0
100
AcDbDetailViewStyle
 70
     0
 71
     0
 90
        3
 71
     1
340
11
 62
   256
 40
0.24
340
0
 62
   256
 40
0.24
300

 40
0.36
280
     3
 71
     2
340
16
 90
       25
 62
   256
 71
     3
340
11
 62
   256
 40
0.24
 90
        1
 40
0.75
 90
        1
300
%<\AcVar ViewType \f "%tc1">% %<\AcVar ViewDetailId>%\PSCALA %<\AcVar ViewScale \f "%sn">%
 71
     4
340
16
 90
       25
 62
   256
340
16
 90
       25
 62
   256
280
     0
  0
LAYOUT
  5
1E
102
{ACAD_REACTORS
330
1A
102
}
330
1A
100
AcDbPlotSettings
  1

  2
none_device
  4

  6

 40
0.0
 41
0.0
 42
0.0
 43
0.0
 44
0.0
 45
0.0
 46
0.0
 47
0.0
 48
0.0
 49
0.0
140
0.0
141
0.0
142
1.0
143
1.0
 70
   688
 72
     0
 73
     0
 74
     5
  7

 75
    16
147
1.0
 76
     0
 77
     2
 78
   300
148
0.0
149
0.0
100
AcDbLayout
  1
Layout1
 70
     1
 71
     1
 10
0.0
 20
0.0
 11
12.0
 21
9.0
 12
0.0
 22
0.0
 32
0.0
 14
1.000000000000000E+20
 24
1.000000000000000E+20
 34
1.000000000000000E+20
 15
-1.000000000000000E+20
 25
-1.000000000000000E+20
 35
-1.000000000000000E+20
146
0.0
 13
0.0
 23
0.0
 33
0.0
 16
1.0
 26
0.0
 36
0.0
 17
0.0
 27
1.0
 37
0.0
 76
     0
330
1B
  0
LAYOUT
  5
26
102
{ACAD_REACTORS
330
1A
102
}
330
1A
100
AcDbPlotSettings
  1

  2
none_device
  4

  6

 40
0.0
 41
0.0
 42
0.0
 43
0.0
 44
0.0
 45
0.0
 46
0.0
 47
0.0
 48
0.0
 49
0.0
140
0.0
141
0.0
142
1.0
143
1.0
 70
   688
 72
     0
 73
     0
 74
     5
  7

 75
    16
147
1.0
 76
     0
 77
     2
 78
   300
148
0.0
149
0.0
100
AcDbLayout
  1
Layout2
 70
     1
 71
     2
 10
0.0
 20
0.0
 11
0.0
 21
0.0
 12
0.0
 22
0.0
 32
0.0
 14
0.0
 24
0.0
 34
0.0
 15
0.0
 25
0.0
 35
0.0
146
0.0
 13
0.0
 23
0.0
 33
0.0
 16
1.0
 26
0.0
 36
0.0
 17
0.0
 27
1.0
 37
0.0
 76
     0
330
23
  0
LAYOUT
  5
22
102
{ACAD_REACTORS
330
1A
102
}
330
1A
100
AcDbPlotSettings
  1

  2
none_device
  4

  6

 40
0.0
 41
0.0
 42
0.0
 43
0.0
 44
0.0
 45
0.0
 46
0.0
 47
0.0
 48
0.0
 49
0.0
140
0.0
141
0.0
142
1.0
143
1.0
 70
  1712
 72
     0
 73
     0
 74
     0
  7

 75
     0
147
1.0
 76
     0
 77
     2
 78
   300
148
0.0
149
0.0
100
AcDbLayout
  1
Model
 70
     1
 71
     0
 10
0.0
 20
0.0
 11
12.0
 21
9.0
 12
0.0
 22
0.0
 32
0.0
 14
1.000000000000000E+20
 24
1.000000000000000E+20
 34
1.000000000000000E+20
 15
-1.000000000000000E+20
 25
-1.000000000000000E+20
 35
-1.000000000000000E+20
146
0.0
 13
0.0
 23
0.0
 33
0.0
 16
1.0
 26
0.0
 36
0.0
 17
0.0
 27
1.0
 37
0.0
 76
     0
330
1F
331
29
  0
MATERIAL
  5
3D
102
{ACAD_REACTORS
330
3B
102
}
330
3B
100
AcDbMaterial
  1
ByBlock
  0
MATERIAL
  5
3C
102
{ACAD_REACTORS
330
3B
102
}
330
3B
100
AcDbMaterial
  1
ByLayer
  0
MATERIAL
  5
3E
102
{ACAD_REACTORS
330
3B
102
}
330
3B
100
AcDbMaterial
  1
Global
  0
MLEADERSTYLE
  5
F7
102
{ACAD_REACTORS
330
D2
102
}
330
D2
100
AcDbMLeaderStyle
179
     2
170
     2
171
     1
172
     0
 90
        2
 40
0.0
 41
0.0
173
     1
 91
-1056964608
340
14
 92
       -2
290
     1
 42
0.09
291
     1
 43
0.36
  3
Standard
 44
0.18
300

342
11
174
     1
178
     6
175
     1
176
     0
 93
-1056964608
 45
0.18
292
     0
297
     0
 46
0.18
 94
-1056964608
 47
1.0
 49
1.0
140
1.0
293
     1
141
0.0
294
     1
177
     0
142
1.0
295
     0
296
     0
143
0.125
271
     0
272
     9
273
     9
298
     0
  0
MLINESTYLE
  5
18
102
{ACAD_REACTORS
330
17
102
}
330
17
100
AcDbMlineStyle
  2
STANDARD
 70
     0
  3

 62
   256
 51
90.0
 52
90.0
 71
     2
 49
0.5
 62
   256
  6
BYLAYER
 49
-0.5
 62
   256
  6
BYLAYER
  0
ACDBPLACEHOLDER
  5
F
102
{ACAD_REACTORS
330
E
102
}
330
E
  0
SCALE
  5
E2
102
{ACAD_REACTORS
330
E1
102
}
330
E1
100
AcDbScale
 70
     0
300
1:1
140
1.0
141
1.0
290
     1
  0
SCALE
  5
E3
102
{ACAD_REACTORS
330
E1
102
}
330
E1
100
AcDbScale
 70
     0
300
1.10
140
1.0
141
10.0
290
     0
  0
SCALE
  5
E4
102
{ACAD_REACTORS
330
E1
102
}
330
E1
100
AcDbScale
 70
     0
300
1.50
140
1.0
141
50.0
290
     0
  0
SCALE
  5
E5
102
{ACAD_REACTORS
330
E1
102
}
330
E1
100
AcDbScale
 70
     0
300
1:100
140
1.0
141
100.0
290
     0
  0
SCALE
  5
E6
102
{ACAD_REACTORS
330
E1
102
}
330
E1
100
AcDbScale
 70
     0
300
1.200
140
1.0
141
200.0
290
     0
  0
SCALE
  5
E7
102
{ACAD_REACTORS
330
E1
102
}
330
E1
100
AcDbScale
 70
     0
300
1/128" = 1'-0"
140
0.0078125
141
12.0
290
     0
  0
SCALE
  5
E8
102
{ACAD_REACTORS
330
E1
102
}
330
E1
100
AcDbScale
 70
     0
300
1/64" = 1'-0"
140
0.015625
141
12.0
290
     0
  0
SCALE
  5
E9
102
{ACAD_REACTORS
330
E1
102
}
330
E1
100
AcDbScale
 70
     0
300
1/32" = 1'-0"
140
0.03125
141
12.0
290
     0
  0
SCALE
  5
EA
102
{ACAD_REACTORS
330
E1
102
}
330
E1
100
AcDbScale
 70
     0
300
1/16" = 1'-0"
140
0.0625
141
12.0
290
     0
  0
SCALE
  5
EB
102
{ACAD_REACTORS
330
E1
102
}
330
E1
100
AcDbScale
 70
     0
300
3/32" = 1'-0"
140
0.09375
141
12.0
290
     0
  0
SCALE
  5
EC
102
{ACAD_REACTORS
330
E1
102
}
330
E1
100
AcDbScale
 70
     0
300
1/8" = 1'-0"
140
0.125
141
12.0
290
     0
  0
SCALE
  5
ED
102
{ACAD_REACTORS
330
E1
102
}
330
E1
100
AcDbScale
 70
     0
300
3/16" = 1'-0"
140
0.1875
141
12.0
290
     0
  0
SCALE
  5
EE
102
{ACAD_REACTORS
330
E1
102
}
330
E1
100
AcDbScale
 70
     0
300
1/4" = 1'-0"
140
0.25
141
12.0
290
     0
  0
SCALE
  5
EF
102
{ACAD_REACTORS
330
E1
102
}
330
E1
100
AcDbScale
 70
     0
300
3/8" = 1'-0"
140
0.375
141
12.0
290
     0
  0
SCALE
  5
F0
102
{ACAD_REACTORS
330
E1
102
}
330
E1
100
AcDbScale
 70
     0
300
1/2" = 1'-0"
140
0.5
141
12.0
290
     0
  0
SCALE
  5
F1
102
{ACAD_REACTORS
330
E1
102
}
330
E1
100
AcDbScale
 70
     0
300
3/4" = 1'-0"
140
0.75
141
12.0
290
     0
  0
SCALE
  5
F2
102
{ACAD_REACTORS
330
E1
102
}
330
E1
100
AcDbScale
 70
     0
300
1" = 1'-0"
140
1.0
141
12.0
290
     0
  0
SCALE
  5
F3
102
{ACAD_REACTORS
330
E1
102
}
330
E1
100
AcDbScale
 70
     0
300
1-1/2" = 1'-0"
140
1.5
141
12.0
290
     0
  0
SCALE
  5
F4
102
{ACAD_REACTORS
330
E1
102
}
330
E1
100
AcDbScale
 70
     0
300
3" = 1'-0"
140
3.0
141
12.0
290
     0
  0
SCALE
  5
F5
102
{ACAD_REACTORS
330
E1
102
}
330
E1
100
AcDbScale
 70
     0
300
6" = 1'-0"
140
6.0
141
12.0
290
     0
  0
SCALE
  5
F6
102
{ACAD_REACTORS
330
E1
102
}
330
E1
100
AcDbScale
 70
     0
300
1'-0" = 1'-0"
140
12.0
141
12.0
290
     0
  0
ACDBSECTIONVIEWSTYLE
  5
F9
102
{ACAD_XDICTIONARY
360
1DD
102
}
102
{ACAD_REACTORS
330
F8
102
}
330
F8
100
AcDbModelDocViewStyle
 70
     0
  3
Imperial24
290
     0
100
AcDbSectionViewStyle
 70
     0
 71
     0
 90
       78
 71
     1
340
11
 62
   256
 40
0.24
340
0
340
0
 62
   256
 40
0.24
300
I, O, Q, S, X, Z
 40
0.48
 90
        3
 40
0.18
 90
        1
 71
     2
340
16
 90
       25
 62
   256
340
16
 90
       50
 62
   256
 40
0.24
 40
0.0
 40
0.24
 71
     3
340
11
 62
   256
 40
0.24
 90
        1
 40
0.75
 90
        1
300
%<\AcVar ViewType \f "%tc1">% %<\AcVar ViewSectionStartId>%-%<\AcVar ViewSectionEndId>%\PSCALA %<\AcVar ViewScale \f "%sn">%
 71
     4
 62
   256
 62
   257
300
ANSI31
 40
1.0
 90
        0
290
     0
290
     0
 90
        6
 40
0.0
 40
1.570796326794896
 40
0.2617993877991494
 40
1.308996938995747
 40
-0.2617993877991494
 40
1.832595714594046
  0
TABLESTYLE
  5
E0
102
{ACAD_XDICTIONARY
360
1DA
102
}
102
{ACAD_REACTORS
330
D1
102
}
330
D1
100
AcDbTableStyle
280
     0
  3
Standard
 70
     0
 71
     0
 40
0.06
 41
0.06
280
     0
281
     0
  7
Standard
140
0.18
170
     2
 62
     0
 63
     7
283
     0
 90
      512
 91
        0
  1

274
    -2
284
     1
 64
     0
275
    -2
285
     1
 65
     0
276
    -2
286
     1
 66
     0
277
    -2
287
     1
 67
     0
278
    -2
288
     1
 68
     0
279
    -2
289
     1
 69
     0
  7
Standard
140
0.25
170
     5
 62
     0
 63
     7
283
     0
 90
      512
 91
        0
  1

274
    -2
284
     1
 64
     0
275
    -2
285
     1
 65
     0
276
    -2
286
     1
 66
     0
277
    -2
287
     1
 67
     0
278
    -2
288
     1
 68
     0
279
    -2
289
     1
 69
     0
  7
Standard
140
0.18
170
     5
 62
     0
 63
     7
283
     0
 90
      512
 91
        0
  1

274
    -2
284
     1
 64
     0
275
    -2
285
     1
 65
     0
276
    -2
286
     1
 66
     0
277
    -2
287
     1
 67
     0
278
    -2
288
     1
 68
     0
279
    -2
289
     1
 69
     0
  0
VISUALSTYLE
  5
2F
102
{ACAD_REACTORS
330
2A
102
}
330
2A
100
AcDbVisualStyle
  2
2dWireframe
 70
     4
177
     3
291
     0
 70
    58
 90
        0
176
     1
 90
        2
176
     1
 90
        0
176
     1
 90
        0
176
     1
 40
0.6
176
     1
 40
30.0
176
     1
 62
     7
420
 16777215
176
     1
 90
        1
176
     1
 90
        4
176
     1
 62
     7
176
     1
 62
   257
176
     1
 90
        1
176
     1
 90
        1
176
     1
 40
1.0
176
     1
 90
        0
176
     1
 62
   257
176
     1
 40
1.0
176
     1
 90
        1
176
     1
 90
        6
176
     1
 90
        2
176
     1
 62
     7
176
     1
 90
        5
176
     1
 90
        0
176
     1
 90
        0
176
     1
290
     0
176
     1
 90
        1
176
     1
 40
0.0
176
     1
 90
        0
176
     1
290
     1
176
     1
290
     1
176
     1
290
     0
176
     1
290
     0
176
     1
290
     0
176
     1
290
     0
176
     1
290
     0
176
     1
290
     0
176
     1
290
     0
176
     1
 90
       50
176
     1
 40
0.0
176
     1
 40
1.0
176
     1
 90
        0
176
     1
 62
    18
420
        0
176
     1
 90
       50
176
     1
 90
        3
176
     1
 62
     5
420
      255
176
     1
290
     0
176
     1
 90
       50
176
     1
 90
       50
176
     1
 90
       50
176
     1
290
     0
176
     1
 90
       50
176
     1
 62
   256
176
     0
 40
1.0
176
     0
 90
        2
176
     1
  1
strokes_ogs.tif
176
     1
290
     0
176
     1
 40
1.0
176
     1
 40
1.0
176
     1
1001
ACAD
1000
AcDbSavedByObjectVersion
1070
     0
  0
VISUALSTYLE
  5
31
102
{ACAD_REACTORS
330
2A
102
}
330
2A
100
AcDbVisualStyle
  2
3D Hidden
 70
     6
177
     3
291
     0
 70
    58
 90
        1
176
     1
 90
        2
176
     1
 90
        2
176
     1
 90
        0
176
     1
 40
0.6
176
     1
 40
30.0
176
     1
 62
     7
420
 16777215
176
     1
 90
        2
176
     1
 90
        2
176
     1
 62
     7
176
     1
 62
   257
176
     1
 90
        2
176
     1
 90
        1
176
     1
 40
40.0
176
     1
 90
        0
176
     1
 62
   257
176
     1
 40
1.0
176
     1
 90
        1
176
     1
 90
        6
176
     1
 90
        2
176
     1
 62
     7
176
     1
 90
        3
176
     1
 90
        0
176
     1
 90
        0
176
     1
290
     0
176
     1
 90
        1
176
     1
 40
0.0
176
     1
 90
        0
176
     1
290
     0
176
     1
290
     1
176
     1
290
     1
176
     1
290
     0
176
     1
290
     0
176
     1
290
     0
176
     1
290
     0
176
     1
290
     0
176
     1
290
     0
176
     1
 90
       50
176
     1
 40
0.0
176
     1
 40
1.0
176
     1
 90
        0
176
     1
 62
    18
420
        0
176
     1
 90
       50
176
     1
 90
        3
176
     1
 62
     5
420
      255
176
     1
290
     0
176
     1
 90
       50
176
     1
 90
       50
176
     1
 90
       50
176
     1
290
     0
176
     1
 90
       50
176
     1
 62
   256
176
     0
 40
1.0
176
     0
 90
        2
176
     1
  1
strokes_ogs.tif
176
     1
290
     0
176
     1
 40
1.0
176
     1
 40
1.0
176
     1
1001
ACAD
1000
AcDbSavedByObjectVersion
1070
     0
  0
VISUALSTYLE
  5
30
102
{ACAD_REACTORS
330
2A
102
}
330
2A
100
AcDbVisualStyle
  2
3dWireframe
 70
     5
177
     3
291
     0
 70
    58
 90
        0
176
     1
 90
        2
176
     1
 90
        0
176
     1
 90
        0
176
     1
 40
0.6
176
     1
 40
30.0
176
     1
 62
     7
420
 16777215
176
     1
 90
        1
176
     1
 90
        4
176
     1
 62
     7
176
     1
 62
   257
176
     1
 90
        1
176
     1
 90
        1
176
     1
 40
1.0
176
     1
 90
        0
176
     1
 62
   257
176
     1
 40
1.0
176
     1
 90
        1
176
     1
 90
        6
176
     1
 90
        2
176
     1
 62
     7
176
     1
 90
        5
176
     1
 90
        0
176
     1
 90
        0
176
     1
290
     0
176
     1
 90
        1
176
     1
 40
0.0
176
     1
 90
        0
176
     1
290
     0
176
     1
290
     1
176
     1
290
     1
176
     1
290
     0
176
     1
290
     0
176
     1
290
     0
176
     1
290
     0
176
     1
290
     0
176
     1
290
     0
176
     1
 90
       50
176
     1
 40
0.0
176
     1
 40
1.0
176
     1
 90
        0
176
     1
 62
    18
420
        0
176
     1
 90
       50
176
     1
 90
        3
176
     1
 62
     5
420
      255
176
     1
290
     0
176
     1
 90
       50
176
     1
 90
       50
176
     1
 90
       50
176
     1
290
     0
176
     1
 90
       50
176
     1
 62
   256
176
     0
 40
1.0
176
     0
 90
        2
176
     1
  1
strokes_ogs.tif
176
     1
290
     0
176
     1
 40
1.0
176
     1
 40
1.0
176
     1
1001
ACAD
1000
AcDbSavedByObjectVersion
1070
     0
  0
VISUALSTYLE
  5
32
102
{ACAD_REACTORS
330
2A
102
}
330
2A
100
AcDbVisualStyle
  2
Basic
 70
     7
177
     3
291
     1
 70
    58
 90
        1
176
     1
 90
        0
176
     1
 90
        1
176
     1
 90
        0
176
     1
 40
0.6
176
     1
 40
30.0
176
     1
 62
     7
420
 16777215
176
     1
 90
        0
176
     1
 90
        4
176
     1
 62
     7
176
     1
 62
   257
176
     1
 90
        1
176
     1
 90
        1
176
     1
 40
1.0
176
     1
 90
        8
176
     1
 62
     7
176
     1
 40
1.0
176
     1
 90
        1
176
     1
 90
        6
176
     1
 90
        2
176
     1
 62
     7
176
     1
 90
        5
176
     1
 90
        0
176
     1
 90
        0
176
     1
290
     0
176
     1
 90
        1
176
     1
 40
0.0
176
     1
 90
        0
176
     1
290
     0
176
     1
290
     1
176
     1
290
     1
176
     1
290
     0
176
     1
290
     0
176
     1
290
     0
176
     1
290
     0
176
     1
290
     0
176
     1
290
     0
176
     1
 90
       50
176
     1
 40
0.0
176
     1
 40
1.0
176
     1
 90
        0
176
     1
 62
    18
420
        0
176
     1
 90
       50
176
     1
 90
        3
176
     1
 62
     5
420
      255
176
     1
290
     0
176
     1
 90
       50
176
     1
 90
       50
176
     1
 90
       50
176
     1
290
     0
176
     1
 90
       50
176
     1
 62
   256
176
     0
 40
1.0
176
     0
 90
        2
176
     1
  1
strokes_ogs.tif
176
     1
290
     0
176
     1
 40
1.0
176
     1
 40
1.0
176
     1
1001
ACAD
1000
AcDbSavedByObjectVersion
1070
     0
  0
VISUALSTYLE
  5
36
102
{ACAD_REACTORS
330
2A
102
}
330
2A
100
AcDbVisualStyle
  2
Brighten
 70
    12
177
     3
291
     1
 70
    58
 90
        2
176
     1
 90
        2
176
     1
 90
        0
176
     1
 90
        0
176
     1
 40
0.6
176
     1
 40
30.0
176
     1
 62
     7
420
 16777215
176
     1
 90
        1
176
     1
 90
        4
176
     1
 62
     7
176
     1
 62
   257
176
     1
 90
        1
176
     1
 90
        1
176
     1
 40
1.0
176
     1
 90
        8
176
     1
 62
     7
176
     1
 40
1.0
176
     1
 90
        1
176
     1
 90
        6
176
     1
 90
        2
176
     1
 62
     7
176
     1
 90
        5
176
     1
 90
        0
176
     1
 90
        0
176
     1
290
     0
176
     1
 90
        1
176
     1
 40
50.0
176
     1
 90
        0
176
     1
290
     0
176
     1
290
     1
176
     1
290
     1
176
     1
290
     0
176
     1
290
     0
176
     1
290
     0
176
     1
290
     0
176
     1
290
     0
176
     1
290
     0
176
     1
 90
       50
176
     1
 40
0.0
176
     1
 40
1.0
176
     1
 90
        0
176
     1
 62
    18
420
        0
176
     1
 90
       50
176
     1
 90
        3
176
     1
 62
     5
420
      255
176
     1
290
     0
176
     1
 90
       50
176
     1
 90
       50
176
     1
 90
       50
176
     1
290
     0
176
     1
 90
       50
176
     1
 62
   256
176
     0
 40
1.0
176
     0
 90
        2
176
     1
  1
strokes_ogs.tif
176
     1
290
     0
176
     1
 40
1.0
176
     1
 40
1.0
176
     1
1001
ACAD
1000
AcDbSavedByObjectVersion
1070
     0
  0
VISUALSTYLE
  5
3A
102
{ACAD_REACTORS
330
2A
102
}
330
2A
100
AcDbVisualStyle
  2
ColorChange
 70
    16
177
     3
291
     1
 70
    58
 90
        2
176
     1
 90
        2
176
     1
 90
        3
176
     1
 90
        0
176
     1
 40
0.6
176
     1
 40
30.0
176
     1
 62
     8
420
  8421504
176
     1
 90
        1
176
     1
 90
        4
176
     1
 62
     7
176
     1
 62
   257
176
     1
 90
        1
176
     1
 90
        1
176
     1
 40
1.0
176
     1
 90
        8
176
     1
 62
     8
420
  8421504
176
     1
 40
1.0
176
     1
 90
        1
176
     1
 90
        6
176
     1
 90
        2
176
     1
 62
     7
176
     1
 90
        5
176
     1
 90
        0
176
     1
 90
        0
176
     1
290
     0
176
     1
 90
        1
176
     1
 40
0.0
176
     1
 90
        0
176
     1
290
     0
176
     1
290
     1
176
     1
290
     1
176
     1
290
     0
176
     1
290
     0
176
     1
290
     0
176
     1
290
     0
176
     1
290
     0
176
     1
290
     0
176
     1
 90
       50
176
     1
 40
0.0
176
     1
 40
1.0
176
     1
 90
        0
176
     1
 62
    18
420
        0
176
     1
 90
       50
176
     1
 90
        3
176
     1
 62
     5
420
      255
176
     1
290
     0
176
     1
 90
       50
176
     1
 90
       50
176
     1
 90
       50
176
     1
290
     0
176
     1
 90
       50
176
     1
 62
   256
176
     0
 40
1.0
176
     0
 90
        2
176
     1
  1
strokes_ogs.tif
176
     1
290
     0
176
     1
 40
1.0
176
     1
 40
1.0
176
     1
1001
ACAD
1000
AcDbSavedByObjectVersion
1070
     0
  0
VISUALSTYLE
  5
34
102
{ACAD_REACTORS
330
2A
102
}
330
2A
100
AcDbVisualStyle
  2
Conceptual
 70
     9
177
     3
291
     0
 70
    58
 90
        3
176
     1
 90
        2
176
     1
 90
        0
176
     1
 90
        0
176
     1
 40
0.6
176
     1
 40
30.0
176
     1
 62
     7
420
 16777215
176
     1
 90
        2
176
     1
 90
        2
176
     1
 62
     7
176
     1
 62
   257
176
     1
 90
        1
176
     1
 90
        1
176
     1
 40
40.0
176
     1
 90
        8
176
     1
 62
     7
176
     1
 40
1.0
176
     1
 90
        1
176
     1
 90
        6
176
     1
 90
        2
176
     1
 62
     7
176
     1
 90
        3
176
     1
 90
        0
176
     1
 90
        0
176
     1
290
     0
176
     1
 90
        1
176
     1
 40
0.0
176
     1
 90
        0
176
     1
290
     0
176
     1
290
     1
176
     1
290
     1
176
     1
290
     0
176
     1
290
     0
176
     1
290
     0
176
     1
290
     0
176
     1
290
     0
176
     1
290
     0
176
     1
 90
       50
176
     1
 40
0.0
176
     1
 40
1.0
176
     1
 90
        0
176
     1
 62
    18
420
        0
176
     1
 90
       50
176
     1
 90
        3
176
     1
 62
     5
420
      255
176
     1
290
     0
176
     1
 90
       50
176
     1
 90
       50
176
     1
 90
       50
176
     1
290
     0
176
     1
 90
       50
176
     1
 62
   256
176
     0
 40
1.0
176
     0
 90
        2
176
     1
  1
strokes_ogs.tif
176
     1
290
     0
176
     1
 40
1.0
176
     1
 40
1.0
176
     1
1001
ACAD
1000
AcDbSavedByObjectVersion
1070
     0
  0
VISUALSTYLE
  5
35
102
{ACAD_REACTORS
330
2A
102
}
330
2A
100
AcDbVisualStyle
  2
Dim
 70
    11
177
     3
291
     1
 70
    58
 90
        2
176
     1
 90
        2
176
     1
 90
        0
176
     1
 90
        0
176
     1
 40
0.6
176
     1
 40
30.0
176
     1
 62
     7
420
 16777215
176
     1
 90
        1
176
     1
 90
        4
176
     1
 62
     7
176
     1
 62
   257
176
     1
 90
        1
176
     1
 90
        1
176
     1
 40
1.0
176
     1
 90
        8
176
     1
 62
     7
176
     1
 40
1.0
176
     1
 90
        1
176
     1
 90
        6
176
     1
 90
        2
176
     1
 62
     7
176
     1
 90
        5
176
     1
 90
        0
176
     1
 90
        0
176
     1
290
     0
176
     1
 90
        1
176
     1
 40
-50.0
176
     1
 90
        0
176
     1
290
     0
176
     1
290
     1
176
     1
290
     1
176
     1
290
     0
176
     1
290
     0
176
     1
290
     0
176
     1
290
     0
176
     1
290
     0
176
     1
290
     0
176
     1
 90
       50
176
     1
 40
0.0
176
     1
 40
1.0
176
     1
 90
        0
176
     1
 62
    18
420
        0
176
     1
 90
       50
176
     1
 90
        3
176
     1
 62
     5
420
      255
176
     1
290
     0
176
     1
 90
       50
176
     1
 90
       50
176
     1
 90
       50
176
     1
290
     0
176
     1
 90
       50
176
     1
 62
   256
176
     0
 40
1.0
176
     0
 90
        2
176
     1
  1
strokes_ogs.tif
176
     1
290
     0
176
     1
 40
1.0
176
     1
 40
1.0
176
     1
1001
ACAD
1000
AcDbSavedByObjectVersion
1070
     0
  0
VISUALSTYLE
  5
DE
102
{ACAD_REACTORS
330
2A
102
}
330
2A
100
AcDbVisualStyle
  2
EdgeColorOff
 70
    22
177
     3
291
     1
 70
    58
 90
        2
176
     0
 90
        2
176
     0
 90
        0
176
     0
 90
        0
176
     0
 40
0.6
176
     0
 40
30.0
176
     0
 62
     7
420
 16777215
176
     0
 90
        1
176
     0
 90
        4
176
     0
 62
     7
176
     0
 62
   257
176
     0
 90
        1
176
     0
 90
        1
176
     0
 40
1.0
176
     0
 90
        8
176
     2
 62
     7
176
     0
 40
1.0
176
     0
 90
        1
176
     0
 90
        6
176
     0
 90
        2
176
     0
 62
     7
176
     0
 90
        5
176
     0
 90
        0
176
     0
 90
        0
176
     0
290
     0
176
     0
 90
        1
176
     0
 40
0.0
176
     0
 90
        0
176
     0
290
     0
176
     1
290
     1
176
     1
290
     1
176
     1
290
     0
176
     1
290
     0
176
     1
290
     0
176
     1
290
     0
176
     1
290
     0
176
     1
290
     0
176
     1
 90
       50
176
     0
 40
0.0
176
     0
 40
1.0
176
     0
 90
        0
176
     0
 62
    18
420
        0
176
     0
 90
       50
176
     0
 90
        3
176
     0
 62
     5
420
      255
176
     0
290
     0
176
     1
 90
       50
176
     0
 90
       50
176
     0
 90
       50
176
     0
290
     0
176
     1
 90
       50
176
     0
 62
   256
176
     0
 40
1.0
176
     0
 90
        2
176
     0
  1
strokes_ogs.tif
176
     0
290
     0
176
     1
 40
1.0
176
     0
 40
1.0
176
     0
1001
ACAD
1000
AcDbSavedByObjectVersion
1070
     0
  0
VISUALSTYLE
  5
39
102
{ACAD_REACTORS
330
2A
102
}
330
2A
100
AcDbVisualStyle
  2
Facepattern
 70
    15
177
     3
291
     1
 70
    58
 90
        2
176
     1
 90
        2
176
     1
 90
        0
176
     1
 90
        0
176
     1
 40
0.6
176
     1
 40
30.0
176
     1
 62
     7
420
 16777215
176
     1
 90
        1
176
     1
 90
        4
176
     1
 62
     7
176
     1
 62
   257
176
     1
 90
        1
176
     1
 90
        1
176
     1
 40
1.0
176
     1
 90
        8
176
     1
 62
     7
176
     1
 40
1.0
176
     1
 90
        1
176
     1
 90
        6
176
     1
 90
        2
176
     1
 62
     7
176
     1
 90
        5
176
     1
 90
        0
176
     1
 90
        0
176
     1
290
     0
176
     1
 90
        1
176
     1
 40
0.0
176
     1
 90
        0
176
     1
290
     0
176
     1
290
     1
176
     1
290
     1
176
     1
290
     0
176
     1
290
     0
176
     1
290
     0
176
     1
290
     0
176
     1
290
     0
176
     1
290
     0
176
     1
 90
       50
176
     1
 40
0.0
176
     1
 40
1.0
176
     1
 90
        0
176
     1
 62
    18
420
        0
176
     1
 90
       50
176
     1
 90
        3
176
     1
 62
     5
420
      255
176
     1
290
     0
176
     1
 90
       50
176
     1
 90
       50
176
     1
 90
       50
176
     1
290
     0
176
     1
 90
       50
176
     1
 62
   256
176
     0
 40
1.0
176
     0
 90
        2
176
     1
  1
strokes_ogs.tif
176
     1
290
     0
176
     1
 40
1.0
176
     1
 40
1.0
176
     1
1001
ACAD
1000
AcDbSavedByObjectVersion
1070
     0
  0
VISUALSTYLE
  5
2B
102
{ACAD_REACTORS
330
2A
102
}
330
2A
100
AcDbVisualStyle
  2
Flat
 70
     0
177
     3
291
     1
 70
    58
 90
        2
176
     1
 90
        1
176
     1
 90
        1
176
     1
 90
        2
176
     1
 40
0.6
176
     1
 40
30.0
176
     1
 62
     7
420
 16777215
176
     1
 90
        0
176
     1
 90
        4
176
     1
 62
     7
176
     1
 62
   257
176
     1
 90
        1
176
     1
 90
        1
176
     1
 40
1.0
176
     1
 90
        8
176
     1
 62
     7
176
     1
 40
1.0
176
     1
 90
        1
176
     1
 90
        6
176
     1
 90
        2
176
     1
 62
     7
176
     1
 90
        5
176
     1
 90
        0
176
     1
 90
        0
176
     1
290
     0
176
     1
 90
       13
176
     1
 40
0.0
176
     1
 90
        0
176
     1
290
     0
176
     1
290
     1
176
     1
290
     1
176
     1
290
     0
176
     1
290
     0
176
     1
290
     0
176
     1
290
     0
176
     1
290
     0
176
     1
290
     0
176
     1
 90
       50
176
     1
 40
0.0
176
     1
 40
1.0
176
     1
 90
        0
176
     1
 62
    18
420
        0
176
     1
 90
       50
176
     1
 90
        3
176
     1
 62
     5
420
      255
176
     1
290
     0
176
     1
 90
       50
176
     1
 90
       50
176
     1
 90
       50
176
     1
290
     0
176
     1
 90
       50
176
     1
 62
   256
176
     0
 40
1.0
176
     0
 90
        2
176
     1
  1
strokes_ogs.tif
176
     1
290
     0
176
     1
 40
1.0
176
     1
 40
1.0
176
     1
1001
ACAD
1000
AcDbSavedByObjectVersion
1070
     0
  0
VISUALSTYLE
  5
2C
102
{ACAD_REACTORS
330
2A
102
}
330
2A
100
AcDbVisualStyle
  2
FlatWithEdges
 70
     1
177
     3
291
     1
 70
    58
 90
        2
176
     1
 90
        1
176
     1
 90
        1
176
     1
 90
        2
176
     1
 40
0.6
176
     1
 40
30.0
176
     1
 62
     7
420
 16777215
176
     1
 90
        1
176
     1
 90
        4
176
     1
 62
     7
176
     1
 62
   257
176
     1
 90
        1
176
     1
 90
        1
176
     1
 40
1.0
176
     1
 90
        0
176
     1
 62
   257
176
     1
 40
1.0
176
     1
 90
        1
176
     1
 90
        6
176
     1
 90
        2
176
     1
 62
     7
176
     1
 90
        5
176
     1
 90
        0
176
     1
 90
        0
176
     1
290
     0
176
     1
 90
       13
176
     1
 40
0.0
176
     1
 90
        0
176
     1
290
     0
176
     1
290
     1
176
     1
290
     1
176
     1
290
     0
176
     1
290
     0
176
     1
290
     0
176
     1
290
     0
176
     1
290
     0
176
     1
290
     0
176
     1
 90
       50
176
     1
 40
0.0
176
     1
 40
1.0
176
     1
 90
        0
176
     1
 62
    18
420
        0
176
     1
 90
       50
176
     1
 90
        3
176
     1
 62
     5
420
      255
176
     1
290
     0
176
     1
 90
       50
176
     1
 90
       50
176
     1
 90
       50
176
     1
290
     0
176
     1
 90
       50
176
     1
 62
   256
176
     0
 40
1.0
176
     0
 90
        2
176
     1
  1
strokes_ogs.tif
176
     1
290
     0
176
     1
 40
1.0
176
     1
 40
1.0
176
     1
1001
ACAD
1000
AcDbSavedByObjectVersion
1070
     0
  0
VISUALSTYLE
  5
2D
102
{ACAD_REACTORS
330
2A
102
}
330
2A
100
AcDbVisualStyle
  2
Gouraud
 70
     2
177
     3
291
     1
 70
    58
 90
        2
176
     1
 90
        2
176
     1
 90
        1
176
     1
 90
        2
176
     1
 40
0.6
176
     1
 40
30.0
176
     1
 62
     7
420
 16777215
176
     1
 90
        0
176
     1
 90
        4
176
     1
 62
     7
176
     1
 62
   257
176
     1
 90
        1
176
     1
 90
        1
176
     1
 40
1.0
176
     1
 90
        0
176
     1
 62
     7
176
     1
 40
1.0
176
     1
 90
        1
176
     1
 90
        6
176
     1
 90
        2
176
     1
 62
     7
176
     1
 90
        5
176
     1
 90
        0
176
     1
 90
        0
176
     1
290
     0
176
     1
 90
       13
176
     1
 40
0.0
176
     1
 90
        0
176
     1
290
     0
176
     1
290
     1
176
     1
290
     1
176
     1
290
     0
176
     1
290
     0
176
     1
290
     0
176
     1
290
     0
176
     1
290
     0
176
     1
290
     0
176
     1
 90
       50
176
     1
 40
0.0
176
     1
 40
1.0
176
     1
 90
        0
176
     1
 62
    18
420
        0
176
     1
 90
       50
176
     1
 90
        3
176
     1
 62
     5
420
      255
176
     1
290
     0
176
     1
 90
       50
176
     1
 90
       50
176
     1
 90
       50
176
     1
290
     0
176
     1
 90
       50
176
     1
 62
   256
176
     0
 40
1.0
176
     0
 90
        2
176
     1
  1
strokes_ogs.tif
176
     1
290
     0
176
     1
 40
1.0
176
     1
 40
1.0
176
     1
1001
ACAD
1000
AcDbSavedByObjectVersion
1070
     0
  0
VISUALSTYLE
  5
2E
102
{ACAD_REACTORS
330
2A
102
}
330
2A
100
AcDbVisualStyle
  2
GouraudWithEdges
 70
     3
177
     3
291
     1
 70
    58
 90
        2
176
     1
 90
        2
176
     1
 90
        1
176
     1
 90
        2
176
     1
 40
0.6
176
     1
 40
30.0
176
     1
 62
     7
420
 16777215
176
     1
 90
        1
176
     1
 90
        4
176
     1
 62
     7
176
     1
 62
   257
176
     1
 90
        1
176
     1
 90
        1
176
     1
 40
1.0
176
     1
 90
        0
176
     1
 62
   257
176
     1
 40
1.0
176
     1
 90
        1
176
     1
 90
        6
176
     1
 90
        2
176
     1
 62
     7
176
     1
 90
        5
176
     1
 90
        0
176
     1
 90
        0
176
     1
290
     0
176
     1
 90
       13
176
     1
 40
0.0
176
     1
 90
        0
176
     1
290
     0
176
     1
290
     1
176
     1
290
     1
176
     1
290
     0
176
     1
290
     0
176
     1
290
     0
176
     1
290
     0
176
     1
290
     0
176
     1
290
     0
176
     1
 90
       50
176
     1
 40
0.0
176
     1
 40
1.0
176
     1
 90
        0
176
     1
 62
    18
420
        0
176
     1
 90
       50
176
     1
 90
        3
176
     1
 62
     5
420
      255
176
     1
290
     0
176
     1
 90
       50
176
     1
 90
       50
176
     1
 90
       50
176
     1
290
     0
176
     1
 90
       50
176
     1
 62
   256
176
     0
 40
1.0
176
     0
 90
        2
176
     1
  1
strokes_ogs.tif
176
     1
290
     0
176
     1
 40
1.0
176
     1
 40
1.0
176
     1
1001
ACAD
1000
AcDbSavedByObjectVersion
1070
     0
  0
VISUALSTYLE
  5
D6
102
{ACAD_REACTORS
330
2A
102
}
330
2A
100
AcDbVisualStyle
  2
Hidden
 70
     6
177
     3
291
     0
 70
    58
 90
        1
176
     1
 90
        2
176
     1
 90
        2
176
     1
 90
        0
176
     1
 40
0.6
176
     1
 40
30.0
176
     1
 62
     7
420
 16777215
176
     1
 90
        2
176
     1
 90
        2
176
     1
 62
     7
176
     1
 62
   257
176
     1
 90
        2
176
     1
 90
        1
176
     1
 40
40.0
176
     1
 90
        0
176
     1
 62
   257
176
     1
 40
1.0
176
     1
 90
        1
176
     1
 90
        6
176
     1
 90
        2
176
     1
 62
     7
176
     1
 90
        3
176
     1
 90
        0
176
     1
 90
        0
176
     1
290
     0
176
     1
 90
        1
176
     1
 40
0.0
176
     1
 90
        0
176
     1
290
     0
176
     1
290
     1
176
     1
290
     1
176
     1
290
     0
176
     1
290
     0
176
     1
290
     0
176
     1
290
     0
176
     1
290
     0
176
     1
290
     0
176
     1
 90
       50
176
     1
 40
0.0
176
     1
 40
1.0
176
     1
 90
        0
176
     1
 62
    18
420
        0
176
     1
 90
       50
176
     1
 90
        3
176
     1
 62
     5
420
      255
176
     1
290
     0
176
     1
 90
       50
176
     1
 90
       50
176
     1
 90
       50
176
     1
290
     0
176
     1
 90
       50
176
     1
 62
   256
176
     0
 40
1.0
176
     0
 90
        2
176
     1
  1
strokes_ogs.tif
176
     1
290
     0
176
     1
 40
1.0
176
     1
 40
1.0
176
     1
1001
ACAD
1000
AcDbSavedByObjectVersion
1070
     0
  0
VISUALSTYLE
  5
DC
102
{ACAD_REACTORS
330
2A
102
}
330
2A
100
AcDbVisualStyle
  2
JitterOff
 70
    20
177
     3
291
     1
 70
    58
 90
        2
176
     0
 90
        2
176
     0
 90
        0
176
     0
 90
        0
176
     0
 40
0.6
176
     0
 40
30.0
176
     0
 62
     7
420
 16777215
176
     0
 90
        1
176
     0
 90
        4
176
     0
 62
     7
176
     0
 62
   257
176
     0
 90
        1
176
     0
 90
        1
176
     0
 40
1.0
176
     0
 90
       10
176
     2
 62
     7
176
     0
 40
1.0
176
     0
 90
        1
176
     0
 90
        6
176
     0
 90
        2
176
     0
 62
     7
176
     0
 90
        5
176
     0
 90
        0
176
     0
 90
        0
176
     0
290
     0
176
     0
 90
        1
176
     0
 40
0.0
176
     0
 90
        0
176
     0
290
     0
176
     1
290
     1
176
     1
290
     1
176
     1
290
     0
176
     1
290
     0
176
     1
290
     0
176
     1
290
     0
176
     1
290
     0
176
     1
290
     0
176
     1
 90
       50
176
     0
 40
0.0
176
     0
 40
1.0
176
     0
 90
        0
176
     0
 62
    18
420
        0
176
     0
 90
       50
176
     0
 90
        3
176
     0
 62
     5
420
      255
176
     0
290
     0
176
     1
 90
       50
176
     0
 90
       50
176
     0
 90
       50
176
     0
290
     0
176
     1
 90
       50
176
     0
 62
   256
176
     0
 40
1.0
176
     0
 90
        2
176
     0
  1
strokes_ogs.tif
176
     0
290
     0
176
     1
 40
1.0
176
     0
 40
1.0
176
     0
1001
ACAD
1000
AcDbSavedByObjectVersion
1070
     0
  0
VISUALSTYLE
  5
38
102
{ACAD_REACTORS
330
2A
102
}
330
2A
100
AcDbVisualStyle
  2
Linepattern
 70
    14
177
     3
291
     1
 70
    58
 90
        2
176
     1
 90
        2
176
     1
 90
        0
176
     1
 90
        0
176
     1
 40
0.6
176
     1
 40
30.0
176
     1
 62
     7
420
 16777215
176
     1
 90
        1
176
     1
 90
        4
176
     1
 62
     7
176
     1
 62
   257
176
     1
 90
        7
176
     1
 90
        7
176
     1
 40
1.0
176
     1
 90
        8
176
     1
 62
     7
176
     1
 40
1.0
176
     1
 90
        1
176
     1
 90
        6
176
     1
 90
        2
176
     1
 62
     7
176
     1
 90
        5
176
     1
 90
        0
176
     1
 90
        0
176
     1
290
     0
176
     1
 90
        1
176
     1
 40
0.0
176
     1
 90
        0
176
     1
290
     0
176
     1
290
     1
176
     1
290
     1
176
     1
290
     0
176
     1
290
     0
176
     1
290
     0
176
     1
290
     0
176
     1
290
     0
176
     1
290
     0
176
     1
 90
       50
176
     1
 40
0.0
176
     1
 40
1.0
176
     1
 90
        0
176
     1
 62
    18
420
        0
176
     1
 90
       50
176
     1
 90
        3
176
     1
 62
     5
420
      255
176
     1
290
     0
176
     1
 90
       50
176
     1
 90
       50
176
     1
 90
       50
176
     1
290
     0
176
     1
 90
       50
176
     1
 62
   256
176
     0
 40
1.0
176
     0
 90
        2
176
     1
  1
strokes_ogs.tif
176
     1
290
     0
176
     1
 40
1.0
176
     1
 40
1.0
176
     1
1001
ACAD
1000
AcDbSavedByObjectVersion
1070
     0
  0
VISUALSTYLE
  5
DD
102
{ACAD_REACTORS
330
2A
102
}
330
2A
100
AcDbVisualStyle
  2
OverhangOff
 70
    21
177
     3
291
     1
 70
    58
 90
        2
176
     0
 90
        2
176
     0
 90
        0
176
     0
 90
        0
176
     0
 40
0.6
176
     0
 40
30.0
176
     0
 62
     7
420
 16777215
176
     0
 90
        1
176
     0
 90
        4
176
     0
 62
     7
176
     0
 62
   257
176
     0
 90
        1
176
     0
 90
        1
176
     0
 40
1.0
176
     0
 90
        9
176
     2
 62
     7
176
     0
 40
1.0
176
     0
 90
        1
176
     0
 90
        6
176
     0
 90
        2
176
     0
 62
     7
176
     0
 90
        5
176
     0
 90
        0
176
     0
 90
        0
176
     0
290
     0
176
     0
 90
        1
176
     0
 40
0.0
176
     0
 90
        0
176
     0
290
     0
176
     1
290
     1
176
     1
290
     1
176
     1
290
     0
176
     1
290
     0
176
     1
290
     0
176
     1
290
     0
176
     1
290
     0
176
     1
290
     0
176
     1
 90
       50
176
     0
 40
0.0
176
     0
 40
1.0
176
     0
 90
        0
176
     0
 62
    18
420
        0
176
     0
 90
       50
176
     0
 90
        3
176
     0
 62
     5
420
      255
176
     0
290
     0
176
     1
 90
       50
176
     0
 90
       50
176
     0
 90
       50
176
     0
290
     0
176
     1
 90
       50
176
     0
 62
   256
176
     0
 40
1.0
176
     0
 90
        2
176
     0
  1
strokes_ogs.tif
176
     0
290
     0
176
     1
 40
1.0
176
     0
 40
1.0
176
     0
1001
ACAD
1000
AcDbSavedByObjectVersion
1070
     0
  0
VISUALSTYLE
  5
33
102
{ACAD_REACTORS
330
2A
102
}
330
2A
100
AcDbVisualStyle
  2
Realistic
 70
     8
177
     3
291
     0
 70
    58
 90
        2
176
     1
 90
        2
176
     1
 90
        0
176
     1
 90
        0
176
     1
 40
0.6
176
     1
 40
30.0
176
     1
 62
     7
420
 16777215
176
     1
 90
        1
176
     1
 90
        0
176
     1
 62
     7
176
     1
 62
   257
176
     1
 90
        1
176
     1
 90
        1
176
     1
 40
1.0
176
     1
 90
        8
176
     1
 62
     8
420
  7895160
176
     1
 40
1.0
176
     1
 90
        1
176
     1
 90
        6
176
     1
 90
        2
176
     1
 62
     7
176
     1
 90
        5
176
     1
 90
        0
176
     1
 90
        0
176
     1
290
     0
176
     1
 90
       13
176
     1
 40
0.0
176
     1
 90
        0
176
     1
290
     0
176
     1
290
     1
176
     1
290
     1
176
     1
290
     0
176
     1
290
     0
176
     1
290
     0
176
     1
290
     0
176
     1
290
     0
176
     1
290
     0
176
     1
 90
       50
176
     1
 40
0.0
176
     1
 40
1.0
176
     1
 90
        0
176
     1
 62
    18
420
        0
176
     1
 90
       50
176
     1
 90
        3
176
     1
 62
     5
420
      255
176
     1
290
     0
176
     1
 90
       50
176
     1
 90
       50
176
     1
 90
       50
176
     1
290
     0
176
     1
 90
       50
176
     1
 62
   256
176
     0
 40
1.0
176
     0
 90
        2
176
     1
  1
strokes_ogs.tif
176
     1
290
     0
176
     1
 40
1.0
176
     1
 40
1.0
176
     1
1001
ACAD
1000
AcDbSavedByObjectVersion
1070
     0
  0
VISUALSTYLE
  5
DB
102
{ACAD_REACTORS
330
2A
102
}
330
2A
100
AcDbVisualStyle
  2
Shaded
 70
    27
177
     3
291
     0
 70
    58
 90
        2
176
     1
 90
        2
176
     1
 90
        1
176
     1
 90
        2
176
     1
 40
0.6
176
     1
 40
30.0
176
     1
 62
     7
420
 16777215
176
     1
 90
        0
176
     1
 90
        4
176
     1
 62
     7
176
     1
 62
   257
176
     1
 90
        1
176
     1
 90
        1
176
     1
 40
1.0
176
     1
 90
        8
176
     1
 62
   257
176
     1
 40
1.0
176
     1
 90
        1
176
     1
 90
        6
176
     1
 90
        2
176
     1
 62
     8
420
  7895160
176
     1
 90
        3
176
     1
 90
        0
176
     1
 90
        0
176
     1
290
     0
176
     1
 90
        5
176
     1
 40
0.0
176
     1
 90
        0
176
     1
290
     0
176
     1
290
     1
176
     1
290
     1
176
     1
290
     0
176
     1
290
     0
176
     1
290
     0
176
     1
290
     0
176
     1
290
     0
176
     1
290
     0
176
     1
 90
       50
176
     1
 40
0.0
176
     1
 40
1.0
176
     1
 90
        0
176
     1
 62
    18
420
        0
176
     1
 90
       50
176
     1
 90
        3
176
     1
 62
     5
420
      255
176
     1
290
     0
176
     1
 90
       50
176
     1
 90
       50
176
     1
 90
       50
176
     1
290
     0
176
     1
 90
       50
176
     1
 62
   256
176
     0
 40
1.0
176
     0
 90
        2
176
     1
  1
strokes_ogs.tif
176
     1
290
     0
176
     1
 40
1.0
176
     1
 40
1.0
176
     1
1001
ACAD
1000
AcDbSavedByObjectVersion
1070
     0
  0
VISUALSTYLE
  5
DA
102
{ACAD_REACTORS
330
2A
102
}
330
2A
100
AcDbVisualStyle
  2
Shaded with edges
 70
    26
177
     3
291
     0
 70
    58
 90
        2
176
     1
 90
        2
176
     1
 90
        1
176
     1
 90
        2
176
     1
 40
0.6
176
     1
 40
30.0
176
     1
 62
     7
420
 16777215
176
     1
 90
        1
176
     1
 90
        2
176
     1
 62
     7
176
     1
 62
   257
176
     1
 90
        2
176
     1
 90
        1
176
     1
 40
1.0
176
     1
 90
        8
176
     1
 62
   257
176
     1
 40
1.0
176
     1
 90
        1
176
     1
 90
        6
176
     1
 90
        2
176
     1
 62
     7
176
     1
 90
        3
176
     1
 90
        0
176
     1
 90
        0
176
     1
290
     0
176
     1
 90
        5
176
     1
 40
0.0
176
     1
 90
        0
176
     1
290
     0
176
     1
290
     1
176
     1
290
     1
176
     1
290
     0
176
     1
290
     0
176
     1
290
     0
176
     1
290
     0
176
     1
290
     0
176
     1
290
     0
176
     1
 90
       50
176
     1
 40
0.0
176
     1
 40
1.0
176
     1
 90
        0
176
     1
 62
    18
420
        0
176
     1
 90
       50
176
     1
 90
        3
176
     1
 62
     5
420
      255
176
     1
290
     0
176
     1
 90
       50
176
     1
 90
       50
176
     1
 90
       50
176
     1
290
     0
176
     1
 90
       50
176
     1
 62
   256
176
     0
 40
1.0
176
     0
 90
        2
176
     1
  1
strokes_ogs.tif
176
     1
290
     0
176
     1
 40
1.0
176
     1
 40
1.0
176
     1
1001
ACAD
1000
AcDbSavedByObjectVersion
1070
     0
  0
VISUALSTYLE
  5
D7
102
{ACAD_REACTORS
330
2A
102
}
330
2A
100
AcDbVisualStyle
  2
Shades of Gray
 70
    23
177
     3
291
     0
 70
    58
 90
        2
176
     1
 90
        2
176
     1
 90
        3
176
     1
 90
        0
176
     1
 40
0.6
176
     1
 40
30.0
176
     1
 62
     7
420
 16777215
176
     1
 90
        2
176
     1
 90
        2
176
     1
 62
     7
176
     1
 62
     7
176
     1
 90
        1
176
     1
 90
        1
176
     1
 40
40.0
176
     1
 90
        8
176
     1
 62
     7
176
     1
 40
1.0
176
     1
 90
        1
176
     1
 90
        6
176
     1
 90
        2
176
     1
 62
     7
176
     1
 90
        3
176
     1
 90
        0
176
     1
 90
        0
176
     1
290
     0
176
     1
 90
        1
176
     1
 40
0.0
176
     1
 90
        0
176
     1
290
     0
176
     1
290
     1
176
     1
290
     1
176
     1
290
     0
176
     1
290
     0
176
     1
290
     0
176
     1
290
     0
176
     1
290
     0
176
     1
290
     0
176
     1
 90
       50
176
     1
 40
0.0
176
     1
 40
1.0
176
     1
 90
        0
176
     1
 62
    18
420
        0
176
     1
 90
       50
176
     1
 90
        3
176
     1
 62
     5
420
      255
176
     1
290
     0
176
     1
 90
       50
176
     1
 90
       50
176
     1
 90
       50
176
     1
290
     0
176
     1
 90
       50
176
     1
 62
   256
176
     0
 40
1.0
176
     0
 90
        2
176
     1
  1
strokes_ogs.tif
176
     1
290
     0
176
     1
 40
1.0
176
     1
 40
1.0
176
     1
1001
ACAD
1000
AcDbSavedByObjectVersion
1070
     0
  0
VISUALSTYLE
  5
D8
102
{ACAD_REACTORS
330
2A
102
}
330
2A
100
AcDbVisualStyle
  2
Sketchy
 70
    24
177
     3
291
     0
 70
    58
 90
        1
176
     1
 90
        2
176
     1
 90
        2
176
     1
 90
        0
176
     1
 40
0.6
176
     1
 40
30.0
176
     1
 62
     7
420
 16777215
176
     1
 90
        2
176
     1
 90
        2
176
     1
 62
     7
176
     1
 62
     7
176
     1
 90
        1
176
     1
 90
        1
176
     1
 40
40.0
176
     1
 90
       11
176
     1
 62
     7
176
     1
 40
1.0
176
     1
 90
        1
176
     1
 90
        6
176
     1
 90
        2
176
     1
 62
     7
176
     1
 90
        6
176
     1
 90
        0
176
     1
 90
        0
176
     1
290
     0
176
     1
 90
        1
176
     1
 40
0.0
176
     1
 90
        0
176
     1
290
     0
176
     1
290
     1
176
     1
290
     1
176
     1
290
     0
176
     1
290
     0
176
     1
290
     0
176
     1
290
     0
176
     1
290
     0
176
     1
290
     0
176
     1
 90
       50
176
     1
 40
0.0
176
     1
 40
1.0
176
     1
 90
        0
176
     1
 62
    18
420
        0
176
     1
 90
       50
176
     1
 90
        3
176
     1
 62
     5
420
      255
176
     1
290
     0
176
     1
 90
       50
176
     1
 90
       50
176
     1
 90
       50
176
     1
290
     0
176
     1
 90
       50
176
     1
 62
   256
176
     0
 40
1.0
176
     0
 90
        2
176
     1
  1
strokes_ogs.tif
176
     1
290
     0
176
     1
 40
1.0
176
     1
 40
1.0
176
     1
1001
ACAD
1000
AcDbSavedByObjectVersion
1070
     0
  0
VISUALSTYLE
  5
37
102
{ACAD_REACTORS
330
2A
102
}
330
2A
100
AcDbVisualStyle
  2
Thicken
 70
    13
177
     3
291
     1
 70
    58
 90
        2
176
     1
 90
        2
176
     1
 90
        0
176
     1
 90
        0
176
     1
 40
0.6
176
     1
 40
30.0
176
     1
 62
     7
420
 16777215
176
     1
 90
        1
176
     1
 90
        4
176
     1
 62
     7
176
     1
 62
   257
176
     1
 90
        1
176
     1
 90
        1
176
     1
 40
1.0
176
     1
 90
       12
176
     1
 62
     7
176
     1
 40
1.0
176
     1
 90
        1
176
     1
 90
        6
176
     1
 90
        2
176
     1
 62
     7
176
     1
 90
        5
176
     1
 90
        0
176
     1
 90
        0
176
     1
290
     0
176
     1
 90
        1
176
     1
 40
0.0
176
     1
 90
        0
176
     1
290
     0
176
     1
290
     1
176
     1
290
     1
176
     1
290
     0
176
     1
290
     0
176
     1
290
     0
176
     1
290
     0
176
     1
290
     0
176
     1
290
     0
176
     1
 90
       50
176
     1
 40
0.0
176
     1
 40
1.0
176
     1
 90
        0
176
     1
 62
    18
420
        0
176
     1
 90
       50
176
     1
 90
        3
176
     1
 62
     5
420
      255
176
     1
290
     0
176
     1
 90
       50
176
     1
 90
       50
176
     1
 90
       50
176
     1
290
     0
176
     1
 90
       50
176
     1
 62
   256
176
     0
 40
1.0
176
     0
 90
        2
176
     1
  1
strokes_ogs.tif
176
     1
290
     0
176
     1
 40
1.0
176
     1
 40
1.0
176
     1
1001
ACAD
1000
AcDbSavedByObjectVersion
1070
     0
  0
VISUALSTYLE
  5
D5
102
{ACAD_REACTORS
330
2A
102
}
330
2A
100
AcDbVisualStyle
  2
Wireframe
 70
     5
177
     3
291
     0
 70
    58
 90
        0
176
     1
 90
        2
176
     1
 90
        0
176
     1
 90
        0
176
     1
 40
0.6
176
     1
 40
30.0
176
     1
 62
     7
420
 16777215
176
     1
 90
        1
176
     1
 90
        4
176
     1
 62
     7
176
     1
 62
   257
176
     1
 90
        1
176
     1
 90
        1
176
     1
 40
1.0
176
     1
 90
        0
176
     1
 62
   257
176
     1
 40
1.0
176
     1
 90
        1
176
     1
 90
        6
176
     1
 90
        2
176
     1
 62
     7
176
     1
 90
        3
176
     1
 90
        0
176
     1
 90
        0
176
     1
290
     0
176
     1
 90
        1
176
     1
 40
0.0
176
     1
 90
        0
176
     1
290
     0
176
     1
290
     1
176
     1
290
     1
176
     1
290
     0
176
     1
290
     0
176
     1
290
     0
176
     1
290
     0
176
     1
290
     0
176
     1
290
     0
176
     1
 90
       50
176
     1
 40
0.0
176
     1
 40
1.0
176
     1
 90
        0
176
     1
 62
    18
420
        0
176
     1
 90
       50
176
     1
 90
        3
176
     1
 62
     5
420
      255
176
     1
290
     0
176
     1
 90
       50
176
     1
 90
       50
176
     1
 90
       50
176
     1
290
     0
176
     1
 90
       50
176
     1
 62
   256
176
     0
 40
1.0
176
     0
 90
        2
176
     1
  1
strokes_ogs.tif
176
     1
290
     0
176
     1
 40
1.0
176
     1
 40
1.0
176
     1
1001
ACAD
1000
AcDbSavedByObjectVersion
1070
     0
  0
VISUALSTYLE
  5
D9
102
{ACAD_REACTORS
330
2A
102
}
330
2A
100
AcDbVisualStyle
  2
X-Ray
 70
    25
177
     3
291
     0
 70
    58
 90
        2
176
     1
 90
        2
176
     1
 90
        1
176
     1
 90
        1
176
     1
 40
0.5
176
     1
 40
30.0
176
     1
 62
     7
420
 16777215
176
     1
 90
        1
176
     1
 90
        0
176
     1
 62
     7
176
     1
 62
   257
176
     1
 90
        1
176
     1
 90
        1
176
     1
 40
1.0
176
     1
 90
        8
176
     1
 62
     7
176
     1
 40
1.0
176
     1
 90
        1
176
     1
 90
        6
176
     1
 90
        2
176
     1
 62
     7
176
     1
 90
        3
176
     1
 90
        0
176
     1
 90
        0
176
     1
290
     0
176
     1
 90
       13
176
     1
 40
0.0
176
     1
 90
        0
176
     1
290
     0
176
     1
290
     1
176
     1
290
     1
176
     1
290
     0
176
     1
290
     0
176
     1
290
     0
176
     1
290
     0
176
     1
290
     0
176
     1
290
     0
176
     1
 90
       50
176
     1
 40
0.0
176
     1
 40
1.0
176
     1
 90
        0
176
     1
 62
    18
420
        0
176
     1
 90
       50
176
     1
 90
        3
176
     1
 62
     5
420
      255
176
     1
290
     0
176
     1
 90
       50
176
     1
 90
       50
176
     1
 90
       50
176
     1
290
     0
176
     1
 90
       50
176
     1
 62
   256
176
     0
 40
1.0
176
     0
 90
        2
176
     1
  1
strokes_ogs.tif
176
     1
290
     0
176
     1
 40
1.0
176
     1
 40
1.0
176
     1
1001
ACAD
1000
AcDbSavedByObjectVersion
1070
     0
  0
DICTIONARYVAR
  5
1D8
102
{ACAD_REACTORS
330
1D3
102
}
330
1D3
100
DictionaryVariables
280
     0
  1
1:1
  0
DICTIONARYVAR
  5
1D5
102
{ACAD_REACTORS
330
1D3
102
}
330
1D3
100
DictionaryVariables
280
     0
  1
STANDARD
  0
DICTIONARYVAR
  5
1D4
102
{ACAD_REACTORS
330
1D3
102
}
330
1D3
100
DictionaryVariables
280
     0
  1
STANDARD
  0
DICTIONARYVAR
  5
1D6
102
{ACAD_REACTORS
330
1D3
102
}
330
1D3
100
DictionaryVariables
280
     0
  1
Imperial24
  0
DICTIONARYVAR
  5
1D7
102
{ACAD_REACTORS
330
1D3
102
}
330
1D3
100
DictionaryVariables
280
     0
  1
Imperial24
  0
DICTIONARY
  5
1DF
330
FB
100
AcDbDictionary
280
     1
281
     1
  3
ACAD_XREC_ROUNDTRIP
360
1E0
  0
DICTIONARY
  5
1DD
330
F9
100
AcDbDictionary
280
     1
281
     1
  3
ACAD_XREC_ROUNDTRIP
360
1DE
  0
DICTIONARY
  5
1DA
330
E0
100
AcDbDictionary
280
     1
281
     1
  3
ACAD_ROUNDTRIP_2008_TABLESTYLE_CELLSTYLEMAP
360
1DB
  0
XRECORD
  5
1E0
102
{ACAD_REACTORS
330
1DF
102
}
330
1DF
100
AcDbXrecord
280
     1
102
DISPLAYNAME
  1
Imperial24
102
FLAGS
 90
        0
  0
XRECORD
  5
1DE
102
{ACAD_REACTORS
330
1DD
102
}
330
1DD
100
AcDbXrecord
280
     1
102
DISPLAYNAME
  1
Imperial24
102
FLAGS
 90
        0
  0
CELLSTYLEMAP
  5
1DB
102
{ACAD_REACTORS
330
1DA
102
}
330
1DA
100
AcDbCellStyleMap
 90
        3
300
CELLSTYLE
  1
TABLEFORMAT_BEGIN
 90
        5
170
     1
 91
        0
 92
    32768
 62
   257
 93
        1
300
CONTENTFORMAT
  1
CONTENTFORMAT_BEGIN
 90
        0
 91
        0
 92
      512
 93
        0
300

 40
0.0
140
1.0
 94
        5
 62
     0
340
11
144
0.25
309
CONTENTFORMAT_END
171
     0
 94
        0
309
TABLEFORMAT_END
  1
CELLSTYLE_BEGIN
 90
        1
 91
        1
300
_TITLE
309
CELLSTYLE_END
300
CELLSTYLE
  1
TABLEFORMAT_BEGIN
 90
        5
170
     1
 91
        0
 92
        0
 62
   257
 93
        1
300
CONTENTFORMAT
  1
CONTENTFORMAT_BEGIN
 90
        0
 91
        0
 92
      512
 93
        0
300

 40
0.0
140
1.0
 94
        5
 62
     0
340
11
144
0.18
309
CONTENTFORMAT_END
171
     0
 94
        0
309
TABLEFORMAT_END
  1
CELLSTYLE_BEGIN
 90
        2
 91
        1
300
_HEADER
309
CELLSTYLE_END
300
CELLSTYLE
  1
TABLEFORMAT_BEGIN
 90
        5
170
     1
 91
        0
 92
        0
 62
   257
 93
        1
300
CONTENTFORMAT
  1
CONTENTFORMAT_BEGIN
 90
        0
 91
        0
 92
      512
 93
        0
300

 40
0.0
140
1.0
 94
        2
 62
     0
340
11
144
0.18
309
CONTENTFORMAT_END
171
     0
 94
        0
309
TABLEFORMAT_END
  1
CELLSTYLE_BEGIN
 90
        3
 91
        2
300
_DATA
309
CELLSTYLE_END
  0
ENDSEC
  0
EOF
