  0
SECTION
  2
HEADER
  9
$ACADVER
  1
AC1027
  9
$ACADMAINTVER
 70
   125
  9
$DWGCODEPAGE
  3
ANSI_1252
  9
$LASTSAVEDBY
  1
ufficio.tecnico
  9
$REQUIREDVERSIONS
160
                 0
  9
$INSBASE
 10
0.0
 20
0.0
 30
0.0
  9
$EXTMIN
 10
247.1451211947241
 20
-282.1140208131949
 30
0.0
  9
$EXTMAX
 10
392.2902668290109
 20
-17.47903645396358
 30
0.0
  9
$LIMMIN
 10
0.0
 20
0.0
  9
$LIMMAX
 10
12.0
 20
9.0
  9
$ORTHOMODE
 70
     0
  9
$REGENMODE
 70
     1
  9
$FILLMODE
 70
     1
  9
$QTEXTMODE
 70
     0
  9
$MIRRTEXT
 70
     1
  9
$LTSCALE
 40
1.0
  9
$ATTMODE
 70
     1
  9
$TEXTSIZE
 40
0.2
  9
$TRACEWID
 40
0.05
  9
$TEXTSTYLE
  7
Standard
  9
$CLAYER
  8
0
  9
$CELTYPE
  6
ByLayer
  9
$CECOLOR
 62
   256
  9
$CELTSCALE
 40
1.0
  9
$DISPSILH
 70
     0
  9
$DIMSCALE
 40
1.0
  9
$DIMASZ
 40
0.18
  9
$DIMEXO
 40
0.0625
  9
$DIMDLI
 40
0.38
  9
$DIMRND
 40
0.0
  9
$DIMDLE
 40
0.0
  9
$DIMEXE
 40
0.18
  9
$DIMTP
 40
0.0
  9
$DIMTM
 40
0.0
  9
$DIMTXT
 40
0.18
  9
$DIMCEN
 40
0.09
  9
$DIMTSZ
 40
0.0
  9
$DIMTOL
 70
     0
  9
$DIMLIM
 70
     0
  9
$DIMTIH
 70
     1
  9
$DIMTOH
 70
     1
  9
$DIMSE1
 70
     0
  9
$DIMSE2
 70
     0
  9
$DIMTAD
 70
     0
  9
$DIMZIN
 70
     0
  9
$DIMBLK
  1

  9
$DIMASO
 70
     1
  9
$DIMSHO
 70
     1
  9
$DIMPOST
  1

  9
$DIMAPOST
  1

  9
$DIMALT
 70
     0
  9
$DIMALTD
 70
     2
  9
$DIMALTF
 40
25.4
  9
$DIMLFAC
 40
1.0
  9
$DIMTOFL
 70
     0
  9
$DIMTVP
 40
0.0
  9
$DIMTIX
 70
     0
  9
$DIMSOXD
 70
     0
  9
$DIMSAH
 70
     0
  9
$DIMBLK1
  1

  9
$DIMBLK2
  1

  9
$DIMSTYLE
  2
Standard
  9
$DIMCLRD
 70
     0
  9
$DIMCLRE
 70
     0
  9
$DIMCLRT
 70
     0
  9
$DIMTFAC
 40
1.0
  9
$DIMGAP
 40
0.09
  9
$DIMJUST
 70
     0
  9
$DIMSD1
 70
     0
  9
$DIMSD2
 70
     0
  9
$DIMTOLJ
 70
     1
  9
$DIMTZIN
 70
     0
  9
$DIMALTZ
 70
     0
  9
$DIMALTTZ
 70
     0
  9
$DIMUPT
 70
     0
  9
$DIMDEC
 70
     4
  9
$DIMTDEC
 70
     4
  9
$DIMALTU
 70
     2
  9
$DIMALTTD
 70
     2
  9
$DIMTXSTY
  7
Standard
  9
$DIMAUNIT
 70
     0
  9
$DIMADEC
 70
     0
  9
$DIMALTRND
 40
0.0
  9
$DIMAZIN
 70
     0
  9
$DIMDSEP
 70
    46
  9
$DIMATFIT
 70
     3
  9
$DIMFRAC
 70
     0
  9
$DIMLDRBLK
  1

  9
$DIMLUNIT
 70
     2
  9
$DIMLWD
 70
    -2
  9
$DIMLWE
 70
    -2
  9
$DIMTMOVE
 70
     0
  9
$DIMFXL
 40
1.0
  9
$DIMFXLON
 70
     0
  9
$DIMJOGANG
 40
0.7853981633974483
  9
$DIMTFILL
 70
     0
  9
$DIMTFILLCLR
 70
     0
  9
$DIMARCSYM
 70
     0
  9
$DIMLTYPE
  6

  9
$DIMLTEX1
  6

  9
$DIMLTEX2
  6

  9
$DIMTXTDIRECTION
 70
     0
  9
$LUNITS
 70
     2
  9
$LUPREC
 70
     4
  9
$SKETCHINC
 40
0.1
  9
$FILLETRAD
 40
0.5
  9
$AUNITS
 70
     0
  9
$AUPREC
 70
     0
  9
$MENU
  1
.
  9
$ELEVATION
 40
0.0
  9
$PELEVATION
 40
0.0
  9
$THICKNESS
 40
0.0
  9
$LIMCHECK
 70
     0
  9
$CHAMFERA
 40
0.5
  9
$CHAMFERB
 40
0.5
  9
$CHAMFERC
 40
1.0
  9
$CHAMFERD
 40
0.0
  9
$SKPOLY
 70
     0
  9
$TDCREATE
 40
2459325.423645834
  9
$TDUCREATE
 40
2459325.340313206
  9
$TDUPDATE
 40
2459325.450578703
  9
$TDUUPDATE
 40
2459325.367245371
  9
$TDINDWG
 40
0.0007523264
  9
$TDUSRTIMER
 40
0.0007523264
  9
$USRTIMER
 70
     1
  9
$ANGBASE
 50
0.0
  9
$ANGDIR
 70
     0
  9
$PDMODE
 70
     0
  9
$PDSIZE
 40
0.0
  9
$PLINEWID
 40
0.0
  9
$SPLFRAME
 70
     0
  9
$SPLINETYPE
 70
     6
  9
$SPLINESEGS
 70
     8
  9
$HANDSEED
  5
16E
  9
$SURFTAB1
 70
     6
  9
$SURFTAB2
 70
     6
  9
$SURFTYPE
 70
     6
  9
$SURFU
 70
     6
  9
$SURFV
 70
     6
  9
$UCSBASE
  2

  9
$UCSNAME
  2

  9
$UCSORG
 10
0.0
 20
0.0
 30
0.0
  9
$UCSXDIR
 10
1.0
 20
0.0
 30
0.0
  9
$UCSYDIR
 10
0.0
 20
1.0
 30
0.0
  9
$UCSORTHOREF
  2

  9
$UCSORTHOVIEW
 70
     0
  9
$UCSORGTOP
 10
0.0
 20
0.0
 30
0.0
  9
$UCSORGBOTTOM
 10
0.0
 20
0.0
 30
0.0
  9
$UCSORGLEFT
 10
0.0
 20
0.0
 30
0.0
  9
$UCSORGRIGHT
 10
0.0
 20
0.0
 30
0.0
  9
$UCSORGFRONT
 10
0.0
 20
0.0
 30
0.0
  9
$UCSORGBACK
 10
0.0
 20
0.0
 30
0.0
  9
$PUCSBASE
  2

  9
$PUCSNAME
  2

  9
$PUCSORG
 10
0.0
 20
0.0
 30
0.0
  9
$PUCSXDIR
 10
1.0
 20
0.0
 30
0.0
  9
$PUCSYDIR
 10
0.0
 20
1.0
 30
0.0
  9
$PUCSORTHOREF
  2

  9
$PUCSORTHOVIEW
 70
     0
  9
$PUCSORGTOP
 10
0.0
 20
0.0
 30
0.0
  9
$PUCSORGBOTTOM
 10
0.0
 20
0.0
 30
0.0
  9
$PUCSORGLEFT
 10
0.0
 20
0.0
 30
0.0
  9
$PUCSORGRIGHT
 10
0.0
 20
0.0
 30
0.0
  9
$PUCSORGFRONT
 10
0.0
 20
0.0
 30
0.0
  9
$PUCSORGBACK
 10
0.0
 20
0.0
 30
0.0
  9
$USERI1
 70
     0
  9
$USERI2
 70
     0
  9
$USERI3
 70
     0
  9
$USERI4
 70
     0
  9
$USERI5
 70
     0
  9
$USERR1
 40
0.0
  9
$USERR2
 40
0.0
  9
$USERR3
 40
0.0
  9
$USERR4
 40
0.0
  9
$USERR5
 40
0.0
  9
$WORLDVIEW
 70
     1
  9
$SHADEDGE
 70
     3
  9
$SHADEDIF
 70
    70
  9
$TILEMODE
 70
     1
  9
$MAXACTVP
 70
    64
  9
$PINSBASE
 10
0.0
 20
0.0
 30
0.0
  9
$PLIMCHECK
 70
     0
  9
$PEXTMIN
 10
1.000000000000000E+20
 20
1.000000000000000E+20
 30
1.000000000000000E+20
  9
$PEXTMAX
 10
-1.000000000000000E+20
 20
-1.000000000000000E+20
 30
-1.000000000000000E+20
  9
$PLIMMIN
 10
0.0
 20
0.0
  9
$PLIMMAX
 10
12.0
 20
9.0
  9
$UNITMODE
 70
     0
  9
$VISRETAIN
 70
     1
  9
$PLINEGEN
 70
     0
  9
$PSLTSCALE
 70
     1
  9
$TREEDEPTH
 70
  3020
  9
$CMLSTYLE
  2
Standard
  9
$CMLJUST
 70
     0
  9
$CMLSCALE
 40
1.0
  9
$PROXYGRAPHICS
 70
     1
  9
$MEASUREMENT
 70
     0
  9
$CELWEIGHT
370
    -1
  9
$ENDCAPS
280
     0
  9
$JOINSTYLE
280
     0
  9
$LWDISPLAY
290
     1
  9
$INSUNITS
 70
     4
  9
$HYPERLINKBASE
  1

  9
$STYLESHEET
  1

  9
$XEDIT
290
     1
  9
$CEPSNTYPE
380
     0
  9
$PSTYLEMODE
290
     1
  9
$FINGERPRINTGUID
  2
{7B509D4A-AB7A-4796-B52F-4D80F8610F0D}
  9
$VERSIONGUID
  2
{7638A2EE-67F1-0C4D-9E77-9F982DAD60A7}
  9
$EXTNAMES
290
     1
  9
$PSVPSCALE
 40
0.0
  9
$OLESTARTUP
290
     0
  9
$SORTENTS
280
   127
  9
$INDEXCTL
280
     0
  9
$HIDETEXT
280
     1
  9
$XCLIPFRAME
280
     2
  9
$HALOGAP
280
     0
  9
$OBSCOLOR
 70
   257
  9
$OBSLTYPE
280
     0
  9
$INTERSECTIONDISPLAY
280
     0
  9
$INTERSECTIONCOLOR
 70
   257
  9
$DIMASSOC
280
     2
  9
$PROJECTNAME
  1

  9
$CAMERADISPLAY
290
     0
  9
$LENSLENGTH
 40
50.0
  9
$CAMERAHEIGHT
 40
0.0
  9
$STEPSPERSEC
 40
2.0
  9
$STEPSIZE
 40
6.0
  9
$3DDWFPREC
 40
2.0
  9
$PSOLWIDTH
 40
0.25
  9
$PSOLHEIGHT
 40
4.0
  9
$LOFTANG1
 40
1.570796326794897
  9
$LOFTANG2
 40
1.570796326794897
  9
$LOFTMAG1
 40
0.0
  9
$LOFTMAG2
 40
0.0
  9
$LOFTPARAM
 70
     7
  9
$LOFTNORMALS
280
     1
  9
$LATITUDE
 40
37.795
  9
$LONGITUDE
 40
-122.394
  9
$NORTHDIRECTION
 40
0.0
  9
$TIMEZONE
 70
 -8000
  9
$LIGHTGLYPHDISPLAY
280
     1
  9
$TILEMODELIGHTSYNCH
280
     1
  9
$CMATERIAL
347
3C
  9
$SOLIDHIST
280
     1
  9
$SHOWHIST
280
     1
  9
$DWFFRAME
280
     2
  9
$DGNFRAME
280
     2
  9
$REALWORLDSCALE
290
     1
  9
$INTERFERECOLOR
 62
   256
  9
$INTERFEREOBJVS
345
33
  9
$INTERFEREVPVS
346
D6
  9
$CSHADOW
280
     0
  9
$SHADOWPLANELOCATION
 40
0.0
  0
ENDSEC
  0
SECTION
  2
CLASSES
  0
CLASS
  1
ACDBDICTIONARYWDFLT
  2
AcDbDictionaryWithDefault
  3
ObjectDBX Classes
 90
        0
 91
        1
280
     0
281
     0
  0
CLASS
  1
VISUALSTYLE
  2
AcDbVisualStyle
  3
ObjectDBX Classes
 90
     4095
 91
       26
280
     0
281
     0
  0
CLASS
  1
MATERIAL
  2
AcDbMaterial
  3
ObjectDBX Classes
 90
     1153
 91
        3
280
     0
281
     0
  0
CLASS
  1
SUN
  2
AcDbSun
  3
SCENEOE
 90
     1153
 91
        1
280
     0
281
     0
  0
CLASS
  1
TABLESTYLE
  2
AcDbTableStyle
  3
ObjectDBX Classes
 90
     4095
 91
        1
280
     0
281
     0
  0
CLASS
  1
SCALE
  2
AcDbScale
  3
ObjectDBX Classes
 90
     1153
 91
       21
280
     0
281
     0
  0
CLASS
  1
MLEADERSTYLE
  2
AcDbMLeaderStyle
  3
ACDB_MLEADERSTYLE_CLASS
 90
     4095
 91
        1
280
     0
281
     0
  0
CLASS
  1
ACDBSECTIONVIEWSTYLE
  2
AcDbSectionViewStyle
  3
ObjectDBX Classes
 90
     1025
 91
        1
280
     0
281
     0
  0
CLASS
  1
ACDBDETAILVIEWSTYLE
  2
AcDbDetailViewStyle
  3
ObjectDBX Classes
 90
     1025
 91
        1
280
     0
281
     0
  0
CLASS
  1
SORTENTSTABLE
  2
AcDbSortentsTable
  3
ObjectDBX Classes
 90
        0
 91
        1
280
     0
281
     0
  0
CLASS
  1
DICTIONARYVAR
  2
AcDbDictionaryVar
  3
ObjectDBX Classes
 90
        0
 91
        5
280
     0
281
     0
  0
CLASS
  1
CELLSTYLEMAP
  2
AcDbCellStyleMap
  3
ObjectDBX Classes
 90
     1152
 91
        2
280
     0
281
     0
  0
ENDSEC
  0
SECTION
  2
TABLES
  0
TABLE
  2
VPORT
  5
8
330
0
100
AcDbSymbolTable
 70
     1
1001
ACAD
1000
DbSaveVer
1071
      105
  0
VPORT
  5
29
330
8
100
AcDbSymbolTableRecord
100
AcDbViewportTableRecord
  2
*Active
 70
     0
 10
0.0
 20
0.0
 11
1.0
 21
1.0
 12
-91.93539774721433
 22
-53.06343498949906
 13
0.0
 23
0.0
 14
0.5
 24
0.5
 15
0.5
 25
0.5
 16
0.0
 26
0.0
 36
1.0
 17
319.9999999200078
 27
-148.4999999628701
 37
0.0
 40
916.7848961457892
 41
1.823776223776223
 42
50.0
 43
0.0
 44
0.0
 50
0.0
 51
0.0
 71
     0
 72
   100
 73
     1
 74
     3
 75
     0
 76
     0
 77
     0
 78
     0
281
     0
 65
     1
110
0.0
120
0.0
130
0.0
111
1.0
121
0.0
131
0.0
112
0.0
122
1.0
132
0.0
 79
     0
146
0.0
348
2F
 60
     3
 61
     5
292
     1
282
     1
141
0.0
142
0.0
 63
   250
361
3F
1001
ACAD_NAV_VCDISPLAY
1070
     3
  0
ENDTAB
  0
TABLE
  2
LTYPE
  5
5
330
0
100
AcDbSymbolTable
 70
     1
  0
LTYPE
  5
14
330
5
100
AcDbSymbolTableRecord
100
AcDbLinetypeTableRecord
  2
ByBlock
 70
     0
  3

 72
    65
 73
     0
 40
0.0
  0
LTYPE
  5
15
330
5
100
AcDbSymbolTableRecord
100
AcDbLinetypeTableRecord
  2
ByLayer
 70
     0
  3

 72
    65
 73
     0
 40
0.0
  0
LTYPE
  5
16
330
5
100
AcDbSymbolTableRecord
100
AcDbLinetypeTableRecord
  2
Continuous
 70
     0
  3
Solid line
 72
    65
 73
     0
 40
0.0
  0
ENDTAB
  0
TABLE
  2
LAYER
  5
2
330
0
100
AcDbSymbolTable
 70
     2
  0
LAYER
  5
10
330
2
100
AcDbSymbolTableRecord
100
AcDbLayerTableRecord
  2
0
 70
     0
 62
     7
  6
Continuous
370
    -3
390
F
347
3E
348
0
  0
LAYER
  5
40
330
2
100
AcDbSymbolTableRecord
100
AcDbLayerTableRecord
  2
Livello 1
 70
     0
 62
     7
  6
Continuous
370
    -3
390
F
347
3E
348
0
  0
ENDTAB
  0
TABLE
  2
STYLE
  5
3
330
0
100
AcDbSymbolTable
 70
     1
  0
STYLE
  5
11
330
3
100
AcDbSymbolTableRecord
100
AcDbTextStyleTableRecord
  2
Standard
 70
     0
 40
0.0
 41
1.0
 50
0.0
 71
     0
 42
0.2
  3
txt
  4

  0
ENDTAB
  0
TABLE
  2
VIEW
  5
6
330
0
100
AcDbSymbolTable
 70
     0
  0
ENDTAB
  0
TABLE
  2
UCS
  5
7
330
0
100
AcDbSymbolTable
 70
     0
  0
ENDTAB
  0
TABLE
  2
APPID
  5
9
330
0
100
AcDbSymbolTable
 70
     2
  0
APPID
  5
12
330
9
100
AcDbSymbolTableRecord
100
AcDbRegAppTableRecord
  2
ACAD
 70
     0
  0
APPID
  5
15F
330
9
100
AcDbSymbolTableRecord
100
AcDbRegAppTableRecord
  2
ACAD_NAV_VCDISPLAY
 70
     0
  0
ENDTAB
  0
TABLE
  2
DIMSTYLE
  5
A
330
0
100
AcDbSymbolTable
 70
     1
100
AcDbDimStyleTable
 71
     0
  0
DIMSTYLE
105
27
330
A
100
AcDbSymbolTableRecord
100
AcDbDimStyleTableRecord
  2
Standard
 70
     0
340
11
  0
ENDTAB
  0
TABLE
  2
BLOCK_RECORD
  5
1
330
0
100
AcDbSymbolTable
 70
     5
  0
BLOCK_RECORD
  5
1F
102
{ACAD_XDICTIONARY
360
100
102
}
330
1
100
AcDbSymbolTableRecord
100
AcDbBlockTableRecord
  2
*Model_Space
340
22
 70
     0
280
     1
281
     0
  0
BLOCK_RECORD
  5
1B
330
1
100
AcDbSymbolTableRecord
100
AcDbBlockTableRecord
  2
*Paper_Space
340
1E
 70
     0
280
     1
281
     0
  0
BLOCK_RECORD
  5
23
330
1
100
AcDbSymbolTableRecord
100
AcDbBlockTableRecord
  2
*Paper_Space0
340
26
 70
     0
280
     1
281
     0
  0
BLOCK_RECORD
  5
A0
330
1
100
AcDbSymbolTableRecord
100
AcDbBlockTableRecord
  2
block 2
340
0
 70
     0
280
     1
281
     0
  0
BLOCK_RECORD
  5
AB
330
1
100
AcDbSymbolTableRecord
100
AcDbBlockTableRecord
  2
block 3
340
0
 70
     0
280
     1
281
     0
  0
BLOCK_RECORD
  5
B5
330
1
100
AcDbSymbolTableRecord
100
AcDbBlockTableRecord
  2
block 4
340
0
 70
     0
280
     1
281
     0
  0
BLOCK_RECORD
  5
BF
330
1
100
AcDbSymbolTableRecord
100
AcDbBlockTableRecord
  2
block 5
340
0
 70
     0
280
     1
281
     0
  0
ENDTAB
  0
ENDSEC
  0
SECTION
  2
BLOCKS
  0
BLOCK
  5
20
330
1F
100
AcDbEntity
  8
0
100
AcDbBlockBegin
  2
*Model_Space
 70
     0
 10
0.0
 20
0.0
 30
0.0
  3
*Model_Space
  1

  0
ENDBLK
  5
21
330
1F
100
AcDbEntity
  8
0
100
AcDbBlockEnd
  0
BLOCK
  5
1C
330
1B
100
AcDbEntity
 67
     1
  8
0
100
AcDbBlockBegin
  2
*Paper_Space
 70
     0
 10
0.0
 20
0.0
 30
0.0
  3
*Paper_Space
  1

  0
ENDBLK
  5
1D
330
1B
100
AcDbEntity
 67
     1
  8
0
100
AcDbBlockEnd
  0
BLOCK
  5
24
330
23
100
AcDbEntity
 67
     1
  8
0
100
AcDbBlockBegin
  2
*Paper_Space0
 70
     0
 10
0.0
 20
0.0
 30
0.0
  3
*Paper_Space0
  1

  0
ENDBLK
  5
25
330
23
100
AcDbEntity
 67
     1
  8
0
100
AcDbBlockEnd
  0
BLOCK
  5
A2
330
A0
100
AcDbEntity
  8
0
100
AcDbBlockBegin
  2
block 2
 70
     0
 10
0.0
 20
0.0
 30
0.0
  3
block 2
  1

  0
SPLINE
  5
A4
330
A0
100
AcDbEntity
  8
Livello 1
370
     0
100
AcDbSpline
210
0.0
220
0.0
230
1.0
 70
    11
 71
     3
 72
    47
 73
    43
 74
     0
 42
0.000000001
 43
0.0000000001
 40
0.0
 40
0.0
 40
0.0
 40
0.0
 40
1.0
 40
1.0
 40
1.0
 40
2.0
 40
2.0
 40
2.0
 40
3.0
 40
3.0
 40
3.0
 40
4.0
 40
4.0
 40
4.0
 40
5.0
 40
5.0
 40
5.0
 40
6.0
 40
6.0
 40
6.0
 40
7.0
 40
7.0
 40
7.0
 40
8.0
 40
8.0
 40
8.0
 40
9.0
 40
9.0
 40
9.0
 40
10.0
 40
10.0
 40
10.0
 40
11.0
 40
11.0
 40
11.0
 40
12.0
 40
12.0
 40
12.0
 40
13.0
 40
13.0
 40
13.0
 40
14.0
 40
14.0
 40
14.0
 40
14.0
 10
386.3020018565495
 20
-88.89224851293318
 30
0.0
 10
386.3020018565495
 20
-88.89224851293318
 30
0.0
 10
385.6160833454363
 20
-88.89224851293318
 30
0.0
 10
385.6160833454363
 20
-88.89224851293318
 30
0.0
 10
385.6160833454363
 20
-88.89224851293318
 30
0.0
 10
384.7654892701281
 20
-88.01598847625989
 30
0.0
 10
384.7654892701281
 20
-88.01598847625989
 30
0.0
 10
382.7590656595187
 20
-85.90810680360977
 30
0.0
 10
381.6924640972851
 20
-84.95571015671247
 30
0.0
 10
380.448095608013
 20
-84.94296330341704
 30
0.0
 10
379.6099038764517
 20
-84.94296330341704
 30
0.0
 10
378.835101901819
 20
-85.34931231590226
 30
0.0
 10
378.835101901819
 20
-86.58110620665334
 30
0.0
 10
378.835101901819
 20
-87.33024221992092
 30
0.0
 10
379.2161294624876
 20
-87.95242646455703
 30
0.0
 10
379.5337672662277
 20
-88.33345402522565
 30
0.0
 10
379.5337672662277
 20
-88.33345402522565
 30
0.0
 10
378.7462184382996
 20
-88.68898787930346
 30
0.0
 10
378.7462184382996
 20
-88.68898787930346
 30
0.0
 10
378.2639050703646
 20
-88.11761879307475
 30
0.0
 10
377.9083712162869
 20
-87.30492076810431
 30
0.0
 10
377.9083712162869
 20
-86.35252412120701
 30
0.0
 10
377.9083712162869
 20
-84.57468259604382
 30
0.0
 10
379.1272459989682
 20
-83.82554658277625
 30
0.0
 10
380.3082247313118
 20
-83.82554658277625
 30
0.0
 10
381.8319904644379
 20
-83.82554658277625
 30
0.0
 10
383.0639566099632
 20
-84.93021645012161
 30
0.0
 10
384.7399955635373
 20
-86.66998967017278
 30
0.0
 10
384.7399955635373
 20
-86.66998967017278
 30
0.0
 10
385.349432954878
 20
-87.33024221992092
 30
0.0
 10
385.349432954878
 20
-87.33024221992092
 30
0.0
 10
385.349432954878
 20
-87.33024221992092
 30
0.0
 10
385.3749266614688
 20
-87.33024221992092
 30
0.0
 10
385.3749266614688
 20
-87.33024221992092
 30
0.0
 10
385.3749266614688
 20
-87.33024221992092
 30
0.0
 10
385.3749266614688
 20
-83.62228594914652
 30
0.0
 10
385.3749266614688
 20
-83.62228594914652
 30
0.0
 10
385.3749266614688
 20
-83.62228594914652
 30
0.0
 10
386.3020018565495
 20
-83.62228594914652
 30
0.0
 10
386.3020018565495
 20
-83.62228594914652
 30
0.0
 10
386.3020018565495
 20
-83.62228594914652
 30
0.0
 10
386.3020018565495
 20
-88.89224851293318
 30
0.0
 10
386.3020018565495
 20
-88.89224851293318
 30
0.0
  0
HATCH
  5
A5
330
A0
100
AcDbEntity
  8
Livello 1
 62
   250
420
  1842203
100
AcDbHatch
 10
0.0
 20
0.0
 30
0.0
210
0.0
220
0.0
230
1.0
  2
SOLID
 70
     1
 71
     0
 91
        1
 92
        1
 93
        1
 72
     4
 94
        3
 73
     0
 74
     0
 95
       47
 96
       43
 40
0.0
 40
0.0
 40
0.0
 40
0.0
 40
1.0
 40
1.0
 40
1.0
 40
2.0
 40
2.0
 40
2.0
 40
3.0
 40
3.0
 40
3.0
 40
4.0
 40
4.0
 40
4.0
 40
5.0
 40
5.0
 40
5.0
 40
6.0
 40
6.0
 40
6.0
 40
7.0
 40
7.0
 40
7.0
 40
8.0
 40
8.0
 40
8.0
 40
9.0
 40
9.0
 40
9.0
 40
10.0
 40
10.0
 40
10.0
 40
11.0
 40
11.0
 40
11.0
 40
12.0
 40
12.0
 40
12.0
 40
13.0
 40
13.0
 40
13.0
 40
14.0
 40
14.0
 40
14.0
 40
14.0
 10
386.3020018565495
 20
-88.89224851293318
 10
386.3020018565495
 20
-88.89224851293318
 10
385.6160833454363
 20
-88.89224851293318
 10
385.6160833454363
 20
-88.89224851293318
 10
385.6160833454363
 20
-88.89224851293318
 10
384.7654892701281
 20
-88.01598847625989
 10
384.7654892701281
 20
-88.01598847625989
 10
382.7590656595187
 20
-85.90810680360977
 10
381.6924640972851
 20
-84.95571015671247
 10
380.448095608013
 20
-84.94296330341704
 10
379.6099038764517
 20
-84.94296330341704
 10
378.835101901819
 20
-85.34931231590226
 10
378.835101901819
 20
-86.58110620665334
 10
378.835101901819
 20
-87.33024221992092
 10
379.2161294624876
 20
-87.95242646455703
 10
379.5337672662277
 20
-88.33345402522565
 10
379.5337672662277
 20
-88.33345402522565
 10
378.7462184382996
 20
-88.68898787930346
 10
378.7462184382996
 20
-88.68898787930346
 10
378.2639050703646
 20
-88.11761879307475
 10
377.9083712162869
 20
-87.30492076810431
 10
377.9083712162869
 20
-86.35252412120701
 10
377.9083712162869
 20
-84.57468259604382
 10
379.1272459989682
 20
-83.82554658277625
 10
380.3082247313118
 20
-83.82554658277625
 10
381.8319904644379
 20
-83.82554658277625
 10
383.0639566099632
 20
-84.93021645012161
 10
384.7399955635373
 20
-86.66998967017278
 10
384.7399955635373
 20
-86.66998967017278
 10
385.349432954878
 20
-87.33024221992092
 10
385.349432954878
 20
-87.33024221992092
 10
385.349432954878
 20
-87.33024221992092
 10
385.3749266614688
 20
-87.33024221992092
 10
385.3749266614688
 20
-87.33024221992092
 10
385.3749266614688
 20
-87.33024221992092
 10
385.3749266614688
 20
-83.62228594914652
 10
385.3749266614688
 20
-83.62228594914652
 10
385.3749266614688
 20
-83.62228594914652
 10
386.3020018565495
 20
-83.62228594914652
 10
386.3020018565495
 20
-83.62228594914652
 10
386.3020018565495
 20
-83.62228594914652
 10
386.3020018565495
 20
-88.89224851293318
 10
386.3020018565495
 20
-88.89224851293318
 97
        0
 97
        0
 75
     2
 76
     1
 98
        0
450
        0
451
        0
460
0.0
461
0.0
452
        0
462
0.0
453
        0
470

  0
SPLINE
  5
A6
330
A0
100
AcDbEntity
  8
Livello 1
370
     0
100
AcDbSpline
210
0.0
220
0.0
230
1.0
 70
     9
 71
     3
 72
    17
 73
    13
 74
     0
 42
0.000000001
 43
0.0000000001
 40
0.0
 40
0.0
 40
0.0
 40
0.0
 40
1.0
 40
1.0
 40
1.0
 40
2.0
 40
2.0
 40
2.0
 40
3.0
 40
3.0
 40
3.0
 40
4.0
 40
4.0
 40
4.0
 40
4.0
 10
382.0858940017008
 20
-76.8916028996139
 30
0.0
 10
384.8922687839853
 20
-76.8916028996139
 30
0.0
 10
386.4415282237021
 20
-77.93288301003066
 30
0.0
 10
386.4415282237021
 20
-79.76153969360128
 30
0.0
 10
386.4415282237021
 20
-81.37418889024672
 30
0.0
 10
384.9305093438716
 20
-82.46628415907094
 30
0.0
 10
382.200271171811
 20
-82.49160561088752
 30
0.0
 10
379.4321369494128
 20
-82.49160561088752
 30
0.0
 10
377.9083712162869
 20
-81.29805228002272
 30
0.0
 10
377.9083712162869
 20
-79.62184107167441
 30
0.0
 10
377.9083712162869
 20
-77.88206785162323
 30
0.0
 10
379.4576306560037
 20
-76.8916028996139
 30
0.0
 10
382.0858940017008
 20
-76.8916028996139
 30
0.0
  0
SPLINE
  5
A7
330
A0
100
AcDbEntity
  8
Livello 1
370
     0
100
AcDbSpline
210
0.0
220
0.0
230
1.0
 70
     9
 71
     3
 72
    17
 73
    13
 74
     0
 42
0.000000001
 43
0.0000000001
 40
0.0
 40
0.0
 40
0.0
 40
0.0
 40
1.0
 40
1.0
 40
1.0
 40
2.0
 40
2.0
 40
2.0
 40
3.0
 40
3.0
 40
3.0
 40
4.0
 40
4.0
 40
4.0
 40
4.0
 10
382.2130180251065
 20
-81.37418889024672
 30
0.0
 10
384.3589680028687
 20
-81.37418889024672
 30
0.0
 10
385.5781872950985
 20
-80.71376408572435
 30
0.0
 10
385.5781872950985
 20
-79.69797768189842
 30
0.0
 10
385.5781872950985
 20
-78.55506725466679
 30
0.0
 10
384.2449353423069
 20
-78.00901962025469
 30
0.0
 10
382.1368814148825
 20
-78.00901962025469
 30
0.0
 10
380.1049640976821
 20
-78.00901962025469
 30
0.0
 10
378.7717121448904
 20
-78.5297458028502
 30
0.0
 10
378.7717121448904
 20
-79.685230828603
 30
0.0
 10
378.7717121448904
 20
-80.66312118209117
 30
0.0
 10
379.9654377305295
 20
-81.37418889024672
 30
0.0
 10
382.2130180251065
 20
-81.37418889024672
 30
0.0
  0
HATCH
  5
A8
330
A0
100
AcDbEntity
  8
Livello 1
 62
   250
420
  1842203
100
AcDbHatch
 10
0.0
 20
0.0
 30
0.0
210
0.0
220
0.0
230
1.0
  2
SOLID
 70
     1
 71
     0
 91
        2
 92
        1
 93
        1
 72
     4
 94
        3
 73
     0
 74
     0
 95
       17
 96
       13
 40
0.0
 40
0.0
 40
0.0
 40
0.0
 40
1.0
 40
1.0
 40
1.0
 40
2.0
 40
2.0
 40
2.0
 40
3.0
 40
3.0
 40
3.0
 40
4.0
 40
4.0
 40
4.0
 40
4.0
 10
382.0858940017008
 20
-76.8916028996139
 10
384.8922687839853
 20
-76.8916028996139
 10
386.4415282237021
 20
-77.93288301003066
 10
386.4415282237021
 20
-79.76153969360128
 10
386.4415282237021
 20
-81.37418889024672
 10
384.9305093438716
 20
-82.46628415907094
 10
382.200271171811
 20
-82.49160561088752
 10
379.4321369494128
 20
-82.49160561088752
 10
377.9083712162869
 20
-81.29805228002272
 10
377.9083712162869
 20
-79.62184107167441
 10
377.9083712162869
 20
-77.88206785162323
 10
379.4576306560037
 20
-76.8916028996139
 10
382.0858940017008
 20
-76.8916028996139
 97
        0
 97
        0
 92
        1
 93
        1
 72
     4
 94
        3
 73
     0
 74
     0
 95
       17
 96
       13
 40
0.0
 40
0.0
 40
0.0
 40
0.0
 40
1.0
 40
1.0
 40
1.0
 40
2.0
 40
2.0
 40
2.0
 40
3.0
 40
3.0
 40
3.0
 40
4.0
 40
4.0
 40
4.0
 40
4.0
 10
382.2130180251065
 20
-81.37418889024672
 10
384.3589680028687
 20
-81.37418889024672
 10
385.5781872950985
 20
-80.71376408572435
 10
385.5781872950985
 20
-79.69797768189842
 10
385.5781872950985
 20
-78.55506725466679
 10
384.2449353423069
 20
-78.00901962025469
 10
382.1368814148825
 20
-78.00901962025469
 10
380.1049640976821
 20
-78.00901962025469
 10
378.7717121448904
 20
-78.5297458028502
 10
378.7717121448904
 20
-79.685230828603
 10
378.7717121448904
 20
-80.66312118209117
 10
379.9654377305295
 20
-81.37418889024672
 10
382.2130180251065
 20
-81.37418889024672
 97
        0
 97
        0
 75
     2
 76
     1
 98
        0
450
        0
451
        0
460
0.0
461
0.0
452
        0
462
0.0
453
        0
470

  0
SPLINE
  5
A9
330
A0
100
AcDbEntity
  8
Livello 1
370
     0
100
AcDbSpline
210
0.0
220
0.0
230
1.0
 70
    11
 71
     3
 72
    50
 73
    46
 74
     0
 42
0.000000001
 43
0.0000000001
 40
0.0
 40
0.0
 40
0.0
 40
0.0
 40
1.0
 40
1.0
 40
1.0
 40
2.0
 40
2.0
 40
2.0
 40
3.0
 40
3.0
 40
3.0
 40
4.0
 40
4.0
 40
4.0
 40
5.0
 40
5.0
 40
5.0
 40
6.0
 40
6.0
 40
6.0
 40
7.0
 40
7.0
 40
7.0
 40
8.0
 40
8.0
 40
8.0
 40
9.0
 40
9.0
 40
9.0
 40
10.0
 40
10.0
 40
10.0
 40
11.0
 40
11.0
 40
11.0
 40
12.0
 40
12.0
 40
12.0
 40
13.0
 40
13.0
 40
13.0
 40
14.0
 40
14.0
 40
14.0
 40
15.0
 40
15.0
 40
15.0
 40
15.0
 10
378.9877196318157
 20
-70.93537731516547
 30
0.0
 10
378.9877196318157
 20
-70.93537731516547
 30
0.0
 10
378.9877196318157
 20
-74.08453909823234
 30
0.0
 10
378.9877196318157
 20
-74.08453909823234
 30
0.0
 10
378.9877196318157
 20
-74.08453909823234
 30
0.0
 10
381.1081759029869
 20
-74.40200464719811
 30
0.0
 10
381.1081759029869
 20
-74.40200464719811
 30
0.0
 10
381.0830267059445
 20
-74.2114908668638
 30
0.0
 10
381.0575329993537
 20
-74.03372393982491
 30
0.0
 10
381.0575329993537
 20
-73.72900524415456
 30
0.0
 10
381.0575329993537
 20
-73.09407414622301
 30
0.0
 10
381.1970593665063
 20
-72.45914304829148
 30
0.0
 10
381.5019503169509
 20
-71.95116371899138
 30
0.0
 10
381.8702310243241
 20
-71.30365802253867
 30
0.0
 10
382.5812987324797
 20
-70.77018498664774
 30
0.0
 10
383.6224065881222
 20
-70.77018498664774
 30
0.0
 10
385.2354002943162
 20
-70.77018498664774
 30
0.0
 10
386.4415282237021
 20
-72.05279403580623
 30
0.0
 10
386.4415282237021
 20
-73.84321015949059
 30
0.0
 10
386.4415282237021
 20
-74.74479164798047
 30
0.0
 10
386.1876246864392
 20
-75.50684676931773
 30
0.0
 10
385.9337211491763
 20
-75.90044892850753
 30
0.0
 10
385.9337211491763
 20
-75.90044892850753
 30
0.0
 10
385.0827825643196
 20
-75.62105168465376
 30
0.0
 10
385.0827825643196
 20
-75.62105168465376
 30
0.0
 10
385.2860431979494
 20
-75.27826468387139
 30
0.0
 10
385.5399467352123
 20
-74.60526528082785
 30
0.0
 10
385.5399467352123
 20
-73.85595701278602
 30
0.0
 10
385.5399467352123
 20
-72.80193004907383
 30
0.0
 10
384.8543727336476
 20
-71.90034856058395
 30
0.0
 10
383.7495306115279
 20
-71.90034856058395
 30
0.0
 10
382.6829290492947
 20
-71.91309541387936
 30
0.0
 10
381.9208739279573
 20
-72.62416312203495
 30
0.0
 10
381.9208739279573
 20
-74.27505287856665
 30
0.0
 10
381.9208739279573
 20
-74.74479164798047
 30
0.0
 10
381.971861341139
 20
-75.11307235535369
 30
0.0
 10
382.0097573914767
 20
-75.41796330579829
 30
0.0
 10
382.0097573914767
 20
-75.41796330579829
 30
0.0
 10
378.0478975834394
 20
-74.88449026990736
 30
0.0
 10
378.0478975834394
 20
-74.88449026990736
 30
0.0
 10
378.0478975834394
 20
-74.88449026990736
 30
0.0
 10
378.0478975834394
 20
-70.93537731516547
 30
0.0
 10
378.0478975834394
 20
-70.93537731516547
 30
0.0
 10
378.0478975834394
 20
-70.93537731516547
 30
0.0
 10
378.9877196318157
 20
-70.93537731516547
 30
0.0
 10
378.9877196318157
 20
-70.93537731516547
 30
0.0
  0
HATCH
  5
AA
330
A0
100
AcDbEntity
  8
Livello 1
 62
   250
420
  1842203
100
AcDbHatch
 10
0.0
 20
0.0
 30
0.0
210
0.0
220
0.0
230
1.0
  2
SOLID
 70
     1
 71
     0
 91
        1
 92
        1
 93
        1
 72
     4
 94
        3
 73
     0
 74
     0
 95
       50
 96
       46
 40
0.0
 40
0.0
 40
0.0
 40
0.0
 40
1.0
 40
1.0
 40
1.0
 40
2.0
 40
2.0
 40
2.0
 40
3.0
 40
3.0
 40
3.0
 40
4.0
 40
4.0
 40
4.0
 40
5.0
 40
5.0
 40
5.0
 40
6.0
 40
6.0
 40
6.0
 40
7.0
 40
7.0
 40
7.0
 40
8.0
 40
8.0
 40
8.0
 40
9.0
 40
9.0
 40
9.0
 40
10.0
 40
10.0
 40
10.0
 40
11.0
 40
11.0
 40
11.0
 40
12.0
 40
12.0
 40
12.0
 40
13.0
 40
13.0
 40
13.0
 40
14.0
 40
14.0
 40
14.0
 40
15.0
 40
15.0
 40
15.0
 40
15.0
 10
378.9877196318157
 20
-70.93537731516547
 10
378.9877196318157
 20
-70.93537731516547
 10
378.9877196318157
 20
-74.08453909823234
 10
378.9877196318157
 20
-74.08453909823234
 10
378.9877196318157
 20
-74.08453909823234
 10
381.1081759029869
 20
-74.40200464719811
 10
381.1081759029869
 20
-74.40200464719811
 10
381.0830267059445
 20
-74.2114908668638
 10
381.0575329993537
 20
-74.03372393982491
 10
381.0575329993537
 20
-73.72900524415456
 10
381.0575329993537
 20
-73.09407414622301
 10
381.1970593665063
 20
-72.45914304829148
 10
381.5019503169509
 20
-71.95116371899138
 10
381.8702310243241
 20
-71.30365802253867
 10
382.5812987324797
 20
-70.77018498664774
 10
383.6224065881222
 20
-70.77018498664774
 10
385.2354002943162
 20
-70.77018498664774
 10
386.4415282237021
 20
-72.05279403580623
 10
386.4415282237021
 20
-73.84321015949059
 10
386.4415282237021
 20
-74.74479164798047
 10
386.1876246864392
 20
-75.50684676931773
 10
385.9337211491763
 20
-75.90044892850753
 10
385.9337211491763
 20
-75.90044892850753
 10
385.0827825643196
 20
-75.62105168465376
 10
385.0827825643196
 20
-75.62105168465376
 10
385.2860431979494
 20
-75.27826468387139
 10
385.5399467352123
 20
-74.60526528082785
 10
385.5399467352123
 20
-73.85595701278602
 10
385.5399467352123
 20
-72.80193004907383
 10
384.8543727336476
 20
-71.90034856058395
 10
383.7495306115279
 20
-71.90034856058395
 10
382.6829290492947
 20
-71.91309541387936
 10
381.9208739279573
 20
-72.62416312203495
 10
381.9208739279573
 20
-74.27505287856665
 10
381.9208739279573
 20
-74.74479164798047
 10
381.971861341139
 20
-75.11307235535369
 10
382.0097573914767
 20
-75.41796330579829
 10
382.0097573914767
 20
-75.41796330579829
 10
378.0478975834394
 20
-74.88449026990736
 10
378.0478975834394
 20
-74.88449026990736
 10
378.0478975834394
 20
-74.88449026990736
 10
378.0478975834394
 20
-70.93537731516547
 10
378.0478975834394
 20
-70.93537731516547
 10
378.0478975834394
 20
-70.93537731516547
 10
378.9877196318157
 20
-70.93537731516547
 10
378.9877196318157
 20
-70.93537731516547
 97
        0
 97
        0
 75
     2
 76
     1
 98
        0
450
        0
451
        0
460
0.0
461
0.0
452
        0
462
0.0
453
        0
470

  0
ENDBLK
  5
A3
330
A0
100
AcDbEntity
  8
0
100
AcDbBlockEnd
  0
BLOCK
  5
AD
330
AB
100
AcDbEntity
  8
0
100
AcDbBlockBegin
  2
block 3
 70
     0
 10
0.0
 20
0.0
 30
0.0
  3
block 3
  1

  0
SPLINE
  5
AF
330
AB
100
AcDbEntity
  8
Livello 1
370
     0
100
AcDbSpline
210
0.0
220
0.0
230
1.0
 70
    11
 71
     3
 72
    47
 73
    43
 74
     0
 42
0.000000001
 43
0.0000000001
 40
0.0
 40
0.0
 40
0.0
 40
0.0
 40
1.0
 40
1.0
 40
1.0
 40
2.0
 40
2.0
 40
2.0
 40
3.0
 40
3.0
 40
3.0
 40
4.0
 40
4.0
 40
4.0
 40
5.0
 40
5.0
 40
5.0
 40
6.0
 40
6.0
 40
6.0
 40
7.0
 40
7.0
 40
7.0
 40
8.0
 40
8.0
 40
8.0
 40
9.0
 40
9.0
 40
9.0
 40
10.0
 40
10.0
 40
10.0
 40
11.0
 40
11.0
 40
11.0
 40
12.0
 40
12.0
 40
12.0
 40
13.0
 40
13.0
 40
13.0
 40
14.0
 40
14.0
 40
14.0
 40
14.0
 10
255.5387518349868
 20
-151.0991319066697
 30
0.0
 10
255.5387518349868
 20
-151.0991319066697
 30
0.0
 10
254.8530055786479
 20
-151.0991319066697
 30
0.0
 10
254.8530055786479
 20
-151.0991319066697
 30
0.0
 10
254.8530055786479
 20
-151.0991319066697
 30
0.0
 10
254.0022392485654
 20
-150.2230441247706
 30
0.0
 10
254.0022392485654
 20
-150.2230441247706
 30
0.0
 10
251.9958156379559
 20
-148.1151624521205
 30
0.0
 10
250.9292140757226
 20
-147.1627658052232
 30
0.0
 10
249.6848455864503
 20
-147.1500189519278
 30
0.0
 10
248.846653854889
 20
-147.1500189519278
 30
0.0
 10
248.0720241350306
 20
-147.556367964413
 30
0.0
 10
248.0720241350306
 20
-148.788161855164
 30
0.0
 10
248.0720241350306
 20
-149.5371256136574
 30
0.0
 10
248.4530516956993
 20
-150.1593098582935
 30
0.0
 10
248.770517244665
 20
-150.5403374189621
 30
0.0
 10
248.770517244665
 20
-150.5403374189621
 30
0.0
 10
247.9831406715112
 20
-150.8958712730399
 30
0.0
 10
247.9831406715112
 20
-150.8958712730399
 30
0.0
 10
247.5006550488019
 20
-150.3246744415855
 30
0.0
 10
247.1451211947241
 20
-149.5119764166151
 30
0.0
 10
247.1451211947241
 20
-148.5595797697177
 30
0.0
 10
247.1451211947241
 20
-146.7817382445546
 30
0.0
 10
248.3641682321798
 20
-146.032602231287
 30
0.0
 10
249.5451469645234
 20
-146.032602231287
 30
0.0
 10
251.0689126976494
 20
-146.032602231287
 30
0.0
 10
252.3007065884005
 20
-147.1372720986324
 30
0.0
 10
253.9769177967488
 20
-148.8770453186835
 30
0.0
 10
253.9769177967488
 20
-148.8770453186835
 30
0.0
 10
254.5863551880895
 20
-149.5371256136574
 30
0.0
 10
254.5863551880895
 20
-149.5371256136574
 30
0.0
 10
254.5863551880895
 20
-149.5371256136574
 30
0.0
 10
254.6118488946804
 20
-149.5371256136574
 30
0.0
 10
254.6118488946804
 20
-149.5371256136574
 30
0.0
 10
254.6118488946804
 20
-149.5371256136574
 30
0.0
 10
254.6118488946804
 20
-145.8293415976572
 30
0.0
 10
254.6118488946804
 20
-145.8293415976572
 30
0.0
 10
254.6118488946804
 20
-145.8293415976572
 30
0.0
 10
255.5387518349868
 20
-145.8293415976572
 30
0.0
 10
255.5387518349868
 20
-145.8293415976572
 30
0.0
 10
255.5387518349868
 20
-145.8293415976572
 30
0.0
 10
255.5387518349868
 20
-151.0991319066697
 30
0.0
 10
255.5387518349868
 20
-151.0991319066697
 30
0.0
  0
HATCH
  5
B0
330
AB
100
AcDbEntity
  8
Livello 1
 62
   250
420
  1842203
100
AcDbHatch
 10
0.0
 20
0.0
 30
0.0
210
0.0
220
0.0
230
1.0
  2
SOLID
 70
     1
 71
     0
 91
        1
 92
        1
 93
        1
 72
     4
 94
        3
 73
     0
 74
     0
 95
       47
 96
       43
 40
0.0
 40
0.0
 40
0.0
 40
0.0
 40
1.0
 40
1.0
 40
1.0
 40
2.0
 40
2.0
 40
2.0
 40
3.0
 40
3.0
 40
3.0
 40
4.0
 40
4.0
 40
4.0
 40
5.0
 40
5.0
 40
5.0
 40
6.0
 40
6.0
 40
6.0
 40
7.0
 40
7.0
 40
7.0
 40
8.0
 40
8.0
 40
8.0
 40
9.0
 40
9.0
 40
9.0
 40
10.0
 40
10.0
 40
10.0
 40
11.0
 40
11.0
 40
11.0
 40
12.0
 40
12.0
 40
12.0
 40
13.0
 40
13.0
 40
13.0
 40
14.0
 40
14.0
 40
14.0
 40
14.0
 10
255.5387518349868
 20
-151.0991319066697
 10
255.5387518349868
 20
-151.0991319066697
 10
254.8530055786479
 20
-151.0991319066697
 10
254.8530055786479
 20
-151.0991319066697
 10
254.8530055786479
 20
-151.0991319066697
 10
254.0022392485654
 20
-150.2230441247706
 10
254.0022392485654
 20
-150.2230441247706
 10
251.9958156379559
 20
-148.1151624521205
 10
250.9292140757226
 20
-147.1627658052232
 10
249.6848455864503
 20
-147.1500189519278
 10
248.846653854889
 20
-147.1500189519278
 10
248.0720241350306
 20
-147.556367964413
 10
248.0720241350306
 20
-148.788161855164
 10
248.0720241350306
 20
-149.5371256136574
 10
248.4530516956993
 20
-150.1593098582935
 10
248.770517244665
 20
-150.5403374189621
 10
248.770517244665
 20
-150.5403374189621
 10
247.9831406715112
 20
-150.8958712730399
 10
247.9831406715112
 20
-150.8958712730399
 10
247.5006550488019
 20
-150.3246744415855
 10
247.1451211947241
 20
-149.5119764166151
 10
247.1451211947241
 20
-148.5595797697177
 10
247.1451211947241
 20
-146.7817382445546
 10
248.3641682321798
 20
-146.032602231287
 10
249.5451469645234
 20
-146.032602231287
 10
251.0689126976494
 20
-146.032602231287
 10
252.3007065884005
 20
-147.1372720986324
 10
253.9769177967488
 20
-148.8770453186835
 10
253.9769177967488
 20
-148.8770453186835
 10
254.5863551880895
 20
-149.5371256136574
 10
254.5863551880895
 20
-149.5371256136574
 10
254.5863551880895
 20
-149.5371256136574
 10
254.6118488946804
 20
-149.5371256136574
 10
254.6118488946804
 20
-149.5371256136574
 10
254.6118488946804
 20
-149.5371256136574
 10
254.6118488946804
 20
-145.8293415976572
 10
254.6118488946804
 20
-145.8293415976572
 10
254.6118488946804
 20
-145.8293415976572
 10
255.5387518349868
 20
-145.8293415976572
 10
255.5387518349868
 20
-145.8293415976572
 10
255.5387518349868
 20
-145.8293415976572
 10
255.5387518349868
 20
-151.0991319066697
 10
255.5387518349868
 20
-151.0991319066697
 97
        0
 97
        0
 75
     2
 76
     1
 98
        0
450
        0
451
        0
460
0.0
461
0.0
452
        0
462
0.0
453
        0
470

  0
SPLINE
  5
B1
330
AB
100
AcDbEntity
  8
Livello 1
370
     0
100
AcDbSpline
210
0.0
220
0.0
230
1.0
 70
     9
 71
     3
 72
    17
 73
    13
 74
     0
 42
0.000000001
 43
0.0000000001
 40
0.0
 40
0.0
 40
0.0
 40
0.0
 40
1.0
 40
1.0
 40
1.0
 40
2.0
 40
2.0
 40
2.0
 40
3.0
 40
3.0
 40
3.0
 40
4.0
 40
4.0
 40
4.0
 40
4.0
 10
257.1005858732249
 20
-144.9527370514354
 30
0.0
 10
256.3514498599573
 20
-144.6733398075817
 30
0.0
 10
254.9927042005748
 20
-144.330380552025
 30
0.0
 10
254.0658012602683
 20
-144.1906819300982
 30
0.0
 10
254.0658012602683
 20
-144.1906819300982
 30
0.0
 10
253.9386772368626
 20
-142.9463134408259
 30
0.0
 10
253.9386772368626
 20
-142.9463134408259
 30
0.0
 10
255.0181979071656
 20
-143.2382852832008
 30
0.0
 10
256.4275864701813
 20
-143.7970797709084
 30
0.0
 10
257.0244492630009
 20
-144.152613624986
 30
0.0
 10
257.0244492630009
 20
-144.152613624986
 30
0.0
 10
257.1005858732249
 20
-144.9527370514354
 30
0.0
 10
257.1005858732249
 20
-144.9527370514354
 30
0.0
  0
HATCH
  5
B2
330
AB
100
AcDbEntity
  8
Livello 1
 62
   250
420
  1842203
100
AcDbHatch
 10
0.0
 20
0.0
 30
0.0
210
0.0
220
0.0
230
1.0
  2
SOLID
 70
     1
 71
     0
 91
        1
 92
        1
 93
        1
 72
     4
 94
        3
 73
     0
 74
     0
 95
       17
 96
       13
 40
0.0
 40
0.0
 40
0.0
 40
0.0
 40
1.0
 40
1.0
 40
1.0
 40
2.0
 40
2.0
 40
2.0
 40
3.0
 40
3.0
 40
3.0
 40
4.0
 40
4.0
 40
4.0
 40
4.0
 10
257.1005858732249
 20
-144.9527370514354
 10
256.3514498599573
 20
-144.6733398075817
 10
254.9927042005748
 20
-144.330380552025
 10
254.0658012602683
 20
-144.1906819300982
 10
254.0658012602683
 20
-144.1906819300982
 10
253.9386772368626
 20
-142.9463134408259
 10
253.9386772368626
 20
-142.9463134408259
 10
255.0181979071656
 20
-143.2382852832008
 10
256.4275864701813
 20
-143.7970797709084
 10
257.0244492630009
 20
-144.152613624986
 10
257.0244492630009
 20
-144.152613624986
 10
257.1005858732249
 20
-144.9527370514354
 10
257.1005858732249
 20
-144.9527370514354
 97
        0
 97
        0
 75
     2
 76
     1
 98
        0
450
        0
451
        0
460
0.0
461
0.0
452
        0
462
0.0
453
        0
470

  0
SPLINE
  5
B3
330
AB
100
AcDbEntity
  8
Livello 1
370
     0
100
AcDbSpline
210
0.0
220
0.0
230
1.0
 70
    11
 71
     3
 72
    50
 73
    46
 74
     0
 42
0.000000001
 43
0.0000000001
 40
0.0
 40
0.0
 40
0.0
 40
0.0
 40
1.0
 40
1.0
 40
1.0
 40
2.0
 40
2.0
 40
2.0
 40
3.0
 40
3.0
 40
3.0
 40
4.0
 40
4.0
 40
4.0
 40
5.0
 40
5.0
 40
5.0
 40
6.0
 40
6.0
 40
6.0
 40
7.0
 40
7.0
 40
7.0
 40
8.0
 40
8.0
 40
8.0
 40
9.0
 40
9.0
 40
9.0
 40
10.0
 40
10.0
 40
10.0
 40
11.0
 40
11.0
 40
11.0
 40
12.0
 40
12.0
 40
12.0
 40
13.0
 40
13.0
 40
13.0
 40
14.0
 40
14.0
 40
14.0
 40
15.0
 40
15.0
 40
15.0
 40
15.0
 10
248.2244696102529
 20
-137.0286729258123
 30
0.0
 10
248.2244696102529
 20
-137.0286729258123
 30
0.0
 10
248.2244696102529
 20
-140.1778347088791
 30
0.0
 10
248.2244696102529
 20
-140.1778347088791
 30
0.0
 10
248.2244696102529
 20
-140.1778347088791
 30
0.0
 10
250.3450981361985
 20
-140.4953002578449
 30
0.0
 10
250.3450981361985
 20
-140.4953002578449
 30
0.0
 10
250.3197766843819
 20
-140.3047864775106
 30
0.0
 10
250.294282977791
 20
-140.1270195504717
 30
0.0
 10
250.294282977791
 20
-139.8223008548014
 30
0.0
 10
250.294282977791
 20
-139.1873697568698
 30
0.0
 10
250.4339815997179
 20
-138.5524386589383
 30
0.0
 10
250.7387002953882
 20
-138.0444593296382
 30
0.0
 10
251.1069810027615
 20
-137.3969536331855
 30
0.0
 10
251.818048710917
 20
-136.8634805972945
 30
0.0
 10
252.8593288213338
 20
-136.8634805972945
 30
0.0
 10
254.4721502727535
 20
-136.8634805972945
 30
0.0
 10
255.6784504569137
 20
-138.1460896464531
 30
0.0
 10
255.6784504569137
 20
-139.9365057701374
 30
0.0
 10
255.6784504569137
 20
-140.8380872586273
 30
0.0
 10
255.4245469196508
 20
-141.6001423799646
 30
0.0
 10
255.1704711276136
 20
-141.9937445391543
 30
0.0
 10
255.1704711276136
 20
-141.9937445391543
 30
0.0
 10
254.3197047975312
 20
-141.7143472953006
 30
0.0
 10
254.3197047975312
 20
-141.7143472953006
 30
0.0
 10
254.5229654311609
 20
-141.3715602945182
 30
0.0
 10
254.7768689684239
 20
-140.6983886367004
 30
0.0
 10
254.7768689684239
 20
-139.9492526234328
 30
0.0
 10
254.7768689684239
 20
-138.8952256597206
 30
0.0
 10
254.0911227120849
 20
-137.9936441712308
 30
0.0
 10
252.9864528447395
 20
-137.9936441712308
 30
0.0
 10
251.9196790277319
 20
-138.0063910245262
 30
0.0
 10
251.1577961611689
 20
-138.7174587326818
 30
0.0
 10
251.1577961611689
 20
-140.3683484892135
 30
0.0
 10
251.1577961611689
 20
-140.8380872586273
 30
0.0
 10
251.2086113195763
 20
-141.2063679660005
 30
0.0
 10
251.2466796246883
 20
-141.5110866616708
 30
0.0
 10
251.2466796246883
 20
-141.5110866616708
 30
0.0
 10
247.284819816651
 20
-140.9777858805542
 30
0.0
 10
247.284819816651
 20
-140.9777858805542
 30
0.0
 10
247.284819816651
 20
-140.9777858805542
 30
0.0
 10
247.284819816651
 20
-137.0286729258123
 30
0.0
 10
247.284819816651
 20
-137.0286729258123
 30
0.0
 10
247.284819816651
 20
-137.0286729258123
 30
0.0
 10
248.2244696102529
 20
-137.0286729258123
 30
0.0
 10
248.2244696102529
 20
-137.0286729258123
 30
0.0
  0
HATCH
  5
B4
330
AB
100
AcDbEntity
  8
Livello 1
 62
   250
420
  1842203
100
AcDbHatch
 10
0.0
 20
0.0
 30
0.0
210
0.0
220
0.0
230
1.0
  2
SOLID
 70
     1
 71
     0
 91
        1
 92
        1
 93
        1
 72
     4
 94
        3
 73
     0
 74
     0
 95
       50
 96
       46
 40
0.0
 40
0.0
 40
0.0
 40
0.0
 40
1.0
 40
1.0
 40
1.0
 40
2.0
 40
2.0
 40
2.0
 40
3.0
 40
3.0
 40
3.0
 40
4.0
 40
4.0
 40
4.0
 40
5.0
 40
5.0
 40
5.0
 40
6.0
 40
6.0
 40
6.0
 40
7.0
 40
7.0
 40
7.0
 40
8.0
 40
8.0
 40
8.0
 40
9.0
 40
9.0
 40
9.0
 40
10.0
 40
10.0
 40
10.0
 40
11.0
 40
11.0
 40
11.0
 40
12.0
 40
12.0
 40
12.0
 40
13.0
 40
13.0
 40
13.0
 40
14.0
 40
14.0
 40
14.0
 40
15.0
 40
15.0
 40
15.0
 40
15.0
 10
248.2244696102529
 20
-137.0286729258123
 10
248.2244696102529
 20
-137.0286729258123
 10
248.2244696102529
 20
-140.1778347088791
 10
248.2244696102529
 20
-140.1778347088791
 10
248.2244696102529
 20
-140.1778347088791
 10
250.3450981361985
 20
-140.4953002578449
 10
250.3450981361985
 20
-140.4953002578449
 10
250.3197766843819
 20
-140.3047864775106
 10
250.294282977791
 20
-140.1270195504717
 10
250.294282977791
 20
-139.8223008548014
 10
250.294282977791
 20
-139.1873697568698
 10
250.4339815997179
 20
-138.5524386589383
 10
250.7387002953882
 20
-138.0444593296382
 10
251.1069810027615
 20
-137.3969536331855
 10
251.818048710917
 20
-136.8634805972945
 10
252.8593288213338
 20
-136.8634805972945
 10
254.4721502727535
 20
-136.8634805972945
 10
255.6784504569137
 20
-138.1460896464531
 10
255.6784504569137
 20
-139.9365057701374
 10
255.6784504569137
 20
-140.8380872586273
 10
255.4245469196508
 20
-141.6001423799646
 10
255.1704711276136
 20
-141.9937445391543
 10
255.1704711276136
 20
-141.9937445391543
 10
254.3197047975312
 20
-141.7143472953006
 10
254.3197047975312
 20
-141.7143472953006
 10
254.5229654311609
 20
-141.3715602945182
 10
254.7768689684239
 20
-140.6983886367004
 10
254.7768689684239
 20
-139.9492526234328
 10
254.7768689684239
 20
-138.8952256597206
 10
254.0911227120849
 20
-137.9936441712308
 10
252.9864528447395
 20
-137.9936441712308
 10
251.9196790277319
 20
-138.0063910245262
 10
251.1577961611689
 20
-138.7174587326818
 10
251.1577961611689
 20
-140.3683484892135
 10
251.1577961611689
 20
-140.8380872586273
 10
251.2086113195763
 20
-141.2063679660005
 10
251.2466796246883
 20
-141.5110866616708
 10
251.2466796246883
 20
-141.5110866616708
 10
247.284819816651
 20
-140.9777858805542
 10
247.284819816651
 20
-140.9777858805542
 10
247.284819816651
 20
-140.9777858805542
 10
247.284819816651
 20
-137.0286729258123
 10
247.284819816651
 20
-137.0286729258123
 10
247.284819816651
 20
-137.0286729258123
 10
248.2244696102529
 20
-137.0286729258123
 10
248.2244696102529
 20
-137.0286729258123
 97
        0
 97
        0
 75
     2
 76
     1
 98
        0
450
        0
451
        0
460
0.0
461
0.0
452
        0
462
0.0
453
        0
470

  0
ENDBLK
  5
AE
330
AB
100
AcDbEntity
  8
0
100
AcDbBlockEnd
  0
BLOCK
  5
B7
330
B5
100
AcDbEntity
  8
0
100
AcDbBlockBegin
  2
block 4
 70
     0
 10
0.0
 20
0.0
 30
0.0
  3
block 4
  1

  0
SPLINE
  5
B9
330
B5
100
AcDbEntity
  8
Livello 1
370
     0
100
AcDbSpline
210
0.0
220
0.0
230
1.0
 70
     9
 71
     3
 72
    41
 73
    37
 74
     0
 42
0.000000001
 43
0.0000000001
 40
0.0
 40
0.0
 40
0.0
 40
0.0
 40
1.0
 40
1.0
 40
1.0
 40
2.0
 40
2.0
 40
2.0
 40
3.0
 40
3.0
 40
3.0
 40
4.0
 40
4.0
 40
4.0
 40
5.0
 40
5.0
 40
5.0
 40
6.0
 40
6.0
 40
6.0
 40
7.0
 40
7.0
 40
7.0
 40
8.0
 40
8.0
 40
8.0
 40
9.0
 40
9.0
 40
9.0
 40
10.0
 40
10.0
 40
10.0
 40
11.0
 40
11.0
 40
11.0
 40
12.0
 40
12.0
 40
12.0
 40
12.0
 10
391.3631916339301
 20
-233.6946071464375
 30
0.0
 10
391.3886853405209
 20
-233.45345046247
 30
0.0
 10
391.3631916339301
 20
-233.1743977281647
 30
0.0
 10
391.3249510740438
 20
-232.7933701674961
 30
0.0
 10
391.2360676105243
 20
-232.1456922162691
 30
0.0
 10
390.969417219966
 20
-231.5359103153799
 30
0.0
 10
390.5249999023688
 20
-231.0659992911918
 30
0.0
 10
390.0299396811384
 20
-230.5202961663283
 30
0.0
 10
389.3061251196873
 20
-230.1265217523642
 30
0.0
 10
388.3284070209735
 20
-229.9739040223676
 30
0.0
 10
388.3284070209735
 20
-229.9739040223676
 30
0.0
 10
388.3284070209735
 20
-230.0124890918025
 30
0.0
 10
388.3284070209735
 20
-230.0124890918025
 30
0.0
 10
388.8868569991325
 20
-230.4693087531466
 30
0.0
 10
389.2172416561679
 20
-231.129733557669
 30
0.0
 10
389.2172416561679
 20
-231.9551784359348
 30
0.0
 10
389.2172416561679
 20
-233.4410481187231
 30
0.0
 10
388.0996526807529
 20
-234.3932725108461
 30
0.0
 10
386.6902641177372
 20
-234.3932725108461
 30
0.0
 10
385.1282578247248
 20
-234.3932725108461
 30
0.0
 10
383.7567653120469
 20
-233.2632811916842
 30
0.0
 10
383.7567653120469
 20
-231.5741508752662
 30
0.0
 10
383.7567653120469
 20
-229.8850205588482
 30
0.0
 10
385.1282578247248
 20
-228.8439127032057
 30
0.0
 10
387.2363117521493
 20
-228.8439127032057
 30
0.0
 10
389.0522215824245
 20
-228.8439127032057
 30
0.0
 10
390.3220837782875
 20
-229.4536946040949
 30
0.0
 10
391.1092880966671
 20
-230.2660481195168
 30
0.0
 10
391.7314723413034
 20
-230.9013237269969
 30
0.0
 10
392.1124999019719
 20
-231.7770669993474
 30
0.0
 10
392.2141302187867
 20
-232.6662461440904
 30
0.0
 10
392.2775199757154
 20
-233.0724229018014
 30
0.0
 10
392.2902668290109
 20
-233.4279567558791
 30
0.0
 10
392.2775199757154
 20
-233.6946071464375
 30
0.0
 10
392.2775199757154
 20
-233.6946071464375
 30
0.0
 10
391.3631916339301
 20
-233.6946071464375
 30
0.0
 10
391.3631916339301
 20
-233.6946071464375
 30
0.0
  0
SPLINE
  5
BA
330
B5
100
AcDbEntity
  8
Livello 1
370
     0
100
AcDbSpline
210
0.0
220
0.0
230
1.0
 70
     9
 71
     3
 72
    20
 73
    16
 74
     0
 42
0.000000001
 43
0.0000000001
 40
0.0
 40
0.0
 40
0.0
 40
0.0
 40
1.0
 40
1.0
 40
1.0
 40
2.0
 40
2.0
 40
2.0
 40
3.0
 40
3.0
 40
3.0
 40
4.0
 40
4.0
 40
4.0
 40
5.0
 40
5.0
 40
5.0
 40
5.0
 10
386.6141275075132
 20
-233.2884303887265
 30
0.0
 10
387.6424885098601
 20
-233.2884303887265
 30
0.0
 10
388.3663030713112
 20
-232.6662461440904
 30
0.0
 10
388.3663030713112
 20
-231.7012748986719
 30
0.0
 10
388.3663030713112
 20
-230.9519666306301
 30
0.0
 10
387.998022363938
 20
-230.3680229458802
 30
0.0
 10
387.5029621427076
 20
-230.075878848731
 30
0.0
 10
387.4013318258927
 20
-230.0124890918025
 30
0.0
 10
387.274207802487
 20
-229.9739040223676
 30
0.0
 10
387.0964408754482
 20
-229.9739040223676
 30
0.0
 10
385.6870523124324
 20
-229.9739040223676
 30
0.0
 10
384.6077038969037
 20
-230.4948024597374
 30
0.0
 10
384.6077038969037
 20
-231.6630343387856
 30
0.0
 10
384.6077038969037
 20
-232.6156032404572
 30
0.0
 10
385.4458956284649
 20
-233.2884303887265
 30
0.0
 10
386.6141275075132
 20
-233.2884303887265
 30
0.0
  0
HATCH
  5
BB
330
B5
100
AcDbEntity
  8
Livello 1
 62
   250
420
  1842203
100
AcDbHatch
 10
0.0
 20
0.0
 30
0.0
210
0.0
220
0.0
230
1.0
  2
SOLID
 70
     1
 71
     0
 91
        2
 92
        1
 93
        1
 72
     4
 94
        3
 73
     0
 74
     0
 95
       41
 96
       37
 40
0.0
 40
0.0
 40
0.0
 40
0.0
 40
1.0
 40
1.0
 40
1.0
 40
2.0
 40
2.0
 40
2.0
 40
3.0
 40
3.0
 40
3.0
 40
4.0
 40
4.0
 40
4.0
 40
5.0
 40
5.0
 40
5.0
 40
6.0
 40
6.0
 40
6.0
 40
7.0
 40
7.0
 40
7.0
 40
8.0
 40
8.0
 40
8.0
 40
9.0
 40
9.0
 40
9.0
 40
10.0
 40
10.0
 40
10.0
 40
11.0
 40
11.0
 40
11.0
 40
12.0
 40
12.0
 40
12.0
 40
12.0
 10
391.3631916339301
 20
-233.6946071464375
 10
391.3886853405209
 20
-233.45345046247
 10
391.3631916339301
 20
-233.1743977281647
 10
391.3249510740438
 20
-232.7933701674961
 10
391.2360676105243
 20
-232.1456922162691
 10
390.969417219966
 20
-231.5359103153799
 10
390.5249999023688
 20
-231.0659992911918
 10
390.0299396811384
 20
-230.5202961663283
 10
389.3061251196873
 20
-230.1265217523642
 10
388.3284070209735
 20
-229.9739040223676
 10
388.3284070209735
 20
-229.9739040223676
 10
388.3284070209735
 20
-230.0124890918025
 10
388.3284070209735
 20
-230.0124890918025
 10
388.8868569991325
 20
-230.4693087531466
 10
389.2172416561679
 20
-231.129733557669
 10
389.2172416561679
 20
-231.9551784359348
 10
389.2172416561679
 20
-233.4410481187231
 10
388.0996526807529
 20
-234.3932725108461
 10
386.6902641177372
 20
-234.3932725108461
 10
385.1282578247248
 20
-234.3932725108461
 10
383.7567653120469
 20
-233.2632811916842
 10
383.7567653120469
 20
-231.5741508752662
 10
383.7567653120469
 20
-229.8850205588482
 10
385.1282578247248
 20
-228.8439127032057
 10
387.2363117521493
 20
-228.8439127032057
 10
389.0522215824245
 20
-228.8439127032057
 10
390.3220837782875
 20
-229.4536946040949
 10
391.1092880966671
 20
-230.2660481195168
 10
391.7314723413034
 20
-230.9013237269969
 10
392.1124999019719
 20
-231.7770669993474
 10
392.2141302187867
 20
-232.6662461440904
 10
392.2775199757154
 20
-233.0724229018014
 10
392.2902668290109
 20
-233.4279567558791
 10
392.2775199757154
 20
-233.6946071464375
 10
392.2775199757154
 20
-233.6946071464375
 10
391.3631916339301
 20
-233.6946071464375
 10
391.3631916339301
 20
-233.6946071464375
 97
        0
 97
        0
 92
        1
 93
        1
 72
     4
 94
        3
 73
     0
 74
     0
 95
       20
 96
       16
 40
0.0
 40
0.0
 40
0.0
 40
0.0
 40
1.0
 40
1.0
 40
1.0
 40
2.0
 40
2.0
 40
2.0
 40
3.0
 40
3.0
 40
3.0
 40
4.0
 40
4.0
 40
4.0
 40
5.0
 40
5.0
 40
5.0
 40
5.0
 10
386.6141275075132
 20
-233.2884303887265
 10
387.6424885098601
 20
-233.2884303887265
 10
388.3663030713112
 20
-232.6662461440904
 10
388.3663030713112
 20
-231.7012748986719
 10
388.3663030713112
 20
-230.9519666306301
 10
387.998022363938
 20
-230.3680229458802
 10
387.5029621427076
 20
-230.075878848731
 10
387.4013318258927
 20
-230.0124890918025
 10
387.274207802487
 20
-229.9739040223676
 10
387.0964408754482
 20
-229.9739040223676
 10
385.6870523124324
 20
-229.9739040223676
 10
384.6077038969037
 20
-230.4948024597374
 10
384.6077038969037
 20
-231.6630343387856
 10
384.6077038969037
 20
-232.6156032404572
 10
385.4458956284649
 20
-233.2884303887265
 10
386.6141275075132
 20
-233.2884303887265
 97
        0
 97
        0
 75
     2
 76
     1
 98
        0
450
        0
451
        0
460
0.0
461
0.0
452
        0
462
0.0
453
        0
470

  0
SPLINE
  5
BC
330
B5
100
AcDbEntity
  8
Livello 1
370
     0
100
AcDbSpline
210
0.0
220
0.0
230
1.0
 70
     9
 71
     3
 72
    17
 73
    13
 74
     0
 42
0.000000001
 43
0.0000000001
 40
0.0
 40
0.0
 40
0.0
 40
0.0
 40
1.0
 40
1.0
 40
1.0
 40
2.0
 40
2.0
 40
2.0
 40
3.0
 40
3.0
 40
3.0
 40
4.0
 40
4.0
 40
4.0
 40
4.0
 10
387.9346326070093
 20
-222.3416394843451
 30
0.0
 10
390.7410073892939
 20
-222.3416394843451
 30
0.0
 10
392.2902668290109
 20
-223.3830918495362
 30
0.0
 10
392.2902668290109
 20
-225.2117485331068
 30
0.0
 10
392.2902668290109
 20
-226.8243977297522
 30
0.0
 10
390.7789034396317
 20
-227.9164929985764
 30
0.0
 10
388.0490097771197
 20
-227.9419867051673
 30
0.0
 10
385.2805310451729
 20
-227.9419867051673
 30
0.0
 10
383.7567653120469
 20
-226.7482611195282
 30
0.0
 10
383.7567653120469
 20
-225.0722221659542
 30
0.0
 10
383.7567653120469
 20
-223.332448945903
 30
0.0
 10
385.3060247517639
 20
-222.3416394843451
 30
0.0
 10
387.9346326070093
 20
-222.3416394843451
 30
0.0
  0
SPLINE
  5
BD
330
B5
100
AcDbEntity
  8
Livello 1
370
     0
100
AcDbSpline
210
0.0
220
0.0
230
1.0
 70
     9
 71
     3
 72
    17
 73
    13
 74
     0
 42
0.000000001
 43
0.0000000001
 40
0.0
 40
0.0
 40
0.0
 40
0.0
 40
1.0
 40
1.0
 40
1.0
 40
2.0
 40
2.0
 40
2.0
 40
3.0
 40
3.0
 40
3.0
 40
4.0
 40
4.0
 40
4.0
 40
4.0
 10
388.0617566304151
 20
-226.8243977297522
 30
0.0
 10
390.2077066081773
 20
-226.8243977297522
 30
0.0
 10
391.4265813908586
 20
-226.1639729252298
 30
0.0
 10
391.4265813908586
 20
-225.1480142666297
 30
0.0
 10
391.4265813908586
 20
-224.0052760941723
 30
0.0
 10
390.093329438067
 20
-223.4592284597602
 30
0.0
 10
387.9852755106426
 20
-223.4592284597602
 30
0.0
 10
385.9537027029908
 20
-223.4592284597602
 30
0.0
 10
384.6204507501992
 20
-223.98012689713
 30
0.0
 10
384.6204507501992
 20
-225.1356119228828
 30
0.0
 10
384.6204507501992
 20
-226.1133300215967
 30
0.0
 10
385.8138318262896
 20
-226.8243977297522
 30
0.0
 10
388.0617566304151
 20
-226.8243977297522
 30
0.0
  0
HATCH
  5
BE
330
B5
100
AcDbEntity
  8
Livello 1
 62
   250
420
  1842203
100
AcDbHatch
 10
0.0
 20
0.0
 30
0.0
210
0.0
220
0.0
230
1.0
  2
SOLID
 70
     1
 71
     0
 91
        2
 92
        1
 93
        1
 72
     4
 94
        3
 73
     0
 74
     0
 95
       17
 96
       13
 40
0.0
 40
0.0
 40
0.0
 40
0.0
 40
1.0
 40
1.0
 40
1.0
 40
2.0
 40
2.0
 40
2.0
 40
3.0
 40
3.0
 40
3.0
 40
4.0
 40
4.0
 40
4.0
 40
4.0
 10
387.9346326070093
 20
-222.3416394843451
 10
390.7410073892939
 20
-222.3416394843451
 10
392.2902668290109
 20
-223.3830918495362
 10
392.2902668290109
 20
-225.2117485331068
 10
392.2902668290109
 20
-226.8243977297522
 10
390.7789034396317
 20
-227.9164929985764
 10
388.0490097771197
 20
-227.9419867051673
 10
385.2805310451729
 20
-227.9419867051673
 10
383.7567653120469
 20
-226.7482611195282
 10
383.7567653120469
 20
-225.0722221659542
 10
383.7567653120469
 20
-223.332448945903
 10
385.3060247517639
 20
-222.3416394843451
 10
387.9346326070093
 20
-222.3416394843451
 97
        0
 97
        0
 92
        1
 93
        1
 72
     4
 94
        3
 73
     0
 74
     0
 95
       17
 96
       13
 40
0.0
 40
0.0
 40
0.0
 40
0.0
 40
1.0
 40
1.0
 40
1.0
 40
2.0
 40
2.0
 40
2.0
 40
3.0
 40
3.0
 40
3.0
 40
4.0
 40
4.0
 40
4.0
 40
4.0
 10
388.0617566304151
 20
-226.8243977297522
 10
390.2077066081773
 20
-226.8243977297522
 10
391.4265813908586
 20
-226.1639729252298
 10
391.4265813908586
 20
-225.1480142666297
 10
391.4265813908586
 20
-224.0052760941723
 10
390.093329438067
 20
-223.4592284597602
 10
387.9852755106426
 20
-223.4592284597602
 10
385.9537027029908
 20
-223.4592284597602
 10
384.6204507501992
 20
-223.98012689713
 10
384.6204507501992
 20
-225.1356119228828
 10
384.6204507501992
 20
-226.1133300215967
 10
385.8138318262896
 20
-226.8243977297522
 10
388.0617566304151
 20
-226.8243977297522
 97
        0
 97
        0
 75
     2
 76
     1
 98
        0
450
        0
451
        0
460
0.0
461
0.0
452
        0
462
0.0
453
        0
470

  0
ENDBLK
  5
B8
330
B5
100
AcDbEntity
  8
0
100
AcDbBlockEnd
  0
BLOCK
  5
C1
330
BF
100
AcDbEntity
  8
0
100
AcDbBlockBegin
  2
block 5
 70
     0
 10
0.0
 20
0.0
 30
0.0
  3
block 5
  1

  0
SPLINE
  5
C3
330
BF
100
AcDbEntity
  8
Livello 1
370
     0
100
AcDbSpline
210
0.0
220
0.0
230
1.0
 70
    11
 71
     3
 72
    47
 73
    43
 74
     0
 42
0.000000001
 43
0.0000000001
 40
0.0
 40
0.0
 40
0.0
 40
0.0
 40
1.0
 40
1.0
 40
1.0
 40
2.0
 40
2.0
 40
2.0
 40
3.0
 40
3.0
 40
3.0
 40
4.0
 40
4.0
 40
4.0
 40
5.0
 40
5.0
 40
5.0
 40
6.0
 40
6.0
 40
6.0
 40
7.0
 40
7.0
 40
7.0
 40
8.0
 40
8.0
 40
8.0
 40
9.0
 40
9.0
 40
9.0
 40
10.0
 40
10.0
 40
10.0
 40
11.0
 40
11.0
 40
11.0
 40
12.0
 40
12.0
 40
12.0
 40
13.0
 40
13.0
 40
13.0
 40
14.0
 40
14.0
 40
14.0
 40
14.0
 10
286.5113660308026
 20
-25.87266709422628
 30
0.0
 10
286.5113660308026
 20
-25.87266709422628
 30
0.0
 10
286.5113660308026
 20
-25.1869208378873
 30
0.0
 10
286.5113660308026
 20
-25.1869208378873
 30
0.0
 10
286.5113660308026
 20
-25.1869208378873
 30
0.0
 10
287.387626067476
 20
-24.33615450780485
 30
0.0
 10
287.387626067476
 20
-24.33615450780485
 30
0.0
 10
289.4955077401261
 20
-22.32973089719536
 30
0.0
 10
290.4479043870235
 20
-21.263129334962
 30
0.0
 10
290.4606512403189
 20
-20.01876084568976
 30
0.0
 10
290.4606512403189
 20
-19.18056911412847
 30
0.0
 10
290.0543022278337
 20
-18.40593939427004
 30
0.0
 10
288.8225083370826
 20
-18.40593939427004
 30
0.0
 10
288.0733723238151
 20
-18.40593939427004
 30
0.0
 10
287.4511880791789
 20
-18.78696695493868
 30
0.0
 10
287.0701605185102
 20
-19.10443250390445
 30
0.0
 10
287.0701605185102
 20
-19.10443250390445
 30
0.0
 10
286.7146266644324
 20
-18.3170559307506
 30
0.0
 10
286.7146266644324
 20
-18.3170559307506
 30
0.0
 10
287.2859957506611
 20
-17.83457030804136
 30
0.0
 10
288.0986937756317
 20
-17.47903645396358
 30
0.0
 10
289.0510904225289
 20
-17.47903645396358
 30
0.0
 10
290.8289319476921
 20
-17.47903645396358
 30
0.0
 10
291.5780679609597
 20
-18.69808349141923
 30
0.0
 10
291.5780679609597
 20
-19.87906222376288
 30
0.0
 10
291.5780679609597
 20
-21.40282795688888
 30
0.0
 10
290.4733980936143
 20
-22.63462184763996
 30
0.0
 10
288.7336248735632
 20
-24.31083305598827
 30
0.0
 10
288.7336248735632
 20
-24.31083305598827
 30
0.0
 10
288.0733723238151
 20
-24.92027044732897
 30
0.0
 10
288.0733723238151
 20
-24.92027044732897
 30
0.0
 10
288.0733723238151
 20
-24.92027044732897
 30
0.0
 10
288.0733723238151
 20
-24.94576415391981
 30
0.0
 10
288.0733723238151
 20
-24.94576415391981
 30
0.0
 10
288.0733723238151
 20
-24.94576415391981
 30
0.0
 10
291.7813285945894
 20
-24.94576415391981
 30
0.0
 10
291.7813285945894
 20
-24.94576415391981
 30
0.0
 10
291.7813285945894
 20
-24.94576415391981
 30
0.0
 10
291.7813285945894
 20
-25.87266709422628
 30
0.0
 10
291.7813285945894
 20
-25.87266709422628
 30
0.0
 10
291.7813285945894
 20
-25.87266709422628
 30
0.0
 10
286.5113660308026
 20
-25.87266709422628
 30
0.0
 10
286.5113660308026
 20
-25.87266709422628
 30
0.0
  0
HATCH
  5
C4
330
BF
100
AcDbEntity
  8
Livello 1
 62
   250
420
  1842203
100
AcDbHatch
 10
0.0
 20
0.0
 30
0.0
210
0.0
220
0.0
230
1.0
  2
SOLID
 70
     1
 71
     0
 91
        1
 92
        1
 93
        1
 72
     4
 94
        3
 73
     0
 74
     0
 95
       47
 96
       43
 40
0.0
 40
0.0
 40
0.0
 40
0.0
 40
1.0
 40
1.0
 40
1.0
 40
2.0
 40
2.0
 40
2.0
 40
3.0
 40
3.0
 40
3.0
 40
4.0
 40
4.0
 40
4.0
 40
5.0
 40
5.0
 40
5.0
 40
6.0
 40
6.0
 40
6.0
 40
7.0
 40
7.0
 40
7.0
 40
8.0
 40
8.0
 40
8.0
 40
9.0
 40
9.0
 40
9.0
 40
10.0
 40
10.0
 40
10.0
 40
11.0
 40
11.0
 40
11.0
 40
12.0
 40
12.0
 40
12.0
 40
13.0
 40
13.0
 40
13.0
 40
14.0
 40
14.0
 40
14.0
 40
14.0
 10
286.5113660308026
 20
-25.87266709422628
 10
286.5113660308026
 20
-25.87266709422628
 10
286.5113660308026
 20
-25.1869208378873
 10
286.5113660308026
 20
-25.1869208378873
 10
286.5113660308026
 20
-25.1869208378873
 10
287.387626067476
 20
-24.33615450780485
 10
287.387626067476
 20
-24.33615450780485
 10
289.4955077401261
 20
-22.32973089719536
 10
290.4479043870235
 20
-21.263129334962
 10
290.4606512403189
 20
-20.01876084568976
 10
290.4606512403189
 20
-19.18056911412847
 10
290.0543022278337
 20
-18.40593939427004
 10
288.8225083370826
 20
-18.40593939427004
 10
288.0733723238151
 20
-18.40593939427004
 10
287.4511880791789
 20
-18.78696695493868
 10
287.0701605185102
 20
-19.10443250390445
 10
287.0701605185102
 20
-19.10443250390445
 10
286.7146266644324
 20
-18.3170559307506
 10
286.7146266644324
 20
-18.3170559307506
 10
287.2859957506611
 20
-17.83457030804136
 10
288.0986937756317
 20
-17.47903645396358
 10
289.0510904225289
 20
-17.47903645396358
 10
290.8289319476921
 20
-17.47903645396358
 10
291.5780679609597
 20
-18.69808349141923
 10
291.5780679609597
 20
-19.87906222376288
 10
291.5780679609597
 20
-21.40282795688888
 10
290.4733980936143
 20
-22.63462184763996
 10
288.7336248735632
 20
-24.31083305598827
 10
288.7336248735632
 20
-24.31083305598827
 10
288.0733723238151
 20
-24.92027044732897
 10
288.0733723238151
 20
-24.92027044732897
 10
288.0733723238151
 20
-24.92027044732897
 10
288.0733723238151
 20
-24.94576415391981
 10
288.0733723238151
 20
-24.94576415391981
 10
288.0733723238151
 20
-24.94576415391981
 10
291.7813285945894
 20
-24.94576415391981
 10
291.7813285945894
 20
-24.94576415391981
 10
291.7813285945894
 20
-24.94576415391981
 10
291.7813285945894
 20
-25.87266709422628
 10
291.7813285945894
 20
-25.87266709422628
 10
291.7813285945894
 20
-25.87266709422628
 10
286.5113660308026
 20
-25.87266709422628
 10
286.5113660308026
 20
-25.87266709422628
 97
        0
 97
        0
 75
     2
 76
     1
 98
        0
450
        0
451
        0
460
0.0
461
0.0
452
        0
462
0.0
453
        0
470

  0
SPLINE
  5
C5
330
BF
100
AcDbEntity
  8
Livello 1
370
     0
100
AcDbSpline
210
0.0
220
0.0
230
1.0
 70
     9
 71
     3
 72
    59
 73
    55
 74
     0
 42
0.000000001
 43
0.0000000001
 40
0.0
 40
0.0
 40
0.0
 40
0.0
 40
1.0
 40
1.0
 40
1.0
 40
2.0
 40
2.0
 40
2.0
 40
3.0
 40
3.0
 40
3.0
 40
4.0
 40
4.0
 40
4.0
 40
5.0
 40
5.0
 40
5.0
 40
6.0
 40
6.0
 40
6.0
 40
7.0
 40
7.0
 40
7.0
 40
8.0
 40
8.0
 40
8.0
 40
9.0
 40
9.0
 40
9.0
 40
10.0
 40
10.0
 40
10.0
 40
11.0
 40
11.0
 40
11.0
 40
12.0
 40
12.0
 40
12.0
 40
13.0
 40
13.0
 40
13.0
 40
14.0
 40
14.0
 40
14.0
 40
15.0
 40
15.0
 40
15.0
 40
16.0
 40
16.0
 40
16.0
 40
17.0
 40
17.0
 40
17.0
 40
18.0
 40
18.0
 40
18.0
 40
18.0
 10
293.2928642387428
 20
-24.59005804506777
 30
0.0
 10
293.6103297877086
 20
-24.79331867869751
 30
0.0
 10
294.346891202455
 20
-25.11078422766328
 30
0.0
 10
295.1215209223134
 20
-25.11078422766328
 30
0.0
 10
296.5564031919198
 20
-25.11078422766328
 30
0.0
 10
297.0008205095171
 20
-24.19645588587797
 30
0.0
 10
296.988245910996
 20
-23.51070962953899
 30
0.0
 10
296.9754990577006
 20
-22.35522460378619
 30
0.0
 10
295.9342189472838
 20
-21.85999212778153
 30
0.0
 10
294.8548705317551
 20
-21.85999212778153
 30
0.0
 10
294.8548705317551
 20
-21.85999212778153
 30
0.0
 10
294.232686287119
 20
-21.85999212778153
 30
0.0
 10
294.232686287119
 20
-21.85999212778153
 30
0.0
 10
294.232686287119
 20
-21.85999212778153
 30
0.0
 10
294.232686287119
 20
-21.02180039622025
 30
0.0
 10
294.232686287119
 20
-21.02180039622025
 30
0.0
 10
294.232686287119
 20
-21.02180039622025
 30
0.0
 10
294.8548705317551
 20
-21.02180039622025
 30
0.0
 10
294.8548705317551
 20
-21.02180039622025
 30
0.0
 10
295.6675685567255
 20
-21.02180039622025
 30
0.0
 10
296.6961018138468
 20
-20.60287678521387
 30
0.0
 10
296.6961018138468
 20
-19.6249864317257
 30
0.0
 10
296.6961018138468
 20
-18.96473388197757
 30
0.0
 10
296.2770059480662
 20
-18.38061794245346
 30
0.0
 10
295.2484726909448
 20
-18.38061794245346
 30
0.0
 10
294.5882201411966
 20
-18.38061794245346
 30
0.0
 10
293.9532890432652
 20
-18.67258978482838
 30
0.0
 10
293.5977551891874
 20
-18.92666557686556
 30
0.0
 10
293.5977551891874
 20
-18.92666557686556
 30
0.0
 10
293.3056110920382
 20
-18.11396755189512
 30
0.0
 10
293.3056110920382
 20
-18.11396755189512
 30
0.0
 10
293.7374538111143
 20
-17.79650200292935
 30
0.0
 10
294.5754732879013
 20
-17.47903645396358
 30
0.0
 10
295.4643079230958
 20
-17.47903645396358
 30
0.0
 10
297.0897039730366
 20
-17.47903645396358
 30
0.0
 10
297.8262653877831
 20
-18.44417995415632
 30
0.0
 10
297.8262653877831
 20
-19.44721950468681
 30
0.0
 10
297.8262653877831
 20
-20.29798583476925
 30
0.0
 10
297.318286058483
 20
-21.02180039622025
 30
0.0
 10
296.302499654657
 20
-21.39008110359345
 30
0.0
 10
296.302499654657
 20
-21.39008110359345
 30
0.0
 10
296.302499654657
 20
-21.4155748101843
 30
0.0
 10
296.302499654657
 20
-21.4155748101843
 30
0.0
 10
297.318286058483
 20
-21.61866318903978
 30
0.0
 10
298.1437309367488
 20
-22.38054605560278
 30
0.0
 10
298.1437309367488
 20
-23.53620333612984
 30
0.0
 10
298.1437309367488
 20
-24.85688069040036
 30
0.0
 10
297.1151976796274
 20
-26.01236571615316
 30
0.0
 10
295.1342677756088
 20
-26.01236571615316
 30
0.0
 10
294.2071925805281
 20
-26.01236571615316
 30
0.0
 10
293.3944945555576
 20
-25.72022161900397
 30
0.0
 10
292.9881455430723
 20
-25.45357122844564
 30
0.0
 10
292.9881455430723
 20
-25.45357122844564
 30
0.0
 10
293.2928642387428
 20
-24.59005804506777
 30
0.0
 10
293.2928642387428
 20
-24.59005804506777
 30
0.0
  0
HATCH
  5
C6
330
BF
100
AcDbEntity
  8
Livello 1
 62
   250
420
  1842203
100
AcDbHatch
 10
0.0
 20
0.0
 30
0.0
210
0.0
220
0.0
230
1.0
  2
SOLID
 70
     1
 71
     0
 91
        1
 92
        1
 93
        1
 72
     4
 94
        3
 73
     0
 74
     0
 95
       59
 96
       55
 40
0.0
 40
0.0
 40
0.0
 40
0.0
 40
1.0
 40
1.0
 40
1.0
 40
2.0
 40
2.0
 40
2.0
 40
3.0
 40
3.0
 40
3.0
 40
4.0
 40
4.0
 40
4.0
 40
5.0
 40
5.0
 40
5.0
 40
6.0
 40
6.0
 40
6.0
 40
7.0
 40
7.0
 40
7.0
 40
8.0
 40
8.0
 40
8.0
 40
9.0
 40
9.0
 40
9.0
 40
10.0
 40
10.0
 40
10.0
 40
11.0
 40
11.0
 40
11.0
 40
12.0
 40
12.0
 40
12.0
 40
13.0
 40
13.0
 40
13.0
 40
14.0
 40
14.0
 40
14.0
 40
15.0
 40
15.0
 40
15.0
 40
16.0
 40
16.0
 40
16.0
 40
17.0
 40
17.0
 40
17.0
 40
18.0
 40
18.0
 40
18.0
 40
18.0
 10
293.2928642387428
 20
-24.59005804506777
 10
293.6103297877086
 20
-24.79331867869751
 10
294.346891202455
 20
-25.11078422766328
 10
295.1215209223134
 20
-25.11078422766328
 10
296.5564031919198
 20
-25.11078422766328
 10
297.0008205095171
 20
-24.19645588587797
 10
296.988245910996
 20
-23.51070962953899
 10
296.9754990577006
 20
-22.35522460378619
 10
295.9342189472838
 20
-21.85999212778153
 10
294.8548705317551
 20
-21.85999212778153
 10
294.8548705317551
 20
-21.85999212778153
 10
294.232686287119
 20
-21.85999212778153
 10
294.232686287119
 20
-21.85999212778153
 10
294.232686287119
 20
-21.85999212778153
 10
294.232686287119
 20
-21.02180039622025
 10
294.232686287119
 20
-21.02180039622025
 10
294.232686287119
 20
-21.02180039622025
 10
294.8548705317551
 20
-21.02180039622025
 10
294.8548705317551
 20
-21.02180039622025
 10
295.6675685567255
 20
-21.02180039622025
 10
296.6961018138468
 20
-20.60287678521387
 10
296.6961018138468
 20
-19.6249864317257
 10
296.6961018138468
 20
-18.96473388197757
 10
296.2770059480662
 20
-18.38061794245346
 10
295.2484726909448
 20
-18.38061794245346
 10
294.5882201411966
 20
-18.38061794245346
 10
293.9532890432652
 20
-18.67258978482838
 10
293.5977551891874
 20
-18.92666557686556
 10
293.5977551891874
 20
-18.92666557686556
 10
293.3056110920382
 20
-18.11396755189512
 10
293.3056110920382
 20
-18.11396755189512
 10
293.7374538111143
 20
-17.79650200292935
 10
294.5754732879013
 20
-17.47903645396358
 10
295.4643079230958
 20
-17.47903645396358
 10
297.0897039730366
 20
-17.47903645396358
 10
297.8262653877831
 20
-18.44417995415632
 10
297.8262653877831
 20
-19.44721950468681
 10
297.8262653877831
 20
-20.29798583476925
 10
297.318286058483
 20
-21.02180039622025
 10
296.302499654657
 20
-21.39008110359345
 10
296.302499654657
 20
-21.39008110359345
 10
296.302499654657
 20
-21.4155748101843
 10
296.302499654657
 20
-21.4155748101843
 10
297.318286058483
 20
-21.61866318903978
 10
298.1437309367488
 20
-22.38054605560278
 10
298.1437309367488
 20
-23.53620333612984
 10
298.1437309367488
 20
-24.85688069040036
 10
297.1151976796274
 20
-26.01236571615316
 10
295.1342677756088
 20
-26.01236571615316
 10
294.2071925805281
 20
-26.01236571615316
 10
293.3944945555576
 20
-25.72022161900397
 10
292.9881455430723
 20
-25.45357122844564
 10
292.9881455430723
 20
-25.45357122844564
 10
293.2928642387428
 20
-24.59005804506777
 10
293.2928642387428
 20
-24.59005804506777
 97
        0
 97
        0
 75
     2
 76
     1
 98
        0
450
        0
451
        0
460
0.0
461
0.0
452
        0
462
0.0
453
        0
470

  0
SPLINE
  5
C7
330
BF
100
AcDbEntity
  8
Livello 1
370
     0
100
AcDbSpline
210
0.0
220
0.0
230
1.0
 70
    11
 71
     3
 72
    59
 73
    55
 74
     0
 42
0.000000001
 43
0.0000000001
 40
0.0
 40
0.0
 40
0.0
 40
0.0
 40
1.0
 40
1.0
 40
1.0
 40
2.0
 40
2.0
 40
2.0
 40
3.0
 40
3.0
 40
3.0
 40
4.0
 40
4.0
 40
4.0
 40
5.0
 40
5.0
 40
5.0
 40
6.0
 40
6.0
 40
6.0
 40
7.0
 40
7.0
 40
7.0
 40
8.0
 40
8.0
 40
8.0
 40
9.0
 40
9.0
 40
9.0
 40
10.0
 40
10.0
 40
10.0
 40
11.0
 40
11.0
 40
11.0
 40
12.0
 40
12.0
 40
12.0
 40
13.0
 40
13.0
 40
13.0
 40
14.0
 40
14.0
 40
14.0
 40
15.0
 40
15.0
 40
15.0
 40
16.0
 40
16.0
 40
16.0
 40
17.0
 40
17.0
 40
17.0
 40
18.0
 40
18.0
 40
18.0
 40
18.0
 10
303.1096638239622
 20
-19.72661674854057
 30
0.0
 10
303.1096638239622
 20
-19.72661674854057
 30
0.0
 10
303.9859238606354
 20
-21.04729410281109
 30
0.0
 10
303.9859238606354
 20
-21.04729410281109
 30
0.0
 10
304.2143336913076
 20
-21.39008110359345
 30
0.0
 10
304.4048474716419
 20
-21.70754665255923
 30
0.0
 10
304.6081081052716
 20
-22.05050590811584
 30
0.0
 10
304.6081081052716
 20
-22.05050590811584
 30
0.0
 10
304.6461764103836
 20
-22.05050590811584
 30
0.0
 10
304.6461764103836
 20
-22.05050590811584
 30
0.0
 10
304.8492647892391
 20
-21.68222520074264
 30
0.0
 10
305.0525254228688
 20
-21.36475965177687
 30
0.0
 10
305.2556138017243
 20
-21.03454724951567
 30
0.0
 10
305.2556138017243
 20
-21.03454724951567
 30
0.0
 10
306.1191269851022
 20
-19.72661674854057
 30
0.0
 10
306.1191269851022
 20
-19.72661674854057
 30
0.0
 10
306.1191269851022
 20
-19.72661674854057
 30
0.0
 10
307.3255994240367
 20
-19.72661674854057
 30
0.0
 10
307.3255994240367
 20
-19.72661674854057
 30
0.0
 10
307.3255994240367
 20
-19.72661674854057
 30
0.0
 10
305.2302923499077
 20
-22.69801160456855
 30
0.0
 10
305.2302923499077
 20
-22.69801160456855
 30
0.0
 10
305.2302923499077
 20
-22.69801160456855
 30
0.0
 10
307.3889891809653
 20
-25.87266709422628
 30
0.0
 10
307.3889891809653
 20
-25.87266709422628
 30
0.0
 10
307.3889891809653
 20
-25.87266709422628
 30
0.0
 10
306.1191269851022
 20
-25.87266709422628
 30
0.0
 10
306.1191269851022
 20
-25.87266709422628
 30
0.0
 10
306.1191269851022
 20
-25.87266709422628
 30
0.0
 10
305.2175454966123
 20
-24.48859998302716
 30
0.0
 10
305.2175454966123
 20
-24.48859998302716
 30
0.0
 10
304.9763888126448
 20
-24.13306612894937
 30
0.0
 10
304.7731281790151
 20
-23.79010687339275
 30
0.0
 10
304.5572929468642
 20
-23.42182616601955
 30
0.0
 10
304.5572929468642
 20
-23.42182616601955
 30
0.0
 10
304.5317992402733
 20
-23.42182616601955
 30
0.0
 10
304.5317992402733
 20
-23.42182616601955
 30
0.0
 10
304.3287108614178
 20
-23.79010687339275
 30
0.0
 10
304.1128756292669
 20
-24.12031927565395
 30
0.0
 10
303.8842935438206
 20
-24.48859998302716
 30
0.0
 10
303.8842935438206
 20
-24.48859998302716
 30
0.0
 10
302.9952866538519
 20
-25.87266709422628
 30
0.0
 10
302.9952866538519
 20
-25.87266709422628
 30
0.0
 10
302.9952866538519
 20
-25.87266709422628
 30
0.0
 10
301.763665017875
 20
-25.87266709422628
 30
0.0
 10
301.763665017875
 20
-25.87266709422628
 30
0.0
 10
301.763665017875
 20
-25.87266709422628
 30
0.0
 10
303.9476833007492
 20
-22.73607990968057
 30
0.0
 10
303.9476833007492
 20
-22.73607990968057
 30
0.0
 10
303.9476833007492
 20
-22.73607990968057
 30
0.0
 10
301.8652953346899
 20
-19.72661674854057
 30
0.0
 10
301.8652953346899
 20
-19.72661674854057
 30
0.0
 10
301.8652953346899
 20
-19.72661674854057
 30
0.0
 10
303.1096638239622
 20
-19.72661674854057
 30
0.0
 10
303.1096638239622
 20
-19.72661674854057
 30
0.0
  0
HATCH
  5
C8
330
BF
100
AcDbEntity
  8
Livello 1
 62
   250
420
  1842203
100
AcDbHatch
 10
0.0
 20
0.0
 30
0.0
210
0.0
220
0.0
230
1.0
  2
SOLID
 70
     1
 71
     0
 91
        1
 92
        1
 93
        1
 72
     4
 94
        3
 73
     0
 74
     0
 95
       59
 96
       55
 40
0.0
 40
0.0
 40
0.0
 40
0.0
 40
1.0
 40
1.0
 40
1.0
 40
2.0
 40
2.0
 40
2.0
 40
3.0
 40
3.0
 40
3.0
 40
4.0
 40
4.0
 40
4.0
 40
5.0
 40
5.0
 40
5.0
 40
6.0
 40
6.0
 40
6.0
 40
7.0
 40
7.0
 40
7.0
 40
8.0
 40
8.0
 40
8.0
 40
9.0
 40
9.0
 40
9.0
 40
10.0
 40
10.0
 40
10.0
 40
11.0
 40
11.0
 40
11.0
 40
12.0
 40
12.0
 40
12.0
 40
13.0
 40
13.0
 40
13.0
 40
14.0
 40
14.0
 40
14.0
 40
15.0
 40
15.0
 40
15.0
 40
16.0
 40
16.0
 40
16.0
 40
17.0
 40
17.0
 40
17.0
 40
18.0
 40
18.0
 40
18.0
 40
18.0
 10
303.1096638239622
 20
-19.72661674854057
 10
303.1096638239622
 20
-19.72661674854057
 10
303.9859238606354
 20
-21.04729410281109
 10
303.9859238606354
 20
-21.04729410281109
 10
304.2143336913076
 20
-21.39008110359345
 10
304.4048474716419
 20
-21.70754665255923
 10
304.6081081052716
 20
-22.05050590811584
 10
304.6081081052716
 20
-22.05050590811584
 10
304.6461764103836
 20
-22.05050590811584
 10
304.6461764103836
 20
-22.05050590811584
 10
304.8492647892391
 20
-21.68222520074264
 10
305.0525254228688
 20
-21.36475965177687
 10
305.2556138017243
 20
-21.03454724951567
 10
305.2556138017243
 20
-21.03454724951567
 10
306.1191269851022
 20
-19.72661674854057
 10
306.1191269851022
 20
-19.72661674854057
 10
306.1191269851022
 20
-19.72661674854057
 10
307.3255994240367
 20
-19.72661674854057
 10
307.3255994240367
 20
-19.72661674854057
 10
307.3255994240367
 20
-19.72661674854057
 10
305.2302923499077
 20
-22.69801160456855
 10
305.2302923499077
 20
-22.69801160456855
 10
305.2302923499077
 20
-22.69801160456855
 10
307.3889891809653
 20
-25.87266709422628
 10
307.3889891809653
 20
-25.87266709422628
 10
307.3889891809653
 20
-25.87266709422628
 10
306.1191269851022
 20
-25.87266709422628
 10
306.1191269851022
 20
-25.87266709422628
 10
306.1191269851022
 20
-25.87266709422628
 10
305.2175454966123
 20
-24.48859998302716
 10
305.2175454966123
 20
-24.48859998302716
 10
304.9763888126448
 20
-24.13306612894937
 10
304.7731281790151
 20
-23.79010687339275
 10
304.5572929468642
 20
-23.42182616601955
 10
304.5572929468642
 20
-23.42182616601955
 10
304.5317992402733
 20
-23.42182616601955
 10
304.5317992402733
 20
-23.42182616601955
 10
304.3287108614178
 20
-23.79010687339275
 10
304.1128756292669
 20
-24.12031927565395
 10
303.8842935438206
 20
-24.48859998302716
 10
303.8842935438206
 20
-24.48859998302716
 10
302.9952866538519
 20
-25.87266709422628
 10
302.9952866538519
 20
-25.87266709422628
 10
302.9952866538519
 20
-25.87266709422628
 10
301.763665017875
 20
-25.87266709422628
 10
301.763665017875
 20
-25.87266709422628
 10
301.763665017875
 20
-25.87266709422628
 10
303.9476833007492
 20
-22.73607990968057
 10
303.9476833007492
 20
-22.73607990968057
 10
303.9476833007492
 20
-22.73607990968057
 10
301.8652953346899
 20
-19.72661674854057
 10
301.8652953346899
 20
-19.72661674854057
 10
301.8652953346899
 20
-19.72661674854057
 10
303.1096638239622
 20
-19.72661674854057
 10
303.1096638239622
 20
-19.72661674854057
 97
        0
 97
        0
 75
     2
 76
     1
 98
        0
450
        0
451
        0
460
0.0
461
0.0
452
        0
462
0.0
453
        0
470

  0
SPLINE
  5
C9
330
BF
100
AcDbEntity
  8
Livello 1
370
     0
100
AcDbSpline
210
0.0
220
0.0
230
1.0
 70
     9
 71
     3
 72
    38
 73
    34
 74
     0
 42
0.000000001
 43
0.0000000001
 40
0.0
 40
0.0
 40
0.0
 40
0.0
 40
1.0
 40
1.0
 40
1.0
 40
2.0
 40
2.0
 40
2.0
 40
3.0
 40
3.0
 40
3.0
 40
4.0
 40
4.0
 40
4.0
 40
5.0
 40
5.0
 40
5.0
 40
6.0
 40
6.0
 40
6.0
 40
7.0
 40
7.0
 40
7.0
 40
8.0
 40
8.0
 40
8.0
 40
9.0
 40
9.0
 40
9.0
 40
10.0
 40
10.0
 40
10.0
 40
11.0
 40
11.0
 40
11.0
 40
11.0
 10
315.5170029593151
 20
-18.40593939427004
 30
0.0
 10
315.2884208738689
 20
-18.39336479574888
 30
0.0
 10
314.9964490314939
 20
-18.40593939427004
 30
0.0
 10
314.6789834825282
 20
-18.45675455267748
 30
0.0
 10
312.9264634091816
 20
-18.74889864982666
 30
0.0
 10
311.9995604688751
 20
-20.03133544421093
 30
0.0
 10
311.8090466885408
 20
-21.39008110359345
 30
0.0
 10
311.8090466885408
 20
-21.39008110359345
 30
0.0
 10
311.8471149936528
 20
-21.39008110359345
 30
0.0
 10
311.8471149936528
 20
-21.39008110359345
 30
0.0
 10
312.2408894076169
 20
-20.8695271757722
 30
0.0
 10
312.9264634091816
 20
-20.43768445669614
 30
0.0
 10
313.8407917509669
 20
-20.43768445669614
 30
0.0
 10
315.3011677271643
 20
-20.43768445669614
 30
0.0
 10
316.3297009842856
 20
-21.49171142040832
 30
0.0
 10
316.3297009842856
 20
-23.10436061705377
 30
0.0
 10
316.3297009842856
 20
-24.61555175165861
 30
0.0
 10
315.3011677271643
 20
-26.01236571615316
 30
0.0
 10
313.586888213704
 20
-26.01236571615316
 30
0.0
 10
311.8217935418363
 20
-26.01236571615316
 30
0.0
 10
310.6661362613092
 20
-24.6408732034752
 30
0.0
 10
310.6661362613092
 20
-22.49492322571308
 30
0.0
 10
310.6661362613092
 20
-20.8695271757722
 30
0.0
 10
311.2504244556076
 20
-19.58691812661369
 30
0.0
 10
312.063122480578
 20
-18.77422010164325
 30
0.0
 10
312.7486964821427
 20
-18.1012206985997
 30
0.0
 10
313.663024823928
 20
-17.68212483281905
 30
0.0
 10
314.7043049343447
 20
-17.5551730641876
 30
0.0
 10
315.034517336606
 20
-17.50435790578016
 30
0.0
 10
315.3139145804597
 20
-17.491783307259
 30
0.0
 10
315.5170029593151
 20
-17.491783307259
 30
0.0
 10
315.5170029593151
 20
-17.491783307259
 30
0.0
 10
315.5170029593151
 20
-18.40593939427004
 30
0.0
 10
315.5170029593151
 20
-18.40593939427004
 30
0.0
  0
SPLINE
  5
CA
330
BF
100
AcDbEntity
  8
Livello 1
370
     0
100
AcDbSpline
210
0.0
220
0.0
230
1.0
 70
    11
 71
     3
 72
    20
 73
    16
 74
     0
 42
0.000000001
 43
0.0000000001
 40
0.0
 40
0.0
 40
0.0
 40
0.0
 40
1.0
 40
1.0
 40
1.0
 40
2.0
 40
2.0
 40
2.0
 40
3.0
 40
3.0
 40
3.0
 40
4.0
 40
4.0
 40
4.0
 40
5.0
 40
5.0
 40
5.0
 40
5.0
 10
315.1995374103494
 20
-23.16792262875663
 30
0.0
 10
315.1995374103494
 20
-21.98694389641299
 30
0.0
 10
314.5265380073059
 20
-21.27587618825742
 30
0.0
 10
313.4980047501845
 20
-21.27587618825742
 30
0.0
 10
312.825005347141
 20
-21.27587618825742
 30
0.0
 10
312.2026488477307
 20
-21.69497205403806
 30
0.0
 10
311.8979301520603
 20
-22.29166259208333
 30
0.0
 10
311.8217935418363
 20
-22.41878661548905
 30
0.0
 10
311.7709783834288
 20
-22.58380668923252
 30
0.0
 10
311.7709783834288
 20
-22.786895068088
 30
0.0
 10
311.7962998352453
 20
-24.14564072747054
 30
0.0
 10
312.4186563346558
 20
-25.14885253277529
 30
0.0
 10
313.586888213704
 20
-25.14885253277529
 30
0.0
 10
314.5518594591225
 20
-25.14885253277529
 30
0.0
 10
315.1995374103494
 20
-24.34890136110027
 30
0.0
 10
315.1995374103494
 20
-23.16792262875663
 30
0.0
  0
HATCH
  5
CB
330
BF
100
AcDbEntity
  8
Livello 1
 62
   250
420
  1842203
100
AcDbHatch
 10
0.0
 20
0.0
 30
0.0
210
0.0
220
0.0
230
1.0
  2
SOLID
 70
     1
 71
     0
 91
        2
 92
        1
 93
        1
 72
     4
 94
        3
 73
     0
 74
     0
 95
       38
 96
       34
 40
0.0
 40
0.0
 40
0.0
 40
0.0
 40
1.0
 40
1.0
 40
1.0
 40
2.0
 40
2.0
 40
2.0
 40
3.0
 40
3.0
 40
3.0
 40
4.0
 40
4.0
 40
4.0
 40
5.0
 40
5.0
 40
5.0
 40
6.0
 40
6.0
 40
6.0
 40
7.0
 40
7.0
 40
7.0
 40
8.0
 40
8.0
 40
8.0
 40
9.0
 40
9.0
 40
9.0
 40
10.0
 40
10.0
 40
10.0
 40
11.0
 40
11.0
 40
11.0
 40
11.0
 10
315.5170029593151
 20
-18.40593939427004
 10
315.2884208738689
 20
-18.39336479574888
 10
314.9964490314939
 20
-18.40593939427004
 10
314.6789834825282
 20
-18.45675455267748
 10
312.9264634091816
 20
-18.74889864982666
 10
311.9995604688751
 20
-20.03133544421093
 10
311.8090466885408
 20
-21.39008110359345
 10
311.8090466885408
 20
-21.39008110359345
 10
311.8471149936528
 20
-21.39008110359345
 10
311.8471149936528
 20
-21.39008110359345
 10
312.2408894076169
 20
-20.8695271757722
 10
312.9264634091816
 20
-20.43768445669614
 10
313.8407917509669
 20
-20.43768445669614
 10
315.3011677271643
 20
-20.43768445669614
 10
316.3297009842856
 20
-21.49171142040832
 10
316.3297009842856
 20
-23.10436061705377
 10
316.3297009842856
 20
-24.61555175165861
 10
315.3011677271643
 20
-26.01236571615316
 10
313.586888213704
 20
-26.01236571615316
 10
311.8217935418363
 20
-26.01236571615316
 10
310.6661362613092
 20
-24.6408732034752
 10
310.6661362613092
 20
-22.49492322571308
 10
310.6661362613092
 20
-20.8695271757722
 10
311.2504244556076
 20
-19.58691812661369
 10
312.063122480578
 20
-18.77422010164325
 10
312.7486964821427
 20
-18.1012206985997
 10
313.663024823928
 20
-17.68212483281905
 10
314.7043049343447
 20
-17.5551730641876
 10
315.034517336606
 20
-17.50435790578016
 10
315.3139145804597
 20
-17.491783307259
 10
315.5170029593151
 20
-17.491783307259
 10
315.5170029593151
 20
-17.491783307259
 10
315.5170029593151
 20
-18.40593939427004
 10
315.5170029593151
 20
-18.40593939427004
 97
        0
 97
        0
 92
        1
 93
        1
 72
     4
 94
        3
 73
     0
 74
     0
 95
       20
 96
       16
 40
0.0
 40
0.0
 40
0.0
 40
0.0
 40
1.0
 40
1.0
 40
1.0
 40
2.0
 40
2.0
 40
2.0
 40
3.0
 40
3.0
 40
3.0
 40
4.0
 40
4.0
 40
4.0
 40
5.0
 40
5.0
 40
5.0
 40
5.0
 10
315.1995374103494
 20
-23.16792262875663
 10
315.1995374103494
 20
-21.98694389641299
 10
314.5265380073059
 20
-21.27587618825742
 10
313.4980047501845
 20
-21.27587618825742
 10
312.825005347141
 20
-21.27587618825742
 10
312.2026488477307
 20
-21.69497205403806
 10
311.8979301520603
 20
-22.29166259208333
 10
311.8217935418363
 20
-22.41878661548905
 10
311.7709783834288
 20
-22.58380668923252
 10
311.7709783834288
 20
-22.786895068088
 10
311.7962998352453
 20
-24.14564072747054
 10
312.4186563346558
 20
-25.14885253277529
 10
313.586888213704
 20
-25.14885253277529
 10
314.5518594591225
 20
-25.14885253277529
 10
315.1995374103494
 20
-24.34890136110027
 10
315.1995374103494
 20
-23.16792262875663
 97
        0
 97
        0
 75
     2
 76
     1
 98
        0
450
        0
451
        0
460
0.0
461
0.0
452
        0
462
0.0
453
        0
470

  0
SPLINE
  5
CC
330
BF
100
AcDbEntity
  8
Livello 1
370
     0
100
AcDbSpline
210
0.0
220
0.0
230
1.0
 70
     9
 71
     3
 72
    17
 73
    13
 74
     0
 42
0.000000001
 43
0.0000000001
 40
0.0
 40
0.0
 40
0.0
 40
0.0
 40
1.0
 40
1.0
 40
1.0
 40
2.0
 40
2.0
 40
2.0
 40
3.0
 40
3.0
 40
3.0
 40
4.0
 40
4.0
 40
4.0
 40
4.0
 10
316.9524019932446
 20
-27.43450113246429
 30
0.0
 10
317.2317992370983
 20
-26.68536511919671
 30
0.0
 10
317.574758492655
 20
-25.32661945981419
 30
0.0
 10
317.7144571145818
 20
-24.39971651950771
 30
0.0
 10
317.7144571145818
 20
-24.39971651950771
 30
0.0
 10
318.9588256038542
 20
-24.27259249610199
 30
0.0
 10
318.9588256038542
 20
-24.27259249610199
 30
0.0
 10
318.6668537614792
 20
-25.35211316640503
 30
0.0
 10
318.1080592737716
 20
-26.76150172942074
 30
0.0
 10
317.7525254196938
 20
-27.35836452224027
 30
0.0
 10
317.7525254196938
 20
-27.35836452224027
 30
0.0
 10
316.9524019932446
 20
-27.43450113246429
 30
0.0
 10
316.9524019932446
 20
-27.43450113246429
 30
0.0
  0
HATCH
  5
CD
330
BF
100
AcDbEntity
  8
Livello 1
 62
   250
420
  1842203
100
AcDbHatch
 10
0.0
 20
0.0
 30
0.0
210
0.0
220
0.0
230
1.0
  2
SOLID
 70
     1
 71
     0
 91
        1
 92
        1
 93
        1
 72
     4
 94
        3
 73
     0
 74
     0
 95
       17
 96
       13
 40
0.0
 40
0.0
 40
0.0
 40
0.0
 40
1.0
 40
1.0
 40
1.0
 40
2.0
 40
2.0
 40
2.0
 40
3.0
 40
3.0
 40
3.0
 40
4.0
 40
4.0
 40
4.0
 40
4.0
 10
316.9524019932446
 20
-27.43450113246429
 10
317.2317992370983
 20
-26.68536511919671
 10
317.574758492655
 20
-25.32661945981419
 10
317.7144571145818
 20
-24.39971651950771
 10
317.7144571145818
 20
-24.39971651950771
 10
318.9588256038542
 20
-24.27259249610199
 10
318.9588256038542
 20
-24.27259249610199
 10
318.6668537614792
 20
-25.35211316640503
 10
318.1080592737716
 20
-26.76150172942074
 10
317.7525254196938
 20
-27.35836452224027
 10
317.7525254196938
 20
-27.35836452224027
 10
316.9524019932446
 20
-27.43450113246429
 10
316.9524019932446
 20
-27.43450113246429
 97
        0
 97
        0
 75
     2
 76
     1
 98
        0
450
        0
451
        0
460
0.0
461
0.0
452
        0
462
0.0
453
        0
470

  0
SPLINE
  5
CE
330
BF
100
AcDbEntity
  8
Livello 1
370
     0
100
AcDbSpline
210
0.0
220
0.0
230
1.0
 70
    11
 71
     3
 72
    50
 73
    46
 74
     0
 42
0.000000001
 43
0.0000000001
 40
0.0
 40
0.0
 40
0.0
 40
0.0
 40
1.0
 40
1.0
 40
1.0
 40
2.0
 40
2.0
 40
2.0
 40
3.0
 40
3.0
 40
3.0
 40
4.0
 40
4.0
 40
4.0
 40
5.0
 40
5.0
 40
5.0
 40
6.0
 40
6.0
 40
6.0
 40
7.0
 40
7.0
 40
7.0
 40
8.0
 40
8.0
 40
8.0
 40
9.0
 40
9.0
 40
9.0
 40
10.0
 40
10.0
 40
10.0
 40
11.0
 40
11.0
 40
11.0
 40
12.0
 40
12.0
 40
12.0
 40
13.0
 40
13.0
 40
13.0
 40
14.0
 40
14.0
 40
14.0
 40
15.0
 40
15.0
 40
15.0
 40
15.0
 10
324.8762938640934
 20
-18.55838486949235
 30
0.0
 10
324.8762938640934
 20
-18.55838486949235
 30
0.0
 10
321.7271320810267
 20
-18.55838486949235
 30
0.0
 10
321.7271320810267
 20
-18.55838486949235
 30
0.0
 10
321.7271320810267
 20
-18.55838486949235
 30
0.0
 10
321.4098387868351
 20
-20.67901339543789
 30
0.0
 10
321.4098387868351
 20
-20.67901339543789
 30
0.0
 10
321.6003525671693
 20
-20.6536919436213
 30
0.0
 10
321.7781194942083
 20
-20.62819823703045
 30
0.0
 10
322.0826659351043
 20
-20.62819823703045
 30
0.0
 10
322.7175970330359
 20
-20.62819823703045
 30
0.0
 10
323.3525281309673
 20
-20.76789685895733
 30
0.0
 10
323.8606797150418
 20
-21.07261555462768
 30
0.0
 10
324.5080131567202
 20
-21.44089626200089
 30
0.0
 10
325.0416584473854
 20
-22.15196397015646
 30
0.0
 10
325.0416584473854
 20
-23.19324408057322
 30
0.0
 10
325.0416584473854
 20
-24.80606553199293
 30
0.0
 10
323.7590493982269
 20
-26.01236571615316
 30
0.0
 10
321.9686332745427
 20
-26.01236571615316
 30
0.0
 10
321.0670517860527
 20
-26.01236571615316
 30
0.0
 10
320.3049966647153
 20
-25.75846217889025
 30
0.0
 10
319.9113945055257
 20
-25.50438638685307
 30
0.0
 10
319.9113945055257
 20
-25.50438638685307
 30
0.0
 10
320.1907917493794
 20
-24.65362005677062
 30
0.0
 10
320.1907917493794
 20
-24.65362005677062
 30
0.0
 10
320.5334064953875
 20
-24.85688069040036
 30
0.0
 10
321.2065781532053
 20
-25.11078422766328
 30
0.0
 10
321.9558864212471
 20
-25.11078422766328
 30
0.0
 10
323.0097411301851
 20
-25.11078422766328
 30
0.0
 10
323.9113226186749
 20
-24.4250379713243
 30
0.0
 10
323.9113226186749
 20
-23.32036810397894
 30
0.0
 10
323.8985757653795
 20
-22.25359428697132
 30
0.0
 10
323.187508057224
 20
-21.49171142040832
 30
0.0
 10
321.5366183006922
 20
-21.49171142040832
 30
0.0
 10
321.0670517860527
 20
-21.49171142040832
 30
0.0
 10
320.6987710786795
 20
-21.54252657881576
 30
0.0
 10
320.3938801282348
 20
-21.58059488392777
 30
0.0
 10
320.3938801282348
 20
-21.58059488392777
 30
0.0
 10
320.9271809093515
 20
-17.61873507589046
 30
0.0
 10
320.9271809093515
 20
-17.61873507589046
 30
0.0
 10
320.9271809093515
 20
-17.61873507589046
 30
0.0
 10
324.8762938640934
 20
-17.61873507589046
 30
0.0
 10
324.8762938640934
 20
-17.61873507589046
 30
0.0
 10
324.8762938640934
 20
-17.61873507589046
 30
0.0
 10
324.8762938640934
 20
-18.55838486949235
 30
0.0
 10
324.8762938640934
 20
-18.55838486949235
 30
0.0
  0
HATCH
  5
CF
330
BF
100
AcDbEntity
  8
Livello 1
 62
   250
420
  1842203
100
AcDbHatch
 10
0.0
 20
0.0
 30
0.0
210
0.0
220
0.0
230
1.0
  2
SOLID
 70
     1
 71
     0
 91
        1
 92
        1
 93
        1
 72
     4
 94
        3
 73
     0
 74
     0
 95
       50
 96
       46
 40
0.0
 40
0.0
 40
0.0
 40
0.0
 40
1.0
 40
1.0
 40
1.0
 40
2.0
 40
2.0
 40
2.0
 40
3.0
 40
3.0
 40
3.0
 40
4.0
 40
4.0
 40
4.0
 40
5.0
 40
5.0
 40
5.0
 40
6.0
 40
6.0
 40
6.0
 40
7.0
 40
7.0
 40
7.0
 40
8.0
 40
8.0
 40
8.0
 40
9.0
 40
9.0
 40
9.0
 40
10.0
 40
10.0
 40
10.0
 40
11.0
 40
11.0
 40
11.0
 40
12.0
 40
12.0
 40
12.0
 40
13.0
 40
13.0
 40
13.0
 40
14.0
 40
14.0
 40
14.0
 40
15.0
 40
15.0
 40
15.0
 40
15.0
 10
324.8762938640934
 20
-18.55838486949235
 10
324.8762938640934
 20
-18.55838486949235
 10
321.7271320810267
 20
-18.55838486949235
 10
321.7271320810267
 20
-18.55838486949235
 10
321.7271320810267
 20
-18.55838486949235
 10
321.4098387868351
 20
-20.67901339543789
 10
321.4098387868351
 20
-20.67901339543789
 10
321.6003525671693
 20
-20.6536919436213
 10
321.7781194942083
 20
-20.62819823703045
 10
322.0826659351043
 20
-20.62819823703045
 10
322.7175970330359
 20
-20.62819823703045
 10
323.3525281309673
 20
-20.76789685895733
 10
323.8606797150418
 20
-21.07261555462768
 10
324.5080131567202
 20
-21.44089626200089
 10
325.0416584473854
 20
-22.15196397015646
 10
325.0416584473854
 20
-23.19324408057322
 10
325.0416584473854
 20
-24.80606553199293
 10
323.7590493982269
 20
-26.01236571615316
 10
321.9686332745427
 20
-26.01236571615316
 10
321.0670517860527
 20
-26.01236571615316
 10
320.3049966647153
 20
-25.75846217889025
 10
319.9113945055257
 20
-25.50438638685307
 10
319.9113945055257
 20
-25.50438638685307
 10
320.1907917493794
 20
-24.65362005677062
 10
320.1907917493794
 20
-24.65362005677062
 10
320.5334064953875
 20
-24.85688069040036
 10
321.2065781532053
 20
-25.11078422766328
 10
321.9558864212471
 20
-25.11078422766328
 10
323.0097411301851
 20
-25.11078422766328
 10
323.9113226186749
 20
-24.4250379713243
 10
323.9113226186749
 20
-23.32036810397894
 10
323.8985757653795
 20
-22.25359428697132
 10
323.187508057224
 20
-21.49171142040832
 10
321.5366183006922
 20
-21.49171142040832
 10
321.0670517860527
 20
-21.49171142040832
 10
320.6987710786795
 20
-21.54252657881576
 10
320.3938801282348
 20
-21.58059488392777
 10
320.3938801282348
 20
-21.58059488392777
 10
320.9271809093515
 20
-17.61873507589046
 10
320.9271809093515
 20
-17.61873507589046
 10
320.9271809093515
 20
-17.61873507589046
 10
324.8762938640934
 20
-17.61873507589046
 10
324.8762938640934
 20
-17.61873507589046
 10
324.8762938640934
 20
-17.61873507589046
 10
324.8762938640934
 20
-18.55838486949235
 10
324.8762938640934
 20
-18.55838486949235
 97
        0
 97
        0
 75
     2
 76
     1
 98
        0
450
        0
451
        0
460
0.0
461
0.0
452
        0
462
0.0
453
        0
470

  0
ENDBLK
  5
C2
330
BF
100
AcDbEntity
  8
0
100
AcDbBlockEnd
  0
ENDSEC
  0
SECTION
  2
ENTITIES
  0
LINE
  5
102
330
1F
100
AcDbEntity
  8
Livello 1
100
AcDbLine
 10
371.6601930779805
 20
-145.405436742429
 30
0.0
 11
261.660204217647
 21
-145.405436742429
 31
0.0
  0
LINE
  5
103
330
1F
100
AcDbEntity
  8
Livello 1
100
AcDbLine
 10
261.660204217647
 20
-145.405436742429
 30
0.0
 11
261.660204217647
 21
-140.8294503546837
 31
0.0
  0
LINE
  5
104
330
1F
100
AcDbEntity
  8
Livello 1
100
AcDbLine
 10
261.660204217647
 20
-140.8294503546837
 30
0.0
 11
371.6601930779805
 21
-140.8294503546837
 31
0.0
  0
LINE
  5
105
330
1F
100
AcDbEntity
  8
Livello 1
100
AcDbLine
 10
371.6601930779805
 20
-140.8294503546837
 30
0.0
 11
371.6601930779805
 21
-145.405436742429
 31
0.0
  0
LINE
  5
106
330
1F
100
AcDbEntity
  8
Livello 1
100
AcDbLine
 10
320.9720602044758
 20
-40.64384232417478
 30
0.0
 11
289.911953219107
 21
-40.64384232417478
 31
0.0
  0
LINE
  5
107
330
1F
100
AcDbEntity
  8
Livello 1
100
AcDbLine
 10
289.911953219107
 20
-40.64384232417478
 30
0.0
 11
289.911953219107
 21
-35.67457926986171
 31
0.0
  0
LINE
  5
108
330
1F
100
AcDbEntity
  8
Livello 1
100
AcDbLine
 10
289.911953219107
 20
-35.67457926986171
 30
0.0
 11
320.9720602044758
 21
-35.67457926986171
 31
0.0
  0
LINE
  5
109
330
1F
100
AcDbEntity
  8
Livello 1
100
AcDbLine
 10
320.9720602044758
 20
-35.67457926986171
 30
0.0
 11
320.9720602044758
 21
-40.64384232417478
 31
0.0
  0
LINE
  5
10A
330
1F
100
AcDbEntity
  8
Livello 1
100
AcDbLine
 10
274.8044616597904
 20
-140.8294503546837
 30
0.0
 11
274.8044616597904
 21
-38.97993065792419
 31
0.0
  0
LINE
  5
10B
330
1F
100
AcDbEntity
  8
Livello 1
100
AcDbLine
 10
275.4458421992794
 20
-39.03288260235533
 30
0.0
 11
274.16307167645
 21
-39.03288260235533
 31
0.0
  0
LINE
  5
10C
330
1F
100
AcDbEntity
  8
Livello 1
100
AcDbLine
 10
274.16307167645
 20
-39.03288260235533
 30
0.0
 11
274.16307167645
 21
-36.16882093640476
 31
0.0
  0
LINE
  5
10D
330
1F
100
AcDbEntity
  8
Livello 1
100
AcDbLine
 10
274.16307167645
 20
-36.16882093640476
 30
0.0
 11
275.4458421992794
 21
-36.16882093640476
 31
0.0
  0
LINE
  5
10E
330
1F
100
AcDbEntity
  8
Livello 1
100
AcDbLine
 10
275.4458421992794
 20
-36.16882093640476
 30
0.0
 11
275.4458421992794
 21
-39.03288260235533
 31
0.0
  0
LINE
  5
10F
330
1F
100
AcDbEntity
  8
Livello 1
100
AcDbLine
 10
358.5159756355396
 20
-140.3881606325722
 30
0.0
 11
358.5159756355396
 21
-38.53864093581228
 31
0.0
  0
LINE
  5
110
330
1F
100
AcDbEntity
  8
Livello 1
100
AcDbLine
 10
359.1573608969544
 20
-38.53864093581228
 30
0.0
 11
357.8745903741249
 21
-38.53864093581228
 31
0.0
  0
LINE
  5
111
330
1F
100
AcDbEntity
  8
Livello 1
100
AcDbLine
 10
357.8745903741249
 20
-38.53864093581228
 30
0.0
 11
357.8745903741249
 21
-35.67457926986171
 31
0.0
  0
LINE
  5
112
330
1F
100
AcDbEntity
  8
Livello 1
100
AcDbLine
 10
357.8745903741249
 20
-35.67457926986171
 30
0.0
 11
359.1573608969544
 21
-35.67457926986171
 31
0.0
  0
LINE
  5
113
330
1F
100
AcDbEntity
  8
Livello 1
100
AcDbLine
 10
359.1573608969544
 20
-35.67457926986171
 30
0.0
 11
359.1573608969544
 21
-38.53864093581228
 31
0.0
  0
LINE
  5
114
330
1F
100
AcDbEntity
  8
Livello 1
100
AcDbLine
 10
334.2146673666287
 20
-140.388337021461
 30
0.0
 11
333.6734709915469
 21
-140.388337021461
 31
0.0
  0
LINE
  5
115
330
1F
100
AcDbEntity
  8
Livello 1
100
AcDbLine
 10
333.6734709915469
 20
-140.388337021461
 30
0.0
 11
333.6734709915469
 21
-38.53878204692332
 31
0.0
  0
LINE
  5
116
330
1F
100
AcDbEntity
  8
Livello 1
100
AcDbLine
 10
333.6734709915469
 20
-38.53878204692332
 30
0.0
 11
334.2146673666287
 21
-38.53878204692332
 31
0.0
  0
LINE
  5
117
330
1F
100
AcDbEntity
  8
Livello 1
100
AcDbLine
 10
334.2146673666287
 20
-38.53878204692332
 30
0.0
 11
334.2146673666287
 21
-140.388337021461
 31
0.0
  0
LINE
  5
118
330
1F
100
AcDbEntity
  8
Livello 1
100
AcDbLine
 10
334.5855426349447
 20
-38.53864093581228
 30
0.0
 11
333.3027783118316
 21
-38.53864093581228
 31
0.0
  0
LINE
  5
119
330
1F
100
AcDbEntity
  8
Livello 1
100
AcDbLine
 10
333.3027783118316
 20
-38.53864093581228
 30
0.0
 11
333.3027783118316
 21
-35.67457926986171
 31
0.0
  0
LINE
  5
11A
330
1F
100
AcDbEntity
  8
Livello 1
100
AcDbLine
 10
333.3027783118316
 20
-35.67457926986171
 30
0.0
 11
334.5855426349447
 21
-35.67457926986171
 31
0.0
  0
LINE
  5
11B
330
1F
100
AcDbEntity
  8
Livello 1
100
AcDbLine
 10
334.5855426349447
 20
-35.67457926986171
 30
0.0
 11
334.5855426349447
 21
-38.53864093581228
 31
0.0
  0
SPLINE
  5
11C
330
1F
100
AcDbEntity
  8
Livello 1
100
AcDbSpline
210
0.0
220
0.0
230
1.0
 70
     8
 71
     3
 72
     8
 73
     4
 74
     0
 42
0.000000001
 43
0.0000000001
 40
0.0
 40
0.0
 40
0.0
 40
0.0
 40
1.0
 40
1.0
 40
1.0
 40
1.0
 10
307.6644713773136
 20
-52.90593926555381
 30
0.0
 10
305.2922525489451
 20
-52.90593926555381
 30
0.0
 10
303.0694351056539
 20
-52.43381676567172
 30
0.0
 10
301.1284870996161
 20
-51.49309954368483
 30
0.0
  0
SPLINE
  5
11D
330
1F
100
AcDbEntity
  8
Livello 1
100
AcDbSpline
210
0.0
220
0.0
230
1.0
 70
     8
 71
     3
 72
     8
 73
     4
 74
     0
 42
0.000000001
 43
0.0000000001
 40
1.0
 40
1.0
 40
1.0
 40
1.0
 40
2.0
 40
2.0
 40
2.0
 40
2.0
 10
301.1284870996161
 20
-51.49309954368483
 30
0.0
 10
296.9277152623422
 20
-49.45700732197161
 30
0.0
 10
294.2736269967203
 20
-44.98283260086784
 30
0.0
 10
294.8179983717212
 20
-40.85462704634426
 30
0.0
  0
SPLINE
  5
11E
330
1F
100
AcDbEntity
  8
Livello 1
100
AcDbSpline
210
0.0
220
0.0
230
1.0
 70
    24
 71
     3
 72
     8
 73
     4
 74
     0
 42
0.000000001
 43
0.0000000001
 40
2.0
 40
2.0
 40
2.0
 40
2.0
 40
3.0
 40
3.0
 40
3.0
 40
3.0
 10
294.8179983717212
 20
-40.85462704634426
 30
0.0
 10
294.8179983717212
 20
-40.85462704634426
 30
0.0
 10
295.3542205802632
 20
-40.92511204632675
 30
0.0
 10
295.3542205802632
 20
-40.92511204632675
 30
0.0
  0
SPLINE
  5
11F
330
1F
100
AcDbEntity
  8
Livello 1
100
AcDbSpline
210
0.0
220
0.0
230
1.0
 70
     8
 71
     3
 72
     8
 73
     4
 74
     0
 42
0.000000001
 43
0.0000000001
 40
3.0
 40
3.0
 40
3.0
 40
3.0
 40
4.0
 40
4.0
 40
4.0
 40
4.0
 10
295.3542205802632
 20
-40.92511204632675
 30
0.0
 10
294.8398353156085
 20
-44.82923315646169
 30
0.0
 10
297.3674227652603
 20
-49.06874009984623
 30
0.0
 10
301.3645307047052
 20
-51.00619565491749
 30
0.0
  0
SPLINE
  5
120
330
1F
100
AcDbEntity
  8
Livello 1
100
AcDbSpline
210
0.0
220
0.0
230
1.0
 70
     8
 71
     3
 72
     8
 73
     4
 74
     0
 42
0.000000001
 43
0.0000000001
 40
4.0
 40
4.0
 40
4.0
 40
4.0
 40
5.0
 40
5.0
 40
5.0
 40
5.0
 10
301.3645307047052
 20
-51.00619565491749
 30
0.0
 10
304.8141681166976
 20
-52.67762148783299
 30
0.0
 10
309.2048402269045
 20
-52.81150065446619
 30
0.0
 10
313.7290387225937
 20
-51.38317398815676
 30
0.0
  0
SPLINE
  5
121
330
1F
100
AcDbEntity
  8
Livello 1
100
AcDbSpline
210
0.0
220
0.0
230
1.0
 70
     8
 71
     3
 72
     8
 73
     4
 74
     0
 42
0.000000001
 43
0.0000000001
 40
5.0
 40
5.0
 40
5.0
 40
5.0
 40
6.0
 40
6.0
 40
6.0
 40
6.0
 10
313.7290387225937
 20
-51.38317398815676
 30
0.0
 10
316.2858661573636
 20
-50.57531287724763
 30
0.0
 10
318.3959358257534
 20
-49.43305371086649
 30
0.0
 10
320.0000868959392
 20
-47.98818176678332
 30
0.0
  0
SPLINE
  5
122
330
1F
100
AcDbEntity
  8
Livello 1
100
AcDbSpline
210
0.0
220
0.0
230
1.0
 70
     8
 71
     3
 72
     8
 73
     4
 74
     0
 42
0.000000001
 43
0.0000000001
 40
6.0
 40
6.0
 40
6.0
 40
6.0
 40
7.0
 40
7.0
 40
7.0
 40
7.0
 10
320.0000868959392
 20
-47.98818176678332
 30
0.0
 10
321.3406776950716
 20
-46.78076454486268
 30
0.0
 10
322.425151834071
 20
-45.27736676746081
 30
0.0
 10
323.4743894254008
 20
-43.82332260115776
 30
0.0
  0
SPLINE
  5
123
330
1F
100
AcDbEntity
  8
Livello 1
100
AcDbSpline
210
0.0
220
0.0
230
1.0
 70
     8
 71
     3
 72
     8
 73
     4
 74
     0
 42
0.000000001
 43
0.0000000001
 40
7.0
 40
7.0
 40
7.0
 40
7.0
 40
8.0
 40
8.0
 40
8.0
 40
8.0
 10
323.4743894254008
 20
-43.82332260115776
 30
0.0
 10
324.1141812354247
 20
-42.93619232360186
 30
0.0
 10
324.7762039963129
 20
-42.01837037938682
 30
0.0
 10
325.4953062001892
 20
-41.1675056573773
 30
0.0
  0
SPLINE
  5
124
330
1F
100
AcDbEntity
  8
Livello 1
100
AcDbSpline
210
0.0
220
0.0
230
1.0
 70
     8
 71
     3
 72
     8
 73
     4
 74
     0
 42
0.000000001
 43
0.0000000001
 40
8.0
 40
8.0
 40
8.0
 40
8.0
 40
9.0
 40
9.0
 40
9.0
 40
9.0
 10
325.4953062001892
 20
-41.1675056573773
 30
0.0
 10
326.8785478315665
 20
-39.53026399111975
 30
0.0
 10
329.7295566477201
 20
-36.82509343624079
 30
0.0
 10
333.2239262807935
 20
-37.13021093616436
 30
0.0
  0
SPLINE
  5
125
330
1F
100
AcDbEntity
  8
Livello 1
100
AcDbSpline
210
0.0
220
0.0
230
1.0
 70
    24
 71
     3
 72
     8
 73
     4
 74
     0
 42
0.000000001
 43
0.0000000001
 40
9.0
 40
9.0
 40
9.0
 40
9.0
 40
10.0
 40
10.0
 40
10.0
 40
10.0
 10
333.2239262807935
 20
-37.13021093616436
 30
0.0
 10
333.2239262807935
 20
-37.13021093616436
 30
0.0
 10
333.1773948930917
 20
-37.66925538047413
 30
0.0
 10
333.1773948930917
 20
-37.66925538047413
 30
0.0
  0
SPLINE
  5
126
330
1F
100
AcDbEntity
  8
Livello 1
100
AcDbSpline
210
0.0
220
0.0
230
1.0
 70
     8
 71
     3
 72
     8
 73
     4
 74
     0
 42
0.000000001
 43
0.0000000001
 40
10.0
 40
10.0
 40
10.0
 40
10.0
 40
11.0
 40
11.0
 40
11.0
 40
11.0
 10
333.1773948930917
 20
-37.66925538047413
 30
0.0
 10
329.903617198835
 20
-37.38601010276696
 30
0.0
 10
327.2245169894068
 20
-39.95903010212369
 30
0.0
 10
325.9082325785435
 20
-41.51700260173447
 30
0.0
  0
SPLINE
  5
127
330
1F
100
AcDbEntity
  8
Livello 1
100
AcDbSpline
210
0.0
220
0.0
230
1.0
 70
     8
 71
     3
 72
     8
 73
     4
 74
     0
 42
0.000000001
 43
0.0000000001
 40
11.0
 40
11.0
 40
11.0
 40
11.0
 40
12.0
 40
12.0
 40
12.0
 40
12.0
 10
325.9082325785435
 20
-41.51700260173447
 30
0.0
 10
325.2028887076494
 20
-42.35202760152545
 30
0.0
 10
324.547186647354
 20
-43.2610301012984
 30
0.0
 10
323.9130273516677
 20
-44.14008176774522
 30
0.0
  0
SPLINE
  5
128
330
1F
100
AcDbEntity
  8
Livello 1
100
AcDbSpline
210
0.0
220
0.0
230
1.0
 70
     8
 71
     3
 72
     8
 73
     4
 74
     0
 42
0.000000001
 43
0.0000000001
 40
12.0
 40
12.0
 40
12.0
 40
12.0
 40
13.0
 40
13.0
 40
13.0
 40
13.0
 10
323.9130273516677
 20
-44.14008176774522
 30
0.0
 10
322.8475679344054
 20
-45.61702121182043
 30
0.0
 10
321.7458429625127
 20
-47.14437260032742
 30
0.0
 10
320.3622838311436
 20
-48.39052482223812
 30
0.0
  0
SPLINE
  5
129
330
1F
100
AcDbEntity
  8
Livello 1
100
AcDbSpline
210
0.0
220
0.0
230
1.0
 70
     8
 71
     3
 72
     8
 73
     4
 74
     0
 42
0.000000001
 43
0.0000000001
 40
13.0
 40
13.0
 40
13.0
 40
13.0
 40
14.0
 40
14.0
 40
14.0
 40
14.0
 10
320.3622838311436
 20
-48.39052482223812
 30
0.0
 10
318.7003477624316
 20
-49.88721982186412
 30
0.0
 10
316.5233561513047
 20
-51.06786121045787
 30
0.0
 10
313.8918103851077
 20
-51.89897037691661
 30
0.0
  0
SPLINE
  5
12A
330
1F
100
AcDbEntity
  8
Livello 1
100
AcDbSpline
210
0.0
220
0.0
230
1.0
 70
     8
 71
     3
 72
     8
 73
     4
 74
     0
 42
0.000000001
 43
0.0000000001
 40
14.0
 40
14.0
 40
14.0
 40
14.0
 40
15.0
 40
15.0
 40
15.0
 40
15.0
 10
313.8918103851077
 20
-51.89897037691661
 30
0.0
 10
311.7641371060558
 20
-52.5712237100819
 30
0.0
 10
309.6610877152646
 20
-52.90593926555381
 30
0.0
 10
307.6644713773136
 20
-52.90593926555381
 30
0.0
  0
LINE
  5
12B
330
1F
100
AcDbEntity
  8
Livello 1
100
AcDbLine
 10
371.6601926699573
 20
-172.1140291740276
 30
0.0
 11
261.660204217647
 21
-172.1140291740276
 31
0.0
  0
LINE
  5
12C
330
1F
100
AcDbEntity
  8
Livello 1
100
AcDbLine
 10
261.660204217647
 20
-172.1140291740276
 30
0.0
 11
261.660204217647
 21
-282.1140208131949
 31
0.0
  0
LINE
  5
12D
330
1F
100
AcDbEntity
  8
Livello 1
100
AcDbLine
 10
261.660204217647
 20
-282.1140208131949
 30
0.0
 11
371.6601926699573
 21
-282.1140208131949
 31
0.0
  0
LINE
  5
12E
330
1F
100
AcDbEntity
  8
Livello 1
100
AcDbLine
 10
371.6601926699573
 20
-282.1140208131949
 30
0.0
 11
371.6601926699573
 21
-172.1140291740276
 31
0.0
  0
LINE
  5
12F
330
1F
100
AcDbEntity
  8
Livello 1
100
AcDbLine
 10
368.7833283575332
 20
-174.9908966733089
 30
0.0
 11
264.5370717169276
 21
-174.9908966733089
 31
0.0
  0
LINE
  5
130
330
1F
100
AcDbEntity
  8
Livello 1
100
AcDbLine
 10
264.5370717169276
 20
-174.9908966733089
 30
0.0
 11
264.5370717169276
 21
-279.2371533139142
 31
0.0
  0
LINE
  5
131
330
1F
100
AcDbEntity
  8
Livello 1
100
AcDbLine
 10
264.5370717169276
 20
-279.2371533139142
 30
0.0
 11
368.7833283575332
 21
-279.2371533139142
 31
0.0
  0
LINE
  5
132
330
1F
100
AcDbEntity
  8
Livello 1
100
AcDbLine
 10
368.7833283575332
 20
-279.2371533139142
 30
0.0
 11
368.7833283575332
 21
-174.9908966733089
 31
0.0
  0
LINE
  5
133
330
1F
100
AcDbEntity
  8
Livello 1
100
AcDbLine
 10
382.1512542801172
 20
-172.1140291740276
 30
0.0
 11
382.1512542801172
 21
-282.1140208131949
 31
0.0
  0
LINE
  5
134
330
1F
100
AcDbEntity
  8
Livello 1
100
AcDbLine
 10
258.2920052853171
 20
-140.8294503546837
 30
0.0
 11
258.2920052853171
 21
-145.405436742429
 31
0.0
  0
LINE
  5
135
330
1F
100
AcDbEntity
  8
Livello 1
100
AcDbLine
 10
289.911953219107
 20
-28.83753035181769
 30
0.0
 11
320.9720602044758
 21
-28.83753035181769
 31
0.0
  0
LINE
  5
136
330
1F
100
AcDbEntity
  8
Livello 1
100
AcDbLine
 10
380.692828299985
 20
-35.4054451032621
 30
0.0
 11
380.692828299985
 21
-35.4054451032621
 31
0.0
  0
LINE
  5
137
330
1F
100
AcDbEntity
  8
Livello 1
100
AcDbLine
 10
380.692828299985
 20
-145.405436742429
 30
0.0
 11
380.692828299985
 21
-145.405436742429
 31
0.0
  0
LINE
  5
138
330
1F
100
AcDbEntity
  8
Livello 1
100
AcDbLine
 10
375.6755443506218
 20
-35.4054451032621
 30
0.0
 11
375.6755443506218
 21
-145.405436742429
 31
0.0
  0
SPLINE
  5
139
330
1F
100
AcDbEntity
  8
Livello 1
100
AcDbSpline
210
0.0
220
0.0
230
1.0
 70
    11
 71
     3
 72
    47
 73
    43
 74
     0
 42
0.000000001
 43
0.0000000001
 40
0.0
 40
0.0
 40
0.0
 40
0.0
 40
1.0
 40
1.0
 40
1.0
 40
2.0
 40
2.0
 40
2.0
 40
3.0
 40
3.0
 40
3.0
 40
4.0
 40
4.0
 40
4.0
 40
5.0
 40
5.0
 40
5.0
 40
6.0
 40
6.0
 40
6.0
 40
7.0
 40
7.0
 40
7.0
 40
8.0
 40
8.0
 40
8.0
 40
9.0
 40
9.0
 40
9.0
 40
10.0
 40
10.0
 40
10.0
 40
11.0
 40
11.0
 40
11.0
 40
12.0
 40
12.0
 40
12.0
 40
13.0
 40
13.0
 40
13.0
 40
14.0
 40
14.0
 40
14.0
 40
14.0
 10
386.3020018565495
 20
-88.89224851293318
 30
0.0
 10
386.3020018565495
 20
-88.89224851293318
 30
0.0
 10
385.6160833454363
 20
-88.89224851293318
 30
0.0
 10
385.6160833454363
 20
-88.89224851293318
 30
0.0
 10
385.6160833454363
 20
-88.89224851293318
 30
0.0
 10
384.7654892701281
 20
-88.01598847625989
 30
0.0
 10
384.7654892701281
 20
-88.01598847625989
 30
0.0
 10
382.7590656595187
 20
-85.90810680360977
 30
0.0
 10
381.6924640972851
 20
-84.95571015671247
 30
0.0
 10
380.448095608013
 20
-84.94296330341704
 30
0.0
 10
379.6099038764517
 20
-84.94296330341704
 30
0.0
 10
378.835101901819
 20
-85.34931231590226
 30
0.0
 10
378.835101901819
 20
-86.58110620665334
 30
0.0
 10
378.835101901819
 20
-87.33024221992092
 30
0.0
 10
379.2161294624876
 20
-87.95242646455703
 30
0.0
 10
379.5337672662277
 20
-88.33345402522565
 30
0.0
 10
379.5337672662277
 20
-88.33345402522565
 30
0.0
 10
378.7462184382996
 20
-88.68898787930346
 30
0.0
 10
378.7462184382996
 20
-88.68898787930346
 30
0.0
 10
378.2639050703646
 20
-88.11761879307475
 30
0.0
 10
377.9083712162869
 20
-87.30492076810431
 30
0.0
 10
377.9083712162869
 20
-86.35252412120701
 30
0.0
 10
377.9083712162869
 20
-84.57468259604382
 30
0.0
 10
379.1272459989682
 20
-83.82554658277625
 30
0.0
 10
380.3082247313118
 20
-83.82554658277625
 30
0.0
 10
381.8319904644379
 20
-83.82554658277625
 30
0.0
 10
383.0639566099632
 20
-84.93021645012161
 30
0.0
 10
384.7399955635373
 20
-86.66998967017278
 30
0.0
 10
384.7399955635373
 20
-86.66998967017278
 30
0.0
 10
385.349432954878
 20
-87.33024221992092
 30
0.0
 10
385.349432954878
 20
-87.33024221992092
 30
0.0
 10
385.349432954878
 20
-87.33024221992092
 30
0.0
 10
385.3749266614688
 20
-87.33024221992092
 30
0.0
 10
385.3749266614688
 20
-87.33024221992092
 30
0.0
 10
385.3749266614688
 20
-87.33024221992092
 30
0.0
 10
385.3749266614688
 20
-83.62228594914652
 30
0.0
 10
385.3749266614688
 20
-83.62228594914652
 30
0.0
 10
385.3749266614688
 20
-83.62228594914652
 30
0.0
 10
386.3020018565495
 20
-83.62228594914652
 30
0.0
 10
386.3020018565495
 20
-83.62228594914652
 30
0.0
 10
386.3020018565495
 20
-83.62228594914652
 30
0.0
 10
386.3020018565495
 20
-88.89224851293318
 30
0.0
 10
386.3020018565495
 20
-88.89224851293318
 30
0.0
  0
HATCH
  5
13A
330
1F
100
AcDbEntity
  8
Livello 1
100
AcDbHatch
 10
0.0
 20
0.0
 30
0.0
210
0.0
220
0.0
230
1.0
  2
SOLID
 70
     1
 71
     0
 91
        1
 92
        1
 93
        1
 72
     4
 94
        3
 73
     0
 74
     0
 95
       47
 96
       43
 40
0.0
 40
0.0
 40
0.0
 40
0.0
 40
1.0
 40
1.0
 40
1.0
 40
2.0
 40
2.0
 40
2.0
 40
3.0
 40
3.0
 40
3.0
 40
4.0
 40
4.0
 40
4.0
 40
5.0
 40
5.0
 40
5.0
 40
6.0
 40
6.0
 40
6.0
 40
7.0
 40
7.0
 40
7.0
 40
8.0
 40
8.0
 40
8.0
 40
9.0
 40
9.0
 40
9.0
 40
10.0
 40
10.0
 40
10.0
 40
11.0
 40
11.0
 40
11.0
 40
12.0
 40
12.0
 40
12.0
 40
13.0
 40
13.0
 40
13.0
 40
14.0
 40
14.0
 40
14.0
 40
14.0
 10
386.3020018565495
 20
-88.89224851293318
 10
386.3020018565495
 20
-88.89224851293318
 10
385.6160833454363
 20
-88.89224851293318
 10
385.6160833454363
 20
-88.89224851293318
 10
385.6160833454363
 20
-88.89224851293318
 10
384.7654892701281
 20
-88.01598847625989
 10
384.7654892701281
 20
-88.01598847625989
 10
382.7590656595187
 20
-85.90810680360977
 10
381.6924640972851
 20
-84.95571015671247
 10
380.448095608013
 20
-84.94296330341704
 10
379.6099038764517
 20
-84.94296330341704
 10
378.835101901819
 20
-85.34931231590226
 10
378.835101901819
 20
-86.58110620665334
 10
378.835101901819
 20
-87.33024221992092
 10
379.2161294624876
 20
-87.95242646455703
 10
379.5337672662277
 20
-88.33345402522565
 10
379.5337672662277
 20
-88.33345402522565
 10
378.7462184382996
 20
-88.68898787930346
 10
378.7462184382996
 20
-88.68898787930346
 10
378.2639050703646
 20
-88.11761879307475
 10
377.9083712162869
 20
-87.30492076810431
 10
377.9083712162869
 20
-86.35252412120701
 10
377.9083712162869
 20
-84.57468259604382
 10
379.1272459989682
 20
-83.82554658277625
 10
380.3082247313118
 20
-83.82554658277625
 10
381.8319904644379
 20
-83.82554658277625
 10
383.0639566099632
 20
-84.93021645012161
 10
384.7399955635373
 20
-86.66998967017278
 10
384.7399955635373
 20
-86.66998967017278
 10
385.349432954878
 20
-87.33024221992092
 10
385.349432954878
 20
-87.33024221992092
 10
385.349432954878
 20
-87.33024221992092
 10
385.3749266614688
 20
-87.33024221992092
 10
385.3749266614688
 20
-87.33024221992092
 10
385.3749266614688
 20
-87.33024221992092
 10
385.3749266614688
 20
-83.62228594914652
 10
385.3749266614688
 20
-83.62228594914652
 10
385.3749266614688
 20
-83.62228594914652
 10
386.3020018565495
 20
-83.62228594914652
 10
386.3020018565495
 20
-83.62228594914652
 10
386.3020018565495
 20
-83.62228594914652
 10
386.3020018565495
 20
-88.89224851293318
 10
386.3020018565495
 20
-88.89224851293318
 97
        0
 97
        0
 75
     2
 76
     1
 98
        0
450
        0
451
        0
460
0.0
461
0.0
452
        0
462
0.0
453
        0
470

  0
SPLINE
  5
13B
330
1F
100
AcDbEntity
  8
Livello 1
100
AcDbSpline
210
0.0
220
0.0
230
1.0
 70
     9
 71
     3
 72
    17
 73
    13
 74
     0
 42
0.000000001
 43
0.0000000001
 40
0.0
 40
0.0
 40
0.0
 40
0.0
 40
1.0
 40
1.0
 40
1.0
 40
2.0
 40
2.0
 40
2.0
 40
3.0
 40
3.0
 40
3.0
 40
4.0
 40
4.0
 40
4.0
 40
4.0
 10
382.0858940017008
 20
-76.8916028996139
 30
0.0
 10
384.8922687839853
 20
-76.8916028996139
 30
0.0
 10
386.4415282237021
 20
-77.93288301003066
 30
0.0
 10
386.4415282237021
 20
-79.76153969360128
 30
0.0
 10
386.4415282237021
 20
-81.37418889024672
 30
0.0
 10
384.9305093438716
 20
-82.46628415907094
 30
0.0
 10
382.200271171811
 20
-82.49160561088752
 30
0.0
 10
379.4321369494128
 20
-82.49160561088752
 30
0.0
 10
377.9083712162869
 20
-81.29805228002272
 30
0.0
 10
377.9083712162869
 20
-79.62184107167441
 30
0.0
 10
377.9083712162869
 20
-77.88206785162323
 30
0.0
 10
379.4576306560037
 20
-76.8916028996139
 30
0.0
 10
382.0858940017008
 20
-76.8916028996139
 30
0.0
  0
SPLINE
  5
13C
330
1F
100
AcDbEntity
  8
Livello 1
100
AcDbSpline
210
0.0
220
0.0
230
1.0
 70
     9
 71
     3
 72
    17
 73
    13
 74
     0
 42
0.000000001
 43
0.0000000001
 40
0.0
 40
0.0
 40
0.0
 40
0.0
 40
1.0
 40
1.0
 40
1.0
 40
2.0
 40
2.0
 40
2.0
 40
3.0
 40
3.0
 40
3.0
 40
4.0
 40
4.0
 40
4.0
 40
4.0
 10
382.2130180251065
 20
-81.37418889024672
 30
0.0
 10
384.3589680028687
 20
-81.37418889024672
 30
0.0
 10
385.5781872950985
 20
-80.71376408572435
 30
0.0
 10
385.5781872950985
 20
-79.69797768189842
 30
0.0
 10
385.5781872950985
 20
-78.55506725466679
 30
0.0
 10
384.2449353423069
 20
-78.00901962025469
 30
0.0
 10
382.1368814148825
 20
-78.00901962025469
 30
0.0
 10
380.1049640976821
 20
-78.00901962025469
 30
0.0
 10
378.7717121448904
 20
-78.5297458028502
 30
0.0
 10
378.7717121448904
 20
-79.685230828603
 30
0.0
 10
378.7717121448904
 20
-80.66312118209117
 30
0.0
 10
379.9654377305295
 20
-81.37418889024672
 30
0.0
 10
382.2130180251065
 20
-81.37418889024672
 30
0.0
  0
HATCH
  5
13D
330
1F
100
AcDbEntity
  8
Livello 1
100
AcDbHatch
 10
0.0
 20
0.0
 30
0.0
210
0.0
220
0.0
230
1.0
  2
SOLID
 70
     1
 71
     0
 91
        2
 92
        1
 93
        1
 72
     4
 94
        3
 73
     0
 74
     0
 95
       17
 96
       13
 40
0.0
 40
0.0
 40
0.0
 40
0.0
 40
1.0
 40
1.0
 40
1.0
 40
2.0
 40
2.0
 40
2.0
 40
3.0
 40
3.0
 40
3.0
 40
4.0
 40
4.0
 40
4.0
 40
4.0
 10
382.0858940017008
 20
-76.8916028996139
 10
384.8922687839853
 20
-76.8916028996139
 10
386.4415282237021
 20
-77.93288301003066
 10
386.4415282237021
 20
-79.76153969360128
 10
386.4415282237021
 20
-81.37418889024672
 10
384.9305093438716
 20
-82.46628415907094
 10
382.200271171811
 20
-82.49160561088752
 10
379.4321369494128
 20
-82.49160561088752
 10
377.9083712162869
 20
-81.29805228002272
 10
377.9083712162869
 20
-79.62184107167441
 10
377.9083712162869
 20
-77.88206785162323
 10
379.4576306560037
 20
-76.8916028996139
 10
382.0858940017008
 20
-76.8916028996139
 97
        0
 97
        0
 92
        1
 93
        1
 72
     4
 94
        3
 73
     0
 74
     0
 95
       17
 96
       13
 40
0.0
 40
0.0
 40
0.0
 40
0.0
 40
1.0
 40
1.0
 40
1.0
 40
2.0
 40
2.0
 40
2.0
 40
3.0
 40
3.0
 40
3.0
 40
4.0
 40
4.0
 40
4.0
 40
4.0
 10
382.2130180251065
 20
-81.37418889024672
 10
384.3589680028687
 20
-81.37418889024672
 10
385.5781872950985
 20
-80.71376408572435
 10
385.5781872950985
 20
-79.69797768189842
 10
385.5781872950985
 20
-78.55506725466679
 10
384.2449353423069
 20
-78.00901962025469
 10
382.1368814148825
 20
-78.00901962025469
 10
380.1049640976821
 20
-78.00901962025469
 10
378.7717121448904
 20
-78.5297458028502
 10
378.7717121448904
 20
-79.685230828603
 10
378.7717121448904
 20
-80.66312118209117
 10
379.9654377305295
 20
-81.37418889024672
 10
382.2130180251065
 20
-81.37418889024672
 97
        0
 97
        0
 75
     2
 76
     1
 98
        0
450
        0
451
        0
460
0.0
461
0.0
452
        0
462
0.0
453
        0
470

  0
SPLINE
  5
13E
330
1F
100
AcDbEntity
  8
Livello 1
100
AcDbSpline
210
0.0
220
0.0
230
1.0
 70
    11
 71
     3
 72
    50
 73
    46
 74
     0
 42
0.000000001
 43
0.0000000001
 40
0.0
 40
0.0
 40
0.0
 40
0.0
 40
1.0
 40
1.0
 40
1.0
 40
2.0
 40
2.0
 40
2.0
 40
3.0
 40
3.0
 40
3.0
 40
4.0
 40
4.0
 40
4.0
 40
5.0
 40
5.0
 40
5.0
 40
6.0
 40
6.0
 40
6.0
 40
7.0
 40
7.0
 40
7.0
 40
8.0
 40
8.0
 40
8.0
 40
9.0
 40
9.0
 40
9.0
 40
10.0
 40
10.0
 40
10.0
 40
11.0
 40
11.0
 40
11.0
 40
12.0
 40
12.0
 40
12.0
 40
13.0
 40
13.0
 40
13.0
 40
14.0
 40
14.0
 40
14.0
 40
15.0
 40
15.0
 40
15.0
 40
15.0
 10
378.9877196318157
 20
-70.93537731516547
 30
0.0
 10
378.9877196318157
 20
-70.93537731516547
 30
0.0
 10
378.9877196318157
 20
-74.08453909823234
 30
0.0
 10
378.9877196318157
 20
-74.08453909823234
 30
0.0
 10
378.9877196318157
 20
-74.08453909823234
 30
0.0
 10
381.1081759029869
 20
-74.40200464719811
 30
0.0
 10
381.1081759029869
 20
-74.40200464719811
 30
0.0
 10
381.0830267059445
 20
-74.2114908668638
 30
0.0
 10
381.0575329993537
 20
-74.03372393982491
 30
0.0
 10
381.0575329993537
 20
-73.72900524415456
 30
0.0
 10
381.0575329993537
 20
-73.09407414622301
 30
0.0
 10
381.1970593665063
 20
-72.45914304829148
 30
0.0
 10
381.5019503169509
 20
-71.95116371899138
 30
0.0
 10
381.8702310243241
 20
-71.30365802253867
 30
0.0
 10
382.5812987324797
 20
-70.77018498664774
 30
0.0
 10
383.6224065881222
 20
-70.77018498664774
 30
0.0
 10
385.2354002943162
 20
-70.77018498664774
 30
0.0
 10
386.4415282237021
 20
-72.05279403580623
 30
0.0
 10
386.4415282237021
 20
-73.84321015949059
 30
0.0
 10
386.4415282237021
 20
-74.74479164798047
 30
0.0
 10
386.1876246864392
 20
-75.50684676931773
 30
0.0
 10
385.9337211491763
 20
-75.90044892850753
 30
0.0
 10
385.9337211491763
 20
-75.90044892850753
 30
0.0
 10
385.0827825643196
 20
-75.62105168465376
 30
0.0
 10
385.0827825643196
 20
-75.62105168465376
 30
0.0
 10
385.2860431979494
 20
-75.27826468387139
 30
0.0
 10
385.5399467352123
 20
-74.60526528082785
 30
0.0
 10
385.5399467352123
 20
-73.85595701278602
 30
0.0
 10
385.5399467352123
 20
-72.80193004907383
 30
0.0
 10
384.8543727336476
 20
-71.90034856058395
 30
0.0
 10
383.7495306115279
 20
-71.90034856058395
 30
0.0
 10
382.6829290492947
 20
-71.91309541387936
 30
0.0
 10
381.9208739279573
 20
-72.62416312203495
 30
0.0
 10
381.9208739279573
 20
-74.27505287856665
 30
0.0
 10
381.9208739279573
 20
-74.74479164798047
 30
0.0
 10
381.971861341139
 20
-75.11307235535369
 30
0.0
 10
382.0097573914767
 20
-75.41796330579829
 30
0.0
 10
382.0097573914767
 20
-75.41796330579829
 30
0.0
 10
378.0478975834394
 20
-74.88449026990736
 30
0.0
 10
378.0478975834394
 20
-74.88449026990736
 30
0.0
 10
378.0478975834394
 20
-74.88449026990736
 30
0.0
 10
378.0478975834394
 20
-70.93537731516547
 30
0.0
 10
378.0478975834394
 20
-70.93537731516547
 30
0.0
 10
378.0478975834394
 20
-70.93537731516547
 30
0.0
 10
378.9877196318157
 20
-70.93537731516547
 30
0.0
 10
378.9877196318157
 20
-70.93537731516547
 30
0.0
  0
HATCH
  5
13F
330
1F
100
AcDbEntity
  8
Livello 1
100
AcDbHatch
 10
0.0
 20
0.0
 30
0.0
210
0.0
220
0.0
230
1.0
  2
SOLID
 70
     1
 71
     0
 91
        1
 92
        1
 93
        1
 72
     4
 94
        3
 73
     0
 74
     0
 95
       50
 96
       46
 40
0.0
 40
0.0
 40
0.0
 40
0.0
 40
1.0
 40
1.0
 40
1.0
 40
2.0
 40
2.0
 40
2.0
 40
3.0
 40
3.0
 40
3.0
 40
4.0
 40
4.0
 40
4.0
 40
5.0
 40
5.0
 40
5.0
 40
6.0
 40
6.0
 40
6.0
 40
7.0
 40
7.0
 40
7.0
 40
8.0
 40
8.0
 40
8.0
 40
9.0
 40
9.0
 40
9.0
 40
10.0
 40
10.0
 40
10.0
 40
11.0
 40
11.0
 40
11.0
 40
12.0
 40
12.0
 40
12.0
 40
13.0
 40
13.0
 40
13.0
 40
14.0
 40
14.0
 40
14.0
 40
15.0
 40
15.0
 40
15.0
 40
15.0
 10
378.9877196318157
 20
-70.93537731516547
 10
378.9877196318157
 20
-70.93537731516547
 10
378.9877196318157
 20
-74.08453909823234
 10
378.9877196318157
 20
-74.08453909823234
 10
378.9877196318157
 20
-74.08453909823234
 10
381.1081759029869
 20
-74.40200464719811
 10
381.1081759029869
 20
-74.40200464719811
 10
381.0830267059445
 20
-74.2114908668638
 10
381.0575329993537
 20
-74.03372393982491
 10
381.0575329993537
 20
-73.72900524415456
 10
381.0575329993537
 20
-73.09407414622301
 10
381.1970593665063
 20
-72.45914304829148
 10
381.5019503169509
 20
-71.95116371899138
 10
381.8702310243241
 20
-71.30365802253867
 10
382.5812987324797
 20
-70.77018498664774
 10
383.6224065881222
 20
-70.77018498664774
 10
385.2354002943162
 20
-70.77018498664774
 10
386.4415282237021
 20
-72.05279403580623
 10
386.4415282237021
 20
-73.84321015949059
 10
386.4415282237021
 20
-74.74479164798047
 10
386.1876246864392
 20
-75.50684676931773
 10
385.9337211491763
 20
-75.90044892850753
 10
385.9337211491763
 20
-75.90044892850753
 10
385.0827825643196
 20
-75.62105168465376
 10
385.0827825643196
 20
-75.62105168465376
 10
385.2860431979494
 20
-75.27826468387139
 10
385.5399467352123
 20
-74.60526528082785
 10
385.5399467352123
 20
-73.85595701278602
 10
385.5399467352123
 20
-72.80193004907383
 10
384.8543727336476
 20
-71.90034856058395
 10
383.7495306115279
 20
-71.90034856058395
 10
382.6829290492947
 20
-71.91309541387936
 10
381.9208739279573
 20
-72.62416312203495
 10
381.9208739279573
 20
-74.27505287856665
 10
381.9208739279573
 20
-74.74479164798047
 10
381.971861341139
 20
-75.11307235535369
 10
382.0097573914767
 20
-75.41796330579829
 10
382.0097573914767
 20
-75.41796330579829
 10
378.0478975834394
 20
-74.88449026990736
 10
378.0478975834394
 20
-74.88449026990736
 10
378.0478975834394
 20
-74.88449026990736
 10
378.0478975834394
 20
-70.93537731516547
 10
378.0478975834394
 20
-70.93537731516547
 10
378.0478975834394
 20
-70.93537731516547
 10
378.9877196318157
 20
-70.93537731516547
 10
378.9877196318157
 20
-70.93537731516547
 97
        0
 97
        0
 75
     2
 76
     1
 98
        0
450
        0
451
        0
460
0.0
461
0.0
452
        0
462
0.0
453
        0
470

  0
SPLINE
  5
140
330
1F
100
AcDbEntity
  8
Livello 1
100
AcDbSpline
210
0.0
220
0.0
230
1.0
 70
    11
 71
     3
 72
    47
 73
    43
 74
     0
 42
0.000000001
 43
0.0000000001
 40
0.0
 40
0.0
 40
0.0
 40
0.0
 40
1.0
 40
1.0
 40
1.0
 40
2.0
 40
2.0
 40
2.0
 40
3.0
 40
3.0
 40
3.0
 40
4.0
 40
4.0
 40
4.0
 40
5.0
 40
5.0
 40
5.0
 40
6.0
 40
6.0
 40
6.0
 40
7.0
 40
7.0
 40
7.0
 40
8.0
 40
8.0
 40
8.0
 40
9.0
 40
9.0
 40
9.0
 40
10.0
 40
10.0
 40
10.0
 40
11.0
 40
11.0
 40
11.0
 40
12.0
 40
12.0
 40
12.0
 40
13.0
 40
13.0
 40
13.0
 40
14.0
 40
14.0
 40
14.0
 40
14.0
 10
255.5387518349868
 20
-151.0991319066697
 30
0.0
 10
255.5387518349868
 20
-151.0991319066697
 30
0.0
 10
254.8530055786479
 20
-151.0991319066697
 30
0.0
 10
254.8530055786479
 20
-151.0991319066697
 30
0.0
 10
254.8530055786479
 20
-151.0991319066697
 30
0.0
 10
254.0022392485654
 20
-150.2230441247706
 30
0.0
 10
254.0022392485654
 20
-150.2230441247706
 30
0.0
 10
251.9958156379559
 20
-148.1151624521205
 30
0.0
 10
250.9292140757226
 20
-147.1627658052232
 30
0.0
 10
249.6848455864503
 20
-147.1500189519278
 30
0.0
 10
248.846653854889
 20
-147.1500189519278
 30
0.0
 10
248.0720241350306
 20
-147.556367964413
 30
0.0
 10
248.0720241350306
 20
-148.788161855164
 30
0.0
 10
248.0720241350306
 20
-149.5371256136574
 30
0.0
 10
248.4530516956993
 20
-150.1593098582935
 30
0.0
 10
248.770517244665
 20
-150.5403374189621
 30
0.0
 10
248.770517244665
 20
-150.5403374189621
 30
0.0
 10
247.9831406715112
 20
-150.8958712730399
 30
0.0
 10
247.9831406715112
 20
-150.8958712730399
 30
0.0
 10
247.5006550488019
 20
-150.3246744415855
 30
0.0
 10
247.1451211947241
 20
-149.5119764166151
 30
0.0
 10
247.1451211947241
 20
-148.5595797697177
 30
0.0
 10
247.1451211947241
 20
-146.7817382445546
 30
0.0
 10
248.3641682321798
 20
-146.032602231287
 30
0.0
 10
249.5451469645234
 20
-146.032602231287
 30
0.0
 10
251.0689126976494
 20
-146.032602231287
 30
0.0
 10
252.3007065884005
 20
-147.1372720986324
 30
0.0
 10
253.9769177967488
 20
-148.8770453186835
 30
0.0
 10
253.9769177967488
 20
-148.8770453186835
 30
0.0
 10
254.5863551880895
 20
-149.5371256136574
 30
0.0
 10
254.5863551880895
 20
-149.5371256136574
 30
0.0
 10
254.5863551880895
 20
-149.5371256136574
 30
0.0
 10
254.6118488946804
 20
-149.5371256136574
 30
0.0
 10
254.6118488946804
 20
-149.5371256136574
 30
0.0
 10
254.6118488946804
 20
-149.5371256136574
 30
0.0
 10
254.6118488946804
 20
-145.8293415976572
 30
0.0
 10
254.6118488946804
 20
-145.8293415976572
 30
0.0
 10
254.6118488946804
 20
-145.8293415976572
 30
0.0
 10
255.5387518349868
 20
-145.8293415976572
 30
0.0
 10
255.5387518349868
 20
-145.8293415976572
 30
0.0
 10
255.5387518349868
 20
-145.8293415976572
 30
0.0
 10
255.5387518349868
 20
-151.0991319066697
 30
0.0
 10
255.5387518349868
 20
-151.0991319066697
 30
0.0
  0
HATCH
  5
141
330
1F
100
AcDbEntity
  8
Livello 1
100
AcDbHatch
 10
0.0
 20
0.0
 30
0.0
210
0.0
220
0.0
230
1.0
  2
SOLID
 70
     1
 71
     0
 91
        1
 92
        1
 93
        1
 72
     4
 94
        3
 73
     0
 74
     0
 95
       47
 96
       43
 40
0.0
 40
0.0
 40
0.0
 40
0.0
 40
1.0
 40
1.0
 40
1.0
 40
2.0
 40
2.0
 40
2.0
 40
3.0
 40
3.0
 40
3.0
 40
4.0
 40
4.0
 40
4.0
 40
5.0
 40
5.0
 40
5.0
 40
6.0
 40
6.0
 40
6.0
 40
7.0
 40
7.0
 40
7.0
 40
8.0
 40
8.0
 40
8.0
 40
9.0
 40
9.0
 40
9.0
 40
10.0
 40
10.0
 40
10.0
 40
11.0
 40
11.0
 40
11.0
 40
12.0
 40
12.0
 40
12.0
 40
13.0
 40
13.0
 40
13.0
 40
14.0
 40
14.0
 40
14.0
 40
14.0
 10
255.5387518349868
 20
-151.0991319066697
 10
255.5387518349868
 20
-151.0991319066697
 10
254.8530055786479
 20
-151.0991319066697
 10
254.8530055786479
 20
-151.0991319066697
 10
254.8530055786479
 20
-151.0991319066697
 10
254.0022392485654
 20
-150.2230441247706
 10
254.0022392485654
 20
-150.2230441247706
 10
251.9958156379559
 20
-148.1151624521205
 10
250.9292140757226
 20
-147.1627658052232
 10
249.6848455864503
 20
-147.1500189519278
 10
248.846653854889
 20
-147.1500189519278
 10
248.0720241350306
 20
-147.556367964413
 10
248.0720241350306
 20
-148.788161855164
 10
248.0720241350306
 20
-149.5371256136574
 10
248.4530516956993
 20
-150.1593098582935
 10
248.770517244665
 20
-150.5403374189621
 10
248.770517244665
 20
-150.5403374189621
 10
247.9831406715112
 20
-150.8958712730399
 10
247.9831406715112
 20
-150.8958712730399
 10
247.5006550488019
 20
-150.3246744415855
 10
247.1451211947241
 20
-149.5119764166151
 10
247.1451211947241
 20
-148.5595797697177
 10
247.1451211947241
 20
-146.7817382445546
 10
248.3641682321798
 20
-146.032602231287
 10
249.5451469645234
 20
-146.032602231287
 10
251.0689126976494
 20
-146.032602231287
 10
252.3007065884005
 20
-147.1372720986324
 10
253.9769177967488
 20
-148.8770453186835
 10
253.9769177967488
 20
-148.8770453186835
 10
254.5863551880895
 20
-149.5371256136574
 10
254.5863551880895
 20
-149.5371256136574
 10
254.5863551880895
 20
-149.5371256136574
 10
254.6118488946804
 20
-149.5371256136574
 10
254.6118488946804
 20
-149.5371256136574
 10
254.6118488946804
 20
-149.5371256136574
 10
254.6118488946804
 20
-145.8293415976572
 10
254.6118488946804
 20
-145.8293415976572
 10
254.6118488946804
 20
-145.8293415976572
 10
255.5387518349868
 20
-145.8293415976572
 10
255.5387518349868
 20
-145.8293415976572
 10
255.5387518349868
 20
-145.8293415976572
 10
255.5387518349868
 20
-151.0991319066697
 10
255.5387518349868
 20
-151.0991319066697
 97
        0
 97
        0
 75
     2
 76
     1
 98
        0
450
        0
451
        0
460
0.0
461
0.0
452
        0
462
0.0
453
        0
470

  0
SPLINE
  5
142
330
1F
100
AcDbEntity
  8
Livello 1
100
AcDbSpline
210
0.0
220
0.0
230
1.0
 70
     9
 71
     3
 72
    17
 73
    13
 74
     0
 42
0.000000001
 43
0.0000000001
 40
0.0
 40
0.0
 40
0.0
 40
0.0
 40
1.0
 40
1.0
 40
1.0
 40
2.0
 40
2.0
 40
2.0
 40
3.0
 40
3.0
 40
3.0
 40
4.0
 40
4.0
 40
4.0
 40
4.0
 10
257.1005858732249
 20
-144.9527370514354
 30
0.0
 10
256.3514498599573
 20
-144.6733398075817
 30
0.0
 10
254.9927042005748
 20
-144.330380552025
 30
0.0
 10
254.0658012602683
 20
-144.1906819300982
 30
0.0
 10
254.0658012602683
 20
-144.1906819300982
 30
0.0
 10
253.9386772368626
 20
-142.9463134408259
 30
0.0
 10
253.9386772368626
 20
-142.9463134408259
 30
0.0
 10
255.0181979071656
 20
-143.2382852832008
 30
0.0
 10
256.4275864701813
 20
-143.7970797709084
 30
0.0
 10
257.0244492630009
 20
-144.152613624986
 30
0.0
 10
257.0244492630009
 20
-144.152613624986
 30
0.0
 10
257.1005858732249
 20
-144.9527370514354
 30
0.0
 10
257.1005858732249
 20
-144.9527370514354
 30
0.0
  0
HATCH
  5
143
330
1F
100
AcDbEntity
  8
Livello 1
100
AcDbHatch
 10
0.0
 20
0.0
 30
0.0
210
0.0
220
0.0
230
1.0
  2
SOLID
 70
     1
 71
     0
 91
        1
 92
        1
 93
        1
 72
     4
 94
        3
 73
     0
 74
     0
 95
       17
 96
       13
 40
0.0
 40
0.0
 40
0.0
 40
0.0
 40
1.0
 40
1.0
 40
1.0
 40
2.0
 40
2.0
 40
2.0
 40
3.0
 40
3.0
 40
3.0
 40
4.0
 40
4.0
 40
4.0
 40
4.0
 10
257.1005858732249
 20
-144.9527370514354
 10
256.3514498599573
 20
-144.6733398075817
 10
254.9927042005748
 20
-144.330380552025
 10
254.0658012602683
 20
-144.1906819300982
 10
254.0658012602683
 20
-144.1906819300982
 10
253.9386772368626
 20
-142.9463134408259
 10
253.9386772368626
 20
-142.9463134408259
 10
255.0181979071656
 20
-143.2382852832008
 10
256.4275864701813
 20
-143.7970797709084
 10
257.0244492630009
 20
-144.152613624986
 10
257.0244492630009
 20
-144.152613624986
 10
257.1005858732249
 20
-144.9527370514354
 10
257.1005858732249
 20
-144.9527370514354
 97
        0
 97
        0
 75
     2
 76
     1
 98
        0
450
        0
451
        0
460
0.0
461
0.0
452
        0
462
0.0
453
        0
470

  0
SPLINE
  5
144
330
1F
100
AcDbEntity
  8
Livello 1
100
AcDbSpline
210
0.0
220
0.0
230
1.0
 70
    11
 71
     3
 72
    50
 73
    46
 74
     0
 42
0.000000001
 43
0.0000000001
 40
0.0
 40
0.0
 40
0.0
 40
0.0
 40
1.0
 40
1.0
 40
1.0
 40
2.0
 40
2.0
 40
2.0
 40
3.0
 40
3.0
 40
3.0
 40
4.0
 40
4.0
 40
4.0
 40
5.0
 40
5.0
 40
5.0
 40
6.0
 40
6.0
 40
6.0
 40
7.0
 40
7.0
 40
7.0
 40
8.0
 40
8.0
 40
8.0
 40
9.0
 40
9.0
 40
9.0
 40
10.0
 40
10.0
 40
10.0
 40
11.0
 40
11.0
 40
11.0
 40
12.0
 40
12.0
 40
12.0
 40
13.0
 40
13.0
 40
13.0
 40
14.0
 40
14.0
 40
14.0
 40
15.0
 40
15.0
 40
15.0
 40
15.0
 10
248.2244696102529
 20
-137.0286729258123
 30
0.0
 10
248.2244696102529
 20
-137.0286729258123
 30
0.0
 10
248.2244696102529
 20
-140.1778347088791
 30
0.0
 10
248.2244696102529
 20
-140.1778347088791
 30
0.0
 10
248.2244696102529
 20
-140.1778347088791
 30
0.0
 10
250.3450981361985
 20
-140.4953002578449
 30
0.0
 10
250.3450981361985
 20
-140.4953002578449
 30
0.0
 10
250.3197766843819
 20
-140.3047864775106
 30
0.0
 10
250.294282977791
 20
-140.1270195504717
 30
0.0
 10
250.294282977791
 20
-139.8223008548014
 30
0.0
 10
250.294282977791
 20
-139.1873697568698
 30
0.0
 10
250.4339815997179
 20
-138.5524386589383
 30
0.0
 10
250.7387002953882
 20
-138.0444593296382
 30
0.0
 10
251.1069810027615
 20
-137.3969536331855
 30
0.0
 10
251.818048710917
 20
-136.8634805972945
 30
0.0
 10
252.8593288213338
 20
-136.8634805972945
 30
0.0
 10
254.4721502727535
 20
-136.8634805972945
 30
0.0
 10
255.6784504569137
 20
-138.1460896464531
 30
0.0
 10
255.6784504569137
 20
-139.9365057701374
 30
0.0
 10
255.6784504569137
 20
-140.8380872586273
 30
0.0
 10
255.4245469196508
 20
-141.6001423799646
 30
0.0
 10
255.1704711276136
 20
-141.9937445391543
 30
0.0
 10
255.1704711276136
 20
-141.9937445391543
 30
0.0
 10
254.3197047975312
 20
-141.7143472953006
 30
0.0
 10
254.3197047975312
 20
-141.7143472953006
 30
0.0
 10
254.5229654311609
 20
-141.3715602945182
 30
0.0
 10
254.7768689684239
 20
-140.6983886367004
 30
0.0
 10
254.7768689684239
 20
-139.9492526234328
 30
0.0
 10
254.7768689684239
 20
-138.8952256597206
 30
0.0
 10
254.0911227120849
 20
-137.9936441712308
 30
0.0
 10
252.9864528447395
 20
-137.9936441712308
 30
0.0
 10
251.9196790277319
 20
-138.0063910245262
 30
0.0
 10
251.1577961611689
 20
-138.7174587326818
 30
0.0
 10
251.1577961611689
 20
-140.3683484892135
 30
0.0
 10
251.1577961611689
 20
-140.8380872586273
 30
0.0
 10
251.2086113195763
 20
-141.2063679660005
 30
0.0
 10
251.2466796246883
 20
-141.5110866616708
 30
0.0
 10
251.2466796246883
 20
-141.5110866616708
 30
0.0
 10
247.284819816651
 20
-140.9777858805542
 30
0.0
 10
247.284819816651
 20
-140.9777858805542
 30
0.0
 10
247.284819816651
 20
-140.9777858805542
 30
0.0
 10
247.284819816651
 20
-137.0286729258123
 30
0.0
 10
247.284819816651
 20
-137.0286729258123
 30
0.0
 10
247.284819816651
 20
-137.0286729258123
 30
0.0
 10
248.2244696102529
 20
-137.0286729258123
 30
0.0
 10
248.2244696102529
 20
-137.0286729258123
 30
0.0
  0
HATCH
  5
145
330
1F
100
AcDbEntity
  8
Livello 1
100
AcDbHatch
 10
0.0
 20
0.0
 30
0.0
210
0.0
220
0.0
230
1.0
  2
SOLID
 70
     1
 71
     0
 91
        1
 92
        1
 93
        1
 72
     4
 94
        3
 73
     0
 74
     0
 95
       50
 96
       46
 40
0.0
 40
0.0
 40
0.0
 40
0.0
 40
1.0
 40
1.0
 40
1.0
 40
2.0
 40
2.0
 40
2.0
 40
3.0
 40
3.0
 40
3.0
 40
4.0
 40
4.0
 40
4.0
 40
5.0
 40
5.0
 40
5.0
 40
6.0
 40
6.0
 40
6.0
 40
7.0
 40
7.0
 40
7.0
 40
8.0
 40
8.0
 40
8.0
 40
9.0
 40
9.0
 40
9.0
 40
10.0
 40
10.0
 40
10.0
 40
11.0
 40
11.0
 40
11.0
 40
12.0
 40
12.0
 40
12.0
 40
13.0
 40
13.0
 40
13.0
 40
14.0
 40
14.0
 40
14.0
 40
15.0
 40
15.0
 40
15.0
 40
15.0
 10
248.2244696102529
 20
-137.0286729258123
 10
248.2244696102529
 20
-137.0286729258123
 10
248.2244696102529
 20
-140.1778347088791
 10
248.2244696102529
 20
-140.1778347088791
 10
248.2244696102529
 20
-140.1778347088791
 10
250.3450981361985
 20
-140.4953002578449
 10
250.3450981361985
 20
-140.4953002578449
 10
250.3197766843819
 20
-140.3047864775106
 10
250.294282977791
 20
-140.1270195504717
 10
250.294282977791
 20
-139.8223008548014
 10
250.294282977791
 20
-139.1873697568698
 10
250.4339815997179
 20
-138.5524386589383
 10
250.7387002953882
 20
-138.0444593296382
 10
251.1069810027615
 20
-137.3969536331855
 10
251.818048710917
 20
-136.8634805972945
 10
252.8593288213338
 20
-136.8634805972945
 10
254.4721502727535
 20
-136.8634805972945
 10
255.6784504569137
 20
-138.1460896464531
 10
255.6784504569137
 20
-139.9365057701374
 10
255.6784504569137
 20
-140.8380872586273
 10
255.4245469196508
 20
-141.6001423799646
 10
255.1704711276136
 20
-141.9937445391543
 10
255.1704711276136
 20
-141.9937445391543
 10
254.3197047975312
 20
-141.7143472953006
 10
254.3197047975312
 20
-141.7143472953006
 10
254.5229654311609
 20
-141.3715602945182
 10
254.7768689684239
 20
-140.6983886367004
 10
254.7768689684239
 20
-139.9492526234328
 10
254.7768689684239
 20
-138.8952256597206
 10
254.0911227120849
 20
-137.9936441712308
 10
252.9864528447395
 20
-137.9936441712308
 10
251.9196790277319
 20
-138.0063910245262
 10
251.1577961611689
 20
-138.7174587326818
 10
251.1577961611689
 20
-140.3683484892135
 10
251.1577961611689
 20
-140.8380872586273
 10
251.2086113195763
 20
-141.2063679660005
 10
251.2466796246883
 20
-141.5110866616708
 10
251.2466796246883
 20
-141.5110866616708
 10
247.284819816651
 20
-140.9777858805542
 10
247.284819816651
 20
-140.9777858805542
 10
247.284819816651
 20
-140.9777858805542
 10
247.284819816651
 20
-137.0286729258123
 10
247.284819816651
 20
-137.0286729258123
 10
247.284819816651
 20
-137.0286729258123
 10
248.2244696102529
 20
-137.0286729258123
 10
248.2244696102529
 20
-137.0286729258123
 97
        0
 97
        0
 75
     2
 76
     1
 98
        0
450
        0
451
        0
460
0.0
461
0.0
452
        0
462
0.0
453
        0
470

  0
SPLINE
  5
146
330
1F
100
AcDbEntity
  8
Livello 1
100
AcDbSpline
210
0.0
220
0.0
230
1.0
 70
     9
 71
     3
 72
    41
 73
    37
 74
     0
 42
0.000000001
 43
0.0000000001
 40
0.0
 40
0.0
 40
0.0
 40
0.0
 40
1.0
 40
1.0
 40
1.0
 40
2.0
 40
2.0
 40
2.0
 40
3.0
 40
3.0
 40
3.0
 40
4.0
 40
4.0
 40
4.0
 40
5.0
 40
5.0
 40
5.0
 40
6.0
 40
6.0
 40
6.0
 40
7.0
 40
7.0
 40
7.0
 40
8.0
 40
8.0
 40
8.0
 40
9.0
 40
9.0
 40
9.0
 40
10.0
 40
10.0
 40
10.0
 40
11.0
 40
11.0
 40
11.0
 40
12.0
 40
12.0
 40
12.0
 40
12.0
 10
391.3631916339301
 20
-233.6946071464375
 30
0.0
 10
391.3886853405209
 20
-233.45345046247
 30
0.0
 10
391.3631916339301
 20
-233.1743977281647
 30
0.0
 10
391.3249510740438
 20
-232.7933701674961
 30
0.0
 10
391.2360676105243
 20
-232.1456922162691
 30
0.0
 10
390.969417219966
 20
-231.5359103153799
 30
0.0
 10
390.5249999023688
 20
-231.0659992911918
 30
0.0
 10
390.0299396811384
 20
-230.5202961663283
 30
0.0
 10
389.3061251196873
 20
-230.1265217523642
 30
0.0
 10
388.3284070209735
 20
-229.9739040223676
 30
0.0
 10
388.3284070209735
 20
-229.9739040223676
 30
0.0
 10
388.3284070209735
 20
-230.0124890918025
 30
0.0
 10
388.3284070209735
 20
-230.0124890918025
 30
0.0
 10
388.8868569991325
 20
-230.4693087531466
 30
0.0
 10
389.2172416561679
 20
-231.129733557669
 30
0.0
 10
389.2172416561679
 20
-231.9551784359348
 30
0.0
 10
389.2172416561679
 20
-233.4410481187231
 30
0.0
 10
388.0996526807529
 20
-234.3932725108461
 30
0.0
 10
386.6902641177372
 20
-234.3932725108461
 30
0.0
 10
385.1282578247248
 20
-234.3932725108461
 30
0.0
 10
383.7567653120469
 20
-233.2632811916842
 30
0.0
 10
383.7567653120469
 20
-231.5741508752662
 30
0.0
 10
383.7567653120469
 20
-229.8850205588482
 30
0.0
 10
385.1282578247248
 20
-228.8439127032057
 30
0.0
 10
387.2363117521493
 20
-228.8439127032057
 30
0.0
 10
389.0522215824245
 20
-228.8439127032057
 30
0.0
 10
390.3220837782875
 20
-229.4536946040949
 30
0.0
 10
391.1092880966671
 20
-230.2660481195168
 30
0.0
 10
391.7314723413034
 20
-230.9013237269969
 30
0.0
 10
392.1124999019719
 20
-231.7770669993474
 30
0.0
 10
392.2141302187867
 20
-232.6662461440904
 30
0.0
 10
392.2775199757154
 20
-233.0724229018014
 30
0.0
 10
392.2902668290109
 20
-233.4279567558791
 30
0.0
 10
392.2775199757154
 20
-233.6946071464375
 30
0.0
 10
392.2775199757154
 20
-233.6946071464375
 30
0.0
 10
391.3631916339301
 20
-233.6946071464375
 30
0.0
 10
391.3631916339301
 20
-233.6946071464375
 30
0.0
  0
SPLINE
  5
147
330
1F
100
AcDbEntity
  8
Livello 1
100
AcDbSpline
210
0.0
220
0.0
230
1.0
 70
     9
 71
     3
 72
    20
 73
    16
 74
     0
 42
0.000000001
 43
0.0000000001
 40
0.0
 40
0.0
 40
0.0
 40
0.0
 40
1.0
 40
1.0
 40
1.0
 40
2.0
 40
2.0
 40
2.0
 40
3.0
 40
3.0
 40
3.0
 40
4.0
 40
4.0
 40
4.0
 40
5.0
 40
5.0
 40
5.0
 40
5.0
 10
386.6141275075132
 20
-233.2884303887265
 30
0.0
 10
387.6424885098601
 20
-233.2884303887265
 30
0.0
 10
388.3663030713112
 20
-232.6662461440904
 30
0.0
 10
388.3663030713112
 20
-231.7012748986719
 30
0.0
 10
388.3663030713112
 20
-230.9519666306301
 30
0.0
 10
387.998022363938
 20
-230.3680229458802
 30
0.0
 10
387.5029621427076
 20
-230.075878848731
 30
0.0
 10
387.4013318258927
 20
-230.0124890918025
 30
0.0
 10
387.274207802487
 20
-229.9739040223676
 30
0.0
 10
387.0964408754482
 20
-229.9739040223676
 30
0.0
 10
385.6870523124324
 20
-229.9739040223676
 30
0.0
 10
384.6077038969037
 20
-230.4948024597374
 30
0.0
 10
384.6077038969037
 20
-231.6630343387856
 30
0.0
 10
384.6077038969037
 20
-232.6156032404572
 30
0.0
 10
385.4458956284649
 20
-233.2884303887265
 30
0.0
 10
386.6141275075132
 20
-233.2884303887265
 30
0.0
  0
HATCH
  5
148
330
1F
100
AcDbEntity
  8
Livello 1
100
AcDbHatch
 10
0.0
 20
0.0
 30
0.0
210
0.0
220
0.0
230
1.0
  2
SOLID
 70
     1
 71
     0
 91
        2
 92
        1
 93
        1
 72
     4
 94
        3
 73
     0
 74
     0
 95
       41
 96
       37
 40
0.0
 40
0.0
 40
0.0
 40
0.0
 40
1.0
 40
1.0
 40
1.0
 40
2.0
 40
2.0
 40
2.0
 40
3.0
 40
3.0
 40
3.0
 40
4.0
 40
4.0
 40
4.0
 40
5.0
 40
5.0
 40
5.0
 40
6.0
 40
6.0
 40
6.0
 40
7.0
 40
7.0
 40
7.0
 40
8.0
 40
8.0
 40
8.0
 40
9.0
 40
9.0
 40
9.0
 40
10.0
 40
10.0
 40
10.0
 40
11.0
 40
11.0
 40
11.0
 40
12.0
 40
12.0
 40
12.0
 40
12.0
 10
391.3631916339301
 20
-233.6946071464375
 10
391.3886853405209
 20
-233.45345046247
 10
391.3631916339301
 20
-233.1743977281647
 10
391.3249510740438
 20
-232.7933701674961
 10
391.2360676105243
 20
-232.1456922162691
 10
390.969417219966
 20
-231.5359103153799
 10
390.5249999023688
 20
-231.0659992911918
 10
390.0299396811384
 20
-230.5202961663283
 10
389.3061251196873
 20
-230.1265217523642
 10
388.3284070209735
 20
-229.9739040223676
 10
388.3284070209735
 20
-229.9739040223676
 10
388.3284070209735
 20
-230.0124890918025
 10
388.3284070209735
 20
-230.0124890918025
 10
388.8868569991325
 20
-230.4693087531466
 10
389.2172416561679
 20
-231.129733557669
 10
389.2172416561679
 20
-231.9551784359348
 10
389.2172416561679
 20
-233.4410481187231
 10
388.0996526807529
 20
-234.3932725108461
 10
386.6902641177372
 20
-234.3932725108461
 10
385.1282578247248
 20
-234.3932725108461
 10
383.7567653120469
 20
-233.2632811916842
 10
383.7567653120469
 20
-231.5741508752662
 10
383.7567653120469
 20
-229.8850205588482
 10
385.1282578247248
 20
-228.8439127032057
 10
387.2363117521493
 20
-228.8439127032057
 10
389.0522215824245
 20
-228.8439127032057
 10
390.3220837782875
 20
-229.4536946040949
 10
391.1092880966671
 20
-230.2660481195168
 10
391.7314723413034
 20
-230.9013237269969
 10
392.1124999019719
 20
-231.7770669993474
 10
392.2141302187867
 20
-232.6662461440904
 10
392.2775199757154
 20
-233.0724229018014
 10
392.2902668290109
 20
-233.4279567558791
 10
392.2775199757154
 20
-233.6946071464375
 10
392.2775199757154
 20
-233.6946071464375
 10
391.3631916339301
 20
-233.6946071464375
 10
391.3631916339301
 20
-233.6946071464375
 97
        0
 97
        0
 92
        1
 93
        1
 72
     4
 94
        3
 73
     0
 74
     0
 95
       20
 96
       16
 40
0.0
 40
0.0
 40
0.0
 40
0.0
 40
1.0
 40
1.0
 40
1.0
 40
2.0
 40
2.0
 40
2.0
 40
3.0
 40
3.0
 40
3.0
 40
4.0
 40
4.0
 40
4.0
 40
5.0
 40
5.0
 40
5.0
 40
5.0
 10
386.6141275075132
 20
-233.2884303887265
 10
387.6424885098601
 20
-233.2884303887265
 10
388.3663030713112
 20
-232.6662461440904
 10
388.3663030713112
 20
-231.7012748986719
 10
388.3663030713112
 20
-230.9519666306301
 10
387.998022363938
 20
-230.3680229458802
 10
387.5029621427076
 20
-230.075878848731
 10
387.4013318258927
 20
-230.0124890918025
 10
387.274207802487
 20
-229.9739040223676
 10
387.0964408754482
 20
-229.9739040223676
 10
385.6870523124324
 20
-229.9739040223676
 10
384.6077038969037
 20
-230.4948024597374
 10
384.6077038969037
 20
-231.6630343387856
 10
384.6077038969037
 20
-232.6156032404572
 10
385.4458956284649
 20
-233.2884303887265
 10
386.6141275075132
 20
-233.2884303887265
 97
        0
 97
        0
 75
     2
 76
     1
 98
        0
450
        0
451
        0
460
0.0
461
0.0
452
        0
462
0.0
453
        0
470

  0
SPLINE
  5
149
330
1F
100
AcDbEntity
  8
Livello 1
100
AcDbSpline
210
0.0
220
0.0
230
1.0
 70
     9
 71
     3
 72
    17
 73
    13
 74
     0
 42
0.000000001
 43
0.0000000001
 40
0.0
 40
0.0
 40
0.0
 40
0.0
 40
1.0
 40
1.0
 40
1.0
 40
2.0
 40
2.0
 40
2.0
 40
3.0
 40
3.0
 40
3.0
 40
4.0
 40
4.0
 40
4.0
 40
4.0
 10
387.9346326070093
 20
-222.3416394843451
 30
0.0
 10
390.7410073892939
 20
-222.3416394843451
 30
0.0
 10
392.2902668290109
 20
-223.3830918495362
 30
0.0
 10
392.2902668290109
 20
-225.2117485331068
 30
0.0
 10
392.2902668290109
 20
-226.8243977297522
 30
0.0
 10
390.7789034396317
 20
-227.9164929985764
 30
0.0
 10
388.0490097771197
 20
-227.9419867051673
 30
0.0
 10
385.2805310451729
 20
-227.9419867051673
 30
0.0
 10
383.7567653120469
 20
-226.7482611195282
 30
0.0
 10
383.7567653120469
 20
-225.0722221659542
 30
0.0
 10
383.7567653120469
 20
-223.332448945903
 30
0.0
 10
385.3060247517639
 20
-222.3416394843451
 30
0.0
 10
387.9346326070093
 20
-222.3416394843451
 30
0.0
  0
SPLINE
  5
14A
330
1F
100
AcDbEntity
  8
Livello 1
100
AcDbSpline
210
0.0
220
0.0
230
1.0
 70
     9
 71
     3
 72
    17
 73
    13
 74
     0
 42
0.000000001
 43
0.0000000001
 40
0.0
 40
0.0
 40
0.0
 40
0.0
 40
1.0
 40
1.0
 40
1.0
 40
2.0
 40
2.0
 40
2.0
 40
3.0
 40
3.0
 40
3.0
 40
4.0
 40
4.0
 40
4.0
 40
4.0
 10
388.0617566304151
 20
-226.8243977297522
 30
0.0
 10
390.2077066081773
 20
-226.8243977297522
 30
0.0
 10
391.4265813908586
 20
-226.1639729252298
 30
0.0
 10
391.4265813908586
 20
-225.1480142666297
 30
0.0
 10
391.4265813908586
 20
-224.0052760941723
 30
0.0
 10
390.093329438067
 20
-223.4592284597602
 30
0.0
 10
387.9852755106426
 20
-223.4592284597602
 30
0.0
 10
385.9537027029908
 20
-223.4592284597602
 30
0.0
 10
384.6204507501992
 20
-223.98012689713
 30
0.0
 10
384.6204507501992
 20
-225.1356119228828
 30
0.0
 10
384.6204507501992
 20
-226.1133300215967
 30
0.0
 10
385.8138318262896
 20
-226.8243977297522
 30
0.0
 10
388.0617566304151
 20
-226.8243977297522
 30
0.0
  0
HATCH
  5
14B
330
1F
100
AcDbEntity
  8
Livello 1
100
AcDbHatch
 10
0.0
 20
0.0
 30
0.0
210
0.0
220
0.0
230
1.0
  2
SOLID
 70
     1
 71
     0
 91
        2
 92
        1
 93
        1
 72
     4
 94
        3
 73
     0
 74
     0
 95
       17
 96
       13
 40
0.0
 40
0.0
 40
0.0
 40
0.0
 40
1.0
 40
1.0
 40
1.0
 40
2.0
 40
2.0
 40
2.0
 40
3.0
 40
3.0
 40
3.0
 40
4.0
 40
4.0
 40
4.0
 40
4.0
 10
387.9346326070093
 20
-222.3416394843451
 10
390.7410073892939
 20
-222.3416394843451
 10
392.2902668290109
 20
-223.3830918495362
 10
392.2902668290109
 20
-225.2117485331068
 10
392.2902668290109
 20
-226.8243977297522
 10
390.7789034396317
 20
-227.9164929985764
 10
388.0490097771197
 20
-227.9419867051673
 10
385.2805310451729
 20
-227.9419867051673
 10
383.7567653120469
 20
-226.7482611195282
 10
383.7567653120469
 20
-225.0722221659542
 10
383.7567653120469
 20
-223.332448945903
 10
385.3060247517639
 20
-222.3416394843451
 10
387.9346326070093
 20
-222.3416394843451
 97
        0
 97
        0
 92
        1
 93
        1
 72
     4
 94
        3
 73
     0
 74
     0
 95
       17
 96
       13
 40
0.0
 40
0.0
 40
0.0
 40
0.0
 40
1.0
 40
1.0
 40
1.0
 40
2.0
 40
2.0
 40
2.0
 40
3.0
 40
3.0
 40
3.0
 40
4.0
 40
4.0
 40
4.0
 40
4.0
 10
388.0617566304151
 20
-226.8243977297522
 10
390.2077066081773
 20
-226.8243977297522
 10
391.4265813908586
 20
-226.1639729252298
 10
391.4265813908586
 20
-225.1480142666297
 10
391.4265813908586
 20
-224.0052760941723
 10
390.093329438067
 20
-223.4592284597602
 10
387.9852755106426
 20
-223.4592284597602
 10
385.9537027029908
 20
-223.4592284597602
 10
384.6204507501992
 20
-223.98012689713
 10
384.6204507501992
 20
-225.1356119228828
 10
384.6204507501992
 20
-226.1133300215967
 10
385.8138318262896
 20
-226.8243977297522
 10
388.0617566304151
 20
-226.8243977297522
 97
        0
 97
        0
 75
     2
 76
     1
 98
        0
450
        0
451
        0
460
0.0
461
0.0
452
        0
462
0.0
453
        0
470

  0
SPLINE
  5
14C
330
1F
100
AcDbEntity
  8
Livello 1
100
AcDbSpline
210
0.0
220
0.0
230
1.0
 70
    11
 71
     3
 72
    47
 73
    43
 74
     0
 42
0.000000001
 43
0.0000000001
 40
0.0
 40
0.0
 40
0.0
 40
0.0
 40
1.0
 40
1.0
 40
1.0
 40
2.0
 40
2.0
 40
2.0
 40
3.0
 40
3.0
 40
3.0
 40
4.0
 40
4.0
 40
4.0
 40
5.0
 40
5.0
 40
5.0
 40
6.0
 40
6.0
 40
6.0
 40
7.0
 40
7.0
 40
7.0
 40
8.0
 40
8.0
 40
8.0
 40
9.0
 40
9.0
 40
9.0
 40
10.0
 40
10.0
 40
10.0
 40
11.0
 40
11.0
 40
11.0
 40
12.0
 40
12.0
 40
12.0
 40
13.0
 40
13.0
 40
13.0
 40
14.0
 40
14.0
 40
14.0
 40
14.0
 10
286.5113660308026
 20
-25.87266709422628
 30
0.0
 10
286.5113660308026
 20
-25.87266709422628
 30
0.0
 10
286.5113660308026
 20
-25.1869208378873
 30
0.0
 10
286.5113660308026
 20
-25.1869208378873
 30
0.0
 10
286.5113660308026
 20
-25.1869208378873
 30
0.0
 10
287.387626067476
 20
-24.33615450780485
 30
0.0
 10
287.387626067476
 20
-24.33615450780485
 30
0.0
 10
289.4955077401261
 20
-22.32973089719536
 30
0.0
 10
290.4479043870235
 20
-21.263129334962
 30
0.0
 10
290.4606512403189
 20
-20.01876084568976
 30
0.0
 10
290.4606512403189
 20
-19.18056911412847
 30
0.0
 10
290.0543022278337
 20
-18.40593939427004
 30
0.0
 10
288.8225083370826
 20
-18.40593939427004
 30
0.0
 10
288.0733723238151
 20
-18.40593939427004
 30
0.0
 10
287.4511880791789
 20
-18.78696695493868
 30
0.0
 10
287.0701605185102
 20
-19.10443250390445
 30
0.0
 10
287.0701605185102
 20
-19.10443250390445
 30
0.0
 10
286.7146266644324
 20
-18.3170559307506
 30
0.0
 10
286.7146266644324
 20
-18.3170559307506
 30
0.0
 10
287.2859957506611
 20
-17.83457030804136
 30
0.0
 10
288.0986937756317
 20
-17.47903645396358
 30
0.0
 10
289.0510904225289
 20
-17.47903645396358
 30
0.0
 10
290.8289319476921
 20
-17.47903645396358
 30
0.0
 10
291.5780679609597
 20
-18.69808349141923
 30
0.0
 10
291.5780679609597
 20
-19.87906222376288
 30
0.0
 10
291.5780679609597
 20
-21.40282795688888
 30
0.0
 10
290.4733980936143
 20
-22.63462184763996
 30
0.0
 10
288.7336248735632
 20
-24.31083305598827
 30
0.0
 10
288.7336248735632
 20
-24.31083305598827
 30
0.0
 10
288.0733723238151
 20
-24.92027044732897
 30
0.0
 10
288.0733723238151
 20
-24.92027044732897
 30
0.0
 10
288.0733723238151
 20
-24.92027044732897
 30
0.0
 10
288.0733723238151
 20
-24.94576415391981
 30
0.0
 10
288.0733723238151
 20
-24.94576415391981
 30
0.0
 10
288.0733723238151
 20
-24.94576415391981
 30
0.0
 10
291.7813285945894
 20
-24.94576415391981
 30
0.0
 10
291.7813285945894
 20
-24.94576415391981
 30
0.0
 10
291.7813285945894
 20
-24.94576415391981
 30
0.0
 10
291.7813285945894
 20
-25.87266709422628
 30
0.0
 10
291.7813285945894
 20
-25.87266709422628
 30
0.0
 10
291.7813285945894
 20
-25.87266709422628
 30
0.0
 10
286.5113660308026
 20
-25.87266709422628
 30
0.0
 10
286.5113660308026
 20
-25.87266709422628
 30
0.0
  0
HATCH
  5
14D
330
1F
100
AcDbEntity
  8
Livello 1
100
AcDbHatch
 10
0.0
 20
0.0
 30
0.0
210
0.0
220
0.0
230
1.0
  2
SOLID
 70
     1
 71
     0
 91
        1
 92
        1
 93
        1
 72
     4
 94
        3
 73
     0
 74
     0
 95
       47
 96
       43
 40
0.0
 40
0.0
 40
0.0
 40
0.0
 40
1.0
 40
1.0
 40
1.0
 40
2.0
 40
2.0
 40
2.0
 40
3.0
 40
3.0
 40
3.0
 40
4.0
 40
4.0
 40
4.0
 40
5.0
 40
5.0
 40
5.0
 40
6.0
 40
6.0
 40
6.0
 40
7.0
 40
7.0
 40
7.0
 40
8.0
 40
8.0
 40
8.0
 40
9.0
 40
9.0
 40
9.0
 40
10.0
 40
10.0
 40
10.0
 40
11.0
 40
11.0
 40
11.0
 40
12.0
 40
12.0
 40
12.0
 40
13.0
 40
13.0
 40
13.0
 40
14.0
 40
14.0
 40
14.0
 40
14.0
 10
286.5113660308026
 20
-25.87266709422628
 10
286.5113660308026
 20
-25.87266709422628
 10
286.5113660308026
 20
-25.1869208378873
 10
286.5113660308026
 20
-25.1869208378873
 10
286.5113660308026
 20
-25.1869208378873
 10
287.387626067476
 20
-24.33615450780485
 10
287.387626067476
 20
-24.33615450780485
 10
289.4955077401261
 20
-22.32973089719536
 10
290.4479043870235
 20
-21.263129334962
 10
290.4606512403189
 20
-20.01876084568976
 10
290.4606512403189
 20
-19.18056911412847
 10
290.0543022278337
 20
-18.40593939427004
 10
288.8225083370826
 20
-18.40593939427004
 10
288.0733723238151
 20
-18.40593939427004
 10
287.4511880791789
 20
-18.78696695493868
 10
287.0701605185102
 20
-19.10443250390445
 10
287.0701605185102
 20
-19.10443250390445
 10
286.7146266644324
 20
-18.3170559307506
 10
286.7146266644324
 20
-18.3170559307506
 10
287.2859957506611
 20
-17.83457030804136
 10
288.0986937756317
 20
-17.47903645396358
 10
289.0510904225289
 20
-17.47903645396358
 10
290.8289319476921
 20
-17.47903645396358
 10
291.5780679609597
 20
-18.69808349141923
 10
291.5780679609597
 20
-19.87906222376288
 10
291.5780679609597
 20
-21.40282795688888
 10
290.4733980936143
 20
-22.63462184763996
 10
288.7336248735632
 20
-24.31083305598827
 10
288.7336248735632
 20
-24.31083305598827
 10
288.0733723238151
 20
-24.92027044732897
 10
288.0733723238151
 20
-24.92027044732897
 10
288.0733723238151
 20
-24.92027044732897
 10
288.0733723238151
 20
-24.94576415391981
 10
288.0733723238151
 20
-24.94576415391981
 10
288.0733723238151
 20
-24.94576415391981
 10
291.7813285945894
 20
-24.94576415391981
 10
291.7813285945894
 20
-24.94576415391981
 10
291.7813285945894
 20
-24.94576415391981
 10
291.7813285945894
 20
-25.87266709422628
 10
291.7813285945894
 20
-25.87266709422628
 10
291.7813285945894
 20
-25.87266709422628
 10
286.5113660308026
 20
-25.87266709422628
 10
286.5113660308026
 20
-25.87266709422628
 97
        0
 97
        0
 75
     2
 76
     1
 98
        0
450
        0
451
        0
460
0.0
461
0.0
452
        0
462
0.0
453
        0
470

  0
SPLINE
  5
14E
330
1F
100
AcDbEntity
  8
Livello 1
100
AcDbSpline
210
0.0
220
0.0
230
1.0
 70
     9
 71
     3
 72
    59
 73
    55
 74
     0
 42
0.000000001
 43
0.0000000001
 40
0.0
 40
0.0
 40
0.0
 40
0.0
 40
1.0
 40
1.0
 40
1.0
 40
2.0
 40
2.0
 40
2.0
 40
3.0
 40
3.0
 40
3.0
 40
4.0
 40
4.0
 40
4.0
 40
5.0
 40
5.0
 40
5.0
 40
6.0
 40
6.0
 40
6.0
 40
7.0
 40
7.0
 40
7.0
 40
8.0
 40
8.0
 40
8.0
 40
9.0
 40
9.0
 40
9.0
 40
10.0
 40
10.0
 40
10.0
 40
11.0
 40
11.0
 40
11.0
 40
12.0
 40
12.0
 40
12.0
 40
13.0
 40
13.0
 40
13.0
 40
14.0
 40
14.0
 40
14.0
 40
15.0
 40
15.0
 40
15.0
 40
16.0
 40
16.0
 40
16.0
 40
17.0
 40
17.0
 40
17.0
 40
18.0
 40
18.0
 40
18.0
 40
18.0
 10
293.2928642387428
 20
-24.59005804506777
 30
0.0
 10
293.6103297877086
 20
-24.79331867869751
 30
0.0
 10
294.346891202455
 20
-25.11078422766328
 30
0.0
 10
295.1215209223134
 20
-25.11078422766328
 30
0.0
 10
296.5564031919198
 20
-25.11078422766328
 30
0.0
 10
297.0008205095171
 20
-24.19645588587797
 30
0.0
 10
296.988245910996
 20
-23.51070962953899
 30
0.0
 10
296.9754990577006
 20
-22.35522460378619
 30
0.0
 10
295.9342189472838
 20
-21.85999212778153
 30
0.0
 10
294.8548705317551
 20
-21.85999212778153
 30
0.0
 10
294.8548705317551
 20
-21.85999212778153
 30
0.0
 10
294.232686287119
 20
-21.85999212778153
 30
0.0
 10
294.232686287119
 20
-21.85999212778153
 30
0.0
 10
294.232686287119
 20
-21.85999212778153
 30
0.0
 10
294.232686287119
 20
-21.02180039622025
 30
0.0
 10
294.232686287119
 20
-21.02180039622025
 30
0.0
 10
294.232686287119
 20
-21.02180039622025
 30
0.0
 10
294.8548705317551
 20
-21.02180039622025
 30
0.0
 10
294.8548705317551
 20
-21.02180039622025
 30
0.0
 10
295.6675685567255
 20
-21.02180039622025
 30
0.0
 10
296.6961018138468
 20
-20.60287678521387
 30
0.0
 10
296.6961018138468
 20
-19.6249864317257
 30
0.0
 10
296.6961018138468
 20
-18.96473388197757
 30
0.0
 10
296.2770059480662
 20
-18.38061794245346
 30
0.0
 10
295.2484726909448
 20
-18.38061794245346
 30
0.0
 10
294.5882201411966
 20
-18.38061794245346
 30
0.0
 10
293.9532890432652
 20
-18.67258978482838
 30
0.0
 10
293.5977551891874
 20
-18.92666557686556
 30
0.0
 10
293.5977551891874
 20
-18.92666557686556
 30
0.0
 10
293.3056110920382
 20
-18.11396755189512
 30
0.0
 10
293.3056110920382
 20
-18.11396755189512
 30
0.0
 10
293.7374538111143
 20
-17.79650200292935
 30
0.0
 10
294.5754732879013
 20
-17.47903645396358
 30
0.0
 10
295.4643079230958
 20
-17.47903645396358
 30
0.0
 10
297.0897039730366
 20
-17.47903645396358
 30
0.0
 10
297.8262653877831
 20
-18.44417995415632
 30
0.0
 10
297.8262653877831
 20
-19.44721950468681
 30
0.0
 10
297.8262653877831
 20
-20.29798583476925
 30
0.0
 10
297.318286058483
 20
-21.02180039622025
 30
0.0
 10
296.302499654657
 20
-21.39008110359345
 30
0.0
 10
296.302499654657
 20
-21.39008110359345
 30
0.0
 10
296.302499654657
 20
-21.4155748101843
 30
0.0
 10
296.302499654657
 20
-21.4155748101843
 30
0.0
 10
297.318286058483
 20
-21.61866318903978
 30
0.0
 10
298.1437309367488
 20
-22.38054605560278
 30
0.0
 10
298.1437309367488
 20
-23.53620333612984
 30
0.0
 10
298.1437309367488
 20
-24.85688069040036
 30
0.0
 10
297.1151976796274
 20
-26.01236571615316
 30
0.0
 10
295.1342677756088
 20
-26.01236571615316
 30
0.0
 10
294.2071925805281
 20
-26.01236571615316
 30
0.0
 10
293.3944945555576
 20
-25.72022161900397
 30
0.0
 10
292.9881455430723
 20
-25.45357122844564
 30
0.0
 10
292.9881455430723
 20
-25.45357122844564
 30
0.0
 10
293.2928642387428
 20
-24.59005804506777
 30
0.0
 10
293.2928642387428
 20
-24.59005804506777
 30
0.0
  0
HATCH
  5
14F
330
1F
100
AcDbEntity
  8
Livello 1
100
AcDbHatch
 10
0.0
 20
0.0
 30
0.0
210
0.0
220
0.0
230
1.0
  2
SOLID
 70
     1
 71
     0
 91
        1
 92
        1
 93
        1
 72
     4
 94
        3
 73
     0
 74
     0
 95
       59
 96
       55
 40
0.0
 40
0.0
 40
0.0
 40
0.0
 40
1.0
 40
1.0
 40
1.0
 40
2.0
 40
2.0
 40
2.0
 40
3.0
 40
3.0
 40
3.0
 40
4.0
 40
4.0
 40
4.0
 40
5.0
 40
5.0
 40
5.0
 40
6.0
 40
6.0
 40
6.0
 40
7.0
 40
7.0
 40
7.0
 40
8.0
 40
8.0
 40
8.0
 40
9.0
 40
9.0
 40
9.0
 40
10.0
 40
10.0
 40
10.0
 40
11.0
 40
11.0
 40
11.0
 40
12.0
 40
12.0
 40
12.0
 40
13.0
 40
13.0
 40
13.0
 40
14.0
 40
14.0
 40
14.0
 40
15.0
 40
15.0
 40
15.0
 40
16.0
 40
16.0
 40
16.0
 40
17.0
 40
17.0
 40
17.0
 40
18.0
 40
18.0
 40
18.0
 40
18.0
 10
293.2928642387428
 20
-24.59005804506777
 10
293.6103297877086
 20
-24.79331867869751
 10
294.346891202455
 20
-25.11078422766328
 10
295.1215209223134
 20
-25.11078422766328
 10
296.5564031919198
 20
-25.11078422766328
 10
297.0008205095171
 20
-24.19645588587797
 10
296.988245910996
 20
-23.51070962953899
 10
296.9754990577006
 20
-22.35522460378619
 10
295.9342189472838
 20
-21.85999212778153
 10
294.8548705317551
 20
-21.85999212778153
 10
294.8548705317551
 20
-21.85999212778153
 10
294.232686287119
 20
-21.85999212778153
 10
294.232686287119
 20
-21.85999212778153
 10
294.232686287119
 20
-21.85999212778153
 10
294.232686287119
 20
-21.02180039622025
 10
294.232686287119
 20
-21.02180039622025
 10
294.232686287119
 20
-21.02180039622025
 10
294.8548705317551
 20
-21.02180039622025
 10
294.8548705317551
 20
-21.02180039622025
 10
295.6675685567255
 20
-21.02180039622025
 10
296.6961018138468
 20
-20.60287678521387
 10
296.6961018138468
 20
-19.6249864317257
 10
296.6961018138468
 20
-18.96473388197757
 10
296.2770059480662
 20
-18.38061794245346
 10
295.2484726909448
 20
-18.38061794245346
 10
294.5882201411966
 20
-18.38061794245346
 10
293.9532890432652
 20
-18.67258978482838
 10
293.5977551891874
 20
-18.92666557686556
 10
293.5977551891874
 20
-18.92666557686556
 10
293.3056110920382
 20
-18.11396755189512
 10
293.3056110920382
 20
-18.11396755189512
 10
293.7374538111143
 20
-17.79650200292935
 10
294.5754732879013
 20
-17.47903645396358
 10
295.4643079230958
 20
-17.47903645396358
 10
297.0897039730366
 20
-17.47903645396358
 10
297.8262653877831
 20
-18.44417995415632
 10
297.8262653877831
 20
-19.44721950468681
 10
297.8262653877831
 20
-20.29798583476925
 10
297.318286058483
 20
-21.02180039622025
 10
296.302499654657
 20
-21.39008110359345
 10
296.302499654657
 20
-21.39008110359345
 10
296.302499654657
 20
-21.4155748101843
 10
296.302499654657
 20
-21.4155748101843
 10
297.318286058483
 20
-21.61866318903978
 10
298.1437309367488
 20
-22.38054605560278
 10
298.1437309367488
 20
-23.53620333612984
 10
298.1437309367488
 20
-24.85688069040036
 10
297.1151976796274
 20
-26.01236571615316
 10
295.1342677756088
 20
-26.01236571615316
 10
294.2071925805281
 20
-26.01236571615316
 10
293.3944945555576
 20
-25.72022161900397
 10
292.9881455430723
 20
-25.45357122844564
 10
292.9881455430723
 20
-25.45357122844564
 10
293.2928642387428
 20
-24.59005804506777
 10
293.2928642387428
 20
-24.59005804506777
 97
        0
 97
        0
 75
     2
 76
     1
 98
        0
450
        0
451
        0
460
0.0
461
0.0
452
        0
462
0.0
453
        0
470

  0
SPLINE
  5
150
330
1F
100
AcDbEntity
  8
Livello 1
100
AcDbSpline
210
0.0
220
0.0
230
1.0
 70
    11
 71
     3
 72
    59
 73
    55
 74
     0
 42
0.000000001
 43
0.0000000001
 40
0.0
 40
0.0
 40
0.0
 40
0.0
 40
1.0
 40
1.0
 40
1.0
 40
2.0
 40
2.0
 40
2.0
 40
3.0
 40
3.0
 40
3.0
 40
4.0
 40
4.0
 40
4.0
 40
5.0
 40
5.0
 40
5.0
 40
6.0
 40
6.0
 40
6.0
 40
7.0
 40
7.0
 40
7.0
 40
8.0
 40
8.0
 40
8.0
 40
9.0
 40
9.0
 40
9.0
 40
10.0
 40
10.0
 40
10.0
 40
11.0
 40
11.0
 40
11.0
 40
12.0
 40
12.0
 40
12.0
 40
13.0
 40
13.0
 40
13.0
 40
14.0
 40
14.0
 40
14.0
 40
15.0
 40
15.0
 40
15.0
 40
16.0
 40
16.0
 40
16.0
 40
17.0
 40
17.0
 40
17.0
 40
18.0
 40
18.0
 40
18.0
 40
18.0
 10
303.1096638239622
 20
-19.72661674854057
 30
0.0
 10
303.1096638239622
 20
-19.72661674854057
 30
0.0
 10
303.9859238606354
 20
-21.04729410281109
 30
0.0
 10
303.9859238606354
 20
-21.04729410281109
 30
0.0
 10
304.2143336913076
 20
-21.39008110359345
 30
0.0
 10
304.4048474716419
 20
-21.70754665255923
 30
0.0
 10
304.6081081052716
 20
-22.05050590811584
 30
0.0
 10
304.6081081052716
 20
-22.05050590811584
 30
0.0
 10
304.6461764103836
 20
-22.05050590811584
 30
0.0
 10
304.6461764103836
 20
-22.05050590811584
 30
0.0
 10
304.8492647892391
 20
-21.68222520074264
 30
0.0
 10
305.0525254228688
 20
-21.36475965177687
 30
0.0
 10
305.2556138017243
 20
-21.03454724951567
 30
0.0
 10
305.2556138017243
 20
-21.03454724951567
 30
0.0
 10
306.1191269851022
 20
-19.72661674854057
 30
0.0
 10
306.1191269851022
 20
-19.72661674854057
 30
0.0
 10
306.1191269851022
 20
-19.72661674854057
 30
0.0
 10
307.3255994240367
 20
-19.72661674854057
 30
0.0
 10
307.3255994240367
 20
-19.72661674854057
 30
0.0
 10
307.3255994240367
 20
-19.72661674854057
 30
0.0
 10
305.2302923499077
 20
-22.69801160456855
 30
0.0
 10
305.2302923499077
 20
-22.69801160456855
 30
0.0
 10
305.2302923499077
 20
-22.69801160456855
 30
0.0
 10
307.3889891809653
 20
-25.87266709422628
 30
0.0
 10
307.3889891809653
 20
-25.87266709422628
 30
0.0
 10
307.3889891809653
 20
-25.87266709422628
 30
0.0
 10
306.1191269851022
 20
-25.87266709422628
 30
0.0
 10
306.1191269851022
 20
-25.87266709422628
 30
0.0
 10
306.1191269851022
 20
-25.87266709422628
 30
0.0
 10
305.2175454966123
 20
-24.48859998302716
 30
0.0
 10
305.2175454966123
 20
-24.48859998302716
 30
0.0
 10
304.9763888126448
 20
-24.13306612894937
 30
0.0
 10
304.7731281790151
 20
-23.79010687339275
 30
0.0
 10
304.5572929468642
 20
-23.42182616601955
 30
0.0
 10
304.5572929468642
 20
-23.42182616601955
 30
0.0
 10
304.5317992402733
 20
-23.42182616601955
 30
0.0
 10
304.5317992402733
 20
-23.42182616601955
 30
0.0
 10
304.3287108614178
 20
-23.79010687339275
 30
0.0
 10
304.1128756292669
 20
-24.12031927565395
 30
0.0
 10
303.8842935438206
 20
-24.48859998302716
 30
0.0
 10
303.8842935438206
 20
-24.48859998302716
 30
0.0
 10
302.9952866538519
 20
-25.87266709422628
 30
0.0
 10
302.9952866538519
 20
-25.87266709422628
 30
0.0
 10
302.9952866538519
 20
-25.87266709422628
 30
0.0
 10
301.763665017875
 20
-25.87266709422628
 30
0.0
 10
301.763665017875
 20
-25.87266709422628
 30
0.0
 10
301.763665017875
 20
-25.87266709422628
 30
0.0
 10
303.9476833007492
 20
-22.73607990968057
 30
0.0
 10
303.9476833007492
 20
-22.73607990968057
 30
0.0
 10
303.9476833007492
 20
-22.73607990968057
 30
0.0
 10
301.8652953346899
 20
-19.72661674854057
 30
0.0
 10
301.8652953346899
 20
-19.72661674854057
 30
0.0
 10
301.8652953346899
 20
-19.72661674854057
 30
0.0
 10
303.1096638239622
 20
-19.72661674854057
 30
0.0
 10
303.1096638239622
 20
-19.72661674854057
 30
0.0
  0
HATCH
  5
151
330
1F
100
AcDbEntity
  8
Livello 1
100
AcDbHatch
 10
0.0
 20
0.0
 30
0.0
210
0.0
220
0.0
230
1.0
  2
SOLID
 70
     1
 71
     0
 91
        1
 92
        1
 93
        1
 72
     4
 94
        3
 73
     0
 74
     0
 95
       59
 96
       55
 40
0.0
 40
0.0
 40
0.0
 40
0.0
 40
1.0
 40
1.0
 40
1.0
 40
2.0
 40
2.0
 40
2.0
 40
3.0
 40
3.0
 40
3.0
 40
4.0
 40
4.0
 40
4.0
 40
5.0
 40
5.0
 40
5.0
 40
6.0
 40
6.0
 40
6.0
 40
7.0
 40
7.0
 40
7.0
 40
8.0
 40
8.0
 40
8.0
 40
9.0
 40
9.0
 40
9.0
 40
10.0
 40
10.0
 40
10.0
 40
11.0
 40
11.0
 40
11.0
 40
12.0
 40
12.0
 40
12.0
 40
13.0
 40
13.0
 40
13.0
 40
14.0
 40
14.0
 40
14.0
 40
15.0
 40
15.0
 40
15.0
 40
16.0
 40
16.0
 40
16.0
 40
17.0
 40
17.0
 40
17.0
 40
18.0
 40
18.0
 40
18.0
 40
18.0
 10
303.1096638239622
 20
-19.72661674854057
 10
303.1096638239622
 20
-19.72661674854057
 10
303.9859238606354
 20
-21.04729410281109
 10
303.9859238606354
 20
-21.04729410281109
 10
304.2143336913076
 20
-21.39008110359345
 10
304.4048474716419
 20
-21.70754665255923
 10
304.6081081052716
 20
-22.05050590811584
 10
304.6081081052716
 20
-22.05050590811584
 10
304.6461764103836
 20
-22.05050590811584
 10
304.6461764103836
 20
-22.05050590811584
 10
304.8492647892391
 20
-21.68222520074264
 10
305.0525254228688
 20
-21.36475965177687
 10
305.2556138017243
 20
-21.03454724951567
 10
305.2556138017243
 20
-21.03454724951567
 10
306.1191269851022
 20
-19.72661674854057
 10
306.1191269851022
 20
-19.72661674854057
 10
306.1191269851022
 20
-19.72661674854057
 10
307.3255994240367
 20
-19.72661674854057
 10
307.3255994240367
 20
-19.72661674854057
 10
307.3255994240367
 20
-19.72661674854057
 10
305.2302923499077
 20
-22.69801160456855
 10
305.2302923499077
 20
-22.69801160456855
 10
305.2302923499077
 20
-22.69801160456855
 10
307.3889891809653
 20
-25.87266709422628
 10
307.3889891809653
 20
-25.87266709422628
 10
307.3889891809653
 20
-25.87266709422628
 10
306.1191269851022
 20
-25.87266709422628
 10
306.1191269851022
 20
-25.87266709422628
 10
306.1191269851022
 20
-25.87266709422628
 10
305.2175454966123
 20
-24.48859998302716
 10
305.2175454966123
 20
-24.48859998302716
 10
304.9763888126448
 20
-24.13306612894937
 10
304.7731281790151
 20
-23.79010687339275
 10
304.5572929468642
 20
-23.42182616601955
 10
304.5572929468642
 20
-23.42182616601955
 10
304.5317992402733
 20
-23.42182616601955
 10
304.5317992402733
 20
-23.42182616601955
 10
304.3287108614178
 20
-23.79010687339275
 10
304.1128756292669
 20
-24.12031927565395
 10
303.8842935438206
 20
-24.48859998302716
 10
303.8842935438206
 20
-24.48859998302716
 10
302.9952866538519
 20
-25.87266709422628
 10
302.9952866538519
 20
-25.87266709422628
 10
302.9952866538519
 20
-25.87266709422628
 10
301.763665017875
 20
-25.87266709422628
 10
301.763665017875
 20
-25.87266709422628
 10
301.763665017875
 20
-25.87266709422628
 10
303.9476833007492
 20
-22.73607990968057
 10
303.9476833007492
 20
-22.73607990968057
 10
303.9476833007492
 20
-22.73607990968057
 10
301.8652953346899
 20
-19.72661674854057
 10
301.8652953346899
 20
-19.72661674854057
 10
301.8652953346899
 20
-19.72661674854057
 10
303.1096638239622
 20
-19.72661674854057
 10
303.1096638239622
 20
-19.72661674854057
 97
        0
 97
        0
 75
     2
 76
     1
 98
        0
450
        0
451
        0
460
0.0
461
0.0
452
        0
462
0.0
453
        0
470

  0
SPLINE
  5
152
330
1F
100
AcDbEntity
  8
Livello 1
100
AcDbSpline
210
0.0
220
0.0
230
1.0
 70
     9
 71
     3
 72
    38
 73
    34
 74
     0
 42
0.000000001
 43
0.0000000001
 40
0.0
 40
0.0
 40
0.0
 40
0.0
 40
1.0
 40
1.0
 40
1.0
 40
2.0
 40
2.0
 40
2.0
 40
3.0
 40
3.0
 40
3.0
 40
4.0
 40
4.0
 40
4.0
 40
5.0
 40
5.0
 40
5.0
 40
6.0
 40
6.0
 40
6.0
 40
7.0
 40
7.0
 40
7.0
 40
8.0
 40
8.0
 40
8.0
 40
9.0
 40
9.0
 40
9.0
 40
10.0
 40
10.0
 40
10.0
 40
11.0
 40
11.0
 40
11.0
 40
11.0
 10
315.5170029593151
 20
-18.40593939427004
 30
0.0
 10
315.2884208738689
 20
-18.39336479574888
 30
0.0
 10
314.9964490314939
 20
-18.40593939427004
 30
0.0
 10
314.6789834825282
 20
-18.45675455267748
 30
0.0
 10
312.9264634091816
 20
-18.74889864982666
 30
0.0
 10
311.9995604688751
 20
-20.03133544421093
 30
0.0
 10
311.8090466885408
 20
-21.39008110359345
 30
0.0
 10
311.8090466885408
 20
-21.39008110359345
 30
0.0
 10
311.8471149936528
 20
-21.39008110359345
 30
0.0
 10
311.8471149936528
 20
-21.39008110359345
 30
0.0
 10
312.2408894076169
 20
-20.8695271757722
 30
0.0
 10
312.9264634091816
 20
-20.43768445669614
 30
0.0
 10
313.8407917509669
 20
-20.43768445669614
 30
0.0
 10
315.3011677271643
 20
-20.43768445669614
 30
0.0
 10
316.3297009842856
 20
-21.49171142040832
 30
0.0
 10
316.3297009842856
 20
-23.10436061705377
 30
0.0
 10
316.3297009842856
 20
-24.61555175165861
 30
0.0
 10
315.3011677271643
 20
-26.01236571615316
 30
0.0
 10
313.586888213704
 20
-26.01236571615316
 30
0.0
 10
311.8217935418363
 20
-26.01236571615316
 30
0.0
 10
310.6661362613092
 20
-24.6408732034752
 30
0.0
 10
310.6661362613092
 20
-22.49492322571308
 30
0.0
 10
310.6661362613092
 20
-20.8695271757722
 30
0.0
 10
311.2504244556076
 20
-19.58691812661369
 30
0.0
 10
312.063122480578
 20
-18.77422010164325
 30
0.0
 10
312.7486964821427
 20
-18.1012206985997
 30
0.0
 10
313.663024823928
 20
-17.68212483281905
 30
0.0
 10
314.7043049343447
 20
-17.5551730641876
 30
0.0
 10
315.034517336606
 20
-17.50435790578016
 30
0.0
 10
315.3139145804597
 20
-17.491783307259
 30
0.0
 10
315.5170029593151
 20
-17.491783307259
 30
0.0
 10
315.5170029593151
 20
-17.491783307259
 30
0.0
 10
315.5170029593151
 20
-18.40593939427004
 30
0.0
 10
315.5170029593151
 20
-18.40593939427004
 30
0.0
  0
SPLINE
  5
153
330
1F
100
AcDbEntity
  8
Livello 1
100
AcDbSpline
210
0.0
220
0.0
230
1.0
 70
    11
 71
     3
 72
    20
 73
    16
 74
     0
 42
0.000000001
 43
0.0000000001
 40
0.0
 40
0.0
 40
0.0
 40
0.0
 40
1.0
 40
1.0
 40
1.0
 40
2.0
 40
2.0
 40
2.0
 40
3.0
 40
3.0
 40
3.0
 40
4.0
 40
4.0
 40
4.0
 40
5.0
 40
5.0
 40
5.0
 40
5.0
 10
315.1995374103494
 20
-23.16792262875663
 30
0.0
 10
315.1995374103494
 20
-21.98694389641299
 30
0.0
 10
314.5265380073059
 20
-21.27587618825742
 30
0.0
 10
313.4980047501845
 20
-21.27587618825742
 30
0.0
 10
312.825005347141
 20
-21.27587618825742
 30
0.0
 10
312.2026488477307
 20
-21.69497205403806
 30
0.0
 10
311.8979301520603
 20
-22.29166259208333
 30
0.0
 10
311.8217935418363
 20
-22.41878661548905
 30
0.0
 10
311.7709783834288
 20
-22.58380668923252
 30
0.0
 10
311.7709783834288
 20
-22.786895068088
 30
0.0
 10
311.7962998352453
 20
-24.14564072747054
 30
0.0
 10
312.4186563346558
 20
-25.14885253277529
 30
0.0
 10
313.586888213704
 20
-25.14885253277529
 30
0.0
 10
314.5518594591225
 20
-25.14885253277529
 30
0.0
 10
315.1995374103494
 20
-24.34890136110027
 30
0.0
 10
315.1995374103494
 20
-23.16792262875663
 30
0.0
  0
HATCH
  5
154
330
1F
100
AcDbEntity
  8
Livello 1
100
AcDbHatch
 10
0.0
 20
0.0
 30
0.0
210
0.0
220
0.0
230
1.0
  2
SOLID
 70
     1
 71
     0
 91
        2
 92
        1
 93
        1
 72
     4
 94
        3
 73
     0
 74
     0
 95
       38
 96
       34
 40
0.0
 40
0.0
 40
0.0
 40
0.0
 40
1.0
 40
1.0
 40
1.0
 40
2.0
 40
2.0
 40
2.0
 40
3.0
 40
3.0
 40
3.0
 40
4.0
 40
4.0
 40
4.0
 40
5.0
 40
5.0
 40
5.0
 40
6.0
 40
6.0
 40
6.0
 40
7.0
 40
7.0
 40
7.0
 40
8.0
 40
8.0
 40
8.0
 40
9.0
 40
9.0
 40
9.0
 40
10.0
 40
10.0
 40
10.0
 40
11.0
 40
11.0
 40
11.0
 40
11.0
 10
315.5170029593151
 20
-18.40593939427004
 10
315.2884208738689
 20
-18.39336479574888
 10
314.9964490314939
 20
-18.40593939427004
 10
314.6789834825282
 20
-18.45675455267748
 10
312.9264634091816
 20
-18.74889864982666
 10
311.9995604688751
 20
-20.03133544421093
 10
311.8090466885408
 20
-21.39008110359345
 10
311.8090466885408
 20
-21.39008110359345
 10
311.8471149936528
 20
-21.39008110359345
 10
311.8471149936528
 20
-21.39008110359345
 10
312.2408894076169
 20
-20.8695271757722
 10
312.9264634091816
 20
-20.43768445669614
 10
313.8407917509669
 20
-20.43768445669614
 10
315.3011677271643
 20
-20.43768445669614
 10
316.3297009842856
 20
-21.49171142040832
 10
316.3297009842856
 20
-23.10436061705377
 10
316.3297009842856
 20
-24.61555175165861
 10
315.3011677271643
 20
-26.01236571615316
 10
313.586888213704
 20
-26.01236571615316
 10
311.8217935418363
 20
-26.01236571615316
 10
310.6661362613092
 20
-24.6408732034752
 10
310.6661362613092
 20
-22.49492322571308
 10
310.6661362613092
 20
-20.8695271757722
 10
311.2504244556076
 20
-19.58691812661369
 10
312.063122480578
 20
-18.77422010164325
 10
312.7486964821427
 20
-18.1012206985997
 10
313.663024823928
 20
-17.68212483281905
 10
314.7043049343447
 20
-17.5551730641876
 10
315.034517336606
 20
-17.50435790578016
 10
315.3139145804597
 20
-17.491783307259
 10
315.5170029593151
 20
-17.491783307259
 10
315.5170029593151
 20
-17.491783307259
 10
315.5170029593151
 20
-18.40593939427004
 10
315.5170029593151
 20
-18.40593939427004
 97
        0
 97
        0
 92
        1
 93
        1
 72
     4
 94
        3
 73
     0
 74
     0
 95
       20
 96
       16
 40
0.0
 40
0.0
 40
0.0
 40
0.0
 40
1.0
 40
1.0
 40
1.0
 40
2.0
 40
2.0
 40
2.0
 40
3.0
 40
3.0
 40
3.0
 40
4.0
 40
4.0
 40
4.0
 40
5.0
 40
5.0
 40
5.0
 40
5.0
 10
315.1995374103494
 20
-23.16792262875663
 10
315.1995374103494
 20
-21.98694389641299
 10
314.5265380073059
 20
-21.27587618825742
 10
313.4980047501845
 20
-21.27587618825742
 10
312.825005347141
 20
-21.27587618825742
 10
312.2026488477307
 20
-21.69497205403806
 10
311.8979301520603
 20
-22.29166259208333
 10
311.8217935418363
 20
-22.41878661548905
 10
311.7709783834288
 20
-22.58380668923252
 10
311.7709783834288
 20
-22.786895068088
 10
311.7962998352453
 20
-24.14564072747054
 10
312.4186563346558
 20
-25.14885253277529
 10
313.586888213704
 20
-25.14885253277529
 10
314.5518594591225
 20
-25.14885253277529
 10
315.1995374103494
 20
-24.34890136110027
 10
315.1995374103494
 20
-23.16792262875663
 97
        0
 97
        0
 75
     2
 76
     1
 98
        0
450
        0
451
        0
460
0.0
461
0.0
452
        0
462
0.0
453
        0
470

  0
SPLINE
  5
155
330
1F
100
AcDbEntity
  8
Livello 1
100
AcDbSpline
210
0.0
220
0.0
230
1.0
 70
     9
 71
     3
 72
    17
 73
    13
 74
     0
 42
0.000000001
 43
0.0000000001
 40
0.0
 40
0.0
 40
0.0
 40
0.0
 40
1.0
 40
1.0
 40
1.0
 40
2.0
 40
2.0
 40
2.0
 40
3.0
 40
3.0
 40
3.0
 40
4.0
 40
4.0
 40
4.0
 40
4.0
 10
316.9524019932446
 20
-27.43450113246429
 30
0.0
 10
317.2317992370983
 20
-26.68536511919671
 30
0.0
 10
317.574758492655
 20
-25.32661945981419
 30
0.0
 10
317.7144571145818
 20
-24.39971651950771
 30
0.0
 10
317.7144571145818
 20
-24.39971651950771
 30
0.0
 10
318.9588256038542
 20
-24.27259249610199
 30
0.0
 10
318.9588256038542
 20
-24.27259249610199
 30
0.0
 10
318.6668537614792
 20
-25.35211316640503
 30
0.0
 10
318.1080592737716
 20
-26.76150172942074
 30
0.0
 10
317.7525254196938
 20
-27.35836452224027
 30
0.0
 10
317.7525254196938
 20
-27.35836452224027
 30
0.0
 10
316.9524019932446
 20
-27.43450113246429
 30
0.0
 10
316.9524019932446
 20
-27.43450113246429
 30
0.0
  0
HATCH
  5
156
330
1F
100
AcDbEntity
  8
Livello 1
100
AcDbHatch
 10
0.0
 20
0.0
 30
0.0
210
0.0
220
0.0
230
1.0
  2
SOLID
 70
     1
 71
     0
 91
        1
 92
        1
 93
        1
 72
     4
 94
        3
 73
     0
 74
     0
 95
       17
 96
       13
 40
0.0
 40
0.0
 40
0.0
 40
0.0
 40
1.0
 40
1.0
 40
1.0
 40
2.0
 40
2.0
 40
2.0
 40
3.0
 40
3.0
 40
3.0
 40
4.0
 40
4.0
 40
4.0
 40
4.0
 10
316.9524019932446
 20
-27.43450113246429
 10
317.2317992370983
 20
-26.68536511919671
 10
317.574758492655
 20
-25.32661945981419
 10
317.7144571145818
 20
-24.39971651950771
 10
317.7144571145818
 20
-24.39971651950771
 10
318.9588256038542
 20
-24.27259249610199
 10
318.9588256038542
 20
-24.27259249610199
 10
318.6668537614792
 20
-25.35211316640503
 10
318.1080592737716
 20
-26.76150172942074
 10
317.7525254196938
 20
-27.35836452224027
 10
317.7525254196938
 20
-27.35836452224027
 10
316.9524019932446
 20
-27.43450113246429
 10
316.9524019932446
 20
-27.43450113246429
 97
        0
 97
        0
 75
     2
 76
     1
 98
        0
450
        0
451
        0
460
0.0
461
0.0
452
        0
462
0.0
453
        0
470

  0
SPLINE
  5
157
330
1F
100
AcDbEntity
  8
Livello 1
100
AcDbSpline
210
0.0
220
0.0
230
1.0
 70
    11
 71
     3
 72
    50
 73
    46
 74
     0
 42
0.000000001
 43
0.0000000001
 40
0.0
 40
0.0
 40
0.0
 40
0.0
 40
1.0
 40
1.0
 40
1.0
 40
2.0
 40
2.0
 40
2.0
 40
3.0
 40
3.0
 40
3.0
 40
4.0
 40
4.0
 40
4.0
 40
5.0
 40
5.0
 40
5.0
 40
6.0
 40
6.0
 40
6.0
 40
7.0
 40
7.0
 40
7.0
 40
8.0
 40
8.0
 40
8.0
 40
9.0
 40
9.0
 40
9.0
 40
10.0
 40
10.0
 40
10.0
 40
11.0
 40
11.0
 40
11.0
 40
12.0
 40
12.0
 40
12.0
 40
13.0
 40
13.0
 40
13.0
 40
14.0
 40
14.0
 40
14.0
 40
15.0
 40
15.0
 40
15.0
 40
15.0
 10
324.8762938640934
 20
-18.55838486949235
 30
0.0
 10
324.8762938640934
 20
-18.55838486949235
 30
0.0
 10
321.7271320810267
 20
-18.55838486949235
 30
0.0
 10
321.7271320810267
 20
-18.55838486949235
 30
0.0
 10
321.7271320810267
 20
-18.55838486949235
 30
0.0
 10
321.4098387868351
 20
-20.67901339543789
 30
0.0
 10
321.4098387868351
 20
-20.67901339543789
 30
0.0
 10
321.6003525671693
 20
-20.6536919436213
 30
0.0
 10
321.7781194942083
 20
-20.62819823703045
 30
0.0
 10
322.0826659351043
 20
-20.62819823703045
 30
0.0
 10
322.7175970330359
 20
-20.62819823703045
 30
0.0
 10
323.3525281309673
 20
-20.76789685895733
 30
0.0
 10
323.8606797150418
 20
-21.07261555462768
 30
0.0
 10
324.5080131567202
 20
-21.44089626200089
 30
0.0
 10
325.0416584473854
 20
-22.15196397015646
 30
0.0
 10
325.0416584473854
 20
-23.19324408057322
 30
0.0
 10
325.0416584473854
 20
-24.80606553199293
 30
0.0
 10
323.7590493982269
 20
-26.01236571615316
 30
0.0
 10
321.9686332745427
 20
-26.01236571615316
 30
0.0
 10
321.0670517860527
 20
-26.01236571615316
 30
0.0
 10
320.3049966647153
 20
-25.75846217889025
 30
0.0
 10
319.9113945055257
 20
-25.50438638685307
 30
0.0
 10
319.9113945055257
 20
-25.50438638685307
 30
0.0
 10
320.1907917493794
 20
-24.65362005677062
 30
0.0
 10
320.1907917493794
 20
-24.65362005677062
 30
0.0
 10
320.5334064953875
 20
-24.85688069040036
 30
0.0
 10
321.2065781532053
 20
-25.11078422766328
 30
0.0
 10
321.9558864212471
 20
-25.11078422766328
 30
0.0
 10
323.0097411301851
 20
-25.11078422766328
 30
0.0
 10
323.9113226186749
 20
-24.4250379713243
 30
0.0
 10
323.9113226186749
 20
-23.32036810397894
 30
0.0
 10
323.8985757653795
 20
-22.25359428697132
 30
0.0
 10
323.187508057224
 20
-21.49171142040832
 30
0.0
 10
321.5366183006922
 20
-21.49171142040832
 30
0.0
 10
321.0670517860527
 20
-21.49171142040832
 30
0.0
 10
320.6987710786795
 20
-21.54252657881576
 30
0.0
 10
320.3938801282348
 20
-21.58059488392777
 30
0.0
 10
320.3938801282348
 20
-21.58059488392777
 30
0.0
 10
320.9271809093515
 20
-17.61873507589046
 30
0.0
 10
320.9271809093515
 20
-17.61873507589046
 30
0.0
 10
320.9271809093515
 20
-17.61873507589046
 30
0.0
 10
324.8762938640934
 20
-17.61873507589046
 30
0.0
 10
324.8762938640934
 20
-17.61873507589046
 30
0.0
 10
324.8762938640934
 20
-17.61873507589046
 30
0.0
 10
324.8762938640934
 20
-18.55838486949235
 30
0.0
 10
324.8762938640934
 20
-18.55838486949235
 30
0.0
  0
HATCH
  5
158
330
1F
100
AcDbEntity
  8
Livello 1
100
AcDbHatch
 10
0.0
 20
0.0
 30
0.0
210
0.0
220
0.0
230
1.0
  2
SOLID
 70
     1
 71
     0
 91
        1
 92
        1
 93
        1
 72
     4
 94
        3
 73
     0
 74
     0
 95
       50
 96
       46
 40
0.0
 40
0.0
 40
0.0
 40
0.0
 40
1.0
 40
1.0
 40
1.0
 40
2.0
 40
2.0
 40
2.0
 40
3.0
 40
3.0
 40
3.0
 40
4.0
 40
4.0
 40
4.0
 40
5.0
 40
5.0
 40
5.0
 40
6.0
 40
6.0
 40
6.0
 40
7.0
 40
7.0
 40
7.0
 40
8.0
 40
8.0
 40
8.0
 40
9.0
 40
9.0
 40
9.0
 40
10.0
 40
10.0
 40
10.0
 40
11.0
 40
11.0
 40
11.0
 40
12.0
 40
12.0
 40
12.0
 40
13.0
 40
13.0
 40
13.0
 40
14.0
 40
14.0
 40
14.0
 40
15.0
 40
15.0
 40
15.0
 40
15.0
 10
324.8762938640934
 20
-18.55838486949235
 10
324.8762938640934
 20
-18.55838486949235
 10
321.7271320810267
 20
-18.55838486949235
 10
321.7271320810267
 20
-18.55838486949235
 10
321.7271320810267
 20
-18.55838486949235
 10
321.4098387868351
 20
-20.67901339543789
 10
321.4098387868351
 20
-20.67901339543789
 10
321.6003525671693
 20
-20.6536919436213
 10
321.7781194942083
 20
-20.62819823703045
 10
322.0826659351043
 20
-20.62819823703045
 10
322.7175970330359
 20
-20.62819823703045
 10
323.3525281309673
 20
-20.76789685895733
 10
323.8606797150418
 20
-21.07261555462768
 10
324.5080131567202
 20
-21.44089626200089
 10
325.0416584473854
 20
-22.15196397015646
 10
325.0416584473854
 20
-23.19324408057322
 10
325.0416584473854
 20
-24.80606553199293
 10
323.7590493982269
 20
-26.01236571615316
 10
321.9686332745427
 20
-26.01236571615316
 10
321.0670517860527
 20
-26.01236571615316
 10
320.3049966647153
 20
-25.75846217889025
 10
319.9113945055257
 20
-25.50438638685307
 10
319.9113945055257
 20
-25.50438638685307
 10
320.1907917493794
 20
-24.65362005677062
 10
320.1907917493794
 20
-24.65362005677062
 10
320.5334064953875
 20
-24.85688069040036
 10
321.2065781532053
 20
-25.11078422766328
 10
321.9558864212471
 20
-25.11078422766328
 10
323.0097411301851
 20
-25.11078422766328
 10
323.9113226186749
 20
-24.4250379713243
 10
323.9113226186749
 20
-23.32036810397894
 10
323.8985757653795
 20
-22.25359428697132
 10
323.187508057224
 20
-21.49171142040832
 10
321.5366183006922
 20
-21.49171142040832
 10
321.0670517860527
 20
-21.49171142040832
 10
320.6987710786795
 20
-21.54252657881576
 10
320.3938801282348
 20
-21.58059488392777
 10
320.3938801282348
 20
-21.58059488392777
 10
320.9271809093515
 20
-17.61873507589046
 10
320.9271809093515
 20
-17.61873507589046
 10
320.9271809093515
 20
-17.61873507589046
 10
324.8762938640934
 20
-17.61873507589046
 10
324.8762938640934
 20
-17.61873507589046
 10
324.8762938640934
 20
-17.61873507589046
 10
324.8762938640934
 20
-18.55838486949235
 10
324.8762938640934
 20
-18.55838486949235
 97
        0
 97
        0
 75
     2
 76
     1
 98
        0
450
        0
451
        0
460
0.0
461
0.0
452
        0
462
0.0
453
        0
470

  0
ENDSEC
  0
SECTION
  2
OBJECTS
  0
DICTIONARY
  5
C
330
0
100
AcDbDictionary
281
     1
  3
ACAD_CIP_PREVIOUS_PRODUCT_INFO
350
FF
  3
ACAD_COLOR
350
E0
  3
ACAD_DETAILVIEWSTYLE
350
FB
  3
ACAD_GROUP
350
D
  3
ACAD_LAYOUT
350
1A
  3
ACAD_MATERIAL
350
3B
  3
ACAD_MLEADERSTYLE
350
D3
  3
ACAD_MLINESTYLE
350
17
  3
ACAD_PLOTSETTINGS
350
19
  3
ACAD_PLOTSTYLENAME
350
E
  3
ACAD_SCALELIST
350
E2
  3
ACAD_SECTIONVIEWSTYLE
350
F9
  3
ACAD_TABLESTYLE
350
D2
  3
ACAD_VISUALSTYLE
350
2A
  3
ACDB_RECOMPOSE_DATA
350
169
  3
AcDbVariableDictionary
350
159
  0
SUN
  5
3F
330
29
100
AcDbSun
 90
        1
290
     1
 63
     7
421
 16777215
 40
1.0
291
     1
 91
  2455826
 92
 54000000
292
     0
 70
     0
 71
   256
280
     1
1001
ACAD
1000
AcDbSavedByObjectVersion
1070
     0
  0
DICTIONARY
  5
100
330
1F
100
AcDbDictionary
280
     1
281
     1
  3
ACAD_SORTENTS
360
101
  0
XRECORD
  5
FF
102
{ACAD_REACTORS
330
C
102
}
330
C
100
AcDbXrecord
280
     1
300
ACD
300
2019
300
ACD_F_S
  0
DICTIONARY
  5
E0
102
{ACAD_REACTORS
330
C
102
}
330
C
100
AcDbDictionary
281
     1
  0
DICTIONARY
  5
FB
102
{ACAD_REACTORS
330
C
102
}
330
C
100
AcDbDictionary
281
     1
  3
Imperial24
350
FC
  0
DICTIONARY
  5
D
102
{ACAD_REACTORS
330
C
102
}
330
C
100
AcDbDictionary
281
     1
  0
DICTIONARY
  5
1A
102
{ACAD_REACTORS
330
C
102
}
330
C
100
AcDbDictionary
281
     1
  3
Layout1
350
1E
  3
Layout2
350
26
  3
Model
350
22
  0
DICTIONARY
  5
3B
102
{ACAD_REACTORS
330
C
102
}
330
C
100
AcDbDictionary
281
     1
  3
ByBlock
350
3D
  3
ByLayer
350
3C
  3
Global
350
3E
  0
DICTIONARY
  5
D3
102
{ACAD_REACTORS
330
C
102
}
330
C
100
AcDbDictionary
281
     1
  3
Standard
350
F8
  0
DICTIONARY
  5
17
102
{ACAD_REACTORS
330
C
102
}
330
C
100
AcDbDictionary
281
     1
  3
Standard
350
18
  0
DICTIONARY
  5
19
102
{ACAD_REACTORS
330
C
102
}
330
C
100
AcDbDictionary
281
     1
  0
ACDBDICTIONARYWDFLT
  5
E
102
{ACAD_REACTORS
330
C
102
}
330
C
100
AcDbDictionary
281
     1
  3
Normal
350
F
100
AcDbDictionaryWithDefault
340
F
  0
DICTIONARY
  5
E2
102
{ACAD_REACTORS
330
C
102
}
330
C
100
AcDbDictionary
281
     1
  3
A0
350
E3
  3
A1
350
E4
  3
A2
350
E5
  3
A3
350
E6
  3
A4
350
E7
  3
A5
350
E8
  3
A6
350
E9
  3
A7
350
EA
  3
A8
350
EB
  3
A9
350
EC
  3
B0
350
ED
  3
B1
350
EE
  3
B2
350
EF
  3
B3
350
F0
  3
B4
350
F1
  3
B5
350
F2
  3
B6
350
F3
  3
B7
350
F4
  3
B8
350
F5
  3
B9
350
F6
  3
C0
350
F7
  0
DICTIONARY
  5
F9
102
{ACAD_REACTORS
330
C
102
}
330
C
100
AcDbDictionary
281
     1
  3
Imperial24
350
FA
  0
DICTIONARY
  5
D2
102
{ACAD_REACTORS
330
C
102
}
330
C
100
AcDbDictionary
281
     1
  3
Standard
350
E1
  0
DICTIONARY
  5
2A
102
{ACAD_REACTORS
330
C
102
}
330
C
100
AcDbDictionary
281
     1
  3
2dWireframe
350
2F
  3
3D Hidden
350
31
  3
3dWireframe
350
30
  3
Basic
350
32
  3
Brighten
350
36
  3
ColorChange
350
3A
  3
Conceptual
350
34
  3
Dim
350
35
  3
EdgeColorOff
350
DF
  3
Facepattern
350
39
  3
Flat
350
2B
  3
FlatWithEdges
350
2C
  3
Gouraud
350
2D
  3
GouraudWithEdges
350
2E
  3
Hidden
350
D7
  3
JitterOff
350
DD
  3
Linepattern
350
38
  3
OverhangOff
350
DE
  3
Realistic
350
33
  3
Shaded
350
DC
  3
Shaded with edges
350
DB
  3
Shades of Gray
350
D8
  3
Sketchy
350
D9
  3
Thicken
350
37
  3
Wireframe
350
D6
  3
X-Ray
350
DA
  0
XRECORD
  5
169
102
{ACAD_REACTORS
330
C
102
}
330
C
100
AcDbXrecord
280
     1
 90
        1
330
E1
  0
DICTIONARY
  5
159
102
{ACAD_REACTORS
330
C
102
}
330
C
100
AcDbDictionary
281
     1
  3
CANNOSCALE
350
15E
  3
CMLEADERSTYLE
350
15B
  3
CTABLESTYLE
350
15A
  3
CVIEWDETAILSTYLE
350
15C
  3
CVIEWSECTIONSTYLE
350
15D
  0
SORTENTSTABLE
  5
101
102
{ACAD_REACTORS
330
100
102
}
330
100
100
AcDbSortentsTable
330
1F
  0
ACDBDETAILVIEWSTYLE
  5
FC
102
{ACAD_XDICTIONARY
360
16C
102
}
102
{ACAD_REACTORS
330
FB
102
}
330
FB
100
AcDbModelDocViewStyle
 70
     0
  3
Imperial24
290
     0
100
AcDbDetailViewStyle
 70
     0
 71
     0
 90
        3
 71
     1
340
11
 62
   256
 40
0.24
340
0
 62
   256
 40
0.24
300

 40
0.36
280
     3
 71
     2
340
16
 90
       25
 62
   256
 71
     3
340
11
 62
   256
 40
0.24
 90
        1
 40
0.75
 90
        1
300
%<\AcVar ViewType \f "%tc1">% %<\AcVar ViewDetailId>%\PSCALA %<\AcVar ViewScale \f "%sn">%
 71
     4
340
16
 90
       25
 62
   256
340
16
 90
       25
 62
   256
280
     0
  0
LAYOUT
  5
1E
102
{ACAD_REACTORS
330
1A
102
}
330
1A
100
AcDbPlotSettings
  1

  2
none_device
  4

  6

 40
0.0
 41
0.0
 42
0.0
 43
0.0
 44
0.0
 45
0.0
 46
0.0
 47
0.0
 48
0.0
 49
0.0
140
0.0
141
0.0
142
1.0
143
1.0
 70
   688
 72
     0
 73
     0
 74
     5
  7

 75
    16
147
1.0
 76
     0
 77
     2
 78
   300
148
0.0
149
0.0
100
AcDbLayout
  1
Layout1
 70
     1
 71
     1
 10
0.0
 20
0.0
 11
12.0
 21
9.0
 12
0.0
 22
0.0
 32
0.0
 14
1.000000000000000E+20
 24
1.000000000000000E+20
 34
1.000000000000000E+20
 15
-1.000000000000000E+20
 25
-1.000000000000000E+20
 35
-1.000000000000000E+20
146
0.0
 13
0.0
 23
0.0
 33
0.0
 16
1.0
 26
0.0
 36
0.0
 17
0.0
 27
1.0
 37
0.0
 76
     0
330
1B
  0
LAYOUT
  5
26
102
{ACAD_REACTORS
330
1A
102
}
330
1A
100
AcDbPlotSettings
  1

  2
none_device
  4

  6

 40
0.0
 41
0.0
 42
0.0
 43
0.0
 44
0.0
 45
0.0
 46
0.0
 47
0.0
 48
0.0
 49
0.0
140
0.0
141
0.0
142
1.0
143
1.0
 70
   688
 72
     0
 73
     0
 74
     5
  7

 75
    16
147
1.0
 76
     0
 77
     2
 78
   300
148
0.0
149
0.0
100
AcDbLayout
  1
Layout2
 70
     1
 71
     2
 10
0.0
 20
0.0
 11
0.0
 21
0.0
 12
0.0
 22
0.0
 32
0.0
 14
0.0
 24
0.0
 34
0.0
 15
0.0
 25
0.0
 35
0.0
146
0.0
 13
0.0
 23
0.0
 33
0.0
 16
1.0
 26
0.0
 36
0.0
 17
0.0
 27
1.0
 37
0.0
 76
     0
330
23
  0
LAYOUT
  5
22
102
{ACAD_REACTORS
330
1A
102
}
330
1A
100
AcDbPlotSettings
  1

  2
none_device
  4

  6

 40
0.0
 41
0.0
 42
0.0
 43
0.0
 44
0.0
 45
0.0
 46
0.0
 47
0.0
 48
0.0
 49
0.0
140
0.0
141
0.0
142
1.0
143
1.0
 70
  1712
 72
     0
 73
     0
 74
     0
  7

 75
     0
147
1.0
 76
     0
 77
     2
 78
   300
148
0.0
149
0.0
100
AcDbLayout
  1
Model
 70
     1
 71
     0
 10
0.0
 20
0.0
 11
12.0
 21
9.0
 12
0.0
 22
0.0
 32
0.0
 14
1.000000000000000E+20
 24
1.000000000000000E+20
 34
1.000000000000000E+20
 15
-1.000000000000000E+20
 25
-1.000000000000000E+20
 35
-1.000000000000000E+20
146
0.0
 13
0.0
 23
0.0
 33
0.0
 16
1.0
 26
0.0
 36
0.0
 17
0.0
 27
1.0
 37
0.0
 76
     0
330
1F
331
29
  0
MATERIAL
  5
3D
102
{ACAD_REACTORS
330
3B
102
}
330
3B
100
AcDbMaterial
  1
ByBlock
  0
MATERIAL
  5
3C
102
{ACAD_REACTORS
330
3B
102
}
330
3B
100
AcDbMaterial
  1
ByLayer
  0
MATERIAL
  5
3E
102
{ACAD_REACTORS
330
3B
102
}
330
3B
100
AcDbMaterial
  1
Global
  0
MLEADERSTYLE
  5
F8
102
{ACAD_REACTORS
330
D3
102
}
330
D3
100
AcDbMLeaderStyle
179
     2
170
     2
171
     1
172
     0
 90
        2
 40
0.0
 41
0.0
173
     1
 91
-1056964608
340
14
 92
       -2
290
     1
 42
0.09
291
     1
 43
0.36
  3
Standard
 44
0.18
300

342
11
174
     1
178
     6
175
     1
176
     0
 93
-1056964608
 45
0.18
292
     0
297
     0
 46
0.18
 94
-1056964608
 47
1.0
 49
1.0
140
1.0
293
     1
141
0.0
294
     1
177
     0
142
1.0
295
     0
296
     0
143
0.125
271
     0
272
     9
273
     9
298
     0
  0
MLINESTYLE
  5
18
102
{ACAD_REACTORS
330
17
102
}
330
17
100
AcDbMlineStyle
  2
STANDARD
 70
     0
  3

 62
   256
 51
90.0
 52
90.0
 71
     2
 49
0.5
 62
   256
  6
BYLAYER
 49
-0.5
 62
   256
  6
BYLAYER
  0
ACDBPLACEHOLDER
  5
F
102
{ACAD_REACTORS
330
E
102
}
330
E
  0
SCALE
  5
E3
102
{ACAD_REACTORS
330
E2
102
}
330
E2
100
AcDbScale
 70
     0
300
1:1
140
1.0
141
1.0
290
     1
  0
SCALE
  5
E4
102
{ACAD_REACTORS
330
E2
102
}
330
E2
100
AcDbScale
 70
     0
300
1.10
140
1.0
141
10.0
290
     0
  0
SCALE
  5
E5
102
{ACAD_REACTORS
330
E2
102
}
330
E2
100
AcDbScale
 70
     0
300
1.50
140
1.0
141
50.0
290
     0
  0
SCALE
  5
E6
102
{ACAD_REACTORS
330
E2
102
}
330
E2
100
AcDbScale
 70
     0
300
1:100
140
1.0
141
100.0
290
     0
  0
SCALE
  5
E7
102
{ACAD_REACTORS
330
E2
102
}
330
E2
100
AcDbScale
 70
     0
300
1.200
140
1.0
141
200.0
290
     0
  0
SCALE
  5
E8
102
{ACAD_REACTORS
330
E2
102
}
330
E2
100
AcDbScale
 70
     0
300
1/128" = 1'-0"
140
0.0078125
141
12.0
290
     0
  0
SCALE
  5
E9
102
{ACAD_REACTORS
330
E2
102
}
330
E2
100
AcDbScale
 70
     0
300
1/64" = 1'-0"
140
0.015625
141
12.0
290
     0
  0
SCALE
  5
EA
102
{ACAD_REACTORS
330
E2
102
}
330
E2
100
AcDbScale
 70
     0
300
1/32" = 1'-0"
140
0.03125
141
12.0
290
     0
  0
SCALE
  5
EB
102
{ACAD_REACTORS
330
E2
102
}
330
E2
100
AcDbScale
 70
     0
300
1/16" = 1'-0"
140
0.0625
141
12.0
290
     0
  0
SCALE
  5
EC
102
{ACAD_REACTORS
330
E2
102
}
330
E2
100
AcDbScale
 70
     0
300
3/32" = 1'-0"
140
0.09375
141
12.0
290
     0
  0
SCALE
  5
ED
102
{ACAD_REACTORS
330
E2
102
}
330
E2
100
AcDbScale
 70
     0
300
1/8" = 1'-0"
140
0.125
141
12.0
290
     0
  0
SCALE
  5
EE
102
{ACAD_REACTORS
330
E2
102
}
330
E2
100
AcDbScale
 70
     0
300
3/16" = 1'-0"
140
0.1875
141
12.0
290
     0
  0
SCALE
  5
EF
102
{ACAD_REACTORS
330
E2
102
}
330
E2
100
AcDbScale
 70
     0
300
1/4" = 1'-0"
140
0.25
141
12.0
290
     0
  0
SCALE
  5
F0
102
{ACAD_REACTORS
330
E2
102
}
330
E2
100
AcDbScale
 70
     0
300
3/8" = 1'-0"
140
0.375
141
12.0
290
     0
  0
SCALE
  5
F1
102
{ACAD_REACTORS
330
E2
102
}
330
E2
100
AcDbScale
 70
     0
300
1/2" = 1'-0"
140
0.5
141
12.0
290
     0
  0
SCALE
  5
F2
102
{ACAD_REACTORS
330
E2
102
}
330
E2
100
AcDbScale
 70
     0
300
3/4" = 1'-0"
140
0.75
141
12.0
290
     0
  0
SCALE
  5
F3
102
{ACAD_REACTORS
330
E2
102
}
330
E2
100
AcDbScale
 70
     0
300
1" = 1'-0"
140
1.0
141
12.0
290
     0
  0
SCALE
  5
F4
102
{ACAD_REACTORS
330
E2
102
}
330
E2
100
AcDbScale
 70
     0
300
1-1/2" = 1'-0"
140
1.5
141
12.0
290
     0
  0
SCALE
  5
F5
102
{ACAD_REACTORS
330
E2
102
}
330
E2
100
AcDbScale
 70
     0
300
3" = 1'-0"
140
3.0
141
12.0
290
     0
  0
SCALE
  5
F6
102
{ACAD_REACTORS
330
E2
102
}
330
E2
100
AcDbScale
 70
     0
300
6" = 1'-0"
140
6.0
141
12.0
290
     0
  0
SCALE
  5
F7
102
{ACAD_REACTORS
330
E2
102
}
330
E2
100
AcDbScale
 70
     0
300
1'-0" = 1'-0"
140
12.0
141
12.0
290
     0
  0
ACDBSECTIONVIEWSTYLE
  5
FA
102
{ACAD_XDICTIONARY
360
16A
102
}
102
{ACAD_REACTORS
330
F9
102
}
330
F9
100
AcDbModelDocViewStyle
 70
     0
  3
Imperial24
290
     0
100
AcDbSectionViewStyle
 70
     0
 71
     0
 90
       78
 71
     1
340
11
 62
   256
 40
0.24
340
0
340
0
 62
   256
 40
0.24
300
I, O, Q, S, X, Z
 40
0.48
 90
        3
 40
0.18
 90
        1
 71
     2
340
16
 90
       25
 62
   256
340
16
 90
       50
 62
   256
 40
0.24
 40
0.0
 40
0.24
 71
     3
340
11
 62
   256
 40
0.24
 90
        1
 40
0.75
 90
        1
300
%<\AcVar ViewType \f "%tc1">% %<\AcVar ViewSectionStartId>%-%<\AcVar ViewSectionEndId>%\PSCALA %<\AcVar ViewScale \f "%sn">%
 71
     4
 62
   256
 62
   257
300
ANSI31
 40
1.0
 90
        0
290
     0
290
     0
 90
        6
 40
0.0
 40
1.570796326794896
 40
0.2617993877991494
 40
1.308996938995747
 40
-0.2617993877991494
 40
1.832595714594046
  0
TABLESTYLE
  5
E1
102
{ACAD_XDICTIONARY
360
167
102
}
102
{ACAD_REACTORS
330
D2
102
}
330
D2
100
AcDbTableStyle
280
     0
  3
Standard
 70
     0
 71
     0
 40
0.06
 41
0.06
280
     0
281
     0
  7
Standard
140
0.18
170
     2
 62
     0
 63
     7
283
     0
 90
      512
 91
        0
  1

274
    -2
284
     1
 64
     0
275
    -2
285
     1
 65
     0
276
    -2
286
     1
 66
     0
277
    -2
287
     1
 67
     0
278
    -2
288
     1
 68
     0
279
    -2
289
     1
 69
     0
  7
Standard
140
0.25
170
     5
 62
     0
 63
     7
283
     0
 90
      512
 91
        0
  1

274
    -2
284
     1
 64
     0
275
    -2
285
     1
 65
     0
276
    -2
286
     1
 66
     0
277
    -2
287
     1
 67
     0
278
    -2
288
     1
 68
     0
279
    -2
289
     1
 69
     0
  7
Standard
140
0.18
170
     5
 62
     0
 63
     7
283
     0
 90
      512
 91
        0
  1

274
    -2
284
     1
 64
     0
275
    -2
285
     1
 65
     0
276
    -2
286
     1
 66
     0
277
    -2
287
     1
 67
     0
278
    -2
288
     1
 68
     0
279
    -2
289
     1
 69
     0
  0
VISUALSTYLE
  5
2F
102
{ACAD_REACTORS
330
2A
102
}
330
2A
100
AcDbVisualStyle
  2
2dWireframe
 70
     4
177
     3
291
     0
 70
    58
 90
        0
176
     1
 90
        2
176
     1
 90
        0
176
     1
 90
        0
176
     1
 40
0.6
176
     1
 40
30.0
176
     1
 62
     7
420
 16777215
176
     1
 90
        1
176
     1
 90
        4
176
     1
 62
     7
176
     1
 62
   257
176
     1
 90
        1
176
     1
 90
        1
176
     1
 40
1.0
176
     1
 90
        0
176
     1
 62
   257
176
     1
 40
1.0
176
     1
 90
        1
176
     1
 90
        6
176
     1
 90
        2
176
     1
 62
     7
176
     1
 90
        5
176
     1
 90
        0
176
     1
 90
        0
176
     1
290
     0
176
     1
 90
        1
176
     1
 40
0.0
176
     1
 90
        0
176
     1
290
     1
176
     1
290
     1
176
     1
290
     0
176
     1
290
     0
176
     1
290
     0
176
     1
290
     0
176
     1
290
     0
176
     1
290
     0
176
     1
290
     0
176
     1
 90
       50
176
     1
 40
0.0
176
     1
 40
1.0
176
     1
 90
        0
176
     1
 62
    18
420
        0
176
     1
 90
       50
176
     1
 90
        3
176
     1
 62
     5
420
      255
176
     1
290
     0
176
     1
 90
       50
176
     1
 90
       50
176
     1
 90
       50
176
     1
290
     0
176
     1
 90
       50
176
     1
 62
   256
176
     0
 40
1.0
176
     0
 90
        2
176
     1
  1
strokes_ogs.tif
176
     1
290
     0
176
     1
 40
1.0
176
     1
 40
1.0
176
     1
1001
ACAD
1000
AcDbSavedByObjectVersion
1070
     0
  0
VISUALSTYLE
  5
31
102
{ACAD_REACTORS
330
2A
102
}
330
2A
100
AcDbVisualStyle
  2
3D Hidden
 70
     6
177
     3
291
     0
 70
    58
 90
        1
176
     1
 90
        2
176
     1
 90
        2
176
     1
 90
        0
176
     1
 40
0.6
176
     1
 40
30.0
176
     1
 62
     7
420
 16777215
176
     1
 90
        2
176
     1
 90
        2
176
     1
 62
     7
176
     1
 62
   257
176
     1
 90
        2
176
     1
 90
        1
176
     1
 40
40.0
176
     1
 90
        0
176
     1
 62
   257
176
     1
 40
1.0
176
     1
 90
        1
176
     1
 90
        6
176
     1
 90
        2
176
     1
 62
     7
176
     1
 90
        3
176
     1
 90
        0
176
     1
 90
        0
176
     1
290
     0
176
     1
 90
        1
176
     1
 40
0.0
176
     1
 90
        0
176
     1
290
     0
176
     1
290
     1
176
     1
290
     1
176
     1
290
     0
176
     1
290
     0
176
     1
290
     0
176
     1
290
     0
176
     1
290
     0
176
     1
290
     0
176
     1
 90
       50
176
     1
 40
0.0
176
     1
 40
1.0
176
     1
 90
        0
176
     1
 62
    18
420
        0
176
     1
 90
       50
176
     1
 90
        3
176
     1
 62
     5
420
      255
176
     1
290
     0
176
     1
 90
       50
176
     1
 90
       50
176
     1
 90
       50
176
     1
290
     0
176
     1
 90
       50
176
     1
 62
   256
176
     0
 40
1.0
176
     0
 90
        2
176
     1
  1
strokes_ogs.tif
176
     1
290
     0
176
     1
 40
1.0
176
     1
 40
1.0
176
     1
1001
ACAD
1000
AcDbSavedByObjectVersion
1070
     0
  0
VISUALSTYLE
  5
30
102
{ACAD_REACTORS
330
2A
102
}
330
2A
100
AcDbVisualStyle
  2
3dWireframe
 70
     5
177
     3
291
     0
 70
    58
 90
        0
176
     1
 90
        2
176
     1
 90
        0
176
     1
 90
        0
176
     1
 40
0.6
176
     1
 40
30.0
176
     1
 62
     7
420
 16777215
176
     1
 90
        1
176
     1
 90
        4
176
     1
 62
     7
176
     1
 62
   257
176
     1
 90
        1
176
     1
 90
        1
176
     1
 40
1.0
176
     1
 90
        0
176
     1
 62
   257
176
     1
 40
1.0
176
     1
 90
        1
176
     1
 90
        6
176
     1
 90
        2
176
     1
 62
     7
176
     1
 90
        5
176
     1
 90
        0
176
     1
 90
        0
176
     1
290
     0
176
     1
 90
        1
176
     1
 40
0.0
176
     1
 90
        0
176
     1
290
     0
176
     1
290
     1
176
     1
290
     1
176
     1
290
     0
176
     1
290
     0
176
     1
290
     0
176
     1
290
     0
176
     1
290
     0
176
     1
290
     0
176
     1
 90
       50
176
     1
 40
0.0
176
     1
 40
1.0
176
     1
 90
        0
176
     1
 62
    18
420
        0
176
     1
 90
       50
176
     1
 90
        3
176
     1
 62
     5
420
      255
176
     1
290
     0
176
     1
 90
       50
176
     1
 90
       50
176
     1
 90
       50
176
     1
290
     0
176
     1
 90
       50
176
     1
 62
   256
176
     0
 40
1.0
176
     0
 90
        2
176
     1
  1
strokes_ogs.tif
176
     1
290
     0
176
     1
 40
1.0
176
     1
 40
1.0
176
     1
1001
ACAD
1000
AcDbSavedByObjectVersion
1070
     0
  0
VISUALSTYLE
  5
32
102
{ACAD_REACTORS
330
2A
102
}
330
2A
100
AcDbVisualStyle
  2
Basic
 70
     7
177
     3
291
     1
 70
    58
 90
        1
176
     1
 90
        0
176
     1
 90
        1
176
     1
 90
        0
176
     1
 40
0.6
176
     1
 40
30.0
176
     1
 62
     7
420
 16777215
176
     1
 90
        0
176
     1
 90
        4
176
     1
 62
     7
176
     1
 62
   257
176
     1
 90
        1
176
     1
 90
        1
176
     1
 40
1.0
176
     1
 90
        8
176
     1
 62
     7
176
     1
 40
1.0
176
     1
 90
        1
176
     1
 90
        6
176
     1
 90
        2
176
     1
 62
     7
176
     1
 90
        5
176
     1
 90
        0
176
     1
 90
        0
176
     1
290
     0
176
     1
 90
        1
176
     1
 40
0.0
176
     1
 90
        0
176
     1
290
     0
176
     1
290
     1
176
     1
290
     1
176
     1
290
     0
176
     1
290
     0
176
     1
290
     0
176
     1
290
     0
176
     1
290
     0
176
     1
290
     0
176
     1
 90
       50
176
     1
 40
0.0
176
     1
 40
1.0
176
     1
 90
        0
176
     1
 62
    18
420
        0
176
     1
 90
       50
176
     1
 90
        3
176
     1
 62
     5
420
      255
176
     1
290
     0
176
     1
 90
       50
176
     1
 90
       50
176
     1
 90
       50
176
     1
290
     0
176
     1
 90
       50
176
     1
 62
   256
176
     0
 40
1.0
176
     0
 90
        2
176
     1
  1
strokes_ogs.tif
176
     1
290
     0
176
     1
 40
1.0
176
     1
 40
1.0
176
     1
1001
ACAD
1000
AcDbSavedByObjectVersion
1070
     0
  0
VISUALSTYLE
  5
36
102
{ACAD_REACTORS
330
2A
102
}
330
2A
100
AcDbVisualStyle
  2
Brighten
 70
    12
177
     3
291
     1
 70
    58
 90
        2
176
     1
 90
        2
176
     1
 90
        0
176
     1
 90
        0
176
     1
 40
0.6
176
     1
 40
30.0
176
     1
 62
     7
420
 16777215
176
     1
 90
        1
176
     1
 90
        4
176
     1
 62
     7
176
     1
 62
   257
176
     1
 90
        1
176
     1
 90
        1
176
     1
 40
1.0
176
     1
 90
        8
176
     1
 62
     7
176
     1
 40
1.0
176
     1
 90
        1
176
     1
 90
        6
176
     1
 90
        2
176
     1
 62
     7
176
     1
 90
        5
176
     1
 90
        0
176
     1
 90
        0
176
     1
290
     0
176
     1
 90
        1
176
     1
 40
50.0
176
     1
 90
        0
176
     1
290
     0
176
     1
290
     1
176
     1
290
     1
176
     1
290
     0
176
     1
290
     0
176
     1
290
     0
176
     1
290
     0
176
     1
290
     0
176
     1
290
     0
176
     1
 90
       50
176
     1
 40
0.0
176
     1
 40
1.0
176
     1
 90
        0
176
     1
 62
    18
420
        0
176
     1
 90
       50
176
     1
 90
        3
176
     1
 62
     5
420
      255
176
     1
290
     0
176
     1
 90
       50
176
     1
 90
       50
176
     1
 90
       50
176
     1
290
     0
176
     1
 90
       50
176
     1
 62
   256
176
     0
 40
1.0
176
     0
 90
        2
176
     1
  1
strokes_ogs.tif
176
     1
290
     0
176
     1
 40
1.0
176
     1
 40
1.0
176
     1
1001
ACAD
1000
AcDbSavedByObjectVersion
1070
     0
  0
VISUALSTYLE
  5
3A
102
{ACAD_REACTORS
330
2A
102
}
330
2A
100
AcDbVisualStyle
  2
ColorChange
 70
    16
177
     3
291
     1
 70
    58
 90
        2
176
     1
 90
        2
176
     1
 90
        3
176
     1
 90
        0
176
     1
 40
0.6
176
     1
 40
30.0
176
     1
 62
     8
420
  8421504
176
     1
 90
        1
176
     1
 90
        4
176
     1
 62
     7
176
     1
 62
   257
176
     1
 90
        1
176
     1
 90
        1
176
     1
 40
1.0
176
     1
 90
        8
176
     1
 62
     8
420
  8421504
176
     1
 40
1.0
176
     1
 90
        1
176
     1
 90
        6
176
     1
 90
        2
176
     1
 62
     7
176
     1
 90
        5
176
     1
 90
        0
176
     1
 90
        0
176
     1
290
     0
176
     1
 90
        1
176
     1
 40
0.0
176
     1
 90
        0
176
     1
290
     0
176
     1
290
     1
176
     1
290
     1
176
     1
290
     0
176
     1
290
     0
176
     1
290
     0
176
     1
290
     0
176
     1
290
     0
176
     1
290
     0
176
     1
 90
       50
176
     1
 40
0.0
176
     1
 40
1.0
176
     1
 90
        0
176
     1
 62
    18
420
        0
176
     1
 90
       50
176
     1
 90
        3
176
     1
 62
     5
420
      255
176
     1
290
     0
176
     1
 90
       50
176
     1
 90
       50
176
     1
 90
       50
176
     1
290
     0
176
     1
 90
       50
176
     1
 62
   256
176
     0
 40
1.0
176
     0
 90
        2
176
     1
  1
strokes_ogs.tif
176
     1
290
     0
176
     1
 40
1.0
176
     1
 40
1.0
176
     1
1001
ACAD
1000
AcDbSavedByObjectVersion
1070
     0
  0
VISUALSTYLE
  5
34
102
{ACAD_REACTORS
330
2A
102
}
330
2A
100
AcDbVisualStyle
  2
Conceptual
 70
     9
177
     3
291
     0
 70
    58
 90
        3
176
     1
 90
        2
176
     1
 90
        0
176
     1
 90
        0
176
     1
 40
0.6
176
     1
 40
30.0
176
     1
 62
     7
420
 16777215
176
     1
 90
        2
176
     1
 90
        2
176
     1
 62
     7
176
     1
 62
   257
176
     1
 90
        1
176
     1
 90
        1
176
     1
 40
40.0
176
     1
 90
        8
176
     1
 62
     7
176
     1
 40
1.0
176
     1
 90
        1
176
     1
 90
        6
176
     1
 90
        2
176
     1
 62
     7
176
     1
 90
        3
176
     1
 90
        0
176
     1
 90
        0
176
     1
290
     0
176
     1
 90
        1
176
     1
 40
0.0
176
     1
 90
        0
176
     1
290
     0
176
     1
290
     1
176
     1
290
     1
176
     1
290
     0
176
     1
290
     0
176
     1
290
     0
176
     1
290
     0
176
     1
290
     0
176
     1
290
     0
176
     1
 90
       50
176
     1
 40
0.0
176
     1
 40
1.0
176
     1
 90
        0
176
     1
 62
    18
420
        0
176
     1
 90
       50
176
     1
 90
        3
176
     1
 62
     5
420
      255
176
     1
290
     0
176
     1
 90
       50
176
     1
 90
       50
176
     1
 90
       50
176
     1
290
     0
176
     1
 90
       50
176
     1
 62
   256
176
     0
 40
1.0
176
     0
 90
        2
176
     1
  1
strokes_ogs.tif
176
     1
290
     0
176
     1
 40
1.0
176
     1
 40
1.0
176
     1
1001
ACAD
1000
AcDbSavedByObjectVersion
1070
     0
  0
VISUALSTYLE
  5
35
102
{ACAD_REACTORS
330
2A
102
}
330
2A
100
AcDbVisualStyle
  2
Dim
 70
    11
177
     3
291
     1
 70
    58
 90
        2
176
     1
 90
        2
176
     1
 90
        0
176
     1
 90
        0
176
     1
 40
0.6
176
     1
 40
30.0
176
     1
 62
     7
420
 16777215
176
     1
 90
        1
176
     1
 90
        4
176
     1
 62
     7
176
     1
 62
   257
176
     1
 90
        1
176
     1
 90
        1
176
     1
 40
1.0
176
     1
 90
        8
176
     1
 62
     7
176
     1
 40
1.0
176
     1
 90
        1
176
     1
 90
        6
176
     1
 90
        2
176
     1
 62
     7
176
     1
 90
        5
176
     1
 90
        0
176
     1
 90
        0
176
     1
290
     0
176
     1
 90
        1
176
     1
 40
-50.0
176
     1
 90
        0
176
     1
290
     0
176
     1
290
     1
176
     1
290
     1
176
     1
290
     0
176
     1
290
     0
176
     1
290
     0
176
     1
290
     0
176
     1
290
     0
176
     1
290
     0
176
     1
 90
       50
176
     1
 40
0.0
176
     1
 40
1.0
176
     1
 90
        0
176
     1
 62
    18
420
        0
176
     1
 90
       50
176
     1
 90
        3
176
     1
 62
     5
420
      255
176
     1
290
     0
176
     1
 90
       50
176
     1
 90
       50
176
     1
 90
       50
176
     1
290
     0
176
     1
 90
       50
176
     1
 62
   256
176
     0
 40
1.0
176
     0
 90
        2
176
     1
  1
strokes_ogs.tif
176
     1
290
     0
176
     1
 40
1.0
176
     1
 40
1.0
176
     1
1001
ACAD
1000
AcDbSavedByObjectVersion
1070
     0
  0
VISUALSTYLE
  5
DF
102
{ACAD_REACTORS
330
2A
102
}
330
2A
100
AcDbVisualStyle
  2
EdgeColorOff
 70
    22
177
     3
291
     1
 70
    58
 90
        2
176
     0
 90
        2
176
     0
 90
        0
176
     0
 90
        0
176
     0
 40
0.6
176
     0
 40
30.0
176
     0
 62
     7
420
 16777215
176
     0
 90
        1
176
     0
 90
        4
176
     0
 62
     7
176
     0
 62
   257
176
     0
 90
        1
176
     0
 90
        1
176
     0
 40
1.0
176
     0
 90
        8
176
     2
 62
     7
176
     0
 40
1.0
176
     0
 90
        1
176
     0
 90
        6
176
     0
 90
        2
176
     0
 62
     7
176
     0
 90
        5
176
     0
 90
        0
176
     0
 90
        0
176
     0
290
     0
176
     0
 90
        1
176
     0
 40
0.0
176
     0
 90
        0
176
     0
290
     0
176
     1
290
     1
176
     1
290
     1
176
     1
290
     0
176
     1
290
     0
176
     1
290
     0
176
     1
290
     0
176
     1
290
     0
176
     1
290
     0
176
     1
 90
       50
176
     0
 40
0.0
176
     0
 40
1.0
176
     0
 90
        0
176
     0
 62
    18
420
        0
176
     0
 90
       50
176
     0
 90
        3
176
     0
 62
     5
420
      255
176
     0
290
     0
176
     1
 90
       50
176
     0
 90
       50
176
     0
 90
       50
176
     0
290
     0
176
     1
 90
       50
176
     0
 62
   256
176
     0
 40
1.0
176
     0
 90
        2
176
     0
  1
strokes_ogs.tif
176
     0
290
     0
176
     1
 40
1.0
176
     0
 40
1.0
176
     0
1001
ACAD
1000
AcDbSavedByObjectVersion
1070
     0
  0
VISUALSTYLE
  5
39
102
{ACAD_REACTORS
330
2A
102
}
330
2A
100
AcDbVisualStyle
  2
Facepattern
 70
    15
177
     3
291
     1
 70
    58
 90
        2
176
     1
 90
        2
176
     1
 90
        0
176
     1
 90
        0
176
     1
 40
0.6
176
     1
 40
30.0
176
     1
 62
     7
420
 16777215
176
     1
 90
        1
176
     1
 90
        4
176
     1
 62
     7
176
     1
 62
   257
176
     1
 90
        1
176
     1
 90
        1
176
     1
 40
1.0
176
     1
 90
        8
176
     1
 62
     7
176
     1
 40
1.0
176
     1
 90
        1
176
     1
 90
        6
176
     1
 90
        2
176
     1
 62
     7
176
     1
 90
        5
176
     1
 90
        0
176
     1
 90
        0
176
     1
290
     0
176
     1
 90
        1
176
     1
 40
0.0
176
     1
 90
        0
176
     1
290
     0
176
     1
290
     1
176
     1
290
     1
176
     1
290
     0
176
     1
290
     0
176
     1
290
     0
176
     1
290
     0
176
     1
290
     0
176
     1
290
     0
176
     1
 90
       50
176
     1
 40
0.0
176
     1
 40
1.0
176
     1
 90
        0
176
     1
 62
    18
420
        0
176
     1
 90
       50
176
     1
 90
        3
176
     1
 62
     5
420
      255
176
     1
290
     0
176
     1
 90
       50
176
     1
 90
       50
176
     1
 90
       50
176
     1
290
     0
176
     1
 90
       50
176
     1
 62
   256
176
     0
 40
1.0
176
     0
 90
        2
176
     1
  1
strokes_ogs.tif
176
     1
290
     0
176
     1
 40
1.0
176
     1
 40
1.0
176
     1
1001
ACAD
1000
AcDbSavedByObjectVersion
1070
     0
  0
VISUALSTYLE
  5
2B
102
{ACAD_REACTORS
330
2A
102
}
330
2A
100
AcDbVisualStyle
  2
Flat
 70
     0
177
     3
291
     1
 70
    58
 90
        2
176
     1
 90
        1
176
     1
 90
        1
176
     1
 90
        2
176
     1
 40
0.6
176
     1
 40
30.0
176
     1
 62
     7
420
 16777215
176
     1
 90
        0
176
     1
 90
        4
176
     1
 62
     7
176
     1
 62
   257
176
     1
 90
        1
176
     1
 90
        1
176
     1
 40
1.0
176
     1
 90
        8
176
     1
 62
     7
176
     1
 40
1.0
176
     1
 90
        1
176
     1
 90
        6
176
     1
 90
        2
176
     1
 62
     7
176
     1
 90
        5
176
     1
 90
        0
176
     1
 90
        0
176
     1
290
     0
176
     1
 90
       13
176
     1
 40
0.0
176
     1
 90
        0
176
     1
290
     0
176
     1
290
     1
176
     1
290
     1
176
     1
290
     0
176
     1
290
     0
176
     1
290
     0
176
     1
290
     0
176
     1
290
     0
176
     1
290
     0
176
     1
 90
       50
176
     1
 40
0.0
176
     1
 40
1.0
176
     1
 90
        0
176
     1
 62
    18
420
        0
176
     1
 90
       50
176
     1
 90
        3
176
     1
 62
     5
420
      255
176
     1
290
     0
176
     1
 90
       50
176
     1
 90
       50
176
     1
 90
       50
176
     1
290
     0
176
     1
 90
       50
176
     1
 62
   256
176
     0
 40
1.0
176
     0
 90
        2
176
     1
  1
strokes_ogs.tif
176
     1
290
     0
176
     1
 40
1.0
176
     1
 40
1.0
176
     1
1001
ACAD
1000
AcDbSavedByObjectVersion
1070
     0
  0
VISUALSTYLE
  5
2C
102
{ACAD_REACTORS
330
2A
102
}
330
2A
100
AcDbVisualStyle
  2
FlatWithEdges
 70
     1
177
     3
291
     1
 70
    58
 90
        2
176
     1
 90
        1
176
     1
 90
        1
176
     1
 90
        2
176
     1
 40
0.6
176
     1
 40
30.0
176
     1
 62
     7
420
 16777215
176
     1
 90
        1
176
     1
 90
        4
176
     1
 62
     7
176
     1
 62
   257
176
     1
 90
        1
176
     1
 90
        1
176
     1
 40
1.0
176
     1
 90
        0
176
     1
 62
   257
176
     1
 40
1.0
176
     1
 90
        1
176
     1
 90
        6
176
     1
 90
        2
176
     1
 62
     7
176
     1
 90
        5
176
     1
 90
        0
176
     1
 90
        0
176
     1
290
     0
176
     1
 90
       13
176
     1
 40
0.0
176
     1
 90
        0
176
     1
290
     0
176
     1
290
     1
176
     1
290
     1
176
     1
290
     0
176
     1
290
     0
176
     1
290
     0
176
     1
290
     0
176
     1
290
     0
176
     1
290
     0
176
     1
 90
       50
176
     1
 40
0.0
176
     1
 40
1.0
176
     1
 90
        0
176
     1
 62
    18
420
        0
176
     1
 90
       50
176
     1
 90
        3
176
     1
 62
     5
420
      255
176
     1
290
     0
176
     1
 90
       50
176
     1
 90
       50
176
     1
 90
       50
176
     1
290
     0
176
     1
 90
       50
176
     1
 62
   256
176
     0
 40
1.0
176
     0
 90
        2
176
     1
  1
strokes_ogs.tif
176
     1
290
     0
176
     1
 40
1.0
176
     1
 40
1.0
176
     1
1001
ACAD
1000
AcDbSavedByObjectVersion
1070
     0
  0
VISUALSTYLE
  5
2D
102
{ACAD_REACTORS
330
2A
102
}
330
2A
100
AcDbVisualStyle
  2
Gouraud
 70
     2
177
     3
291
     1
 70
    58
 90
        2
176
     1
 90
        2
176
     1
 90
        1
176
     1
 90
        2
176
     1
 40
0.6
176
     1
 40
30.0
176
     1
 62
     7
420
 16777215
176
     1
 90
        0
176
     1
 90
        4
176
     1
 62
     7
176
     1
 62
   257
176
     1
 90
        1
176
     1
 90
        1
176
     1
 40
1.0
176
     1
 90
        0
176
     1
 62
     7
176
     1
 40
1.0
176
     1
 90
        1
176
     1
 90
        6
176
     1
 90
        2
176
     1
 62
     7
176
     1
 90
        5
176
     1
 90
        0
176
     1
 90
        0
176
     1
290
     0
176
     1
 90
       13
176
     1
 40
0.0
176
     1
 90
        0
176
     1
290
     0
176
     1
290
     1
176
     1
290
     1
176
     1
290
     0
176
     1
290
     0
176
     1
290
     0
176
     1
290
     0
176
     1
290
     0
176
     1
290
     0
176
     1
 90
       50
176
     1
 40
0.0
176
     1
 40
1.0
176
     1
 90
        0
176
     1
 62
    18
420
        0
176
     1
 90
       50
176
     1
 90
        3
176
     1
 62
     5
420
      255
176
     1
290
     0
176
     1
 90
       50
176
     1
 90
       50
176
     1
 90
       50
176
     1
290
     0
176
     1
 90
       50
176
     1
 62
   256
176
     0
 40
1.0
176
     0
 90
        2
176
     1
  1
strokes_ogs.tif
176
     1
290
     0
176
     1
 40
1.0
176
     1
 40
1.0
176
     1
1001
ACAD
1000
AcDbSavedByObjectVersion
1070
     0
  0
VISUALSTYLE
  5
2E
102
{ACAD_REACTORS
330
2A
102
}
330
2A
100
AcDbVisualStyle
  2
GouraudWithEdges
 70
     3
177
     3
291
     1
 70
    58
 90
        2
176
     1
 90
        2
176
     1
 90
        1
176
     1
 90
        2
176
     1
 40
0.6
176
     1
 40
30.0
176
     1
 62
     7
420
 16777215
176
     1
 90
        1
176
     1
 90
        4
176
     1
 62
     7
176
     1
 62
   257
176
     1
 90
        1
176
     1
 90
        1
176
     1
 40
1.0
176
     1
 90
        0
176
     1
 62
   257
176
     1
 40
1.0
176
     1
 90
        1
176
     1
 90
        6
176
     1
 90
        2
176
     1
 62
     7
176
     1
 90
        5
176
     1
 90
        0
176
     1
 90
        0
176
     1
290
     0
176
     1
 90
       13
176
     1
 40
0.0
176
     1
 90
        0
176
     1
290
     0
176
     1
290
     1
176
     1
290
     1
176
     1
290
     0
176
     1
290
     0
176
     1
290
     0
176
     1
290
     0
176
     1
290
     0
176
     1
290
     0
176
     1
 90
       50
176
     1
 40
0.0
176
     1
 40
1.0
176
     1
 90
        0
176
     1
 62
    18
420
        0
176
     1
 90
       50
176
     1
 90
        3
176
     1
 62
     5
420
      255
176
     1
290
     0
176
     1
 90
       50
176
     1
 90
       50
176
     1
 90
       50
176
     1
290
     0
176
     1
 90
       50
176
     1
 62
   256
176
     0
 40
1.0
176
     0
 90
        2
176
     1
  1
strokes_ogs.tif
176
     1
290
     0
176
     1
 40
1.0
176
     1
 40
1.0
176
     1
1001
ACAD
1000
AcDbSavedByObjectVersion
1070
     0
  0
VISUALSTYLE
  5
D7
102
{ACAD_REACTORS
330
2A
102
}
330
2A
100
AcDbVisualStyle
  2
Hidden
 70
     6
177
     3
291
     0
 70
    58
 90
        1
176
     1
 90
        2
176
     1
 90
        2
176
     1
 90
        0
176
     1
 40
0.6
176
     1
 40
30.0
176
     1
 62
     7
420
 16777215
176
     1
 90
        2
176
     1
 90
        2
176
     1
 62
     7
176
     1
 62
   257
176
     1
 90
        2
176
     1
 90
        1
176
     1
 40
40.0
176
     1
 90
        0
176
     1
 62
   257
176
     1
 40
1.0
176
     1
 90
        1
176
     1
 90
        6
176
     1
 90
        2
176
     1
 62
     7
176
     1
 90
        3
176
     1
 90
        0
176
     1
 90
        0
176
     1
290
     0
176
     1
 90
        1
176
     1
 40
0.0
176
     1
 90
        0
176
     1
290
     0
176
     1
290
     1
176
     1
290
     1
176
     1
290
     0
176
     1
290
     0
176
     1
290
     0
176
     1
290
     0
176
     1
290
     0
176
     1
290
     0
176
     1
 90
       50
176
     1
 40
0.0
176
     1
 40
1.0
176
     1
 90
        0
176
     1
 62
    18
420
        0
176
     1
 90
       50
176
     1
 90
        3
176
     1
 62
     5
420
      255
176
     1
290
     0
176
     1
 90
       50
176
     1
 90
       50
176
     1
 90
       50
176
     1
290
     0
176
     1
 90
       50
176
     1
 62
   256
176
     0
 40
1.0
176
     0
 90
        2
176
     1
  1
strokes_ogs.tif
176
     1
290
     0
176
     1
 40
1.0
176
     1
 40
1.0
176
     1
1001
ACAD
1000
AcDbSavedByObjectVersion
1070
     0
  0
VISUALSTYLE
  5
DD
102
{ACAD_REACTORS
330
2A
102
}
330
2A
100
AcDbVisualStyle
  2
JitterOff
 70
    20
177
     3
291
     1
 70
    58
 90
        2
176
     0
 90
        2
176
     0
 90
        0
176
     0
 90
        0
176
     0
 40
0.6
176
     0
 40
30.0
176
     0
 62
     7
420
 16777215
176
     0
 90
        1
176
     0
 90
        4
176
     0
 62
     7
176
     0
 62
   257
176
     0
 90
        1
176
     0
 90
        1
176
     0
 40
1.0
176
     0
 90
       10
176
     2
 62
     7
176
     0
 40
1.0
176
     0
 90
        1
176
     0
 90
        6
176
     0
 90
        2
176
     0
 62
     7
176
     0
 90
        5
176
     0
 90
        0
176
     0
 90
        0
176
     0
290
     0
176
     0
 90
        1
176
     0
 40
0.0
176
     0
 90
        0
176
     0
290
     0
176
     1
290
     1
176
     1
290
     1
176
     1
290
     0
176
     1
290
     0
176
     1
290
     0
176
     1
290
     0
176
     1
290
     0
176
     1
290
     0
176
     1
 90
       50
176
     0
 40
0.0
176
     0
 40
1.0
176
     0
 90
        0
176
     0
 62
    18
420
        0
176
     0
 90
       50
176
     0
 90
        3
176
     0
 62
     5
420
      255
176
     0
290
     0
176
     1
 90
       50
176
     0
 90
       50
176
     0
 90
       50
176
     0
290
     0
176
     1
 90
       50
176
     0
 62
   256
176
     0
 40
1.0
176
     0
 90
        2
176
     0
  1
strokes_ogs.tif
176
     0
290
     0
176
     1
 40
1.0
176
     0
 40
1.0
176
     0
1001
ACAD
1000
AcDbSavedByObjectVersion
1070
     0
  0
VISUALSTYLE
  5
38
102
{ACAD_REACTORS
330
2A
102
}
330
2A
100
AcDbVisualStyle
  2
Linepattern
 70
    14
177
     3
291
     1
 70
    58
 90
        2
176
     1
 90
        2
176
     1
 90
        0
176
     1
 90
        0
176
     1
 40
0.6
176
     1
 40
30.0
176
     1
 62
     7
420
 16777215
176
     1
 90
        1
176
     1
 90
        4
176
     1
 62
     7
176
     1
 62
   257
176
     1
 90
        7
176
     1
 90
        7
176
     1
 40
1.0
176
     1
 90
        8
176
     1
 62
     7
176
     1
 40
1.0
176
     1
 90
        1
176
     1
 90
        6
176
     1
 90
        2
176
     1
 62
     7
176
     1
 90
        5
176
     1
 90
        0
176
     1
 90
        0
176
     1
290
     0
176
     1
 90
        1
176
     1
 40
0.0
176
     1
 90
        0
176
     1
290
     0
176
     1
290
     1
176
     1
290
     1
176
     1
290
     0
176
     1
290
     0
176
     1
290
     0
176
     1
290
     0
176
     1
290
     0
176
     1
290
     0
176
     1
 90
       50
176
     1
 40
0.0
176
     1
 40
1.0
176
     1
 90
        0
176
     1
 62
    18
420
        0
176
     1
 90
       50
176
     1
 90
        3
176
     1
 62
     5
420
      255
176
     1
290
     0
176
     1
 90
       50
176
     1
 90
       50
176
     1
 90
       50
176
     1
290
     0
176
     1
 90
       50
176
     1
 62
   256
176
     0
 40
1.0
176
     0
 90
        2
176
     1
  1
strokes_ogs.tif
176
     1
290
     0
176
     1
 40
1.0
176
     1
 40
1.0
176
     1
1001
ACAD
1000
AcDbSavedByObjectVersion
1070
     0
  0
VISUALSTYLE
  5
DE
102
{ACAD_REACTORS
330
2A
102
}
330
2A
100
AcDbVisualStyle
  2
OverhangOff
 70
    21
177
     3
291
     1
 70
    58
 90
        2
176
     0
 90
        2
176
     0
 90
        0
176
     0
 90
        0
176
     0
 40
0.6
176
     0
 40
30.0
176
     0
 62
     7
420
 16777215
176
     0
 90
        1
176
     0
 90
        4
176
     0
 62
     7
176
     0
 62
   257
176
     0
 90
        1
176
     0
 90
        1
176
     0
 40
1.0
176
     0
 90
        9
176
     2
 62
     7
176
     0
 40
1.0
176
     0
 90
        1
176
     0
 90
        6
176
     0
 90
        2
176
     0
 62
     7
176
     0
 90
        5
176
     0
 90
        0
176
     0
 90
        0
176
     0
290
     0
176
     0
 90
        1
176
     0
 40
0.0
176
     0
 90
        0
176
     0
290
     0
176
     1
290
     1
176
     1
290
     1
176
     1
290
     0
176
     1
290
     0
176
     1
290
     0
176
     1
290
     0
176
     1
290
     0
176
     1
290
     0
176
     1
 90
       50
176
     0
 40
0.0
176
     0
 40
1.0
176
     0
 90
        0
176
     0
 62
    18
420
        0
176
     0
 90
       50
176
     0
 90
        3
176
     0
 62
     5
420
      255
176
     0
290
     0
176
     1
 90
       50
176
     0
 90
       50
176
     0
 90
       50
176
     0
290
     0
176
     1
 90
       50
176
     0
 62
   256
176
     0
 40
1.0
176
     0
 90
        2
176
     0
  1
strokes_ogs.tif
176
     0
290
     0
176
     1
 40
1.0
176
     0
 40
1.0
176
     0
1001
ACAD
1000
AcDbSavedByObjectVersion
1070
     0
  0
VISUALSTYLE
  5
33
102
{ACAD_REACTORS
330
2A
102
}
330
2A
100
AcDbVisualStyle
  2
Realistic
 70
     8
177
     3
291
     0
 70
    58
 90
        2
176
     1
 90
        2
176
     1
 90
        0
176
     1
 90
        0
176
     1
 40
0.6
176
     1
 40
30.0
176
     1
 62
     7
420
 16777215
176
     1
 90
        1
176
     1
 90
        0
176
     1
 62
     7
176
     1
 62
   257
176
     1
 90
        1
176
     1
 90
        1
176
     1
 40
1.0
176
     1
 90
        8
176
     1
 62
     8
420
  7895160
176
     1
 40
1.0
176
     1
 90
        1
176
     1
 90
        6
176
     1
 90
        2
176
     1
 62
     7
176
     1
 90
        5
176
     1
 90
        0
176
     1
 90
        0
176
     1
290
     0
176
     1
 90
       13
176
     1
 40
0.0
176
     1
 90
        0
176
     1
290
     0
176
     1
290
     1
176
     1
290
     1
176
     1
290
     0
176
     1
290
     0
176
     1
290
     0
176
     1
290
     0
176
     1
290
     0
176
     1
290
     0
176
     1
 90
       50
176
     1
 40
0.0
176
     1
 40
1.0
176
     1
 90
        0
176
     1
 62
    18
420
        0
176
     1
 90
       50
176
     1
 90
        3
176
     1
 62
     5
420
      255
176
     1
290
     0
176
     1
 90
       50
176
     1
 90
       50
176
     1
 90
       50
176
     1
290
     0
176
     1
 90
       50
176
     1
 62
   256
176
     0
 40
1.0
176
     0
 90
        2
176
     1
  1
strokes_ogs.tif
176
     1
290
     0
176
     1
 40
1.0
176
     1
 40
1.0
176
     1
1001
ACAD
1000
AcDbSavedByObjectVersion
1070
     0
  0
VISUALSTYLE
  5
DC
102
{ACAD_REACTORS
330
2A
102
}
330
2A
100
AcDbVisualStyle
  2
Shaded
 70
    27
177
     3
291
     0
 70
    58
 90
        2
176
     1
 90
        2
176
     1
 90
        1
176
     1
 90
        2
176
     1
 40
0.6
176
     1
 40
30.0
176
     1
 62
     7
420
 16777215
176
     1
 90
        0
176
     1
 90
        4
176
     1
 62
     7
176
     1
 62
   257
176
     1
 90
        1
176
     1
 90
        1
176
     1
 40
1.0
176
     1
 90
        8
176
     1
 62
   257
176
     1
 40
1.0
176
     1
 90
        1
176
     1
 90
        6
176
     1
 90
        2
176
     1
 62
     8
420
  7895160
176
     1
 90
        3
176
     1
 90
        0
176
     1
 90
        0
176
     1
290
     0
176
     1
 90
        5
176
     1
 40
0.0
176
     1
 90
        0
176
     1
290
     0
176
     1
290
     1
176
     1
290
     1
176
     1
290
     0
176
     1
290
     0
176
     1
290
     0
176
     1
290
     0
176
     1
290
     0
176
     1
290
     0
176
     1
 90
       50
176
     1
 40
0.0
176
     1
 40
1.0
176
     1
 90
        0
176
     1
 62
    18
420
        0
176
     1
 90
       50
176
     1
 90
        3
176
     1
 62
     5
420
      255
176
     1
290
     0
176
     1
 90
       50
176
     1
 90
       50
176
     1
 90
       50
176
     1
290
     0
176
     1
 90
       50
176
     1
 62
   256
176
     0
 40
1.0
176
     0
 90
        2
176
     1
  1
strokes_ogs.tif
176
     1
290
     0
176
     1
 40
1.0
176
     1
 40
1.0
176
     1
1001
ACAD
1000
AcDbSavedByObjectVersion
1070
     0
  0
VISUALSTYLE
  5
DB
102
{ACAD_REACTORS
330
2A
102
}
330
2A
100
AcDbVisualStyle
  2
Shaded with edges
 70
    26
177
     3
291
     0
 70
    58
 90
        2
176
     1
 90
        2
176
     1
 90
        1
176
     1
 90
        2
176
     1
 40
0.6
176
     1
 40
30.0
176
     1
 62
     7
420
 16777215
176
     1
 90
        1
176
     1
 90
        2
176
     1
 62
     7
176
     1
 62
   257
176
     1
 90
        2
176
     1
 90
        1
176
     1
 40
1.0
176
     1
 90
        8
176
     1
 62
   257
176
     1
 40
1.0
176
     1
 90
        1
176
     1
 90
        6
176
     1
 90
        2
176
     1
 62
     7
176
     1
 90
        3
176
     1
 90
        0
176
     1
 90
        0
176
     1
290
     0
176
     1
 90
        5
176
     1
 40
0.0
176
     1
 90
        0
176
     1
290
     0
176
     1
290
     1
176
     1
290
     1
176
     1
290
     0
176
     1
290
     0
176
     1
290
     0
176
     1
290
     0
176
     1
290
     0
176
     1
290
     0
176
     1
 90
       50
176
     1
 40
0.0
176
     1
 40
1.0
176
     1
 90
        0
176
     1
 62
    18
420
        0
176
     1
 90
       50
176
     1
 90
        3
176
     1
 62
     5
420
      255
176
     1
290
     0
176
     1
 90
       50
176
     1
 90
       50
176
     1
 90
       50
176
     1
290
     0
176
     1
 90
       50
176
     1
 62
   256
176
     0
 40
1.0
176
     0
 90
        2
176
     1
  1
strokes_ogs.tif
176
     1
290
     0
176
     1
 40
1.0
176
     1
 40
1.0
176
     1
1001
ACAD
1000
AcDbSavedByObjectVersion
1070
     0
  0
VISUALSTYLE
  5
D8
102
{ACAD_REACTORS
330
2A
102
}
330
2A
100
AcDbVisualStyle
  2
Shades of Gray
 70
    23
177
     3
291
     0
 70
    58
 90
        2
176
     1
 90
        2
176
     1
 90
        3
176
     1
 90
        0
176
     1
 40
0.6
176
     1
 40
30.0
176
     1
 62
     7
420
 16777215
176
     1
 90
        2
176
     1
 90
        2
176
     1
 62
     7
176
     1
 62
     7
176
     1
 90
        1
176
     1
 90
        1
176
     1
 40
40.0
176
     1
 90
        8
176
     1
 62
     7
176
     1
 40
1.0
176
     1
 90
        1
176
     1
 90
        6
176
     1
 90
        2
176
     1
 62
     7
176
     1
 90
        3
176
     1
 90
        0
176
     1
 90
        0
176
     1
290
     0
176
     1
 90
        1
176
     1
 40
0.0
176
     1
 90
        0
176
     1
290
     0
176
     1
290
     1
176
     1
290
     1
176
     1
290
     0
176
     1
290
     0
176
     1
290
     0
176
     1
290
     0
176
     1
290
     0
176
     1
290
     0
176
     1
 90
       50
176
     1
 40
0.0
176
     1
 40
1.0
176
     1
 90
        0
176
     1
 62
    18
420
        0
176
     1
 90
       50
176
     1
 90
        3
176
     1
 62
     5
420
      255
176
     1
290
     0
176
     1
 90
       50
176
     1
 90
       50
176
     1
 90
       50
176
     1
290
     0
176
     1
 90
       50
176
     1
 62
   256
176
     0
 40
1.0
176
     0
 90
        2
176
     1
  1
strokes_ogs.tif
176
     1
290
     0
176
     1
 40
1.0
176
     1
 40
1.0
176
     1
1001
ACAD
1000
AcDbSavedByObjectVersion
1070
     0
  0
VISUALSTYLE
  5
D9
102
{ACAD_REACTORS
330
2A
102
}
330
2A
100
AcDbVisualStyle
  2
Sketchy
 70
    24
177
     3
291
     0
 70
    58
 90
        1
176
     1
 90
        2
176
     1
 90
        2
176
     1
 90
        0
176
     1
 40
0.6
176
     1
 40
30.0
176
     1
 62
     7
420
 16777215
176
     1
 90
        2
176
     1
 90
        2
176
     1
 62
     7
176
     1
 62
     7
176
     1
 90
        1
176
     1
 90
        1
176
     1
 40
40.0
176
     1
 90
       11
176
     1
 62
     7
176
     1
 40
1.0
176
     1
 90
        1
176
     1
 90
        6
176
     1
 90
        2
176
     1
 62
     7
176
     1
 90
        6
176
     1
 90
        0
176
     1
 90
        0
176
     1
290
     0
176
     1
 90
        1
176
     1
 40
0.0
176
     1
 90
        0
176
     1
290
     0
176
     1
290
     1
176
     1
290
     1
176
     1
290
     0
176
     1
290
     0
176
     1
290
     0
176
     1
290
     0
176
     1
290
     0
176
     1
290
     0
176
     1
 90
       50
176
     1
 40
0.0
176
     1
 40
1.0
176
     1
 90
        0
176
     1
 62
    18
420
        0
176
     1
 90
       50
176
     1
 90
        3
176
     1
 62
     5
420
      255
176
     1
290
     0
176
     1
 90
       50
176
     1
 90
       50
176
     1
 90
       50
176
     1
290
     0
176
     1
 90
       50
176
     1
 62
   256
176
     0
 40
1.0
176
     0
 90
        2
176
     1
  1
strokes_ogs.tif
176
     1
290
     0
176
     1
 40
1.0
176
     1
 40
1.0
176
     1
1001
ACAD
1000
AcDbSavedByObjectVersion
1070
     0
  0
VISUALSTYLE
  5
37
102
{ACAD_REACTORS
330
2A
102
}
330
2A
100
AcDbVisualStyle
  2
Thicken
 70
    13
177
     3
291
     1
 70
    58
 90
        2
176
     1
 90
        2
176
     1
 90
        0
176
     1
 90
        0
176
     1
 40
0.6
176
     1
 40
30.0
176
     1
 62
     7
420
 16777215
176
     1
 90
        1
176
     1
 90
        4
176
     1
 62
     7
176
     1
 62
   257
176
     1
 90
        1
176
     1
 90
        1
176
     1
 40
1.0
176
     1
 90
       12
176
     1
 62
     7
176
     1
 40
1.0
176
     1
 90
        1
176
     1
 90
        6
176
     1
 90
        2
176
     1
 62
     7
176
     1
 90
        5
176
     1
 90
        0
176
     1
 90
        0
176
     1
290
     0
176
     1
 90
        1
176
     1
 40
0.0
176
     1
 90
        0
176
     1
290
     0
176
     1
290
     1
176
     1
290
     1
176
     1
290
     0
176
     1
290
     0
176
     1
290
     0
176
     1
290
     0
176
     1
290
     0
176
     1
290
     0
176
     1
 90
       50
176
     1
 40
0.0
176
     1
 40
1.0
176
     1
 90
        0
176
     1
 62
    18
420
        0
176
     1
 90
       50
176
     1
 90
        3
176
     1
 62
     5
420
      255
176
     1
290
     0
176
     1
 90
       50
176
     1
 90
       50
176
     1
 90
       50
176
     1
290
     0
176
     1
 90
       50
176
     1
 62
   256
176
     0
 40
1.0
176
     0
 90
        2
176
     1
  1
strokes_ogs.tif
176
     1
290
     0
176
     1
 40
1.0
176
     1
 40
1.0
176
     1
1001
ACAD
1000
AcDbSavedByObjectVersion
1070
     0
  0
VISUALSTYLE
  5
D6
102
{ACAD_REACTORS
330
2A
102
}
330
2A
100
AcDbVisualStyle
  2
Wireframe
 70
     5
177
     3
291
     0
 70
    58
 90
        0
176
     1
 90
        2
176
     1
 90
        0
176
     1
 90
        0
176
     1
 40
0.6
176
     1
 40
30.0
176
     1
 62
     7
420
 16777215
176
     1
 90
        1
176
     1
 90
        4
176
     1
 62
     7
176
     1
 62
   257
176
     1
 90
        1
176
     1
 90
        1
176
     1
 40
1.0
176
     1
 90
        0
176
     1
 62
   257
176
     1
 40
1.0
176
     1
 90
        1
176
     1
 90
        6
176
     1
 90
        2
176
     1
 62
     7
176
     1
 90
        3
176
     1
 90
        0
176
     1
 90
        0
176
     1
290
     0
176
     1
 90
        1
176
     1
 40
0.0
176
     1
 90
        0
176
     1
290
     0
176
     1
290
     1
176
     1
290
     1
176
     1
290
     0
176
     1
290
     0
176
     1
290
     0
176
     1
290
     0
176
     1
290
     0
176
     1
290
     0
176
     1
 90
       50
176
     1
 40
0.0
176
     1
 40
1.0
176
     1
 90
        0
176
     1
 62
    18
420
        0
176
     1
 90
       50
176
     1
 90
        3
176
     1
 62
     5
420
      255
176
     1
290
     0
176
     1
 90
       50
176
     1
 90
       50
176
     1
 90
       50
176
     1
290
     0
176
     1
 90
       50
176
     1
 62
   256
176
     0
 40
1.0
176
     0
 90
        2
176
     1
  1
strokes_ogs.tif
176
     1
290
     0
176
     1
 40
1.0
176
     1
 40
1.0
176
     1
1001
ACAD
1000
AcDbSavedByObjectVersion
1070
     0
  0
VISUALSTYLE
  5
DA
102
{ACAD_REACTORS
330
2A
102
}
330
2A
100
AcDbVisualStyle
  2
X-Ray
 70
    25
177
     3
291
     0
 70
    58
 90
        2
176
     1
 90
        2
176
     1
 90
        1
176
     1
 90
        1
176
     1
 40
0.5
176
     1
 40
30.0
176
     1
 62
     7
420
 16777215
176
     1
 90
        1
176
     1
 90
        0
176
     1
 62
     7
176
     1
 62
   257
176
     1
 90
        1
176
     1
 90
        1
176
     1
 40
1.0
176
     1
 90
        8
176
     1
 62
     7
176
     1
 40
1.0
176
     1
 90
        1
176
     1
 90
        6
176
     1
 90
        2
176
     1
 62
     7
176
     1
 90
        3
176
     1
 90
        0
176
     1
 90
        0
176
     1
290
     0
176
     1
 90
       13
176
     1
 40
0.0
176
     1
 90
        0
176
     1
290
     0
176
     1
290
     1
176
     1
290
     1
176
     1
290
     0
176
     1
290
     0
176
     1
290
     0
176
     1
290
     0
176
     1
290
     0
176
     1
290
     0
176
     1
 90
       50
176
     1
 40
0.0
176
     1
 40
1.0
176
     1
 90
        0
176
     1
 62
    18
420
        0
176
     1
 90
       50
176
     1
 90
        3
176
     1
 62
     5
420
      255
176
     1
290
     0
176
     1
 90
       50
176
     1
 90
       50
176
     1
 90
       50
176
     1
290
     0
176
     1
 90
       50
176
     1
 62
   256
176
     0
 40
1.0
176
     0
 90
        2
176
     1
  1
strokes_ogs.tif
176
     1
290
     0
176
     1
 40
1.0
176
     1
 40
1.0
176
     1
1001
ACAD
1000
AcDbSavedByObjectVersion
1070
     0
  0
DICTIONARYVAR
  5
15E
102
{ACAD_REACTORS
330
159
102
}
330
159
100
DictionaryVariables
280
     0
  1
1:1
  0
DICTIONARYVAR
  5
15B
102
{ACAD_REACTORS
330
159
102
}
330
159
100
DictionaryVariables
280
     0
  1
STANDARD
  0
DICTIONARYVAR
  5
15A
102
{ACAD_REACTORS
330
159
102
}
330
159
100
DictionaryVariables
280
     0
  1
STANDARD
  0
DICTIONARYVAR
  5
15C
102
{ACAD_REACTORS
330
159
102
}
330
159
100
DictionaryVariables
280
     0
  1
Imperial24
  0
DICTIONARYVAR
  5
15D
102
{ACAD_REACTORS
330
159
102
}
330
159
100
DictionaryVariables
280
     0
  1
Imperial24
  0
DICTIONARY
  5
16C
330
FC
100
AcDbDictionary
280
     1
281
     1
  3
ACAD_XREC_ROUNDTRIP
360
16D
  0
DICTIONARY
  5
16A
330
FA
100
AcDbDictionary
280
     1
281
     1
  3
ACAD_XREC_ROUNDTRIP
360
16B
  0
DICTIONARY
  5
167
330
E1
100
AcDbDictionary
280
     1
281
     1
  3
ACAD_ROUNDTRIP_2008_TABLESTYLE_CELLSTYLEMAP
360
168
  0
XRECORD
  5
16D
102
{ACAD_REACTORS
330
16C
102
}
330
16C
100
AcDbXrecord
280
     1
102
DISPLAYNAME
  1
Imperial24
102
FLAGS
 90
        0
  0
XRECORD
  5
16B
102
{ACAD_REACTORS
330
16A
102
}
330
16A
100
AcDbXrecord
280
     1
102
DISPLAYNAME
  1
Imperial24
102
FLAGS
 90
        0
  0
CELLSTYLEMAP
  5
168
102
{ACAD_REACTORS
330
167
102
}
330
167
100
AcDbCellStyleMap
 90
        3
300
CELLSTYLE
  1
TABLEFORMAT_BEGIN
 90
        5
170
     1
 91
        0
 92
    32768
 62
   257
 93
        1
300
CONTENTFORMAT
  1
CONTENTFORMAT_BEGIN
 90
        0
 91
        0
 92
      512
 93
        0
300

 40
0.0
140
1.0
 94
        5
 62
     0
340
11
144
0.25
309
CONTENTFORMAT_END
171
     0
 94
        0
309
TABLEFORMAT_END
  1
CELLSTYLE_BEGIN
 90
        1
 91
        1
300
_TITLE
309
CELLSTYLE_END
300
CELLSTYLE
  1
TABLEFORMAT_BEGIN
 90
        5
170
     1
 91
        0
 92
        0
 62
   257
 93
        1
300
CONTENTFORMAT
  1
CONTENTFORMAT_BEGIN
 90
        0
 91
        0
 92
      512
 93
        0
300

 40
0.0
140
1.0
 94
        5
 62
     0
340
11
144
0.18
309
CONTENTFORMAT_END
171
     0
 94
        0
309
TABLEFORMAT_END
  1
CELLSTYLE_BEGIN
 90
        2
 91
        1
300
_HEADER
309
CELLSTYLE_END
300
CELLSTYLE
  1
TABLEFORMAT_BEGIN
 90
        5
170
     1
 91
        0
 92
        0
 62
   257
 93
        1
300
CONTENTFORMAT
  1
CONTENTFORMAT_BEGIN
 90
        0
 91
        0
 92
      512
 93
        0
300

 40
0.0
140
1.0
 94
        2
 62
     0
340
11
144
0.18
309
CONTENTFORMAT_END
171
     0
 94
        0
309
TABLEFORMAT_END
  1
CELLSTYLE_BEGIN
 90
        3
 91
        2
300
_DATA
309
CELLSTYLE_END
  0
ENDSEC
  0
EOF
