  0
SECTION
  2
HEADER
  9
$ACADVER
  1
AC1027
  9
$ACADMAINTVER
 70
   125
  9
$DWGCODEPAGE
  3
ANSI_1252
  9
$LASTSAVEDBY
  1
ufficio.tecnico
  9
$REQUIREDVERSIONS
160
                 0
  9
$INSBASE
 10
0.0
 20
0.0
 30
0.0
  9
$EXTMIN
 10
49.62702107672988
 20
31.06795401726856
 30
0.0
  9
$EXTMAX
 10
105.7126588122744
 20
80.42480350579735
 30
0.0
  9
$LIMMIN
 10
0.0
 20
0.0
  9
$LIMMAX
 10
12.0
 20
9.0
  9
$ORTHOMODE
 70
     0
  9
$REGENMODE
 70
     1
  9
$FILLMODE
 70
     1
  9
$QTEXTMODE
 70
     0
  9
$MIRRTEXT
 70
     0
  9
$LTSCALE
 40
1.0
  9
$ATTMODE
 70
     1
  9
$TEXTSIZE
 40
0.2
  9
$TRACEWID
 40
0.05
  9
$TEXTSTYLE
  7
Standard
  9
$CLAYER
  8
0
  9
$CELTYPE
  6
ByLayer
  9
$CECOLOR
 62
   256
  9
$CELTSCALE
 40
1.0
  9
$DISPSILH
 70
     0
  9
$DIMSCALE
 40
1.0
  9
$DIMASZ
 40
0.18
  9
$DIMEXO
 40
0.0625
  9
$DIMDLI
 40
0.38
  9
$DIMRND
 40
0.0
  9
$DIMDLE
 40
0.0
  9
$DIMEXE
 40
0.18
  9
$DIMTP
 40
0.0
  9
$DIMTM
 40
0.0
  9
$DIMTXT
 40
0.18
  9
$DIMCEN
 40
0.09
  9
$DIMTSZ
 40
0.0
  9
$DIMTOL
 70
     0
  9
$DIMLIM
 70
     0
  9
$DIMTIH
 70
     1
  9
$DIMTOH
 70
     1
  9
$DIMSE1
 70
     0
  9
$DIMSE2
 70
     0
  9
$DIMTAD
 70
     0
  9
$DIMZIN
 70
     0
  9
$DIMBLK
  1

  9
$DIMASO
 70
     1
  9
$DIMSHO
 70
     1
  9
$DIMPOST
  1

  9
$DIMAPOST
  1

  9
$DIMALT
 70
     0
  9
$DIMALTD
 70
     2
  9
$DIMALTF
 40
25.4
  9
$DIMLFAC
 40
1.0
  9
$DIMTOFL
 70
     0
  9
$DIMTVP
 40
0.0
  9
$DIMTIX
 70
     0
  9
$DIMSOXD
 70
     0
  9
$DIMSAH
 70
     0
  9
$DIMBLK1
  1

  9
$DIMBLK2
  1

  9
$DIMSTYLE
  2
Standard
  9
$DIMCLRD
 70
     0
  9
$DIMCLRE
 70
     0
  9
$DIMCLRT
 70
     0
  9
$DIMTFAC
 40
1.0
  9
$DIMGAP
 40
0.09
  9
$DIMJUST
 70
     0
  9
$DIMSD1
 70
     0
  9
$DIMSD2
 70
     0
  9
$DIMTOLJ
 70
     1
  9
$DIMTZIN
 70
     0
  9
$DIMALTZ
 70
     0
  9
$DIMALTTZ
 70
     0
  9
$DIMUPT
 70
     0
  9
$DIMDEC
 70
     4
  9
$DIMTDEC
 70
     4
  9
$DIMALTU
 70
     2
  9
$DIMALTTD
 70
     2
  9
$DIMTXSTY
  7
Standard
  9
$DIMAUNIT
 70
     0
  9
$DIMADEC
 70
     0
  9
$DIMALTRND
 40
0.0
  9
$DIMAZIN
 70
     0
  9
$DIMDSEP
 70
    46
  9
$DIMATFIT
 70
     3
  9
$DIMFRAC
 70
     0
  9
$DIMLDRBLK
  1

  9
$DIMLUNIT
 70
     2
  9
$DIMLWD
 70
    -2
  9
$DIMLWE
 70
    -2
  9
$DIMTMOVE
 70
     0
  9
$DIMFXL
 40
1.0
  9
$DIMFXLON
 70
     0
  9
$DIMJOGANG
 40
0.7853981633974483
  9
$DIMTFILL
 70
     0
  9
$DIMTFILLCLR
 70
     0
  9
$DIMARCSYM
 70
     0
  9
$DIMLTYPE
  6

  9
$DIMLTEX1
  6

  9
$DIMLTEX2
  6

  9
$DIMTXTDIRECTION
 70
     0
  9
$LUNITS
 70
     2
  9
$LUPREC
 70
     4
  9
$SKETCHINC
 40
0.1
  9
$FILLETRAD
 40
0.0
  9
$AUNITS
 70
     0
  9
$AUPREC
 70
     0
  9
$MENU
  1
.
  9
$ELEVATION
 40
0.0
  9
$PELEVATION
 40
0.0
  9
$THICKNESS
 40
0.0
  9
$LIMCHECK
 70
     0
  9
$CHAMFERA
 40
0.0
  9
$CHAMFERB
 40
0.0
  9
$CHAMFERC
 40
0.0
  9
$CHAMFERD
 40
0.0
  9
$SKPOLY
 70
     0
  9
$TDCREATE
 40
2459319.706504629
  9
$TDUCREATE
 40
2459319.623171297
  9
$TDUPDATE
 40
2459319.713796296
  9
$TDUUPDATE
 40
2459319.630462963
  9
$TDINDWG
 40
0.0072916667
  9
$TDUSRTIMER
 40
0.0072916667
  9
$USRTIMER
 70
     1
  9
$ANGBASE
 50
0.0
  9
$ANGDIR
 70
     0
  9
$PDMODE
 70
     0
  9
$PDSIZE
 40
0.0
  9
$PLINEWID
 40
0.0
  9
$SPLFRAME
 70
     0
  9
$SPLINETYPE
 70
     6
  9
$SPLINESEGS
 70
     8
  9
$HANDSEED
  5
3EF
  9
$SURFTAB1
 70
     6
  9
$SURFTAB2
 70
     6
  9
$SURFTYPE
 70
     6
  9
$SURFU
 70
     6
  9
$SURFV
 70
     6
  9
$UCSBASE
  2

  9
$UCSNAME
  2

  9
$UCSORG
 10
0.0
 20
0.0
 30
0.0
  9
$UCSXDIR
 10
1.0
 20
0.0
 30
0.0
  9
$UCSYDIR
 10
0.0
 20
1.0
 30
0.0
  9
$UCSORTHOREF
  2

  9
$UCSORTHOVIEW
 70
     0
  9
$UCSORGTOP
 10
0.0
 20
0.0
 30
0.0
  9
$UCSORGBOTTOM
 10
0.0
 20
0.0
 30
0.0
  9
$UCSORGLEFT
 10
0.0
 20
0.0
 30
0.0
  9
$UCSORGRIGHT
 10
0.0
 20
0.0
 30
0.0
  9
$UCSORGFRONT
 10
0.0
 20
0.0
 30
0.0
  9
$UCSORGBACK
 10
0.0
 20
0.0
 30
0.0
  9
$PUCSBASE
  2

  9
$PUCSNAME
  2

  9
$PUCSORG
 10
0.0
 20
0.0
 30
0.0
  9
$PUCSXDIR
 10
1.0
 20
0.0
 30
0.0
  9
$PUCSYDIR
 10
0.0
 20
1.0
 30
0.0
  9
$PUCSORTHOREF
  2

  9
$PUCSORTHOVIEW
 70
     0
  9
$PUCSORGTOP
 10
0.0
 20
0.0
 30
0.0
  9
$PUCSORGBOTTOM
 10
0.0
 20
0.0
 30
0.0
  9
$PUCSORGLEFT
 10
0.0
 20
0.0
 30
0.0
  9
$PUCSORGRIGHT
 10
0.0
 20
0.0
 30
0.0
  9
$PUCSORGFRONT
 10
0.0
 20
0.0
 30
0.0
  9
$PUCSORGBACK
 10
0.0
 20
0.0
 30
0.0
  9
$USERI1
 70
     0
  9
$USERI2
 70
     0
  9
$USERI3
 70
     0
  9
$USERI4
 70
     0
  9
$USERI5
 70
     0
  9
$USERR1
 40
0.0
  9
$USERR2
 40
0.0
  9
$USERR3
 40
0.0
  9
$USERR4
 40
0.0
  9
$USERR5
 40
0.0
  9
$WORLDVIEW
 70
     1
  9
$SHADEDGE
 70
     3
  9
$SHADEDIF
 70
    70
  9
$TILEMODE
 70
     1
  9
$MAXACTVP
 70
    64
  9
$PINSBASE
 10
0.0
 20
0.0
 30
0.0
  9
$PLIMCHECK
 70
     0
  9
$PEXTMIN
 10
0.0
 20
0.0
 30
0.0
  9
$PEXTMAX
 10
0.0
 20
0.0
 30
0.0
  9
$PLIMMIN
 10
0.0
 20
0.0
  9
$PLIMMAX
 10
12.0
 20
9.0
  9
$UNITMODE
 70
     0
  9
$VISRETAIN
 70
     1
  9
$PLINEGEN
 70
     0
  9
$PSLTSCALE
 70
     1
  9
$TREEDEPTH
 70
  3020
  9
$CMLSTYLE
  2
Standard
  9
$CMLJUST
 70
     0
  9
$CMLSCALE
 40
1.0
  9
$PROXYGRAPHICS
 70
     1
  9
$MEASUREMENT
 70
     0
  9
$CELWEIGHT
370
    -1
  9
$ENDCAPS
280
     0
  9
$JOINSTYLE
280
     0
  9
$LWDISPLAY
290
     0
  9
$INSUNITS
 70
     1
  9
$HYPERLINKBASE
  1

  9
$STYLESHEET
  1

  9
$XEDIT
290
     1
  9
$CEPSNTYPE
380
     0
  9
$PSTYLEMODE
290
     0
  9
$FINGERPRINTGUID
  2
{C658AF27-AD9E-6241-AB8C-FFC71FC024E0}
  9
$VERSIONGUID
  2
{5CF07CD7-176D-384D-8F2F-1FD0FDA6E7E6}
  9
$EXTNAMES
290
     1
  9
$PSVPSCALE
 40
0.0
  9
$OLESTARTUP
290
     0
  9
$SORTENTS
280
   127
  9
$INDEXCTL
280
     0
  9
$HIDETEXT
280
     1
  9
$XCLIPFRAME
280
     2
  9
$HALOGAP
280
     0
  9
$OBSCOLOR
 70
   257
  9
$OBSLTYPE
280
     0
  9
$INTERSECTIONDISPLAY
280
     0
  9
$INTERSECTIONCOLOR
 70
   257
  9
$DIMASSOC
280
     2
  9
$PROJECTNAME
  1

  9
$CAMERADISPLAY
290
     0
  9
$LENSLENGTH
 40
50.0
  9
$CAMERAHEIGHT
 40
60.0
  9
$STEPSPERSEC
 40
2.0
  9
$STEPSIZE
 40
6.0
  9
$3DDWFPREC
 40
2.0
  9
$PSOLWIDTH
 40
0.25
  9
$PSOLHEIGHT
 40
4.0
  9
$LOFTANG1
 40
1.570796326794896
  9
$LOFTANG2
 40
1.570796326794896
  9
$LOFTMAG1
 40
0.0
  9
$LOFTMAG2
 40
0.0
  9
$LOFTPARAM
 70
     7
  9
$LOFTNORMALS
280
     1
  9
$LATITUDE
 40
37.795
  9
$LONGITUDE
 40
-122.394
  9
$NORTHDIRECTION
 40
0.0
  9
$TIMEZONE
 70
 -8000
  9
$LIGHTGLYPHDISPLAY
280
     1
  9
$TILEMODELIGHTSYNCH
280
     1
  9
$CMATERIAL
347
92
  9
$SOLIDHIST
280
     0
  9
$SHOWHIST
280
     1
  9
$DWFFRAME
280
     2
  9
$DGNFRAME
280
     0
  9
$REALWORLDSCALE
290
     1
  9
$INTERFERECOLOR
 62
     1
  9
$INTERFEREOBJVS
345
9F
  9
$INTERFEREVPVS
346
9C
  9
$CSHADOW
280
     0
  9
$SHADOWPLANELOCATION
 40
0.0
  0
ENDSEC
  0
SECTION
  2
CLASSES
  0
CLASS
  1
ACDBDICTIONARYWDFLT
  2
AcDbDictionaryWithDefault
  3
ObjectDBX Classes
 90
        0
 91
        1
280
     0
281
     0
  0
CLASS
  1
DICTIONARYVAR
  2
AcDbDictionaryVar
  3
ObjectDBX Classes
 90
        0
 91
        9
280
     0
281
     0
  0
CLASS
  1
MATERIAL
  2
AcDbMaterial
  3
ObjectDBX Classes
 90
     1153
 91
        3
280
     0
281
     0
  0
CLASS
  1
VISUALSTYLE
  2
AcDbVisualStyle
  3
ObjectDBX Classes
 90
     4095
 91
       24
280
     0
281
     0
  0
CLASS
  1
TABLESTYLE
  2
AcDbTableStyle
  3
ObjectDBX Classes
 90
     4095
 91
        1
280
     0
281
     0
  0
CLASS
  1
SCALE
  2
AcDbScale
  3
ObjectDBX Classes
 90
     1153
 91
       33
280
     0
281
     0
  0
CLASS
  1
MLEADERSTYLE
  2
AcDbMLeaderStyle
  3
ACDB_MLEADERSTYLE_CLASS
 90
     4095
 91
        2
280
     0
281
     0
  0
CLASS
  1
CELLSTYLEMAP
  2
AcDbCellStyleMap
  3
ObjectDBX Classes
 90
     1152
 91
        2
280
     0
281
     0
  0
CLASS
  1
EXACXREFPANELOBJECT
  2
ExAcXREFPanelObject
  3
EXAC_ESW
 90
     1025
 91
        0
280
     0
281
     0
  0
CLASS
  1
NPOCOLLECTION
  2
AcDbImpNonPersistentObjectsCollection
  3
ObjectDBX Classes
 90
     1153
 91
        0
280
     0
281
     0
  0
CLASS
  1
LAYER_INDEX
  2
AcDbLayerIndex
  3
ObjectDBX Classes
 90
        0
 91
        0
280
     0
281
     0
  0
CLASS
  1
SPATIAL_INDEX
  2
AcDbSpatialIndex
  3
ObjectDBX Classes
 90
        0
 91
        0
280
     0
281
     0
  0
CLASS
  1
IDBUFFER
  2
AcDbIdBuffer
  3
ObjectDBX Classes
 90
        0
 91
        0
280
     0
281
     0
  0
CLASS
  1
ACDBSECTIONVIEWSTYLE
  2
AcDbSectionViewStyle
  3
ObjectDBX Classes
 90
     1025
 91
        1
280
     0
281
     0
  0
CLASS
  1
ACDBDETAILVIEWSTYLE
  2
AcDbDetailViewStyle
  3
ObjectDBX Classes
 90
     1025
 91
        1
280
     0
281
     0
  0
CLASS
  1
SORTENTSTABLE
  2
AcDbSortentsTable
  3
ObjectDBX Classes
 90
        0
 91
        1
280
     0
281
     0
  0
ENDSEC
  0
SECTION
  2
TABLES
  0
TABLE
  2
VPORT
  5
8
330
0
100
AcDbSymbolTable
 70
     1
1001
ACAD
1000
DbSaveVer
1071
      105
  0
VPORT
  5
90
330
8
100
AcDbSymbolTableRecord
100
AcDbViewportTableRecord
  2
*Active
 70
     0
 10
0.0
 20
0.0
 11
1.0
 21
1.0
 12
90.61842309870142
 22
42.51345460271504
 13
0.0
 23
0.0
 14
0.5
 24
0.5
 15
0.5
 25
0.5
 16
0.0
 26
0.0
 36
1.0
 17
0.0
 27
0.0
 37
0.0
 40
81.31496417628856
 41
2.113286713286713
 42
50.0
 43
0.0
 44
0.0
 50
0.0
 51
0.0
 71
     0
 72
  1000
 73
     1
 74
     3
 75
     0
 76
     1
 77
     0
 78
     0
281
     0
 65
     1
110
0.0
120
0.0
130
0.0
111
1.0
121
0.0
131
0.0
112
0.0
122
1.0
132
0.0
 79
     0
146
0.0
348
9B
 60
     3
 61
     5
292
     1
282
     1
141
0.0
142
0.0
 63
   250
421
  3355443
1001
ACAD_NAV_VCDISPLAY
1070
     3
  0
ENDTAB
  0
TABLE
  2
LTYPE
  5
5
330
0
100
AcDbSymbolTable
 70
     1
  0
LTYPE
  5
14
330
5
100
AcDbSymbolTableRecord
100
AcDbLinetypeTableRecord
  2
ByBlock
 70
     0
  3

 72
    65
 73
     0
 40
0.0
  0
LTYPE
  5
15
330
5
100
AcDbSymbolTableRecord
100
AcDbLinetypeTableRecord
  2
ByLayer
 70
     0
  3

 72
    65
 73
     0
 40
0.0
  0
LTYPE
  5
16
330
5
100
AcDbSymbolTableRecord
100
AcDbLinetypeTableRecord
  2
Continuous
 70
     0
  3
Solid line
 72
    65
 73
     0
 40
0.0
  0
ENDTAB
  0
TABLE
  2
LAYER
  5
2
102
{ACAD_XDICTIONARY
360
18B
102
}
330
0
100
AcDbSymbolTable
 70
     2
  0
LAYER
  5
10
102
{ACAD_XDICTIONARY
360
E1
102
}
330
2
100
AcDbSymbolTableRecord
100
AcDbLayerTableRecord
  2
0
 70
     0
 62
     7
  6
Continuous
370
    -3
390
F
347
94
348
0
  0
LAYER
  5
2EE
330
2
100
AcDbSymbolTableRecord
100
AcDbLayerTableRecord
  2
Livello 1
 70
     0
 62
     7
  6
Continuous
370
    -3
390
F
347
94
348
0
  0
ENDTAB
  0
TABLE
  2
STYLE
  5
3
330
0
100
AcDbSymbolTable
 70
     2
  0
STYLE
  5
11
330
3
100
AcDbSymbolTableRecord
100
AcDbTextStyleTableRecord
  2
Standard
 70
     0
 40
0.0
 41
1.0
 50
0.0
 71
     0
 42
0.2
  3
arial.ttf
  4

1001
ACAD
1000
Arial
1071
       34
  0
STYLE
  5
D7
330
3
100
AcDbSymbolTableRecord
100
AcDbTextStyleTableRecord
  2
Annotativa
 70
     0
 40
0.0
 41
1.0
 50
0.0
 71
     0
 42
0.2
  3
arial.ttf
  4

1001
AcadAnnotative
1000
AnnotativeData
1002
{
1070
     1
1070
     1
1002
}
1001
ACAD
1000
Arial
1071
       34
  0
ENDTAB
  0
TABLE
  2
VIEW
  5
6
330
0
100
AcDbSymbolTable
 70
     0
  0
ENDTAB
  0
TABLE
  2
UCS
  5
7
330
0
100
AcDbSymbolTable
 70
     0
  0
ENDTAB
  0
TABLE
  2
APPID
  5
9
330
0
100
AcDbSymbolTable
 70
     7
  0
APPID
  5
12
330
9
100
AcDbSymbolTableRecord
100
AcDbRegAppTableRecord
  2
ACAD
 70
     0
  0
APPID
  5
D8
330
9
100
AcDbSymbolTableRecord
100
AcDbRegAppTableRecord
  2
AcadAnnoPO
 70
     0
  0
APPID
  5
D9
330
9
100
AcDbSymbolTableRecord
100
AcDbRegAppTableRecord
  2
AcadAnnotative
 70
     0
  0
APPID
  5
DA
330
9
100
AcDbSymbolTableRecord
100
AcDbRegAppTableRecord
  2
ACAD_DSTYLE_DIMJAG
 70
     0
  0
APPID
  5
DB
330
9
100
AcDbSymbolTableRecord
100
AcDbRegAppTableRecord
  2
ACAD_DSTYLE_DIMTALN
 70
     0
  0
APPID
  5
102
330
9
100
AcDbSymbolTableRecord
100
AcDbRegAppTableRecord
  2
ACAD_MLEADERVER
 70
     0
  0
APPID
  5
1A3
330
9
100
AcDbSymbolTableRecord
100
AcDbRegAppTableRecord
  2
ACAD_NAV_VCDISPLAY
 70
     0
  0
ENDTAB
  0
TABLE
  2
DIMSTYLE
  5
A
330
0
100
AcDbSymbolTable
 70
     2
100
AcDbDimStyleTable
 71
     2
340
DC
340
27
  0
DIMSTYLE
105
27
330
A
100
AcDbSymbolTableRecord
100
AcDbDimStyleTableRecord
  2
Standard
 70
     0
340
11
  0
DIMSTYLE
105
DC
330
A
100
AcDbSymbolTableRecord
100
AcDbDimStyleTableRecord
  2
Annotativa
 70
     0
 40
0.0
340
11
1001
AcadAnnotative
1000
AnnotativeData
1002
{
1070
     1
1070
     1
1002
}
1001
ACAD_DSTYLE_DIMJAG
1070
   388
1040
1.5
1001
ACAD_DSTYLE_DIMTALN
1070
   392
1070
     0
  0
ENDTAB
  0
TABLE
  2
BLOCK_RECORD
  5
1
330
0
100
AcDbSymbolTable
 70
    32
  0
BLOCK_RECORD
  5
1F
102
{ACAD_XDICTIONARY
360
15A
102
}
330
1
100
AcDbSymbolTableRecord
100
AcDbBlockTableRecord
  2
*Model_Space
340
22
 70
     0
280
     1
281
     0
  0
BLOCK_RECORD
  5
73
330
1
100
AcDbSymbolTableRecord
100
AcDbBlockTableRecord
  2
*Paper_Space
340
74
 70
     0
280
     1
281
     0
  0
BLOCK_RECORD
  5
78
330
1
100
AcDbSymbolTableRecord
100
AcDbBlockTableRecord
  2
*Paper_Space0
340
79
 70
     0
280
     1
281
     0
  0
BLOCK_RECORD
  5
20C
330
1
100
AcDbSymbolTableRecord
100
AcDbBlockTableRecord
  2
block 31
340
0
102
{BLKREFS
102
}
 70
     0
280
     1
281
     0
  0
BLOCK_RECORD
  5
210
330
1
100
AcDbSymbolTableRecord
100
AcDbBlockTableRecord
  2
block 32
340
0
102
{BLKREFS
102
}
 70
     0
280
     1
281
     0
  0
BLOCK_RECORD
  5
217
330
1
100
AcDbSymbolTableRecord
100
AcDbBlockTableRecord
  2
block 33
340
0
102
{BLKREFS
102
}
 70
     0
280
     1
281
     0
  0
BLOCK_RECORD
  5
21E
330
1
100
AcDbSymbolTableRecord
100
AcDbBlockTableRecord
  2
block 34
340
0
102
{BLKREFS
102
}
 70
     0
280
     1
281
     0
  0
BLOCK_RECORD
  5
225
330
1
100
AcDbSymbolTableRecord
100
AcDbBlockTableRecord
  2
block 35
340
0
102
{BLKREFS
102
}
 70
     0
280
     1
281
     0
  0
BLOCK_RECORD
  5
22C
330
1
100
AcDbSymbolTableRecord
100
AcDbBlockTableRecord
  2
block 36
340
0
102
{BLKREFS
102
}
 70
     0
280
     1
281
     0
  0
BLOCK_RECORD
  5
233
330
1
100
AcDbSymbolTableRecord
100
AcDbBlockTableRecord
  2
block 37
340
0
102
{BLKREFS
102
}
 70
     0
280
     1
281
     0
  0
BLOCK_RECORD
  5
237
330
1
100
AcDbSymbolTableRecord
100
AcDbBlockTableRecord
  2
block 38
340
0
102
{BLKREFS
102
}
 70
     0
280
     1
281
     0
  0
BLOCK_RECORD
  5
23B
330
1
100
AcDbSymbolTableRecord
100
AcDbBlockTableRecord
  2
block 39
340
0
102
{BLKREFS
102
}
 70
     0
280
     1
281
     0
  0
BLOCK_RECORD
  5
246
330
1
100
AcDbSymbolTableRecord
100
AcDbBlockTableRecord
  2
block 40
340
0
102
{BLKREFS
102
}
 70
     0
280
     1
281
     0
  0
BLOCK_RECORD
  5
24D
330
1
100
AcDbSymbolTableRecord
100
AcDbBlockTableRecord
  2
block 41
340
0
102
{BLKREFS
102
}
 70
     0
280
     1
281
     0
  0
BLOCK_RECORD
  5
254
330
1
100
AcDbSymbolTableRecord
100
AcDbBlockTableRecord
  2
block 42
340
0
102
{BLKREFS
102
}
 70
     0
280
     1
281
     0
  0
BLOCK_RECORD
  5
25B
330
1
100
AcDbSymbolTableRecord
100
AcDbBlockTableRecord
  2
block 43
340
0
102
{BLKREFS
102
}
 70
     0
280
     1
281
     0
  0
BLOCK_RECORD
  5
262
330
1
100
AcDbSymbolTableRecord
100
AcDbBlockTableRecord
  2
block 44
340
0
102
{BLKREFS
102
}
 70
     0
280
     1
281
     0
  0
BLOCK_RECORD
  5
269
330
1
100
AcDbSymbolTableRecord
100
AcDbBlockTableRecord
  2
block 45
340
0
102
{BLKREFS
102
}
 70
     0
280
     1
281
     0
  0
BLOCK_RECORD
  5
270
330
1
100
AcDbSymbolTableRecord
100
AcDbBlockTableRecord
  2
block 46
340
0
102
{BLKREFS
102
}
 70
     0
280
     1
281
     0
  0
BLOCK_RECORD
  5
277
330
1
100
AcDbSymbolTableRecord
100
AcDbBlockTableRecord
  2
block 47
340
0
102
{BLKREFS
102
}
 70
     0
280
     1
281
     0
  0
BLOCK_RECORD
  5
27E
330
1
100
AcDbSymbolTableRecord
100
AcDbBlockTableRecord
  2
block 48
340
0
102
{BLKREFS
102
}
 70
     0
280
     1
281
     0
  0
BLOCK_RECORD
  5
285
330
1
100
AcDbSymbolTableRecord
100
AcDbBlockTableRecord
  2
block 49
340
0
102
{BLKREFS
102
}
 70
     0
280
     1
281
     0
  0
BLOCK_RECORD
  5
289
330
1
100
AcDbSymbolTableRecord
100
AcDbBlockTableRecord
  2
block 50
340
0
102
{BLKREFS
102
}
 70
     0
280
     1
281
     0
  0
BLOCK_RECORD
  5
28D
330
1
100
AcDbSymbolTableRecord
100
AcDbBlockTableRecord
  2
block 51
340
0
102
{BLKREFS
102
}
 70
     0
280
     1
281
     0
  0
BLOCK_RECORD
  5
294
330
1
100
AcDbSymbolTableRecord
100
AcDbBlockTableRecord
  2
block 52
340
0
102
{BLKREFS
102
}
 70
     0
280
     1
281
     0
  0
BLOCK_RECORD
  5
29B
330
1
100
AcDbSymbolTableRecord
100
AcDbBlockTableRecord
  2
block 53
340
0
102
{BLKREFS
102
}
 70
     0
280
     1
281
     0
  0
BLOCK_RECORD
  5
29F
330
1
100
AcDbSymbolTableRecord
100
AcDbBlockTableRecord
  2
block 54
340
0
102
{BLKREFS
102
}
 70
     0
280
     1
281
     0
  0
BLOCK_RECORD
  5
2A3
330
1
100
AcDbSymbolTableRecord
100
AcDbBlockTableRecord
  2
block 55
340
0
102
{BLKREFS
102
}
 70
     0
280
     1
281
     0
  0
BLOCK_RECORD
  5
2AA
330
1
100
AcDbSymbolTableRecord
100
AcDbBlockTableRecord
  2
block 56
340
0
102
{BLKREFS
102
}
 70
     0
280
     1
281
     0
  0
BLOCK_RECORD
  5
2B1
330
1
100
AcDbSymbolTableRecord
100
AcDbBlockTableRecord
  2
block 57
340
0
102
{BLKREFS
102
}
 70
     0
280
     1
281
     0
  0
BLOCK_RECORD
  5
2B8
330
1
100
AcDbSymbolTableRecord
100
AcDbBlockTableRecord
  2
block 95
340
0
102
{BLKREFS
102
}
 70
     0
280
     1
281
     0
  0
BLOCK_RECORD
  5
2C4
330
1
100
AcDbSymbolTableRecord
100
AcDbBlockTableRecord
  2
block 99
340
0
102
{BLKREFS
102
}
 70
     0
280
     1
281
     0
  0
BLOCK_RECORD
  5
2D9
330
1
100
AcDbSymbolTableRecord
100
AcDbBlockTableRecord
  2
block 100
340
0
102
{BLKREFS
102
}
 70
     0
280
     1
281
     0
  0
ENDTAB
  0
ENDSEC
  0
SECTION
  2
BLOCKS
  0
BLOCK
  5
20
330
1F
100
AcDbEntity
  8
0
100
AcDbBlockBegin
  2
*Model_Space
 70
     0
 10
0.0
 20
0.0
 30
0.0
  3
*Model_Space
  1

  0
ENDBLK
  5
21
330
1F
100
AcDbEntity
  8
0
100
AcDbBlockEnd
  0
BLOCK
  5
75
330
73
100
AcDbEntity
 67
     1
  8
0
100
AcDbBlockBegin
  2
*Paper_Space
 70
     0
 10
0.0
 20
0.0
 30
0.0
  3
*Paper_Space
  1

  0
ENDBLK
  5
76
330
73
100
AcDbEntity
 67
     1
  8
0
100
AcDbBlockEnd
  0
BLOCK
  5
7A
330
78
100
AcDbEntity
 67
     1
  8
0
100
AcDbBlockBegin
  2
*Paper_Space0
 70
     0
 10
0.0
 20
0.0
 30
0.0
  3
*Paper_Space0
  1

  0
ENDBLK
  5
7B
330
78
100
AcDbEntity
 67
     1
  8
0
100
AcDbBlockEnd
  0
BLOCK
  5
20D
330
20C
100
AcDbEntity
  8
0
100
AcDbBlockBegin
  2
block 31
 70
     0
 10
0.0
 20
0.0
 30
0.0
  3
block 31
  1

  0
SPLINE
  5
20E
330
20C
100
AcDbEntity
  8
Livello 1
 62
   178
420
        1
370
    25
100
AcDbSpline
210
0.0
220
0.0
230
1.0
 70
     8
 71
     3
 72
    20
 73
    16
 74
     0
 42
0.000000001
 43
0.0000000001
 40
0.0
 40
0.0
 40
0.0
 40
0.0
 40
1.0
 40
1.0
 40
1.0
 40
2.0
 40
2.0
 40
2.0
 40
3.0
 40
3.0
 40
3.0
 40
4.0
 40
4.0
 40
4.0
 40
5.0
 40
5.0
 40
5.0
 40
5.0
 10
326.2583853729254
 20
-194.7434231993982
 30
0.0
 10
326.2583853729254
 20
-194.7434231993982
 30
0.0
 10
326.2583853729254
 20
-196.1471723882564
 30
0.0
 10
326.2583853729254
 20
-196.1471723882564
 30
0.0
 10
326.2583853729254
 20
-196.5084160977046
 30
0.0
 10
326.5518293002588
 20
-196.8012555066518
 30
0.0
 10
326.9138111895375
 20
-196.8012555066518
 30
0.0
 10
327.2757964580801
 20
-196.8012555066518
 30
0.0
 10
327.5692722839264
 20
-196.5084160977046
 30
0.0
 10
327.5692722839264
 20
-196.1471723882564
 30
0.0
 10
327.5692722839264
 20
-196.1471723882564
 30
0.0
 10
327.5692722839264
 20
-195.4311627826839
 30
0.0
 10
327.5692722839264
 20
-195.4311627826839
 30
0.0
 10
327.5692722839264
 20
-195.4311627826839
 30
0.0
 10
328.6712442002571
 20
-195.4311627826839
 30
0.0
 10
328.6712442002571
 20
-195.4311627826839
 30
0.0
  0
ENDBLK
  5
20F
330
20C
100
AcDbEntity
  8
0
100
AcDbBlockEnd
  0
BLOCK
  5
211
330
210
100
AcDbEntity
  8
0
100
AcDbBlockBegin
  2
block 32
 70
     0
 10
0.0
 20
0.0
 30
0.0
  3
block 32
  1

  0
POLYLINE
  5
212
330
210
100
AcDbEntity
  8
Livello 1
 62
   178
420
        1
370
    25
100
AcDb2dPolyline
 66
     1
 10
0.0
 20
0.0
 30
0.0
  0
VERTEX
  5
213
330
212
100
AcDbEntity
  8
Livello 1
 62
   178
420
        1
370
    25
100
AcDbVertex
100
AcDb2dVertex
 10
293.4702670427527
 20
-164.3013267341785
 30
0.0
  0
VERTEX
  5
214
330
212
100
AcDbEntity
  8
Livello 1
 62
   178
420
        1
370
    25
100
AcDbVertex
100
AcDb2dVertex
 10
293.4702670427527
 20
-199.5031725682541
 30
0.0
  0
SEQEND
  5
215
330
212
100
AcDbEntity
  8
Livello 1
 62
   178
420
        1
370
    25
  0
ENDBLK
  5
216
330
210
100
AcDbEntity
  8
0
100
AcDbBlockEnd
  0
BLOCK
  5
218
330
217
100
AcDbEntity
  8
0
100
AcDbBlockBegin
  2
block 33
 70
     0
 10
0.0
 20
0.0
 30
0.0
  3
block 33
  1

  0
POLYLINE
  5
219
330
217
100
AcDbEntity
  8
Livello 1
 62
   178
420
        1
370
    25
100
AcDb2dPolyline
 66
     1
 10
0.0
 20
0.0
 30
0.0
  0
VERTEX
  5
21A
330
219
100
AcDbEntity
  8
Livello 1
 62
   178
420
        1
370
    25
100
AcDbVertex
100
AcDb2dVertex
 10
293.4702670427527
 20
-199.5031725682541
 30
0.0
  0
VERTEX
  5
21B
330
219
100
AcDbEntity
  8
Livello 1
 62
   178
420
        1
370
    25
100
AcDbVertex
100
AcDb2dVertex
 10
303.916722331797
 20
-199.5031725682541
 30
0.0
  0
SEQEND
  5
21C
330
219
100
AcDbEntity
  8
Livello 1
 62
   178
420
        1
370
    25
  0
ENDBLK
  5
21D
330
217
100
AcDbEntity
  8
0
100
AcDbBlockEnd
  0
BLOCK
  5
21F
330
21E
100
AcDbEntity
  8
0
100
AcDbBlockBegin
  2
block 34
 70
     0
 10
0.0
 20
0.0
 30
0.0
  3
block 34
  1

  0
POLYLINE
  5
220
330
21E
100
AcDbEntity
  8
Livello 1
 62
   178
420
        1
370
    25
100
AcDb2dPolyline
 66
     1
 10
0.0
 20
0.0
 30
0.0
  0
VERTEX
  5
221
330
220
100
AcDbEntity
  8
Livello 1
 62
   178
420
        1
370
    25
100
AcDbVertex
100
AcDb2dVertex
 10
293.4702670427527
 20
-164.3013267341785
 30
0.0
  0
VERTEX
  5
222
330
220
100
AcDbEntity
  8
Livello 1
 62
   178
420
        1
370
    25
100
AcDbVertex
100
AcDb2dVertex
 10
298.1454191457018
 20
-164.3013267341785
 30
0.0
  0
SEQEND
  5
223
330
220
100
AcDbEntity
  8
Livello 1
 62
   178
420
        1
370
    25
  0
ENDBLK
  5
224
330
21E
100
AcDbEntity
  8
0
100
AcDbBlockEnd
  0
BLOCK
  5
226
330
225
100
AcDbEntity
  8
0
100
AcDbBlockBegin
  2
block 35
 70
     0
 10
0.0
 20
0.0
 30
0.0
  3
block 35
  1

  0
POLYLINE
  5
227
330
225
100
AcDbEntity
  8
Livello 1
 62
   178
420
        1
370
    25
100
AcDb2dPolyline
 66
     1
 10
0.0
 20
0.0
 30
0.0
  0
VERTEX
  5
228
330
227
100
AcDbEntity
  8
Livello 1
 62
   178
420
        1
370
    25
100
AcDbVertex
100
AcDb2dVertex
 10
327.2128256263534
 20
-194.7434231993982
 30
0.0
  0
VERTEX
  5
229
330
227
100
AcDbEntity
  8
Livello 1
 62
   178
420
        1
370
    25
100
AcDbVertex
100
AcDb2dVertex
 10
325.3039098417206
 20
-194.7434231993982
 30
0.0
  0
SEQEND
  5
22A
330
227
100
AcDbEntity
  8
Livello 1
 62
   178
420
        1
370
    25
  0
ENDBLK
  5
22B
330
225
100
AcDbEntity
  8
0
100
AcDbBlockEnd
  0
BLOCK
  5
22D
330
22C
100
AcDbEntity
  8
0
100
AcDbBlockBegin
  2
block 36
 70
     0
 10
0.0
 20
0.0
 30
0.0
  3
block 36
  1

  0
POLYLINE
  5
22E
330
22C
100
AcDbEntity
  8
Livello 1
 62
   178
420
        1
370
    25
100
AcDb2dPolyline
 66
     1
 10
0.0
 20
0.0
 30
0.0
  0
VERTEX
  5
22F
330
22E
100
AcDbEntity
  8
Livello 1
 62
   178
420
        1
370
    25
100
AcDbVertex
100
AcDb2dVertex
 10
298.1454191457018
 20
-167.5929360414954
 30
0.0
  0
VERTEX
  5
230
330
22E
100
AcDbEntity
  8
Livello 1
 62
   178
420
        1
370
    25
100
AcDbVertex
100
AcDb2dVertex
 10
295.1438447778339
 20
-167.5929360414954
 30
0.0
  0
SEQEND
  5
231
330
22E
100
AcDbEntity
  8
Livello 1
 62
   178
420
        1
370
    25
  0
ENDBLK
  5
232
330
22C
100
AcDbEntity
  8
0
100
AcDbBlockEnd
  0
BLOCK
  5
234
330
233
100
AcDbEntity
  8
0
100
AcDbBlockBegin
  2
block 37
 70
     0
 10
0.0
 20
0.0
 30
0.0
  3
block 37
  1

  0
SPLINE
  5
235
330
233
100
AcDbEntity
  8
Livello 1
 62
   178
420
        1
370
    25
100
AcDbSpline
210
0.0
220
0.0
230
1.0
 70
     8
 71
     3
 72
    14
 73
    10
 74
     0
 42
0.000000001
 43
0.0000000001
 40
0.0
 40
0.0
 40
0.0
 40
0.0
 40
1.0
 40
1.0
 40
1.0
 40
2.0
 40
2.0
 40
2.0
 40
3.0
 40
3.0
 40
3.0
 40
3.0
 10
298.1454191457018
 20
-164.3013267341785
 30
0.0
 10
298.1454191457018
 20
-164.3013267341785
 30
0.0
 10
305.6623020094858
 20
-164.3013267341785
 30
0.0
 10
305.6623020094858
 20
-164.3013267341785
 30
0.0
 10
318.0824078037339
 20
-165.7919279093156
 30
0.0
 10
327.7168039468291
 20
-175.8322921261518
 30
0.0
 10
328.6712442002571
 20
-188.2799033092686
 30
0.0
 10
328.6712442002571
 20
-188.2799033092686
 30
0.0
 10
328.6712442002571
 20
-199.3380587394536
 30
0.0
 10
328.6712442002571
 20
-199.3380587394536
 30
0.0
  0
ENDBLK
  5
236
330
233
100
AcDbEntity
  8
0
100
AcDbBlockEnd
  0
BLOCK
  5
238
330
237
100
AcDbEntity
  8
0
100
AcDbBlockBegin
  2
block 38
 70
     0
 10
0.0
 20
0.0
 30
0.0
  3
block 38
  1

  0
SPLINE
  5
239
330
237
100
AcDbEntity
  8
Livello 1
 62
   178
420
        1
370
    25
100
AcDbSpline
210
0.0
220
0.0
230
1.0
 70
     8
 71
     3
 72
    14
 73
    10
 74
     0
 42
0.000000001
 43
0.0000000001
 40
0.0
 40
0.0
 40
0.0
 40
0.0
 40
1.0
 40
1.0
 40
1.0
 40
2.0
 40
2.0
 40
2.0
 40
3.0
 40
3.0
 40
3.0
 40
3.0
 10
298.1454191457018
 20
-165.7567576076151
 30
0.0
 10
298.1454191457018
 20
-165.7567576076151
 30
0.0
 10
305.5736489561919
 20
-165.7567576076151
 30
0.0
 10
305.5736489561919
 20
-165.7567576076151
 30
0.0
 10
317.2452308806476
 20
-167.1986695662858
 30
0.0
 10
326.2894650943547
 20
-176.6359634446687
 30
0.0
 10
327.2128256263534
 20
-188.3363025318142
 30
0.0
 10
327.2128256263534
 20
-188.3363025318142
 30
0.0
 10
327.2128256263534
 20
-194.7434231993982
 30
0.0
 10
327.2128256263534
 20
-194.7434231993982
 30
0.0
  0
ENDBLK
  5
23A
330
237
100
AcDbEntity
  8
0
100
AcDbBlockEnd
  0
BLOCK
  5
23C
330
23B
100
AcDbEntity
  8
0
100
AcDbBlockBegin
  2
block 39
 70
     0
 10
0.0
 20
0.0
 30
0.0
  3
block 39
  1

  0
POLYLINE
  5
23D
330
23B
100
AcDbEntity
  8
Livello 1
 62
   178
420
        1
370
    25
100
AcDb2dPolyline
 66
     1
 10
0.0
 20
0.0
 30
0.0
  0
VERTEX
  5
23E
330
23D
100
AcDbEntity
  8
Livello 1
 62
   178
420
        1
370
    25
100
AcDbVertex
100
AcDb2dVertex
 10
303.916722331797
 20
-198.0603100608893
 30
0.0
  0
VERTEX
  5
23F
330
23D
100
AcDbEntity
  8
Livello 1
 62
   178
420
        1
370
    25
100
AcDbVertex
100
AcDb2dVertex
 10
302.0946957116141
 20
-198.0603100608893
 30
0.0
  0
VERTEX
  5
240
330
23D
100
AcDbEntity
  8
Livello 1
 62
   178
420
        1
370
    25
100
AcDbVertex
100
AcDb2dVertex
 10
302.0946957116141
 20
-196.1128118132222
 30
0.0
  0
VERTEX
  5
241
330
23D
100
AcDbEntity
  8
Livello 1
 62
   178
420
        1
370
    25
100
AcDbVertex
100
AcDb2dVertex
 10
321.4338671626758
 20
-196.1128118132222
 30
0.0
  0
VERTEX
  5
242
330
23D
100
AcDbEntity
  8
Livello 1
 62
   178
420
        1
370
    25
100
AcDbVertex
100
AcDb2dVertex
 10
321.4338671626758
 20
-198.0603100608893
 30
0.0
  0
VERTEX
  5
243
330
23D
100
AcDbEntity
  8
Livello 1
 62
   178
420
        1
370
    25
100
AcDbVertex
100
AcDb2dVertex
 10
319.6118052647157
 20
-198.0603100608893
 30
0.0
  0
SEQEND
  5
244
330
23D
100
AcDbEntity
  8
Livello 1
 62
   178
420
        1
370
    25
  0
ENDBLK
  5
245
330
23B
100
AcDbEntity
  8
0
100
AcDbBlockEnd
  0
BLOCK
  5
247
330
246
100
AcDbEntity
  8
0
100
AcDbBlockBegin
  2
block 40
 70
     0
 10
0.0
 20
0.0
 30
0.0
  3
block 40
  1

  0
POLYLINE
  5
248
330
246
100
AcDbEntity
  8
Livello 1
 62
   178
420
        1
370
    25
100
AcDb2dPolyline
 66
     1
 10
0.0
 20
0.0
 30
0.0
  0
VERTEX
  5
249
330
248
100
AcDbEntity
  8
Livello 1
 62
   178
420
        1
370
    25
100
AcDbVertex
100
AcDb2dVertex
 10
295.1438447778339
 20
-167.5929360414954
 30
0.0
  0
VERTEX
  5
24A
330
248
100
AcDbEntity
  8
Livello 1
 62
   178
420
        1
370
    25
100
AcDbVertex
100
AcDb2dVertex
 10
295.1438447778339
 20
-175.831693632529
 30
0.0
  0
SEQEND
  5
24B
330
248
100
AcDbEntity
  8
Livello 1
 62
   178
420
        1
370
    25
  0
ENDBLK
  5
24C
330
246
100
AcDbEntity
  8
0
100
AcDbBlockEnd
  0
BLOCK
  5
24E
330
24D
100
AcDbEntity
  8
0
100
AcDbBlockBegin
  2
block 41
 70
     0
 10
0.0
 20
0.0
 30
0.0
  3
block 41
  1

  0
POLYLINE
  5
24F
330
24D
100
AcDbEntity
  8
Livello 1
 62
   178
420
        1
370
    25
100
AcDb2dPolyline
 66
     1
 10
0.0
 20
0.0
 30
0.0
  0
VERTEX
  5
250
330
24F
100
AcDbEntity
  8
Livello 1
 62
   178
420
        1
370
    25
100
AcDbVertex
100
AcDb2dVertex
 10
295.1438447778339
 20
-178.1497650490551
 30
0.0
  0
VERTEX
  5
251
330
24F
100
AcDbEntity
  8
Livello 1
 62
   178
420
        1
370
    25
100
AcDbVertex
100
AcDb2dVertex
 10
295.1438447778339
 20
-198.0603100608893
 30
0.0
  0
SEQEND
  5
252
330
24F
100
AcDbEntity
  8
Livello 1
 62
   178
420
        1
370
    25
  0
ENDBLK
  5
253
330
24D
100
AcDbEntity
  8
0
100
AcDbBlockEnd
  0
BLOCK
  5
255
330
254
100
AcDbEntity
  8
0
100
AcDbBlockBegin
  2
block 42
 70
     0
 10
0.0
 20
0.0
 30
0.0
  3
block 42
  1

  0
POLYLINE
  5
256
330
254
100
AcDbEntity
  8
Livello 1
 62
   178
420
        1
370
    25
100
AcDb2dPolyline
 66
     1
 10
0.0
 20
0.0
 30
0.0
  0
VERTEX
  5
257
330
256
100
AcDbEntity
  8
Livello 1
 62
   178
420
        1
370
    25
100
AcDbVertex
100
AcDb2dVertex
 10
295.1438447778339
 20
-167.5929360414954
 30
0.0
  0
VERTEX
  5
258
330
256
100
AcDbEntity
  8
Livello 1
 62
   178
420
        1
370
    25
100
AcDbVertex
100
AcDb2dVertex
 10
298.1454191457018
 20
-167.5929360414954
 30
0.0
  0
SEQEND
  5
259
330
256
100
AcDbEntity
  8
Livello 1
 62
   178
420
        1
370
    25
  0
ENDBLK
  5
25A
330
254
100
AcDbEntity
  8
0
100
AcDbBlockEnd
  0
BLOCK
  5
25C
330
25B
100
AcDbEntity
  8
0
100
AcDbBlockBegin
  2
block 43
 70
     0
 10
0.0
 20
0.0
 30
0.0
  3
block 43
  1

  0
POLYLINE
  5
25D
330
25B
100
AcDbEntity
  8
Livello 1
 62
   178
420
        1
370
    25
100
AcDb2dPolyline
 66
     1
 10
0.0
 20
0.0
 30
0.0
  0
VERTEX
  5
25E
330
25D
100
AcDbEntity
  8
Livello 1
 62
   178
420
        1
370
    25
100
AcDbVertex
100
AcDb2dVertex
 10
303.916722331797
 20
-198.0603100608893
 30
0.0
  0
VERTEX
  5
25F
330
25D
100
AcDbEntity
  8
Livello 1
 62
   178
420
        1
370
    25
100
AcDbVertex
100
AcDb2dVertex
 10
303.916722331797
 20
-199.3380587394536
 30
0.0
  0
SEQEND
  5
260
330
25D
100
AcDbEntity
  8
Livello 1
 62
   178
420
        1
370
    25
  0
ENDBLK
  5
261
330
25B
100
AcDbEntity
  8
0
100
AcDbBlockEnd
  0
BLOCK
  5
263
330
262
100
AcDbEntity
  8
0
100
AcDbBlockBegin
  2
block 44
 70
     0
 10
0.0
 20
0.0
 30
0.0
  3
block 44
  1

  0
POLYLINE
  5
264
330
262
100
AcDbEntity
  8
Livello 1
 62
   178
420
        1
370
    25
100
AcDb2dPolyline
 66
     1
 10
0.0
 20
0.0
 30
0.0
  0
VERTEX
  5
265
330
264
100
AcDbEntity
  8
Livello 1
 62
   178
420
        1
370
    25
100
AcDbVertex
100
AcDb2dVertex
 10
295.1438447778339
 20
-178.1497650490551
 30
0.0
  0
VERTEX
  5
266
330
264
100
AcDbEntity
  8
Livello 1
 62
   178
420
        1
370
    25
100
AcDbVertex
100
AcDb2dVertex
 10
307.520594184299
 20
-194.7434231993982
 30
0.0
  0
SEQEND
  5
267
330
264
100
AcDbEntity
  8
Livello 1
 62
   178
420
        1
370
    25
  0
ENDBLK
  5
268
330
262
100
AcDbEntity
  8
0
100
AcDbBlockEnd
  0
BLOCK
  5
26A
330
269
100
AcDbEntity
  8
0
100
AcDbBlockBegin
  2
block 45
 70
     0
 10
0.0
 20
0.0
 30
0.0
  3
block 45
  1

  0
POLYLINE
  5
26B
330
269
100
AcDbEntity
  8
Livello 1
 62
   178
420
        1
370
    25
100
AcDb2dPolyline
 66
     1
 10
0.0
 20
0.0
 30
0.0
  0
VERTEX
  5
26C
330
26B
100
AcDbEntity
  8
Livello 1
 62
   178
420
        1
370
    25
100
AcDbVertex
100
AcDb2dVertex
 10
295.1438447778339
 20
-175.831693632529
 30
0.0
  0
VERTEX
  5
26D
330
26B
100
AcDbEntity
  8
Livello 1
 62
   178
420
        1
370
    25
100
AcDbVertex
100
AcDb2dVertex
 10
309.2495933068552
 20
-194.7434231993982
 30
0.0
  0
SEQEND
  5
26E
330
26B
100
AcDbEntity
  8
Livello 1
 62
   178
420
        1
370
    25
  0
ENDBLK
  5
26F
330
269
100
AcDbEntity
  8
0
100
AcDbBlockEnd
  0
BLOCK
  5
271
330
270
100
AcDbEntity
  8
0
100
AcDbBlockBegin
  2
block 46
 70
     0
 10
0.0
 20
0.0
 30
0.0
  3
block 46
  1

  0
POLYLINE
  5
272
330
270
100
AcDbEntity
  8
Livello 1
 62
   178
420
        1
370
    25
100
AcDb2dPolyline
 66
     1
 10
0.0
 20
0.0
 30
0.0
  0
VERTEX
  5
273
330
272
100
AcDbEntity
  8
Livello 1
 62
   178
420
        1
370
    25
100
AcDbVertex
100
AcDb2dVertex
 10
300.4103582545851
 20
-198.0603100608893
 30
0.0
  0
VERTEX
  5
274
330
272
100
AcDbEntity
  8
Livello 1
 62
   178
420
        1
370
    25
100
AcDbVertex
100
AcDb2dVertex
 10
295.1438447778339
 20
-198.0603100608893
 30
0.0
  0
SEQEND
  5
275
330
272
100
AcDbEntity
  8
Livello 1
 62
   178
420
        1
370
    25
  0
ENDBLK
  5
276
330
270
100
AcDbEntity
  8
0
100
AcDbBlockEnd
  0
BLOCK
  5
278
330
277
100
AcDbEntity
  8
0
100
AcDbBlockBegin
  2
block 47
 70
     0
 10
0.0
 20
0.0
 30
0.0
  3
block 47
  1

  0
POLYLINE
  5
279
330
277
100
AcDbEntity
  8
Livello 1
 62
   178
420
        1
370
    25
100
AcDb2dPolyline
 66
     1
 10
0.0
 20
0.0
 30
0.0
  0
VERTEX
  5
27A
330
279
100
AcDbEntity
  8
Livello 1
 62
   178
420
        1
370
    25
100
AcDbVertex
100
AcDb2dVertex
 10
323.1182046197048
 20
-198.0603100608893
 30
0.0
  0
VERTEX
  5
27B
330
279
100
AcDbEntity
  8
Livello 1
 62
   178
420
        1
370
    25
100
AcDbVertex
100
AcDb2dVertex
 10
325.3039098417206
 20
-198.0603100608893
 30
0.0
  0
SEQEND
  5
27C
330
279
100
AcDbEntity
  8
Livello 1
 62
   178
420
        1
370
    25
  0
ENDBLK
  5
27D
330
277
100
AcDbEntity
  8
0
100
AcDbBlockEnd
  0
BLOCK
  5
27F
330
27E
100
AcDbEntity
  8
0
100
AcDbBlockBegin
  2
block 48
 70
     0
 10
0.0
 20
0.0
 30
0.0
  3
block 48
  1

  0
POLYLINE
  5
280
330
27E
100
AcDbEntity
  8
Livello 1
 62
   178
420
        1
370
    25
100
AcDb2dPolyline
 66
     1
 10
0.0
 20
0.0
 30
0.0
  0
VERTEX
  5
281
330
280
100
AcDbEntity
  8
Livello 1
 62
   178
420
        1
370
    25
100
AcDbVertex
100
AcDb2dVertex
 10
325.3039098417206
 20
-198.0603100608893
 30
0.0
  0
VERTEX
  5
282
330
280
100
AcDbEntity
  8
Livello 1
 62
   178
420
        1
370
    25
100
AcDbVertex
100
AcDb2dVertex
 10
325.3039098417206
 20
-194.7434231993982
 30
0.0
  0
SEQEND
  5
283
330
280
100
AcDbEntity
  8
Livello 1
 62
   178
420
        1
370
    25
  0
ENDBLK
  5
284
330
27E
100
AcDbEntity
  8
0
100
AcDbBlockEnd
  0
BLOCK
  5
286
330
285
100
AcDbEntity
  8
0
100
AcDbBlockBegin
  2
block 49
 70
     0
 10
0.0
 20
0.0
 30
0.0
  3
block 49
  1

  0
SPLINE
  5
287
330
285
100
AcDbEntity
  8
Livello 1
 62
   178
420
        1
370
    25
100
AcDbSpline
210
0.0
220
0.0
230
1.0
 70
     8
 71
     3
 72
    14
 73
    10
 74
     0
 42
0.000000001
 43
0.0000000001
 40
0.0
 40
0.0
 40
0.0
 40
0.0
 40
1.0
 40
1.0
 40
1.0
 40
2.0
 40
2.0
 40
2.0
 40
3.0
 40
3.0
 40
3.0
 40
3.0
 10
309.2495933068552
 20
-194.7434231993982
 30
0.0
 10
309.2495933068552
 20
-194.7434231993982
 30
0.0
 10
321.9943252039329
 20
-194.7434231993982
 30
0.0
 10
321.9943252039329
 20
-194.7434231993982
 30
0.0
 10
322.6825240752643
 20
-194.830662446257
 30
0.0
 10
323.1787060070502
 20
-195.4448225194797
 30
0.0
 10
323.1182046197048
 20
-196.1344984056616
 30
0.0
 10
323.1182046197048
 20
-196.1344984056616
 30
0.0
 10
323.1182046197048
 20
-198.0603100608893
 30
0.0
 10
323.1182046197048
 20
-198.0603100608893
 30
0.0
  0
ENDBLK
  5
288
330
285
100
AcDbEntity
  8
0
100
AcDbBlockEnd
  0
BLOCK
  5
28A
330
289
100
AcDbEntity
  8
0
100
AcDbBlockBegin
  2
block 50
 70
     0
 10
0.0
 20
0.0
 30
0.0
  3
block 50
  1

  0
SPLINE
  5
28B
330
289
100
AcDbEntity
  8
Livello 1
 62
   178
420
        1
370
    25
100
AcDbSpline
210
0.0
220
0.0
230
1.0
 70
     8
 71
     3
 72
    14
 73
    10
 74
     0
 42
0.000000001
 43
0.0000000001
 40
0.0
 40
0.0
 40
0.0
 40
0.0
 40
1.0
 40
1.0
 40
1.0
 40
2.0
 40
2.0
 40
2.0
 40
3.0
 40
3.0
 40
3.0
 40
3.0
 10
307.520594184299
 20
-194.7434231993982
 30
0.0
 10
307.520594184299
 20
-194.7434231993982
 30
0.0
 10
301.5342023925801
 20
-194.7434231993982
 30
0.0
 10
301.5342023925801
 20
-194.7434231993982
 30
0.0
 10
300.8460035212487
 20
-194.830662446257
 30
0.0
 10
300.3498215894629
 20
-195.4448225194797
 30
0.0
 10
300.4103582545851
 20
-196.1344984056616
 30
0.0
 10
300.4103582545851
 20
-196.1344984056616
 30
0.0
 10
300.4103582545851
 20
-198.0603100608893
 30
0.0
 10
300.4103582545851
 20
-198.0603100608893
 30
0.0
  0
ENDBLK
  5
28C
330
289
100
AcDbEntity
  8
0
100
AcDbBlockEnd
  0
BLOCK
  5
28E
330
28D
100
AcDbEntity
  8
0
100
AcDbBlockBegin
  2
block 51
 70
     0
 10
0.0
 20
0.0
 30
0.0
  3
block 51
  1

  0
POLYLINE
  5
28F
330
28D
100
AcDbEntity
  8
Livello 1
 62
   178
420
        1
370
    25
100
AcDb2dPolyline
 66
     1
 10
0.0
 20
0.0
 30
0.0
  0
VERTEX
  5
290
330
28F
100
AcDbEntity
  8
Livello 1
 62
   178
420
        1
370
    25
100
AcDbVertex
100
AcDb2dVertex
 10
319.6118052647157
 20
-198.0603100608893
 30
0.0
  0
VERTEX
  5
291
330
28F
100
AcDbEntity
  8
Livello 1
 62
   178
420
        1
370
    25
100
AcDbVertex
100
AcDb2dVertex
 10
319.6118052647157
 20
-199.3380587394536
 30
0.0
  0
SEQEND
  5
292
330
28F
100
AcDbEntity
  8
Livello 1
 62
   178
420
        1
370
    25
  0
ENDBLK
  5
293
330
28D
100
AcDbEntity
  8
0
100
AcDbBlockEnd
  0
BLOCK
  5
295
330
294
100
AcDbEntity
  8
0
100
AcDbBlockBegin
  2
block 52
 70
     0
 10
0.0
 20
0.0
 30
0.0
  3
block 52
  1

  0
POLYLINE
  5
296
330
294
100
AcDbEntity
  8
Livello 1
 62
   178
420
        1
370
    25
100
AcDb2dPolyline
 66
     1
 10
0.0
 20
0.0
 30
0.0
  0
VERTEX
  5
297
330
296
100
AcDbEntity
  8
Livello 1
 62
   178
420
        1
370
    25
100
AcDbVertex
100
AcDb2dVertex
 10
319.6118052647157
 20
-199.3380587394536
 30
0.0
  0
VERTEX
  5
298
330
296
100
AcDbEntity
  8
Livello 1
 62
   178
420
        1
370
    25
100
AcDbVertex
100
AcDb2dVertex
 10
328.6712442002571
 20
-199.3380587394536
 30
0.0
  0
SEQEND
  5
299
330
296
100
AcDbEntity
  8
Livello 1
 62
   178
420
        1
370
    25
  0
ENDBLK
  5
29A
330
294
100
AcDbEntity
  8
0
100
AcDbBlockEnd
  0
BLOCK
  5
29C
330
29B
100
AcDbEntity
  8
0
100
AcDbBlockBegin
  2
block 53
 70
     0
 10
0.0
 20
0.0
 30
0.0
  3
block 53
  1

  0
SPLINE
  5
29D
330
29B
100
AcDbEntity
  8
Livello 1
 62
   178
420
        1
370
    25
100
AcDbSpline
210
0.0
220
0.0
230
1.0
 70
     8
 71
     3
 72
    17
 73
    13
 74
     0
 42
0.000000001
 43
0.0000000001
 40
0.0
 40
0.0
 40
0.0
 40
0.0
 40
1.0
 40
1.0
 40
1.0
 40
2.0
 40
2.0
 40
2.0
 40
3.0
 40
3.0
 40
3.0
 40
4.0
 40
4.0
 40
4.0
 40
4.0
 10
296.3889386349578
 20
-166.3080758504747
 30
0.0
 10
296.3417043078116
 20
-166.315328184959
 30
0.0
 10
296.2936180818341
 20
-166.315328184959
 30
0.0
 10
296.2463458608179
 20
-166.3080758504747
 30
0.0
 10
295.9907583673384
 20
-166.2687865044321
 30
0.0
 10
295.8154983718097
 20
-166.0301635765842
 30
0.0
 10
295.8548709745999
 20
-165.7750996768707
 30
0.0
 10
295.8942383698008
 20
-165.5200357771571
 30
0.0
 10
296.1333511414784
 20
-165.3450996118459
 30
0.0
 10
296.3889386349578
 20
-165.384388957889
 30
0.0
 10
296.3889386349578
 20
-165.384388957889
 30
0.0
 10
296.3889386349578
 20
-165.384388957889
 30
0.0
 10
296.3889386349578
 20
-165.384388957889
 30
0.0
  0
ENDBLK
  5
29E
330
29B
100
AcDbEntity
  8
0
100
AcDbBlockEnd
  0
BLOCK
  5
2A0
330
29F
100
AcDbEntity
  8
0
100
AcDbBlockBegin
  2
block 54
 70
     0
 10
0.0
 20
0.0
 30
0.0
  3
block 54
  1

  0
SPLINE
  5
2A1
330
29F
100
AcDbEntity
  8
Livello 1
 62
   178
420
        1
370
    25
100
AcDbSpline
210
0.0
220
0.0
230
1.0
 70
     8
 71
     3
 72
    14
 73
    10
 74
     0
 42
0.000000001
 43
0.0000000001
 40
0.0
 40
0.0
 40
0.0
 40
0.0
 40
1.0
 40
1.0
 40
1.0
 40
2.0
 40
2.0
 40
2.0
 40
3.0
 40
3.0
 40
3.0
 40
3.0
 10
297.0266902853541
 20
-165.384388957889
 30
0.0
 10
297.3263749999307
 20
-165.4166724079979
 30
0.0
 10
297.5955444375081
 20
-165.2004049772257
 30
0.0
 10
297.6279320852677
 20
-164.9013341935044
 30
0.0
 10
297.6602791580788
 20
-164.6022634097831
 30
0.0
 10
297.4435677747187
 20
-164.3336101842874
 30
0.0
 10
297.1438830601421
 20
-164.3013267341785
 30
0.0
 10
297.1049011166921
 20
-164.2971372788203
 30
0.0
 10
297.0656369510272
 20
-164.2971372788203
 30
0.0
 10
297.0266902853541
 20
-164.3013267341785
 30
0.0
  0
ENDBLK
  5
2A2
330
29F
100
AcDbEntity
  8
0
100
AcDbBlockEnd
  0
BLOCK
  5
2A4
330
2A3
100
AcDbEntity
  8
0
100
AcDbBlockBegin
  2
block 55
 70
     0
 10
0.0
 20
0.0
 30
0.0
  3
block 55
  1

  0
POLYLINE
  5
2A5
330
2A3
100
AcDbEntity
  8
Livello 1
 62
   178
420
        1
370
    25
100
AcDb2dPolyline
 66
     1
 10
0.0
 20
0.0
 30
0.0
  0
VERTEX
  5
2A6
330
2A5
100
AcDbEntity
  8
Livello 1
 62
   178
420
        1
370
    25
100
AcDbVertex
100
AcDb2dVertex
 10
297.0266902853541
 20
-165.384388957889
 30
0.0
  0
VERTEX
  5
2A7
330
2A5
100
AcDbEntity
  8
Livello 1
 62
   178
420
        1
370
    25
100
AcDbVertex
100
AcDb2dVertex
 10
296.3889386349578
 20
-165.384388957889
 30
0.0
  0
SEQEND
  5
2A8
330
2A5
100
AcDbEntity
  8
Livello 1
 62
   178
420
        1
370
    25
  0
ENDBLK
  5
2A9
330
2A3
100
AcDbEntity
  8
0
100
AcDbBlockEnd
  0
BLOCK
  5
2AB
330
2AA
100
AcDbEntity
  8
0
100
AcDbBlockBegin
  2
block 56
 70
     0
 10
0.0
 20
0.0
 30
0.0
  3
block 56
  1

  0
POLYLINE
  5
2AC
330
2AA
100
AcDbEntity
  8
Livello 1
 62
   178
420
        1
370
    25
100
AcDb2dPolyline
 66
     1
 10
0.0
 20
0.0
 30
0.0
  0
VERTEX
  5
2AD
330
2AC
100
AcDbEntity
  8
Livello 1
 62
   178
420
        1
370
    25
100
AcDbVertex
100
AcDb2dVertex
 10
296.3889386349578
 20
-166.3080758504747
 30
0.0
  0
VERTEX
  5
2AE
330
2AC
100
AcDbEntity
  8
Livello 1
 62
   178
420
        1
370
    25
100
AcDbVertex
100
AcDb2dVertex
 10
298.1454191457018
 20
-166.3080758504747
 30
0.0
  0
SEQEND
  5
2AF
330
2AC
100
AcDbEntity
  8
Livello 1
 62
   178
420
        1
370
    25
  0
ENDBLK
  5
2B0
330
2AA
100
AcDbEntity
  8
0
100
AcDbBlockEnd
  0
BLOCK
  5
2B2
330
2B1
100
AcDbEntity
  8
0
100
AcDbBlockBegin
  2
block 57
 70
     0
 10
0.0
 20
0.0
 30
0.0
  3
block 57
  1

  0
POLYLINE
  5
2B3
330
2B1
100
AcDbEntity
  8
Livello 1
 62
   178
420
        1
370
    25
100
AcDb2dPolyline
 66
     1
 10
0.0
 20
0.0
 30
0.0
  0
VERTEX
  5
2B4
330
2B3
100
AcDbEntity
  8
Livello 1
 62
   178
420
        1
370
    25
100
AcDbVertex
100
AcDb2dVertex
 10
298.1454191457018
 20
-167.5929360414954
 30
0.0
  0
VERTEX
  5
2B5
330
2B3
100
AcDbEntity
  8
Livello 1
 62
   178
420
        1
370
    25
100
AcDbVertex
100
AcDb2dVertex
 10
298.1454191457018
 20
-165.7567576076151
 30
0.0
  0
SEQEND
  5
2B6
330
2B3
100
AcDbEntity
  8
Livello 1
 62
   178
420
        1
370
    25
  0
ENDBLK
  5
2B7
330
2B1
100
AcDbEntity
  8
0
100
AcDbBlockEnd
  0
BLOCK
  5
2B9
330
2B8
100
AcDbEntity
  8
0
100
AcDbBlockBegin
  2
block 95
 70
     0
 10
0.0
 20
0.0
 30
0.0
  3
block 95
  1

  0
SPLINE
  5
2BA
330
2B8
100
AcDbEntity
  8
Livello 1
370
     0
100
AcDbSpline
210
0.0
220
0.0
230
1.0
 70
    11
 71
     3
 72
    47
 73
    43
 74
     0
 42
0.000000001
 43
0.0000000001
 40
0.0
 40
0.0
 40
0.0
 40
0.0
 40
1.0
 40
1.0
 40
1.0
 40
2.0
 40
2.0
 40
2.0
 40
3.0
 40
3.0
 40
3.0
 40
4.0
 40
4.0
 40
4.0
 40
5.0
 40
5.0
 40
5.0
 40
6.0
 40
6.0
 40
6.0
 40
7.0
 40
7.0
 40
7.0
 40
8.0
 40
8.0
 40
8.0
 40
9.0
 40
9.0
 40
9.0
 40
10.0
 40
10.0
 40
10.0
 40
11.0
 40
11.0
 40
11.0
 40
12.0
 40
12.0
 40
12.0
 40
13.0
 40
13.0
 40
13.0
 40
14.0
 40
14.0
 40
14.0
 40
14.0
 10
322.9535860737755
 20
-162.0462673205996
 30
0.0
 10
322.9535860737755
 20
-162.0462673205996
 30
0.0
 10
323.1961207959372
 20
-161.803732598438
 30
0.0
 10
323.1961207959372
 20
-161.803732598438
 30
0.0
 10
323.1961207959372
 20
-161.803732598438
 30
0.0
 10
323.8069362254719
 20
-161.8126898466996
 30
0.0
 10
323.8069362254719
 20
-161.8126898466996
 30
0.0
 10
325.2618000488928
 20
-161.8485188397462
 30
0.0
 10
325.9763128525337
 20
-161.8085557321173
 30
0.0
 10
326.4210746796795
 20
-161.3730956627817
 30
0.0
 10
326.7176974009595
 20
-161.0768174510503
 30
0.0
 10
326.8479220103018
 20
-160.659271878238
 30
0.0
 10
326.4124619409664
 20
-160.2231227898053
 30
0.0
 10
326.1475340981506
 20
-159.9585394565381
 30
0.0
 10
325.7923447536214
 20
-159.8731010885039
 30
0.0
 10
325.5456759168775
 20
-159.8503634583013
 30
0.0
 10
325.5456759168775
 20
-159.8503634583013
 30
0.0
 10
325.6986381564226
 20
-159.445909248333
 30
0.0
 10
325.6986381564226
 20
-159.445909248333
 30
0.0
 10
326.0710529783781
 20
-159.4776041267973
 30
0.0
 10
326.4841199270596
 20
-159.639523614604
 30
0.0
 10
326.821050265517
 20
-159.9764539530615
 30
0.0
 10
327.4494356820265
 20
-160.6055283886681
 30
0.0
 10
327.2833820796375
 20
-161.3014376766886
 30
0.0
 10
326.8654919972767
 20
-161.7189832495008
 30
0.0
 10
326.3263345538351
 20
-162.2577961833939
 30
0.0
 10
325.4998561469236
 20
-162.3025824247021
 30
0.0
 10
324.2916611602465
 20
-162.2798447944995
 30
0.0
 10
324.2916611602465
 20
-162.2798447944995
 30
0.0
 10
323.8427652185185
 20
-162.2619302979762
 30
0.0
 10
323.8427652185185
 20
-162.2619302979762
 30
0.0
 10
323.8427652185185
 20
-162.2619302979762
 30
0.0
 10
323.8338079702568
 20
-162.2708875462378
 30
0.0
 10
323.8338079702568
 20
-162.2708875462378
 30
0.0
 10
323.8338079702568
 20
-162.2708875462378
 30
0.0
 10
325.1446668023944
 20
-163.582779907021
 30
0.0
 10
325.1446668023944
 20
-163.582779907021
 30
0.0
 10
325.1446668023944
 20
-163.582779907021
 30
0.0
 10
324.8166937121987
 20
-163.9100639781196
 30
0.0
 10
324.8166937121987
 20
-163.9100639781196
 30
0.0
 10
324.8166937121987
 20
-163.9100639781196
 30
0.0
 10
322.9535860737755
 20
-162.0462673205996
 30
0.0
 10
322.9535860737755
 20
-162.0462673205996
 30
0.0
  0
HATCH
  5
2BB
330
2B8
100
AcDbEntity
  8
Livello 1
 62
   250
420
  1842203
100
AcDbHatch
 10
0.0
 20
0.0
 30
0.0
210
0.0
220
0.0
230
1.0
  2
SOLID
 70
     1
 71
     0
 91
        1
 92
        1
 93
        1
 72
     4
 94
        3
 73
     0
 74
     0
 95
       47
 96
       43
 40
0.0
 40
0.0
 40
0.0
 40
0.0
 40
1.0
 40
1.0
 40
1.0
 40
2.0
 40
2.0
 40
2.0
 40
3.0
 40
3.0
 40
3.0
 40
4.0
 40
4.0
 40
4.0
 40
5.0
 40
5.0
 40
5.0
 40
6.0
 40
6.0
 40
6.0
 40
7.0
 40
7.0
 40
7.0
 40
8.0
 40
8.0
 40
8.0
 40
9.0
 40
9.0
 40
9.0
 40
10.0
 40
10.0
 40
10.0
 40
11.0
 40
11.0
 40
11.0
 40
12.0
 40
12.0
 40
12.0
 40
13.0
 40
13.0
 40
13.0
 40
14.0
 40
14.0
 40
14.0
 40
14.0
 10
322.9535860737755
 20
-162.0462673205996
 10
322.9535860737755
 20
-162.0462673205996
 10
323.1961207959372
 20
-161.803732598438
 10
323.1961207959372
 20
-161.803732598438
 10
323.1961207959372
 20
-161.803732598438
 10
323.8069362254719
 20
-161.8126898466996
 10
323.8069362254719
 20
-161.8126898466996
 10
325.2618000488928
 20
-161.8485188397462
 10
325.9763128525337
 20
-161.8085557321173
 10
326.4210746796795
 20
-161.3730956627817
 10
326.7176974009595
 20
-161.0768174510503
 10
326.8479220103018
 20
-160.659271878238
 10
326.4124619409664
 20
-160.2231227898053
 10
326.1475340981506
 20
-159.9585394565381
 10
325.7923447536214
 20
-159.8731010885039
 10
325.5456759168775
 20
-159.8503634583013
 10
325.5456759168775
 20
-159.8503634583013
 10
325.6986381564226
 20
-159.445909248333
 10
325.6986381564226
 20
-159.445909248333
 10
326.0710529783781
 20
-159.4776041267973
 10
326.4841199270596
 20
-159.639523614604
 10
326.821050265517
 20
-159.9764539530615
 10
327.4494356820265
 20
-160.6055283886681
 10
327.2833820796375
 20
-161.3014376766886
 10
326.8654919972767
 20
-161.7189832495008
 10
326.3263345538351
 20
-162.2577961833939
 10
325.4998561469236
 20
-162.3025824247021
 10
324.2916611602465
 20
-162.2798447944995
 10
324.2916611602465
 20
-162.2798447944995
 10
323.8427652185185
 20
-162.2619302979762
 10
323.8427652185185
 20
-162.2619302979762
 10
323.8427652185185
 20
-162.2619302979762
 10
323.8338079702568
 20
-162.2708875462378
 10
323.8338079702568
 20
-162.2708875462378
 10
323.8338079702568
 20
-162.2708875462378
 10
325.1446668023944
 20
-163.582779907021
 10
325.1446668023944
 20
-163.582779907021
 10
325.1446668023944
 20
-163.582779907021
 10
324.8166937121987
 20
-163.9100639781196
 10
324.8166937121987
 20
-163.9100639781196
 10
324.8166937121987
 20
-163.9100639781196
 10
322.9535860737755
 20
-162.0462673205996
 10
322.9535860737755
 20
-162.0462673205996
 97
        0
 97
        0
 75
     2
 76
     1
 98
        0
450
        0
451
        0
460
0.0
461
0.0
452
        0
462
0.0
453
        0
470

  0
SPLINE
  5
2BC
330
2B8
100
AcDbEntity
  8
Livello 1
370
     0
100
AcDbSpline
210
0.0
220
0.0
230
1.0
 70
     9
 71
     3
 72
    17
 73
    13
 74
     0
 42
0.000000001
 43
0.0000000001
 40
0.0
 40
0.0
 40
0.0
 40
0.0
 40
1.0
 40
1.0
 40
1.0
 40
2.0
 40
2.0
 40
2.0
 40
3.0
 40
3.0
 40
3.0
 40
4.0
 40
4.0
 40
4.0
 40
4.0
 10
328.6876029994254
 20
-164.7995876324112
 30
0.0
 10
327.6947264805763
 20
-165.7924641512602
 30
0.0
 10
326.7783310814999
 20
-165.9716091164932
 30
0.0
 10
326.1316866589185
 20
-165.3246201843633
 30
0.0
 10
325.5615233561097
 20
-164.7541123720059
 30
0.0
 10
325.7100069715239
 20
-163.8335828583472
 30
0.0
 10
326.6667099877778
 20
-162.8593098551185
 30
0.0
 10
327.6461506342343
 20
-161.8802137182105
 30
0.0
 10
328.607332274619
 20
-161.7637694908091
 30
0.0
 10
329.2002332076305
 20
-162.3570149333691
 30
0.0
 10
329.8155272612962
 20
-162.9723089870347
 30
0.0
 10
329.6177787804428
 20
-163.8701008704908
 30
0.0
 10
328.6876029994254
 20
-164.7995876324112
 30
0.0
  0
SPLINE
  5
2BD
330
2B8
100
AcDbEntity
  8
Livello 1
370
     0
100
AcDbSpline
210
0.0
220
0.0
230
1.0
 70
     9
 71
     3
 72
    17
 73
    13
 74
     0
 42
0.000000001
 43
0.0000000001
 40
0.0
 40
0.0
 40
0.0
 40
0.0
 40
1.0
 40
1.0
 40
1.0
 40
2.0
 40
2.0
 40
2.0
 40
3.0
 40
3.0
 40
3.0
 40
4.0
 40
4.0
 40
4.0
 40
4.0
 10
327.0573838158051
 20
-163.2589409314075
 30
0.0
 10
326.2980847708561
 20
-164.0175509572595
 30
0.0
 10
326.1003362900027
 20
-164.6824543859127
 30
0.0
 10
326.4593152395657
 20
-165.0421223545728
 30
0.0
 10
326.8637694495341
 20
-165.4458875454441
 30
0.0
 10
327.5286728781873
 20
-165.1675238302359
 30
0.0
 10
328.2741915411954
 20
-164.4226941863249
 30
0.0
 10
328.9928384594185
 20
-163.7040472681018
 30
0.0
 10
329.2808484419854
 20
-163.0481010877102
 30
0.0
 10
328.8722601174347
 20
-162.6395127631596
 30
0.0
 10
328.5263725307157
 20
-162.2936251764405
 30
0.0
 10
327.8525118538008
 20
-162.4638128934118
 30
0.0
 10
327.0573838158051
 20
-163.2589409314075
 30
0.0
  0
HATCH
  5
2BE
330
2B8
100
AcDbEntity
  8
Livello 1
 62
   250
420
  1842203
100
AcDbHatch
 10
0.0
 20
0.0
 30
0.0
210
0.0
220
0.0
230
1.0
  2
SOLID
 70
     1
 71
     0
 91
        2
 92
        1
 93
        1
 72
     4
 94
        3
 73
     0
 74
     0
 95
       17
 96
       13
 40
0.0
 40
0.0
 40
0.0
 40
0.0
 40
1.0
 40
1.0
 40
1.0
 40
2.0
 40
2.0
 40
2.0
 40
3.0
 40
3.0
 40
3.0
 40
4.0
 40
4.0
 40
4.0
 40
4.0
 10
328.6876029994254
 20
-164.7995876324112
 10
327.6947264805763
 20
-165.7924641512602
 10
326.7783310814999
 20
-165.9716091164932
 10
326.1316866589185
 20
-165.3246201843633
 10
325.5615233561097
 20
-164.7541123720059
 10
325.7100069715239
 20
-163.8335828583472
 10
326.6667099877778
 20
-162.8593098551185
 10
327.6461506342343
 20
-161.8802137182105
 10
328.607332274619
 20
-161.7637694908091
 10
329.2002332076305
 20
-162.3570149333691
 10
329.8155272612962
 20
-162.9723089870347
 10
329.6177787804428
 20
-163.8701008704908
 10
328.6876029994254
 20
-164.7995876324112
 97
        0
 97
        0
 92
        1
 93
        1
 72
     4
 94
        3
 73
     0
 74
     0
 95
       17
 96
       13
 40
0.0
 40
0.0
 40
0.0
 40
0.0
 40
1.0
 40
1.0
 40
1.0
 40
2.0
 40
2.0
 40
2.0
 40
3.0
 40
3.0
 40
3.0
 40
4.0
 40
4.0
 40
4.0
 40
4.0
 10
327.0573838158051
 20
-163.2589409314075
 10
326.2980847708561
 20
-164.0175509572595
 10
326.1003362900027
 20
-164.6824543859127
 10
326.4593152395657
 20
-165.0421223545728
 10
326.8637694495341
 20
-165.4458875454441
 10
327.5286728781873
 20
-165.1675238302359
 10
328.2741915411954
 20
-164.4226941863249
 10
328.9928384594185
 20
-163.7040472681018
 10
329.2808484419854
 20
-163.0481010877102
 10
328.8722601174347
 20
-162.6395127631596
 10
328.5263725307157
 20
-162.2936251764405
 10
327.8525118538008
 20
-162.4638128934118
 10
327.0573838158051
 20
-163.2589409314075
 97
        0
 97
        0
 75
     2
 76
     1
 98
        0
450
        0
451
        0
460
0.0
461
0.0
452
        0
462
0.0
453
        0
470

  0
SPLINE
  5
2BF
330
2B8
100
AcDbEntity
  8
Livello 1
370
     0
100
AcDbSpline
210
0.0
220
0.0
230
1.0
 70
     9
 71
     3
 72
    80
 73
    76
 74
     0
 42
0.000000001
 43
0.0000000001
 40
0.0
 40
0.0
 40
0.0
 40
0.0
 40
1.0
 40
1.0
 40
1.0
 40
2.0
 40
2.0
 40
2.0
 40
3.0
 40
3.0
 40
3.0
 40
4.0
 40
4.0
 40
4.0
 40
5.0
 40
5.0
 40
5.0
 40
6.0
 40
6.0
 40
6.0
 40
7.0
 40
7.0
 40
7.0
 40
8.0
 40
8.0
 40
8.0
 40
9.0
 40
9.0
 40
9.0
 40
10.0
 40
10.0
 40
10.0
 40
11.0
 40
11.0
 40
11.0
 40
12.0
 40
12.0
 40
12.0
 40
13.0
 40
13.0
 40
13.0
 40
14.0
 40
14.0
 40
14.0
 40
15.0
 40
15.0
 40
15.0
 40
16.0
 40
16.0
 40
16.0
 40
17.0
 40
17.0
 40
17.0
 40
18.0
 40
18.0
 40
18.0
 40
19.0
 40
19.0
 40
19.0
 40
20.0
 40
20.0
 40
20.0
 40
21.0
 40
21.0
 40
21.0
 40
22.0
 40
22.0
 40
22.0
 40
23.0
 40
23.0
 40
23.0
 40
24.0
 40
24.0
 40
24.0
 40
25.0
 40
25.0
 40
25.0
 40
25.0
 10
330.2220485285557
 20
-166.1466199671439
 30
0.0
 10
330.4470132637423
 20
-165.9219997415055
 30
0.0
 10
330.6265027385239
 20
-165.7332085089139
 30
0.0
 10
330.792556340913
 20
-165.5402831617399
 30
0.0
 10
330.792556340913
 20
-165.5402831617399
 30
0.0
 10
331.1384439276321
 20
-165.886170748459
 30
0.0
 10
331.1384439276321
 20
-165.886170748459
 30
0.0
 10
331.1384439276321
 20
-165.886170748459
 30
0.0
 10
330.8059922133053
 20
-166.2547959653808
 30
0.0
 10
330.8059922133053
 20
-166.2547959653808
 30
0.0
 10
330.8059922133053
 20
-166.2547959653808
 30
0.0
 10
330.819428085698
 20
-166.2678873282247
 30
0.0
 10
330.819428085698
 20
-166.2678873282247
 30
0.0
 10
331.1474011758936
 20
-166.1831379792876
 30
0.0
 10
331.5425536280518
 20
-166.1914062084522
 30
0.0
 10
331.9018770871634
 20
-166.5510741771122
 30
0.0
 10
332.1981552988949
 20
-166.8473523888437
 30
0.0
 10
332.2429415402031
 20
-167.2518065988121
 30
0.0
 10
332.0810220523964
 20
-167.6025173192105
 30
0.0
 10
332.0810220523964
 20
-167.6025173192105
 30
0.0
 10
332.0899793006581
 20
-167.6114745674721
 30
0.0
 10
332.0899793006581
 20
-167.6114745674721
 30
0.0
 10
332.2787705332498
 20
-167.5577310779022
 30
0.0
 10
332.4586045175798
 20
-167.5487738296406
 30
0.0
 10
332.6157008717072
 20
-167.5708224407462
 30
0.0
 10
332.8451442310249
 20
-167.6025173192105
 30
0.0
 10
333.0425482023297
 20
-167.692778820924
 30
0.0
 10
333.2489094218961
 20
-167.898795530942
 30
0.0
 10
333.536230385366
 20
-168.1868055135089
 30
0.0
 10
333.7739419738482
 20
-168.8020995671745
 30
0.0
 10
333.0194660625785
 20
-169.5565754784442
 30
0.0
 10
333.0194660625785
 20
-169.5565754784442
 30
0.0
 10
331.7392685802596
 20
-170.836083941666
 30
0.0
 10
331.7392685802596
 20
-170.836083941666
 30
0.0
 10
331.7392685802596
 20
-170.836083941666
 30
0.0
 10
331.3530733763632
 20
-170.449544228221
 30
0.0
 10
331.3530733763632
 20
-170.449544228221
 30
0.0
 10
331.3530733763632
 20
-170.449544228221
 30
0.0
 10
332.5840059932429
 20
-169.2196451399868
 30
0.0
 10
332.5840059932429
 20
-169.2196451399868
 30
0.0
 10
333.0015515660552
 20
-168.8020995671745
 30
0.0
 10
333.1007703160304
 20
-168.3976453572062
 30
0.0
 10
332.7817544740963
 20
-168.078629515272
 30
0.0
 10
332.5571342484579
 20
-167.8540092896337
 30
0.0
 10
332.2160697954182
 20
-167.8450520413721
 30
0.0
 10
331.9552760671848
 20
-167.9704535170351
 30
0.0
 10
331.8836180810917
 20
-168.0062825100818
 30
0.0
 10
331.7981797130574
 20
-168.064849133331
 30
0.0
 10
331.7261772174157
 20
-168.1365071194242
 30
0.0
 10
331.7261772174157
 20
-168.1365071194242
 30
0.0
 10
330.3832789972653
 20
-169.4794053395746
 30
0.0
 10
330.3832789972653
 20
-169.4794053395746
 30
0.0
 10
330.3832789972653
 20
-169.4794053395746
 30
0.0
 10
329.9967392838203
 20
-169.0928656261296
 30
0.0
 10
329.9967392838203
 20
-169.0928656261296
 30
0.0
 10
329.9967392838203
 20
-169.0928656261296
 30
0.0
 10
331.2996743963417
 20
-167.7906195327051
 30
0.0
 10
331.2996743963417
 20
-167.7906195327051
 30
0.0
 10
331.6455619830609
 20
-167.444731945986
 30
0.0
 10
331.7447807330361
 20
-167.0409667551148
 30
0.0
 10
331.4436793876252
 20
-166.7398654097039
 30
0.0
 10
331.1966660413328
 20
-166.492507553863
 30
0.0
 10
330.819428085698
 20
-166.5104220503863
 30
0.0
 10
330.558978867013
 20
-166.6454697934081
 30
0.0
 10
330.4780191231097
 20
-166.6812987864547
 30
0.0
 10
330.4018825128857
 20
-166.7398654097039
 30
0.0
 10
330.3343586413748
 20
-166.8067002621178
 30
0.0
 10
330.3343586413748
 20
-166.8067002621178
 30
0.0
 10
329.0224662805916
 20
-168.1179036038039
 30
0.0
 10
329.0224662805916
 20
-168.1179036038039
 30
0.0
 10
329.0224662805916
 20
-168.1179036038039
 30
0.0
 10
328.6366155862436
 20
-167.7320529094559
 30
0.0
 10
328.6366155862436
 20
-167.7320529094559
 30
0.0
 10
328.6366155862436
 20
-167.7320529094559
 30
0.0
 10
330.2220485285557
 20
-166.1466199671439
 30
0.0
 10
330.2220485285557
 20
-166.1466199671439
 30
0.0
  0
HATCH
  5
2C0
330
2B8
100
AcDbEntity
  8
Livello 1
 62
   250
420
  1842203
100
AcDbHatch
 10
0.0
 20
0.0
 30
0.0
210
0.0
220
0.0
230
1.0
  2
SOLID
 70
     1
 71
     0
 91
        1
 92
        1
 93
        1
 72
     4
 94
        3
 73
     0
 74
     0
 95
       80
 96
       76
 40
0.0
 40
0.0
 40
0.0
 40
0.0
 40
1.0
 40
1.0
 40
1.0
 40
2.0
 40
2.0
 40
2.0
 40
3.0
 40
3.0
 40
3.0
 40
4.0
 40
4.0
 40
4.0
 40
5.0
 40
5.0
 40
5.0
 40
6.0
 40
6.0
 40
6.0
 40
7.0
 40
7.0
 40
7.0
 40
8.0
 40
8.0
 40
8.0
 40
9.0
 40
9.0
 40
9.0
 40
10.0
 40
10.0
 40
10.0
 40
11.0
 40
11.0
 40
11.0
 40
12.0
 40
12.0
 40
12.0
 40
13.0
 40
13.0
 40
13.0
 40
14.0
 40
14.0
 40
14.0
 40
15.0
 40
15.0
 40
15.0
 40
16.0
 40
16.0
 40
16.0
 40
17.0
 40
17.0
 40
17.0
 40
18.0
 40
18.0
 40
18.0
 40
19.0
 40
19.0
 40
19.0
 40
20.0
 40
20.0
 40
20.0
 40
21.0
 40
21.0
 40
21.0
 40
22.0
 40
22.0
 40
22.0
 40
23.0
 40
23.0
 40
23.0
 40
24.0
 40
24.0
 40
24.0
 40
25.0
 40
25.0
 40
25.0
 40
25.0
 10
330.2220485285557
 20
-166.1466199671439
 10
330.4470132637423
 20
-165.9219997415055
 10
330.6265027385239
 20
-165.7332085089139
 10
330.792556340913
 20
-165.5402831617399
 10
330.792556340913
 20
-165.5402831617399
 10
331.1384439276321
 20
-165.886170748459
 10
331.1384439276321
 20
-165.886170748459
 10
331.1384439276321
 20
-165.886170748459
 10
330.8059922133053
 20
-166.2547959653808
 10
330.8059922133053
 20
-166.2547959653808
 10
330.8059922133053
 20
-166.2547959653808
 10
330.819428085698
 20
-166.2678873282247
 10
330.819428085698
 20
-166.2678873282247
 10
331.1474011758936
 20
-166.1831379792876
 10
331.5425536280518
 20
-166.1914062084522
 10
331.9018770871634
 20
-166.5510741771122
 10
332.1981552988949
 20
-166.8473523888437
 10
332.2429415402031
 20
-167.2518065988121
 10
332.0810220523964
 20
-167.6025173192105
 10
332.0810220523964
 20
-167.6025173192105
 10
332.0899793006581
 20
-167.6114745674721
 10
332.0899793006581
 20
-167.6114745674721
 10
332.2787705332498
 20
-167.5577310779022
 10
332.4586045175798
 20
-167.5487738296406
 10
332.6157008717072
 20
-167.5708224407462
 10
332.8451442310249
 20
-167.6025173192105
 10
333.0425482023297
 20
-167.692778820924
 10
333.2489094218961
 20
-167.898795530942
 10
333.536230385366
 20
-168.1868055135089
 10
333.7739419738482
 20
-168.8020995671745
 10
333.0194660625785
 20
-169.5565754784442
 10
333.0194660625785
 20
-169.5565754784442
 10
331.7392685802596
 20
-170.836083941666
 10
331.7392685802596
 20
-170.836083941666
 10
331.7392685802596
 20
-170.836083941666
 10
331.3530733763632
 20
-170.449544228221
 10
331.3530733763632
 20
-170.449544228221
 10
331.3530733763632
 20
-170.449544228221
 10
332.5840059932429
 20
-169.2196451399868
 10
332.5840059932429
 20
-169.2196451399868
 10
333.0015515660552
 20
-168.8020995671745
 10
333.1007703160304
 20
-168.3976453572062
 10
332.7817544740963
 20
-168.078629515272
 10
332.5571342484579
 20
-167.8540092896337
 10
332.2160697954182
 20
-167.8450520413721
 10
331.9552760671848
 20
-167.9704535170351
 10
331.8836180810917
 20
-168.0062825100818
 10
331.7981797130574
 20
-168.064849133331
 10
331.7261772174157
 20
-168.1365071194242
 10
331.7261772174157
 20
-168.1365071194242
 10
330.3832789972653
 20
-169.4794053395746
 10
330.3832789972653
 20
-169.4794053395746
 10
330.3832789972653
 20
-169.4794053395746
 10
329.9967392838203
 20
-169.0928656261296
 10
329.9967392838203
 20
-169.0928656261296
 10
329.9967392838203
 20
-169.0928656261296
 10
331.2996743963417
 20
-167.7906195327051
 10
331.2996743963417
 20
-167.7906195327051
 10
331.6455619830609
 20
-167.444731945986
 10
331.7447807330361
 20
-167.0409667551148
 10
331.4436793876252
 20
-166.7398654097039
 10
331.1966660413328
 20
-166.492507553863
 10
330.819428085698
 20
-166.5104220503863
 10
330.558978867013
 20
-166.6454697934081
 10
330.4780191231097
 20
-166.6812987864547
 10
330.4018825128857
 20
-166.7398654097039
 10
330.3343586413748
 20
-166.8067002621178
 10
330.3343586413748
 20
-166.8067002621178
 10
329.0224662805916
 20
-168.1179036038039
 10
329.0224662805916
 20
-168.1179036038039
 10
329.0224662805916
 20
-168.1179036038039
 10
328.6366155862436
 20
-167.7320529094559
 10
328.6366155862436
 20
-167.7320529094559
 10
328.6366155862436
 20
-167.7320529094559
 10
330.2220485285557
 20
-166.1466199671439
 10
330.2220485285557
 20
-166.1466199671439
 97
        0
 97
        0
 75
     2
 76
     1
 98
        0
450
        0
451
        0
460
0.0
461
0.0
452
        0
462
0.0
453
        0
470

  0
SPLINE
  5
2C1
330
2B8
100
AcDbEntity
  8
Livello 1
370
     0
100
AcDbSpline
210
0.0
220
0.0
230
1.0
 70
     9
 71
     3
 72
    80
 73
    76
 74
     0
 42
0.000000001
 43
0.0000000001
 40
0.0
 40
0.0
 40
0.0
 40
0.0
 40
1.0
 40
1.0
 40
1.0
 40
2.0
 40
2.0
 40
2.0
 40
3.0
 40
3.0
 40
3.0
 40
4.0
 40
4.0
 40
4.0
 40
5.0
 40
5.0
 40
5.0
 40
6.0
 40
6.0
 40
6.0
 40
7.0
 40
7.0
 40
7.0
 40
8.0
 40
8.0
 40
8.0
 40
9.0
 40
9.0
 40
9.0
 40
10.0
 40
10.0
 40
10.0
 40
11.0
 40
11.0
 40
11.0
 40
12.0
 40
12.0
 40
12.0
 40
13.0
 40
13.0
 40
13.0
 40
14.0
 40
14.0
 40
14.0
 40
15.0
 40
15.0
 40
15.0
 40
16.0
 40
16.0
 40
16.0
 40
17.0
 40
17.0
 40
17.0
 40
18.0
 40
18.0
 40
18.0
 40
19.0
 40
19.0
 40
19.0
 40
20.0
 40
20.0
 40
20.0
 40
21.0
 40
21.0
 40
21.0
 40
22.0
 40
22.0
 40
22.0
 40
23.0
 40
23.0
 40
23.0
 40
24.0
 40
24.0
 40
24.0
 40
25.0
 40
25.0
 40
25.0
 40
25.0
 10
333.9658337923767
 20
-169.8921277787075
 30
0.0
 10
334.1907985275633
 20
-169.6675075530692
 30
0.0
 10
334.3706325118935
 20
-169.4794053395746
 30
0.0
 10
334.5366861142825
 20
-169.2857909733036
 30
0.0
 10
334.5366861142825
 20
-169.2857909733036
 30
0.0
 10
334.8822291914531
 20
-169.6316785600226
 30
0.0
 10
334.8822291914531
 20
-169.6316785600226
 30
0.0
 10
334.8822291914531
 20
-169.6316785600226
 30
0.0
 10
334.5497774771264
 20
-170.0003037769444
 30
0.0
 10
334.5497774771264
 20
-170.0003037769444
 30
0.0
 10
334.5497774771264
 20
-170.0003037769444
 30
0.0
 10
334.5632133495189
 20
-170.0140841588854
 30
0.0
 10
334.5632133495189
 20
-170.0140841588854
 30
0.0
 10
334.8911864397147
 20
-169.9286457908512
 30
0.0
 10
335.2863388918728
 20
-169.9376030391128
 30
0.0
 10
335.6453178414359
 20
-170.2965819886759
 30
0.0
 10
335.9419405627159
 20
-170.5935492195044
 30
0.0
 10
335.9867268040242
 20
-170.9973144103757
 30
0.0
 10
335.8251518257659
 20
-171.3480251307741
 30
0.0
 10
335.8251518257659
 20
-171.3480251307741
 30
0.0
 10
335.8341090740276
 20
-171.3569823790358
 30
0.0
 10
335.8341090740276
 20
-171.3569823790358
 30
0.0
 10
336.0229003066193
 20
-171.3032388894659
 30
0.0
 10
336.2023897814008
 20
-171.2942816412042
 30
0.0
 10
336.3594861355282
 20
-171.3170192714069
 30
0.0
 10
336.5885849852973
 20
-171.3480251307741
 30
0.0
 10
336.7863334661507
 20
-171.4382866324877
 30
0.0
 10
336.9930391952656
 20
-171.6449923616026
 30
0.0
 10
337.2803601587355
 20
-171.9323133250725
 30
0.0
 10
337.5180717472177
 20
-172.5476073787381
 30
0.0
 10
336.7632513263995
 20
-173.3020832900078
 30
0.0
 10
336.7632513263995
 20
-173.3020832900078
 30
0.0
 10
335.4827093345321
 20
-174.5815917532295
 30
0.0
 10
335.4827093345321
 20
-174.5815917532295
 30
0.0
 10
335.4827093345321
 20
-174.5815917532295
 30
0.0
 10
335.0968586401841
 20
-174.1957410588816
 30
0.0
 10
335.0968586401841
 20
-174.1957410588816
 30
0.0
 10
335.0968586401841
 20
-174.1957410588816
 30
0.0
 10
336.3277912570639
 20
-172.9651529515504
 30
0.0
 10
336.3277912570639
 20
-172.9651529515504
 30
0.0
 10
336.7456813394247
 20
-172.5476073787381
 30
0.0
 10
336.8445555798514
 20
-172.1431531687698
 30
0.0
 10
336.5258842474657
 20
-171.8241373268357
 30
0.0
 10
336.3012640218276
 20
-171.5995171011974
 30
0.0
 10
335.9598550592392
 20
-171.5905598529357
 30
0.0
 10
335.6990613310058
 20
-171.7159613285988
 30
0.0
 10
335.6274033449127
 20
-171.7517903216454
 30
0.0
 10
335.5419649768784
 20
-171.8103569448946
 30
0.0
 10
335.4703069907852
 20
-171.8820149309879
 30
0.0
 10
335.4703069907852
 20
-171.8820149309879
 30
0.0
 10
334.1267197515378
 20
-173.2249131511382
 30
0.0
 10
334.1267197515378
 20
-173.2249131511382
 30
0.0
 10
334.1267197515378
 20
-173.2249131511382
 30
0.0
 10
333.7405245476413
 20
-172.8383734376931
 30
0.0
 10
333.7405245476413
 20
-172.8383734376931
 30
0.0
 10
333.7405245476413
 20
-172.8383734376931
 30
0.0
 10
335.0431151506143
 20
-171.5361273442687
 30
0.0
 10
335.0431151506143
 20
-171.5361273442687
 30
0.0
 10
335.3890027373333
 20
-171.1902397575497
 30
0.0
 10
335.4882214873085
 20
-170.7864745666784
 30
0.0
 10
335.1874646514462
 20
-170.4853732212676
 30
0.0
 10
334.9404513051538
 20
-170.2380153654266
 30
0.0
 10
334.5635578590675
 20
-170.2559298619499
 30
0.0
 10
334.302764130834
 20
-170.3909776049717
 30
0.0
 10
334.2218043869307
 20
-170.4268065980183
 30
0.0
 10
334.1456677767067
 20
-170.4853732212676
 30
0.0
 10
334.0781439051958
 20
-170.5528970927784
 30
0.0
 10
334.0781439051958
 20
-170.5528970927784
 30
0.0
 10
332.7665960539612
 20
-171.8641004344645
 30
0.0
 10
332.7665960539612
 20
-171.8641004344645
 30
0.0
 10
332.7665960539612
 20
-171.8641004344645
 30
0.0
 10
332.3800563405161
 20
-171.4775607210195
 30
0.0
 10
332.3800563405161
 20
-171.4775607210195
 30
0.0
 10
332.3800563405161
 20
-171.4775607210195
 30
0.0
 10
333.9658337923767
 20
-169.8921277787075
 30
0.0
 10
333.9658337923767
 20
-169.8921277787075
 30
0.0
  0
HATCH
  5
2C2
330
2B8
100
AcDbEntity
  8
Livello 1
 62
   250
420
  1842203
100
AcDbHatch
 10
0.0
 20
0.0
 30
0.0
210
0.0
220
0.0
230
1.0
  2
SOLID
 70
     1
 71
     0
 91
        1
 92
        1
 93
        1
 72
     4
 94
        3
 73
     0
 74
     0
 95
       80
 96
       76
 40
0.0
 40
0.0
 40
0.0
 40
0.0
 40
1.0
 40
1.0
 40
1.0
 40
2.0
 40
2.0
 40
2.0
 40
3.0
 40
3.0
 40
3.0
 40
4.0
 40
4.0
 40
4.0
 40
5.0
 40
5.0
 40
5.0
 40
6.0
 40
6.0
 40
6.0
 40
7.0
 40
7.0
 40
7.0
 40
8.0
 40
8.0
 40
8.0
 40
9.0
 40
9.0
 40
9.0
 40
10.0
 40
10.0
 40
10.0
 40
11.0
 40
11.0
 40
11.0
 40
12.0
 40
12.0
 40
12.0
 40
13.0
 40
13.0
 40
13.0
 40
14.0
 40
14.0
 40
14.0
 40
15.0
 40
15.0
 40
15.0
 40
16.0
 40
16.0
 40
16.0
 40
17.0
 40
17.0
 40
17.0
 40
18.0
 40
18.0
 40
18.0
 40
19.0
 40
19.0
 40
19.0
 40
20.0
 40
20.0
 40
20.0
 40
21.0
 40
21.0
 40
21.0
 40
22.0
 40
22.0
 40
22.0
 40
23.0
 40
23.0
 40
23.0
 40
24.0
 40
24.0
 40
24.0
 40
25.0
 40
25.0
 40
25.0
 40
25.0
 10
333.9658337923767
 20
-169.8921277787075
 10
334.1907985275633
 20
-169.6675075530692
 10
334.3706325118935
 20
-169.4794053395746
 10
334.5366861142825
 20
-169.2857909733036
 10
334.5366861142825
 20
-169.2857909733036
 10
334.8822291914531
 20
-169.6316785600226
 10
334.8822291914531
 20
-169.6316785600226
 10
334.8822291914531
 20
-169.6316785600226
 10
334.5497774771264
 20
-170.0003037769444
 10
334.5497774771264
 20
-170.0003037769444
 10
334.5497774771264
 20
-170.0003037769444
 10
334.5632133495189
 20
-170.0140841588854
 10
334.5632133495189
 20
-170.0140841588854
 10
334.8911864397147
 20
-169.9286457908512
 10
335.2863388918728
 20
-169.9376030391128
 10
335.6453178414359
 20
-170.2965819886759
 10
335.9419405627159
 20
-170.5935492195044
 10
335.9867268040242
 20
-170.9973144103757
 10
335.8251518257659
 20
-171.3480251307741
 10
335.8251518257659
 20
-171.3480251307741
 10
335.8341090740276
 20
-171.3569823790358
 10
335.8341090740276
 20
-171.3569823790358
 10
336.0229003066193
 20
-171.3032388894659
 10
336.2023897814008
 20
-171.2942816412042
 10
336.3594861355282
 20
-171.3170192714069
 10
336.5885849852973
 20
-171.3480251307741
 10
336.7863334661507
 20
-171.4382866324877
 10
336.9930391952656
 20
-171.6449923616026
 10
337.2803601587355
 20
-171.9323133250725
 10
337.5180717472177
 20
-172.5476073787381
 10
336.7632513263995
 20
-173.3020832900078
 10
336.7632513263995
 20
-173.3020832900078
 10
335.4827093345321
 20
-174.5815917532295
 10
335.4827093345321
 20
-174.5815917532295
 10
335.4827093345321
 20
-174.5815917532295
 10
335.0968586401841
 20
-174.1957410588816
 10
335.0968586401841
 20
-174.1957410588816
 10
335.0968586401841
 20
-174.1957410588816
 10
336.3277912570639
 20
-172.9651529515504
 10
336.3277912570639
 20
-172.9651529515504
 10
336.7456813394247
 20
-172.5476073787381
 10
336.8445555798514
 20
-172.1431531687698
 10
336.5258842474657
 20
-171.8241373268357
 10
336.3012640218276
 20
-171.5995171011974
 10
335.9598550592392
 20
-171.5905598529357
 10
335.6990613310058
 20
-171.7159613285988
 10
335.6274033449127
 20
-171.7517903216454
 10
335.5419649768784
 20
-171.8103569448946
 10
335.4703069907852
 20
-171.8820149309879
 10
335.4703069907852
 20
-171.8820149309879
 10
334.1267197515378
 20
-173.2249131511382
 10
334.1267197515378
 20
-173.2249131511382
 10
334.1267197515378
 20
-173.2249131511382
 10
333.7405245476413
 20
-172.8383734376931
 10
333.7405245476413
 20
-172.8383734376931
 10
333.7405245476413
 20
-172.8383734376931
 10
335.0431151506143
 20
-171.5361273442687
 10
335.0431151506143
 20
-171.5361273442687
 10
335.3890027373333
 20
-171.1902397575497
 10
335.4882214873085
 20
-170.7864745666784
 10
335.1874646514462
 20
-170.4853732212676
 10
334.9404513051538
 20
-170.2380153654266
 10
334.5635578590675
 20
-170.2559298619499
 10
334.302764130834
 20
-170.3909776049717
 10
334.2218043869307
 20
-170.4268065980183
 10
334.1456677767067
 20
-170.4853732212676
 10
334.0781439051958
 20
-170.5528970927784
 10
334.0781439051958
 20
-170.5528970927784
 10
332.7665960539612
 20
-171.8641004344645
 10
332.7665960539612
 20
-171.8641004344645
 10
332.7665960539612
 20
-171.8641004344645
 10
332.3800563405161
 20
-171.4775607210195
 10
332.3800563405161
 20
-171.4775607210195
 10
332.3800563405161
 20
-171.4775607210195
 10
333.9658337923767
 20
-169.8921277787075
 10
333.9658337923767
 20
-169.8921277787075
 97
        0
 97
        0
 75
     2
 76
     1
 98
        0
450
        0
451
        0
460
0.0
461
0.0
452
        0
462
0.0
453
        0
470

  0
ENDBLK
  5
2C3
330
2B8
100
AcDbEntity
  8
0
100
AcDbBlockEnd
  0
BLOCK
  5
2C5
330
2C4
100
AcDbEntity
  8
0
100
AcDbBlockBegin
  2
block 99
 70
     0
 10
0.0
 20
0.0
 30
0.0
  3
block 99
  1

  0
SPLINE
  5
2C6
330
2C4
100
AcDbEntity
  8
Livello 1
370
     0
100
AcDbSpline
210
0.0
220
0.0
230
1.0
 70
     9
 71
     3
 72
    59
 73
    55
 74
     0
 42
0.000000001
 43
0.0000000001
 40
0.0
 40
0.0
 40
0.0
 40
0.0
 40
1.0
 40
1.0
 40
1.0
 40
2.0
 40
2.0
 40
2.0
 40
3.0
 40
3.0
 40
3.0
 40
4.0
 40
4.0
 40
4.0
 40
5.0
 40
5.0
 40
5.0
 40
6.0
 40
6.0
 40
6.0
 40
7.0
 40
7.0
 40
7.0
 40
8.0
 40
8.0
 40
8.0
 40
9.0
 40
9.0
 40
9.0
 40
10.0
 40
10.0
 40
10.0
 40
11.0
 40
11.0
 40
11.0
 40
12.0
 40
12.0
 40
12.0
 40
13.0
 40
13.0
 40
13.0
 40
14.0
 40
14.0
 40
14.0
 40
15.0
 40
15.0
 40
15.0
 40
16.0
 40
16.0
 40
16.0
 40
17.0
 40
17.0
 40
17.0
 40
18.0
 40
18.0
 40
18.0
 40
18.0
 10
305.2132391272557
 20
-208.0913465191577
 30
0.0
 10
305.3720580291258
 20
-208.1929768359726
 30
0.0
 10
305.740338736499
 20
-208.3517957378426
 30
0.0
 10
306.1279119785896
 20
-208.3517957378426
 30
0.0
 10
306.8455253681671
 20
-208.3517957378426
 30
0.0
 10
307.0680785365142
 20
-207.89463156695
 30
0.0
 10
307.0615328550923
 20
-207.5515000566191
 30
0.0
 10
307.0553316832188
 20
-206.9734130341942
 30
0.0
 10
306.5344332458491
 20
-206.7257106688047
 30
0.0
 10
305.9945867833103
 20
-206.7257106688047
 30
0.0
 10
305.9945867833103
 20
-206.7257106688047
 30
0.0
 10
305.6831501514438
 20
-206.7257106688047
 30
0.0
 10
305.6831501514438
 20
-206.7257106688047
 30
0.0
 10
305.6831501514438
 20
-206.7257106688047
 30
0.0
 10
305.6831501514438
 20
-206.3064425482498
 30
0.0
 10
305.6831501514438
 20
-206.3064425482498
 30
0.0
 10
305.6831501514438
 20
-206.3064425482498
 30
0.0
 10
305.9945867833103
 20
-206.3064425482498
 30
0.0
 10
305.9945867833103
 20
-206.3064425482498
 30
0.0
 10
306.4011080505699
 20
-206.3064425482498
 30
0.0
 10
306.9154608065177
 20
-206.0969807427466
 30
0.0
 10
306.9154608065177
 20
-205.6077771838411
 30
0.0
 10
306.9154608065177
 20
-205.2773925268057
 30
0.0
 10
306.7059990010145
 20
-204.9852484296565
 30
0.0
 10
306.1913017355182
 20
-204.9852484296565
 30
0.0
 10
305.8612615880313
 20
-204.9852484296565
 30
0.0
 10
305.5436237842912
 20
-205.1313204782311
 30
0.0
 10
305.3655123477038
 20
-205.2584445016368
 30
0.0
 10
305.3655123477038
 20
-205.2584445016368
 30
0.0
 10
305.2194402991292
 20
-204.8519232343773
 30
0.0
 10
305.2194402991292
 20
-204.8519232343773
 30
0.0
 10
305.4354477860543
 20
-204.6931043325073
 30
0.0
 10
305.8547159066093
 20
-204.5342854306373
 30
0.0
 10
306.299477733755
 20
-204.5342854306373
 30
0.0
 10
307.112520268274
 20
-204.5342854306373
 30
0.0
 10
307.4808009756472
 20
-205.0169433081208
 30
0.0
 10
307.4808009756472
 20
-205.5188937203217
 30
0.0
 10
307.4808009756472
 20
-205.94436301275
 30
0.0
 10
307.2268974383842
 20
-206.3064425482498
 30
0.0
 10
306.7187458543099
 20
-206.4907551567107
 30
0.0
 10
306.7187458543099
 20
-206.4907551567107
 30
0.0
 10
306.7187458543099
 20
-206.5035020100061
 30
0.0
 10
306.7187458543099
 20
-206.5035020100061
 30
0.0
 10
307.2268974383842
 20
-206.605132326821
 30
0.0
 10
307.6396198775172
 20
-206.9861598874896
 30
0.0
 10
307.6396198775172
 20
-207.5642469099145
 30
0.0
 10
307.6396198775172
 20
-208.2246717144369
 30
0.0
 10
307.1252671215694
 20
-208.8027587368618
 30
0.0
 10
306.134113150463
 20
-208.8027587368618
 30
0.0
 10
305.6704032981484
 20
-208.8027587368618
 30
0.0
 10
305.2638820308889
 20
-208.6566866882872
 30
0.0
 10
305.0606213972592
 20
-208.5233614930081
 30
0.0
 10
305.0606213972592
 20
-208.5233614930081
 30
0.0
 10
305.2132391272557
 20
-208.0913465191577
 30
0.0
 10
305.2132391272557
 20
-208.0913465191577
 30
0.0
  0
HATCH
  5
2C7
330
2C4
100
AcDbEntity
  8
Livello 1
 62
   250
420
  1842203
100
AcDbHatch
 10
0.0
 20
0.0
 30
0.0
210
0.0
220
0.0
230
1.0
  2
SOLID
 70
     1
 71
     0
 91
        1
 92
        1
 93
        1
 72
     4
 94
        3
 73
     0
 74
     0
 95
       59
 96
       55
 40
0.0
 40
0.0
 40
0.0
 40
0.0
 40
1.0
 40
1.0
 40
1.0
 40
2.0
 40
2.0
 40
2.0
 40
3.0
 40
3.0
 40
3.0
 40
4.0
 40
4.0
 40
4.0
 40
5.0
 40
5.0
 40
5.0
 40
6.0
 40
6.0
 40
6.0
 40
7.0
 40
7.0
 40
7.0
 40
8.0
 40
8.0
 40
8.0
 40
9.0
 40
9.0
 40
9.0
 40
10.0
 40
10.0
 40
10.0
 40
11.0
 40
11.0
 40
11.0
 40
12.0
 40
12.0
 40
12.0
 40
13.0
 40
13.0
 40
13.0
 40
14.0
 40
14.0
 40
14.0
 40
15.0
 40
15.0
 40
15.0
 40
16.0
 40
16.0
 40
16.0
 40
17.0
 40
17.0
 40
17.0
 40
18.0
 40
18.0
 40
18.0
 40
18.0
 10
305.2132391272557
 20
-208.0913465191577
 10
305.3720580291258
 20
-208.1929768359726
 10
305.740338736499
 20
-208.3517957378426
 10
306.1279119785896
 20
-208.3517957378426
 10
306.8455253681671
 20
-208.3517957378426
 10
307.0680785365142
 20
-207.89463156695
 10
307.0615328550923
 20
-207.5515000566191
 10
307.0553316832188
 20
-206.9734130341942
 10
306.5344332458491
 20
-206.7257106688047
 10
305.9945867833103
 20
-206.7257106688047
 10
305.9945867833103
 20
-206.7257106688047
 10
305.6831501514438
 20
-206.7257106688047
 10
305.6831501514438
 20
-206.7257106688047
 10
305.6831501514438
 20
-206.7257106688047
 10
305.6831501514438
 20
-206.3064425482498
 10
305.6831501514438
 20
-206.3064425482498
 10
305.6831501514438
 20
-206.3064425482498
 10
305.9945867833103
 20
-206.3064425482498
 10
305.9945867833103
 20
-206.3064425482498
 10
306.4011080505699
 20
-206.3064425482498
 10
306.9154608065177
 20
-206.0969807427466
 10
306.9154608065177
 20
-205.6077771838411
 10
306.9154608065177
 20
-205.2773925268057
 10
306.7059990010145
 20
-204.9852484296565
 10
306.1913017355182
 20
-204.9852484296565
 10
305.8612615880313
 20
-204.9852484296565
 10
305.5436237842912
 20
-205.1313204782311
 10
305.3655123477038
 20
-205.2584445016368
 10
305.3655123477038
 20
-205.2584445016368
 10
305.2194402991292
 20
-204.8519232343773
 10
305.2194402991292
 20
-204.8519232343773
 10
305.4354477860543
 20
-204.6931043325073
 10
305.8547159066093
 20
-204.5342854306373
 10
306.299477733755
 20
-204.5342854306373
 10
307.112520268274
 20
-204.5342854306373
 10
307.4808009756472
 20
-205.0169433081208
 10
307.4808009756472
 20
-205.5188937203217
 10
307.4808009756472
 20
-205.94436301275
 10
307.2268974383842
 20
-206.3064425482498
 10
306.7187458543099
 20
-206.4907551567107
 10
306.7187458543099
 20
-206.4907551567107
 10
306.7187458543099
 20
-206.5035020100061
 10
306.7187458543099
 20
-206.5035020100061
 10
307.2268974383842
 20
-206.605132326821
 10
307.6396198775172
 20
-206.9861598874896
 10
307.6396198775172
 20
-207.5642469099145
 10
307.6396198775172
 20
-208.2246717144369
 10
307.1252671215694
 20
-208.8027587368618
 10
306.134113150463
 20
-208.8027587368618
 10
305.6704032981484
 20
-208.8027587368618
 10
305.2638820308889
 20
-208.6566866882872
 10
305.0606213972592
 20
-208.5233614930081
 10
305.0606213972592
 20
-208.5233614930081
 10
305.2132391272557
 20
-208.0913465191577
 10
305.2132391272557
 20
-208.0913465191577
 97
        0
 97
        0
 75
     2
 76
     1
 98
        0
450
        0
451
        0
460
0.0
461
0.0
452
        0
462
0.0
453
        0
470

  0
POLYLINE
  5
2C8
330
2C4
100
AcDbEntity
  8
Livello 1
370
     0
100
AcDb2dPolyline
 66
     1
 10
0.0
 20
0.0
 30
0.0
  0
VERTEX
  5
2C9
330
2C8
100
AcDbEntity
  8
Livello 1
370
     0
100
AcDbVertex
100
AcDb2dVertex
 10
309.5502698336368
 20
-205.1251193063576
 30
0.0
  0
VERTEX
  5
2CA
330
2C8
100
AcDbEntity
  8
Livello 1
370
     0
100
AcDbVertex
100
AcDb2dVertex
 10
309.5375229803413
 20
-205.1251193063576
 30
0.0
  0
VERTEX
  5
2CB
330
2C8
100
AcDbEntity
  8
Livello 1
370
     0
100
AcDbVertex
100
AcDb2dVertex
 10
308.8199095907638
 20
-205.5123480388997
 30
0.0
  0
VERTEX
  5
2CC
330
2C8
100
AcDbEntity
  8
Livello 1
370
     0
100
AcDbVertex
100
AcDb2dVertex
 10
308.711733592527
 20
-205.0868787464713
 30
0.0
  0
VERTEX
  5
2CD
330
2C8
100
AcDbEntity
  8
Livello 1
370
     0
100
AcDbVertex
100
AcDb2dVertex
 10
309.6140041001139
 20
-204.6042208689879
 30
0.0
  0
VERTEX
  5
2CE
330
2C8
100
AcDbEntity
  8
Livello 1
370
     0
100
AcDbVertex
100
AcDb2dVertex
 10
310.0901162961754
 20
-204.6042208689879
 30
0.0
  0
VERTEX
  5
2CF
330
2C8
100
AcDbEntity
  8
Livello 1
370
     0
100
AcDbVertex
100
AcDb2dVertex
 10
310.0901162961754
 20
-208.7328232985112
 30
0.0
  0
VERTEX
  5
2D0
330
2C8
100
AcDbEntity
  8
Livello 1
370
     0
100
AcDbVertex
100
AcDb2dVertex
 10
309.5502698336368
 20
-208.7328232985112
 30
0.0
  0
VERTEX
  5
2D1
330
2C8
100
AcDbEntity
  8
Livello 1
370
     0
100
AcDbVertex
100
AcDb2dVertex
 10
309.5502698336368
 20
-205.1251193063576
 30
0.0
  0
SEQEND
  5
2D2
330
2C8
100
AcDbEntity
  8
Livello 1
370
     0
  0
HATCH
  5
2D3
330
2C4
100
AcDbEntity
  8
Livello 1
 62
   250
420
  1842203
100
AcDbHatch
 10
0.0
 20
0.0
 30
0.0
210
0.0
220
0.0
230
1.0
  2
SOLID
 70
     1
 71
     0
 91
        1
 92
        1
 93
        8
 72
     1
 10
309.5502698336368
 20
-205.1251193063576
 11
309.5375229803413
 21
-205.1251193063576
 72
     1
 10
309.5375229803413
 20
-205.1251193063576
 11
308.8199095907638
 21
-205.5123480388997
 72
     1
 10
308.8199095907638
 20
-205.5123480388997
 11
308.711733592527
 21
-205.0868787464713
 72
     1
 10
308.711733592527
 20
-205.0868787464713
 11
309.6140041001139
 21
-204.6042208689879
 72
     1
 10
309.6140041001139
 20
-204.6042208689879
 11
310.0901162961754
 21
-204.6042208689879
 72
     1
 10
310.0901162961754
 20
-204.6042208689879
 11
310.0901162961754
 21
-208.7328232985112
 72
     1
 10
310.0901162961754
 20
-208.7328232985112
 11
309.5502698336368
 21
-208.7328232985112
 72
     1
 10
309.5502698336368
 20
-208.7328232985112
 11
309.5502698336368
 21
-205.1251193063576
 97
        0
 75
     2
 76
     1
 98
        0
450
        0
451
        0
460
0.0
461
0.0
452
        0
462
0.0
453
        0
470

  0
SPLINE
  5
2D4
330
2C4
100
AcDbEntity
  8
Livello 1
370
     0
100
AcDbSpline
210
0.0
220
0.0
230
1.0
 70
     9
 71
     3
 72
    80
 73
    76
 74
     0
 42
0.000000001
 43
0.0000000001
 40
0.0
 40
0.0
 40
0.0
 40
0.0
 40
1.0
 40
1.0
 40
1.0
 40
2.0
 40
2.0
 40
2.0
 40
3.0
 40
3.0
 40
3.0
 40
4.0
 40
4.0
 40
4.0
 40
5.0
 40
5.0
 40
5.0
 40
6.0
 40
6.0
 40
6.0
 40
7.0
 40
7.0
 40
7.0
 40
8.0
 40
8.0
 40
8.0
 40
9.0
 40
9.0
 40
9.0
 40
10.0
 40
10.0
 40
10.0
 40
11.0
 40
11.0
 40
11.0
 40
12.0
 40
12.0
 40
12.0
 40
13.0
 40
13.0
 40
13.0
 40
14.0
 40
14.0
 40
14.0
 40
15.0
 40
15.0
 40
15.0
 40
16.0
 40
16.0
 40
16.0
 40
17.0
 40
17.0
 40
17.0
 40
18.0
 40
18.0
 40
18.0
 40
19.0
 40
19.0
 40
19.0
 40
20.0
 40
20.0
 40
20.0
 40
21.0
 40
21.0
 40
21.0
 40
22.0
 40
22.0
 40
22.0
 40
23.0
 40
23.0
 40
23.0
 40
24.0
 40
24.0
 40
24.0
 40
25.0
 40
25.0
 40
25.0
 40
25.0
 10
313.1186997372585
 20
-206.4907551567107
 30
0.0
 10
313.1186997372585
 20
-206.1731173529706
 30
0.0
 10
313.1124985653851
 20
-205.9126681342857
 30
0.0
 10
313.0932060306677
 20
-205.6587645970228
 30
0.0
 10
313.0932060306677
 20
-205.6587645970228
 30
0.0
 10
313.5824095895732
 20
-205.6587645970228
 30
0.0
 10
313.5824095895732
 20
-205.6587645970228
 30
0.0
 10
313.5824095895732
 20
-205.6587645970228
 30
0.0
 10
313.607903296164
 20
-206.1541693278018
 30
0.0
 10
313.607903296164
 20
-206.1541693278018
 30
0.0
 10
313.607903296164
 20
-206.1541693278018
 30
0.0
 10
313.6268513213329
 20
-206.1541693278018
 30
0.0
 10
313.6268513213329
 20
-206.1541693278018
 30
0.0
 10
313.7984170764983
 20
-205.8620252306526
 30
0.0
 10
314.0840154922255
 20
-205.5888291586722
 30
0.0
 10
314.5921670762998
 20
-205.5888291586722
 30
0.0
 10
315.0114351968548
 20
-205.5888291586722
 30
0.0
 10
315.3290730005948
 20
-205.8427326959352
 30
0.0
 10
315.462398195874
 20
-206.2048122314349
 30
0.0
 10
315.462398195874
 20
-206.2048122314349
 30
0.0
 10
315.4751450491694
 20
-206.2048122314349
 30
0.0
 10
315.4751450491694
 20
-206.2048122314349
 30
0.0
 10
315.5705741941109
 20
-206.0332464762695
 30
0.0
 10
315.6911525360947
 20
-205.8999212809903
 30
0.0
 10
315.8182765595003
 20
-205.8048366455974
 30
0.0
 10
316.0025891679612
 20
-205.6649657688963
 30
0.0
 10
316.2058498015909
 20
-205.5888291586722
 30
0.0
 10
316.4979938987401
 20
-205.5888291586722
 30
0.0
 10
316.9045151659997
 20
-205.5888291586722
 30
0.0
 10
317.5077513854668
 20
-205.8554795492306
 30
0.0
 10
317.5077513854668
 20
-206.922770130561
 30
0.0
 10
317.5077513854668
 20
-206.922770130561
 30
0.0
 10
317.5077513854668
 20
-208.7328232985112
 30
0.0
 10
317.5077513854668
 20
-208.7328232985112
 30
0.0
 10
317.5077513854668
 20
-208.7328232985112
 30
0.0
 10
316.9617037510547
 20
-208.7328232985112
 30
0.0
 10
316.9617037510547
 20
-208.7328232985112
 30
0.0
 10
316.9617037510547
 20
-208.7328232985112
 30
0.0
 10
316.9617037510547
 20
-206.992361059363
 30
0.0
 10
316.9617037510547
 20
-206.992361059363
 30
0.0
 10
316.9617037510547
 20
-206.4018716931912
 30
0.0
 10
316.7456962641295
 20
-206.0459933295649
 30
0.0
 10
316.2947332651104
 20
-206.0459933295649
 30
0.0
 10
315.9770954613703
 20
-206.0459933295649
 30
0.0
 10
315.7293930959809
 20
-206.2809488416589
 30
0.0
 10
315.6339639510394
 20
-206.5541449136392
 30
0.0
 10
315.6084702444486
 20
-206.6302815238633
 30
0.0
 10
315.5895222192797
 20
-206.7319118406782
 30
0.0
 10
315.5895222192797
 20
-206.833542157493
 30
0.0
 10
315.5895222192797
 20
-206.833542157493
 30
0.0
 10
315.5895222192797
 20
-208.7328232985112
 30
0.0
 10
315.5895222192797
 20
-208.7328232985112
 30
0.0
 10
315.5895222192797
 20
-208.7328232985112
 30
0.0
 10
315.0431300753191
 20
-208.7328232985112
 30
0.0
 10
315.0431300753191
 20
-208.7328232985112
 30
0.0
 10
315.0431300753191
 20
-208.7328232985112
 30
0.0
 10
315.0431300753191
 20
-206.8907307425482
 30
0.0
 10
315.0431300753191
 20
-206.8907307425482
 30
0.0
 10
315.0431300753191
 20
-206.4018716931912
 30
0.0
 10
314.8274670979426
 20
-206.0459933295649
 30
0.0
 10
314.4016532959656
 20
-206.0459933295649
 30
0.0
 10
314.0523206137613
 20
-206.0459933295649
 30
0.0
 10
313.7984170764983
 20
-206.3253905734187
 30
0.0
 10
313.7095336129789
 20
-206.605132326821
 30
0.0
 10
313.677494224966
 20
-206.6874701089184
 30
0.0
 10
313.6650918812192
 20
-206.7828992538599
 30
0.0
 10
313.6650918812192
 20
-206.8783283988013
 30
0.0
 10
313.6650918812192
 20
-206.8783283988013
 30
0.0
 10
313.6650918812192
 20
-208.7328232985112
 30
0.0
 10
313.6650918812192
 20
-208.7328232985112
 30
0.0
 10
313.6650918812192
 20
-208.7328232985112
 30
0.0
 10
313.1186997372585
 20
-208.7328232985112
 30
0.0
 10
313.1186997372585
 20
-208.7328232985112
 30
0.0
 10
313.1186997372585
 20
-208.7328232985112
 30
0.0
 10
313.1186997372585
 20
-206.4907551567107
 30
0.0
 10
313.1186997372585
 20
-206.4907551567107
 30
0.0
  0
HATCH
  5
2D5
330
2C4
100
AcDbEntity
  8
Livello 1
 62
   250
420
  1842203
100
AcDbHatch
 10
0.0
 20
0.0
 30
0.0
210
0.0
220
0.0
230
1.0
  2
SOLID
 70
     1
 71
     0
 91
        1
 92
        1
 93
        1
 72
     4
 94
        3
 73
     0
 74
     0
 95
       80
 96
       76
 40
0.0
 40
0.0
 40
0.0
 40
0.0
 40
1.0
 40
1.0
 40
1.0
 40
2.0
 40
2.0
 40
2.0
 40
3.0
 40
3.0
 40
3.0
 40
4.0
 40
4.0
 40
4.0
 40
5.0
 40
5.0
 40
5.0
 40
6.0
 40
6.0
 40
6.0
 40
7.0
 40
7.0
 40
7.0
 40
8.0
 40
8.0
 40
8.0
 40
9.0
 40
9.0
 40
9.0
 40
10.0
 40
10.0
 40
10.0
 40
11.0
 40
11.0
 40
11.0
 40
12.0
 40
12.0
 40
12.0
 40
13.0
 40
13.0
 40
13.0
 40
14.0
 40
14.0
 40
14.0
 40
15.0
 40
15.0
 40
15.0
 40
16.0
 40
16.0
 40
16.0
 40
17.0
 40
17.0
 40
17.0
 40
18.0
 40
18.0
 40
18.0
 40
19.0
 40
19.0
 40
19.0
 40
20.0
 40
20.0
 40
20.0
 40
21.0
 40
21.0
 40
21.0
 40
22.0
 40
22.0
 40
22.0
 40
23.0
 40
23.0
 40
23.0
 40
24.0
 40
24.0
 40
24.0
 40
25.0
 40
25.0
 40
25.0
 40
25.0
 10
313.1186997372585
 20
-206.4907551567107
 10
313.1186997372585
 20
-206.1731173529706
 10
313.1124985653851
 20
-205.9126681342857
 10
313.0932060306677
 20
-205.6587645970228
 10
313.0932060306677
 20
-205.6587645970228
 10
313.5824095895732
 20
-205.6587645970228
 10
313.5824095895732
 20
-205.6587645970228
 10
313.5824095895732
 20
-205.6587645970228
 10
313.607903296164
 20
-206.1541693278018
 10
313.607903296164
 20
-206.1541693278018
 10
313.607903296164
 20
-206.1541693278018
 10
313.6268513213329
 20
-206.1541693278018
 10
313.6268513213329
 20
-206.1541693278018
 10
313.7984170764983
 20
-205.8620252306526
 10
314.0840154922255
 20
-205.5888291586722
 10
314.5921670762998
 20
-205.5888291586722
 10
315.0114351968548
 20
-205.5888291586722
 10
315.3290730005948
 20
-205.8427326959352
 10
315.462398195874
 20
-206.2048122314349
 10
315.462398195874
 20
-206.2048122314349
 10
315.4751450491694
 20
-206.2048122314349
 10
315.4751450491694
 20
-206.2048122314349
 10
315.5705741941109
 20
-206.0332464762695
 10
315.6911525360947
 20
-205.8999212809903
 10
315.8182765595003
 20
-205.8048366455974
 10
316.0025891679612
 20
-205.6649657688963
 10
316.2058498015909
 20
-205.5888291586722
 10
316.4979938987401
 20
-205.5888291586722
 10
316.9045151659997
 20
-205.5888291586722
 10
317.5077513854668
 20
-205.8554795492306
 10
317.5077513854668
 20
-206.922770130561
 10
317.5077513854668
 20
-206.922770130561
 10
317.5077513854668
 20
-208.7328232985112
 10
317.5077513854668
 20
-208.7328232985112
 10
317.5077513854668
 20
-208.7328232985112
 10
316.9617037510547
 20
-208.7328232985112
 10
316.9617037510547
 20
-208.7328232985112
 10
316.9617037510547
 20
-208.7328232985112
 10
316.9617037510547
 20
-206.992361059363
 10
316.9617037510547
 20
-206.992361059363
 10
316.9617037510547
 20
-206.4018716931912
 10
316.7456962641295
 20
-206.0459933295649
 10
316.2947332651104
 20
-206.0459933295649
 10
315.9770954613703
 20
-206.0459933295649
 10
315.7293930959809
 20
-206.2809488416589
 10
315.6339639510394
 20
-206.5541449136392
 10
315.6084702444486
 20
-206.6302815238633
 10
315.5895222192797
 20
-206.7319118406782
 10
315.5895222192797
 20
-206.833542157493
 10
315.5895222192797
 20
-206.833542157493
 10
315.5895222192797
 20
-208.7328232985112
 10
315.5895222192797
 20
-208.7328232985112
 10
315.5895222192797
 20
-208.7328232985112
 10
315.0431300753191
 20
-208.7328232985112
 10
315.0431300753191
 20
-208.7328232985112
 10
315.0431300753191
 20
-208.7328232985112
 10
315.0431300753191
 20
-206.8907307425482
 10
315.0431300753191
 20
-206.8907307425482
 10
315.0431300753191
 20
-206.4018716931912
 10
314.8274670979426
 20
-206.0459933295649
 10
314.4016532959656
 20
-206.0459933295649
 10
314.0523206137613
 20
-206.0459933295649
 10
313.7984170764983
 20
-206.3253905734187
 10
313.7095336129789
 20
-206.605132326821
 10
313.677494224966
 20
-206.6874701089184
 10
313.6650918812192
 20
-206.7828992538599
 10
313.6650918812192
 20
-206.8783283988013
 10
313.6650918812192
 20
-206.8783283988013
 10
313.6650918812192
 20
-208.7328232985112
 10
313.6650918812192
 20
-208.7328232985112
 10
313.6650918812192
 20
-208.7328232985112
 10
313.1186997372585
 20
-208.7328232985112
 10
313.1186997372585
 20
-208.7328232985112
 10
313.1186997372585
 20
-208.7328232985112
 10
313.1186997372585
 20
-206.4907551567107
 10
313.1186997372585
 20
-206.4907551567107
 97
        0
 97
        0
 75
     2
 76
     1
 98
        0
450
        0
451
        0
460
0.0
461
0.0
452
        0
462
0.0
453
        0
470

  0
SPLINE
  5
2D6
330
2C4
100
AcDbEntity
  8
Livello 1
370
     0
100
AcDbSpline
210
0.0
220
0.0
230
1.0
 70
     9
 71
     3
 72
    80
 73
    76
 74
     0
 42
0.000000001
 43
0.0000000001
 40
0.0
 40
0.0
 40
0.0
 40
0.0
 40
1.0
 40
1.0
 40
1.0
 40
2.0
 40
2.0
 40
2.0
 40
3.0
 40
3.0
 40
3.0
 40
4.0
 40
4.0
 40
4.0
 40
5.0
 40
5.0
 40
5.0
 40
6.0
 40
6.0
 40
6.0
 40
7.0
 40
7.0
 40
7.0
 40
8.0
 40
8.0
 40
8.0
 40
9.0
 40
9.0
 40
9.0
 40
10.0
 40
10.0
 40
10.0
 40
11.0
 40
11.0
 40
11.0
 40
12.0
 40
12.0
 40
12.0
 40
13.0
 40
13.0
 40
13.0
 40
14.0
 40
14.0
 40
14.0
 40
15.0
 40
15.0
 40
15.0
 40
16.0
 40
16.0
 40
16.0
 40
17.0
 40
17.0
 40
17.0
 40
18.0
 40
18.0
 40
18.0
 40
19.0
 40
19.0
 40
19.0
 40
20.0
 40
20.0
 40
20.0
 40
21.0
 40
21.0
 40
21.0
 40
22.0
 40
22.0
 40
22.0
 40
23.0
 40
23.0
 40
23.0
 40
24.0
 40
24.0
 40
24.0
 40
25.0
 40
25.0
 40
25.0
 40
25.0
 10
318.4145005171846
 20
-206.4907551567107
 30
0.0
 10
318.4145005171846
 20
-206.1731173529706
 30
0.0
 10
318.4082993453111
 20
-205.9126681342857
 30
0.0
 10
318.3890068105937
 20
-205.6587645970228
 30
0.0
 10
318.3890068105937
 20
-205.6587645970228
 30
0.0
 10
318.8782103694992
 20
-205.6587645970228
 30
0.0
 10
318.8782103694992
 20
-205.6587645970228
 30
0.0
 10
318.8782103694992
 20
-205.6587645970228
 30
0.0
 10
318.90370407609
 20
-206.1541693278018
 30
0.0
 10
318.90370407609
 20
-206.1541693278018
 30
0.0
 10
318.90370407609
 20
-206.1541693278018
 30
0.0
 10
318.922652101259
 20
-206.1541693278018
 30
0.0
 10
318.922652101259
 20
-206.1541693278018
 30
0.0
 10
319.0942178564244
 20
-205.8620252306526
 30
0.0
 10
319.3798162721516
 20
-205.5888291586722
 30
0.0
 10
319.8879678562259
 20
-205.5888291586722
 30
0.0
 10
320.3072359767808
 20
-205.5888291586722
 30
0.0
 10
320.6247015257466
 20
-205.8427326959352
 30
0.0
 10
320.7580267210258
 20
-206.2048122314349
 30
0.0
 10
320.7580267210258
 20
-206.2048122314349
 30
0.0
 10
320.7707735743212
 20
-206.2048122314349
 30
0.0
 10
320.7707735743212
 20
-206.2048122314349
 30
0.0
 10
320.8662027192626
 20
-206.0332464762695
 30
0.0
 10
320.9867810612463
 20
-205.8999212809903
 30
0.0
 10
321.1139050846521
 20
-205.8048366455974
 30
0.0
 10
321.298217693113
 20
-205.6649657688963
 30
0.0
 10
321.5014783267427
 20
-205.5888291586722
 30
0.0
 10
321.7936224238919
 20
-205.5888291586722
 30
0.0
 10
322.2001436911514
 20
-205.5888291586722
 30
0.0
 10
322.8033799106186
 20
-205.8554795492306
 30
0.0
 10
322.8033799106186
 20
-206.922770130561
 30
0.0
 10
322.8033799106186
 20
-206.922770130561
 30
0.0
 10
322.8033799106186
 20
-208.7328232985112
 30
0.0
 10
322.8033799106186
 20
-208.7328232985112
 30
0.0
 10
322.8033799106186
 20
-208.7328232985112
 30
0.0
 10
322.2573322762065
 20
-208.7328232985112
 30
0.0
 10
322.2573322762065
 20
-208.7328232985112
 30
0.0
 10
322.2573322762065
 20
-208.7328232985112
 30
0.0
 10
322.2573322762065
 20
-206.992361059363
 30
0.0
 10
322.2573322762065
 20
-206.992361059363
 30
0.0
 10
322.2573322762065
 20
-206.4018716931912
 30
0.0
 10
322.0413247892814
 20
-206.0459933295649
 30
0.0
 10
321.5903617902621
 20
-206.0459933295649
 30
0.0
 10
321.2727239865221
 20
-206.0459933295649
 30
0.0
 10
321.0250216211326
 20
-206.2809488416589
 30
0.0
 10
320.9295924761912
 20
-206.5541449136392
 30
0.0
 10
320.9040987696003
 20
-206.6302815238633
 30
0.0
 10
320.8851507444315
 20
-206.7319118406782
 30
0.0
 10
320.8851507444315
 20
-206.833542157493
 30
0.0
 10
320.8851507444315
 20
-206.833542157493
 30
0.0
 10
320.8851507444315
 20
-208.7328232985112
 30
0.0
 10
320.8851507444315
 20
-208.7328232985112
 30
0.0
 10
320.8851507444315
 20
-208.7328232985112
 30
0.0
 10
320.3387586004709
 20
-208.7328232985112
 30
0.0
 10
320.3387586004709
 20
-208.7328232985112
 30
0.0
 10
320.3387586004709
 20
-208.7328232985112
 30
0.0
 10
320.3387586004709
 20
-206.8907307425482
 30
0.0
 10
320.3387586004709
 20
-206.8907307425482
 30
0.0
 10
320.3387586004709
 20
-206.4018716931912
 30
0.0
 10
320.1232678778685
 20
-206.0459933295649
 30
0.0
 10
319.6974540758916
 20
-206.0459933295649
 30
0.0
 10
319.3481213936873
 20
-206.0459933295649
 30
0.0
 10
319.0942178564244
 20
-206.3253905734187
 30
0.0
 10
319.005334392905
 20
-206.605132326821
 30
0.0
 10
318.9732950048921
 20
-206.6874701089184
 30
0.0
 10
318.9608926611452
 20
-206.7828992538599
 30
0.0
 10
318.9608926611452
 20
-206.8783283988013
 30
0.0
 10
318.9608926611452
 20
-206.8783283988013
 30
0.0
 10
318.9608926611452
 20
-208.7328232985112
 30
0.0
 10
318.9608926611452
 20
-208.7328232985112
 30
0.0
 10
318.9608926611452
 20
-208.7328232985112
 30
0.0
 10
318.4145005171846
 20
-208.7328232985112
 30
0.0
 10
318.4145005171846
 20
-208.7328232985112
 30
0.0
 10
318.4145005171846
 20
-208.7328232985112
 30
0.0
 10
318.4145005171846
 20
-206.4907551567107
 30
0.0
 10
318.4145005171846
 20
-206.4907551567107
 30
0.0
  0
HATCH
  5
2D7
330
2C4
100
AcDbEntity
  8
Livello 1
 62
   250
420
  1842203
100
AcDbHatch
 10
0.0
 20
0.0
 30
0.0
210
0.0
220
0.0
230
1.0
  2
SOLID
 70
     1
 71
     0
 91
        1
 92
        1
 93
        1
 72
     4
 94
        3
 73
     0
 74
     0
 95
       80
 96
       76
 40
0.0
 40
0.0
 40
0.0
 40
0.0
 40
1.0
 40
1.0
 40
1.0
 40
2.0
 40
2.0
 40
2.0
 40
3.0
 40
3.0
 40
3.0
 40
4.0
 40
4.0
 40
4.0
 40
5.0
 40
5.0
 40
5.0
 40
6.0
 40
6.0
 40
6.0
 40
7.0
 40
7.0
 40
7.0
 40
8.0
 40
8.0
 40
8.0
 40
9.0
 40
9.0
 40
9.0
 40
10.0
 40
10.0
 40
10.0
 40
11.0
 40
11.0
 40
11.0
 40
12.0
 40
12.0
 40
12.0
 40
13.0
 40
13.0
 40
13.0
 40
14.0
 40
14.0
 40
14.0
 40
15.0
 40
15.0
 40
15.0
 40
16.0
 40
16.0
 40
16.0
 40
17.0
 40
17.0
 40
17.0
 40
18.0
 40
18.0
 40
18.0
 40
19.0
 40
19.0
 40
19.0
 40
20.0
 40
20.0
 40
20.0
 40
21.0
 40
21.0
 40
21.0
 40
22.0
 40
22.0
 40
22.0
 40
23.0
 40
23.0
 40
23.0
 40
24.0
 40
24.0
 40
24.0
 40
25.0
 40
25.0
 40
25.0
 40
25.0
 10
318.4145005171846
 20
-206.4907551567107
 10
318.4145005171846
 20
-206.1731173529706
 10
318.4082993453111
 20
-205.9126681342857
 10
318.3890068105937
 20
-205.6587645970228
 10
318.3890068105937
 20
-205.6587645970228
 10
318.8782103694992
 20
-205.6587645970228
 10
318.8782103694992
 20
-205.6587645970228
 10
318.8782103694992
 20
-205.6587645970228
 10
318.90370407609
 20
-206.1541693278018
 10
318.90370407609
 20
-206.1541693278018
 10
318.90370407609
 20
-206.1541693278018
 10
318.922652101259
 20
-206.1541693278018
 10
318.922652101259
 20
-206.1541693278018
 10
319.0942178564244
 20
-205.8620252306526
 10
319.3798162721516
 20
-205.5888291586722
 10
319.8879678562259
 20
-205.5888291586722
 10
320.3072359767808
 20
-205.5888291586722
 10
320.6247015257466
 20
-205.8427326959352
 10
320.7580267210258
 20
-206.2048122314349
 10
320.7580267210258
 20
-206.2048122314349
 10
320.7707735743212
 20
-206.2048122314349
 10
320.7707735743212
 20
-206.2048122314349
 10
320.8662027192626
 20
-206.0332464762695
 10
320.9867810612463
 20
-205.8999212809903
 10
321.1139050846521
 20
-205.8048366455974
 10
321.298217693113
 20
-205.6649657688963
 10
321.5014783267427
 20
-205.5888291586722
 10
321.7936224238919
 20
-205.5888291586722
 10
322.2001436911514
 20
-205.5888291586722
 10
322.8033799106186
 20
-205.8554795492306
 10
322.8033799106186
 20
-206.922770130561
 10
322.8033799106186
 20
-206.922770130561
 10
322.8033799106186
 20
-208.7328232985112
 10
322.8033799106186
 20
-208.7328232985112
 10
322.8033799106186
 20
-208.7328232985112
 10
322.2573322762065
 20
-208.7328232985112
 10
322.2573322762065
 20
-208.7328232985112
 10
322.2573322762065
 20
-208.7328232985112
 10
322.2573322762065
 20
-206.992361059363
 10
322.2573322762065
 20
-206.992361059363
 10
322.2573322762065
 20
-206.4018716931912
 10
322.0413247892814
 20
-206.0459933295649
 10
321.5903617902621
 20
-206.0459933295649
 10
321.2727239865221
 20
-206.0459933295649
 10
321.0250216211326
 20
-206.2809488416589
 10
320.9295924761912
 20
-206.5541449136392
 10
320.9040987696003
 20
-206.6302815238633
 10
320.8851507444315
 20
-206.7319118406782
 10
320.8851507444315
 20
-206.833542157493
 10
320.8851507444315
 20
-206.833542157493
 10
320.8851507444315
 20
-208.7328232985112
 10
320.8851507444315
 20
-208.7328232985112
 10
320.8851507444315
 20
-208.7328232985112
 10
320.3387586004709
 20
-208.7328232985112
 10
320.3387586004709
 20
-208.7328232985112
 10
320.3387586004709
 20
-208.7328232985112
 10
320.3387586004709
 20
-206.8907307425482
 10
320.3387586004709
 20
-206.8907307425482
 10
320.3387586004709
 20
-206.4018716931912
 10
320.1232678778685
 20
-206.0459933295649
 10
319.6974540758916
 20
-206.0459933295649
 10
319.3481213936873
 20
-206.0459933295649
 10
319.0942178564244
 20
-206.3253905734187
 10
319.005334392905
 20
-206.605132326821
 10
318.9732950048921
 20
-206.6874701089184
 10
318.9608926611452
 20
-206.7828992538599
 10
318.9608926611452
 20
-206.8783283988013
 10
318.9608926611452
 20
-206.8783283988013
 10
318.9608926611452
 20
-208.7328232985112
 10
318.9608926611452
 20
-208.7328232985112
 10
318.9608926611452
 20
-208.7328232985112
 10
318.4145005171846
 20
-208.7328232985112
 10
318.4145005171846
 20
-208.7328232985112
 10
318.4145005171846
 20
-208.7328232985112
 10
318.4145005171846
 20
-206.4907551567107
 10
318.4145005171846
 20
-206.4907551567107
 97
        0
 97
        0
 75
     2
 76
     1
 98
        0
450
        0
451
        0
460
0.0
461
0.0
452
        0
462
0.0
453
        0
470

  0
ENDBLK
  5
2D8
330
2C4
100
AcDbEntity
  8
0
100
AcDbBlockEnd
  0
BLOCK
  5
2DA
330
2D9
100
AcDbEntity
  8
0
100
AcDbBlockBegin
  2
block 100
 70
     0
 10
0.0
 20
0.0
 30
0.0
  3
block 100
  1

  0
SPLINE
  5
2DB
330
2D9
100
AcDbEntity
  8
Livello 1
370
     0
100
AcDbSpline
210
0.0
220
0.0
230
1.0
 70
     9
 71
     3
 72
    59
 73
    55
 74
     0
 42
0.000000001
 43
0.0000000001
 40
0.0
 40
0.0
 40
0.0
 40
0.0
 40
1.0
 40
1.0
 40
1.0
 40
2.0
 40
2.0
 40
2.0
 40
3.0
 40
3.0
 40
3.0
 40
4.0
 40
4.0
 40
4.0
 40
5.0
 40
5.0
 40
5.0
 40
6.0
 40
6.0
 40
6.0
 40
7.0
 40
7.0
 40
7.0
 40
8.0
 40
8.0
 40
8.0
 40
9.0
 40
9.0
 40
9.0
 40
10.0
 40
10.0
 40
10.0
 40
11.0
 40
11.0
 40
11.0
 40
12.0
 40
12.0
 40
12.0
 40
13.0
 40
13.0
 40
13.0
 40
14.0
 40
14.0
 40
14.0
 40
15.0
 40
15.0
 40
15.0
 40
16.0
 40
16.0
 40
16.0
 40
17.0
 40
17.0
 40
17.0
 40
18.0
 40
18.0
 40
18.0
 40
18.0
 10
284.9894951001936
 20
-186.825116598259
 30
0.0
 10
285.0911254170085
 20
-186.666297696389
 30
0.0
 10
285.2497720641043
 20
-186.2980169890158
 30
0.0
 10
285.2497720641043
 20
-185.9104437469252
 30
0.0
 10
285.2497720641043
 20
-185.1928303573476
 30
0.0
 10
284.7926078932117
 20
-184.9702771890005
 30
0.0
 10
284.4494763828807
 20
-184.9768228704225
 30
0.0
 10
283.8715616152301
 20
-184.9830240422959
 30
0.0
 10
283.6236869950663
 20
-185.5039224796657
 30
0.0
 10
283.6236869950663
 20
-186.0437689422043
 30
0.0
 10
283.6236869950663
 20
-186.0437689422043
 30
0.0
 10
283.6236869950663
 20
-186.3552055740709
 30
0.0
 10
283.6236869950663
 20
-186.3552055740709
 30
0.0
 10
283.6236869950663
 20
-186.3552055740709
 30
0.0
 10
283.2045911292857
 20
-186.3552055740709
 30
0.0
 10
283.2045911292857
 20
-186.3552055740709
 30
0.0
 10
283.2045911292857
 20
-186.3552055740709
 30
0.0
 10
283.2045911292857
 20
-186.0437689422043
 30
0.0
 10
283.2045911292857
 20
-186.0437689422043
 30
0.0
 10
283.2045911292857
 20
-185.6372476749449
 30
0.0
 10
282.9949570690082
 20
-185.122894918997
 30
0.0
 10
282.5057535101027
 20
-185.122894918997
 30
0.0
 10
282.1755411078415
 20
-185.122894918997
 30
0.0
 10
281.8833970106924
 20
-185.3323567245002
 30
0.0
 10
281.8833970106924
 20
-185.8470539899966
 30
0.0
 10
281.8833970106924
 20
-186.1770941374835
 30
0.0
 10
282.0294690592669
 20
-186.4947319412235
 30
0.0
 10
282.1564208278984
 20
-186.672843377811
 30
0.0
 10
282.1564208278984
 20
-186.672843377811
 30
0.0
 10
281.7498995606389
 20
-186.8189154263856
 30
0.0
 10
281.7498995606389
 20
-186.8189154263856
 30
0.0
 10
281.5910806587689
 20
-186.6029079394604
 30
0.0
 10
281.4324340116731
 20
-186.1836398189055
 30
0.0
 10
281.4324340116731
 20
-185.7388779917597
 30
0.0
 10
281.4324340116731
 20
-184.9258354572408
 30
0.0
 10
281.9150918891567
 20
-184.5575547498676
 30
0.0
 10
282.4168700465833
 20
-184.5575547498676
 30
0.0
 10
282.8425115937859
 20
-184.5575547498676
 30
0.0
 10
283.2045911292857
 20
-184.8114582871305
 30
0.0
 10
283.3887314829723
 20
-185.3196098712048
 30
0.0
 10
283.3887314829723
 20
-185.3196098712048
 30
0.0
 10
283.4014783362677
 20
-185.3196098712048
 30
0.0
 10
283.4014783362677
 20
-185.3196098712048
 30
0.0
 10
283.5031086530826
 20
-184.8114582871305
 30
0.0
 10
283.8841362137511
 20
-184.3987358479976
 30
0.0
 10
284.4622232361761
 20
-184.3987358479976
 30
0.0
 10
285.1228202954728
 20
-184.3987358479976
 30
0.0
 10
285.7009073178977
 20
-184.9130886039453
 30
0.0
 10
285.7009073178977
 20
-185.9042425750517
 30
0.0
 10
285.7009073178977
 20
-186.3679524273664
 30
0.0
 10
285.5546630145489
 20
-186.7744736946258
 30
0.0
 10
285.4213378192697
 20
-186.9777343282556
 30
0.0
 10
285.4213378192697
 20
-186.9777343282556
 30
0.0
 10
284.9894951001936
 20
-186.825116598259
 30
0.0
 10
284.9894951001936
 20
-186.825116598259
 30
0.0
  0
HATCH
  5
2DC
330
2D9
100
AcDbEntity
  8
Livello 1
 62
   250
420
  1842203
100
AcDbHatch
 10
0.0
 20
0.0
 30
0.0
210
0.0
220
0.0
230
1.0
  2
SOLID
 70
     1
 71
     0
 91
        1
 92
        1
 93
        1
 72
     4
 94
        3
 73
     0
 74
     0
 95
       59
 96
       55
 40
0.0
 40
0.0
 40
0.0
 40
0.0
 40
1.0
 40
1.0
 40
1.0
 40
2.0
 40
2.0
 40
2.0
 40
3.0
 40
3.0
 40
3.0
 40
4.0
 40
4.0
 40
4.0
 40
5.0
 40
5.0
 40
5.0
 40
6.0
 40
6.0
 40
6.0
 40
7.0
 40
7.0
 40
7.0
 40
8.0
 40
8.0
 40
8.0
 40
9.0
 40
9.0
 40
9.0
 40
10.0
 40
10.0
 40
10.0
 40
11.0
 40
11.0
 40
11.0
 40
12.0
 40
12.0
 40
12.0
 40
13.0
 40
13.0
 40
13.0
 40
14.0
 40
14.0
 40
14.0
 40
15.0
 40
15.0
 40
15.0
 40
16.0
 40
16.0
 40
16.0
 40
17.0
 40
17.0
 40
17.0
 40
18.0
 40
18.0
 40
18.0
 40
18.0
 10
284.9894951001936
 20
-186.825116598259
 10
285.0911254170085
 20
-186.666297696389
 10
285.2497720641043
 20
-186.2980169890158
 10
285.2497720641043
 20
-185.9104437469252
 10
285.2497720641043
 20
-185.1928303573476
 10
284.7926078932117
 20
-184.9702771890005
 10
284.4494763828807
 20
-184.9768228704225
 10
283.8715616152301
 20
-184.9830240422959
 10
283.6236869950663
 20
-185.5039224796657
 10
283.6236869950663
 20
-186.0437689422043
 10
283.6236869950663
 20
-186.0437689422043
 10
283.6236869950663
 20
-186.3552055740709
 10
283.6236869950663
 20
-186.3552055740709
 10
283.6236869950663
 20
-186.3552055740709
 10
283.2045911292857
 20
-186.3552055740709
 10
283.2045911292857
 20
-186.3552055740709
 10
283.2045911292857
 20
-186.3552055740709
 10
283.2045911292857
 20
-186.0437689422043
 10
283.2045911292857
 20
-186.0437689422043
 10
283.2045911292857
 20
-185.6372476749449
 10
282.9949570690082
 20
-185.122894918997
 10
282.5057535101027
 20
-185.122894918997
 10
282.1755411078415
 20
-185.122894918997
 10
281.8833970106924
 20
-185.3323567245002
 10
281.8833970106924
 20
-185.8470539899966
 10
281.8833970106924
 20
-186.1770941374835
 10
282.0294690592669
 20
-186.4947319412235
 10
282.1564208278984
 20
-186.672843377811
 10
282.1564208278984
 20
-186.672843377811
 10
281.7498995606389
 20
-186.8189154263856
 10
281.7498995606389
 20
-186.8189154263856
 10
281.5910806587689
 20
-186.6029079394604
 10
281.4324340116731
 20
-186.1836398189055
 10
281.4324340116731
 20
-185.7388779917597
 10
281.4324340116731
 20
-184.9258354572408
 10
281.9150918891567
 20
-184.5575547498676
 10
282.4168700465833
 20
-184.5575547498676
 10
282.8425115937859
 20
-184.5575547498676
 10
283.2045911292857
 20
-184.8114582871305
 10
283.3887314829723
 20
-185.3196098712048
 10
283.3887314829723
 20
-185.3196098712048
 10
283.4014783362677
 20
-185.3196098712048
 10
283.4014783362677
 20
-185.3196098712048
 10
283.5031086530826
 20
-184.8114582871305
 10
283.8841362137511
 20
-184.3987358479976
 10
284.4622232361761
 20
-184.3987358479976
 10
285.1228202954728
 20
-184.3987358479976
 10
285.7009073178977
 20
-184.9130886039453
 10
285.7009073178977
 20
-185.9042425750517
 10
285.7009073178977
 20
-186.3679524273664
 10
285.5546630145489
 20
-186.7744736946258
 10
285.4213378192697
 20
-186.9777343282556
 10
285.4213378192697
 20
-186.9777343282556
 10
284.9894951001936
 20
-186.825116598259
 10
284.9894951001936
 20
-186.825116598259
 97
        0
 97
        0
 75
     2
 76
     1
 98
        0
450
        0
451
        0
460
0.0
461
0.0
452
        0
462
0.0
453
        0
470

  0
POLYLINE
  5
2DD
330
2D9
100
AcDbEntity
  8
Livello 1
370
     0
100
AcDb2dPolyline
 66
     1
 10
0.0
 20
0.0
 30
0.0
  0
VERTEX
  5
2DE
330
2DD
100
AcDbEntity
  8
Livello 1
370
     0
100
AcDbVertex
100
AcDb2dVertex
 10
282.0230956326192
 20
-182.488085891878
 30
0.0
  0
VERTEX
  5
2DF
330
2DD
100
AcDbEntity
  8
Livello 1
370
     0
100
AcDbVertex
100
AcDb2dVertex
 10
282.0230956326192
 20
-182.5008327451734
 30
0.0
  0
VERTEX
  5
2E0
330
2DD
100
AcDbEntity
  8
Livello 1
370
     0
100
AcDbVertex
100
AcDb2dVertex
 10
282.4104966199356
 20
-183.218446134751
 30
0.0
  0
VERTEX
  5
2E1
330
2DD
100
AcDbEntity
  8
Livello 1
370
     0
100
AcDbVertex
100
AcDb2dVertex
 10
281.9850273275072
 20
-183.3266221329878
 30
0.0
  0
VERTEX
  5
2E2
330
2DD
100
AcDbEntity
  8
Livello 1
370
     0
100
AcDbVertex
100
AcDb2dVertex
 10
281.5021971952494
 20
-182.4243516254009
 30
0.0
  0
VERTEX
  5
2E3
330
2DD
100
AcDbEntity
  8
Livello 1
370
     0
100
AcDbVertex
100
AcDb2dVertex
 10
281.5021971952494
 20
-181.9482394293393
 30
0.0
  0
VERTEX
  5
2E4
330
2DD
100
AcDbEntity
  8
Livello 1
370
     0
100
AcDbVertex
100
AcDb2dVertex
 10
285.6309718795472
 20
-181.9482394293393
 30
0.0
  0
VERTEX
  5
2E5
330
2DD
100
AcDbEntity
  8
Livello 1
370
     0
100
AcDbVertex
100
AcDb2dVertex
 10
285.6309718795472
 20
-182.488085891878
 30
0.0
  0
VERTEX
  5
2E6
330
2DD
100
AcDbEntity
  8
Livello 1
370
     0
100
AcDbVertex
100
AcDb2dVertex
 10
282.0230956326192
 20
-182.488085891878
 30
0.0
  0
SEQEND
  5
2E7
330
2DD
100
AcDbEntity
  8
Livello 1
370
     0
  0
HATCH
  5
2E8
330
2D9
100
AcDbEntity
  8
Livello 1
 62
   250
420
  1842203
100
AcDbHatch
 10
0.0
 20
0.0
 30
0.0
210
0.0
220
0.0
230
1.0
  2
SOLID
 70
     1
 71
     0
 91
        1
 92
        1
 93
        8
 72
     1
 10
282.0230956326192
 20
-182.488085891878
 11
282.0230956326192
 21
-182.5008327451734
 72
     1
 10
282.0230956326192
 20
-182.5008327451734
 11
282.4104966199356
 21
-183.218446134751
 72
     1
 10
282.4104966199356
 20
-183.218446134751
 11
281.9850273275072
 21
-183.3266221329878
 72
     1
 10
281.9850273275072
 20
-183.3266221329878
 11
281.5021971952494
 21
-182.4243516254009
 72
     1
 10
281.5021971952494
 20
-182.4243516254009
 11
281.5021971952494
 21
-181.9482394293393
 72
     1
 10
281.5021971952494
 20
-181.9482394293393
 11
285.6309718795472
 21
-181.9482394293393
 72
     1
 10
285.6309718795472
 20
-181.9482394293393
 11
285.6309718795472
 21
-182.488085891878
 72
     1
 10
285.6309718795472
 20
-182.488085891878
 11
282.0230956326192
 21
-182.488085891878
 97
        0
 75
     2
 76
     1
 98
        0
450
        0
451
        0
460
0.0
461
0.0
452
        0
462
0.0
453
        0
470

  0
SPLINE
  5
2E9
330
2D9
100
AcDbEntity
  8
Livello 1
370
     0
100
AcDbSpline
210
0.0
220
0.0
230
1.0
 70
     9
 71
     3
 72
    80
 73
    76
 74
     0
 42
0.000000001
 43
0.0000000001
 40
0.0
 40
0.0
 40
0.0
 40
0.0
 40
1.0
 40
1.0
 40
1.0
 40
2.0
 40
2.0
 40
2.0
 40
3.0
 40
3.0
 40
3.0
 40
4.0
 40
4.0
 40
4.0
 40
5.0
 40
5.0
 40
5.0
 40
6.0
 40
6.0
 40
6.0
 40
7.0
 40
7.0
 40
7.0
 40
8.0
 40
8.0
 40
8.0
 40
9.0
 40
9.0
 40
9.0
 40
10.0
 40
10.0
 40
10.0
 40
11.0
 40
11.0
 40
11.0
 40
12.0
 40
12.0
 40
12.0
 40
13.0
 40
13.0
 40
13.0
 40
14.0
 40
14.0
 40
14.0
 40
15.0
 40
15.0
 40
15.0
 40
16.0
 40
16.0
 40
16.0
 40
17.0
 40
17.0
 40
17.0
 40
18.0
 40
18.0
 40
18.0
 40
19.0
 40
19.0
 40
19.0
 40
20.0
 40
20.0
 40
20.0
 40
21.0
 40
21.0
 40
21.0
 40
22.0
 40
22.0
 40
22.0
 40
23.0
 40
23.0
 40
23.0
 40
24.0
 40
24.0
 40
24.0
 40
25.0
 40
25.0
 40
25.0
 40
25.0
 10
283.3887314829723
 20
-178.9196559882562
 30
0.0
 10
283.0710936792323
 20
-178.9196559882562
 30
0.0
 10
282.8106444605473
 20
-178.9258571601297
 30
0.0
 10
282.5567409232845
 20
-178.9451496948471
 30
0.0
 10
282.5567409232845
 20
-178.9451496948471
 30
0.0
 10
282.5567409232845
 20
-178.4559461359416
 30
0.0
 10
282.5567409232845
 20
-178.4559461359416
 30
0.0
 10
282.5567409232845
 20
-178.4559461359416
 30
0.0
 10
283.0521456540633
 20
-178.4304524293507
 30
0.0
 10
283.0521456540633
 20
-178.4304524293507
 30
0.0
 10
283.0521456540633
 20
-178.4304524293507
 30
0.0
 10
283.0521456540633
 20
-178.4115044041818
 30
0.0
 10
283.0521456540633
 20
-178.4115044041818
 30
0.0
 10
282.7600015569142
 20
-178.2399386490164
 30
0.0
 10
282.4868054849339
 20
-177.9543402332891
 30
0.0
 10
282.4868054849339
 20
-177.4461886492149
 30
0.0
 10
282.4868054849339
 20
-177.02692052866
 30
0.0
 10
282.740881276971
 20
-176.7092827249198
 30
0.0
 10
283.1029608124708
 20
-176.5759575296407
 30
0.0
 10
283.1029608124708
 20
-176.5759575296407
 30
0.0
 10
283.1029608124708
 20
-176.5632106763453
 30
0.0
 10
283.1029608124708
 20
-176.5632106763453
 30
0.0
 10
282.9313950573053
 20
-176.4677815314039
 30
0.0
 10
282.7980698620262
 20
-176.3472031894202
 30
0.0
 10
282.702812971859
 20
-176.2200791660144
 30
0.0
 10
282.5629420951579
 20
-176.0357665575536
 30
0.0
 10
282.4868054849339
 20
-175.8325059239238
 30
0.0
 10
282.4868054849339
 20
-175.5403618267746
 30
0.0
 10
282.4868054849339
 20
-175.1338405595152
 30
0.0
 10
282.7536281302665
 20
-174.5306043400479
 30
0.0
 10
283.8207464568226
 20
-174.5306043400479
 30
0.0
 10
283.8207464568226
 20
-174.5306043400479
 30
0.0
 10
285.6309718795472
 20
-174.5306043400479
 30
0.0
 10
285.6309718795472
 20
-174.5306043400479
 30
0.0
 10
285.6309718795472
 20
-174.5306043400479
 30
0.0
 10
285.6309718795472
 20
-175.07665197446
 30
0.0
 10
285.6309718795472
 20
-175.07665197446
 30
0.0
 10
285.6309718795472
 20
-175.07665197446
 30
0.0
 10
283.8905096403989
 20
-175.07665197446
 30
0.0
 10
283.8905096403989
 20
-175.07665197446
 30
0.0
 10
283.2998480194529
 20
-175.07665197446
 30
0.0
 10
282.9441419106008
 20
-175.2926594613852
 30
0.0
 10
282.9441419106008
 20
-175.7436224604044
 30
0.0
 10
282.9441419106008
 20
-176.0612602641444
 30
0.0
 10
283.1790974226948
 20
-176.3089626295339
 30
0.0
 10
283.4522934946751
 20
-176.4043917744753
 30
0.0
 10
283.5284301048992
 20
-176.4298854810661
 30
0.0
 10
283.630060421714
 20
-176.448833506235
 30
0.0
 10
283.7316907385289
 20
-176.448833506235
 30
0.0
 10
283.7316907385289
 20
-176.448833506235
 30
0.0
 10
285.6309718795472
 20
-176.448833506235
 30
0.0
 10
285.6309718795472
 20
-176.448833506235
 30
0.0
 10
285.6309718795472
 20
-176.448833506235
 30
0.0
 10
285.6309718795472
 20
-176.9952256501956
 30
0.0
 10
285.6309718795472
 20
-176.9952256501956
 30
0.0
 10
285.6309718795472
 20
-176.9952256501956
 30
0.0
 10
283.7888793235841
 20
-176.9952256501956
 30
0.0
 10
283.7888793235841
 20
-176.9952256501956
 30
0.0
 10
283.2998480194529
 20
-176.9952256501956
 30
0.0
 10
282.9441419106008
 20
-177.2108886275723
 30
0.0
 10
282.9441419106008
 20
-177.6367024295492
 30
0.0
 10
282.9441419106008
 20
-177.9860351117535
 30
0.0
 10
283.2235391544546
 20
-178.2399386490164
 30
0.0
 10
283.5031086530826
 20
-178.3288221125358
 30
0.0
 10
283.5856186899543
 20
-178.3608615005487
 30
0.0
 10
283.6808755801214
 20
-178.3732638442955
 30
0.0
 10
283.7763047250629
 20
-178.3732638442955
 30
0.0
 10
283.7763047250629
 20
-178.3732638442955
 30
0.0
 10
285.6309718795472
 20
-178.3732638442955
 30
0.0
 10
285.6309718795472
 20
-178.3732638442955
 30
0.0
 10
285.6309718795472
 20
-178.3732638442955
 30
0.0
 10
285.6309718795472
 20
-178.9196559882562
 30
0.0
 10
285.6309718795472
 20
-178.9196559882562
 30
0.0
 10
285.6309718795472
 20
-178.9196559882562
 30
0.0
 10
283.3887314829723
 20
-178.9196559882562
 30
0.0
 10
283.3887314829723
 20
-178.9196559882562
 30
0.0
  0
HATCH
  5
2EA
330
2D9
100
AcDbEntity
  8
Livello 1
 62
   250
420
  1842203
100
AcDbHatch
 10
0.0
 20
0.0
 30
0.0
210
0.0
220
0.0
230
1.0
  2
SOLID
 70
     1
 71
     0
 91
        1
 92
        1
 93
        1
 72
     4
 94
        3
 73
     0
 74
     0
 95
       80
 96
       76
 40
0.0
 40
0.0
 40
0.0
 40
0.0
 40
1.0
 40
1.0
 40
1.0
 40
2.0
 40
2.0
 40
2.0
 40
3.0
 40
3.0
 40
3.0
 40
4.0
 40
4.0
 40
4.0
 40
5.0
 40
5.0
 40
5.0
 40
6.0
 40
6.0
 40
6.0
 40
7.0
 40
7.0
 40
7.0
 40
8.0
 40
8.0
 40
8.0
 40
9.0
 40
9.0
 40
9.0
 40
10.0
 40
10.0
 40
10.0
 40
11.0
 40
11.0
 40
11.0
 40
12.0
 40
12.0
 40
12.0
 40
13.0
 40
13.0
 40
13.0
 40
14.0
 40
14.0
 40
14.0
 40
15.0
 40
15.0
 40
15.0
 40
16.0
 40
16.0
 40
16.0
 40
17.0
 40
17.0
 40
17.0
 40
18.0
 40
18.0
 40
18.0
 40
19.0
 40
19.0
 40
19.0
 40
20.0
 40
20.0
 40
20.0
 40
21.0
 40
21.0
 40
21.0
 40
22.0
 40
22.0
 40
22.0
 40
23.0
 40
23.0
 40
23.0
 40
24.0
 40
24.0
 40
24.0
 40
25.0
 40
25.0
 40
25.0
 40
25.0
 10
283.3887314829723
 20
-178.9196559882562
 10
283.0710936792323
 20
-178.9196559882562
 10
282.8106444605473
 20
-178.9258571601297
 10
282.5567409232845
 20
-178.9451496948471
 10
282.5567409232845
 20
-178.9451496948471
 10
282.5567409232845
 20
-178.4559461359416
 10
282.5567409232845
 20
-178.4559461359416
 10
282.5567409232845
 20
-178.4559461359416
 10
283.0521456540633
 20
-178.4304524293507
 10
283.0521456540633
 20
-178.4304524293507
 10
283.0521456540633
 20
-178.4304524293507
 10
283.0521456540633
 20
-178.4115044041818
 10
283.0521456540633
 20
-178.4115044041818
 10
282.7600015569142
 20
-178.2399386490164
 10
282.4868054849339
 20
-177.9543402332891
 10
282.4868054849339
 20
-177.4461886492149
 10
282.4868054849339
 20
-177.02692052866
 10
282.740881276971
 20
-176.7092827249198
 10
283.1029608124708
 20
-176.5759575296407
 10
283.1029608124708
 20
-176.5759575296407
 10
283.1029608124708
 20
-176.5632106763453
 10
283.1029608124708
 20
-176.5632106763453
 10
282.9313950573053
 20
-176.4677815314039
 10
282.7980698620262
 20
-176.3472031894202
 10
282.702812971859
 20
-176.2200791660144
 10
282.5629420951579
 20
-176.0357665575536
 10
282.4868054849339
 20
-175.8325059239238
 10
282.4868054849339
 20
-175.5403618267746
 10
282.4868054849339
 20
-175.1338405595152
 10
282.7536281302665
 20
-174.5306043400479
 10
283.8207464568226
 20
-174.5306043400479
 10
283.8207464568226
 20
-174.5306043400479
 10
285.6309718795472
 20
-174.5306043400479
 10
285.6309718795472
 20
-174.5306043400479
 10
285.6309718795472
 20
-174.5306043400479
 10
285.6309718795472
 20
-175.07665197446
 10
285.6309718795472
 20
-175.07665197446
 10
285.6309718795472
 20
-175.07665197446
 10
283.8905096403989
 20
-175.07665197446
 10
283.8905096403989
 20
-175.07665197446
 10
283.2998480194529
 20
-175.07665197446
 10
282.9441419106008
 20
-175.2926594613852
 10
282.9441419106008
 20
-175.7436224604044
 10
282.9441419106008
 20
-176.0612602641444
 10
283.1790974226948
 20
-176.3089626295339
 10
283.4522934946751
 20
-176.4043917744753
 10
283.5284301048992
 20
-176.4298854810661
 10
283.630060421714
 20
-176.448833506235
 10
283.7316907385289
 20
-176.448833506235
 10
283.7316907385289
 20
-176.448833506235
 10
285.6309718795472
 20
-176.448833506235
 10
285.6309718795472
 20
-176.448833506235
 10
285.6309718795472
 20
-176.448833506235
 10
285.6309718795472
 20
-176.9952256501956
 10
285.6309718795472
 20
-176.9952256501956
 10
285.6309718795472
 20
-176.9952256501956
 10
283.7888793235841
 20
-176.9952256501956
 10
283.7888793235841
 20
-176.9952256501956
 10
283.2998480194529
 20
-176.9952256501956
 10
282.9441419106008
 20
-177.2108886275723
 10
282.9441419106008
 20
-177.6367024295492
 10
282.9441419106008
 20
-177.9860351117535
 10
283.2235391544546
 20
-178.2399386490164
 10
283.5031086530826
 20
-178.3288221125358
 10
283.5856186899543
 20
-178.3608615005487
 10
283.6808755801214
 20
-178.3732638442955
 10
283.7763047250629
 20
-178.3732638442955
 10
283.7763047250629
 20
-178.3732638442955
 10
285.6309718795472
 20
-178.3732638442955
 10
285.6309718795472
 20
-178.3732638442955
 10
285.6309718795472
 20
-178.3732638442955
 10
285.6309718795472
 20
-178.9196559882562
 10
285.6309718795472
 20
-178.9196559882562
 10
285.6309718795472
 20
-178.9196559882562
 10
283.3887314829723
 20
-178.9196559882562
 10
283.3887314829723
 20
-178.9196559882562
 97
        0
 97
        0
 75
     2
 76
     1
 98
        0
450
        0
451
        0
460
0.0
461
0.0
452
        0
462
0.0
453
        0
470

  0
SPLINE
  5
2EB
330
2D9
100
AcDbEntity
  8
Livello 1
370
     0
100
AcDbSpline
210
0.0
220
0.0
230
1.0
 70
     9
 71
     3
 72
    80
 73
    76
 74
     0
 42
0.000000001
 43
0.0000000001
 40
0.0
 40
0.0
 40
0.0
 40
0.0
 40
1.0
 40
1.0
 40
1.0
 40
2.0
 40
2.0
 40
2.0
 40
3.0
 40
3.0
 40
3.0
 40
4.0
 40
4.0
 40
4.0
 40
5.0
 40
5.0
 40
5.0
 40
6.0
 40
6.0
 40
6.0
 40
7.0
 40
7.0
 40
7.0
 40
8.0
 40
8.0
 40
8.0
 40
9.0
 40
9.0
 40
9.0
 40
10.0
 40
10.0
 40
10.0
 40
11.0
 40
11.0
 40
11.0
 40
12.0
 40
12.0
 40
12.0
 40
13.0
 40
13.0
 40
13.0
 40
14.0
 40
14.0
 40
14.0
 40
15.0
 40
15.0
 40
15.0
 40
16.0
 40
16.0
 40
16.0
 40
17.0
 40
17.0
 40
17.0
 40
18.0
 40
18.0
 40
18.0
 40
19.0
 40
19.0
 40
19.0
 40
20.0
 40
20.0
 40
20.0
 40
21.0
 40
21.0
 40
21.0
 40
22.0
 40
22.0
 40
22.0
 40
23.0
 40
23.0
 40
23.0
 40
24.0
 40
24.0
 40
24.0
 40
25.0
 40
25.0
 40
25.0
 40
25.0
 10
283.3887314829723
 20
-173.6238552083302
 30
0.0
 10
283.0710936792323
 20
-173.6238552083302
 30
0.0
 10
282.8106444605473
 20
-173.6300563802036
 30
0.0
 10
282.5567409232845
 20
-173.649348914921
 30
0.0
 10
282.5567409232845
 20
-173.649348914921
 30
0.0
 10
282.5567409232845
 20
-173.1601453560155
 30
0.0
 10
282.5567409232845
 20
-173.1601453560155
 30
0.0
 10
282.5567409232845
 20
-173.1601453560155
 30
0.0
 10
283.0521456540633
 20
-173.1346516494247
 30
0.0
 10
283.0521456540633
 20
-173.1346516494247
 30
0.0
 10
283.0521456540633
 20
-173.1346516494247
 30
0.0
 10
283.0521456540633
 20
-173.1157036242558
 30
0.0
 10
283.0521456540633
 20
-173.1157036242558
 30
0.0
 10
282.7600015569142
 20
-172.9441378690904
 30
0.0
 10
282.4868054849339
 20
-172.658539453363
 30
0.0
 10
282.4868054849339
 20
-172.1503878692888
 30
0.0
 10
282.4868054849339
 20
-171.7311197487339
 30
0.0
 10
282.740881276971
 20
-171.4134819449939
 30
0.0
 10
283.1029608124708
 20
-171.2801567497147
 30
0.0
 10
283.1029608124708
 20
-171.2801567497147
 30
0.0
 10
283.1029608124708
 20
-171.2674098964193
 30
0.0
 10
283.1029608124708
 20
-171.2674098964193
 30
0.0
 10
282.9313950573053
 20
-171.1719807514778
 30
0.0
 10
282.7980698620262
 20
-171.0514024094941
 30
0.0
 10
282.702812971859
 20
-170.9242783860884
 30
0.0
 10
282.5629420951579
 20
-170.7399657776275
 30
0.0
 10
282.4868054849339
 20
-170.5367051439978
 30
0.0
 10
282.4868054849339
 20
-170.2445610468486
 30
0.0
 10
282.4868054849339
 20
-169.8380397795891
 30
0.0
 10
282.7536281302665
 20
-169.2348035601219
 30
0.0
 10
283.8207464568226
 20
-169.2348035601219
 30
0.0
 10
283.8207464568226
 20
-169.2348035601219
 30
0.0
 10
285.6309718795472
 20
-169.2348035601219
 30
0.0
 10
285.6309718795472
 20
-169.2348035601219
 30
0.0
 10
285.6309718795472
 20
-169.2348035601219
 30
0.0
 10
285.6309718795472
 20
-169.780851194534
 30
0.0
 10
285.6309718795472
 20
-169.780851194534
 30
0.0
 10
285.6309718795472
 20
-169.780851194534
 30
0.0
 10
283.8905096403989
 20
-169.780851194534
 30
0.0
 10
283.8905096403989
 20
-169.780851194534
 30
0.0
 10
283.2998480194529
 20
-169.780851194534
 30
0.0
 10
282.9441419106008
 20
-169.9968586814591
 30
0.0
 10
282.9441419106008
 20
-170.4478216804783
 30
0.0
 10
282.9441419106008
 20
-170.7654594842184
 30
0.0
 10
283.1790974226948
 20
-171.0131618496078
 30
0.0
 10
283.4522934946751
 20
-171.1085909945492
 30
0.0
 10
283.5284301048992
 20
-171.1340847011401
 30
0.0
 10
283.630060421714
 20
-171.153032726309
 30
0.0
 10
283.7316907385289
 20
-171.153032726309
 30
0.0
 10
283.7316907385289
 20
-171.153032726309
 30
0.0
 10
285.6309718795472
 20
-171.153032726309
 30
0.0
 10
285.6309718795472
 20
-171.153032726309
 30
0.0
 10
285.6309718795472
 20
-171.153032726309
 30
0.0
 10
285.6309718795472
 20
-171.6994248702696
 30
0.0
 10
285.6309718795472
 20
-171.6994248702696
 30
0.0
 10
285.6309718795472
 20
-171.6994248702696
 30
0.0
 10
283.7888793235841
 20
-171.6994248702696
 30
0.0
 10
283.7888793235841
 20
-171.6994248702696
 30
0.0
 10
283.2998480194529
 20
-171.6994248702696
 30
0.0
 10
282.9441419106008
 20
-171.9150878476462
 30
0.0
 10
282.9441419106008
 20
-172.3409016496231
 30
0.0
 10
282.9441419106008
 20
-172.6902343318274
 30
0.0
 10
283.2235391544546
 20
-172.9441378690904
 30
0.0
 10
283.5031086530826
 20
-173.0330213326098
 30
0.0
 10
283.5856186899543
 20
-173.0650607206226
 30
0.0
 10
283.6808755801214
 20
-173.0774630643695
 30
0.0
 10
283.7763047250629
 20
-173.0774630643695
 30
0.0
 10
283.7763047250629
 20
-173.0774630643695
 30
0.0
 10
285.6309718795472
 20
-173.0774630643695
 30
0.0
 10
285.6309718795472
 20
-173.0774630643695
 30
0.0
 10
285.6309718795472
 20
-173.0774630643695
 30
0.0
 10
285.6309718795472
 20
-173.6238552083302
 30
0.0
 10
285.6309718795472
 20
-173.6238552083302
 30
0.0
 10
285.6309718795472
 20
-173.6238552083302
 30
0.0
 10
283.3887314829723
 20
-173.6238552083302
 30
0.0
 10
283.3887314829723
 20
-173.6238552083302
 30
0.0
  0
HATCH
  5
2EC
330
2D9
100
AcDbEntity
  8
Livello 1
 62
   250
420
  1842203
100
AcDbHatch
 10
0.0
 20
0.0
 30
0.0
210
0.0
220
0.0
230
1.0
  2
SOLID
 70
     1
 71
     0
 91
        1
 92
        1
 93
        1
 72
     4
 94
        3
 73
     0
 74
     0
 95
       80
 96
       76
 40
0.0
 40
0.0
 40
0.0
 40
0.0
 40
1.0
 40
1.0
 40
1.0
 40
2.0
 40
2.0
 40
2.0
 40
3.0
 40
3.0
 40
3.0
 40
4.0
 40
4.0
 40
4.0
 40
5.0
 40
5.0
 40
5.0
 40
6.0
 40
6.0
 40
6.0
 40
7.0
 40
7.0
 40
7.0
 40
8.0
 40
8.0
 40
8.0
 40
9.0
 40
9.0
 40
9.0
 40
10.0
 40
10.0
 40
10.0
 40
11.0
 40
11.0
 40
11.0
 40
12.0
 40
12.0
 40
12.0
 40
13.0
 40
13.0
 40
13.0
 40
14.0
 40
14.0
 40
14.0
 40
15.0
 40
15.0
 40
15.0
 40
16.0
 40
16.0
 40
16.0
 40
17.0
 40
17.0
 40
17.0
 40
18.0
 40
18.0
 40
18.0
 40
19.0
 40
19.0
 40
19.0
 40
20.0
 40
20.0
 40
20.0
 40
21.0
 40
21.0
 40
21.0
 40
22.0
 40
22.0
 40
22.0
 40
23.0
 40
23.0
 40
23.0
 40
24.0
 40
24.0
 40
24.0
 40
25.0
 40
25.0
 40
25.0
 40
25.0
 10
283.3887314829723
 20
-173.6238552083302
 10
283.0710936792323
 20
-173.6238552083302
 10
282.8106444605473
 20
-173.6300563802036
 10
282.5567409232845
 20
-173.649348914921
 10
282.5567409232845
 20
-173.649348914921
 10
282.5567409232845
 20
-173.1601453560155
 10
282.5567409232845
 20
-173.1601453560155
 10
282.5567409232845
 20
-173.1601453560155
 10
283.0521456540633
 20
-173.1346516494247
 10
283.0521456540633
 20
-173.1346516494247
 10
283.0521456540633
 20
-173.1346516494247
 10
283.0521456540633
 20
-173.1157036242558
 10
283.0521456540633
 20
-173.1157036242558
 10
282.7600015569142
 20
-172.9441378690904
 10
282.4868054849339
 20
-172.658539453363
 10
282.4868054849339
 20
-172.1503878692888
 10
282.4868054849339
 20
-171.7311197487339
 10
282.740881276971
 20
-171.4134819449939
 10
283.1029608124708
 20
-171.2801567497147
 10
283.1029608124708
 20
-171.2801567497147
 10
283.1029608124708
 20
-171.2674098964193
 10
283.1029608124708
 20
-171.2674098964193
 10
282.9313950573053
 20
-171.1719807514778
 10
282.7980698620262
 20
-171.0514024094941
 10
282.702812971859
 20
-170.9242783860884
 10
282.5629420951579
 20
-170.7399657776275
 10
282.4868054849339
 20
-170.5367051439978
 10
282.4868054849339
 20
-170.2445610468486
 10
282.4868054849339
 20
-169.8380397795891
 10
282.7536281302665
 20
-169.2348035601219
 10
283.8207464568226
 20
-169.2348035601219
 10
283.8207464568226
 20
-169.2348035601219
 10
285.6309718795472
 20
-169.2348035601219
 10
285.6309718795472
 20
-169.2348035601219
 10
285.6309718795472
 20
-169.2348035601219
 10
285.6309718795472
 20
-169.780851194534
 10
285.6309718795472
 20
-169.780851194534
 10
285.6309718795472
 20
-169.780851194534
 10
283.8905096403989
 20
-169.780851194534
 10
283.8905096403989
 20
-169.780851194534
 10
283.2998480194529
 20
-169.780851194534
 10
282.9441419106008
 20
-169.9968586814591
 10
282.9441419106008
 20
-170.4478216804783
 10
282.9441419106008
 20
-170.7654594842184
 10
283.1790974226948
 20
-171.0131618496078
 10
283.4522934946751
 20
-171.1085909945492
 10
283.5284301048992
 20
-171.1340847011401
 10
283.630060421714
 20
-171.153032726309
 10
283.7316907385289
 20
-171.153032726309
 10
283.7316907385289
 20
-171.153032726309
 10
285.6309718795472
 20
-171.153032726309
 10
285.6309718795472
 20
-171.153032726309
 10
285.6309718795472
 20
-171.153032726309
 10
285.6309718795472
 20
-171.6994248702696
 10
285.6309718795472
 20
-171.6994248702696
 10
285.6309718795472
 20
-171.6994248702696
 10
283.7888793235841
 20
-171.6994248702696
 10
283.7888793235841
 20
-171.6994248702696
 10
283.2998480194529
 20
-171.6994248702696
 10
282.9441419106008
 20
-171.9150878476462
 10
282.9441419106008
 20
-172.3409016496231
 10
282.9441419106008
 20
-172.6902343318274
 10
283.2235391544546
 20
-172.9441378690904
 10
283.5031086530826
 20
-173.0330213326098
 10
283.5856186899543
 20
-173.0650607206226
 10
283.6808755801214
 20
-173.0774630643695
 10
283.7763047250629
 20
-173.0774630643695
 10
283.7763047250629
 20
-173.0774630643695
 10
285.6309718795472
 20
-173.0774630643695
 10
285.6309718795472
 20
-173.0774630643695
 10
285.6309718795472
 20
-173.0774630643695
 10
285.6309718795472
 20
-173.6238552083302
 10
285.6309718795472
 20
-173.6238552083302
 10
285.6309718795472
 20
-173.6238552083302
 10
283.3887314829723
 20
-173.6238552083302
 10
283.3887314829723
 20
-173.6238552083302
 97
        0
 97
        0
 75
     2
 76
     1
 98
        0
450
        0
451
        0
460
0.0
461
0.0
452
        0
462
0.0
453
        0
470

  0
ENDBLK
  5
2ED
330
2D9
100
AcDbEntity
  8
0
100
AcDbBlockEnd
  0
ENDSEC
  0
SECTION
  2
ENTITIES
  0
SPLINE
  5
348
330
1F
100
AcDbEntity
  8
Livello 1
100
AcDbSpline
210
0.0
220
0.0
230
1.0
 70
     8
 71
     3
 72
    20
 73
    16
 74
     0
 42
0.000000001
 43
0.0000000001
 40
0.0
 40
0.0
 40
0.0
 40
0.0
 40
1.0
 40
1.0
 40
1.0
 40
2.0
 40
2.0
 40
2.0
 40
3.0
 40
3.0
 40
3.0
 40
4.0
 40
4.0
 40
4.0
 40
5.0
 40
5.0
 40
5.0
 40
5.0
 10
94.45297243798217
 20
45.12728955473216
 30
0.0
 10
94.45297243798217
 20
45.12728955473216
 30
0.0
 10
94.45297243798217
 20
43.72354036587387
 30
0.0
 10
94.45297243798217
 20
43.72354036587387
 30
0.0
 10
94.45297243798217
 20
43.36229665642576
 30
0.0
 10
94.74641636531561
 20
43.06945724747854
 30
0.0
 10
95.10839825459431
 20
43.06945724747854
 30
0.0
 10
95.47038352313695
 20
43.06945724747854
 30
0.0
 10
95.7638593489832
 20
43.36229665642576
 30
0.0
 10
95.7638593489832
 20
43.72354036587387
 30
0.0
 10
95.7638593489832
 20
43.72354036587387
 30
0.0
 10
95.7638593489832
 20
44.43954997144643
 30
0.0
 10
95.7638593489832
 20
44.43954997144643
 30
0.0
 10
95.7638593489832
 20
44.43954997144643
 30
0.0
 10
96.86583126531388
 20
44.43954997144643
 30
0.0
 10
96.86583126531388
 20
44.43954997144643
 30
0.0
  0
POLYLINE
  5
349
330
1F
100
AcDbEntity
  8
Livello 1
100
AcDb2dPolyline
 66
     1
 10
0.0
 20
0.0
 30
0.0
  0
VERTEX
  5
34A
330
349
100
AcDbEntity
  8
Livello 1
100
AcDbVertex
100
AcDb2dVertex
 10
61.6648541078095
 20
75.56938601995184
 30
0.0
  0
VERTEX
  5
34B
330
349
100
AcDbEntity
  8
Livello 1
100
AcDbVertex
100
AcDb2dVertex
 10
61.6648541078095
 20
40.36754018587626
 30
0.0
  0
SEQEND
  5
34C
330
349
100
AcDbEntity
  8
Livello 1
  0
POLYLINE
  5
34D
330
1F
100
AcDbEntity
  8
Livello 1
100
AcDb2dPolyline
 66
     1
 10
0.0
 20
0.0
 30
0.0
  0
VERTEX
  5
34E
330
34D
100
AcDbEntity
  8
Livello 1
100
AcDbVertex
100
AcDb2dVertex
 10
61.6648541078095
 20
40.36754018587626
 30
0.0
  0
VERTEX
  5
34F
330
34D
100
AcDbEntity
  8
Livello 1
100
AcDbVertex
100
AcDb2dVertex
 10
72.11130939685375
 20
40.36754018587626
 30
0.0
  0
SEQEND
  5
350
330
34D
100
AcDbEntity
  8
Livello 1
  0
POLYLINE
  5
351
330
1F
100
AcDbEntity
  8
Livello 1
100
AcDb2dPolyline
 66
     1
 10
0.0
 20
0.0
 30
0.0
  0
VERTEX
  5
352
330
351
100
AcDbEntity
  8
Livello 1
100
AcDbVertex
100
AcDb2dVertex
 10
61.6648541078095
 20
75.56938601995184
 30
0.0
  0
VERTEX
  5
353
330
351
100
AcDbEntity
  8
Livello 1
100
AcDbVertex
100
AcDb2dVertex
 10
66.34000621075864
 20
75.56938601995184
 30
0.0
  0
SEQEND
  5
354
330
351
100
AcDbEntity
  8
Livello 1
  0
POLYLINE
  5
355
330
1F
100
AcDbEntity
  8
Livello 1
100
AcDb2dPolyline
 66
     1
 10
0.0
 20
0.0
 30
0.0
  0
VERTEX
  5
356
330
355
100
AcDbEntity
  8
Livello 1
100
AcDbVertex
100
AcDb2dVertex
 10
95.40741269141017
 20
45.12728955473216
 30
0.0
  0
VERTEX
  5
357
330
355
100
AcDbEntity
  8
Livello 1
100
AcDbVertex
100
AcDb2dVertex
 10
93.49849690677741
 20
45.12728955473216
 30
0.0
  0
SEQEND
  5
358
330
355
100
AcDbEntity
  8
Livello 1
  0
POLYLINE
  5
359
330
1F
100
AcDbEntity
  8
Livello 1
100
AcDb2dPolyline
 66
     1
 10
0.0
 20
0.0
 30
0.0
  0
VERTEX
  5
35A
330
359
100
AcDbEntity
  8
Livello 1
100
AcDbVertex
100
AcDb2dVertex
 10
66.34000621075864
 20
72.27777671263496
 30
0.0
  0
VERTEX
  5
35B
330
359
100
AcDbEntity
  8
Livello 1
100
AcDbVertex
100
AcDb2dVertex
 10
63.33843184289065
 20
72.27777671263496
 30
0.0
  0
SEQEND
  5
35C
330
359
100
AcDbEntity
  8
Livello 1
  0
SPLINE
  5
35D
330
1F
100
AcDbEntity
  8
Livello 1
100
AcDbSpline
210
0.0
220
0.0
230
1.0
 70
     8
 71
     3
 72
    14
 73
    10
 74
     0
 42
0.000000001
 43
0.0000000001
 40
0.0
 40
0.0
 40
0.0
 40
0.0
 40
1.0
 40
1.0
 40
1.0
 40
2.0
 40
2.0
 40
2.0
 40
3.0
 40
3.0
 40
3.0
 40
3.0
 10
66.34000621075864
 20
75.56938601995184
 30
0.0
 10
66.34000621075864
 20
75.56938601995184
 30
0.0
 10
73.85688907454261
 20
75.56938601995184
 30
0.0
 10
73.85688907454261
 20
75.56938601995184
 30
0.0
 10
86.27699486879066
 20
74.07878484481478
 30
0.0
 10
95.91139101188588
 20
64.03842062797855
 30
0.0
 10
96.86583126531388
 20
51.59080944486174
 30
0.0
 10
96.86583126531388
 20
51.59080944486174
 30
0.0
 10
96.86583126531388
 20
40.53265401467678
 30
0.0
 10
96.86583126531388
 20
40.53265401467678
 30
0.0
  0
SPLINE
  5
35E
330
1F
100
AcDbEntity
  8
Livello 1
100
AcDbSpline
210
0.0
220
0.0
230
1.0
 70
     8
 71
     3
 72
    14
 73
    10
 74
     0
 42
0.000000001
 43
0.0000000001
 40
0.0
 40
0.0
 40
0.0
 40
0.0
 40
1.0
 40
1.0
 40
1.0
 40
2.0
 40
2.0
 40
2.0
 40
3.0
 40
3.0
 40
3.0
 40
3.0
 10
66.34000621075864
 20
74.11395514651525
 30
0.0
 10
66.34000621075864
 20
74.11395514651525
 30
0.0
 10
73.76823602124864
 20
74.11395514651525
 30
0.0
 10
73.76823602124864
 20
74.11395514651525
 30
0.0
 10
85.43981794570441
 20
72.67204318784454
 30
0.0
 10
94.48405215941148
 20
63.23474930946165
 30
0.0
 10
95.40741269141017
 20
51.53441022231615
 30
0.0
 10
95.40741269141017
 20
51.53441022231615
 30
0.0
 10
95.40741269141017
 20
45.12728955473216
 30
0.0
 10
95.40741269141017
 20
45.12728955473216
 30
0.0
  0
POLYLINE
  5
35F
330
1F
100
AcDbEntity
  8
Livello 1
100
AcDb2dPolyline
 66
     1
 10
0.0
 20
0.0
 30
0.0
  0
VERTEX
  5
360
330
35F
100
AcDbEntity
  8
Livello 1
100
AcDbVertex
100
AcDb2dVertex
 10
72.11130939685375
 20
41.81040269324102
 30
0.0
  0
VERTEX
  5
361
330
35F
100
AcDbEntity
  8
Livello 1
100
AcDbVertex
100
AcDb2dVertex
 10
70.28928277667091
 20
41.81040269324102
 30
0.0
  0
VERTEX
  5
362
330
35F
100
AcDbEntity
  8
Livello 1
100
AcDbVertex
100
AcDb2dVertex
 10
70.28928277667091
 20
43.75790094090814
 30
0.0
  0
VERTEX
  5
363
330
35F
100
AcDbEntity
  8
Livello 1
100
AcDbVertex
100
AcDb2dVertex
 10
89.62845422773261
 20
43.75790094090814
 30
0.0
  0
VERTEX
  5
364
330
35F
100
AcDbEntity
  8
Livello 1
100
AcDbVertex
100
AcDb2dVertex
 10
89.62845422773261
 20
41.81040269324102
 30
0.0
  0
VERTEX
  5
365
330
35F
100
AcDbEntity
  8
Livello 1
100
AcDbVertex
100
AcDb2dVertex
 10
87.8063923297725
 20
41.81040269324102
 30
0.0
  0
SEQEND
  5
366
330
35F
100
AcDbEntity
  8
Livello 1
  0
POLYLINE
  5
367
330
1F
100
AcDbEntity
  8
Livello 1
100
AcDb2dPolyline
 66
     1
 10
0.0
 20
0.0
 30
0.0
  0
VERTEX
  5
368
330
367
100
AcDbEntity
  8
Livello 1
100
AcDbVertex
100
AcDb2dVertex
 10
63.33843184289065
 20
72.27777671263496
 30
0.0
  0
VERTEX
  5
369
330
367
100
AcDbEntity
  8
Livello 1
100
AcDbVertex
100
AcDb2dVertex
 10
63.33843184289065
 20
64.03901912160137
 30
0.0
  0
SEQEND
  5
36A
330
367
100
AcDbEntity
  8
Livello 1
  0
POLYLINE
  5
36B
330
1F
100
AcDbEntity
  8
Livello 1
100
AcDb2dPolyline
 66
     1
 10
0.0
 20
0.0
 30
0.0
  0
VERTEX
  5
36C
330
36B
100
AcDbEntity
  8
Livello 1
100
AcDbVertex
100
AcDb2dVertex
 10
63.33843184289065
 20
61.72094770507519
 30
0.0
  0
VERTEX
  5
36D
330
36B
100
AcDbEntity
  8
Livello 1
100
AcDbVertex
100
AcDb2dVertex
 10
63.33843184289065
 20
41.81040269324102
 30
0.0
  0
SEQEND
  5
36E
330
36B
100
AcDbEntity
  8
Livello 1
  0
POLYLINE
  5
36F
330
1F
100
AcDbEntity
  8
Livello 1
100
AcDb2dPolyline
 66
     1
 10
0.0
 20
0.0
 30
0.0
  0
VERTEX
  5
370
330
36F
100
AcDbEntity
  8
Livello 1
100
AcDbVertex
100
AcDb2dVertex
 10
63.33843184289065
 20
72.27777671263496
 30
0.0
  0
VERTEX
  5
371
330
36F
100
AcDbEntity
  8
Livello 1
100
AcDbVertex
100
AcDb2dVertex
 10
66.34000621075864
 20
72.27777671263496
 30
0.0
  0
SEQEND
  5
372
330
36F
100
AcDbEntity
  8
Livello 1
  0
POLYLINE
  5
373
330
1F
100
AcDbEntity
  8
Livello 1
100
AcDb2dPolyline
 66
     1
 10
0.0
 20
0.0
 30
0.0
  0
VERTEX
  5
374
330
373
100
AcDbEntity
  8
Livello 1
100
AcDbVertex
100
AcDb2dVertex
 10
72.11130939685375
 20
41.81040269324102
 30
0.0
  0
VERTEX
  5
375
330
373
100
AcDbEntity
  8
Livello 1
100
AcDbVertex
100
AcDb2dVertex
 10
72.11130939685375
 20
40.53265401467678
 30
0.0
  0
SEQEND
  5
376
330
373
100
AcDbEntity
  8
Livello 1
  0
POLYLINE
  5
377
330
1F
100
AcDbEntity
  8
Livello 1
100
AcDb2dPolyline
 66
     1
 10
0.0
 20
0.0
 30
0.0
  0
VERTEX
  5
378
330
377
100
AcDbEntity
  8
Livello 1
100
AcDbVertex
100
AcDb2dVertex
 10
63.33843184289065
 20
61.72094770507519
 30
0.0
  0
VERTEX
  5
379
330
377
100
AcDbEntity
  8
Livello 1
100
AcDbVertex
100
AcDb2dVertex
 10
75.71518124935579
 20
45.12728955473216
 30
0.0
  0
SEQEND
  5
37A
330
377
100
AcDbEntity
  8
Livello 1
  0
POLYLINE
  5
37B
330
1F
100
AcDbEntity
  8
Livello 1
100
AcDb2dPolyline
 66
     1
 10
0.0
 20
0.0
 30
0.0
  0
VERTEX
  5
37C
330
37B
100
AcDbEntity
  8
Livello 1
100
AcDbVertex
100
AcDb2dVertex
 10
63.33843184289065
 20
64.03901912160137
 30
0.0
  0
VERTEX
  5
37D
330
37B
100
AcDbEntity
  8
Livello 1
100
AcDbVertex
100
AcDb2dVertex
 10
77.44418037191201
 20
45.12728955473216
 30
0.0
  0
SEQEND
  5
37E
330
37B
100
AcDbEntity
  8
Livello 1
  0
POLYLINE
  5
37F
330
1F
100
AcDbEntity
  8
Livello 1
100
AcDb2dPolyline
 66
     1
 10
0.0
 20
0.0
 30
0.0
  0
VERTEX
  5
380
330
37F
100
AcDbEntity
  8
Livello 1
100
AcDbVertex
100
AcDb2dVertex
 10
68.6049453196419
 20
41.81040269324102
 30
0.0
  0
VERTEX
  5
381
330
37F
100
AcDbEntity
  8
Livello 1
100
AcDbVertex
100
AcDb2dVertex
 10
63.33843184289065
 20
41.81040269324102
 30
0.0
  0
SEQEND
  5
382
330
37F
100
AcDbEntity
  8
Livello 1
  0
POLYLINE
  5
383
330
1F
100
AcDbEntity
  8
Livello 1
100
AcDb2dPolyline
 66
     1
 10
0.0
 20
0.0
 30
0.0
  0
VERTEX
  5
384
330
383
100
AcDbEntity
  8
Livello 1
100
AcDbVertex
100
AcDb2dVertex
 10
91.31279168476163
 20
41.81040269324102
 30
0.0
  0
VERTEX
  5
385
330
383
100
AcDbEntity
  8
Livello 1
100
AcDbVertex
100
AcDb2dVertex
 10
93.49849690677741
 20
41.81040269324102
 30
0.0
  0
SEQEND
  5
386
330
383
100
AcDbEntity
  8
Livello 1
  0
POLYLINE
  5
387
330
1F
100
AcDbEntity
  8
Livello 1
100
AcDb2dPolyline
 66
     1
 10
0.0
 20
0.0
 30
0.0
  0
VERTEX
  5
388
330
387
100
AcDbEntity
  8
Livello 1
100
AcDbVertex
100
AcDb2dVertex
 10
93.49849690677741
 20
41.81040269324102
 30
0.0
  0
VERTEX
  5
389
330
387
100
AcDbEntity
  8
Livello 1
100
AcDbVertex
100
AcDb2dVertex
 10
93.49849690677741
 20
45.12728955473216
 30
0.0
  0
SEQEND
  5
38A
330
387
100
AcDbEntity
  8
Livello 1
  0
SPLINE
  5
38B
330
1F
100
AcDbEntity
  8
Livello 1
100
AcDbSpline
210
0.0
220
0.0
230
1.0
 70
     8
 71
     3
 72
    14
 73
    10
 74
     0
 42
0.000000001
 43
0.0000000001
 40
0.0
 40
0.0
 40
0.0
 40
0.0
 40
1.0
 40
1.0
 40
1.0
 40
2.0
 40
2.0
 40
2.0
 40
3.0
 40
3.0
 40
3.0
 40
3.0
 10
77.44418037191201
 20
45.12728955473216
 30
0.0
 10
77.44418037191201
 20
45.12728955473216
 30
0.0
 10
90.18891226898967
 20
45.12728955473216
 30
0.0
 10
90.18891226898967
 20
45.12728955473216
 30
0.0
 10
90.87711114032112
 20
45.04005030787334
 30
0.0
 10
91.37329307210695
 20
44.42589023465067
 30
0.0
 10
91.31279168476163
 20
43.73621434846876
 30
0.0
 10
91.31279168476163
 20
43.73621434846876
 30
0.0
 10
91.31279168476163
 20
41.81040269324102
 30
0.0
 10
91.31279168476163
 20
41.81040269324102
 30
0.0
  0
SPLINE
  5
38C
330
1F
100
AcDbEntity
  8
Livello 1
100
AcDbSpline
210
0.0
220
0.0
230
1.0
 70
     8
 71
     3
 72
    14
 73
    10
 74
     0
 42
0.000000001
 43
0.0000000001
 40
0.0
 40
0.0
 40
0.0
 40
0.0
 40
1.0
 40
1.0
 40
1.0
 40
2.0
 40
2.0
 40
2.0
 40
3.0
 40
3.0
 40
3.0
 40
3.0
 10
75.71518124935579
 20
45.12728955473216
 30
0.0
 10
75.71518124935579
 20
45.12728955473216
 30
0.0
 10
69.72878945763688
 20
45.12728955473216
 30
0.0
 10
69.72878945763688
 20
45.12728955473216
 30
0.0
 10
69.04059058630543
 20
45.04005030787334
 30
0.0
 10
68.54440865451966
 20
44.42589023465067
 30
0.0
 10
68.6049453196419
 20
43.73621434846876
 30
0.0
 10
68.6049453196419
 20
43.73621434846876
 30
0.0
 10
68.6049453196419
 20
41.81040269324102
 30
0.0
 10
68.6049453196419
 20
41.81040269324102
 30
0.0
  0
POLYLINE
  5
38D
330
1F
100
AcDbEntity
  8
Livello 1
100
AcDb2dPolyline
 66
     1
 10
0.0
 20
0.0
 30
0.0
  0
VERTEX
  5
38E
330
38D
100
AcDbEntity
  8
Livello 1
100
AcDbVertex
100
AcDb2dVertex
 10
87.8063923297725
 20
41.81040269324102
 30
0.0
  0
VERTEX
  5
38F
330
38D
100
AcDbEntity
  8
Livello 1
100
AcDbVertex
100
AcDb2dVertex
 10
87.8063923297725
 20
40.53265401467678
 30
0.0
  0
SEQEND
  5
390
330
38D
100
AcDbEntity
  8
Livello 1
  0
POLYLINE
  5
391
330
1F
100
AcDbEntity
  8
Livello 1
100
AcDb2dPolyline
 66
     1
 10
0.0
 20
0.0
 30
0.0
  0
VERTEX
  5
392
330
391
100
AcDbEntity
  8
Livello 1
100
AcDbVertex
100
AcDb2dVertex
 10
87.8063923297725
 20
40.53265401467678
 30
0.0
  0
VERTEX
  5
393
330
391
100
AcDbEntity
  8
Livello 1
100
AcDbVertex
100
AcDb2dVertex
 10
96.86583126531388
 20
40.53265401467678
 30
0.0
  0
SEQEND
  5
394
330
391
100
AcDbEntity
  8
Livello 1
  0
SPLINE
  5
395
330
1F
100
AcDbEntity
  8
Livello 1
100
AcDbSpline
210
0.0
220
0.0
230
1.0
 70
     8
 71
     3
 72
    17
 73
    13
 74
     0
 42
0.000000001
 43
0.0000000001
 40
0.0
 40
0.0
 40
0.0
 40
0.0
 40
1.0
 40
1.0
 40
1.0
 40
2.0
 40
2.0
 40
2.0
 40
3.0
 40
3.0
 40
3.0
 40
4.0
 40
4.0
 40
4.0
 40
4.0
 10
64.58352570001466
 20
73.56263690365565
 30
0.0
 10
64.53629137286839
 20
73.55538456917137
 30
0.0
 10
64.48820514689089
 20
73.55538456917137
 30
0.0
 10
64.44093292587467
 20
73.56263690365565
 30
0.0
 10
64.18534543239525
 20
73.60192624969818
 30
0.0
 10
64.01008543686646
 20
73.84054917754617
 30
0.0
 10
64.04945803965666
 20
74.09561307725965
 30
0.0
 10
64.08882543485765
 20
74.35067697697326
 30
0.0
 10
64.32793820653518
 20
74.52561314228444
 30
0.0
 10
64.58352570001466
 20
74.48632379624135
 30
0.0
 10
64.58352570001466
 20
74.48632379624135
 30
0.0
 10
64.58352570001466
 20
74.48632379624135
 30
0.0
 10
64.58352570001466
 20
74.48632379624135
 30
0.0
  0
SPLINE
  5
396
330
1F
100
AcDbEntity
  8
Livello 1
100
AcDbSpline
210
0.0
220
0.0
230
1.0
 70
     8
 71
     3
 72
    14
 73
    10
 74
     0
 42
0.000000001
 43
0.0000000001
 40
0.0
 40
0.0
 40
0.0
 40
0.0
 40
1.0
 40
1.0
 40
1.0
 40
2.0
 40
2.0
 40
2.0
 40
3.0
 40
3.0
 40
3.0
 40
3.0
 10
65.2212773504109
 20
74.48632379624135
 30
0.0
 10
65.52096206498749
 20
74.45404034613244
 30
0.0
 10
65.79013150256492
 20
74.67030777690467
 30
0.0
 10
65.82251915032447
 20
74.96937856062595
 30
0.0
 10
65.85486622313561
 20
75.26844934434726
 30
0.0
 10
65.63815483977549
 20
75.53710256984294
 30
0.0
 10
65.33847012519891
 20
75.56938601995184
 30
0.0
 10
65.29948818174893
 20
75.57357547531004
 30
0.0
 10
65.26022401608395
 20
75.57357547531004
 30
0.0
 10
65.2212773504109
 20
75.56938601995184
 30
0.0
  0
POLYLINE
  5
397
330
1F
100
AcDbEntity
  8
Livello 1
100
AcDb2dPolyline
 66
     1
 10
0.0
 20
0.0
 30
0.0
  0
VERTEX
  5
398
330
397
100
AcDbEntity
  8
Livello 1
100
AcDbVertex
100
AcDb2dVertex
 10
65.2212773504109
 20
74.48632379624135
 30
0.0
  0
VERTEX
  5
399
330
397
100
AcDbEntity
  8
Livello 1
100
AcDbVertex
100
AcDb2dVertex
 10
64.58352570001466
 20
74.48632379624135
 30
0.0
  0
SEQEND
  5
39A
330
397
100
AcDbEntity
  8
Livello 1
  0
POLYLINE
  5
39B
330
1F
100
AcDbEntity
  8
Livello 1
100
AcDb2dPolyline
 66
     1
 10
0.0
 20
0.0
 30
0.0
  0
VERTEX
  5
39C
330
39B
100
AcDbEntity
  8
Livello 1
100
AcDbVertex
100
AcDb2dVertex
 10
64.58352570001466
 20
73.56263690365565
 30
0.0
  0
VERTEX
  5
39D
330
39B
100
AcDbEntity
  8
Livello 1
100
AcDbVertex
100
AcDb2dVertex
 10
66.34000621075864
 20
73.56263690365565
 30
0.0
  0
SEQEND
  5
39E
330
39B
100
AcDbEntity
  8
Livello 1
  0
POLYLINE
  5
39F
330
1F
100
AcDbEntity
  8
Livello 1
100
AcDb2dPolyline
 66
     1
 10
0.0
 20
0.0
 30
0.0
  0
VERTEX
  5
3A0
330
39F
100
AcDbEntity
  8
Livello 1
100
AcDbVertex
100
AcDb2dVertex
 10
66.34000621075864
 20
72.27777671263496
 30
0.0
  0
VERTEX
  5
3A1
330
39F
100
AcDbEntity
  8
Livello 1
100
AcDbVertex
100
AcDb2dVertex
 10
66.34000621075864
 20
74.11395514651525
 30
0.0
  0
SEQEND
  5
3A2
330
39F
100
AcDbEntity
  8
Livello 1
  0
LINE
  5
3A3
330
1F
100
AcDbEntity
  8
Livello 1
100
AcDbLine
 10
85.91049120555181
 20
78.51027851020527
 30
0.0
 11
100.1397975060703
 21
64.85637753753576
 31
0.0
  0
SPLINE
  5
3A4
330
1F
100
AcDbEntity
  8
Livello 1
100
AcDbSpline
210
0.0
220
0.0
230
1.0
 70
    11
 71
     3
 72
    47
 73
    43
 74
     0
 42
0.000000001
 43
0.0000000001
 40
0.0
 40
0.0
 40
0.0
 40
0.0
 40
1.0
 40
1.0
 40
1.0
 40
2.0
 40
2.0
 40
2.0
 40
3.0
 40
3.0
 40
3.0
 40
4.0
 40
4.0
 40
4.0
 40
5.0
 40
5.0
 40
5.0
 40
6.0
 40
6.0
 40
6.0
 40
7.0
 40
7.0
 40
7.0
 40
8.0
 40
8.0
 40
8.0
 40
9.0
 40
9.0
 40
9.0
 40
10.0
 40
10.0
 40
10.0
 40
11.0
 40
11.0
 40
11.0
 40
12.0
 40
12.0
 40
12.0
 40
13.0
 40
13.0
 40
13.0
 40
14.0
 40
14.0
 40
14.0
 40
14.0
 10
91.14817313883225
 20
77.82444543353077
 30
0.0
 10
91.14817313883225
 20
77.82444543353077
 30
0.0
 10
91.39070786099393
 20
78.06698015569236
 30
0.0
 10
91.39070786099393
 20
78.06698015569236
 30
0.0
 10
91.39070786099393
 20
78.06698015569236
 30
0.0
 10
92.00152329052867
 20
78.05802290743073
 30
0.0
 10
92.00152329052867
 20
78.05802290743073
 30
0.0
 10
93.45638711394963
 20
78.02219391438416
 30
0.0
 10
94.17089991759047
 20
78.06215702201305
 30
0.0
 10
94.61566174473626
 20
78.49761709134864
 30
0.0
 10
94.91228446601633
 20
78.79389530308003
 30
0.0
 10
95.04250907535862
 20
79.21144087589235
 30
0.0
 10
94.60704900602314
 20
79.64758996432502
 30
0.0
 10
94.34212116320741
 20
79.91217329759226
 30
0.0
 10
93.98693181867816
 20
79.99761166562644
 30
0.0
 10
93.74026298193433
 20
80.02034929582904
 30
0.0
 10
93.74026298193433
 20
80.02034929582904
 30
0.0
 10
93.89322522147939
 20
80.42480350579735
 30
0.0
 10
93.89322522147939
 20
80.42480350579735
 30
0.0
 10
94.26564004343493
 20
80.39310862733305
 30
0.0
 10
94.67870699211642
 20
80.23118913952634
 30
0.0
 10
95.01563733057379
 20
79.89425880106884
 30
0.0
 10
95.64402274708328
 20
79.26518436546226
 30
0.0
 10
95.47796914469428
 20
78.56927507744174
 30
0.0
 10
95.0600790623335
 20
78.15172950462955
 30
0.0
 10
94.52092161889192
 20
77.61291657073645
 30
0.0
 10
93.69444321198045
 20
77.56813032942827
 30
0.0
 10
92.48624822530331
 20
77.59086795963085
 30
0.0
 10
92.48624822530331
 20
77.59086795963085
 30
0.0
 10
92.03735228357528
 20
77.60878245615415
 30
0.0
 10
92.03735228357528
 20
77.60878245615415
 30
0.0
 10
92.03735228357528
 20
77.60878245615415
 30
0.0
 10
92.02839503531363
 20
77.59982520789254
 30
0.0
 10
92.02839503531363
 20
77.59982520789254
 30
0.0
 10
92.02839503531363
 20
77.59982520789254
 30
0.0
 10
93.3392538674512
 20
76.28793284710934
 30
0.0
 10
93.3392538674512
 20
76.28793284710934
 30
0.0
 10
93.3392538674512
 20
76.28793284710934
 30
0.0
 10
93.01128077725541
 20
75.96064877601069
 30
0.0
 10
93.01128077725541
 20
75.96064877601069
 30
0.0
 10
93.01128077725541
 20
75.96064877601069
 30
0.0
 10
91.14817313883225
 20
77.82444543353077
 30
0.0
 10
91.14817313883225
 20
77.82444543353077
 30
0.0
  0
HATCH
  5
3A5
330
1F
100
AcDbEntity
  8
Livello 1
100
AcDbHatch
 10
0.0
 20
0.0
 30
0.0
210
0.0
220
0.0
230
1.0
  2
SOLID
 70
     1
 71
     0
 91
        1
 92
        1
 93
        1
 72
     4
 94
        3
 73
     0
 74
     0
 95
       47
 96
       43
 40
0.0
 40
0.0
 40
0.0
 40
0.0
 40
1.0
 40
1.0
 40
1.0
 40
2.0
 40
2.0
 40
2.0
 40
3.0
 40
3.0
 40
3.0
 40
4.0
 40
4.0
 40
4.0
 40
5.0
 40
5.0
 40
5.0
 40
6.0
 40
6.0
 40
6.0
 40
7.0
 40
7.0
 40
7.0
 40
8.0
 40
8.0
 40
8.0
 40
9.0
 40
9.0
 40
9.0
 40
10.0
 40
10.0
 40
10.0
 40
11.0
 40
11.0
 40
11.0
 40
12.0
 40
12.0
 40
12.0
 40
13.0
 40
13.0
 40
13.0
 40
14.0
 40
14.0
 40
14.0
 40
14.0
 10
91.14817313883225
 20
77.82444543353077
 10
91.14817313883225
 20
77.82444543353077
 10
91.39070786099393
 20
78.06698015569236
 10
91.39070786099393
 20
78.06698015569236
 10
91.39070786099393
 20
78.06698015569236
 10
92.00152329052867
 20
78.05802290743073
 10
92.00152329052867
 20
78.05802290743073
 10
93.45638711394963
 20
78.02219391438416
 10
94.17089991759047
 20
78.06215702201305
 10
94.61566174473626
 20
78.49761709134864
 10
94.91228446601633
 20
78.79389530308003
 10
95.04250907535862
 20
79.21144087589235
 10
94.60704900602314
 20
79.64758996432502
 10
94.34212116320741
 20
79.91217329759226
 10
93.98693181867816
 20
79.99761166562644
 10
93.74026298193433
 20
80.02034929582904
 10
93.74026298193433
 20
80.02034929582904
 10
93.89322522147939
 20
80.42480350579735
 10
93.89322522147939
 20
80.42480350579735
 10
94.26564004343493
 20
80.39310862733305
 10
94.67870699211642
 20
80.23118913952634
 10
95.01563733057379
 20
79.89425880106884
 10
95.64402274708328
 20
79.26518436546226
 10
95.47796914469428
 20
78.56927507744174
 10
95.0600790623335
 20
78.15172950462955
 10
94.52092161889192
 20
77.61291657073645
 10
93.69444321198045
 20
77.56813032942827
 10
92.48624822530331
 20
77.59086795963085
 10
92.48624822530331
 20
77.59086795963085
 10
92.03735228357528
 20
77.60878245615415
 10
92.03735228357528
 20
77.60878245615415
 10
92.03735228357528
 20
77.60878245615415
 10
92.02839503531363
 20
77.59982520789254
 10
92.02839503531363
 20
77.59982520789254
 10
92.02839503531363
 20
77.59982520789254
 10
93.3392538674512
 20
76.28793284710934
 10
93.3392538674512
 20
76.28793284710934
 10
93.3392538674512
 20
76.28793284710934
 10
93.01128077725541
 20
75.96064877601069
 10
93.01128077725541
 20
75.96064877601069
 10
93.01128077725541
 20
75.96064877601069
 10
91.14817313883225
 20
77.82444543353077
 10
91.14817313883225
 20
77.82444543353077
 97
        0
 97
        0
 75
     2
 76
     1
 98
        0
450
        0
451
        0
460
0.0
461
0.0
452
        0
462
0.0
453
        0
470

  0
SPLINE
  5
3A6
330
1F
100
AcDbEntity
  8
Livello 1
100
AcDbSpline
210
0.0
220
0.0
230
1.0
 70
     9
 71
     3
 72
    17
 73
    13
 74
     0
 42
0.000000001
 43
0.0000000001
 40
0.0
 40
0.0
 40
0.0
 40
0.0
 40
1.0
 40
1.0
 40
1.0
 40
2.0
 40
2.0
 40
2.0
 40
3.0
 40
3.0
 40
3.0
 40
4.0
 40
4.0
 40
4.0
 40
4.0
 10
96.88219006448214
 20
75.07112512171914
 30
0.0
 10
95.88931354563312
 20
74.07824860287016
 30
0.0
 10
94.97291814655666
 20
73.89910363763715
 30
0.0
 10
94.32627372397531
 20
74.54609256976704
 30
0.0
 10
93.7561104211665
 20
75.11660038212446
 30
0.0
 10
93.90459403658065
 20
76.03712989578315
 30
0.0
 10
94.86129705283463
 20
77.01140289901184
 30
0.0
 10
95.84073769929108
 20
77.99049903591984
 30
0.0
 10
96.80191933967581
 20
78.10694326332125
 30
0.0
 10
97.3948202726873
 20
77.51369782076125
 30
0.0
 10
98.010114326353
 20
76.89840376709565
 30
0.0
 10
97.81236584549958
 20
76.00061188363952
 30
0.0
 10
96.88219006448214
 20
75.07112512171914
 30
0.0
  0
SPLINE
  5
3A7
330
1F
100
AcDbEntity
  8
Livello 1
100
AcDbSpline
210
0.0
220
0.0
230
1.0
 70
     9
 71
     3
 72
    17
 73
    13
 74
     0
 42
0.000000001
 43
0.0000000001
 40
0.0
 40
0.0
 40
0.0
 40
0.0
 40
1.0
 40
1.0
 40
1.0
 40
2.0
 40
2.0
 40
2.0
 40
3.0
 40
3.0
 40
3.0
 40
4.0
 40
4.0
 40
4.0
 40
4.0
 10
95.25197088086191
 20
76.61177182272282
 30
0.0
 10
94.49267183591292
 20
75.85316179687083
 30
0.0
 10
94.29492335505944
 20
75.18825836821767
 30
0.0
 10
94.65390230462247
 20
74.82859039955752
 30
0.0
 10
95.05835651459092
 20
74.42482520868626
 30
0.0
 10
95.7232599432441
 20
74.70318892389446
 30
0.0
 10
96.46877860625217
 20
75.44801856780546
 30
0.0
 10
97.18742552447526
 20
76.16666548602854
 30
0.0
 10
97.47543550704216
 20
76.82261166642016
 30
0.0
 10
97.06684718249148
 20
77.23119999097076
 30
0.0
 10
96.72095959577246
 20
77.57708757768984
 30
0.0
 10
96.04709891885761
 20
77.40689986071854
 30
0.0
 10
95.25197088086191
 20
76.61177182272282
 30
0.0
  0
HATCH
  5
3A8
330
1F
100
AcDbEntity
  8
Livello 1
100
AcDbHatch
 10
0.0
 20
0.0
 30
0.0
210
0.0
220
0.0
230
1.0
  2
SOLID
 70
     1
 71
     0
 91
        2
 92
        1
 93
        1
 72
     4
 94
        3
 73
     0
 74
     0
 95
       17
 96
       13
 40
0.0
 40
0.0
 40
0.0
 40
0.0
 40
1.0
 40
1.0
 40
1.0
 40
2.0
 40
2.0
 40
2.0
 40
3.0
 40
3.0
 40
3.0
 40
4.0
 40
4.0
 40
4.0
 40
4.0
 10
96.88219006448214
 20
75.07112512171914
 10
95.88931354563312
 20
74.07824860287016
 10
94.97291814655666
 20
73.89910363763715
 10
94.32627372397531
 20
74.54609256976704
 10
93.7561104211665
 20
75.11660038212446
 10
93.90459403658065
 20
76.03712989578315
 10
94.86129705283463
 20
77.01140289901184
 10
95.84073769929108
 20
77.99049903591984
 10
96.80191933967581
 20
78.10694326332125
 10
97.3948202726873
 20
77.51369782076125
 10
98.010114326353
 20
76.89840376709565
 10
97.81236584549958
 20
76.00061188363952
 10
96.88219006448214
 20
75.07112512171914
 97
        0
 97
        0
 92
        1
 93
        1
 72
     4
 94
        3
 73
     0
 74
     0
 95
       17
 96
       13
 40
0.0
 40
0.0
 40
0.0
 40
0.0
 40
1.0
 40
1.0
 40
1.0
 40
2.0
 40
2.0
 40
2.0
 40
3.0
 40
3.0
 40
3.0
 40
4.0
 40
4.0
 40
4.0
 40
4.0
 10
95.25197088086191
 20
76.61177182272282
 10
94.49267183591292
 20
75.85316179687083
 10
94.29492335505944
 20
75.18825836821767
 10
94.65390230462247
 20
74.82859039955752
 10
95.05835651459092
 20
74.42482520868626
 10
95.7232599432441
 20
74.70318892389446
 10
96.46877860625217
 20
75.44801856780546
 10
97.18742552447526
 20
76.16666548602854
 10
97.47543550704216
 20
76.82261166642016
 10
97.06684718249148
 20
77.23119999097076
 10
96.72095959577246
 20
77.57708757768984
 10
96.04709891885761
 20
77.40689986071854
 10
95.25197088086191
 20
76.61177182272282
 97
        0
 97
        0
 75
     2
 76
     1
 98
        0
450
        0
451
        0
460
0.0
461
0.0
452
        0
462
0.0
453
        0
470

  0
SPLINE
  5
3A9
330
1F
100
AcDbEntity
  8
Livello 1
100
AcDbSpline
210
0.0
220
0.0
230
1.0
 70
     9
 71
     3
 72
    80
 73
    76
 74
     0
 42
0.000000001
 43
0.0000000001
 40
0.0
 40
0.0
 40
0.0
 40
0.0
 40
1.0
 40
1.0
 40
1.0
 40
2.0
 40
2.0
 40
2.0
 40
3.0
 40
3.0
 40
3.0
 40
4.0
 40
4.0
 40
4.0
 40
5.0
 40
5.0
 40
5.0
 40
6.0
 40
6.0
 40
6.0
 40
7.0
 40
7.0
 40
7.0
 40
8.0
 40
8.0
 40
8.0
 40
9.0
 40
9.0
 40
9.0
 40
10.0
 40
10.0
 40
10.0
 40
11.0
 40
11.0
 40
11.0
 40
12.0
 40
12.0
 40
12.0
 40
13.0
 40
13.0
 40
13.0
 40
14.0
 40
14.0
 40
14.0
 40
15.0
 40
15.0
 40
15.0
 40
16.0
 40
16.0
 40
16.0
 40
17.0
 40
17.0
 40
17.0
 40
18.0
 40
18.0
 40
18.0
 40
19.0
 40
19.0
 40
19.0
 40
20.0
 40
20.0
 40
20.0
 40
21.0
 40
21.0
 40
21.0
 40
22.0
 40
22.0
 40
22.0
 40
23.0
 40
23.0
 40
23.0
 40
24.0
 40
24.0
 40
24.0
 40
25.0
 40
25.0
 40
25.0
 40
25.0
 10
98.41663559361245
 20
73.72409278698646
 30
0.0
 10
98.64160032879915
 20
73.94871301262478
 30
0.0
 10
98.82108980358067
 20
74.13750424521646
 30
0.0
 10
98.98714340596979
 20
74.33042959239045
 30
0.0
 10
98.98714340596979
 20
74.33042959239045
 30
0.0
 10
99.33303099268892
 20
73.98454200567136
 30
0.0
 10
99.33303099268892
 20
73.98454200567136
 30
0.0
 10
99.33303099268892
 20
73.98454200567136
 30
0.0
 10
99.00057927836213
 20
73.61591678874953
 30
0.0
 10
99.00057927836213
 20
73.61591678874953
 30
0.0
 10
99.00057927836213
 20
73.61591678874953
 30
0.0
 10
99.0140151507548
 20
73.60282542590567
 30
0.0
 10
99.0140151507548
 20
73.60282542590567
 30
0.0
 10
99.34198824095046
 20
73.68757477484277
 30
0.0
 10
99.73714069310858
 20
73.67930654567818
 30
0.0
 10
100.0964641522201
 20
73.31963857701817
 30
0.0
 10
100.3927423639517
 20
73.02336036528666
 30
0.0
 10
100.4375286052599
 20
72.61890615531825
 30
0.0
 10
100.2756091174532
 20
72.26819543491988
 30
0.0
 10
100.2756091174532
 20
72.26819543491988
 30
0.0
 10
100.2845663657149
 20
72.25923818665825
 30
0.0
 10
100.2845663657149
 20
72.25923818665825
 30
0.0
 10
100.4733575983066
 20
72.31298167622816
 30
0.0
 10
100.6531915826366
 20
72.32193892448975
 30
0.0
 10
100.810287936764
 20
72.29989031338416
 30
0.0
 10
101.0397312960816
 20
72.26819543491988
 30
0.0
 10
101.2371352673864
 20
72.17793393320636
 30
0.0
 10
101.4434964869529
 20
71.97191722318834
 30
0.0
 10
101.7308174504227
 20
71.68390724062144
 30
0.0
 10
101.968529038905
 20
71.06861318695587
 30
0.0
 10
101.2140531276352
 20
70.31413727568616
 30
0.0
 10
101.2140531276352
 20
70.31413727568616
 30
0.0
 10
99.93385564531644
 20
69.03462881246435
 30
0.0
 10
99.93385564531644
 20
69.03462881246435
 30
0.0
 10
99.93385564531644
 20
69.03462881246435
 30
0.0
 10
99.54766044141997
 20
69.42116852590936
 30
0.0
 10
99.54766044141997
 20
69.42116852590936
 30
0.0
 10
99.54766044141997
 20
69.42116852590936
 30
0.0
 10
100.7785930582997
 20
70.65106761414353
 30
0.0
 10
100.7785930582997
 20
70.65106761414353
 30
0.0
 10
101.196138631112
 20
71.06861318695587
 30
0.0
 10
101.2953573810871
 20
71.47306739692417
 30
0.0
 10
100.9763415391531
 20
71.79208323885834
 30
0.0
 10
100.7517213135147
 20
72.01670346449666
 30
0.0
 10
100.410656860475
 20
72.02566071275825
 30
0.0
 10
100.1498631322416
 20
71.90025923709518
 30
0.0
 10
100.0782051461484
 20
71.86443024404855
 30
0.0
 10
99.99276677811417
 20
71.80586362079935
 30
0.0
 10
99.92076428247248
 20
71.73420563470617
 30
0.0
 10
99.92076428247248
 20
71.73420563470617
 30
0.0
 10
98.57786606232213
 20
70.39130741455577
 30
0.0
 10
98.57786606232213
 20
70.39130741455577
 30
0.0
 10
98.57786606232213
 20
70.39130741455577
 30
0.0
 10
98.19132634887711
 20
70.77784712800076
 30
0.0
 10
98.19132634887711
 20
70.77784712800076
 30
0.0
 10
98.19132634887711
 20
70.77784712800076
 30
0.0
 10
99.49426146139849
 20
72.08009322142524
 30
0.0
 10
99.49426146139849
 20
72.08009322142524
 30
0.0
 10
99.84014904811767
 20
72.42598080814435
 30
0.0
 10
99.93936779809292
 20
72.82974599901556
 30
0.0
 10
99.63826645268198
 20
73.13084734442646
 30
0.0
 10
99.39125310638964
 20
73.37820520026736
 30
0.0
 10
99.0140151507548
 20
73.36029070374403
 30
0.0
 10
98.75356593206982
 20
73.22524296072225
 30
0.0
 10
98.67260618816647
 20
73.18941396767565
 30
0.0
 10
98.59646957794252
 20
73.13084734442646
 30
0.0
 10
98.52894570643162
 20
73.06401249201255
 30
0.0
 10
98.52894570643162
 20
73.06401249201255
 30
0.0
 10
97.21705334564843
 20
71.75280915032644
 30
0.0
 10
97.21705334564843
 20
71.75280915032644
 30
0.0
 10
97.21705334564843
 20
71.75280915032644
 30
0.0
 10
96.83120265130042
 20
72.13865984467443
 30
0.0
 10
96.83120265130042
 20
72.13865984467443
 30
0.0
 10
96.83120265130042
 20
72.13865984467443
 30
0.0
 10
98.41663559361245
 20
73.72409278698646
 30
0.0
 10
98.41663559361245
 20
73.72409278698646
 30
0.0
  0
HATCH
  5
3AA
330
1F
100
AcDbEntity
  8
Livello 1
100
AcDbHatch
 10
0.0
 20
0.0
 30
0.0
210
0.0
220
0.0
230
1.0
  2
SOLID
 70
     1
 71
     0
 91
        1
 92
        1
 93
        1
 72
     4
 94
        3
 73
     0
 74
     0
 95
       80
 96
       76
 40
0.0
 40
0.0
 40
0.0
 40
0.0
 40
1.0
 40
1.0
 40
1.0
 40
2.0
 40
2.0
 40
2.0
 40
3.0
 40
3.0
 40
3.0
 40
4.0
 40
4.0
 40
4.0
 40
5.0
 40
5.0
 40
5.0
 40
6.0
 40
6.0
 40
6.0
 40
7.0
 40
7.0
 40
7.0
 40
8.0
 40
8.0
 40
8.0
 40
9.0
 40
9.0
 40
9.0
 40
10.0
 40
10.0
 40
10.0
 40
11.0
 40
11.0
 40
11.0
 40
12.0
 40
12.0
 40
12.0
 40
13.0
 40
13.0
 40
13.0
 40
14.0
 40
14.0
 40
14.0
 40
15.0
 40
15.0
 40
15.0
 40
16.0
 40
16.0
 40
16.0
 40
17.0
 40
17.0
 40
17.0
 40
18.0
 40
18.0
 40
18.0
 40
19.0
 40
19.0
 40
19.0
 40
20.0
 40
20.0
 40
20.0
 40
21.0
 40
21.0
 40
21.0
 40
22.0
 40
22.0
 40
22.0
 40
23.0
 40
23.0
 40
23.0
 40
24.0
 40
24.0
 40
24.0
 40
25.0
 40
25.0
 40
25.0
 40
25.0
 10
98.41663559361245
 20
73.72409278698646
 10
98.64160032879915
 20
73.94871301262478
 10
98.82108980358067
 20
74.13750424521646
 10
98.98714340596979
 20
74.33042959239045
 10
98.98714340596979
 20
74.33042959239045
 10
99.33303099268892
 20
73.98454200567136
 10
99.33303099268892
 20
73.98454200567136
 10
99.33303099268892
 20
73.98454200567136
 10
99.00057927836213
 20
73.61591678874953
 10
99.00057927836213
 20
73.61591678874953
 10
99.00057927836213
 20
73.61591678874953
 10
99.0140151507548
 20
73.60282542590567
 10
99.0140151507548
 20
73.60282542590567
 10
99.34198824095046
 20
73.68757477484277
 10
99.73714069310858
 20
73.67930654567818
 10
100.0964641522201
 20
73.31963857701817
 10
100.3927423639517
 20
73.02336036528666
 10
100.4375286052599
 20
72.61890615531825
 10
100.2756091174532
 20
72.26819543491988
 10
100.2756091174532
 20
72.26819543491988
 10
100.2845663657149
 20
72.25923818665825
 10
100.2845663657149
 20
72.25923818665825
 10
100.4733575983066
 20
72.31298167622816
 10
100.6531915826366
 20
72.32193892448975
 10
100.810287936764
 20
72.29989031338416
 10
101.0397312960816
 20
72.26819543491988
 10
101.2371352673864
 20
72.17793393320636
 10
101.4434964869529
 20
71.97191722318834
 10
101.7308174504227
 20
71.68390724062144
 10
101.968529038905
 20
71.06861318695587
 10
101.2140531276352
 20
70.31413727568616
 10
101.2140531276352
 20
70.31413727568616
 10
99.93385564531644
 20
69.03462881246435
 10
99.93385564531644
 20
69.03462881246435
 10
99.93385564531644
 20
69.03462881246435
 10
99.54766044141997
 20
69.42116852590936
 10
99.54766044141997
 20
69.42116852590936
 10
99.54766044141997
 20
69.42116852590936
 10
100.7785930582997
 20
70.65106761414353
 10
100.7785930582997
 20
70.65106761414353
 10
101.196138631112
 20
71.06861318695587
 10
101.2953573810871
 20
71.47306739692417
 10
100.9763415391531
 20
71.79208323885834
 10
100.7517213135147
 20
72.01670346449666
 10
100.410656860475
 20
72.02566071275825
 10
100.1498631322416
 20
71.90025923709518
 10
100.0782051461484
 20
71.86443024404855
 10
99.99276677811417
 20
71.80586362079935
 10
99.92076428247248
 20
71.73420563470617
 10
99.92076428247248
 20
71.73420563470617
 10
98.57786606232213
 20
70.39130741455577
 10
98.57786606232213
 20
70.39130741455577
 10
98.57786606232213
 20
70.39130741455577
 10
98.19132634887711
 20
70.77784712800076
 10
98.19132634887711
 20
70.77784712800076
 10
98.19132634887711
 20
70.77784712800076
 10
99.49426146139849
 20
72.08009322142524
 10
99.49426146139849
 20
72.08009322142524
 10
99.84014904811767
 20
72.42598080814435
 10
99.93936779809292
 20
72.82974599901556
 10
99.63826645268198
 20
73.13084734442646
 10
99.39125310638964
 20
73.37820520026736
 10
99.0140151507548
 20
73.36029070374403
 10
98.75356593206982
 20
73.22524296072225
 10
98.67260618816647
 20
73.18941396767565
 10
98.59646957794252
 20
73.13084734442646
 10
98.52894570643162
 20
73.06401249201255
 10
98.52894570643162
 20
73.06401249201255
 10
97.21705334564843
 20
71.75280915032644
 10
97.21705334564843
 20
71.75280915032644
 10
97.21705334564843
 20
71.75280915032644
 10
96.83120265130042
 20
72.13865984467443
 10
96.83120265130042
 20
72.13865984467443
 10
96.83120265130042
 20
72.13865984467443
 10
98.41663559361245
 20
73.72409278698646
 10
98.41663559361245
 20
73.72409278698646
 97
        0
 97
        0
 75
     2
 76
     1
 98
        0
450
        0
451
        0
460
0.0
461
0.0
452
        0
462
0.0
453
        0
470

  0
SPLINE
  5
3AB
330
1F
100
AcDbEntity
  8
Livello 1
100
AcDbSpline
210
0.0
220
0.0
230
1.0
 70
     9
 71
     3
 72
    80
 73
    76
 74
     0
 42
0.000000001
 43
0.0000000001
 40
0.0
 40
0.0
 40
0.0
 40
0.0
 40
1.0
 40
1.0
 40
1.0
 40
2.0
 40
2.0
 40
2.0
 40
3.0
 40
3.0
 40
3.0
 40
4.0
 40
4.0
 40
4.0
 40
5.0
 40
5.0
 40
5.0
 40
6.0
 40
6.0
 40
6.0
 40
7.0
 40
7.0
 40
7.0
 40
8.0
 40
8.0
 40
8.0
 40
9.0
 40
9.0
 40
9.0
 40
10.0
 40
10.0
 40
10.0
 40
11.0
 40
11.0
 40
11.0
 40
12.0
 40
12.0
 40
12.0
 40
13.0
 40
13.0
 40
13.0
 40
14.0
 40
14.0
 40
14.0
 40
15.0
 40
15.0
 40
15.0
 40
16.0
 40
16.0
 40
16.0
 40
17.0
 40
17.0
 40
17.0
 40
18.0
 40
18.0
 40
18.0
 40
19.0
 40
19.0
 40
19.0
 40
20.0
 40
20.0
 40
20.0
 40
21.0
 40
21.0
 40
21.0
 40
22.0
 40
22.0
 40
22.0
 40
23.0
 40
23.0
 40
23.0
 40
24.0
 40
24.0
 40
24.0
 40
25.0
 40
25.0
 40
25.0
 40
25.0
 10
102.1604208574334
 20
69.97858497542285
 30
0.0
 10
102.3853855926201
 20
70.20320520106117
 30
0.0
 10
102.5652195769503
 20
70.39130741455577
 30
0.0
 10
102.7312731793392
 20
70.58492178082676
 30
0.0
 10
102.7312731793392
 20
70.58492178082676
 30
0.0
 10
103.0768162565099
 20
70.23903419410775
 30
0.0
 10
103.0768162565099
 20
70.23903419410775
 30
0.0
 10
103.0768162565099
 20
70.23903419410775
 30
0.0
 10
102.7443645421832
 20
69.87040897718594
 30
0.0
 10
102.7443645421832
 20
69.87040897718594
 30
0.0
 10
102.7443645421832
 20
69.87040897718594
 30
0.0
 10
102.7578004145757
 20
69.85662859524495
 30
0.0
 10
102.7578004145757
 20
69.85662859524495
 30
0.0
 10
103.0857735047715
 20
69.94206696327916
 30
0.0
 10
103.4809259569296
 20
69.93310971501753
 30
0.0
 10
103.8399049064927
 20
69.57413076545444
 30
0.0
 10
104.1365276277727
 20
69.27716353462594
 30
0.0
 10
104.181313869081
 20
68.87339834375467
 30
0.0
 10
104.0197388908226
 20
68.52268762335626
 30
0.0
 10
104.0197388908226
 20
68.52268762335626
 30
0.0
 10
104.0286961390844
 20
68.51373037509453
 30
0.0
 10
104.0286961390844
 20
68.51373037509453
 30
0.0
 10
104.2174873716761
 20
68.56747386466444
 30
0.0
 10
104.3969768464575
 20
68.57643111292617
 30
0.0
 10
104.554073200585
 20
68.55369348272344
 30
0.0
 10
104.7831720503541
 20
68.52268762335626
 30
0.0
 10
104.9809205312075
 20
68.43242612164266
 30
0.0
 10
105.1876262603224
 20
68.22572039252776
 30
0.0
 10
105.4749472237923
 20
67.93839942905782
 30
0.0
 10
105.7126588122744
 20
67.32310537539226
 30
0.0
 10
104.9578383914562
 20
66.56862946412252
 30
0.0
 10
104.9578383914562
 20
66.56862946412252
 30
0.0
 10
103.6772963995889
 20
65.28912100090076
 30
0.0
 10
103.6772963995889
 20
65.28912100090076
 30
0.0
 10
103.6772963995889
 20
65.28912100090076
 30
0.0
 10
103.2914457052409
 20
65.67497169524876
 30
0.0
 10
103.2914457052409
 20
65.67497169524876
 30
0.0
 10
103.2914457052409
 20
65.67497169524876
 30
0.0
 10
104.5223783221207
 20
66.90555980257994
 30
0.0
 10
104.5223783221207
 20
66.90555980257994
 30
0.0
 10
104.9402684044815
 20
67.32310537539226
 30
0.0
 10
105.0391426449081
 20
67.72755958536055
 30
0.0
 10
104.7204713125225
 20
68.04657542729467
 30
0.0
 10
104.4958510868843
 20
68.27119565293293
 30
0.0
 10
104.154442124296
 20
68.28015290119466
 30
0.0
 10
103.8936483960626
 20
68.15475142553154
 30
0.0
 10
103.8219904099694
 20
68.11892243248493
 30
0.0
 10
103.7365520419351
 20
68.06035580923574
 30
0.0
 10
103.6648940558419
 20
67.98869782314247
 30
0.0
 10
103.6648940558419
 20
67.98869782314247
 30
0.0
 10
102.3213068165946
 20
66.64579960299215
 30
0.0
 10
102.3213068165946
 20
66.64579960299215
 30
0.0
 10
102.3213068165946
 20
66.64579960299215
 30
0.0
 10
101.9351116126981
 20
67.03233931643717
 30
0.0
 10
101.9351116126981
 20
67.03233931643717
 30
0.0
 10
101.9351116126981
 20
67.03233931643717
 30
0.0
 10
103.2377022156711
 20
68.33458540986166
 30
0.0
 10
103.2377022156711
 20
68.33458540986166
 30
0.0
 10
103.58358980239
 20
68.68047299658067
 30
0.0
 10
103.6828085523653
 20
69.08423818745195
 30
0.0
 10
103.382051716503
 20
69.38533953286276
 30
0.0
 10
103.1350383702106
 20
69.63269738870375
 30
0.0
 10
102.7581449241242
 20
69.61478289218044
 30
0.0
 10
102.4973511958908
 20
69.47973514915867
 30
0.0
 10
102.4163914519874
 20
69.44390615611204
 30
0.0
 10
102.3402548417635
 20
69.38533953286276
 30
0.0
 10
102.2727309702526
 20
69.31781566135194
 30
0.0
 10
102.2727309702526
 20
69.31781566135194
 30
0.0
 10
100.9611831190179
 20
68.00661231966586
 30
0.0
 10
100.9611831190179
 20
68.00661231966586
 30
0.0
 10
100.9611831190179
 20
68.00661231966586
 30
0.0
 10
100.5746434055729
 20
68.39315203311085
 30
0.0
 10
100.5746434055729
 20
68.39315203311085
 30
0.0
 10
100.5746434055729
 20
68.39315203311085
 30
0.0
 10
102.1604208574334
 20
69.97858497542285
 30
0.0
 10
102.1604208574334
 20
69.97858497542285
 30
0.0
  0
HATCH
  5
3AC
330
1F
100
AcDbEntity
  8
Livello 1
100
AcDbHatch
 10
0.0
 20
0.0
 30
0.0
210
0.0
220
0.0
230
1.0
  2
SOLID
 70
     1
 71
     0
 91
        1
 92
        1
 93
        1
 72
     4
 94
        3
 73
     0
 74
     0
 95
       80
 96
       76
 40
0.0
 40
0.0
 40
0.0
 40
0.0
 40
1.0
 40
1.0
 40
1.0
 40
2.0
 40
2.0
 40
2.0
 40
3.0
 40
3.0
 40
3.0
 40
4.0
 40
4.0
 40
4.0
 40
5.0
 40
5.0
 40
5.0
 40
6.0
 40
6.0
 40
6.0
 40
7.0
 40
7.0
 40
7.0
 40
8.0
 40
8.0
 40
8.0
 40
9.0
 40
9.0
 40
9.0
 40
10.0
 40
10.0
 40
10.0
 40
11.0
 40
11.0
 40
11.0
 40
12.0
 40
12.0
 40
12.0
 40
13.0
 40
13.0
 40
13.0
 40
14.0
 40
14.0
 40
14.0
 40
15.0
 40
15.0
 40
15.0
 40
16.0
 40
16.0
 40
16.0
 40
17.0
 40
17.0
 40
17.0
 40
18.0
 40
18.0
 40
18.0
 40
19.0
 40
19.0
 40
19.0
 40
20.0
 40
20.0
 40
20.0
 40
21.0
 40
21.0
 40
21.0
 40
22.0
 40
22.0
 40
22.0
 40
23.0
 40
23.0
 40
23.0
 40
24.0
 40
24.0
 40
24.0
 40
25.0
 40
25.0
 40
25.0
 40
25.0
 10
102.1604208574334
 20
69.97858497542285
 10
102.3853855926201
 20
70.20320520106117
 10
102.5652195769503
 20
70.39130741455577
 10
102.7312731793392
 20
70.58492178082676
 10
102.7312731793392
 20
70.58492178082676
 10
103.0768162565099
 20
70.23903419410775
 10
103.0768162565099
 20
70.23903419410775
 10
103.0768162565099
 20
70.23903419410775
 10
102.7443645421832
 20
69.87040897718594
 10
102.7443645421832
 20
69.87040897718594
 10
102.7443645421832
 20
69.87040897718594
 10
102.7578004145757
 20
69.85662859524495
 10
102.7578004145757
 20
69.85662859524495
 10
103.0857735047715
 20
69.94206696327916
 10
103.4809259569296
 20
69.93310971501753
 10
103.8399049064927
 20
69.57413076545444
 10
104.1365276277727
 20
69.27716353462594
 10
104.181313869081
 20
68.87339834375467
 10
104.0197388908226
 20
68.52268762335626
 10
104.0197388908226
 20
68.52268762335626
 10
104.0286961390844
 20
68.51373037509453
 10
104.0286961390844
 20
68.51373037509453
 10
104.2174873716761
 20
68.56747386466444
 10
104.3969768464575
 20
68.57643111292617
 10
104.554073200585
 20
68.55369348272344
 10
104.7831720503541
 20
68.52268762335626
 10
104.9809205312075
 20
68.43242612164266
 10
105.1876262603224
 20
68.22572039252776
 10
105.4749472237923
 20
67.93839942905782
 10
105.7126588122744
 20
67.32310537539226
 10
104.9578383914562
 20
66.56862946412252
 10
104.9578383914562
 20
66.56862946412252
 10
103.6772963995889
 20
65.28912100090076
 10
103.6772963995889
 20
65.28912100090076
 10
103.6772963995889
 20
65.28912100090076
 10
103.2914457052409
 20
65.67497169524876
 10
103.2914457052409
 20
65.67497169524876
 10
103.2914457052409
 20
65.67497169524876
 10
104.5223783221207
 20
66.90555980257994
 10
104.5223783221207
 20
66.90555980257994
 10
104.9402684044815
 20
67.32310537539226
 10
105.0391426449081
 20
67.72755958536055
 10
104.7204713125225
 20
68.04657542729467
 10
104.4958510868843
 20
68.27119565293293
 10
104.154442124296
 20
68.28015290119466
 10
103.8936483960626
 20
68.15475142553154
 10
103.8219904099694
 20
68.11892243248493
 10
103.7365520419351
 20
68.06035580923574
 10
103.6648940558419
 20
67.98869782314247
 10
103.6648940558419
 20
67.98869782314247
 10
102.3213068165946
 20
66.64579960299215
 10
102.3213068165946
 20
66.64579960299215
 10
102.3213068165946
 20
66.64579960299215
 10
101.9351116126981
 20
67.03233931643717
 10
101.9351116126981
 20
67.03233931643717
 10
101.9351116126981
 20
67.03233931643717
 10
103.2377022156711
 20
68.33458540986166
 10
103.2377022156711
 20
68.33458540986166
 10
103.58358980239
 20
68.68047299658067
 10
103.6828085523653
 20
69.08423818745195
 10
103.382051716503
 20
69.38533953286276
 10
103.1350383702106
 20
69.63269738870375
 10
102.7581449241242
 20
69.61478289218044
 10
102.4973511958908
 20
69.47973514915867
 10
102.4163914519874
 20
69.44390615611204
 10
102.3402548417635
 20
69.38533953286276
 10
102.2727309702526
 20
69.31781566135194
 10
102.2727309702526
 20
69.31781566135194
 10
100.9611831190179
 20
68.00661231966586
 10
100.9611831190179
 20
68.00661231966586
 10
100.9611831190179
 20
68.00661231966586
 10
100.5746434055729
 20
68.39315203311085
 10
100.5746434055729
 20
68.39315203311085
 10
100.5746434055729
 20
68.39315203311085
 10
102.1604208574334
 20
69.97858497542285
 10
102.1604208574334
 20
69.97858497542285
 97
        0
 97
        0
 75
     2
 76
     1
 98
        0
450
        0
451
        0
460
0.0
461
0.0
452
        0
462
0.0
453
        0
470

  0
LINE
  5
3AD
330
1F
100
AcDbEntity
  8
Livello 1
100
AcDbLine
 10
55.80082552968497
 20
75.57252811147018
 30
0.0
 11
55.80082552968497
 21
40.53265401467678
 31
0.0
  0
LINE
  5
3AE
330
1F
100
AcDbEntity
  8
Livello 1
100
AcDbLine
 10
61.6648541078095
 20
37.60954711827503
 30
0.0
 11
96.86583126531388
 21
37.60954711827503
 31
0.0
  0
SPLINE
  5
3AF
330
1F
100
AcDbEntity
  8
Livello 1
100
AcDbSpline
210
0.0
220
0.0
230
1.0
 70
     9
 71
     3
 72
    59
 73
    55
 74
     0
 42
0.000000001
 43
0.0000000001
 40
0.0
 40
0.0
 40
0.0
 40
0.0
 40
1.0
 40
1.0
 40
1.0
 40
2.0
 40
2.0
 40
2.0
 40
3.0
 40
3.0
 40
3.0
 40
4.0
 40
4.0
 40
4.0
 40
5.0
 40
5.0
 40
5.0
 40
6.0
 40
6.0
 40
6.0
 40
7.0
 40
7.0
 40
7.0
 40
8.0
 40
8.0
 40
8.0
 40
9.0
 40
9.0
 40
9.0
 40
10.0
 40
10.0
 40
10.0
 40
11.0
 40
11.0
 40
11.0
 40
12.0
 40
12.0
 40
12.0
 40
13.0
 40
13.0
 40
13.0
 40
14.0
 40
14.0
 40
14.0
 40
15.0
 40
15.0
 40
15.0
 40
16.0
 40
16.0
 40
16.0
 40
17.0
 40
17.0
 40
17.0
 40
18.0
 40
18.0
 40
18.0
 40
18.0
 10
73.40782619231248
 20
31.77936623497269
 30
0.0
 10
73.5666450941826
 20
31.67773591815777
 30
0.0
 10
73.93492580155577
 20
31.51891701628776
 30
0.0
 10
74.32249904364642
 20
31.51891701628776
 30
0.0
 10
75.0401124332239
 20
31.51891701628776
 30
0.0
 10
75.26266560157097
 20
31.97608118718034
 30
0.0
 10
75.2561199201491
 20
32.31921269751123
 30
0.0
 10
75.2499187482756
 20
32.89729971993617
 30
0.0
 10
74.72902031090592
 20
33.14500208532564
 30
0.0
 10
74.18917384836714
 20
33.14500208532564
 30
0.0
 10
74.18917384836714
 20
33.14500208532564
 30
0.0
 10
73.87773721650063
 20
33.14500208532564
 30
0.0
 10
73.87773721650063
 20
33.14500208532564
 30
0.0
 10
73.87773721650063
 20
33.14500208532564
 30
0.0
 10
73.87773721650063
 20
33.56427020588055
 30
0.0
 10
73.87773721650063
 20
33.56427020588055
 30
0.0
 10
73.87773721650063
 20
33.56427020588055
 30
0.0
 10
74.18917384836714
 20
33.56427020588055
 30
0.0
 10
74.18917384836714
 20
33.56427020588055
 30
0.0
 10
74.59569511562666
 20
33.56427020588055
 30
0.0
 10
75.11004787157446
 20
33.77373201138377
 30
0.0
 10
75.11004787157446
 20
34.26293557028925
 30
0.0
 10
75.11004787157446
 20
34.59332022732465
 30
0.0
 10
74.9005860660713
 20
34.88546432447388
 30
0.0
 10
74.385888800575
 20
34.88546432447388
 30
0.0
 10
74.0558486530881
 20
34.88546432447388
 30
0.0
 10
73.73821084934798
 20
34.73939227589927
 30
0.0
 10
73.56009941276062
 20
34.61226825249355
 30
0.0
 10
73.56009941276062
 20
34.61226825249355
 30
0.0
 10
73.41402736418598
 20
35.01878951975303
 30
0.0
 10
73.41402736418598
 20
35.01878951975303
 30
0.0
 10
73.63003485111107
 20
35.17760842162303
 30
0.0
 10
74.04930297166612
 20
35.33642732349304
 30
0.0
 10
74.49406479881179
 20
35.33642732349304
 30
0.0
 10
75.3071073333308
 20
35.33642732349304
 30
0.0
 10
75.67538804070398
 20
34.85376944600955
 30
0.0
 10
75.67538804070398
 20
34.35181903380865
 30
0.0
 10
75.67538804070398
 20
33.92634974138033
 30
0.0
 10
75.42148450344098
 20
33.56427020588055
 30
0.0
 10
74.91333291936666
 20
33.37995759741966
 30
0.0
 10
74.91333291936666
 20
33.37995759741966
 30
0.0
 10
74.91333291936666
 20
33.36721074412424
 30
0.0
 10
74.91333291936666
 20
33.36721074412424
 30
0.0
 10
75.42148450344098
 20
33.26558042730937
 30
0.0
 10
75.83420694257398
 20
32.88455286664078
 30
0.0
 10
75.83420694257398
 20
32.30646584421584
 30
0.0
 10
75.83420694257398
 20
31.64604103969344
 30
0.0
 10
75.31985418662618
 20
31.06795401726856
 30
0.0
 10
74.3287002155198
 20
31.06795401726856
 30
0.0
 10
73.86499036320515
 20
31.06795401726856
 30
0.0
 10
73.45846909594564
 20
31.21402606584315
 30
0.0
 10
73.25520846231597
 20
31.34735126112227
 30
0.0
 10
73.25520846231597
 20
31.34735126112227
 30
0.0
 10
73.40782619231248
 20
31.77936623497269
 30
0.0
 10
73.40782619231248
 20
31.77936623497269
 30
0.0
  0
HATCH
  5
3B0
330
1F
100
AcDbEntity
  8
Livello 1
100
AcDbHatch
 10
0.0
 20
0.0
 30
0.0
210
0.0
220
0.0
230
1.0
  2
SOLID
 70
     1
 71
     0
 91
        1
 92
        1
 93
        1
 72
     4
 94
        3
 73
     0
 74
     0
 95
       59
 96
       55
 40
0.0
 40
0.0
 40
0.0
 40
0.0
 40
1.0
 40
1.0
 40
1.0
 40
2.0
 40
2.0
 40
2.0
 40
3.0
 40
3.0
 40
3.0
 40
4.0
 40
4.0
 40
4.0
 40
5.0
 40
5.0
 40
5.0
 40
6.0
 40
6.0
 40
6.0
 40
7.0
 40
7.0
 40
7.0
 40
8.0
 40
8.0
 40
8.0
 40
9.0
 40
9.0
 40
9.0
 40
10.0
 40
10.0
 40
10.0
 40
11.0
 40
11.0
 40
11.0
 40
12.0
 40
12.0
 40
12.0
 40
13.0
 40
13.0
 40
13.0
 40
14.0
 40
14.0
 40
14.0
 40
15.0
 40
15.0
 40
15.0
 40
16.0
 40
16.0
 40
16.0
 40
17.0
 40
17.0
 40
17.0
 40
18.0
 40
18.0
 40
18.0
 40
18.0
 10
73.40782619231248
 20
31.77936623497269
 10
73.5666450941826
 20
31.67773591815777
 10
73.93492580155577
 20
31.51891701628776
 10
74.32249904364642
 20
31.51891701628776
 10
75.0401124332239
 20
31.51891701628776
 10
75.26266560157097
 20
31.97608118718034
 10
75.2561199201491
 20
32.31921269751123
 10
75.2499187482756
 20
32.89729971993617
 10
74.72902031090592
 20
33.14500208532564
 10
74.18917384836714
 20
33.14500208532564
 10
74.18917384836714
 20
33.14500208532564
 10
73.87773721650063
 20
33.14500208532564
 10
73.87773721650063
 20
33.14500208532564
 10
73.87773721650063
 20
33.14500208532564
 10
73.87773721650063
 20
33.56427020588055
 10
73.87773721650063
 20
33.56427020588055
 10
73.87773721650063
 20
33.56427020588055
 10
74.18917384836714
 20
33.56427020588055
 10
74.18917384836714
 20
33.56427020588055
 10
74.59569511562666
 20
33.56427020588055
 10
75.11004787157446
 20
33.77373201138377
 10
75.11004787157446
 20
34.26293557028925
 10
75.11004787157446
 20
34.59332022732465
 10
74.9005860660713
 20
34.88546432447388
 10
74.385888800575
 20
34.88546432447388
 10
74.0558486530881
 20
34.88546432447388
 10
73.73821084934798
 20
34.73939227589927
 10
73.56009941276062
 20
34.61226825249355
 10
73.56009941276062
 20
34.61226825249355
 10
73.41402736418598
 20
35.01878951975303
 10
73.41402736418598
 20
35.01878951975303
 10
73.63003485111107
 20
35.17760842162303
 10
74.04930297166612
 20
35.33642732349304
 10
74.49406479881179
 20
35.33642732349304
 10
75.3071073333308
 20
35.33642732349304
 10
75.67538804070398
 20
34.85376944600955
 10
75.67538804070398
 20
34.35181903380865
 10
75.67538804070398
 20
33.92634974138033
 10
75.42148450344098
 20
33.56427020588055
 10
74.91333291936666
 20
33.37995759741966
 10
74.91333291936666
 20
33.37995759741966
 10
74.91333291936666
 20
33.36721074412424
 10
74.91333291936666
 20
33.36721074412424
 10
75.42148450344098
 20
33.26558042730937
 10
75.83420694257398
 20
32.88455286664078
 10
75.83420694257398
 20
32.30646584421584
 10
75.83420694257398
 20
31.64604103969344
 10
75.31985418662618
 20
31.06795401726856
 10
74.3287002155198
 20
31.06795401726856
 10
73.86499036320515
 20
31.06795401726856
 10
73.45846909594564
 20
31.21402606584315
 10
73.25520846231597
 20
31.34735126112227
 10
73.25520846231597
 20
31.34735126112227
 10
73.40782619231248
 20
31.77936623497269
 10
73.40782619231248
 20
31.77936623497269
 97
        0
 97
        0
 75
     2
 76
     1
 98
        0
450
        0
451
        0
460
0.0
461
0.0
452
        0
462
0.0
453
        0
470

  0
POLYLINE
  5
3B1
330
1F
100
AcDbEntity
  8
Livello 1
100
AcDb2dPolyline
 66
     1
 10
0.0
 20
0.0
 30
0.0
  0
VERTEX
  5
3B2
330
3B1
100
AcDbEntity
  8
Livello 1
100
AcDbVertex
100
AcDb2dVertex
 10
77.74485689869362
 20
34.74559344777274
 30
0.0
  0
VERTEX
  5
3B3
330
3B1
100
AcDbEntity
  8
Livello 1
100
AcDbVertex
100
AcDb2dVertex
 10
77.73211004539814
 20
34.74559344777274
 30
0.0
  0
VERTEX
  5
3B4
330
3B1
100
AcDbEntity
  8
Livello 1
100
AcDbVertex
100
AcDb2dVertex
 10
77.0144966558206
 20
34.35836471523066
 30
0.0
  0
VERTEX
  5
3B5
330
3B1
100
AcDbEntity
  8
Livello 1
100
AcDbVertex
100
AcDb2dVertex
 10
76.90632065758382
 20
34.78383400765901
 30
0.0
  0
VERTEX
  5
3B6
330
3B1
100
AcDbEntity
  8
Livello 1
100
AcDbVertex
100
AcDb2dVertex
 10
77.80859116517063
 20
35.26649188514245
 30
0.0
  0
VERTEX
  5
3B7
330
3B1
100
AcDbEntity
  8
Livello 1
100
AcDbVertex
100
AcDb2dVertex
 10
78.28470336123217
 20
35.26649188514245
 30
0.0
  0
VERTEX
  5
3B8
330
3B1
100
AcDbEntity
  8
Livello 1
100
AcDbVertex
100
AcDb2dVertex
 10
78.28470336123217
 20
31.13788945561916
 30
0.0
  0
VERTEX
  5
3B9
330
3B1
100
AcDbEntity
  8
Livello 1
100
AcDbVertex
100
AcDb2dVertex
 10
77.74485689869362
 20
31.13788945561916
 30
0.0
  0
VERTEX
  5
3BA
330
3B1
100
AcDbEntity
  8
Livello 1
100
AcDbVertex
100
AcDb2dVertex
 10
77.74485689869362
 20
34.74559344777274
 30
0.0
  0
SEQEND
  5
3BB
330
3B1
100
AcDbEntity
  8
Livello 1
  0
HATCH
  5
3BC
330
1F
100
AcDbEntity
  8
Livello 1
100
AcDbHatch
 10
0.0
 20
0.0
 30
0.0
210
0.0
220
0.0
230
1.0
  2
SOLID
 70
     1
 71
     0
 91
        1
 92
        1
 93
        8
 72
     1
 10
77.74485689869362
 20
34.74559344777274
 11
77.73211004539814
 21
34.74559344777274
 72
     1
 10
77.73211004539814
 20
34.74559344777274
 11
77.0144966558206
 21
34.35836471523066
 72
     1
 10
77.0144966558206
 20
34.35836471523066
 11
76.90632065758382
 21
34.78383400765901
 72
     1
 10
76.90632065758382
 20
34.78383400765901
 11
77.80859116517063
 21
35.26649188514245
 72
     1
 10
77.80859116517063
 20
35.26649188514245
 11
78.28470336123217
 21
35.26649188514245
 72
     1
 10
78.28470336123217
 20
35.26649188514245
 11
78.28470336123217
 21
31.13788945561916
 72
     1
 10
78.28470336123217
 20
31.13788945561916
 11
77.74485689869362
 21
31.13788945561916
 72
     1
 10
77.74485689869362
 20
31.13788945561916
 11
77.74485689869362
 21
34.74559344777274
 97
        0
 75
     2
 76
     1
 98
        0
450
        0
451
        0
460
0.0
461
0.0
452
        0
462
0.0
453
        0
470

  0
SPLINE
  5
3BD
330
1F
100
AcDbEntity
  8
Livello 1
100
AcDbSpline
210
0.0
220
0.0
230
1.0
 70
     9
 71
     3
 72
    80
 73
    76
 74
     0
 42
0.000000001
 43
0.0000000001
 40
0.0
 40
0.0
 40
0.0
 40
0.0
 40
1.0
 40
1.0
 40
1.0
 40
2.0
 40
2.0
 40
2.0
 40
3.0
 40
3.0
 40
3.0
 40
4.0
 40
4.0
 40
4.0
 40
5.0
 40
5.0
 40
5.0
 40
6.0
 40
6.0
 40
6.0
 40
7.0
 40
7.0
 40
7.0
 40
8.0
 40
8.0
 40
8.0
 40
9.0
 40
9.0
 40
9.0
 40
10.0
 40
10.0
 40
10.0
 40
11.0
 40
11.0
 40
11.0
 40
12.0
 40
12.0
 40
12.0
 40
13.0
 40
13.0
 40
13.0
 40
14.0
 40
14.0
 40
14.0
 40
15.0
 40
15.0
 40
15.0
 40
16.0
 40
16.0
 40
16.0
 40
17.0
 40
17.0
 40
17.0
 40
18.0
 40
18.0
 40
18.0
 40
19.0
 40
19.0
 40
19.0
 40
20.0
 40
20.0
 40
20.0
 40
21.0
 40
21.0
 40
21.0
 40
22.0
 40
22.0
 40
22.0
 40
23.0
 40
23.0
 40
23.0
 40
24.0
 40
24.0
 40
24.0
 40
25.0
 40
25.0
 40
25.0
 40
25.0
 10
81.31328680231531
 20
33.37995759741966
 30
0.0
 10
81.31328680231531
 20
33.69759540115976
 30
0.0
 10
81.30708563044192
 20
33.95804461984466
 30
0.0
 10
81.28779309572445
 20
34.21194815710754
 30
0.0
 10
81.28779309572445
 20
34.21194815710754
 30
0.0
 10
81.77699665462995
 20
34.21194815710754
 30
0.0
 10
81.77699665462995
 20
34.21194815710754
 30
0.0
 10
81.77699665462995
 20
34.21194815710754
 30
0.0
 10
81.80249036122081
 20
33.71654342632854
 30
0.0
 10
81.80249036122081
 20
33.71654342632854
 30
0.0
 10
81.80249036122081
 20
33.71654342632854
 30
0.0
 10
81.82143838638967
 20
33.71654342632854
 30
0.0
 10
81.82143838638967
 20
33.71654342632854
 30
0.0
 10
81.9930041415551
 20
34.00868752347776
 30
0.0
 10
82.27860255728229
 20
34.28188359545817
 30
0.0
 10
82.78675414135665
 20
34.28188359545817
 30
0.0
 10
83.20602226191164
 20
34.28188359545817
 30
0.0
 10
83.5236600656516
 20
34.02798005819517
 30
0.0
 10
83.65698526093074
 20
33.66590052269547
 30
0.0
 10
83.65698526093074
 20
33.66590052269547
 30
0.0
 10
83.66973211422617
 20
33.66590052269547
 30
0.0
 10
83.66973211422617
 20
33.66590052269547
 30
0.0
 10
83.76516125916765
 20
33.83746627786087
 30
0.0
 10
83.88573960115143
 20
33.97079147314006
 30
0.0
 10
84.0128636245571
 20
34.06587610853293
 30
0.0
 10
84.19717623301801
 20
34.20574698523407
 30
0.0
 10
84.40043686664768
 20
34.28188359545817
 30
0.0
 10
84.69258096379689
 20
34.28188359545817
 30
0.0
 10
85.09910223105647
 20
34.28188359545817
 30
0.0
 10
85.7023384505236
 20
34.01523320489977
 30
0.0
 10
85.7023384505236
 20
32.94794262356936
 30
0.0
 10
85.7023384505236
 20
32.94794262356936
 30
0.0
 10
85.7023384505236
 20
31.13788945561916
 30
0.0
 10
85.7023384505236
 20
31.13788945561916
 30
0.0
 10
85.7023384505236
 20
31.13788945561916
 30
0.0
 10
85.1562908161115
 20
31.13788945561916
 30
0.0
 10
85.1562908161115
 20
31.13788945561916
 30
0.0
 10
85.1562908161115
 20
31.13788945561916
 30
0.0
 10
85.1562908161115
 20
32.87835169476736
 30
0.0
 10
85.1562908161115
 20
32.87835169476736
 30
0.0
 10
85.1562908161115
 20
33.46884106093916
 30
0.0
 10
84.94028332918629
 20
33.82471942456545
 30
0.0
 10
84.48932033016717
 20
33.82471942456545
 30
0.0
 10
84.1716825264271
 20
33.82471942456545
 30
0.0
 10
83.92398016103767
 20
33.58976391247145
 30
0.0
 10
83.82855101609619
 20
33.31656784049116
 30
0.0
 10
83.80305730950539
 20
33.24043123026707
 30
0.0
 10
83.78410928433646
 20
33.13880091345217
 30
0.0
 10
83.78410928433646
 20
33.03717059663737
 30
0.0
 10
83.78410928433646
 20
33.03717059663737
 30
0.0
 10
83.78410928433646
 20
31.13788945561916
 30
0.0
 10
83.78410928433646
 20
31.13788945561916
 30
0.0
 10
83.78410928433646
 20
31.13788945561916
 30
0.0
 10
83.23771714037594
 20
31.13788945561916
 30
0.0
 10
83.23771714037594
 20
31.13788945561916
 30
0.0
 10
83.23771714037594
 20
31.13788945561916
 30
0.0
 10
83.23771714037594
 20
32.97998201158217
 30
0.0
 10
83.23771714037594
 20
32.97998201158217
 30
0.0
 10
83.23771714037594
 20
33.46884106093916
 30
0.0
 10
83.02205416299932
 20
33.82471942456545
 30
0.0
 10
82.59624036102241
 20
33.82471942456545
 30
0.0
 10
82.2469076788181
 20
33.82471942456545
 30
0.0
 10
81.9930041415551
 20
33.54532218071165
 30
0.0
 10
81.90412067803567
 20
33.26558042730937
 30
0.0
 10
81.87208129002277
 20
33.18324264521192
 30
0.0
 10
81.85967894627594
 20
33.08781350027044
 30
0.0
 10
81.85967894627594
 20
32.99238435532905
 30
0.0
 10
81.85967894627594
 20
32.99238435532905
 30
0.0
 10
81.85967894627594
 20
31.13788945561916
 30
0.0
 10
81.85967894627594
 20
31.13788945561916
 30
0.0
 10
81.85967894627594
 20
31.13788945561916
 30
0.0
 10
81.31328680231531
 20
31.13788945561916
 30
0.0
 10
81.31328680231531
 20
31.13788945561916
 30
0.0
 10
81.31328680231531
 20
31.13788945561916
 30
0.0
 10
81.31328680231531
 20
33.37995759741966
 30
0.0
 10
81.31328680231531
 20
33.37995759741966
 30
0.0
  0
HATCH
  5
3BE
330
1F
100
AcDbEntity
  8
Livello 1
100
AcDbHatch
 10
0.0
 20
0.0
 30
0.0
210
0.0
220
0.0
230
1.0
  2
SOLID
 70
     1
 71
     0
 91
        1
 92
        1
 93
        1
 72
     4
 94
        3
 73
     0
 74
     0
 95
       80
 96
       76
 40
0.0
 40
0.0
 40
0.0
 40
0.0
 40
1.0
 40
1.0
 40
1.0
 40
2.0
 40
2.0
 40
2.0
 40
3.0
 40
3.0
 40
3.0
 40
4.0
 40
4.0
 40
4.0
 40
5.0
 40
5.0
 40
5.0
 40
6.0
 40
6.0
 40
6.0
 40
7.0
 40
7.0
 40
7.0
 40
8.0
 40
8.0
 40
8.0
 40
9.0
 40
9.0
 40
9.0
 40
10.0
 40
10.0
 40
10.0
 40
11.0
 40
11.0
 40
11.0
 40
12.0
 40
12.0
 40
12.0
 40
13.0
 40
13.0
 40
13.0
 40
14.0
 40
14.0
 40
14.0
 40
15.0
 40
15.0
 40
15.0
 40
16.0
 40
16.0
 40
16.0
 40
17.0
 40
17.0
 40
17.0
 40
18.0
 40
18.0
 40
18.0
 40
19.0
 40
19.0
 40
19.0
 40
20.0
 40
20.0
 40
20.0
 40
21.0
 40
21.0
 40
21.0
 40
22.0
 40
22.0
 40
22.0
 40
23.0
 40
23.0
 40
23.0
 40
24.0
 40
24.0
 40
24.0
 40
25.0
 40
25.0
 40
25.0
 40
25.0
 10
81.31328680231531
 20
33.37995759741966
 10
81.31328680231531
 20
33.69759540115976
 10
81.30708563044192
 20
33.95804461984466
 10
81.28779309572445
 20
34.21194815710754
 10
81.28779309572445
 20
34.21194815710754
 10
81.77699665462995
 20
34.21194815710754
 10
81.77699665462995
 20
34.21194815710754
 10
81.77699665462995
 20
34.21194815710754
 10
81.80249036122081
 20
33.71654342632854
 10
81.80249036122081
 20
33.71654342632854
 10
81.80249036122081
 20
33.71654342632854
 10
81.82143838638967
 20
33.71654342632854
 10
81.82143838638967
 20
33.71654342632854
 10
81.9930041415551
 20
34.00868752347776
 10
82.27860255728229
 20
34.28188359545817
 10
82.78675414135665
 20
34.28188359545817
 10
83.20602226191164
 20
34.28188359545817
 10
83.5236600656516
 20
34.02798005819517
 10
83.65698526093074
 20
33.66590052269547
 10
83.65698526093074
 20
33.66590052269547
 10
83.66973211422617
 20
33.66590052269547
 10
83.66973211422617
 20
33.66590052269547
 10
83.76516125916765
 20
33.83746627786087
 10
83.88573960115143
 20
33.97079147314006
 10
84.0128636245571
 20
34.06587610853293
 10
84.19717623301801
 20
34.20574698523407
 10
84.40043686664768
 20
34.28188359545817
 10
84.69258096379689
 20
34.28188359545817
 10
85.09910223105647
 20
34.28188359545817
 10
85.7023384505236
 20
34.01523320489977
 10
85.7023384505236
 20
32.94794262356936
 10
85.7023384505236
 20
32.94794262356936
 10
85.7023384505236
 20
31.13788945561916
 10
85.7023384505236
 20
31.13788945561916
 10
85.7023384505236
 20
31.13788945561916
 10
85.1562908161115
 20
31.13788945561916
 10
85.1562908161115
 20
31.13788945561916
 10
85.1562908161115
 20
31.13788945561916
 10
85.1562908161115
 20
32.87835169476736
 10
85.1562908161115
 20
32.87835169476736
 10
85.1562908161115
 20
33.46884106093916
 10
84.94028332918629
 20
33.82471942456545
 10
84.48932033016717
 20
33.82471942456545
 10
84.1716825264271
 20
33.82471942456545
 10
83.92398016103767
 20
33.58976391247145
 10
83.82855101609619
 20
33.31656784049116
 10
83.80305730950539
 20
33.24043123026707
 10
83.78410928433646
 20
33.13880091345217
 10
83.78410928433646
 20
33.03717059663737
 10
83.78410928433646
 20
33.03717059663737
 10
83.78410928433646
 20
31.13788945561916
 10
83.78410928433646
 20
31.13788945561916
 10
83.78410928433646
 20
31.13788945561916
 10
83.23771714037594
 20
31.13788945561916
 10
83.23771714037594
 20
31.13788945561916
 10
83.23771714037594
 20
31.13788945561916
 10
83.23771714037594
 20
32.97998201158217
 10
83.23771714037594
 20
32.97998201158217
 10
83.23771714037594
 20
33.46884106093916
 10
83.02205416299932
 20
33.82471942456545
 10
82.59624036102241
 20
33.82471942456545
 10
82.2469076788181
 20
33.82471942456545
 10
81.9930041415551
 20
33.54532218071165
 10
81.90412067803567
 20
33.26558042730937
 10
81.87208129002277
 20
33.18324264521192
 10
81.85967894627594
 20
33.08781350027044
 10
81.85967894627594
 20
32.99238435532905
 10
81.85967894627594
 20
32.99238435532905
 10
81.85967894627594
 20
31.13788945561916
 10
81.85967894627594
 20
31.13788945561916
 10
81.85967894627594
 20
31.13788945561916
 10
81.31328680231531
 20
31.13788945561916
 10
81.31328680231531
 20
31.13788945561916
 10
81.31328680231531
 20
31.13788945561916
 10
81.31328680231531
 20
33.37995759741966
 10
81.31328680231531
 20
33.37995759741966
 97
        0
 97
        0
 75
     2
 76
     1
 98
        0
450
        0
451
        0
460
0.0
461
0.0
452
        0
462
0.0
453
        0
470

  0
SPLINE
  5
3BF
330
1F
100
AcDbEntity
  8
Livello 1
100
AcDbSpline
210
0.0
220
0.0
230
1.0
 70
     9
 71
     3
 72
    80
 73
    76
 74
     0
 42
0.000000001
 43
0.0000000001
 40
0.0
 40
0.0
 40
0.0
 40
0.0
 40
1.0
 40
1.0
 40
1.0
 40
2.0
 40
2.0
 40
2.0
 40
3.0
 40
3.0
 40
3.0
 40
4.0
 40
4.0
 40
4.0
 40
5.0
 40
5.0
 40
5.0
 40
6.0
 40
6.0
 40
6.0
 40
7.0
 40
7.0
 40
7.0
 40
8.0
 40
8.0
 40
8.0
 40
9.0
 40
9.0
 40
9.0
 40
10.0
 40
10.0
 40
10.0
 40
11.0
 40
11.0
 40
11.0
 40
12.0
 40
12.0
 40
12.0
 40
13.0
 40
13.0
 40
13.0
 40
14.0
 40
14.0
 40
14.0
 40
15.0
 40
15.0
 40
15.0
 40
16.0
 40
16.0
 40
16.0
 40
17.0
 40
17.0
 40
17.0
 40
18.0
 40
18.0
 40
18.0
 40
19.0
 40
19.0
 40
19.0
 40
20.0
 40
20.0
 40
20.0
 40
21.0
 40
21.0
 40
21.0
 40
22.0
 40
22.0
 40
22.0
 40
23.0
 40
23.0
 40
23.0
 40
24.0
 40
24.0
 40
24.0
 40
25.0
 40
25.0
 40
25.0
 40
25.0
 10
86.60908758224143
 20
33.37995759741966
 30
0.0
 10
86.60908758224143
 20
33.69759540115976
 30
0.0
 10
86.60288641036794
 20
33.95804461984466
 30
0.0
 10
86.58359387565047
 20
34.21194815710754
 30
0.0
 10
86.58359387565047
 20
34.21194815710754
 30
0.0
 10
87.07279743455599
 20
34.21194815710754
 30
0.0
 10
87.07279743455599
 20
34.21194815710754
 30
0.0
 10
87.07279743455599
 20
34.21194815710754
 30
0.0
 10
87.09829114114677
 20
33.71654342632854
 30
0.0
 10
87.09829114114677
 20
33.71654342632854
 30
0.0
 10
87.09829114114677
 20
33.71654342632854
 30
0.0
 10
87.11723916631582
 20
33.71654342632854
 30
0.0
 10
87.11723916631582
 20
33.71654342632854
 30
0.0
 10
87.28880492148119
 20
34.00868752347776
 30
0.0
 10
87.57440333720841
 20
34.28188359545817
 30
0.0
 10
88.08255492128267
 20
34.28188359545817
 30
0.0
 10
88.50182304183761
 20
34.28188359545817
 30
0.0
 10
88.81928859080341
 20
34.02798005819517
 30
0.0
 10
88.95261378608262
 20
33.66590052269547
 30
0.0
 10
88.95261378608262
 20
33.66590052269547
 30
0.0
 10
88.965360639378
 20
33.66590052269547
 30
0.0
 10
88.965360639378
 20
33.66590052269547
 30
0.0
 10
89.0607897843194
 20
33.83746627786087
 30
0.0
 10
89.18136812630308
 20
33.97079147314006
 30
0.0
 10
89.30849214970891
 20
34.06587610853293
 30
0.0
 10
89.49280475816976
 20
34.20574698523407
 30
0.0
 10
89.69606539179949
 20
34.28188359545817
 30
0.0
 10
89.98820948894865
 20
34.28188359545817
 30
0.0
 10
90.39473075620817
 20
34.28188359545817
 30
0.0
 10
90.99796697567541
 20
34.01523320489977
 30
0.0
 10
90.99796697567541
 20
32.94794262356936
 30
0.0
 10
90.99796697567541
 20
32.94794262356936
 30
0.0
 10
90.99796697567541
 20
31.13788945561916
 30
0.0
 10
90.99796697567541
 20
31.13788945561916
 30
0.0
 10
90.99796697567541
 20
31.13788945561916
 30
0.0
 10
90.4519193412633
 20
31.13788945561916
 30
0.0
 10
90.4519193412633
 20
31.13788945561916
 30
0.0
 10
90.4519193412633
 20
31.13788945561916
 30
0.0
 10
90.4519193412633
 20
32.87835169476736
 30
0.0
 10
90.4519193412633
 20
32.87835169476736
 30
0.0
 10
90.4519193412633
 20
33.46884106093916
 30
0.0
 10
90.23591185433815
 20
33.82471942456545
 30
0.0
 10
89.78494885531887
 20
33.82471942456545
 30
0.0
 10
89.46731105157892
 20
33.82471942456545
 30
0.0
 10
89.21960868618942
 20
33.58976391247145
 30
0.0
 10
89.124179541248
 20
33.31656784049116
 30
0.0
 10
89.09868583465714
 20
33.24043123026707
 30
0.0
 10
89.07973780948827
 20
33.13880091345217
 30
0.0
 10
89.07973780948827
 20
33.03717059663737
 30
0.0
 10
89.07973780948827
 20
33.03717059663737
 30
0.0
 10
89.07973780948827
 20
31.13788945561916
 30
0.0
 10
89.07973780948827
 20
31.13788945561916
 30
0.0
 10
89.07973780948827
 20
31.13788945561916
 30
0.0
 10
88.53334566552769
 20
31.13788945561916
 30
0.0
 10
88.53334566552769
 20
31.13788945561916
 30
0.0
 10
88.53334566552769
 20
31.13788945561916
 30
0.0
 10
88.53334566552769
 20
32.97998201158217
 30
0.0
 10
88.53334566552769
 20
32.97998201158217
 30
0.0
 10
88.53334566552769
 20
33.46884106093916
 30
0.0
 10
88.3178549429253
 20
33.82471942456545
 30
0.0
 10
87.89204114094838
 20
33.82471942456545
 30
0.0
 10
87.54270845874414
 20
33.82471942456545
 30
0.0
 10
87.28880492148119
 20
33.54532218071165
 30
0.0
 10
87.19992145796181
 20
33.26558042730937
 30
0.0
 10
87.16788206994891
 20
33.18324264521192
 30
0.0
 10
87.15547972620198
 20
33.08781350027044
 30
0.0
 10
87.15547972620198
 20
32.99238435532905
 30
0.0
 10
87.15547972620198
 20
32.99238435532905
 30
0.0
 10
87.15547972620198
 20
31.13788945561916
 30
0.0
 10
87.15547972620198
 20
31.13788945561916
 30
0.0
 10
87.15547972620198
 20
31.13788945561916
 30
0.0
 10
86.60908758224143
 20
31.13788945561916
 30
0.0
 10
86.60908758224143
 20
31.13788945561916
 30
0.0
 10
86.60908758224143
 20
31.13788945561916
 30
0.0
 10
86.60908758224143
 20
33.37995759741966
 30
0.0
 10
86.60908758224143
 20
33.37995759741966
 30
0.0
  0
HATCH
  5
3C0
330
1F
100
AcDbEntity
  8
Livello 1
100
AcDbHatch
 10
0.0
 20
0.0
 30
0.0
210
0.0
220
0.0
230
1.0
  2
SOLID
 70
     1
 71
     0
 91
        1
 92
        1
 93
        1
 72
     4
 94
        3
 73
     0
 74
     0
 95
       80
 96
       76
 40
0.0
 40
0.0
 40
0.0
 40
0.0
 40
1.0
 40
1.0
 40
1.0
 40
2.0
 40
2.0
 40
2.0
 40
3.0
 40
3.0
 40
3.0
 40
4.0
 40
4.0
 40
4.0
 40
5.0
 40
5.0
 40
5.0
 40
6.0
 40
6.0
 40
6.0
 40
7.0
 40
7.0
 40
7.0
 40
8.0
 40
8.0
 40
8.0
 40
9.0
 40
9.0
 40
9.0
 40
10.0
 40
10.0
 40
10.0
 40
11.0
 40
11.0
 40
11.0
 40
12.0
 40
12.0
 40
12.0
 40
13.0
 40
13.0
 40
13.0
 40
14.0
 40
14.0
 40
14.0
 40
15.0
 40
15.0
 40
15.0
 40
16.0
 40
16.0
 40
16.0
 40
17.0
 40
17.0
 40
17.0
 40
18.0
 40
18.0
 40
18.0
 40
19.0
 40
19.0
 40
19.0
 40
20.0
 40
20.0
 40
20.0
 40
21.0
 40
21.0
 40
21.0
 40
22.0
 40
22.0
 40
22.0
 40
23.0
 40
23.0
 40
23.0
 40
24.0
 40
24.0
 40
24.0
 40
25.0
 40
25.0
 40
25.0
 40
25.0
 10
86.60908758224143
 20
33.37995759741966
 10
86.60908758224143
 20
33.69759540115976
 10
86.60288641036794
 20
33.95804461984466
 10
86.58359387565047
 20
34.21194815710754
 10
86.58359387565047
 20
34.21194815710754
 10
87.07279743455599
 20
34.21194815710754
 10
87.07279743455599
 20
34.21194815710754
 10
87.07279743455599
 20
34.21194815710754
 10
87.09829114114677
 20
33.71654342632854
 10
87.09829114114677
 20
33.71654342632854
 10
87.09829114114677
 20
33.71654342632854
 10
87.11723916631582
 20
33.71654342632854
 10
87.11723916631582
 20
33.71654342632854
 10
87.28880492148119
 20
34.00868752347776
 10
87.57440333720841
 20
34.28188359545817
 10
88.08255492128267
 20
34.28188359545817
 10
88.50182304183761
 20
34.28188359545817
 10
88.81928859080341
 20
34.02798005819517
 10
88.95261378608262
 20
33.66590052269547
 10
88.95261378608262
 20
33.66590052269547
 10
88.965360639378
 20
33.66590052269547
 10
88.965360639378
 20
33.66590052269547
 10
89.0607897843194
 20
33.83746627786087
 10
89.18136812630308
 20
33.97079147314006
 10
89.30849214970891
 20
34.06587610853293
 10
89.49280475816976
 20
34.20574698523407
 10
89.69606539179949
 20
34.28188359545817
 10
89.98820948894865
 20
34.28188359545817
 10
90.39473075620817
 20
34.28188359545817
 10
90.99796697567541
 20
34.01523320489977
 10
90.99796697567541
 20
32.94794262356936
 10
90.99796697567541
 20
32.94794262356936
 10
90.99796697567541
 20
31.13788945561916
 10
90.99796697567541
 20
31.13788945561916
 10
90.99796697567541
 20
31.13788945561916
 10
90.4519193412633
 20
31.13788945561916
 10
90.4519193412633
 20
31.13788945561916
 10
90.4519193412633
 20
31.13788945561916
 10
90.4519193412633
 20
32.87835169476736
 10
90.4519193412633
 20
32.87835169476736
 10
90.4519193412633
 20
33.46884106093916
 10
90.23591185433815
 20
33.82471942456545
 10
89.78494885531887
 20
33.82471942456545
 10
89.46731105157892
 20
33.82471942456545
 10
89.21960868618942
 20
33.58976391247145
 10
89.124179541248
 20
33.31656784049116
 10
89.09868583465714
 20
33.24043123026707
 10
89.07973780948827
 20
33.13880091345217
 10
89.07973780948827
 20
33.03717059663737
 10
89.07973780948827
 20
33.03717059663737
 10
89.07973780948827
 20
31.13788945561916
 10
89.07973780948827
 20
31.13788945561916
 10
89.07973780948827
 20
31.13788945561916
 10
88.53334566552769
 20
31.13788945561916
 10
88.53334566552769
 20
31.13788945561916
 10
88.53334566552769
 20
31.13788945561916
 10
88.53334566552769
 20
32.97998201158217
 10
88.53334566552769
 20
32.97998201158217
 10
88.53334566552769
 20
33.46884106093916
 10
88.3178549429253
 20
33.82471942456545
 10
87.89204114094838
 20
33.82471942456545
 10
87.54270845874414
 20
33.82471942456545
 10
87.28880492148119
 20
33.54532218071165
 10
87.19992145796181
 20
33.26558042730937
 10
87.16788206994891
 20
33.18324264521192
 10
87.15547972620198
 20
33.08781350027044
 10
87.15547972620198
 20
32.99238435532905
 10
87.15547972620198
 20
32.99238435532905
 10
87.15547972620198
 20
31.13788945561916
 10
87.15547972620198
 20
31.13788945561916
 10
87.15547972620198
 20
31.13788945561916
 10
86.60908758224143
 20
31.13788945561916
 10
86.60908758224143
 20
31.13788945561916
 10
86.60908758224143
 20
31.13788945561916
 10
86.60908758224143
 20
33.37995759741966
 10
86.60908758224143
 20
33.37995759741966
 97
        0
 97
        0
 75
     2
 76
     1
 98
        0
450
        0
451
        0
460
0.0
461
0.0
452
        0
462
0.0
453
        0
470

  0
SPLINE
  5
3C1
330
1F
100
AcDbEntity
  8
Livello 1
100
AcDbSpline
210
0.0
220
0.0
230
1.0
 70
     9
 71
     3
 72
    59
 73
    55
 74
     0
 42
0.000000001
 43
0.0000000001
 40
0.0
 40
0.0
 40
0.0
 40
0.0
 40
1.0
 40
1.0
 40
1.0
 40
2.0
 40
2.0
 40
2.0
 40
3.0
 40
3.0
 40
3.0
 40
4.0
 40
4.0
 40
4.0
 40
5.0
 40
5.0
 40
5.0
 40
6.0
 40
6.0
 40
6.0
 40
7.0
 40
7.0
 40
7.0
 40
8.0
 40
8.0
 40
8.0
 40
9.0
 40
9.0
 40
9.0
 40
10.0
 40
10.0
 40
10.0
 40
11.0
 40
11.0
 40
11.0
 40
12.0
 40
12.0
 40
12.0
 40
13.0
 40
13.0
 40
13.0
 40
14.0
 40
14.0
 40
14.0
 40
15.0
 40
15.0
 40
15.0
 40
16.0
 40
16.0
 40
16.0
 40
17.0
 40
17.0
 40
17.0
 40
18.0
 40
18.0
 40
18.0
 40
18.0
 10
53.1840821652504
 20
53.04559615587135
 30
0.0
 10
53.28571248206532
 20
53.20441505774136
 30
0.0
 10
53.44435912916111
 20
53.57269576511453
 30
0.0
 10
53.44435912916111
 20
53.96026900720514
 30
0.0
 10
53.44435912916111
 20
54.67788239678276
 30
0.0
 10
52.98719495826844
 20
54.90043556512984
 30
0.0
 10
52.64406344793747
 20
54.89388988370783
 30
0.0
 10
52.06614868028691
 20
54.88768871183444
 30
0.0
 10
51.81827406012309
 20
54.36679027446468
 30
0.0
 10
51.81827406012309
 20
53.82694381192604
 30
0.0
 10
51.81827406012309
 20
53.82694381192604
 30
0.0
 10
51.81827406012309
 20
53.51550718005947
 30
0.0
 10
51.81827406012309
 20
53.51550718005947
 30
0.0
 10
51.81827406012309
 20
53.51550718005947
 30
0.0
 10
51.39917819434248
 20
53.51550718005947
 30
0.0
 10
51.39917819434248
 20
53.51550718005947
 30
0.0
 10
51.39917819434248
 20
53.51550718005947
 30
0.0
 10
51.39917819434248
 20
53.82694381192604
 30
0.0
 10
51.39917819434248
 20
53.82694381192604
 30
0.0
 10
51.39917819434248
 20
54.23346507918544
 30
0.0
 10
51.18954413406498
 20
54.74781783513328
 30
0.0
 10
50.70034057515949
 20
54.74781783513328
 30
0.0
 10
50.37012817289826
 20
54.74781783513328
 30
0.0
 10
50.07798407574916
 20
54.53835602963017
 30
0.0
 10
50.07798407574916
 20
54.02365876413376
 30
0.0
 10
50.07798407574916
 20
53.69361861664685
 30
0.0
 10
50.22405612432368
 20
53.37598081290687
 30
0.0
 10
50.35100789295518
 20
53.19786937631935
 30
0.0
 10
50.35100789295518
 20
53.19786937631935
 30
0.0
 10
49.94448662569567
 20
53.05179732774473
 30
0.0
 10
49.94448662569567
 20
53.05179732774473
 30
0.0
 10
49.78566772382567
 20
53.26780481466994
 30
0.0
 10
49.62702107672988
 20
53.68707293522487
 30
0.0
 10
49.62702107672988
 20
54.13183476237065
 30
0.0
 10
49.62702107672988
 20
54.94487729688953
 30
0.0
 10
50.10967895421351
 20
55.31315800426276
 30
0.0
 10
50.61145711164011
 20
55.31315800426276
 30
0.0
 10
51.03709865884264
 20
55.31315800426276
 30
0.0
 10
51.39917819434248
 20
55.05925446699984
 30
0.0
 10
51.58331854802907
 20
54.55110288292556
 30
0.0
 10
51.58331854802907
 20
54.55110288292556
 30
0.0
 10
51.5960654013245
 20
54.55110288292556
 30
0.0
 10
51.5960654013245
 20
54.55110288292556
 30
0.0
 10
51.69769571813941
 20
55.05925446699984
 30
0.0
 10
52.07872327880796
 20
55.47197690613277
 30
0.0
 10
52.65681030123289
 20
55.47197690613277
 30
0.0
 10
53.31740736052961
 20
55.47197690613277
 30
0.0
 10
53.8954943829545
 20
54.95762415018504
 30
0.0
 10
53.8954943829545
 20
53.96647017907866
 30
0.0
 10
53.8954943829545
 20
53.50276032676394
 30
0.0
 10
53.74925007960564
 20
53.09623905950454
 30
0.0
 10
53.61592488432648
 20
52.89297842587479
 30
0.0
 10
53.61592488432648
 20
52.89297842587479
 30
0.0
 10
53.1840821652504
 20
53.04559615587135
 30
0.0
 10
53.1840821652504
 20
53.04559615587135
 30
0.0
  0
HATCH
  5
3C2
330
1F
100
AcDbEntity
  8
Livello 1
100
AcDbHatch
 10
0.0
 20
0.0
 30
0.0
210
0.0
220
0.0
230
1.0
  2
SOLID
 70
     1
 71
     0
 91
        1
 92
        1
 93
        1
 72
     4
 94
        3
 73
     0
 74
     0
 95
       59
 96
       55
 40
0.0
 40
0.0
 40
0.0
 40
0.0
 40
1.0
 40
1.0
 40
1.0
 40
2.0
 40
2.0
 40
2.0
 40
3.0
 40
3.0
 40
3.0
 40
4.0
 40
4.0
 40
4.0
 40
5.0
 40
5.0
 40
5.0
 40
6.0
 40
6.0
 40
6.0
 40
7.0
 40
7.0
 40
7.0
 40
8.0
 40
8.0
 40
8.0
 40
9.0
 40
9.0
 40
9.0
 40
10.0
 40
10.0
 40
10.0
 40
11.0
 40
11.0
 40
11.0
 40
12.0
 40
12.0
 40
12.0
 40
13.0
 40
13.0
 40
13.0
 40
14.0
 40
14.0
 40
14.0
 40
15.0
 40
15.0
 40
15.0
 40
16.0
 40
16.0
 40
16.0
 40
17.0
 40
17.0
 40
17.0
 40
18.0
 40
18.0
 40
18.0
 40
18.0
 10
53.1840821652504
 20
53.04559615587135
 10
53.28571248206532
 20
53.20441505774136
 10
53.44435912916111
 20
53.57269576511453
 10
53.44435912916111
 20
53.96026900720514
 10
53.44435912916111
 20
54.67788239678276
 10
52.98719495826844
 20
54.90043556512984
 10
52.64406344793747
 20
54.89388988370783
 10
52.06614868028691
 20
54.88768871183444
 10
51.81827406012309
 20
54.36679027446468
 10
51.81827406012309
 20
53.82694381192604
 10
51.81827406012309
 20
53.82694381192604
 10
51.81827406012309
 20
53.51550718005947
 10
51.81827406012309
 20
53.51550718005947
 10
51.81827406012309
 20
53.51550718005947
 10
51.39917819434248
 20
53.51550718005947
 10
51.39917819434248
 20
53.51550718005947
 10
51.39917819434248
 20
53.51550718005947
 10
51.39917819434248
 20
53.82694381192604
 10
51.39917819434248
 20
53.82694381192604
 10
51.39917819434248
 20
54.23346507918544
 10
51.18954413406498
 20
54.74781783513328
 10
50.70034057515949
 20
54.74781783513328
 10
50.37012817289826
 20
54.74781783513328
 10
50.07798407574916
 20
54.53835602963017
 10
50.07798407574916
 20
54.02365876413376
 10
50.07798407574916
 20
53.69361861664685
 10
50.22405612432368
 20
53.37598081290687
 10
50.35100789295518
 20
53.19786937631935
 10
50.35100789295518
 20
53.19786937631935
 10
49.94448662569567
 20
53.05179732774473
 10
49.94448662569567
 20
53.05179732774473
 10
49.78566772382567
 20
53.26780481466994
 10
49.62702107672988
 20
53.68707293522487
 10
49.62702107672988
 20
54.13183476237065
 10
49.62702107672988
 20
54.94487729688953
 10
50.10967895421351
 20
55.31315800426276
 10
50.61145711164011
 20
55.31315800426276
 10
51.03709865884264
 20
55.31315800426276
 10
51.39917819434248
 20
55.05925446699984
 10
51.58331854802907
 20
54.55110288292556
 10
51.58331854802907
 20
54.55110288292556
 10
51.5960654013245
 20
54.55110288292556
 10
51.5960654013245
 20
54.55110288292556
 10
51.69769571813941
 20
55.05925446699984
 10
52.07872327880796
 20
55.47197690613277
 10
52.65681030123289
 20
55.47197690613277
 10
53.31740736052961
 20
55.47197690613277
 10
53.8954943829545
 20
54.95762415018504
 10
53.8954943829545
 20
53.96647017907866
 10
53.8954943829545
 20
53.50276032676394
 10
53.74925007960564
 20
53.09623905950454
 10
53.61592488432648
 20
52.89297842587479
 10
53.61592488432648
 20
52.89297842587479
 10
53.1840821652504
 20
53.04559615587135
 10
53.1840821652504
 20
53.04559615587135
 97
        0
 97
        0
 75
     2
 76
     1
 98
        0
450
        0
451
        0
460
0.0
461
0.0
452
        0
462
0.0
453
        0
470

  0
POLYLINE
  5
3C3
330
1F
100
AcDbEntity
  8
Livello 1
100
AcDb2dPolyline
 66
     1
 10
0.0
 20
0.0
 30
0.0
  0
VERTEX
  5
3C4
330
3C3
100
AcDbEntity
  8
Livello 1
100
AcDbVertex
100
AcDb2dVertex
 10
50.21768269767597
 20
57.38262686225235
 30
0.0
  0
VERTEX
  5
3C5
330
3C3
100
AcDbEntity
  8
Livello 1
100
AcDbVertex
100
AcDb2dVertex
 10
50.21768269767597
 20
57.36988000895692
 30
0.0
  0
VERTEX
  5
3C6
330
3C3
100
AcDbEntity
  8
Livello 1
100
AcDbVertex
100
AcDb2dVertex
 10
50.60508368499239
 20
56.65226661937933
 30
0.0
  0
VERTEX
  5
3C7
330
3C3
100
AcDbEntity
  8
Livello 1
100
AcDbVertex
100
AcDb2dVertex
 10
50.17961439256396
 20
56.54409062114251
 30
0.0
  0
VERTEX
  5
3C8
330
3C3
100
AcDbEntity
  8
Livello 1
100
AcDbVertex
100
AcDb2dVertex
 10
49.69678426030617
 20
57.44636112872942
 30
0.0
  0
VERTEX
  5
3C9
330
3C3
100
AcDbEntity
  8
Livello 1
100
AcDbVertex
100
AcDb2dVertex
 10
49.69678426030617
 20
57.92247332479107
 30
0.0
  0
VERTEX
  5
3CA
330
3C3
100
AcDbEntity
  8
Livello 1
100
AcDbVertex
100
AcDb2dVertex
 10
53.82555894460392
 20
57.92247332479107
 30
0.0
  0
VERTEX
  5
3CB
330
3C3
100
AcDbEntity
  8
Livello 1
100
AcDbVertex
100
AcDb2dVertex
 10
53.82555894460392
 20
57.38262686225235
 30
0.0
  0
VERTEX
  5
3CC
330
3C3
100
AcDbEntity
  8
Livello 1
100
AcDbVertex
100
AcDb2dVertex
 10
50.21768269767597
 20
57.38262686225235
 30
0.0
  0
SEQEND
  5
3CD
330
3C3
100
AcDbEntity
  8
Livello 1
  0
HATCH
  5
3CE
330
1F
100
AcDbEntity
  8
Livello 1
100
AcDbHatch
 10
0.0
 20
0.0
 30
0.0
210
0.0
220
0.0
230
1.0
  2
SOLID
 70
     1
 71
     0
 91
        1
 92
        1
 93
        8
 72
     1
 10
50.21768269767597
 20
57.38262686225235
 11
50.21768269767597
 21
57.36988000895692
 72
     1
 10
50.21768269767597
 20
57.36988000895692
 11
50.60508368499239
 21
56.65226661937933
 72
     1
 10
50.60508368499239
 20
56.65226661937933
 11
50.17961439256396
 21
56.54409062114251
 72
     1
 10
50.17961439256396
 20
56.54409062114251
 11
49.69678426030617
 21
57.44636112872942
 72
     1
 10
49.69678426030617
 20
57.44636112872942
 11
49.69678426030617
 21
57.92247332479107
 72
     1
 10
49.69678426030617
 20
57.92247332479107
 11
53.82555894460392
 21
57.92247332479107
 72
     1
 10
53.82555894460392
 20
57.92247332479107
 11
53.82555894460392
 21
57.38262686225235
 72
     1
 10
53.82555894460392
 20
57.38262686225235
 11
50.21768269767597
 21
57.38262686225235
 97
        0
 75
     2
 76
     1
 98
        0
450
        0
451
        0
460
0.0
461
0.0
452
        0
462
0.0
453
        0
470

  0
SPLINE
  5
3CF
330
1F
100
AcDbEntity
  8
Livello 1
100
AcDbSpline
210
0.0
220
0.0
230
1.0
 70
     9
 71
     3
 72
    80
 73
    76
 74
     0
 42
0.000000001
 43
0.0000000001
 40
0.0
 40
0.0
 40
0.0
 40
0.0
 40
1.0
 40
1.0
 40
1.0
 40
2.0
 40
2.0
 40
2.0
 40
3.0
 40
3.0
 40
3.0
 40
4.0
 40
4.0
 40
4.0
 40
5.0
 40
5.0
 40
5.0
 40
6.0
 40
6.0
 40
6.0
 40
7.0
 40
7.0
 40
7.0
 40
8.0
 40
8.0
 40
8.0
 40
9.0
 40
9.0
 40
9.0
 40
10.0
 40
10.0
 40
10.0
 40
11.0
 40
11.0
 40
11.0
 40
12.0
 40
12.0
 40
12.0
 40
13.0
 40
13.0
 40
13.0
 40
14.0
 40
14.0
 40
14.0
 40
15.0
 40
15.0
 40
15.0
 40
16.0
 40
16.0
 40
16.0
 40
17.0
 40
17.0
 40
17.0
 40
18.0
 40
18.0
 40
18.0
 40
19.0
 40
19.0
 40
19.0
 40
20.0
 40
20.0
 40
20.0
 40
21.0
 40
21.0
 40
21.0
 40
22.0
 40
22.0
 40
22.0
 40
23.0
 40
23.0
 40
23.0
 40
24.0
 40
24.0
 40
24.0
 40
25.0
 40
25.0
 40
25.0
 40
25.0
 10
51.58331854802907
 20
60.95105676587417
 30
0.0
 10
51.26568074428911
 20
60.95105676587417
 30
0.0
 10
51.00523152560407
 20
60.94485559400064
 30
0.0
 10
50.7513279883413
 20
60.92556305928323
 30
0.0
 10
50.7513279883413
 20
60.92556305928323
 30
0.0
 10
50.7513279883413
 20
61.41476661818876
 30
0.0
 10
50.7513279883413
 20
61.41476661818876
 30
0.0
 10
50.7513279883413
 20
61.41476661818876
 30
0.0
 10
51.24673271912008
 20
61.44026032477964
 30
0.0
 10
51.24673271912008
 20
61.44026032477964
 30
0.0
 10
51.24673271912008
 20
61.44026032477964
 30
0.0
 10
51.24673271912008
 20
61.45920834994853
 30
0.0
 10
51.24673271912008
 20
61.45920834994853
 30
0.0
 10
50.95458862197097
 20
61.63077410511395
 30
0.0
 10
50.68139254999067
 20
61.91637252084118
 30
0.0
 10
50.68139254999067
 20
62.42452410491546
 30
0.0
 10
50.68139254999067
 20
62.84379222547034
 30
0.0
 10
50.93546834202783
 20
63.16143002921046
 30
0.0
 10
51.29754787752762
 20
63.29475522448965
 30
0.0
 10
51.29754787752762
 20
63.29475522448965
 30
0.0
 10
51.29754787752762
 20
63.30750207778502
 30
0.0
 10
51.29754787752762
 20
63.30750207778502
 30
0.0
 10
51.12598212236207
 20
63.40293122272644
 30
0.0
 10
50.99265692708297
 20
63.52350956471013
 30
0.0
 10
50.89740003691582
 20
63.65063358811593
 30
0.0
 10
50.75752916021468
 20
63.83494619657676
 30
0.0
 10
50.68139254999067
 20
64.03820683020654
 30
0.0
 10
50.68139254999067
 20
64.33035092735576
 30
0.0
 10
50.68139254999067
 20
64.73687219461516
 30
0.0
 10
50.94821519532331
 20
65.34010841408243
 30
0.0
 10
52.01533352187943
 20
65.34010841408243
 30
0.0
 10
52.01533352187943
 20
65.34010841408243
 30
0.0
 10
53.82555894460392
 20
65.34010841408243
 30
0.0
 10
53.82555894460392
 20
65.34010841408243
 30
0.0
 10
53.82555894460392
 20
65.34010841408243
 30
0.0
 10
53.82555894460392
 20
64.79406077967036
 30
0.0
 10
53.82555894460392
 20
64.79406077967036
 30
0.0
 10
53.82555894460392
 20
64.79406077967036
 30
0.0
 10
52.08509670545566
 20
64.79406077967036
 30
0.0
 10
52.08509670545566
 20
64.79406077967036
 30
0.0
 10
51.49443508450963
 20
64.79406077967036
 30
0.0
 10
51.13872897565761
 20
64.57805329274515
 30
0.0
 10
51.13872897565761
 20
64.12709029372596
 30
0.0
 10
51.13872897565761
 20
63.80945248998594
 30
0.0
 10
51.37368448775163
 20
63.56175012459644
 30
0.0
 10
51.64688055973193
 20
63.46632097965502
 30
0.0
 10
51.72301716995594
 20
63.44082727306417
 30
0.0
 10
51.8246474867708
 20
63.42187924789533
 30
0.0
 10
51.92627780358566
 20
63.42187924789533
 30
0.0
 10
51.92627780358566
 20
63.42187924789533
 30
0.0
 10
53.82555894460392
 20
63.42187924789533
 30
0.0
 10
53.82555894460392
 20
63.42187924789533
 30
0.0
 10
53.82555894460392
 20
63.42187924789533
 30
0.0
 10
53.82555894460392
 20
62.87548710393477
 30
0.0
 10
53.82555894460392
 20
62.87548710393477
 30
0.0
 10
53.82555894460392
 20
62.87548710393477
 30
0.0
 10
51.98346638864092
 20
62.87548710393477
 30
0.0
 10
51.98346638864092
 20
62.87548710393477
 30
0.0
 10
51.49443508450963
 20
62.87548710393477
 30
0.0
 10
51.13872897565761
 20
62.65982412655802
 30
0.0
 10
51.13872897565761
 20
62.23401032458117
 30
0.0
 10
51.13872897565761
 20
61.88467764237685
 30
0.0
 10
51.41812621951141
 20
61.63077410511395
 30
0.0
 10
51.69769571813941
 20
61.54189064159453
 30
0.0
 10
51.78020575501108
 20
61.50985125358165
 30
0.0
 10
51.87546264517817
 20
61.49744890983479
 30
0.0
 10
51.97089179011965
 20
61.49744890983479
 30
0.0
 10
51.97089179011965
 20
61.49744890983479
 30
0.0
 10
53.82555894460392
 20
61.49744890983479
 30
0.0
 10
53.82555894460392
 20
61.49744890983479
 30
0.0
 10
53.82555894460392
 20
61.49744890983479
 30
0.0
 10
53.82555894460392
 20
60.95105676587417
 30
0.0
 10
53.82555894460392
 20
60.95105676587417
 30
0.0
 10
53.82555894460392
 20
60.95105676587417
 30
0.0
 10
51.58331854802907
 20
60.95105676587417
 30
0.0
 10
51.58331854802907
 20
60.95105676587417
 30
0.0
  0
HATCH
  5
3D0
330
1F
100
AcDbEntity
  8
Livello 1
100
AcDbHatch
 10
0.0
 20
0.0
 30
0.0
210
0.0
220
0.0
230
1.0
  2
SOLID
 70
     1
 71
     0
 91
        1
 92
        1
 93
        1
 72
     4
 94
        3
 73
     0
 74
     0
 95
       80
 96
       76
 40
0.0
 40
0.0
 40
0.0
 40
0.0
 40
1.0
 40
1.0
 40
1.0
 40
2.0
 40
2.0
 40
2.0
 40
3.0
 40
3.0
 40
3.0
 40
4.0
 40
4.0
 40
4.0
 40
5.0
 40
5.0
 40
5.0
 40
6.0
 40
6.0
 40
6.0
 40
7.0
 40
7.0
 40
7.0
 40
8.0
 40
8.0
 40
8.0
 40
9.0
 40
9.0
 40
9.0
 40
10.0
 40
10.0
 40
10.0
 40
11.0
 40
11.0
 40
11.0
 40
12.0
 40
12.0
 40
12.0
 40
13.0
 40
13.0
 40
13.0
 40
14.0
 40
14.0
 40
14.0
 40
15.0
 40
15.0
 40
15.0
 40
16.0
 40
16.0
 40
16.0
 40
17.0
 40
17.0
 40
17.0
 40
18.0
 40
18.0
 40
18.0
 40
19.0
 40
19.0
 40
19.0
 40
20.0
 40
20.0
 40
20.0
 40
21.0
 40
21.0
 40
21.0
 40
22.0
 40
22.0
 40
22.0
 40
23.0
 40
23.0
 40
23.0
 40
24.0
 40
24.0
 40
24.0
 40
25.0
 40
25.0
 40
25.0
 40
25.0
 10
51.58331854802907
 20
60.95105676587417
 10
51.26568074428911
 20
60.95105676587417
 10
51.00523152560407
 20
60.94485559400064
 10
50.7513279883413
 20
60.92556305928323
 10
50.7513279883413
 20
60.92556305928323
 10
50.7513279883413
 20
61.41476661818876
 10
50.7513279883413
 20
61.41476661818876
 10
50.7513279883413
 20
61.41476661818876
 10
51.24673271912008
 20
61.44026032477964
 10
51.24673271912008
 20
61.44026032477964
 10
51.24673271912008
 20
61.44026032477964
 10
51.24673271912008
 20
61.45920834994853
 10
51.24673271912008
 20
61.45920834994853
 10
50.95458862197097
 20
61.63077410511395
 10
50.68139254999067
 20
61.91637252084118
 10
50.68139254999067
 20
62.42452410491546
 10
50.68139254999067
 20
62.84379222547034
 10
50.93546834202783
 20
63.16143002921046
 10
51.29754787752762
 20
63.29475522448965
 10
51.29754787752762
 20
63.29475522448965
 10
51.29754787752762
 20
63.30750207778502
 10
51.29754787752762
 20
63.30750207778502
 10
51.12598212236207
 20
63.40293122272644
 10
50.99265692708297
 20
63.52350956471013
 10
50.89740003691582
 20
63.65063358811593
 10
50.75752916021468
 20
63.83494619657676
 10
50.68139254999067
 20
64.03820683020654
 10
50.68139254999067
 20
64.33035092735576
 10
50.68139254999067
 20
64.73687219461516
 10
50.94821519532331
 20
65.34010841408243
 10
52.01533352187943
 20
65.34010841408243
 10
52.01533352187943
 20
65.34010841408243
 10
53.82555894460392
 20
65.34010841408243
 10
53.82555894460392
 20
65.34010841408243
 10
53.82555894460392
 20
65.34010841408243
 10
53.82555894460392
 20
64.79406077967036
 10
53.82555894460392
 20
64.79406077967036
 10
53.82555894460392
 20
64.79406077967036
 10
52.08509670545566
 20
64.79406077967036
 10
52.08509670545566
 20
64.79406077967036
 10
51.49443508450963
 20
64.79406077967036
 10
51.13872897565761
 20
64.57805329274515
 10
51.13872897565761
 20
64.12709029372596
 10
51.13872897565761
 20
63.80945248998594
 10
51.37368448775163
 20
63.56175012459644
 10
51.64688055973193
 20
63.46632097965502
 10
51.72301716995594
 20
63.44082727306417
 10
51.8246474867708
 20
63.42187924789533
 10
51.92627780358566
 20
63.42187924789533
 10
51.92627780358566
 20
63.42187924789533
 10
53.82555894460392
 20
63.42187924789533
 10
53.82555894460392
 20
63.42187924789533
 10
53.82555894460392
 20
63.42187924789533
 10
53.82555894460392
 20
62.87548710393477
 10
53.82555894460392
 20
62.87548710393477
 10
53.82555894460392
 20
62.87548710393477
 10
51.98346638864092
 20
62.87548710393477
 10
51.98346638864092
 20
62.87548710393477
 10
51.49443508450963
 20
62.87548710393477
 10
51.13872897565761
 20
62.65982412655802
 10
51.13872897565761
 20
62.23401032458117
 10
51.13872897565761
 20
61.88467764237685
 10
51.41812621951141
 20
61.63077410511395
 10
51.69769571813941
 20
61.54189064159453
 10
51.78020575501108
 20
61.50985125358165
 10
51.87546264517817
 20
61.49744890983479
 10
51.97089179011965
 20
61.49744890983479
 10
51.97089179011965
 20
61.49744890983479
 10
53.82555894460392
 20
61.49744890983479
 10
53.82555894460392
 20
61.49744890983479
 10
53.82555894460392
 20
61.49744890983479
 10
53.82555894460392
 20
60.95105676587417
 10
53.82555894460392
 20
60.95105676587417
 10
53.82555894460392
 20
60.95105676587417
 10
51.58331854802907
 20
60.95105676587417
 10
51.58331854802907
 20
60.95105676587417
 97
        0
 97
        0
 75
     2
 76
     1
 98
        0
450
        0
451
        0
460
0.0
461
0.0
452
        0
462
0.0
453
        0
470

  0
SPLINE
  5
3D1
330
1F
100
AcDbEntity
  8
Livello 1
100
AcDbSpline
210
0.0
220
0.0
230
1.0
 70
     9
 71
     3
 72
    80
 73
    76
 74
     0
 42
0.000000001
 43
0.0000000001
 40
0.0
 40
0.0
 40
0.0
 40
0.0
 40
1.0
 40
1.0
 40
1.0
 40
2.0
 40
2.0
 40
2.0
 40
3.0
 40
3.0
 40
3.0
 40
4.0
 40
4.0
 40
4.0
 40
5.0
 40
5.0
 40
5.0
 40
6.0
 40
6.0
 40
6.0
 40
7.0
 40
7.0
 40
7.0
 40
8.0
 40
8.0
 40
8.0
 40
9.0
 40
9.0
 40
9.0
 40
10.0
 40
10.0
 40
10.0
 40
11.0
 40
11.0
 40
11.0
 40
12.0
 40
12.0
 40
12.0
 40
13.0
 40
13.0
 40
13.0
 40
14.0
 40
14.0
 40
14.0
 40
15.0
 40
15.0
 40
15.0
 40
16.0
 40
16.0
 40
16.0
 40
17.0
 40
17.0
 40
17.0
 40
18.0
 40
18.0
 40
18.0
 40
19.0
 40
19.0
 40
19.0
 40
20.0
 40
20.0
 40
20.0
 40
21.0
 40
21.0
 40
21.0
 40
22.0
 40
22.0
 40
22.0
 40
23.0
 40
23.0
 40
23.0
 40
24.0
 40
24.0
 40
24.0
 40
25.0
 40
25.0
 40
25.0
 40
25.0
 10
51.58331854802907
 20
66.24685754580017
 30
0.0
 10
51.26568074428911
 20
66.24685754580017
 30
0.0
 10
51.00523152560407
 20
66.24065637392675
 30
0.0
 10
50.7513279883413
 20
66.22136383920935
 30
0.0
 10
50.7513279883413
 20
66.22136383920935
 30
0.0
 10
50.7513279883413
 20
66.71056739811485
 30
0.0
 10
50.7513279883413
 20
66.71056739811485
 30
0.0
 10
50.7513279883413
 20
66.71056739811485
 30
0.0
 10
51.24673271912008
 20
66.73606110470564
 30
0.0
 10
51.24673271912008
 20
66.73606110470564
 30
0.0
 10
51.24673271912008
 20
66.73606110470564
 30
0.0
 10
51.24673271912008
 20
66.75500912987454
 30
0.0
 10
51.24673271912008
 20
66.75500912987454
 30
0.0
 10
50.95458862197097
 20
66.92657488503994
 30
0.0
 10
50.68139254999067
 20
67.21217330076729
 30
0.0
 10
50.68139254999067
 20
67.72032488484152
 30
0.0
 10
50.68139254999067
 20
68.13959300539645
 30
0.0
 10
50.93546834202783
 20
68.45723080913643
 30
0.0
 10
51.29754787752762
 20
68.59055600441568
 30
0.0
 10
51.29754787752762
 20
68.59055600441568
 30
0.0
 10
51.29754787752762
 20
68.60330285771104
 30
0.0
 10
51.29754787752762
 20
68.60330285771104
 30
0.0
 10
51.12598212236207
 20
68.69873200265255
 30
0.0
 10
50.99265692708297
 20
68.81931034463625
 30
0.0
 10
50.89740003691582
 20
68.94643436804194
 30
0.0
 10
50.75752916021468
 20
69.13074697650285
 30
0.0
 10
50.68139254999067
 20
69.33400761013252
 30
0.0
 10
50.68139254999067
 20
69.62615170728176
 30
0.0
 10
50.68139254999067
 20
70.03267297454124
 30
0.0
 10
50.94821519532331
 20
70.63590919400846
 30
0.0
 10
52.01533352187943
 20
70.63590919400846
 30
0.0
 10
52.01533352187943
 20
70.63590919400846
 30
0.0
 10
53.82555894460392
 20
70.63590919400846
 30
0.0
 10
53.82555894460392
 20
70.63590919400846
 30
0.0
 10
53.82555894460392
 20
70.63590919400846
 30
0.0
 10
53.82555894460392
 20
70.08986155959636
 30
0.0
 10
53.82555894460392
 20
70.08986155959636
 30
0.0
 10
53.82555894460392
 20
70.08986155959636
 30
0.0
 10
52.08509670545566
 20
70.08986155959636
 30
0.0
 10
52.08509670545566
 20
70.08986155959636
 30
0.0
 10
51.49443508450963
 20
70.08986155959636
 30
0.0
 10
51.13872897565761
 20
69.87385407267123
 30
0.0
 10
51.13872897565761
 20
69.42289107365204
 30
0.0
 10
51.13872897565761
 20
69.10525326991194
 30
0.0
 10
51.37368448775163
 20
68.85755090452255
 30
0.0
 10
51.64688055973193
 20
68.76212175958116
 30
0.0
 10
51.72301716995594
 20
68.73662805299026
 30
0.0
 10
51.8246474867708
 20
68.71768002782136
 30
0.0
 10
51.92627780358566
 20
68.71768002782136
 30
0.0
 10
51.92627780358566
 20
68.71768002782136
 30
0.0
 10
53.82555894460392
 20
68.71768002782136
 30
0.0
 10
53.82555894460392
 20
68.71768002782136
 30
0.0
 10
53.82555894460392
 20
68.71768002782136
 30
0.0
 10
53.82555894460392
 20
68.17128788386077
 30
0.0
 10
53.82555894460392
 20
68.17128788386077
 30
0.0
 10
53.82555894460392
 20
68.17128788386077
 30
0.0
 10
51.98346638864092
 20
68.17128788386077
 30
0.0
 10
51.98346638864092
 20
68.17128788386077
 30
0.0
 10
51.49443508450963
 20
68.17128788386077
 30
0.0
 10
51.13872897565761
 20
67.95562490648416
 30
0.0
 10
51.13872897565761
 20
67.52981110450725
 30
0.0
 10
51.13872897565761
 20
67.18047842230297
 30
0.0
 10
51.41812621951141
 20
66.92657488503994
 30
0.0
 10
51.69769571813941
 20
66.83769142152053
 30
0.0
 10
51.78020575501108
 20
66.80565203350775
 30
0.0
 10
51.87546264517817
 20
66.79324968976084
 30
0.0
 10
51.97089179011965
 20
66.79324968976084
 30
0.0
 10
51.97089179011965
 20
66.79324968976084
 30
0.0
 10
53.82555894460392
 20
66.79324968976084
 30
0.0
 10
53.82555894460392
 20
66.79324968976084
 30
0.0
 10
53.82555894460392
 20
66.79324968976084
 30
0.0
 10
53.82555894460392
 20
66.24685754580017
 30
0.0
 10
53.82555894460392
 20
66.24685754580017
 30
0.0
 10
53.82555894460392
 20
66.24685754580017
 30
0.0
 10
51.58331854802907
 20
66.24685754580017
 30
0.0
 10
51.58331854802907
 20
66.24685754580017
 30
0.0
  0
HATCH
  5
3D2
330
1F
100
AcDbEntity
  8
Livello 1
100
AcDbHatch
 10
0.0
 20
0.0
 30
0.0
210
0.0
220
0.0
230
1.0
  2
SOLID
 70
     1
 71
     0
 91
        1
 92
        1
 93
        1
 72
     4
 94
        3
 73
     0
 74
     0
 95
       80
 96
       76
 40
0.0
 40
0.0
 40
0.0
 40
0.0
 40
1.0
 40
1.0
 40
1.0
 40
2.0
 40
2.0
 40
2.0
 40
3.0
 40
3.0
 40
3.0
 40
4.0
 40
4.0
 40
4.0
 40
5.0
 40
5.0
 40
5.0
 40
6.0
 40
6.0
 40
6.0
 40
7.0
 40
7.0
 40
7.0
 40
8.0
 40
8.0
 40
8.0
 40
9.0
 40
9.0
 40
9.0
 40
10.0
 40
10.0
 40
10.0
 40
11.0
 40
11.0
 40
11.0
 40
12.0
 40
12.0
 40
12.0
 40
13.0
 40
13.0
 40
13.0
 40
14.0
 40
14.0
 40
14.0
 40
15.0
 40
15.0
 40
15.0
 40
16.0
 40
16.0
 40
16.0
 40
17.0
 40
17.0
 40
17.0
 40
18.0
 40
18.0
 40
18.0
 40
19.0
 40
19.0
 40
19.0
 40
20.0
 40
20.0
 40
20.0
 40
21.0
 40
21.0
 40
21.0
 40
22.0
 40
22.0
 40
22.0
 40
23.0
 40
23.0
 40
23.0
 40
24.0
 40
24.0
 40
24.0
 40
25.0
 40
25.0
 40
25.0
 40
25.0
 10
51.58331854802907
 20
66.24685754580017
 10
51.26568074428911
 20
66.24685754580017
 10
51.00523152560407
 20
66.24065637392675
 10
50.7513279883413
 20
66.22136383920935
 10
50.7513279883413
 20
66.22136383920935
 10
50.7513279883413
 20
66.71056739811485
 10
50.7513279883413
 20
66.71056739811485
 10
50.7513279883413
 20
66.71056739811485
 10
51.24673271912008
 20
66.73606110470564
 10
51.24673271912008
 20
66.73606110470564
 10
51.24673271912008
 20
66.73606110470564
 10
51.24673271912008
 20
66.75500912987454
 10
51.24673271912008
 20
66.75500912987454
 10
50.95458862197097
 20
66.92657488503994
 10
50.68139254999067
 20
67.21217330076729
 10
50.68139254999067
 20
67.72032488484152
 10
50.68139254999067
 20
68.13959300539645
 10
50.93546834202783
 20
68.45723080913643
 10
51.29754787752762
 20
68.59055600441568
 10
51.29754787752762
 20
68.59055600441568
 10
51.29754787752762
 20
68.60330285771104
 10
51.29754787752762
 20
68.60330285771104
 10
51.12598212236207
 20
68.69873200265255
 10
50.99265692708297
 20
68.81931034463625
 10
50.89740003691582
 20
68.94643436804194
 10
50.75752916021468
 20
69.13074697650285
 10
50.68139254999067
 20
69.33400761013252
 10
50.68139254999067
 20
69.62615170728176
 10
50.68139254999067
 20
70.03267297454124
 10
50.94821519532331
 20
70.63590919400846
 10
52.01533352187943
 20
70.63590919400846
 10
52.01533352187943
 20
70.63590919400846
 10
53.82555894460392
 20
70.63590919400846
 10
53.82555894460392
 20
70.63590919400846
 10
53.82555894460392
 20
70.63590919400846
 10
53.82555894460392
 20
70.08986155959636
 10
53.82555894460392
 20
70.08986155959636
 10
53.82555894460392
 20
70.08986155959636
 10
52.08509670545566
 20
70.08986155959636
 10
52.08509670545566
 20
70.08986155959636
 10
51.49443508450963
 20
70.08986155959636
 10
51.13872897565761
 20
69.87385407267123
 10
51.13872897565761
 20
69.42289107365204
 10
51.13872897565761
 20
69.10525326991194
 10
51.37368448775163
 20
68.85755090452255
 10
51.64688055973193
 20
68.76212175958116
 10
51.72301716995594
 20
68.73662805299026
 10
51.8246474867708
 20
68.71768002782136
 10
51.92627780358566
 20
68.71768002782136
 10
51.92627780358566
 20
68.71768002782136
 10
53.82555894460392
 20
68.71768002782136
 10
53.82555894460392
 20
68.71768002782136
 10
53.82555894460392
 20
68.71768002782136
 10
53.82555894460392
 20
68.17128788386077
 10
53.82555894460392
 20
68.17128788386077
 10
53.82555894460392
 20
68.17128788386077
 10
51.98346638864092
 20
68.17128788386077
 10
51.98346638864092
 20
68.17128788386077
 10
51.49443508450963
 20
68.17128788386077
 10
51.13872897565761
 20
67.95562490648416
 10
51.13872897565761
 20
67.52981110450725
 10
51.13872897565761
 20
67.18047842230297
 10
51.41812621951141
 20
66.92657488503994
 10
51.69769571813941
 20
66.83769142152053
 10
51.78020575501108
 20
66.80565203350775
 10
51.87546264517817
 20
66.79324968976084
 10
51.97089179011965
 20
66.79324968976084
 10
51.97089179011965
 20
66.79324968976084
 10
53.82555894460392
 20
66.79324968976084
 10
53.82555894460392
 20
66.79324968976084
 10
53.82555894460392
 20
66.79324968976084
 10
53.82555894460392
 20
66.24685754580017
 10
53.82555894460392
 20
66.24685754580017
 10
53.82555894460392
 20
66.24685754580017
 10
51.58331854802907
 20
66.24685754580017
 10
51.58331854802907
 20
66.24685754580017
 97
        0
 97
        0
 75
     2
 76
     1
 98
        0
450
        0
451
        0
460
0.0
461
0.0
452
        0
462
0.0
453
        0
470

  0
ENDSEC
  0
SECTION
  2
OBJECTS
  0
DICTIONARY
  5
C
330
0
100
AcDbDictionary
281
     1
  3
ACAD_CIP_PREVIOUS_PRODUCT_INFO
350
1A2
  3
ACAD_COLOR
350
6C
  3
ACAD_DETAILVIEWSTYLE
350
1A8
  3
ACAD_GROUP
350
D
  3
ACAD_LAYOUT
350
1A
  3
ACAD_MATERIAL
350
6B
  3
ACAD_MLEADERSTYLE
350
D2
  3
ACAD_MLINESTYLE
350
17
  3
ACAD_PLOTSETTINGS
350
19
  3
ACAD_PLOTSTYLENAME
350
E
  3
ACAD_SCALELIST
350
B1
  3
ACAD_SECTIONVIEWSTYLE
350
1A5
  3
ACAD_TABLESTYLE
350
A6
  3
ACAD_VISUALSTYLE
350
95
  3
ACDB_RECOMPOSE_DATA
350
3E2
  3
AcDbVariableDictionary
350
59
  3
AcDsDecomposeData
350
3E8
  0
DICTIONARY
  5
18B
330
2
100
AcDbDictionary
280
     1
281
     1
  3
ACAD_LAYERSTATES
360
18C
  0
DICTIONARY
  5
E1
330
10
100
AcDbDictionary
280
     1
281
     1
  0
DICTIONARY
  5
15A
330
1F
100
AcDbDictionary
280
     1
281
     1
  3
ACAD_SORTENTS
360
347
  0
XRECORD
  5
1A2
102
{ACAD_REACTORS
330
C
102
}
330
C
100
AcDbXrecord
280
     1
300
ACD
300
2019
300
ACD_F_S
  0
DICTIONARY
  5
6C
102
{ACAD_REACTORS
330
C
102
}
330
C
100
AcDbDictionary
281
     1
  0
DICTIONARY
  5
1A8
102
{ACAD_REACTORS
330
C
102
}
330
C
100
AcDbDictionary
281
     1
  3
Imperial24
350
1A9
  0
DICTIONARY
  5
D
102
{ACAD_REACTORS
330
C
102
}
330
C
100
AcDbDictionary
281
     1
  0
DICTIONARY
  5
1A
102
{ACAD_REACTORS
330
C
102
}
330
C
100
AcDbDictionary
281
     1
  3
Layout1
350
74
  3
Layout2
350
79
  3
Model
350
22
  0
DICTIONARY
  5
6B
102
{ACAD_REACTORS
330
C
102
}
330
C
100
AcDbDictionary
281
     1
  3
ByBlock
350
93
  3
ByLayer
350
92
  3
Global
350
94
  0
DICTIONARY
  5
D2
102
{ACAD_REACTORS
330
C
102
}
330
C
100
AcDbDictionary
281
     1
  3
Annotativa
350
E0
  3
Standard
350
D3
  0
DICTIONARY
  5
17
102
{ACAD_REACTORS
330
C
102
}
330
C
100
AcDbDictionary
281
     1
  3
Standard
350
18
  0
DICTIONARY
  5
19
102
{ACAD_REACTORS
330
C
102
}
330
C
100
AcDbDictionary
281
     1
  0
ACDBDICTIONARYWDFLT
  5
E
102
{ACAD_REACTORS
330
C
102
}
330
C
100
AcDbDictionary
281
     1
  3
Normal
350
F
100
AcDbDictionaryWithDefault
340
F
  0
DICTIONARY
  5
B1
102
{ACAD_REACTORS
330
C
102
}
330
C
100
AcDbDictionary
281
     1
  3
A0
350
B2
  3
A1
350
124
  3
A2
350
125
  3
A3
350
126
  3
A4
350
127
  3
A5
350
128
  3
A6
350
129
  3
A7
350
12A
  3
A8
350
12B
  3
A9
350
12C
  3
B0
350
12D
  3
B1
350
12E
  3
B2
350
12F
  3
B3
350
130
  3
B4
350
131
  3
B5
350
132
  3
B6
350
133
  3
B7
350
134
  3
B8
350
135
  3
B9
350
136
  3
C0
350
137
  3
C1
350
138
  3
C2
350
139
  3
C3
350
13A
  3
C4
350
13B
  3
C5
350
13C
  3
C6
350
13D
  3
C7
350
13E
  3
C8
350
13F
  3
C9
350
140
  3
D0
350
141
  3
D1
350
142
  3
D2
350
143
  0
DICTIONARY
  5
1A5
102
{ACAD_REACTORS
330
C
102
}
330
C
100
AcDbDictionary
281
     1
  3
Imperial24
350
1A7
  0
DICTIONARY
  5
A6
102
{ACAD_REACTORS
330
C
102
}
330
C
100
AcDbDictionary
281
     1
  3
Standard
350
A7
  0
DICTIONARY
  5
95
102
{ACAD_REACTORS
330
C
102
}
330
C
100
AcDbDictionary
281
     1
  3
2dWireframe
350
9B
  3
Basic
350
9A
  3
Brighten
350
A1
  3
ColorChange
350
A5
  3
Conceptual
350
9E
  3
Dim
350
A0
  3
EdgeColorOff
350
172
  3
Facepattern
350
A4
  3
Flat
350
96
  3
FlatWithEdges
350
97
  3
Gouraud
350
98
  3
GouraudWithEdges
350
99
  3
Hidden
350
9D
  3
JitterOff
350
170
  3
Linepattern
350
A3
  3
OverhangOff
350
171
  3
Realistic
350
9F
  3
Shaded
350
17F
  3
Shaded with edges
350
17E
  3
Shades of Gray
350
17B
  3
Sketchy
350
17C
  3
Thicken
350
A2
  3
Wireframe
350
9C
  3
X-Ray
350
17D
  0
XRECORD
  5
3E2
102
{ACAD_REACTORS
330
C
102
}
330
C
100
AcDbXrecord
280
     1
 90
        1
330
A7
  0
DICTIONARY
  5
59
102
{ACAD_REACTORS
330
C
102
}
330
C
100
AcDbDictionary
281
     1
  3
CANNOSCALE
350
EB
  3
CMLEADERSTYLE
350
EA
  3
CTABLESTYLE
350
AB
  3
CVIEWDETAILSTYLE
350
1B4
  3
CVIEWSECTIONSTYLE
350
1B5
  3
DIMASSOC
350
5A
  3
HIDETEXT
350
5E
  3
LAYEREVAL
350
14A
  3
LAYERNOTIFY
350
14B
  0
DICTIONARY
  5
3E8
102
{ACAD_REACTORS
330
C
102
}
330
C
100
AcDbDictionary
281
     1
  3
AcDsRecords
350
3EA
  3
AcDsSchemas
350
3E9
1001
ACAD
1070
     2
  0
DICTIONARY
  5
18C
102
{ACAD_REACTORS
330
18B
102
}
330
18B
100
AcDbDictionary
281
     1
  0
SORTENTSTABLE
  5
347
102
{ACAD_REACTORS
330
15A
102
}
330
15A
100
AcDbSortentsTable
330
1F
  0
ACDBDETAILVIEWSTYLE
  5
1A9
102
{ACAD_XDICTIONARY
360
3ED
102
}
102
{ACAD_REACTORS
330
1A8
102
}
330
1A8
100
AcDbModelDocViewStyle
 70
     0
  3
Imperial24
290
     0
100
AcDbDetailViewStyle
 70
     0
 71
     0
 90
        3
 71
     1
340
11
 62
   256
 40
0.24
340
0
 62
   256
 40
0.24
300

 40
0.36
280
     3
 71
     2
340
16
 90
       25
 62
   256
 71
     3
340
11
 62
   256
 40
0.24
 90
        1
 40
0.75
 90
        1
300
%<\AcVar ViewType \f "%tc1">% %<\AcVar ViewDetailId>%\PSCALE %<\AcVar ViewScale \f "%sn">%
 71
     4
340
16
 90
       25
 62
   256
340
16
 90
       25
 62
   256
280
     0
  0
LAYOUT
  5
74
102
{ACAD_REACTORS
330
1A
102
}
330
1A
100
AcDbPlotSettings
  1

  2
\\ADSCCNDC1\hq601xrx1
  4

  6

 40
0.0
 41
0.0
 42
0.0
 43
0.0
 44
0.0
 45
0.0
 46
0.0
 47
0.0
 48
0.0
 49
0.0
140
0.0
141
0.0
142
1.0
143
1.0
 70
   688
 72
     0
 73
     0
 74
     5
  7

 75
    16
147
1.0
 76
     0
 77
     2
 78
   300
148
0.0
149
0.0
100
AcDbLayout
  1
Layout1
 70
     1
 71
     1
 10
0.0
 20
0.0
 11
12.0
 21
9.0
 12
0.0
 22
0.0
 32
0.0
 14
0.0
 24
0.0
 34
0.0
 15
0.0
 25
0.0
 35
0.0
146
0.0
 13
0.0
 23
0.0
 33
0.0
 16
1.0
 26
0.0
 36
0.0
 17
0.0
 27
1.0
 37
0.0
 76
     0
330
73
  0
LAYOUT
  5
79
102
{ACAD_REACTORS
330
1A
102
}
330
1A
100
AcDbPlotSettings
  1

  2
\\ADSCCNDC1\hq601xrx1
  4

  6

 40
0.0
 41
0.0
 42
0.0
 43
0.0
 44
0.0
 45
0.0
 46
0.0
 47
0.0
 48
0.0
 49
0.0
140
0.0
141
0.0
142
1.0
143
1.0
 70
   688
 72
     0
 73
     0
 74
     5
  7

 75
    16
147
1.0
 76
     0
 77
     2
 78
   300
148
0.0
149
0.0
100
AcDbLayout
  1
Layout2
 70
     1
 71
     2
 10
0.0
 20
0.0
 11
12.0
 21
9.0
 12
0.0
 22
0.0
 32
0.0
 14
0.0
 24
0.0
 34
0.0
 15
0.0
 25
0.0
 35
0.0
146
0.0
 13
0.0
 23
0.0
 33
0.0
 16
1.0
 26
0.0
 36
0.0
 17
0.0
 27
1.0
 37
0.0
 76
     0
330
78
  0
LAYOUT
  5
22
102
{ACAD_XDICTIONARY
360
191
102
}
102
{ACAD_REACTORS
330
1A
102
}
330
1A
100
AcDbPlotSettings
  1

  2
none_device
  4
Letter_(8.50_x_11.00_Inches)
  6

 40
6.349999904632568
 41
6.349999904632568
 42
6.350006103515625
 43
6.350006103515625
 44
215.8999938964844
 45
279.3999938964844
 46
0.0
 47
0.0
 48
0.0
 49
0.0
140
0.0
141
0.0
142
1.0
143
3.560208697428376
 70
 11952
 72
     0
 73
     1
 74
     0
  7

 75
     0
147
0.28088241027059
 76
     0
 77
     2
 78
   300
148
0.1311165230791651
149
0.096403374003771
100
AcDbLayout
  1
Model
 70
     1
 71
     0
 10
0.0
 20
0.0
 11
12.0
 21
9.0
 12
0.0
 22
0.0
 32
0.0
 14
0.0
 24
0.0
 34
0.0
 15
0.0
 25
0.0
 35
0.0
146
0.0
 13
0.0
 23
0.0
 33
0.0
 16
1.0
 26
0.0
 36
0.0
 17
0.0
 27
1.0
 37
0.0
 76
     0
330
1F
331
90
  0
MATERIAL
  5
93
102
{ACAD_XDICTIONARY
360
185
102
}
102
{ACAD_REACTORS
330
6B
102
}
330
6B
100
AcDbMaterial
  1
ByBlock
 94
       63
  0
MATERIAL
  5
92
102
{ACAD_XDICTIONARY
360
183
102
}
102
{ACAD_REACTORS
330
6B
102
}
330
6B
100
AcDbMaterial
  1
ByLayer
 94
       63
  0
MATERIAL
  5
94
102
{ACAD_XDICTIONARY
360
10B
102
}
102
{ACAD_REACTORS
330
6B
102
}
330
6B
100
AcDbMaterial
  1
Global
 43
0.0208000000566244
 43
0.0
 43
0.0
 43
0.0
 43
0.0
 43
0.0208000000566244
 43
0.0
 43
0.0
 43
0.0
 43
0.0
 43
1.0
 43
0.0
 43
0.0
 43
0.0
 43
0.0
 43
1.0
 49
0.0208000000566244
 49
0.0
 49
0.0
 49
0.0
 49
0.0
 49
0.0208000000566244
 49
0.0
 49
0.0
 49
0.0
 49
0.0
 49
1.0
 49
0.0
 49
0.0
 49
0.0
 49
0.0
 49
1.0
142
0.0208000000566244
142
0.0
142
0.0
142
0.0
142
0.0
142
0.0208000000566244
142
0.0
142
0.0
142
0.0
142
0.0
142
1.0
142
0.0
142
0.0
142
0.0
142
0.0
142
1.0
144
0.0208000000566244
144
0.0
144
0.0
144
0.0
144
0.0
144
0.0208000000566244
144
0.0
144
0.0
144
0.0
144
0.0
144
1.0
144
0.0
144
0.0
144
0.0
144
0.0
144
1.0
 94
       63
1001
ACAD
1070
    -1
1070
     3
1070
     0
1000

1071
        0
1070
     0
  0
MLEADERSTYLE
  5
E0
102
{ACAD_REACTORS
330
D2
102
}
330
D2
100
AcDbMLeaderStyle
179
     2
170
     2
171
     1
172
     0
 90
        2
 40
0.0
 41
0.0
173
     1
 91
-1056964608
340
14
 92
       -2
290
     1
 42
0.09
291
     1
 43
0.36
  3
Standard
 44
0.18
300

342
11
174
     1
178
     1
175
     1
176
     0
 93
-1056964608
 45
0.18
292
     0
297
     0
 46
0.18
 94
-1056964608
 47
1.0
 49
1.0
140
1.0
293
     1
141
0.0
294
     1
177
     0
142
1.0
295
     0
296
     1
143
0.125
271
     0
272
     9
273
     9
298
     0
  0
MLEADERSTYLE
  5
D3
102
{ACAD_REACTORS
330
D2
102
}
330
D2
100
AcDbMLeaderStyle
179
     2
170
     2
171
     1
172
     0
 90
        2
 40
0.0
 41
0.0
173
     1
 91
-1056964608
340
14
 92
       -2
290
     1
 42
0.09
291
     1
 43
0.36
  3
Standard
 44
0.18
300

342
11
174
     1
178
     1
175
     1
176
     0
 93
-1056964608
 45
0.18
292
     0
297
     0
 46
0.18
 94
-1056964608
 47
1.0
 49
1.0
140
1.0
293
     1
141
0.0
294
     1
177
     0
142
1.0
295
     0
296
     0
143
0.125
271
     0
272
     9
273
     9
298
     0
  0
MLINESTYLE
  5
18
102
{ACAD_REACTORS
330
17
102
}
330
17
100
AcDbMlineStyle
  2
STANDARD
 70
     0
  3

 62
   256
 51
90.0
 52
90.0
 71
     2
 49
0.5
 62
   256
  6
BYLAYER
 49
-0.5
 62
   256
  6
BYLAYER
  0
ACDBPLACEHOLDER
  5
F
102
{ACAD_REACTORS
330
E
102
}
330
E
  0
SCALE
  5
B2
102
{ACAD_REACTORS
330
B1
102
}
330
B1
100
AcDbScale
 70
     0
300
1:1
140
1.0
141
1.0
290
     1
  0
SCALE
  5
124
102
{ACAD_REACTORS
330
B1
102
}
330
B1
100
AcDbScale
 70
     0
300
1:2
140
1.0
141
2.0
290
     0
  0
SCALE
  5
125
102
{ACAD_REACTORS
330
B1
102
}
330
B1
100
AcDbScale
 70
     0
300
1:4
140
1.0
141
4.0
290
     0
  0
SCALE
  5
126
102
{ACAD_REACTORS
330
B1
102
}
330
B1
100
AcDbScale
 70
     0
300
1:5
140
1.0
141
5.0
290
     0
  0
SCALE
  5
127
102
{ACAD_REACTORS
330
B1
102
}
330
B1
100
AcDbScale
 70
     0
300
1:8
140
1.0
141
8.0
290
     0
  0
SCALE
  5
128
102
{ACAD_REACTORS
330
B1
102
}
330
B1
100
AcDbScale
 70
     0
300
1:10
140
1.0
141
10.0
290
     0
  0
SCALE
  5
129
102
{ACAD_REACTORS
330
B1
102
}
330
B1
100
AcDbScale
 70
     0
300
1:16
140
1.0
141
16.0
290
     0
  0
SCALE
  5
12A
102
{ACAD_REACTORS
330
B1
102
}
330
B1
100
AcDbScale
 70
     0
300
1:20
140
1.0
141
20.0
290
     0
  0
SCALE
  5
12B
102
{ACAD_REACTORS
330
B1
102
}
330
B1
100
AcDbScale
 70
     0
300
1:30
140
1.0
141
30.0
290
     0
  0
SCALE
  5
12C
102
{ACAD_REACTORS
330
B1
102
}
330
B1
100
AcDbScale
 70
     0
300
1:40
140
1.0
141
40.0
290
     0
  0
SCALE
  5
12D
102
{ACAD_REACTORS
330
B1
102
}
330
B1
100
AcDbScale
 70
     0
300
1:50
140
1.0
141
50.0
290
     0
  0
SCALE
  5
12E
102
{ACAD_REACTORS
330
B1
102
}
330
B1
100
AcDbScale
 70
     0
300
1:100
140
1.0
141
100.0
290
     0
  0
SCALE
  5
12F
102
{ACAD_REACTORS
330
B1
102
}
330
B1
100
AcDbScale
 70
     0
300
2:1
140
2.0
141
1.0
290
     0
  0
SCALE
  5
130
102
{ACAD_REACTORS
330
B1
102
}
330
B1
100
AcDbScale
 70
     0
300
4:1
140
4.0
141
1.0
290
     0
  0
SCALE
  5
131
102
{ACAD_REACTORS
330
B1
102
}
330
B1
100
AcDbScale
 70
     0
300
8:1
140
8.0
141
1.0
290
     0
  0
SCALE
  5
132
102
{ACAD_REACTORS
330
B1
102
}
330
B1
100
AcDbScale
 70
     0
300
10:1
140
10.0
141
1.0
290
     0
  0
SCALE
  5
133
102
{ACAD_REACTORS
330
B1
102
}
330
B1
100
AcDbScale
 70
     0
300
100:1
140
100.0
141
1.0
290
     0
  0
SCALE
  5
134
102
{ACAD_REACTORS
330
B1
102
}
330
B1
100
AcDbScale
 70
     0
300
1/128" = 1'-0"
140
0.0078125
141
12.0
290
     0
  0
SCALE
  5
135
102
{ACAD_REACTORS
330
B1
102
}
330
B1
100
AcDbScale
 70
     0
300
1/64" = 1'-0"
140
0.015625
141
12.0
290
     0
  0
SCALE
  5
136
102
{ACAD_REACTORS
330
B1
102
}
330
B1
100
AcDbScale
 70
     0
300
1/32" = 1'-0"
140
0.03125
141
12.0
290
     0
  0
SCALE
  5
137
102
{ACAD_REACTORS
330
B1
102
}
330
B1
100
AcDbScale
 70
     0
300
1/16" = 1'-0"
140
0.0625
141
12.0
290
     0
  0
SCALE
  5
138
102
{ACAD_REACTORS
330
B1
102
}
330
B1
100
AcDbScale
 70
     0
300
3/32" = 1'-0"
140
0.09375
141
12.0
290
     0
  0
SCALE
  5
139
102
{ACAD_REACTORS
330
B1
102
}
330
B1
100
AcDbScale
 70
     0
300
1/8" = 1'-0"
140
0.125
141
12.0
290
     0
  0
SCALE
  5
13A
102
{ACAD_REACTORS
330
B1
102
}
330
B1
100
AcDbScale
 70
     0
300
3/16" = 1'-0"
140
0.1875
141
12.0
290
     0
  0
SCALE
  5
13B
102
{ACAD_REACTORS
330
B1
102
}
330
B1
100
AcDbScale
 70
     0
300
1/4" = 1'-0"
140
0.25
141
12.0
290
     0
  0
SCALE
  5
13C
102
{ACAD_REACTORS
330
B1
102
}
330
B1
100
AcDbScale
 70
     0
300
3/8" = 1'-0"
140
0.375
141
12.0
290
     0
  0
SCALE
  5
13D
102
{ACAD_REACTORS
330
B1
102
}
330
B1
100
AcDbScale
 70
     0
300
1/2" = 1'-0"
140
0.5
141
12.0
290
     0
  0
SCALE
  5
13E
102
{ACAD_REACTORS
330
B1
102
}
330
B1
100
AcDbScale
 70
     0
300
3/4" = 1'-0"
140
0.75
141
12.0
290
     0
  0
SCALE
  5
13F
102
{ACAD_REACTORS
330
B1
102
}
330
B1
100
AcDbScale
 70
     0
300
1" = 1'-0"
140
1.0
141
12.0
290
     0
  0
SCALE
  5
140
102
{ACAD_REACTORS
330
B1
102
}
330
B1
100
AcDbScale
 70
     0
300
1-1/2" = 1'-0"
140
1.5
141
12.0
290
     0
  0
SCALE
  5
141
102
{ACAD_REACTORS
330
B1
102
}
330
B1
100
AcDbScale
 70
     0
300
3" = 1'-0"
140
3.0
141
12.0
290
     0
  0
SCALE
  5
142
102
{ACAD_REACTORS
330
B1
102
}
330
B1
100
AcDbScale
 70
     0
300
6" = 1'-0"
140
6.0
141
12.0
290
     0
  0
SCALE
  5
143
102
{ACAD_REACTORS
330
B1
102
}
330
B1
100
AcDbScale
 70
     0
300
1'-0" = 1'-0"
140
12.0
141
12.0
290
     0
  0
ACDBSECTIONVIEWSTYLE
  5
1A7
102
{ACAD_XDICTIONARY
360
3EB
102
}
102
{ACAD_REACTORS
330
1A5
102
}
330
1A5
100
AcDbModelDocViewStyle
 70
     0
  3
Imperial24
290
     0
100
AcDbSectionViewStyle
 70
     0
 71
     0
 90
       78
 71
     1
340
11
 62
   256
 40
0.24
340
0
340
0
 62
   256
 40
0.24
300
I, O, Q, S, X, Z
 40
0.48
 90
        3
 40
0.18
 90
        1
 71
     2
340
16
 90
       25
 62
   256
340
16
 90
       50
 62
   256
 40
0.24
 40
0.0
 40
0.24
 71
     3
340
11
 62
   256
 40
0.24
 90
        1
 40
0.75
 90
        1
300
%<\AcVar ViewType \f "%tc1">% %<\AcVar ViewSectionStartId>%-%<\AcVar ViewSectionEndId>%\PSCALE %<\AcVar ViewScale \f "%sn">%
 71
     4
 62
   256
 62
   257
300
ANSI31
 40
1.0
 90
        0
290
     0
290
     0
 90
        6
 40
0.0
 40
1.570796326794896
 40
0.2617993877991494
 40
1.308996938995747
 40
-0.2617993877991494
 40
1.832595714594046
  0
TABLESTYLE
  5
A7
102
{ACAD_XDICTIONARY
360
FF
102
}
102
{ACAD_REACTORS
330
A6
102
}
330
A6
100
AcDbTableStyle
280
     0
  3
Standard
 70
     0
 71
     0
 40
0.06
 41
0.06
280
     0
281
     0
  7
Standard
140
0.18
170
     2
 62
     0
 63
     7
283
     0
 90
      512
 91
        0
  1

274
    -2
284
     1
 64
     0
275
    -2
285
     1
 65
     0
276
    -2
286
     1
 66
     0
277
    -2
287
     1
 67
     0
278
    -2
288
     1
 68
     0
279
    -2
289
     1
 69
     0
  7
Standard
140
0.25
170
     5
 62
     0
 63
     7
283
     0
 90
      512
 91
        0
  1

274
    -2
284
     1
 64
     0
275
    -2
285
     1
 65
     0
276
    -2
286
     1
 66
     0
277
    -2
287
     1
 67
     0
278
    -2
288
     1
 68
     0
279
    -2
289
     1
 69
     0
  7
Standard
140
0.18
170
     5
 62
     0
 63
     7
283
     0
 90
      512
 91
        0
  1

274
    -2
284
     1
 64
     0
275
    -2
285
     1
 65
     0
276
    -2
286
     1
 66
     0
277
    -2
287
     1
 67
     0
278
    -2
288
     1
 68
     0
279
    -2
289
     1
 69
     0
  0
VISUALSTYLE
  5
9B
102
{ACAD_REACTORS
330
95
102
}
330
95
100
AcDbVisualStyle
  2
2dWireframe
 70
     4
177
     3
291
     0
 70
    58
 90
        0
176
     1
 90
        2
176
     1
 90
        1
176
     1
 90
        0
176
     1
 40
0.6
176
     1
 40
30.0
176
     1
 62
     7
420
 16777215
176
     1
 90
        1
176
     1
 90
        4
176
     1
 62
     7
176
     1
 62
   257
176
     1
 90
        1
176
     1
 90
        1
176
     1
 40
1.0
176
     1
 90
        0
176
     1
 62
   257
176
     1
 40
1.0
176
     1
 90
        1
176
     1
 90
        6
176
     1
 90
        2
176
     1
 62
     7
176
     1
 90
        5
176
     1
 90
        0
176
     1
 90
        0
176
     1
290
     0
176
     1
 90
        1
176
     1
 40
0.0
176
     1
 90
        0
176
     1
290
     1
176
     1
290
     1
176
     1
290
     0
176
     1
290
     0
176
     1
290
     0
176
     1
290
     0
176
     1
290
     0
176
     1
290
     0
176
     1
290
     0
176
     1
 90
       50
176
     1
 40
0.0
176
     1
 40
1.0
176
     1
 90
        0
176
     1
 62
    18
420
        0
176
     1
 90
       50
176
     1
 90
        3
176
     1
 62
     5
420
      255
176
     1
290
     0
176
     1
 90
       50
176
     1
 90
       50
176
     1
 90
       50
176
     1
290
     0
176
     1
 90
       50
176
     1
 62
   256
176
     0
 40
1.0
176
     0
 90
        2
176
     1
  1
strokes_ogs.tif
176
     1
290
     0
176
     1
 40
1.0
176
     1
 40
1.0
176
     1
1001
ACAD
1000
AcDbSavedByObjectVersion
1070
     0
  0
VISUALSTYLE
  5
9A
102
{ACAD_REACTORS
330
95
102
}
330
95
100
AcDbVisualStyle
  2
Basic
 70
     7
177
     3
291
     1
 70
    58
 90
        1
176
     1
 90
        0
176
     1
 90
        1
176
     1
 90
        0
176
     1
 40
0.6
176
     1
 40
30.0
176
     1
 62
     7
420
 16777215
176
     1
 90
        0
176
     1
 90
        4
176
     1
 62
     7
176
     1
 62
   257
176
     1
 90
        1
176
     1
 90
        1
176
     1
 40
1.0
176
     1
 90
        8
176
     1
 62
     7
176
     1
 40
1.0
176
     1
 90
        1
176
     1
 90
        6
176
     1
 90
        2
176
     1
 62
     7
176
     1
 90
        5
176
     1
 90
        0
176
     1
 90
        0
176
     1
290
     0
176
     1
 90
        1
176
     1
 40
0.0
176
     1
 90
        0
176
     1
290
     0
176
     1
290
     1
176
     1
290
     1
176
     1
290
     0
176
     1
290
     0
176
     1
290
     0
176
     1
290
     0
176
     1
290
     0
176
     1
290
     0
176
     1
 90
       50
176
     1
 40
0.0
176
     1
 40
1.0
176
     1
 90
        0
176
     1
 62
    18
420
        0
176
     1
 90
       50
176
     1
 90
        3
176
     1
 62
     5
420
      255
176
     1
290
     0
176
     1
 90
       50
176
     1
 90
       50
176
     1
 90
       50
176
     1
290
     0
176
     1
 90
       50
176
     1
 62
   256
176
     0
 40
1.0
176
     0
 90
        2
176
     1
  1
strokes_ogs.tif
176
     1
290
     0
176
     1
 40
1.0
176
     1
 40
1.0
176
     1
1001
ACAD
1000
AcDbSavedByObjectVersion
1070
     0
  0
VISUALSTYLE
  5
A1
102
{ACAD_REACTORS
330
95
102
}
330
95
100
AcDbVisualStyle
  2
Brighten
 70
    12
177
     3
291
     1
 70
    58
 90
        2
176
     1
 90
        2
176
     1
 90
        1
176
     1
 90
        0
176
     1
 40
0.6
176
     1
 40
30.0
176
     1
 62
     7
420
 16777215
176
     1
 90
        1
176
     1
 90
        4
176
     1
 62
     7
176
     1
 62
   257
176
     1
 90
        1
176
     1
 90
        1
176
     1
 40
1.0
176
     1
 90
        8
176
     1
 62
     7
176
     1
 40
1.0
176
     1
 90
        1
176
     1
 90
        6
176
     1
 90
        2
176
     1
 62
     7
176
     1
 90
        5
176
     1
 90
        0
176
     1
 90
        0
176
     1
290
     0
176
     1
 90
        1
176
     1
 40
50.0
176
     1
 90
        0
176
     1
290
     0
176
     1
290
     1
176
     1
290
     1
176
     1
290
     0
176
     1
290
     0
176
     1
290
     0
176
     1
290
     0
176
     1
290
     0
176
     1
290
     0
176
     1
 90
       50
176
     1
 40
0.0
176
     1
 40
1.0
176
     1
 90
        0
176
     1
 62
    18
420
        0
176
     1
 90
       50
176
     1
 90
        3
176
     1
 62
     5
420
      255
176
     1
290
     0
176
     1
 90
       50
176
     1
 90
       50
176
     1
 90
       50
176
     1
290
     0
176
     1
 90
       50
176
     1
 62
   256
176
     0
 40
1.0
176
     0
 90
        2
176
     1
  1
strokes_ogs.tif
176
     1
290
     0
176
     1
 40
1.0
176
     1
 40
1.0
176
     1
1001
ACAD
1000
AcDbSavedByObjectVersion
1070
     0
  0
VISUALSTYLE
  5
A5
102
{ACAD_REACTORS
330
95
102
}
330
95
100
AcDbVisualStyle
  2
ColorChange
 70
    16
177
     3
291
     1
 70
    58
 90
        2
176
     1
 90
        2
176
     1
 90
        3
176
     1
 90
        0
176
     1
 40
0.6
176
     1
 40
30.0
176
     1
 62
     8
420
  8421504
176
     1
 90
        1
176
     1
 90
        4
176
     1
 62
     7
176
     1
 62
   257
176
     1
 90
        1
176
     1
 90
        1
176
     1
 40
1.0
176
     1
 90
        8
176
     1
 62
     8
420
  8421504
176
     1
 40
1.0
176
     1
 90
        1
176
     1
 90
        6
176
     1
 90
        2
176
     1
 62
     7
176
     1
 90
        5
176
     1
 90
        0
176
     1
 90
        0
176
     1
290
     0
176
     1
 90
        1
176
     1
 40
0.0
176
     1
 90
        0
176
     1
290
     0
176
     1
290
     1
176
     1
290
     1
176
     1
290
     0
176
     1
290
     0
176
     1
290
     0
176
     1
290
     0
176
     1
290
     0
176
     1
290
     0
176
     1
 90
       50
176
     1
 40
0.0
176
     1
 40
1.0
176
     1
 90
        0
176
     1
 62
    18
420
        0
176
     1
 90
       50
176
     1
 90
        3
176
     1
 62
     5
420
      255
176
     1
290
     0
176
     1
 90
       50
176
     1
 90
       50
176
     1
 90
       50
176
     1
290
     0
176
     1
 90
       50
176
     1
 62
   256
176
     0
 40
1.0
176
     0
 90
        2
176
     1
  1
strokes_ogs.tif
176
     1
290
     0
176
     1
 40
1.0
176
     1
 40
1.0
176
     1
1001
ACAD
1000
AcDbSavedByObjectVersion
1070
     0
  0
VISUALSTYLE
  5
9E
102
{ACAD_REACTORS
330
95
102
}
330
95
100
AcDbVisualStyle
  2
Conceptual
 70
     9
177
     3
291
     0
 70
    58
 90
        3
176
     1
 90
        2
176
     1
 90
        1
176
     1
 90
        0
176
     1
 40
0.6
176
     1
 40
30.0
176
     1
 62
     7
420
 16777215
176
     1
 90
        2
176
     1
 90
        2
176
     1
 62
     7
176
     1
 62
   257
176
     1
 90
        1
176
     1
 90
        1
176
     1
 40
40.0
176
     1
 90
        8
176
     1
 62
     7
176
     1
 40
1.0
176
     1
 90
        1
176
     1
 90
        6
176
     1
 90
        2
176
     1
 62
     7
176
     1
 90
        3
176
     1
 90
        0
176
     1
 90
        0
176
     1
290
     0
176
     1
 90
        1
176
     1
 40
0.0
176
     1
 90
        0
176
     1
290
     0
176
     1
290
     1
176
     1
290
     1
176
     1
290
     0
176
     1
290
     0
176
     1
290
     0
176
     1
290
     0
176
     1
290
     0
176
     1
290
     0
176
     1
 90
       50
176
     1
 40
0.0
176
     1
 40
1.0
176
     1
 90
        0
176
     1
 62
    18
420
        0
176
     1
 90
       50
176
     1
 90
        3
176
     1
 62
     5
420
      255
176
     1
290
     0
176
     1
 90
       50
176
     1
 90
       50
176
     1
 90
       50
176
     1
290
     0
176
     1
 90
       50
176
     1
 62
   256
176
     0
 40
1.0
176
     0
 90
        2
176
     1
  1
strokes_ogs.tif
176
     1
290
     0
176
     1
 40
1.0
176
     1
 40
1.0
176
     1
1001
ACAD
1000
AcDbSavedByObjectVersion
1070
     0
  0
VISUALSTYLE
  5
A0
102
{ACAD_REACTORS
330
95
102
}
330
95
100
AcDbVisualStyle
  2
Dim
 70
    11
177
     3
291
     1
 70
    58
 90
        2
176
     1
 90
        2
176
     1
 90
        1
176
     1
 90
        0
176
     1
 40
0.6
176
     1
 40
30.0
176
     1
 62
     7
420
 16777215
176
     1
 90
        1
176
     1
 90
        4
176
     1
 62
     7
176
     1
 62
   257
176
     1
 90
        1
176
     1
 90
        1
176
     1
 40
1.0
176
     1
 90
        8
176
     1
 62
     7
176
     1
 40
1.0
176
     1
 90
        1
176
     1
 90
        6
176
     1
 90
        2
176
     1
 62
     7
176
     1
 90
        5
176
     1
 90
        0
176
     1
 90
        0
176
     1
290
     0
176
     1
 90
        1
176
     1
 40
-50.0
176
     1
 90
        0
176
     1
290
     0
176
     1
290
     1
176
     1
290
     1
176
     1
290
     0
176
     1
290
     0
176
     1
290
     0
176
     1
290
     0
176
     1
290
     0
176
     1
290
     0
176
     1
 90
       50
176
     1
 40
0.0
176
     1
 40
1.0
176
     1
 90
        0
176
     1
 62
    18
420
        0
176
     1
 90
       50
176
     1
 90
        3
176
     1
 62
     5
420
      255
176
     1
290
     0
176
     1
 90
       50
176
     1
 90
       50
176
     1
 90
       50
176
     1
290
     0
176
     1
 90
       50
176
     1
 62
   256
176
     0
 40
1.0
176
     0
 90
        2
176
     1
  1
strokes_ogs.tif
176
     1
290
     0
176
     1
 40
1.0
176
     1
 40
1.0
176
     1
1001
ACAD
1000
AcDbSavedByObjectVersion
1070
     0
  0
VISUALSTYLE
  5
172
102
{ACAD_REACTORS
330
95
102
}
330
95
100
AcDbVisualStyle
  2
EdgeColorOff
 70
    22
177
     3
291
     1
 70
    58
 90
        2
176
     0
 90
        2
176
     0
 90
        0
176
     0
 90
        0
176
     0
 40
0.6
176
     0
 40
30.0
176
     0
 62
     7
420
 16777215
176
     0
 90
        1
176
     0
 90
        4
176
     0
 62
     7
176
     0
 62
   257
176
     0
 90
        1
176
     0
 90
        1
176
     0
 40
1.0
176
     0
 90
        8
176
     2
 62
     7
176
     0
 40
1.0
176
     0
 90
        1
176
     0
 90
        6
176
     0
 90
        2
176
     0
 62
     7
176
     0
 90
        5
176
     0
 90
        0
176
     0
 90
        0
176
     0
290
     0
176
     0
 90
        1
176
     0
 40
0.0
176
     0
 90
        0
176
     0
290
     0
176
     1
290
     1
176
     1
290
     1
176
     1
290
     0
176
     1
290
     0
176
     1
290
     0
176
     1
290
     0
176
     1
290
     0
176
     1
290
     0
176
     1
 90
       50
176
     1
 40
0.0
176
     1
 40
1.0
176
     1
 90
        0
176
     1
 62
    18
420
        0
176
     1
 90
       50
176
     1
 90
        3
176
     1
 62
     5
420
      255
176
     1
290
     0
176
     1
 90
       50
176
     1
 90
       50
176
     1
 90
       50
176
     1
290
     0
176
     1
 90
       50
176
     1
 62
   256
176
     0
 40
1.0
176
     0
 90
        2
176
     1
  1
strokes_ogs.tif
176
     1
290
     0
176
     1
 40
1.0
176
     1
 40
1.0
176
     1
1001
ACAD
1000
AcDbSavedByObjectVersion
1070
     0
  0
VISUALSTYLE
  5
A4
102
{ACAD_REACTORS
330
95
102
}
330
95
100
AcDbVisualStyle
  2
Facepattern
 70
    15
177
     3
291
     1
 70
    58
 90
        2
176
     1
 90
        2
176
     1
 90
        1
176
     1
 90
        0
176
     1
 40
0.6
176
     1
 40
30.0
176
     1
 62
     7
420
 16777215
176
     1
 90
        1
176
     1
 90
        4
176
     1
 62
     7
176
     1
 62
   257
176
     1
 90
        1
176
     1
 90
        1
176
     1
 40
1.0
176
     1
 90
        8
176
     1
 62
     7
176
     1
 40
1.0
176
     1
 90
        1
176
     1
 90
        6
176
     1
 90
        2
176
     1
 62
     7
176
     1
 90
        5
176
     1
 90
        0
176
     1
 90
        0
176
     1
290
     0
176
     1
 90
        1
176
     1
 40
0.0
176
     1
 90
        0
176
     1
290
     0
176
     1
290
     1
176
     1
290
     1
176
     1
290
     0
176
     1
290
     0
176
     1
290
     0
176
     1
290
     0
176
     1
290
     0
176
     1
290
     0
176
     1
 90
       50
176
     1
 40
0.0
176
     1
 40
1.0
176
     1
 90
        0
176
     1
 62
    18
420
        0
176
     1
 90
       50
176
     1
 90
        3
176
     1
 62
     5
420
      255
176
     1
290
     0
176
     1
 90
       50
176
     1
 90
       50
176
     1
 90
       50
176
     1
290
     0
176
     1
 90
       50
176
     1
 62
   256
176
     0
 40
1.0
176
     0
 90
        2
176
     1
  1
strokes_ogs.tif
176
     1
290
     0
176
     1
 40
1.0
176
     1
 40
1.0
176
     1
1001
ACAD
1000
AcDbSavedByObjectVersion
1070
     0
  0
VISUALSTYLE
  5
96
102
{ACAD_REACTORS
330
95
102
}
330
95
100
AcDbVisualStyle
  2
Flat
 70
     0
177
     3
291
     1
 70
    58
 90
        2
176
     1
 90
        1
176
     1
 90
        1
176
     1
 90
        2
176
     1
 40
0.6
176
     1
 40
30.0
176
     1
 62
     7
420
 16777215
176
     1
 90
        0
176
     1
 90
        0
176
     1
 62
     7
176
     1
 62
   257
176
     1
 90
        1
176
     1
 90
        1
176
     1
 40
1.0
176
     1
 90
        8
176
     1
 62
     7
176
     1
 40
1.0
176
     1
 90
        1
176
     1
 90
        6
176
     1
 90
        2
176
     1
 62
     7
176
     1
 90
        5
176
     1
 90
        0
176
     1
 90
        0
176
     1
290
     0
176
     1
 90
       13
176
     1
 40
0.0
176
     1
 90
        0
176
     1
290
     0
176
     1
290
     1
176
     1
290
     1
176
     1
290
     0
176
     1
290
     0
176
     1
290
     0
176
     1
290
     0
176
     1
290
     0
176
     1
290
     0
176
     1
 90
       50
176
     1
 40
0.0
176
     1
 40
1.0
176
     1
 90
        0
176
     1
 62
    18
420
        0
176
     1
 90
       50
176
     1
 90
        3
176
     1
 62
     5
420
      255
176
     1
290
     0
176
     1
 90
       50
176
     1
 90
       50
176
     1
 90
       50
176
     1
290
     0
176
     1
 90
       50
176
     1
 62
   256
176
     0
 40
1.0
176
     0
 90
        2
176
     1
  1
strokes_ogs.tif
176
     1
290
     0
176
     1
 40
1.0
176
     1
 40
1.0
176
     1
1001
ACAD
1000
AcDbSavedByObjectVersion
1070
     0
  0
VISUALSTYLE
  5
97
102
{ACAD_REACTORS
330
95
102
}
330
95
100
AcDbVisualStyle
  2
FlatWithEdges
 70
     1
177
     3
291
     1
 70
    58
 90
        2
176
     1
 90
        1
176
     1
 90
        1
176
     1
 90
        2
176
     1
 40
0.6
176
     1
 40
30.0
176
     1
 62
     7
420
 16777215
176
     1
 90
        1
176
     1
 90
        0
176
     1
 62
     7
176
     1
 62
   257
176
     1
 90
        1
176
     1
 90
        1
176
     1
 40
1.0
176
     1
 90
        0
176
     1
 62
   257
176
     1
 40
1.0
176
     1
 90
        1
176
     1
 90
        6
176
     1
 90
        2
176
     1
 62
     7
176
     1
 90
        5
176
     1
 90
        0
176
     1
 90
        0
176
     1
290
     0
176
     1
 90
       13
176
     1
 40
0.0
176
     1
 90
        0
176
     1
290
     0
176
     1
290
     1
176
     1
290
     1
176
     1
290
     0
176
     1
290
     0
176
     1
290
     0
176
     1
290
     0
176
     1
290
     0
176
     1
290
     0
176
     1
 90
       50
176
     1
 40
0.0
176
     1
 40
1.0
176
     1
 90
        0
176
     1
 62
    18
420
        0
176
     1
 90
       50
176
     1
 90
        3
176
     1
 62
     5
420
      255
176
     1
290
     0
176
     1
 90
       50
176
     1
 90
       50
176
     1
 90
       50
176
     1
290
     0
176
     1
 90
       50
176
     1
 62
   256
176
     0
 40
1.0
176
     0
 90
        2
176
     1
  1
strokes_ogs.tif
176
     1
290
     0
176
     1
 40
1.0
176
     1
 40
1.0
176
     1
1001
ACAD
1000
AcDbSavedByObjectVersion
1070
     0
  0
VISUALSTYLE
  5
98
102
{ACAD_REACTORS
330
95
102
}
330
95
100
AcDbVisualStyle
  2
Gouraud
 70
     2
177
     3
291
     1
 70
    58
 90
        2
176
     1
 90
        2
176
     1
 90
        1
176
     1
 90
        2
176
     1
 40
0.6
176
     1
 40
30.0
176
     1
 62
     7
420
 16777215
176
     1
 90
        0
176
     1
 90
        0
176
     1
 62
     7
176
     1
 62
   257
176
     1
 90
        1
176
     1
 90
        1
176
     1
 40
1.0
176
     1
 90
        0
176
     1
 62
     7
176
     1
 40
1.0
176
     1
 90
        1
176
     1
 90
        6
176
     1
 90
        2
176
     1
 62
     7
176
     1
 90
        5
176
     1
 90
        0
176
     1
 90
        0
176
     1
290
     0
176
     1
 90
       13
176
     1
 40
0.0
176
     1
 90
        0
176
     1
290
     0
176
     1
290
     1
176
     1
290
     1
176
     1
290
     0
176
     1
290
     0
176
     1
290
     0
176
     1
290
     0
176
     1
290
     0
176
     1
290
     0
176
     1
 90
       50
176
     1
 40
0.0
176
     1
 40
1.0
176
     1
 90
        0
176
     1
 62
    18
420
        0
176
     1
 90
       50
176
     1
 90
        3
176
     1
 62
     5
420
      255
176
     1
290
     0
176
     1
 90
       50
176
     1
 90
       50
176
     1
 90
       50
176
     1
290
     0
176
     1
 90
       50
176
     1
 62
   256
176
     0
 40
1.0
176
     0
 90
        2
176
     1
  1
strokes_ogs.tif
176
     1
290
     0
176
     1
 40
1.0
176
     1
 40
1.0
176
     1
1001
ACAD
1000
AcDbSavedByObjectVersion
1070
     0
  0
VISUALSTYLE
  5
99
102
{ACAD_REACTORS
330
95
102
}
330
95
100
AcDbVisualStyle
  2
GouraudWithEdges
 70
     3
177
     3
291
     1
 70
    58
 90
        2
176
     1
 90
        2
176
     1
 90
        1
176
     1
 90
        2
176
     1
 40
0.6
176
     1
 40
30.0
176
     1
 62
     7
420
 16777215
176
     1
 90
        1
176
     1
 90
        0
176
     1
 62
     7
176
     1
 62
   257
176
     1
 90
        1
176
     1
 90
        1
176
     1
 40
1.0
176
     1
 90
        0
176
     1
 62
   257
176
     1
 40
1.0
176
     1
 90
        1
176
     1
 90
        6
176
     1
 90
        2
176
     1
 62
     7
176
     1
 90
        5
176
     1
 90
        0
176
     1
 90
        0
176
     1
290
     0
176
     1
 90
       13
176
     1
 40
0.0
176
     1
 90
        0
176
     1
290
     0
176
     1
290
     1
176
     1
290
     1
176
     1
290
     0
176
     1
290
     0
176
     1
290
     0
176
     1
290
     0
176
     1
290
     0
176
     1
290
     0
176
     1
 90
       50
176
     1
 40
0.0
176
     1
 40
1.0
176
     1
 90
        0
176
     1
 62
    18
420
        0
176
     1
 90
       50
176
     1
 90
        3
176
     1
 62
     5
420
      255
176
     1
290
     0
176
     1
 90
       50
176
     1
 90
       50
176
     1
 90
       50
176
     1
290
     0
176
     1
 90
       50
176
     1
 62
   256
176
     0
 40
1.0
176
     0
 90
        2
176
     1
  1
strokes_ogs.tif
176
     1
290
     0
176
     1
 40
1.0
176
     1
 40
1.0
176
     1
1001
ACAD
1000
AcDbSavedByObjectVersion
1070
     0
  0
VISUALSTYLE
  5
9D
102
{ACAD_REACTORS
330
95
102
}
330
95
100
AcDbVisualStyle
  2
Hidden
 70
     6
177
     3
291
     0
 70
    58
 90
        1
176
     1
 90
        2
176
     1
 90
        2
176
     1
 90
        0
176
     1
 40
0.6
176
     1
 40
30.0
176
     1
 62
     7
420
 16777215
176
     1
 90
        2
176
     1
 90
        2
176
     1
 62
     7
176
     1
 62
   257
176
     1
 90
        2
176
     1
 90
        1
176
     1
 40
40.0
176
     1
 90
        0
176
     1
 62
   257
176
     1
 40
1.0
176
     1
 90
        1
176
     1
 90
        6
176
     1
 90
        2
176
     1
 62
     7
176
     1
 90
        3
176
     1
 90
        0
176
     1
 90
        0
176
     1
290
     0
176
     1
 90
        1
176
     1
 40
0.0
176
     1
 90
        0
176
     1
290
     0
176
     1
290
     1
176
     1
290
     1
176
     1
290
     0
176
     1
290
     0
176
     1
290
     0
176
     1
290
     0
176
     1
290
     0
176
     1
290
     0
176
     1
 90
       50
176
     1
 40
0.0
176
     1
 40
1.0
176
     1
 90
        0
176
     1
 62
    18
420
        0
176
     1
 90
       50
176
     1
 90
        3
176
     1
 62
     5
420
      255
176
     1
290
     0
176
     1
 90
       50
176
     1
 90
       50
176
     1
 90
       50
176
     1
290
     0
176
     1
 90
       50
176
     1
 62
   256
176
     0
 40
1.0
176
     0
 90
        2
176
     1
  1
strokes_ogs.tif
176
     1
290
     0
176
     1
 40
1.0
176
     1
 40
1.0
176
     1
1001
ACAD
1000
AcDbSavedByObjectVersion
1070
     0
  0
VISUALSTYLE
  5
170
102
{ACAD_REACTORS
330
95
102
}
330
95
100
AcDbVisualStyle
  2
JitterOff
 70
    20
177
     3
291
     1
 70
    58
 90
        2
176
     0
 90
        2
176
     0
 90
        0
176
     0
 90
        0
176
     0
 40
0.6
176
     0
 40
30.0
176
     0
 62
     7
420
 16777215
176
     0
 90
        1
176
     0
 90
        4
176
     0
 62
     7
176
     0
 62
   257
176
     0
 90
        1
176
     0
 90
        1
176
     0
 40
1.0
176
     0
 90
       10
176
     2
 62
     7
176
     0
 40
1.0
176
     0
 90
        1
176
     0
 90
        6
176
     0
 90
        2
176
     0
 62
     7
176
     0
 90
        5
176
     0
 90
        0
176
     0
 90
        0
176
     0
290
     0
176
     0
 90
        1
176
     0
 40
0.0
176
     0
 90
        0
176
     0
290
     0
176
     1
290
     1
176
     1
290
     1
176
     1
290
     0
176
     1
290
     0
176
     1
290
     0
176
     1
290
     0
176
     1
290
     0
176
     1
290
     0
176
     1
 90
       50
176
     1
 40
0.0
176
     1
 40
1.0
176
     1
 90
        0
176
     1
 62
    18
420
        0
176
     1
 90
       50
176
     1
 90
        3
176
     1
 62
     5
420
      255
176
     1
290
     0
176
     1
 90
       50
176
     1
 90
       50
176
     1
 90
       50
176
     1
290
     0
176
     1
 90
       50
176
     1
 62
   256
176
     0
 40
1.0
176
     0
 90
        2
176
     1
  1
strokes_ogs.tif
176
     1
290
     0
176
     1
 40
1.0
176
     1
 40
1.0
176
     1
1001
ACAD
1000
AcDbSavedByObjectVersion
1070
     0
  0
VISUALSTYLE
  5
A3
102
{ACAD_REACTORS
330
95
102
}
330
95
100
AcDbVisualStyle
  2
Linepattern
 70
    14
177
     3
291
     1
 70
    58
 90
        2
176
     1
 90
        2
176
     1
 90
        1
176
     1
 90
        0
176
     1
 40
0.6
176
     1
 40
30.0
176
     1
 62
     7
420
 16777215
176
     1
 90
        1
176
     1
 90
        4
176
     1
 62
     7
176
     1
 62
   257
176
     1
 90
        7
176
     1
 90
        7
176
     1
 40
1.0
176
     1
 90
        8
176
     1
 62
     7
176
     1
 40
1.0
176
     1
 90
        1
176
     1
 90
        6
176
     1
 90
        2
176
     1
 62
     7
176
     1
 90
        5
176
     1
 90
        0
176
     1
 90
        0
176
     1
290
     0
176
     1
 90
        1
176
     1
 40
0.0
176
     1
 90
        0
176
     1
290
     0
176
     1
290
     1
176
     1
290
     1
176
     1
290
     0
176
     1
290
     0
176
     1
290
     0
176
     1
290
     0
176
     1
290
     0
176
     1
290
     0
176
     1
 90
       50
176
     1
 40
0.0
176
     1
 40
1.0
176
     1
 90
        0
176
     1
 62
    18
420
        0
176
     1
 90
       50
176
     1
 90
        3
176
     1
 62
     5
420
      255
176
     1
290
     0
176
     1
 90
       50
176
     1
 90
       50
176
     1
 90
       50
176
     1
290
     0
176
     1
 90
       50
176
     1
 62
   256
176
     0
 40
1.0
176
     0
 90
        2
176
     1
  1
strokes_ogs.tif
176
     1
290
     0
176
     1
 40
1.0
176
     1
 40
1.0
176
     1
1001
ACAD
1000
AcDbSavedByObjectVersion
1070
     0
  0
VISUALSTYLE
  5
171
102
{ACAD_REACTORS
330
95
102
}
330
95
100
AcDbVisualStyle
  2
OverhangOff
 70
    21
177
     3
291
     1
 70
    58
 90
        2
176
     0
 90
        2
176
     0
 90
        0
176
     0
 90
        0
176
     0
 40
0.6
176
     0
 40
30.0
176
     0
 62
     7
420
 16777215
176
     0
 90
        1
176
     0
 90
        4
176
     0
 62
     7
176
     0
 62
   257
176
     0
 90
        1
176
     0
 90
        1
176
     0
 40
1.0
176
     0
 90
        9
176
     2
 62
     7
176
     0
 40
1.0
176
     0
 90
        1
176
     0
 90
        6
176
     0
 90
        2
176
     0
 62
     7
176
     0
 90
        5
176
     0
 90
        0
176
     0
 90
        0
176
     0
290
     0
176
     0
 90
        1
176
     0
 40
0.0
176
     0
 90
        0
176
     0
290
     0
176
     1
290
     1
176
     1
290
     1
176
     1
290
     0
176
     1
290
     0
176
     1
290
     0
176
     1
290
     0
176
     1
290
     0
176
     1
290
     0
176
     1
 90
       50
176
     1
 40
0.0
176
     1
 40
1.0
176
     1
 90
        0
176
     1
 62
    18
420
        0
176
     1
 90
       50
176
     1
 90
        3
176
     1
 62
     5
420
      255
176
     1
290
     0
176
     1
 90
       50
176
     1
 90
       50
176
     1
 90
       50
176
     1
290
     0
176
     1
 90
       50
176
     1
 62
   256
176
     0
 40
1.0
176
     0
 90
        2
176
     1
  1
strokes_ogs.tif
176
     1
290
     0
176
     1
 40
1.0
176
     1
 40
1.0
176
     1
1001
ACAD
1000
AcDbSavedByObjectVersion
1070
     0
  0
VISUALSTYLE
  5
9F
102
{ACAD_REACTORS
330
95
102
}
330
95
100
AcDbVisualStyle
  2
Realistic
 70
     8
177
     3
291
     0
 70
    58
 90
        2
176
     1
 90
        3
176
     1
 90
        0
176
     1
 90
        2
176
     1
 40
0.6
176
     1
 40
30.0
176
     1
 62
     7
420
 16777215
176
     1
 90
        0
176
     1
 90
        0
176
     1
 62
     7
176
     1
 62
   257
176
     1
 90
        1
176
     1
 90
        1
176
     1
 40
1.0
176
     1
 90
        8
176
     1
 62
   257
176
     1
 40
1.0
176
     1
 90
        1
176
     1
 90
        6
176
     1
 90
        2
176
     1
 62
     7
176
     1
 90
        3
176
     1
 90
        0
176
     1
 90
        0
176
     1
290
     0
176
     1
 90
       13
176
     1
 40
0.0
176
     1
 90
        0
176
     1
290
     0
176
     1
290
     1
176
     1
290
     1
176
     1
290
     0
176
     1
290
     0
176
     1
290
     0
176
     1
290
     0
176
     1
290
     0
176
     1
290
     0
176
     1
 90
       50
176
     1
 40
0.0
176
     1
 40
1.0
176
     1
 90
        0
176
     1
 62
    18
420
        0
176
     1
 90
       50
176
     1
 90
        3
176
     1
 62
     5
420
      255
176
     1
290
     0
176
     1
 90
       50
176
     1
 90
       50
176
     1
 90
       50
176
     1
290
     0
176
     1
 90
       50
176
     1
 62
   256
176
     0
 40
1.0
176
     0
 90
        2
176
     1
  1
strokes_ogs.tif
176
     1
290
     0
176
     1
 40
1.0
176
     1
 40
1.0
176
     1
1001
ACAD
1000
AcDbSavedByObjectVersion
1070
     0
  0
VISUALSTYLE
  5
17F
102
{ACAD_REACTORS
330
95
102
}
330
95
100
AcDbVisualStyle
  2
Shaded
 70
    27
177
     3
291
     0
 70
    58
 90
        2
176
     1
 90
        2
176
     1
 90
        1
176
     1
 90
        2
176
     1
 40
0.6
176
     1
 40
30.0
176
     1
 62
     7
420
 16777215
176
     1
 90
        0
176
     1
 90
        4
176
     1
 62
     7
176
     1
 62
   257
176
     1
 90
        1
176
     1
 90
        1
176
     1
 40
1.0
176
     1
 90
        8
176
     1
 62
   257
176
     1
 40
1.0
176
     1
 90
        1
176
     1
 90
        6
176
     1
 90
        2
176
     1
 62
     8
420
  7895160
176
     1
 90
        3
176
     1
 90
        0
176
     1
 90
        0
176
     1
290
     0
176
     1
 90
        5
176
     1
 40
0.0
176
     1
 90
        0
176
     1
290
     0
176
     1
290
     1
176
     1
290
     1
176
     1
290
     0
176
     1
290
     0
176
     1
290
     0
176
     1
290
     0
176
     1
290
     0
176
     1
290
     0
176
     1
 90
       50
176
     1
 40
0.0
176
     1
 40
1.0
176
     1
 90
        0
176
     1
 62
    18
420
        0
176
     1
 90
       50
176
     1
 90
        3
176
     1
 62
     5
420
      255
176
     1
290
     0
176
     1
 90
       50
176
     1
 90
       50
176
     1
 90
       50
176
     1
290
     0
176
     1
 90
       50
176
     1
 62
   256
176
     0
 40
1.0
176
     0
 90
        2
176
     1
  1
strokes_ogs.tif
176
     1
290
     0
176
     1
 40
1.0
176
     1
 40
1.0
176
     1
1001
ACAD
1000
AcDbSavedByObjectVersion
1070
     0
  0
VISUALSTYLE
  5
17E
102
{ACAD_REACTORS
330
95
102
}
330
95
100
AcDbVisualStyle
  2
Shaded with edges
 70
    26
177
     3
291
     0
 70
    58
 90
        2
176
     1
 90
        2
176
     1
 90
        1
176
     1
 90
        2
176
     1
 40
0.6
176
     1
 40
30.0
176
     1
 62
     7
420
 16777215
176
     1
 90
        1
176
     1
 90
        2
176
     1
 62
     7
176
     1
 62
   257
176
     1
 90
        2
176
     1
 90
        1
176
     1
 40
1.0
176
     1
 90
        8
176
     1
 62
   257
176
     1
 40
1.0
176
     1
 90
        1
176
     1
 90
        6
176
     1
 90
        2
176
     1
 62
     7
176
     1
 90
        3
176
     1
 90
        0
176
     1
 90
        0
176
     1
290
     0
176
     1
 90
        5
176
     1
 40
0.0
176
     1
 90
        0
176
     1
290
     0
176
     1
290
     1
176
     1
290
     1
176
     1
290
     0
176
     1
290
     0
176
     1
290
     0
176
     1
290
     0
176
     1
290
     0
176
     1
290
     0
176
     1
 90
       50
176
     1
 40
0.0
176
     1
 40
1.0
176
     1
 90
        0
176
     1
 62
    18
420
        0
176
     1
 90
       50
176
     1
 90
        3
176
     1
 62
     5
420
      255
176
     1
290
     0
176
     1
 90
       50
176
     1
 90
       50
176
     1
 90
       50
176
     1
290
     0
176
     1
 90
       50
176
     1
 62
   256
176
     0
 40
1.0
176
     0
 90
        2
176
     1
  1
strokes_ogs.tif
176
     1
290
     0
176
     1
 40
1.0
176
     1
 40
1.0
176
     1
1001
ACAD
1000
AcDbSavedByObjectVersion
1070
     0
  0
VISUALSTYLE
  5
17B
102
{ACAD_REACTORS
330
95
102
}
330
95
100
AcDbVisualStyle
  2
Shades of Gray
 70
    23
177
     3
291
     0
 70
    58
 90
        2
176
     1
 90
        2
176
     1
 90
        3
176
     1
 90
        0
176
     1
 40
0.6
176
     1
 40
30.0
176
     1
 62
     7
420
 16777215
176
     1
 90
        2
176
     1
 90
        2
176
     1
 62
     7
176
     1
 62
     7
176
     1
 90
        1
176
     1
 90
        1
176
     1
 40
40.0
176
     1
 90
        8
176
     1
 62
     7
176
     1
 40
1.0
176
     1
 90
        1
176
     1
 90
        6
176
     1
 90
        2
176
     1
 62
     7
176
     1
 90
        3
176
     1
 90
        0
176
     1
 90
        0
176
     1
290
     0
176
     1
 90
        1
176
     1
 40
0.0
176
     1
 90
        0
176
     1
290
     0
176
     1
290
     1
176
     1
290
     1
176
     1
290
     0
176
     1
290
     0
176
     1
290
     0
176
     1
290
     0
176
     1
290
     0
176
     1
290
     0
176
     1
 90
       50
176
     1
 40
0.0
176
     1
 40
1.0
176
     1
 90
        0
176
     1
 62
    18
420
        0
176
     1
 90
       50
176
     1
 90
        3
176
     1
 62
     5
420
      255
176
     1
290
     0
176
     1
 90
       50
176
     1
 90
       50
176
     1
 90
       50
176
     1
290
     0
176
     1
 90
       50
176
     1
 62
   256
176
     0
 40
1.0
176
     0
 90
        2
176
     1
  1
strokes_ogs.tif
176
     1
290
     0
176
     1
 40
1.0
176
     1
 40
1.0
176
     1
1001
ACAD
1000
AcDbSavedByObjectVersion
1070
     0
  0
VISUALSTYLE
  5
17C
102
{ACAD_REACTORS
330
95
102
}
330
95
100
AcDbVisualStyle
  2
Sketchy
 70
    24
177
     3
291
     0
 70
    58
 90
        1
176
     1
 90
        2
176
     1
 90
        2
176
     1
 90
        0
176
     1
 40
0.6
176
     1
 40
30.0
176
     1
 62
     7
420
 16777215
176
     1
 90
        2
176
     1
 90
        2
176
     1
 62
     7
176
     1
 62
     7
176
     1
 90
        1
176
     1
 90
        1
176
     1
 40
40.0
176
     1
 90
       11
176
     1
 62
     7
176
     1
 40
1.0
176
     1
 90
        1
176
     1
 90
        6
176
     1
 90
        2
176
     1
 62
     7
176
     1
 90
        6
176
     1
 90
        0
176
     1
 90
        0
176
     1
290
     0
176
     1
 90
        1
176
     1
 40
0.0
176
     1
 90
        0
176
     1
290
     0
176
     1
290
     1
176
     1
290
     1
176
     1
290
     0
176
     1
290
     0
176
     1
290
     0
176
     1
290
     0
176
     1
290
     0
176
     1
290
     0
176
     1
 90
       50
176
     1
 40
0.0
176
     1
 40
1.0
176
     1
 90
        0
176
     1
 62
    18
420
        0
176
     1
 90
       50
176
     1
 90
        3
176
     1
 62
     5
420
      255
176
     1
290
     0
176
     1
 90
       50
176
     1
 90
       50
176
     1
 90
       50
176
     1
290
     0
176
     1
 90
       50
176
     1
 62
   256
176
     0
 40
1.0
176
     0
 90
        2
176
     1
  1
strokes_ogs.tif
176
     1
290
     0
176
     1
 40
1.0
176
     1
 40
1.0
176
     1
1001
ACAD
1000
AcDbSavedByObjectVersion
1070
     0
  0
VISUALSTYLE
  5
A2
102
{ACAD_REACTORS
330
95
102
}
330
95
100
AcDbVisualStyle
  2
Thicken
 70
    13
177
     3
291
     1
 70
    58
 90
        2
176
     1
 90
        2
176
     1
 90
        1
176
     1
 90
        0
176
     1
 40
0.6
176
     1
 40
30.0
176
     1
 62
     7
420
 16777215
176
     1
 90
        1
176
     1
 90
        4
176
     1
 62
     7
176
     1
 62
   257
176
     1
 90
        1
176
     1
 90
        1
176
     1
 40
1.0
176
     1
 90
       12
176
     1
 62
     7
176
     1
 40
1.0
176
     1
 90
        1
176
     1
 90
        6
176
     1
 90
        2
176
     1
 62
     7
176
     1
 90
        5
176
     1
 90
        0
176
     1
 90
        0
176
     1
290
     0
176
     1
 90
        1
176
     1
 40
0.0
176
     1
 90
        0
176
     1
290
     0
176
     1
290
     1
176
     1
290
     1
176
     1
290
     0
176
     1
290
     0
176
     1
290
     0
176
     1
290
     0
176
     1
290
     0
176
     1
290
     0
176
     1
 90
       50
176
     1
 40
0.0
176
     1
 40
1.0
176
     1
 90
        0
176
     1
 62
    18
420
        0
176
     1
 90
       50
176
     1
 90
        3
176
     1
 62
     5
420
      255
176
     1
290
     0
176
     1
 90
       50
176
     1
 90
       50
176
     1
 90
       50
176
     1
290
     0
176
     1
 90
       50
176
     1
 62
   256
176
     0
 40
1.0
176
     0
 90
        2
176
     1
  1
strokes_ogs.tif
176
     1
290
     0
176
     1
 40
1.0
176
     1
 40
1.0
176
     1
1001
ACAD
1000
AcDbSavedByObjectVersion
1070
     0
  0
VISUALSTYLE
  5
9C
102
{ACAD_REACTORS
330
95
102
}
330
95
100
AcDbVisualStyle
  2
Wireframe
 70
     5
177
     3
291
     0
 70
    58
 90
        0
176
     1
 90
        2
176
     1
 90
        0
176
     1
 90
        0
176
     1
 40
0.6
176
     1
 40
30.0
176
     1
 62
     7
420
 16777215
176
     1
 90
        1
176
     1
 90
        4
176
     1
 62
     7
176
     1
 62
   257
176
     1
 90
        1
176
     1
 90
        1
176
     1
 40
1.0
176
     1
 90
        0
176
     1
 62
   257
176
     1
 40
1.0
176
     1
 90
        1
176
     1
 90
        6
176
     1
 90
        2
176
     1
 62
     7
176
     1
 90
        3
176
     1
 90
        0
176
     1
 90
        0
176
     1
290
     0
176
     1
 90
        1
176
     1
 40
0.0
176
     1
 90
        0
176
     1
290
     0
176
     1
290
     1
176
     1
290
     1
176
     1
290
     0
176
     1
290
     0
176
     1
290
     0
176
     1
290
     0
176
     1
290
     0
176
     1
290
     0
176
     1
 90
       50
176
     1
 40
0.0
176
     1
 40
1.0
176
     1
 90
        0
176
     1
 62
    18
420
        0
176
     1
 90
       50
176
     1
 90
        3
176
     1
 62
     5
420
      255
176
     1
290
     0
176
     1
 90
       50
176
     1
 90
       50
176
     1
 90
       50
176
     1
290
     0
176
     1
 90
       50
176
     1
 62
   256
176
     0
 40
1.0
176
     0
 90
        2
176
     1
  1
strokes_ogs.tif
176
     1
290
     0
176
     1
 40
1.0
176
     1
 40
1.0
176
     1
1001
ACAD
1000
AcDbSavedByObjectVersion
1070
     0
  0
VISUALSTYLE
  5
17D
102
{ACAD_REACTORS
330
95
102
}
330
95
100
AcDbVisualStyle
  2
X-Ray
 70
    25
177
     3
291
     0
 70
    58
 90
        2
176
     1
 90
        2
176
     1
 90
        1
176
     1
 90
        1
176
     1
 40
0.5
176
     1
 40
30.0
176
     1
 62
     7
420
 16777215
176
     1
 90
        1
176
     1
 90
        0
176
     1
 62
     7
176
     1
 62
   257
176
     1
 90
        1
176
     1
 90
        1
176
     1
 40
1.0
176
     1
 90
        8
176
     1
 62
     7
176
     1
 40
1.0
176
     1
 90
        1
176
     1
 90
        6
176
     1
 90
        2
176
     1
 62
     7
176
     1
 90
        3
176
     1
 90
        0
176
     1
 90
        0
176
     1
290
     0
176
     1
 90
       13
176
     1
 40
0.0
176
     1
 90
        0
176
     1
290
     0
176
     1
290
     1
176
     1
290
     1
176
     1
290
     0
176
     1
290
     0
176
     1
290
     0
176
     1
290
     0
176
     1
290
     0
176
     1
290
     0
176
     1
 90
       50
176
     1
 40
0.0
176
     1
 40
1.0
176
     1
 90
        0
176
     1
 62
    18
420
        0
176
     1
 90
       50
176
     1
 90
        3
176
     1
 62
     5
420
      255
176
     1
290
     0
176
     1
 90
       50
176
     1
 90
       50
176
     1
 90
       50
176
     1
290
     0
176
     1
 90
       50
176
     1
 62
   256
176
     0
 40
1.0
176
     0
 90
        2
176
     1
  1
strokes_ogs.tif
176
     1
290
     0
176
     1
 40
1.0
176
     1
 40
1.0
176
     1
1001
ACAD
1000
AcDbSavedByObjectVersion
1070
     0
  0
DICTIONARYVAR
  5
EB
102
{ACAD_REACTORS
330
59
102
}
330
59
100
DictionaryVariables
280
     0
  1
1:1
  0
DICTIONARYVAR
  5
EA
102
{ACAD_REACTORS
330
59
102
}
330
59
100
DictionaryVariables
280
     0
  1
STANDARD
  0
DICTIONARYVAR
  5
AB
102
{ACAD_REACTORS
330
59
102
}
330
59
100
DictionaryVariables
280
     0
  1
STANDARD
  0
DICTIONARYVAR
  5
1B4
102
{ACAD_REACTORS
330
59
102
}
330
59
100
DictionaryVariables
280
     0
  1
Imperial24
  0
DICTIONARYVAR
  5
1B5
102
{ACAD_REACTORS
330
59
102
}
330
59
100
DictionaryVariables
280
     0
  1
Imperial24
  0
DICTIONARYVAR
  5
5A
102
{ACAD_REACTORS
330
59
102
}
330
59
100
DictionaryVariables
280
     0
  1
2
  0
DICTIONARYVAR
  5
5E
102
{ACAD_REACTORS
330
59
102
}
330
59
100
DictionaryVariables
280
     0
  1
1
  0
DICTIONARYVAR
  5
14A
102
{ACAD_REACTORS
330
59
102
}
330
59
100
DictionaryVariables
280
     0
  1
0
  0
DICTIONARYVAR
  5
14B
102
{ACAD_REACTORS
330
59
102
}
330
59
100
DictionaryVariables
280
     0
  1
0
  0
DICTIONARY
  5
3EA
102
{ACAD_REACTORS
330
3E8
102
}
330
3E8
100
AcDbDictionary
281
     1
  0
DICTIONARY
  5
3E9
102
{ACAD_REACTORS
330
3E8
102
}
330
3E8
100
AcDbDictionary
281
     1
  3
2273636088496
350
3E3
  3
2273636088512
350
3E4
  3
2273636088528
350
3E5
  3
2273636088544
350
3E6
  3
2273636088560
350
3E7
  0
DICTIONARY
  5
3ED
330
1A9
100
AcDbDictionary
280
     1
281
     1
  3
ACAD_XREC_ROUNDTRIP
360
3EE
  0
DICTIONARY
  5
191
330
22
100
AcDbDictionary
280
     1
281
     1
  0
DICTIONARY
  5
185
330
93
100
AcDbDictionary
280
     1
281
     1
  3
FBXASSET
360
186
  0
DICTIONARY
  5
183
330
92
100
AcDbDictionary
280
     1
281
     1
  3
FBXASSET
360
184
  0
DICTIONARY
  5
10B
330
94
100
AcDbDictionary
280
     1
281
     1
  3
BUMPTILE
360
10D
  3
DIFFUSETILE
360
10C
  3
FBXASSET
360
187
  3
OPACITYTILE
360
10E
  3
REFLECTIONTILE
360
10F
  0
DICTIONARY
  5
3EB
330
1A7
100
AcDbDictionary
280
     1
281
     1
  3
ACAD_XREC_ROUNDTRIP
360
3EC
  0
DICTIONARY
  5
FF
330
A7
100
AcDbDictionary
280
     1
281
     1
  3
ACAD_ROUNDTRIP_2008_TABLESTYLE_CELLSTYLEMAP
360
3E1
  0
XRECORD
  5
3E3
102
{ACAD_REACTORS
330
3E9
102
}
330
3E9
100
AcDbXrecord
280
     1
  1
AcDb_Thumbnail_Schema
102
{ATTRRECORD
341
3E4
  2
AcDbDs::TreatedAsObjectData
280
     1
291
     1
102
ATTRRECORD}
102
{ATTRRECORD
341
3E5
  2
AcDbDs::Legacy
280
     1
291
     1
102
ATTRRECORD}
  2
AcDbDs::ID
280
    10
 91
        8
102
{ATTRRECORD
341
3E6
  2
AcDs:Indexable
280
     1
291
     1
102
ATTRRECORD}
102
{ATTRRECORD
341
3E7
  2
AcDbDs::HandleAttribute
280
     7
282
     1
102
ATTRRECORD}
  2
Thumbnail_Data
280
    15
 91
        0
  0
XRECORD
  5
3E4
102
{ACAD_REACTORS
330
3E9
102
}
330
3E9
100
AcDbXrecord
280
     1
  1
AcDbDs::TreatedAsObjectDataSchema
  2
AcDbDs::TreatedAsObjectData
280
     1
 91
        0
  0
XRECORD
  5
3E5
102
{ACAD_REACTORS
330
3E9
102
}
330
3E9
100
AcDbXrecord
280
     1
  1
AcDbDs::LegacySchema
  2
AcDbDs::Legacy
280
     1
 91
        0
  0
XRECORD
  5
3E6
102
{ACAD_REACTORS
330
3E9
102
}
330
3E9
100
AcDbXrecord
280
     1
  1
AcDbDs::IndexedPropertySchema
  2
AcDs:Indexable
280
     1
 91
        0
  0
XRECORD
  5
3E7
102
{ACAD_REACTORS
330
3E9
102
}
330
3E9
100
AcDbXrecord
280
     1
  1
AcDbDs::HandleAttributeSchema
  2
AcDbDs::HandleAttribute
280
     7
 91
        1
284
     1
  0
XRECORD
  5
3EE
102
{ACAD_REACTORS
330
3ED
102
}
330
3ED
100
AcDbXrecord
280
     1
102
DISPLAYNAME
  1
Imperial24
102
FLAGS
 90
        0
  0
XRECORD
  5
186
102
{ACAD_REACTORS
330
185
102
}
330
185
100
AcDbXrecord
280
     1
 70
     1
 90
429727718
  1
7581DE8E-A623-425F-9BF4-B3F4BE6C4F9A
310
504B03040A0000080000AC70623B3DEE336E79000000790000001B0000006175746F6465736B2D64657369676E2D7061636B6167652E786D6C3C3F786D6C2076657273696F6E3D22312E302220656E636F64696E673D227574662D3822203F3E3C666F726D6174733E3C666F726D61743E687474703A2F2F736368656D612E
310
6175746F6465736B2E636F6D2F64657369676E2D7061636B6167652F323030393C2F666F726D61743E3C2F666F726D6174733E504B0304140006080800AC70623BD486FD9CA0000000F4000000130000005B436F6E74656E745F54797065735D2E786D6C7D8EC10E82300C865F65E91D8A1E8C310C0EEA1BF002731658846E
310
D98AC1B77784ABF1D8FE5FBFBF75BBCE937A534CCEB38643598122B6FEE978D0B0485F9C41B54DDD7D022595594E1A469170414C76A4D9A4D207E29CF43ECE46F218070CC6BECC4078ACAA135ACF422C856C0E68EA1BF5669944DDD7BCDE7B1F8E415D77AECB980613C2E4AC91FC167A2B244592486606FC29C8FD7F045B9A
310
EF7053A7E60B504B0304140006080800AC70623B9A2F3B5FEC0000007C01000008000000636F72652E786D6C8D90416E83301045AF62CDB632D8040820E328B4E204BD80653BC44AB011B6AB1EBF262152BBEB6A467FFE9B197D76FA9EEFE84BAFDE38DB03CD08206DA553C64E3DC470C10DA01367AB73E1970D9015B3EE61
310
9381B3697571D925E96CD03624D53AA5775178AF0320794F4D0F5E5EF52C32114372F85BB608791393CEE8AB4B708C46A1E711A3D23E73317A055E0D4D53D6C71A9FC7A1C6657D18703354232ECFED4731B6B43CBED72CDF60CE82995FF7E5AA45D00A7841488B29C5A4F8A46547AAAEA8DE48D311C2F2CDFE078A8BFA2714
310
8D0D87627FF78979E0343DF21870966F59A4F2082AD52D37FE03504B0304140006080800AC70623B55019EA25F0000007C00000007000000636E782E786D6C4DCB3B0E80201045D1AD90E915ED2CF8AC45050C11660C8261F98AB1B07AC9C97D42D718D865D3E909258CFD00CCE24AC6E326A164D74DC0B4128928FF326038
310
472BA13128B1252AC747C6BAB984FC68F0B87FE8960A5C09FE86CFB69FBA01504B0304140006080800AC70623B6E137E0172010000D40300000C0000006662782F636F72652E786D6CC5535B6E833010BC8AE5DF0A6C0810121947A1554ED00B38E05014B091B1518EDFE511A5A9D22AFD2A1F60CDEC7A67C698ED2E6D8306
310
69FA5AAB0C073EC548AA4297B5AA32ECECC94B31DA7166B4B65FCA3052A295191E61CC5965B4EB16A8D0CA4A650155BA940B28FA5E5A8C8A061619EE8B0FD90A5F380B15FDD9EF44711695F4031F68A8E3ACB70604A079C8F8C6FC74BC3032E39C3957970B5B9730AD3ED5D2601EE7691A25EBC4DB1FF2C48B9255EEA5797C
310
F0A2FDE62D3C6C8268FD9A3032367366EBF6AAAE30525859621E52BAF182C0A3E17B106D69BC0DE3179A6E2965642CBF6B725DF96493AB955D858BDCB9ADC73C002113F1CD2D4464512F06D04338236388F09912BE0F1A028190AD3836571F67800659586D22604AED6ED4201A27612AF5E9F4A09F178CCC9D3075DA1C5C3F
310
9C113E3DE3F71DE1A885AAC084B0B03C3A3BEA64B38625B44E1A6FB017A4B46945F39C8D5F1CFE89BA897F28A9D08D36FFA5882C074496DF838CF7917F02504B0304140006080800AC70623BE001BAC07D0000009D0000000B0000006662782F636E782E786D6C4DCCD10AC2201886E15B91FFDCA6536B037548D87D8CE686
310
E4344CA3CB6F8B1D74F4C1C3C72B87CF1AD0DBE5974F51013D11402EDED3E4E3A2A096197780062D734AE5EF06288EAB53B03368B9E4549F074D6E1E6B289B061F1F07124689687987B9601C7373BD60C36E065B6A6DDF7341A93843A365F32B6DBB87F517504B0304140006080800AC70623B8E5068122901000012020000
310
310000006662782F30333130353234382D343533342D344143372D413346412D4531454539393435313135362F636F72652E786D6C8D515B6EC32010BC0AE22B55850D364E93081345557A825E801892A2C460F1A872FC2EB523B57FF961D1EECCECECAED8DFC71BFA36215AEF7ACC2A8A917183D7D65D7A9CD3996C30DA4B
310
11BC4F7F601839359A1E973496E2127C9E96D4E05D322E41D6796D96A48AD1248C861B7C7A1C872F33AA4AE5048878AD26355CD5C554AC8232E0A4882980013437292F96B465B46BF886F0AEE5841FDEDFC8A1FD3890233B1EB75BDE31D6AD453D13A5C8D9EA856E35D8B1676BC2B322852C45B2E3C3FE108C4A4663D950BA
310
258C11DA7C32BEA3DDAEE95EE96647A9A80BFC1F294FFA4952B62EB5CD6277A6452C99A8E78214DAE7D3ED61C6DC271F122AFD56D10C2F305545CB6A60FC1908E383E29A2F8A31F900EB5D5D4F8065DD2CBBE652D4E542107ECF07B15C53FE00504B0304140006080800AC70623B503B51794E010000330300003000000066
310
62782F30333130353234382D343533342D344143372D413346412D4531454539393435313135362F636E782E786D6CD593C16EC32010447F0571AD6CE3D489D20813A9877E410FBD62D82434182CC055F3F75D1292E692438FBD206B7698593D61BEFD1E2DF982108D773D6D6B460938E5B571FB9ECE6957AD29D90A1EBC4F
310
77364A9C1CA1A759A682EF839FA72269D8C9D92654AD71C72206887E0E0A22CAF926B15E498B01E0AA19451807D01A34B919F16B070157417138917400F2F6FA41FCF0092A45DEE414C19BDC21783E4BD39D891265658C3D8DEA00A3ACE59CBC8678ACB54CB26EEB6BD7839D7E9348BE70AD9C8321B9BCA7F9A4A26C542347
310
DEE050F09802D22BA6749A800A394DD62899107273365E3C82CFC6A55557BC06C10774B7ABE7AEC3B0F34CF06446280E154026D0542C187BA9DAB6628BF7B6DBB0E566B17C62EB0D63BCC976C107EF6DB9843110FC449477095CA2A2E54D1E3FC2577C449B80AC7D38FD01240228AD173AB78CFFCCA739BF6FC415F02F103F
310
504B0304140006080800AC70623B38FA165F680500003C100000340000006662782F30333130353234382D343533342D344143372D413346412D4531454539393435313135362F6F626A656374732E786D6CAD575D6FA33814FD2B887D0E8424EDB42BCAA8499A2A1A756634D18CF6A15264C0A16CC146B6E9A4FBEBF7180C
310
019276B21F7908D8D8F7F3DCE36BFFE33ECFAC172A64CAD98DED3963DBA22CE271CA921BBB54BBD1956D7D0C7CC1B9EA2CB32D46727A63EB693BF013C1CBC24CC57447CA4C0D6657F33F2C1951466D2BCA889437B68C9E684E1C522A1E53F9ECC4441127D9ED1DCFA917F6C52682144F03A105119429588A790629566D94D7
310
1F8E6D37F05DFD3DF0F5BF59357D7B955BF9D3D79F32A9088B8E940DC44CBDD9F26E72713DBA98CDA6A3D9E5C41BCD57F3E5C8FB301D2F2E178BEBDBBB6B28964A4092B144D09D1DDC2336228D7CB7FED45A6C0C3F6552C419A351E53F3CAC6C3612635A5016238F2995D0D6F17ADC1F7A3A369DCF533D362ABBD3E779D5DD
310
D111D4D8DE3CBB96F2F04FB820CF41859054A3AA8E8F71B4C6DFF810B590F3CC7C4BA5951345454A322B4B4341C4AB1D60A95E12F83D311A9D42235C7B6007DE415ED75694C6AFB17BCACA5D99651A9A7650217B0BFC53252BCBD2BFA838AD0D36215765CAD4957148BD16D40EAE7DB79A0C7CFD984ECCC73A90D62E230952
310
0E37EBAF034717BAF6D64B3BF8B40AF71B5D8FA79517821754280D1F40AB495CF3D451326ABDB332A737C0995ECC0F41F986C87F46F91E4C41DE44BA9FED67468B1284C91D173972E38CAB9F356E5E46EDDBF10BF86CB0FA784D3BF3AF16FB6E6B6C9F30DECA1FC0A55373F5DFF3D78F5917A99DF405FE0B0A8C8BA909E526
310
2219A8E72165488806A595714C81CB77E1DE0ED6604A303B76912C680372F4E2BB2FF88EFF5A36D8AA52DF79322474C0B767303F625995056C7B032C473C592936CEBD15F38BFFA5666E979B4F9B52EC48441F0CB12CE92E65A9C2D979006FD7A05E227A1E3DD3D79F5CC470F438099B6E1272A34A22DA3AE63AF0497358E8
310
C141734F41847D09D79CE7FF42C3432A239A6584515E365ADA634863B52519D327A00AEB804E2703140BFA92EA4EA2B7A26716CEFA48A4850E597BE8B53CEDBCE1CBF7F56780D20EE6AF73A0F5F9B02A3CD07DC4332EB6E1EBB666421BE0C39E3EBA7FF4E16D22EA6A29407C85E586724C88B771BADB9512BC7B228A3FD68B
310
6EA65A22397E690AA8D158D7E40CEC8CDA23C2C0B7D1898640101CEC9C6D531CE328CB93CABBBA870A6425F70DF96199175B92F392A973C2346EFC69AC6F8577BB18F993A8E8C90E36D573340765C7343EA4AA87027D049DF0A9979E0F1757DEF2EEEA6E747B39412B35B9588DAEE7ABD9683E5DCDE677978BD9EAFAB6B5A8
310
B224F09B13AA5B8388264E44BF14A909F3F7F5A16CEDE08128E9DED705E526F5F3FBDA415BECBBD80380B71BD77991D19C3245347C1FF44BF68DA0ABE8C9A8E7D73949E81952BEDC6F063660E68C7D5F75A9D19F83BD6676A16BE1A410F554E621236936D8681C770A9618B79B50B6CF9AD19BA11E9978A20F953C4B63104E
310
6C2594E7548176CE607B915309C474BBF2D8DC1ECED8FD52F7838A84196D2C79226889330954036E65A4FAF3D66F68E174177563E3B0739EF1670AD1B690EA1B1BFCA6D2884A27C4F1A81B9F4A3820802EAC2541408DB02443675D6F6AC7ED2E1D1BD00F4E40A3BF5D724EB764FCEA116F4E8A02A7768F562BDB8C82E81F39
310
DE98631185D7B054AD2F8789D6994A0D2AAB76CADC0DD0423C1BD57BD4D7FB6E794EB5A61791B3EE49EF82A0963A524424D5BD40DB674CBA5D7E75D10A58EB2F569195097279BEA491A00073A90B1C28022A8CCC82284075F1FBE357C17117CDAD550A083C2E789E736606B7E62E6B6D9E70338D1F410B545F3FE464EC798F
310
55D76F2E22DB9048EA90583E63A22938EDC1006B00E4D1716A52E0EA1C0C96AF9796393066105A81F6A829ADAFE1168A47DF1C75A974C9B278B7F177ABA5008340CB1EFC0D504B0304140006080000AC70623B000000000000000000000000350000006662782F30333130353234382D343533342D344143372D413346412D
310
4531454539393435313135362F76657274696365732E62696E504B0304140006080800AC70623BF270F1330600000004000000360000006662782F30333130353234382D343533342D344143372D413346412D4531454539393435313135362F747269616E676C65732E62696E636660600000504B0304140006080000AC70
310
623B000000000000000000000000370000006662782F30333130353234382D343533342D344143372D413346412D4531454539393435313135362F617474726962757465732E62696E504B0304140006080800AC70623B08DA0BD19000000041010000360000006662782F30333130353234382D343533342D344143372D41
310
3346412D4531454539393435313135362F6469726563746F72792E786D6C858F410AC3201045AF22B36F53E9A60B35CBEEBAE80D244E44489C6234F4F835464A48035D0DF398FF9F8AF63D0E6CC63039F212F8F9020C7D47C6792B21C5FE7403D62A1188E2E60C98D7234A5830286103A55745067B9D86B8A3CF9C7F90C11D
310
E607FB144396D7B6A82D282E9A152AD114D5EF2CB866EEE831B8EEA07A7BB5A8D7D61A2BAAEB7FD5F70921FF497D00504B0304140006080800AC70623BF2C5666EFF000000A00100003B0000006662782F30333130353234382D343533342D344143372D413346412D4531454539393435313135362F7265736F7572636573
310
2F636F72652E786D6C8D504B6E833010BD0A9A6D65B00910888CA3D02A27E8052C33A156821DF953F5F8B5132AB5BB6E6646EFA3797AFCF8B5DE8A4F745E5B33022B291468949DB5594688E1427A288E823B6BC32F191446AE38428641F0C5D978DF20654D4013126AEC8C1B28BDC70085BAA56304AF3E7095A58C2129FCB5
310
BC4B75950B96AC4C74D209EE834B018AE7933C4138F4363A859E574F56F018F5BC69F49C7EEA8B4607A29DFABEE9F62D399DA78E34DD6E22FDD49E49731ADEEAF3C09AFD6BC7AB6C163CE8F527A3722803CE206A4A07C218A1F53B6B0EB43DD4ED0BED0F94F22ACBFF98E27DFEA7296A1376F516F769F320580AF22004AF72
310
5F693DCA4C3B772BBE01504B010214000A0000080000AC70623B3DEE336E79000000790000001B00000000000000000000000000000000006175746F6465736B2D64657369676E2D7061636B6167652E786D6C504B01021400140006080800AC70623BD486FD9CA0000000F40000001300000000000000000000000000B200
310
00005B436F6E74656E745F54797065735D2E786D6C504B01021400140006080800AC70623B9A2F3B5FEC0000007C010000080000000000000000000000000083010000636F72652E786D6C504B01021400140006080800AC70623B55019EA25F0000007C000000070000000000000000000000000095020000636E782E786D
310
6C504B01021400140006080800AC70623B6E137E0172010000D40300000C00000000000000000000000000190300006662782F636F72652E786D6C504B01021400140006080800AC70623BE001BAC07D0000009D0000000B00000000000000000000000000B50400006662782F636E782E786D6C504B010214001400060808
310
00AC70623B8E506812290100001202000031000000000000000000000000005B0500006662782F30333130353234382D343533342D344143372D413346412D4531454539393435313135362F636F72652E786D6C504B01021400140006080800AC70623B503B51794E010000330300003000000000000000000000000000D3
310
0600006662782F30333130353234382D343533342D344143372D413346412D4531454539393435313135362F636E782E786D6C504B01021400140006080800AC70623B38FA165F680500003C10000034000000000000000000000000006F0800006662782F30333130353234382D343533342D344143372D413346412D4531
310
454539393435313135362F6F626A656374732E786D6C504B01021400140006080000AC70623B0000000000000000000000003500000000000000000000000000290E00006662782F30333130353234382D343533342D344143372D413346412D4531454539393435313135362F76657274696365732E62696E504B01021400
310
140006080800AC70623BF270F133060000000400000036000000000000000000000000007C0E00006662782F30333130353234382D343533342D344143372D413346412D4531454539393435313135362F747269616E676C65732E62696E504B01021400140006080000AC70623B0000000000000000000000003700000000
310
000000000000000000D60E00006662782F30333130353234382D343533342D344143372D413346412D4531454539393435313135362F617474726962757465732E62696E504B01021400140006080800AC70623B08DA0BD1900000004101000036000000000000000000000000002B0F00006662782F30333130353234382D
310
343533342D344143372D413346412D4531454539393435313135362F6469726563746F72792E786D6C504B01021400140006080800AC70623BF2C5666EFF000000A00100003B000000000000000000000000000F1000006662782F30333130353234382D343533342D344143372D413346412D453145453939343531313536
310
2F7265736F75726365732F636F72652E786D6C504B0506000000000E000E0080040000671100000000
  0
XRECORD
  5
184
102
{ACAD_REACTORS
330
183
102
}
330
183
100
AcDbXrecord
280
     1
 70
     1
 90
429727718
  1
778E3A9F-1AF3-452F-85C1-1BC15BD3F630
310
504B03040A0000080000AC70623B3DEE336E79000000790000001B0000006175746F6465736B2D64657369676E2D7061636B6167652E786D6C3C3F786D6C2076657273696F6E3D22312E302220656E636F64696E673D227574662D3822203F3E3C666F726D6174733E3C666F726D61743E687474703A2F2F736368656D612E
310
6175746F6465736B2E636F6D2F64657369676E2D7061636B6167652F323030393C2F666F726D61743E3C2F666F726D6174733E504B0304140006080800AC70623BD486FD9CA0000000F4000000130000005B436F6E74656E745F54797065735D2E786D6C7D8EC10E82300C865F65E91D8A1E8C310C0EEA1BF002731658846E
310
D98AC1B77784ABF1D8FE5FBFBF75BBCE937A534CCEB38643598122B6FEE978D0B0485F9C41B54DDD7D022595594E1A469170414C76A4D9A4D207E29CF43ECE46F218070CC6BECC4078ACAA135ACF422C856C0E68EA1BF5669944DDD7BCDE7B1F8E415D77AECB980613C2E4AC91FC167A2B244592486606FC29C8FD7F045B9A
310
EF7053A7E60B504B0304140006080800AC70623BFD5588D4EC0000007C01000008000000636F72652E786D6C8D90416EC3201045AF82665B6103891DC7C24471939CA01740405C94182C03558F5F9C3852BBEB6A467FFE9B197D7EF81EEFE8CBCCC17AD7012D0820E394D7D60D1DA478C50DA083E0B3F7F1970D9093A3E960
310
9141F061F6695A25E55D342E66D5796D56518660222075CF4D07417D9A511632C5EC08B76292EA260753D05797E194AC46CF2356E77DF66ACD0C62C768BD63971E5727D2E06DDF9C71BF7B3FE10BABF79BFA488FE4DCF07281058F767CDD57B391D168108C903DA61413F641B72DA95A56BD91A62584978BFD0F9426FD4F28
310
5917376C7DF7890510343FF218085E2E59E4F2082AD72537F103504B0304140006080800AC70623B55019EA25F0000007C00000007000000636E782E786D6C4DCB3B0E80201045D1AD90E915ED2CF8AC45050C11660C8261F98AB1B07AC9C97D42D718D865D3E909258CFD00CCE24AC6E326A164D74DC0B4128928FF326038
310
472BA13128B1252AC747C6BAB984FC68F0B87FE8960A5C09FE86CFB69FBA01504B0304140006080800AC70623BB5D38BAD72010000D40300000C0000006662782F636F72652E786D6CC553DB8E823014FC95A6AF1B68C11B9A52A3AB7EC1FE4085CA36424B4A4BFCFC3D5C8CEBC635EED3F200CDCC393D3353CAD697AA44AD
310
B48D323AC5514831923A33B9D2458ABD3B0509466BCEAC31EE5B19465A5432C51D8C392BACF1F50865463BA91DA0DAE4720445D348875156C222C54DF6292B110AEFA0A23987B5C8CEA2906114020D759C35CE8200340CE9DE989F8E1746069C33EF553EB22A8769EAA4A4C57C1147F3457CD806B31D4D82E936D907DBC5FB
310
2E38C4F3E564BE8936749F30D23573E65475559759299CCC318F295D065114D0F8239AAEE86C15CFDE68B2A29491AEFCAEC9D7F98B4D5E69378947B9435B837904427AE2875B88C8A146B4A0877046BA10E1D3277C1F340402213B712CAF3ECE00B53273C64E81C98DBF51AD28BD84A934A4FD837E5F303274C2D47E7370FD
310
7046FCF28CE73BC2510B5D8009E16079F4AED3C9060D6368B5B441EB2E481B5B89F2351B4F1CFE89BA897F282933A5B1FFA5888C0744C6DF8374F7917F01504B0304140006080800AC70623B09885E1C7E0000009D0000000B0000006662782F636E782E786D6C4DCCDF0A83201C86E15B91DFB9CBA6FD11D41063F711CB42
310
663A9C8E5DFE6A74B0A30F1E3E5E317C368FDE36BD5C0C12EA0B0164C33DCE2EAC124A5E700F685022C598FF6E80C2B459090783126B8AE579D26C97A9F8BCAB77E17122E586D5843498B3EE8699D114F39E5E713D76EDA84DCBB569A052A2FA95F63DC2EA0B504B0304140006080800AC70623B961D28872A010000120200
310
00310000006662782F33394334313030352D393437462D344341332D393833322D3144373644414336394143352F636F72652E786D6C8D515B6EC32010BC8AC557AA0A1BFC4A1C61A2C8514FD00B10435294182C1E558EDFA576A4F62F3F80666766875D76784CF7EC5B39AFADE911CD09CA9419ADD4E6DAA3182E7887B203
310
67CEDAF08786322326D5A30423CEAECEC67985466B8232015063A55A41E1BD0A281BEFF0E8911FBFD42472110330FC2D9FC578135795D31CCAC0E3CC070701B2A5493A11AFBAA1A68434B8ABB71FB81E8E15EE765589E969DB9E8E43DB1D8786158B90B318B55CE55A421C7DD1CABD6A92C49C053D3DE38F4E89A024E22521
310
1DA61493F293D67BD2ECCBE69DECF684B022D1FF89E22C5F14456D4255AE711799479CB2622970266D3CDF9F61D463B62E64A9DFC6ABF10D7192C35CCA0A040B11BE0F8E6DBD3AFA601D8C77733B0397C290926D5B7356A40DC1F5BB3EB8D336F90F504B0304140006080800AC70623B503B51794E01000033030000300000
310
006662782F33394334313030352D393437462D344341332D393833322D3144373644414336394143352F636E782E786D6CD593C16EC32010447F0571AD6CE3D489D20813A9877E410FBD62D82434182CC055F3F75D1292E692438FBD206B7698593D61BEFD1E2DF982108D773D6D6B460938E5B571FB9ECE6957AD29D90A1E
310
BC4F77364A9C1CA1A759A682EF839FA72269D8C9D92654AD71C72206887E0E0A22CAF926B15E498B01E0AA19451807D01A34B919F16B070157417138917400F2F6FA41FCF0092A45DEE414C19BDC21783E4BD39D891265658C3D8DEA00A3ACE59CBC8678ACB54CB26EEB6BD7839D7E9348BE70AD9C8321B9BCA7F9A4A26C54
310
2347DEE050F09802D22BA6749A800A394DD62899107273365E3C82CFC6A55557BC06C10774B7ABE7AEC3B0F34CF06446280E154026D0542C187BA9DAB6628BF7B6DBB0E566B17C62EB0D63BCC976C107EF6DB9843110FC449477095CA2A2E54D1E3FC2577C449B80AC7D38FD01240228AD173AB78CFFCCA739BF6FC415F02F
310
103F504B0304140006080800AC70623B2EA4D28F640500003C100000340000006662782F33394334313030352D393437462D344341332D393833322D3144373644414336394143352F6F626A656374732E786D6CAD575D739B3814FD2B0CFB6C30B1D3263B844E6CC71D4F376DA79E76F621331E01326103122389C4E9AFDF
310
231018B09D7A3FFC609090EEE7B94757FE875D9E59CF54C894B31BDB73C6B64559C4E394253776A9B6A32BDBFA10F88273D559665B8CE4F4C6D6D376E027829785998AE99694991ACC2E677F5A32A28CDA569411296F6C193DD29C38A4543CA6F2C98989224EB2DD399E532FEC8B4D04291E07420B222853B014F30C52ACDA
310
28AF3F1CDB6EE0BBFA7BE0EB7FB36A727A955BF9D3D79F32A9088B0E940DC44CBCE9E2EEE2F27A74399D4E46D37717DE68B69C2D46DEFBC978FE6E3EBFBEBDBB8662A90424194B04DDDAC147C446A491EFD69F5A8B8DE1C74C8A386334AAFC878795CD46624C0BCA62E431A512DA3A5E8FFB434FC7A6F379A2C7466577FA3C
310
AFBA3B3A821ADB9B67D7521EFE0517E439A810926A54D5F1318ED6F81BEFA316729E996FA9B472A2A84849666569288878B5032CD54B02BF2746A35368846B0FECC0DBCBEBDA8AD2F835768F59B92DB34C43D30E2A646F807FAA646559FA938AE3DA60137255A64C5D1987D46B41EDE0DA77ABC9C0D78FC985F95807D2DA66
310
2441CAE166FD75E0E85CD7DE6A61079F96E16EADEBF1B8F242F0820AA5E1036835896B9E3A4A46AD7756E6F40638D38BF93E28DF10F9CF28DFBD29C89B4877D3DDD468518230B9E522476E9C71F5B3C6CDCBA87D3B7C019F0D561FAE6967FED562DF6D8DED13C6A9FC015C3A3557FF3D7FFD987591DA495FE03FA3C0B89898
310
50AE2392817AEE53868468505A19C714B87C1BEEEC6005A604B36317C9823620072FBEFB8CEFF8AF6583AD2AF59D274342077C7B06F323965559C0B6136039E0C94AB171EE54CC2FFF979AB95DAC3FAD4BB12511BD37C4B2A0DB94A50A67E71EBC5D837A89E879F4445F5FB888E1E86112D6DD24E4469544B475CC75E093E6
310
B0D083BDE69E8208FB12AE39CFFF8586FB544634CB08A3BC6CB4B4C790C66A4B32A64F4015D6019D5C0C502CE873AA3B89DE8A9E5938EB2391163A64EDA1D7F2B473C297EFABCF00A51DCC5EFF20AF5DC20CF7741FF18C8B4DF8BAA999D006F8B0A78FEE1F7D789B88BA5A0A105F61B9A11C13E24D9C6EB7A504EF1E89E28F
310
D5BC9BA996480E5F9A026A34D63539053BA3F68830F06D74A2211004073B679B14C738CAF2A8F2AEEEA10259C93D213F2CF36243725E32754E98C68D3F8DF5ADF06E17235F888A1EED605D3D473350764CE31309D547D0119F7AE979FFFEEA6E727BBD1C79B74BB4529717CBD1D5E5DC1B79B3B977395B4C96EF2638E6FA15
310
D09C50DD1A44347122FAA5484D98BFAFF6656B07F74449F7635D506E523FBFAF1CB4C5BE8B3D0078BB71951719CD295344C3F75EBF64DF08BA8A9E8C7A7E9593849E21E5CBC7F5C006CC9CB1EFAB2E35FA32D86B66E7BA168E0A518F651E329266838DC671A7608971BB0965FBAC19BD19EA918927FA50C9B33406E1C45642
310
794E1568E70CB6173995404CB72B8FCDEDE18CDDCF753FA84898D1C6924782963893403548A78C547FDEFA0D2D9CEEA26E6C1C76CE13FE4C21DA16527D6383DF541A51E984381E75E353090704D085B52408D0139664E8ACEB4DEDB8DDA56303FAC10968F4B74BCEE9968C5F3DE2CD4951E0D4EED16A659B5110FD23C71B73
310
2CA2F01A96AAF5653FD13A53A909C03570A77DA0857832AA77A8AFB7DDF29C6A4D2F2267DD93DE04412D75A48848AA7B810EBA31E976F1D5452B60ADBE58455626C8E5F992468202CCA52E70A008A830320BA200D5F9EF0F5F05C75D34B7962920F030E779CE9919DC9ABBACB57EC4CD347E002D507DFD901763CF7BA8BA7E
310
7311D984445287C4F209134DC1690F065803200F8E53733D73750E06CB570BCB1C185308AD407BD094D6D7700BC5A36F8EBA54BA6459BCD9F8BBD552A040A0650FFE06504B0304140006080000AC70623B000000000000000000000000350000006662782F33394334313030352D393437462D344341332D393833322D3144
310
373644414336394143352F76657274696365732E62696E504B0304140006080800AC70623BF270F1330600000004000000360000006662782F33394334313030352D393437462D344341332D393833322D3144373644414336394143352F747269616E676C65732E62696E636660600000504B0304140006080000AC70623B
310
000000000000000000000000370000006662782F33394334313030352D393437462D344341332D393833322D3144373644414336394143352F617474726962757465732E62696E504B0304140006080800AC70623B08DA0BD19000000041010000360000006662782F33394334313030352D393437462D344341332D393833
310
322D3144373644414336394143352F6469726563746F72792E786D6C858F410AC3201045AF22B36F53E9A60B35CBEEBAE80D244E44489C6234F4F835464A48035D0DF398FF9F8AF63D0E6CC63039F212F8F9020C7D47C6792B21C5FE7403D62A1188E2E60C98D7234A5830286103A55745067B9D86B8A3CF9C7F90C11DE607
310
FB144396D7B6A82D282E9A152AD114D5EF2CB866EEE831B8EEA07A7BB5A8D7D61A2BAAEB7FD5F70921FF497D00504B0304140006080800AC70623B95BFD5E5FE000000A00100003B0000006662782F33394334313030352D393437462D344341332D393833322D3144373644414336394143352F7265736F75726365732F63
310
6F72652E786D6C8D50596E833010BD0A9ADFCA603B1B41C611699213F40296992456828DBC543D7E4DA052FBD79F99D15B344F4F1CBE8667F1893E18675B60258502AD76BDB1B71652BC921A8A8314DEB9F84B06855503B630C120C5CDBB342E907636A28D19B5AEC70554216084423FF3D142D0771C54A952CC8AF02847A5
310
1FEA86252B339D755284E87380627E324D901E834B5E6310D5CC4A9192E9178DE9F34F7335E841EE38DBEEF8A5239B13ADC9FA589FC971F77E2217BEDDAFB61DEBE8B916D56496229AE127A3F6A822F62039A57BC218A1FC83AD1BBA69F8E68DD60DA5A29AE47F4C69ECFF694AC6C6155FE2CEB60092E5202F428A6AEA2BAF
310
5799794FDDCA6F504B010214000A0000080000AC70623B3DEE336E79000000790000001B00000000000000000000000000000000006175746F6465736B2D64657369676E2D7061636B6167652E786D6C504B01021400140006080800AC70623BD486FD9CA0000000F40000001300000000000000000000000000B20000005B
310
436F6E74656E745F54797065735D2E786D6C504B01021400140006080800AC70623BFD5588D4EC0000007C010000080000000000000000000000000083010000636F72652E786D6C504B01021400140006080800AC70623B55019EA25F0000007C000000070000000000000000000000000095020000636E782E786D6C504B
310
01021400140006080800AC70623BB5D38BAD72010000D40300000C00000000000000000000000000190300006662782F636F72652E786D6C504B01021400140006080800AC70623B09885E1C7E0000009D0000000B00000000000000000000000000B50400006662782F636E782E786D6C504B01021400140006080800AC70
310
623B961D28872A0100001202000031000000000000000000000000005C0500006662782F33394334313030352D393437462D344341332D393833322D3144373644414336394143352F636F72652E786D6C504B01021400140006080800AC70623B503B51794E010000330300003000000000000000000000000000D5060000
310
6662782F33394334313030352D393437462D344341332D393833322D3144373644414336394143352F636E782E786D6C504B01021400140006080800AC70623B2EA4D28F640500003C1000003400000000000000000000000000710800006662782F33394334313030352D393437462D344341332D393833322D3144373644
310
414336394143352F6F626A656374732E786D6C504B01021400140006080000AC70623B0000000000000000000000003500000000000000000000000000270E00006662782F33394334313030352D393437462D344341332D393833322D3144373644414336394143352F76657274696365732E62696E504B01021400140006
310
080800AC70623BF270F133060000000400000036000000000000000000000000007A0E00006662782F33394334313030352D393437462D344341332D393833322D3144373644414336394143352F747269616E676C65732E62696E504B01021400140006080000AC70623B0000000000000000000000003700000000000000
310
000000000000D40E00006662782F33394334313030352D393437462D344341332D393833322D3144373644414336394143352F617474726962757465732E62696E504B01021400140006080800AC70623B08DA0BD190000000410100003600000000000000000000000000290F00006662782F33394334313030352D393437
310
462D344341332D393833322D3144373644414336394143352F6469726563746F72792E786D6C504B01021400140006080800AC70623B95BFD5E5FE000000A00100003B000000000000000000000000000D1000006662782F33394334313030352D393437462D344341332D393833322D3144373644414336394143352F7265
310
736F75726365732F636F72652E786D6C504B0506000000000E000E0080040000641100000000
  0
XRECORD
  5
10D
102
{ACAD_REACTORS
330
10B
102
}
330
10B
100
AcDbXrecord
280
     1
270
     1
271
     1
  0
XRECORD
  5
10C
102
{ACAD_REACTORS
330
10B
102
}
330
10B
100
AcDbXrecord
280
     1
270
     1
271
     1
  0
XRECORD
  5
187
102
{ACAD_REACTORS
330
10B
102
}
330
10B
100
AcDbXrecord
280
     1
 70
     0
 90
1778669749
  1
7E355024-1ABF-47F9-966E-F2159FBE82AB
310
504B03040A0000080000AC70623B3DEE336E79000000790000001B0000006175746F6465736B2D64657369676E2D7061636B6167652E786D6C3C3F786D6C2076657273696F6E3D22312E302220656E636F64696E673D227574662D3822203F3E3C666F726D6174733E3C666F726D61743E687474703A2F2F736368656D612E
310
6175746F6465736B2E636F6D2F64657369676E2D7061636B6167652F323030393C2F666F726D61743E3C2F666F726D6174733E504B0304140006080800AC70623BD486FD9CA0000000F4000000130000005B436F6E74656E745F54797065735D2E786D6C7D8EC10E82300C865F65E91D8A1E8C310C0EEA1BF002731658846E
310
D98AC1B77784ABF1D8FE5FBFBF75BBCE937A534CCEB38643598122B6FEE978D0B0485F9C41B54DDD7D022595594E1A469170414C76A4D9A4D207E29CF43ECE46F218070CC6BECC4078ACAA135ACF422C856C0E68EA1BF5669944DDD7BCDE7B1F8E415D77AECB980613C2E4AC91FC167A2B244592486606FC29C8FD7F045B9A
310
EF7053A7E60B504B0304140006080800AC70623BDCE527C8EB0000007C01000008000000636F72652E786D6C8D90416EC3201045AF82665B6103B15DC7C24471249FA01740405C94182C03558F5F9C3852BBEB6A467FFE9B197D7EFA9EEFE8CBACC17AD7032D0820E394D7D64D3DA478C52DA093E0ABF7F1970D9093B3E961
310
9341F069F569D925E55D342E66D5796D76518660222075CF4D0F417D9A591632C5EC08B76291EA262753D05797E194AC46CF2356E77DF66ACD0A621C9B73335C463C5E0E1457EC9DE2A1612D3E9233A92BD2D66333F07283058F767EDD57AB91D168108C9023A61413F641AB8ED41DABDF48DB11C2CBCDFE074A8BFE2794AC
310
8B07B6BFFBC402089A1F790C042FB72C72790495EB969BF801504B0304140006080800AC70623B55019EA25F0000007C00000007000000636E782E786D6C4DCB3B0E80201045D1AD90E915ED2CF8AC45050C11660C8261F98AB1B07AC9C97D42D718D865D3E909258CFD00CCE24AC6E326A164D74DC0B4128928FF32603847
310
2BA13128B1252AC747C6BAB984FC68F0B87FE8960A5C09FE86CFB69FBA01504B0304140006080800AC70623BB24894EB71010000D40300000C0000006662782F636F72652E786D6CC5535B6E833010BC8AE5DF0A6C085012194749244ED00B38E05014B091B1518EDFE511A5A9D228FD2A1F60CDEC7A67C6986D2F6D830669
310
FA5AAB0C073EC548AA4297B5AA32ECECC94B31DA7266B4B6DFCA3052A295191E61CC5965B4EB16A8D0CA4A650155BA940B28FA5E5A8C8A061619EE8B4FD90A5F380B15FDD9EF44711695F4031F68A8E3ACB70604A079C8F8C6FC74BC3032E39C3957970B5B9730AD3ED5D2609EE7C92ED91F722F3FAC022F0ADF036F9F84A9
310
B7A63B1A47348DF364CFC8D8CC99ADDBABBAC2486165897948E9DA0B028F861F41B4A1F1268CDF68BAA19491B1FCAEC975E58B4DAE5676152E72E7B61EF300844CC40FB7109145BD18400FE18C8C21C2674AF83E68080442B6E2D85C7D9C011A6461B5898029B5BB5183689C84A9D4A7D3837E5F303277C2D4697370FD7046
310
F8F28CE73BC2510B5581096161797476D4C9660D4B689D34DE602F4869D38AE6351B4F1CFE89BA897F28A9D08D36FFA5882C074496DF838CF7917F01504B0304140006080800AC70623B3A54DFB77D0000009D0000000B0000006662782F636E782E786D6C4DCCD10A83201805E05791FFDEA5EBA76DA046A37C8F581632D3
310
613AF6F8B3D1C52E0E073E0E47B49FD591B7899B0D5E023F3120C63FC264FD2221A7995E81B44AC410D2DF0C881F5723616750628921BF0E9ACC3C66978A3AEB9F07B2A6D77AB87514F95953EC39D20EEF9C6AD60C88BC2EB940A544F57B2ABD1FAB2F504B0304140006080800AC70623B4A17098729010000120200003100
310
00006662782F30364446464539412D343132462D344431342D413442312D4630364534343133343431372F636F72652E786D6C8D515B6EC32010BC0AE22B55850D0E76930813A54A7C825E80DA244589C1E251E5F85D6A476AFFF2018B7667666759B1BF8F37F4AD7D30CEB6981514236D7B37187B69718A67B2C1682F8577
310
2EFE816164D5A85B9CD3588A8B77695A52BDB351DB0859EB06BD2455083A62D4DFE0D1E2D07FE951152A4540846B31A9FEAA2EBA600594012745881E0CA0B949BEB1A4CDB1EB4EDB03E1ACEA083F324E0EFC9D918E3627CED91ACE9B2867A214299961A19B01EC98B3D1FE59914C96229AF161BFF75A453D605951BA258C11
310
5A7D30BEA3F5AEAA5FE96647A92833FC1F294DC393A4646C5C578BDD9916B064A29C0B520C2E7DDE1E66F47D723EA2DC6F1574FF02531594D6AC69443903617C506CF8A218A2F3F0BDABEB2760593DCB365C8A326F08C2EFFA20E66DCA1F504B0304140006080800AC70623B503B51794E0100003303000030000000666278
310
2F30364446464539412D343132462D344431342D413442312D4630364534343133343431372F636E782E786D6CD593C16EC32010447F0571AD6CE3D489D20813A9877E410FBD62D82434182CC055F3F75D1292E692438FBD206B7698593D61BEFD1E2DF982108D773D6D6B460938E5B571FB9ECE6957AD29D90A1EBC4F7736
310
4A9C1CA1A759A682EF839FA72269D8C9D92654AD71C72206887E0E0A22CAF926B15E498B01E0AA19451807D01A34B919F16B070157417138917400F2F6FA41FCF0092A45DEE414C19BDC21783E4BD39D891265658C3D8DEA00A3ACE59CBC8678ACB54CB26EEB6BD7839D7E9348BE70AD9C8321B9BCA7F9A4A26C542347DEE0
310
50F09802D22BA6749A800A394DD62899107273365E3C82CFC6A55557BC06C10774B7ABE7AEC3B0F34CF06446280E154026D0542C187BA9DAB6628BF7B6DBB0E566B17C62EB0D63BCC976C107EF6DB9843110FC449477095CA2A2E54D1E3FC2577C449B80AC7D38FD01240228AD173AB78CFFCCA739BF6FC415F02F103F504B
310
0304140006080800AC70623BD8F6D0D5660500003B100000340000006662782F30364446464539412D343132462D344431342D413442312D4630364534343133343431372F6F626A656374732E786D6CAD575B8F9B3814FE2B887D064292B964C5504D92491555D3568D5AEDC348910187610730B2CD4C667FFD7E06438024
310
6DF6928780CDF1B97EE762EFC33E4B8D57CA45C2F23BD3B547A641F39045491EDF99A5DC59B7A6F1C1F73863B243661A39C9E89DA9B64DDF8B392B0BBD15D11D295339D85DCDFF304448736A1A614A84B83345F84C33629352B2888A173B2292D8F16E6FBB764DD8671B73523C0F981684D35C4253ECE7E062D44AB9FDE5C8
310
747CCF51DF7D4FFD6BAAC9792AA7B2A72F3FC985247978246CC066E24E970FE3AB9975359D4EACE9F5D8B5E6ABF9D2726F26A3C5F56231BB7F9841B0901C9CB4269CEE4CFF237CC393D073EA4FADC65AF1532A852CCF6958D90F0B2B9D35C78816348F10C7840A48EB583DEA2F5DE59BCEE7895A6B91DDEDCBACEA9EE8306A
310
746F9E5D4D59F0274C1097A0820BAA5055FB471B5AE36F74F05AC058AABF25C2C888A43C21A991260127FCDDF441AA487CAFC746A1932B842B0B4CDF3DF0EBEA8AD4F835764F69B92BD35441D3F42B646F817F2A45A559F217E5A7A54127C4AA4C7279AB0D92EF0535FD99E7549BBEA71E93B1FE583BD2D8A52446C86166FD
310
7560E842E5DE7A69FA9F56C17EA3F2F1B4F082B38272A9E0036835816B9ECA4B5AAC7B51E4D40118D3F3F9C129DFE0F9CF48DF832A881B4FF6D3FD544B919CE462C77886D8D8A3EA678C9A17AB7D3B7E413D1B501FD3B43BFF8AD8735A65FB05E35CFC002E159ADBFF1EBFBECFBA48ED84CFF75E91608C4FB42B372149517A
310
1E931C0151A03452862DD4F25DB037FD352A252A3B4E91D46F1D72F4E239AFF88EFF9A37AA5525BEF3CC11D041BDBDA0F2C397555A40B7336039AA9395606DDC399F5FFD2F3973BFDC7CDA947C4742FAA80BCB92EE923C91E89D07F07615EA05A267D10B7D7F633C82A1C741D8748390695102DE563E578E8F9B66A11607C9
310
3D0121CEC54CD53CEF17121E1311D2342539656523A56D430AAB6D91D17302B2B076E8643C4031A7AF899A247A143DB5D0EB439E14CA656DD36BEBB47DC696EFEBCF0025E8531690F440141CAA7DC852C6B7C1FBB62E8426B087237D70FFE8A35B3BD4515C00F80ACA4DC5D11EDE46C96E570A94DD134EFCB15E7403D5D691
310
E397267F1A89754A4E519C917A846BF43632310F7082BECEF26D822E8EAC3C29BC2B7B2840547CCFF00FCAACD8928C95B9BCC44DA3C69E46FB96797788116F4486CFA6BFA99ED61C153BA2D121543D10A80E74C2A65E786E1E265757A3F1D472EFE72B6B7AB39A59B3EBEB076B3576AF66ABF9C3EDF87EDE6A5469E27B4D83
310
EAA620BC8986E8953CD16EFEBE3E64ADE93F12299C8F753E3971FDFCBEB631157B0ECE00DFEDC17556A434A3B9240ABD8FEA25FD463054F478D4FBEB8CC4F4022E5F3E6E063A60E782735F55A6D1B7C159BDBB50B97092897C2EB32027493A38A80DB78B3CD66637AE6C9F75416F966AA5FD893154B03489506F2223A62CA3
310
1255E78262CF332A8098EE501EE9CBC305A75FEB71509220A58D26CF0413712A806AC0AD0C657FDFF80D139C1AA2EE4CF43AFB057F3A114D03A1BE3351DE6412526107E88E6AEEA998030218C2DA1A08A8913C4E3158D787DA757B4AF906E5070D50CB6F492E1996B45DBDBA9B91A240D3EE55D54A372D20FC478637EA1844
310
E23528656BCB61A335A61283CCAA8DD257034C102F5AF41EF9F573B35CBBA2E979E4A26BD24F415073B524E171752D50FA6995EE975F1D4C02C6FA8B51A4658C585ECEC9E214602E558203454085E6591009A82E7E7FFACA19AEA299B14A0081A705CB3296EBC5BDBECA1A9B675C4CA3279405AA6E1F623C72DDA76AE8D7F7
310
906D4004B549245EB0D1249CB260803500F2A89BEA10382A0603F2F5D2D00D630AA615688F66D2FA166E2079D4C551A54AB758163F9DFB9D8A1460E098D8FDBF01504B0304140006080000AC70623B000000000000000000000000350000006662782F30364446464539412D343132462D344431342D413442312D46303645
310
34343133343431372F76657274696365732E62696E504B0304140006080800AC70623BF270F1330600000004000000360000006662782F30364446464539412D343132462D344431342D413442312D4630364534343133343431372F747269616E676C65732E62696E636660600000504B0304140006080000AC70623B0000
310
00000000000000000000370000006662782F30364446464539412D343132462D344431342D413442312D4630364534343133343431372F617474726962757465732E62696E504B0304140006080800AC70623B08DA0BD19000000041010000360000006662782F30364446464539412D343132462D344431342D413442312D
310
4630364534343133343431372F6469726563746F72792E786D6C858F410AC3201045AF22B36F53E9A60B35CBEEBAE80D244E44489C6234F4F835464A48035D0DF398FF9F8AF63D0E6CC63039F212F8F9020C7D47C6792B21C5FE7403D62A1188E2E60C98D7234A5830286103A55745067B9D86B8A3CF9C7F90C11DE607FB14
310
4396D7B6A82D282E9A152AD114D5EF2CB866EEE831B8EEA07A7BB5A8D7D61A2BAAEB7FD5F70921FF497D00504B0304140006080800AC70623BB40F7AF9FE000000A00100003B0000006662782F30364446464539412D343132462D344431342D413442312D4630364534343133343431372F7265736F75726365732F636F72
310
652E786D6C8D504B6E833010BD0A9A6D65B00950828CA3109513F4029699502BC146FE543D7E4D42A576D7CDCCE87D344F8F9FBE967BF689CE6B6B7A6039850C8DB29336730F315C490BD94970676DF82583CCC8057BD860107C7636AE3BA4AC096842428D9D7007A5F7182053F774F4E0D5072E3297312485BFE5AB543739
310
63CEF244279DE03EB814207B3ED9260887DE46A7D0F3E2C90A1EA39E768D9ED24F7DD5E8408C63736E86CB1B192F0746AAF29591A1295B72A4675A57B4ADC766E0C566163CE8E527A37228034E204A4A8F843142CB775675B4EECAFA85B61DA5BCD8E47F4C719DFE698ADA8443B9C77DDA3C0896823C08C18BADAFB41E65A6
310
BD752BBE01504B010214000A0000080000AC70623B3DEE336E79000000790000001B00000000000000000000000000000000006175746F6465736B2D64657369676E2D7061636B6167652E786D6C504B01021400140006080800AC70623BD486FD9CA0000000F40000001300000000000000000000000000B20000005B436F
310
6E74656E745F54797065735D2E786D6C504B01021400140006080800AC70623BDCE527C8EB0000007C010000080000000000000000000000000083010000636F72652E786D6C504B01021400140006080800AC70623B55019EA25F0000007C000000070000000000000000000000000094020000636E782E786D6C504B0102
310
1400140006080800AC70623BB24894EB71010000D40300000C00000000000000000000000000180300006662782F636F72652E786D6C504B01021400140006080800AC70623B3A54DFB77D0000009D0000000B00000000000000000000000000B30400006662782F636E782E786D6C504B01021400140006080800AC70623B
310
4A17098729010000120200003100000000000000000000000000590500006662782F30364446464539412D343132462D344431342D413442312D4630364534343133343431372F636F72652E786D6C504B01021400140006080800AC70623B503B51794E010000330300003000000000000000000000000000D10600006662
310
782F30364446464539412D343132462D344431342D413442312D4630364534343133343431372F636E782E786D6C504B01021400140006080800AC70623BD8F6D0D5660500003B10000034000000000000000000000000006D0800006662782F30364446464539412D343132462D344431342D413442312D46303645343431
310
33343431372F6F626A656374732E786D6C504B01021400140006080000AC70623B0000000000000000000000003500000000000000000000000000250E00006662782F30364446464539412D343132462D344431342D413442312D4630364534343133343431372F76657274696365732E62696E504B010214001400060808
310
00AC70623BF270F13306000000040000003600000000000000000000000000780E00006662782F30364446464539412D343132462D344431342D413442312D4630364534343133343431372F747269616E676C65732E62696E504B01021400140006080000AC70623B00000000000000000000000037000000000000000000
310
00000000D20E00006662782F30364446464539412D343132462D344431342D413442312D4630364534343133343431372F617474726962757465732E62696E504B01021400140006080800AC70623B08DA0BD190000000410100003600000000000000000000000000270F00006662782F30364446464539412D343132462D
310
344431342D413442312D4630364534343133343431372F6469726563746F72792E786D6C504B01021400140006080800AC70623BB40F7AF9FE000000A00100003B000000000000000000000000000B1000006662782F30364446464539412D343132462D344431342D413442312D4630364534343133343431372F7265736F
310
75726365732F636F72652E786D6C504B0506000000000E000E0080040000621100000000
  0
XRECORD
  5
10E
102
{ACAD_REACTORS
330
10B
102
}
330
10B
100
AcDbXrecord
280
     1
270
     1
271
     1
  0
XRECORD
  5
10F
102
{ACAD_REACTORS
330
10B
102
}
330
10B
100
AcDbXrecord
280
     1
270
     1
271
     1
  0
XRECORD
  5
3EC
102
{ACAD_REACTORS
330
3EB
102
}
330
3EB
100
AcDbXrecord
280
     1
102
DISPLAYNAME
  1
Imperial24
102
FLAGS
 90
        0
  0
CELLSTYLEMAP
  5
3E1
102
{ACAD_REACTORS
330
FF
102
}
330
FF
100
AcDbCellStyleMap
 90
        3
300
CELLSTYLE
  1
TABLEFORMAT_BEGIN
 90
        5
170
     1
 91
        0
 92
    32768
 62
   257
 93
        1
300
CONTENTFORMAT
  1
CONTENTFORMAT_BEGIN
 90
        0
 91
        0
 92
      512
 93
        0
300

 40
0.0
140
1.0
 94
        5
 62
     0
340
11
144
0.25
309
CONTENTFORMAT_END
171
     1
301
MARGIN
  1
CELLMARGIN_BEGIN
 40
0.06
 40
0.06
 40
0.06
 40
0.06
 40
0.18
 40
0.18
309
CELLMARGIN_END
 94
        6
 95
        1
302
GRIDFORMAT
  1
GRIDFORMAT_BEGIN
 90
        0
 91
        1
 62
     0
 92
       -2
340
0
 93
        0
 40
0.045
309
GRIDFORMAT_END
 95
        2
302
GRIDFORMAT
  1
GRIDFORMAT_BEGIN
 90
        0
 91
        1
 62
     0
 92
       -2
340
0
 93
        0
 40
0.045
309
GRIDFORMAT_END
 95
        4
302
GRIDFORMAT
  1
GRIDFORMAT_BEGIN
 90
        0
 91
        1
 62
     0
 92
       -2
340
0
 93
        0
 40
0.045
309
GRIDFORMAT_END
 95
        8
302
GRIDFORMAT
  1
GRIDFORMAT_BEGIN
 90
        0
 91
        1
 62
     0
 92
       -2
340
0
 93
        0
 40
0.045
309
GRIDFORMAT_END
 95
       16
302
GRIDFORMAT
  1
GRIDFORMAT_BEGIN
 90
        0
 91
        1
 62
     0
 92
       -2
340
0
 93
        0
 40
0.045
309
GRIDFORMAT_END
 95
       32
302
GRIDFORMAT
  1
GRIDFORMAT_BEGIN
 90
        0
 91
        1
 62
     0
 92
       -2
340
0
 93
        0
 40
0.045
309
GRIDFORMAT_END
309
TABLEFORMAT_END
  1
CELLSTYLE_BEGIN
 90
        1
 91
        1
300
_TITLE
309
CELLSTYLE_END
300
CELLSTYLE
  1
TABLEFORMAT_BEGIN
 90
        5
170
     1
 91
        0
 92
        0
 62
   257
 93
        1
300
CONTENTFORMAT
  1
CONTENTFORMAT_BEGIN
 90
        0
 91
        0
 92
      512
 93
        0
300

 40
0.0
140
1.0
 94
        5
 62
     0
340
11
144
0.18
309
CONTENTFORMAT_END
171
     1
301
MARGIN
  1
CELLMARGIN_BEGIN
 40
0.06
 40
0.06
 40
0.06
 40
0.06
 40
0.18
 40
0.18
309
CELLMARGIN_END
 94
        6
 95
        1
302
GRIDFORMAT
  1
GRIDFORMAT_BEGIN
 90
        0
 91
        1
 62
     0
 92
       -2
340
0
 93
        0
 40
0.045
309
GRIDFORMAT_END
 95
        2
302
GRIDFORMAT
  1
GRIDFORMAT_BEGIN
 90
        0
 91
        1
 62
     0
 92
       -2
340
0
 93
        0
 40
0.045
309
GRIDFORMAT_END
 95
        4
302
GRIDFORMAT
  1
GRIDFORMAT_BEGIN
 90
        0
 91
        1
 62
     0
 92
       -2
340
0
 93
        0
 40
0.045
309
GRIDFORMAT_END
 95
        8
302
GRIDFORMAT
  1
GRIDFORMAT_BEGIN
 90
        0
 91
        1
 62
     0
 92
       -2
340
0
 93
        0
 40
0.045
309
GRIDFORMAT_END
 95
       16
302
GRIDFORMAT
  1
GRIDFORMAT_BEGIN
 90
        0
 91
        1
 62
     0
 92
       -2
340
0
 93
        0
 40
0.045
309
GRIDFORMAT_END
 95
       32
302
GRIDFORMAT
  1
GRIDFORMAT_BEGIN
 90
        0
 91
        1
 62
     0
 92
       -2
340
0
 93
        0
 40
0.045
309
GRIDFORMAT_END
309
TABLEFORMAT_END
  1
CELLSTYLE_BEGIN
 90
        2
 91
        1
300
_HEADER
309
CELLSTYLE_END
300
CELLSTYLE
  1
TABLEFORMAT_BEGIN
 90
        5
170
     1
 91
        0
 92
        0
 62
   257
 93
        1
300
CONTENTFORMAT
  1
CONTENTFORMAT_BEGIN
 90
        0
 91
        0
 92
      512
 93
        0
300

 40
0.0
140
1.0
 94
        2
 62
     0
340
11
144
0.18
309
CONTENTFORMAT_END
171
     1
301
MARGIN
  1
CELLMARGIN_BEGIN
 40
0.06
 40
0.06
 40
0.06
 40
0.06
 40
0.18
 40
0.18
309
CELLMARGIN_END
 94
        6
 95
        1
302
GRIDFORMAT
  1
GRIDFORMAT_BEGIN
 90
        0
 91
        1
 62
     0
 92
       -2
340
0
 93
        0
 40
0.045
309
GRIDFORMAT_END
 95
        2
302
GRIDFORMAT
  1
GRIDFORMAT_BEGIN
 90
        0
 91
        1
 62
     0
 92
       -2
340
0
 93
        0
 40
0.045
309
GRIDFORMAT_END
 95
        4
302
GRIDFORMAT
  1
GRIDFORMAT_BEGIN
 90
        0
 91
        1
 62
     0
 92
       -2
340
0
 93
        0
 40
0.045
309
GRIDFORMAT_END
 95
        8
302
GRIDFORMAT
  1
GRIDFORMAT_BEGIN
 90
        0
 91
        1
 62
     0
 92
       -2
340
0
 93
        0
 40
0.045
309
GRIDFORMAT_END
 95
       16
302
GRIDFORMAT
  1
GRIDFORMAT_BEGIN
 90
        0
 91
        1
 62
     0
 92
       -2
340
0
 93
        0
 40
0.045
309
GRIDFORMAT_END
 95
       32
302
GRIDFORMAT
  1
GRIDFORMAT_BEGIN
 90
        0
 91
        1
 62
     0
 92
       -2
340
0
 93
        0
 40
0.045
309
GRIDFORMAT_END
309
TABLEFORMAT_END
  1
CELLSTYLE_BEGIN
 90
        3
 91
        2
300
_DATA
309
CELLSTYLE_END
  0
ENDSEC
  0
SECTION
  2
ACDSDATA
 70
     2
 71
     8
  0
ACDSSCHEMA
 90
        0
  1
AcDb_Thumbnail_Schema
  2
AcDbDs::ID
280
    10
 91
        8
  2
Thumbnail_Data
280
    15
 91
        0
101
ACDSRECORD
 95
        0
 90
        1
  2
AcDbDs::TreatedAsObjectData
280
     1
291
     1
101
ACDSRECORD
 95
        0
 90
        2
  2
AcDbDs::Legacy
280
     1
291
     1
101
ACDSRECORD
  1
AcDbDs::ID
 90
        3
  2
AcDs:Indexable
280
     1
291
     1
101
ACDSRECORD
  1
AcDbDs::ID
 90
        4
  2
AcDbDs::HandleAttribute
280
     7
282
     1
  0
ACDSSCHEMA
 90
        1
  1
AcDbDs::TreatedAsObjectDataSchema
  2
AcDbDs::TreatedAsObjectData
280
     1
 91
        0
  0
ACDSSCHEMA
 90
        2
  1
AcDbDs::LegacySchema
  2
AcDbDs::Legacy
280
     1
 91
        0
  0
ACDSSCHEMA
 90
        3
  1
AcDbDs::IndexedPropertySchema
  2
AcDs:Indexable
280
     1
 91
        0
  0
ACDSSCHEMA
 90
        4
  1
AcDbDs::HandleAttributeSchema
  2
AcDbDs::HandleAttribute
280
     7
 91
        1
284
     1
  0
ACDSRECORD
 90
        0
  2
AcDbDs::ID
280
    10
320
22
  2
Thumbnail_Data
280
    15
 94
      896
310
89504E470D0A1A0A0000000D49484452000001000000009108030000001BE1960600000300504C5445212830FFFFFF2128300000000000000000000000000000000000000000000000000000330000660000990000CC0000FF0033000033330033660033990033CC0033FF0066000066330066660066990066CC0066FF0099
310
000099330099660099990099CC0099FF00CC0000CC3300CC6600CC9900CCCC00CCFF00FF0000FF3300FF6600FF9900FFCC00FFFF3300003300333300663300993300CC3300FF3333003333333333663333993333CC3333FF3366003366333366663366993366CC3366FF3399003399333399663399993399CC3399FF33CC00
310
33CC3333CC6633CC9933CCCC33CCFF33FF0033FF3333FF6633FF9933FFCC33FFFF6600006600336600666600996600CC6600FF6633006633336633666633996633CC6633FF6666006666336666666666996666CC6666FF6699006699336699666699996699CC6699FF66CC0066CC3366CC6666CC9966CCCC66CCFF66FF0066
310
FF3366FF6666FF9966FFCC66FFFF9900009900339900669900999900CC9900FF9933009933339933669933999933CC9933FF9966009966339966669966999966CC9966FF9999009999339999669999999999CC9999FF99CC0099CC3399CC6699CC9999CCCC99CCFF99FF0099FF3399FF6699FF9999FFCC99FFFFCC0000CC00
310
33CC0066CC0099CC00CCCC00FFCC3300CC3333CC3366CC3399CC33CCCC33FFCC6600CC6633CC6666CC6699CC66CCCC66FFCC9900CC9933CC9966CC9999CC99CCCC99FFCCCC00CCCC33CCCC66CCCC99CCCCCCCCCCFFCCFF00CCFF33CCFF66CCFF99CCFFCCCCFFFFFF0000FF0033FF0066FF0099FF00CCFF00FFFF3300FF3333
310
FF3366FF3399FF33CCFF33FFFF6600FF6633FF6666FF6699FF66CCFF66FFFF9900FF9933FF9966FF9999FF99CCFF99FFFFCC00FFCC33FFCC66FFCC99FFCCCCFFCCFFFFFF00FFFF33FFFF66FFFF99FFFFCCFFFFFF0000000D0D0D1A1A1A2828283535354343435050505D5D5D6B6B6B787878868686939393A1A1A1AEAEAEBB
310
BBBBC9C9C9D6D6D6E4E4E4F1F1F1FFFFFF0000000000000000000000000000000000000000000000000000000000002E4550F10000003B4944415478DAEDC13101000000C2A0F54F6D0B2FA0000000000000000000000000000000000000000000000000000000000000000000000000CE06919100016C9A5B1B0000000049
310
454E44AE426082
  0
ENDSEC
  0
EOF
